  0
SECTION
  2
HEADER
  9
$ACADVER
  1
AC1009
  9
$INSBASE
 10
0.0
 20
0.0
 30
0.0
  9
$EXTMIN
 10
8.9216248989969245
 20
-118.30129525964
 30
0.0
  9
$EXTMAX
 10
1055.987580067522
 20
266.51837734618772
 30
0.0
  9
$LIMMIN
 10
0.0
 20
0.0
  9
$LIMMAX
 10
420.0
 20
297.0
  9
$ORTHOMODE
 70
     0
  9
$REGENMODE
 70
     1
  9
$FILLMODE
 70
     1
  9
$QTEXTMODE
 70
     0
  9
$MIRRTEXT
 70
     0
  9
$DRAGMODE
 70
     2
  9
$LTSCALE
 40
1.0
  9
$OSMODE
 70
    37
  9
$ATTMODE
 70
     1
  9
$TEXTSIZE
 40
2.5
  9
$TRACEWID
 40
1.0
  9
$TEXTSTYLE
  7
STANDARD
  9
$CLAYER
  8
0
  9
$CELTYPE
  6
BYLAYER
  9
$CECOLOR
 62
     1
  9
$DIMSCALE
 40
1.0
  9
$DIMASZ
 40
2.5
  9
$DIMEXO
 40
0.625
  9
$DIMDLI
 40
3.75
  9
$DIMRND
 40
0.0
  9
$DIMDLE
 40
0.0
  9
$DIMEXE
 40
1.25
  9
$DIMTP
 40
0.0
  9
$DIMTM
 40
0.0
  9
$DIMTXT
 40
2.5
  9
$DIMCEN
 40
2.5
  9
$DIMTSZ
 40
0.0
  9
$DIMTOL
 70
     0
  9
$DIMLIM
 70
     0
  9
$DIMTIH
 70
     0
  9
$DIMTOH
 70
     0
  9
$DIMSE1
 70
     0
  9
$DIMSE2
 70
     0
  9
$DIMTAD
 70
     1
  9
$DIMZIN
 70
     8
  9
$DIMBLK
  1

  9
$DIMASO
 70
     1
  9
$DIMSHO
 70
     1
  9
$DIMPOST
  1

  9
$DIMAPOST
  1

  9
$DIMALT
 70
     0
  9
$DIMALTD
 70
     3
  9
$DIMALTF
 40
0.03937007874016
  9
$DIMLFAC
 40
1.0
  9
$DIMTOFL
 70
     1
  9
$DIMTVP
 40
0.0
  9
$DIMTIX
 70
     0
  9
$DIMSOXD
 70
     0
  9
$DIMSAH
 70
     0
  9
$DIMBLK1
  1

  9
$DIMBLK2
  1

  9
$DIMSTYLE
  2
ISO-25
  9
$DIMCLRD
 70
     0
  9
$DIMCLRE
 70
     0
  9
$DIMCLRT
 70
     0
  9
$DIMTFAC
 40
1.0
  9
$DIMGAP
 40
0.625
  9
$LUNITS
 70
     2
  9
$LUPREC
 70
     4
  9
$SKETCHINC
 40
1.0
  9
$FILLETRAD
 40
0.0
  9
$AUNITS
 70
     0
  9
$AUPREC
 70
     0
  9
$MENU
  1
.
  9
$ELEVATION
 40
0.0
  9
$PELEVATION
 40
0.0
  9
$THICKNESS
 40
0.0
  9
$LIMCHECK
 70
     0
  9
$BLIPMODE
 70
     0
  9
$CHAMFERA
 40
0.0
  9
$CHAMFERB
 40
0.0
  9
$SKPOLY
 70
     0
  9
$TDCREATE
 40
2456784.390511123
  9
$TDUPDATE
 40
2456803.7385180788
  9
$TDINDWG
 40
1.5280742477
  9
$TDUSRTIMER
 40
1.5280741088000001
  9
$USRTIMER
 70
     1
  9
$ANGBASE
 50
0.0
  9
$ANGDIR
 70
     0
  9
$PDMODE
 70
     0
  9
$PDSIZE
 40
0.0
  9
$PLINEWID
 40
0.0
  9
$COORDS
 70
     1
  9
$SPLFRAME
 70
     0
  9
$SPLINETYPE
 70
     6
  9
$SPLINESEGS
 70
     8
  9
$ATTDIA
 70
     0
  9
$ATTREQ
 70
     1
  9
$HANDLING
 70
     1
  9
$HANDSEED
  5
1183
  9
$SURFTAB1
 70
     6
  9
$SURFTAB2
 70
     6
  9
$SURFTYPE
 70
     6
  9
$SURFU
 70
     6
  9
$SURFV
 70
     6
  9
$UCSNAME
  2

  9
$UCSORG
 10
0.0
 20
0.0
 30
0.0
  9
$UCSXDIR
 10
1.0
 20
0.0
 30
0.0
  9
$UCSYDIR
 10
0.0
 20
1.0
 30
0.0
  9
$PUCSNAME
  2

  9
$PUCSORG
 10
0.0
 20
0.0
 30
0.0
  9
$PUCSXDIR
 10
1.0
 20
0.0
 30
0.0
  9
$PUCSYDIR
 10
0.0
 20
1.0
 30
0.0
  9
$USERI1
 70
     0
  9
$USERI2
 70
     0
  9
$USERI3
 70
     0
  9
$USERI4
 70
     0
  9
$USERI5
 70
     0
  9
$USERR1
 40
0.0
  9
$USERR2
 40
0.0
  9
$USERR3
 40
0.0
  9
$USERR4
 40
0.0
  9
$USERR5
 40
0.0
  9
$WORLDVIEW
 70
     1
  9
$SHADEDGE
 70
     3
  9
$SHADEDIF
 70
    70
  9
$TILEMODE
 70
     1
  9
$MAXACTVP
 70
    64
  9
$PLIMCHECK
 70
     0
  9
$PEXTMIN
 10
0.0
 20
0.0
 30
0.0
  9
$PEXTMAX
 10
0.0
 20
0.0
 30
0.0
  9
$PLIMMIN
 10
0.0
 20
0.0
  9
$PLIMMAX
 10
12.0
 20
9.0
  9
$UNITMODE
 70
     0
  9
$VISRETAIN
 70
     1
  9
$PLINEGEN
 70
     0
  9
$PSLTSCALE
 70
     1
  0
ENDSEC
  0
SECTION
  2
TABLES
  0
TABLE
  2
VPORT
 70
     1
  0
VPORT
  2
*ACTIVE
 70
     0
 10
0.0
 20
0.0
 11
1.0
 21
1.0
 12
209.63167273253589
 22
64.612936597193993
 13
0.0
 23
0.0
 14
10.0
 24
10.0
 15
10.0
 25
10.0
 16
0.0
 26
0.0
 36
1.0
 17
0.0
 27
0.0
 37
0.0
 40
505.75235570018179
 41
2.4881170018281531
 42
50.0
 43
0.0
 44
0.0
 50
0.0
 51
0.0
 71
     0
 72
  1000
 73
     1
 74
     3
 75
     0
 76
     1
 77
     0
 78
     0
  0
ENDTAB
  0
TABLE
  2
LTYPE
 70
     2
  0
LTYPE
  2
CONTINUOUS
 70
     0
  3
Solid line
 72
    65
 73
     0
 40
0.0
  0
LTYPE
  2
PHANTOM2
 70
     0
  3
___ _ _ ___ _ _ ___ _ _ ___ _ _
 72
    65
 73
     6
 40
1.25
 49
0.625
 49
-0.125
 49
0.125
 49
-0.125
 49
0.125
 49
-0.125
  0
ENDTAB
  0
TABLE
  2
LAYER
 70
     1
  0
LAYER
  2
0
 70
     0
 62
     7
  6
CONTINUOUS
  0
ENDTAB
  0
TABLE
  2
STYLE
 70
     3
  0
STYLE
  2
STANDARD
 70
     0
 40
0.0
 41
1.0
 50
0.0
 71
     0
 42
2.5
  3
txt
  4

  0
STYLE
  2
ANNOTATIVE
 70
     0
 40
0.0
 41
1.0
 50
0.0
 71
     0
 42
0.2
  3
txt
  4

  0
STYLE
  2
������������
 70
     0
 40
0.0
 41
1.0
 50
0.0
 71
     0
 42
2.5
  3
txt
  4

  0
ENDTAB
  0
TABLE
  2
VIEW
 70
     0
  0
ENDTAB
  0
TABLE
  2
UCS
 70
     0
  0
ENDTAB
  0
TABLE
  2
APPID
 70
     9
  0
APPID
  2
ACAD
 70
     0
  0
APPID
  2
ACADANNOTATIVE
 70
     0
  0
APPID
  2
ACAD_PSEXT
 70
     0
  0
APPID
  2
ACADANNOPO
 70
     0
  0
APPID
  2
ACAD_DSTYLE_DIMJAG
 70
     0
  0
APPID
  2
ACAD_DSTYLE_DIMTALN
 70
     0
  0
APPID
  2
ACAD_MLEADERVER
 70
     0
  0
APPID
  2
ACAD_NAV_VCDISPLAY
 70
     0
  0
APPID
  2
ACAD_EXEMPT_FROM_CAD_STANDARDS
 70
     0
  0
ENDTAB
  0
TABLE
  2
DIMSTYLE
 70
     4
  0
DIMSTYLE
  2
STANDARD
 70
     0
  3

  4

  5

  6

  7

 40
1.0
 41
0.18
 42
0.0625
 43
0.38
 44
0.18
 45
0.0
 46
0.0
 47
0.0
 48
0.0
140
0.18
141
0.09
142
0.0
143
25.399999999999999
144
1.0
145
0.0
146
1.0
147
0.09
 71
     0
 72
     0
 73
     1
 74
     1
 75
     0
 76
     0
 77
     0
 78
     0
170
     0
171
     2
172
     0
173
     0
174
     0
175
     0
176
     0
177
     0
178
     0
  0
DIMSTYLE
  2
ANNOTATIVE
 70
     0
  3

  4

  5

  6

  7

 40
1.0
 41
0.18
 42
0.0625
 43
0.38
 44
0.18
 45
0.0
 46
0.0
 47
0.0
 48
0.0
140
0.18
141
0.09
142
0.0
143
25.399999999999999
144
1.0
145
0.0
146
1.0
147
0.09
 71
     0
 72
     0
 73
     1
 74
     1
 75
     0
 76
     0
 77
     0
 78
     0
170
     0
171
     2
172
     0
173
     0
174
     0
175
     0
176
     0
177
     0
178
     0
  0
DIMSTYLE
  2
������������
 70
     0
  3

  4

  5

  6

  7

 40
0.0
 41
2.5
 42
0.625
 43
3.75
 44
1.25
 45
0.0
 46
0.0
 47
0.0
 48
0.0
140
2.5
141
2.5
142
0.0
143
0.03937007874016
144
1.0
145
0.0
146
1.0
147
0.625
 71
     0
 72
     0
 73
     0
 74
     0
 75
     0
 76
     0
 77
     1
 78
     8
170
     0
171
     3
172
     1
173
     0
174
     0
175
     0
176
     0
177
     0
178
     0
  0
DIMSTYLE
  2
ISO-25
 70
     0
  3

  4

  5

  6

  7

 40
1.0
 41
2.5
 42
0.625
 43
3.75
 44
1.25
 45
0.0
 46
0.0
 47
0.0
 48
0.0
140
2.5
141
2.5
142
0.0
143
0.03937007874016
144
1.0
145
0.0
146
1.0
147
0.625
 71
     0
 72
     0
 73
     0
 74
     0
 75
     0
 76
     0
 77
     1
 78
     8
170
     0
171
     3
172
     1
173
     0
174
     0
175
     0
176
     0
177
     0
178
     0
  0
ENDTAB
  0
ENDSEC
  0
SECTION
  2
BLOCKS
  0
BLOCK
  8
0
  2
$MODEL_SPACE
 70
     0
 10
0.0
 20
0.0
 30
0.0
  3
$MODEL_SPACE
  1

  0
ENDBLK
  5
111E
  8
0
  0
BLOCK
 67
     1
  8
0
  2
$PAPER_SPACE
 70
     0
 10
0.0
 20
0.0
 30
0.0
  3
$PAPER_SPACE
  1

  0
ENDBLK
  5
111A
 67
     1
  8
0
  0
ENDSEC
  0
SECTION
  2
ENTITIES
  0
ARC
  5
CDA
  8
0
 62
     3
 10
23.737099323402269
 20
151.29407411730969
 30
0.0
 40
3.3255440018358411
 50
179.5796849221687
 51
292.99917956697089
  0
ARC
  5
CDB
  8
0
 62
     3
 10
21.321680185386871
 20
154.72205655124969
 30
0.0
 40
7.477230130466058
 50
299.789229184313
 51
27.675313176189199
  0
LINE
  5
CDC
  8
0
 62
     3
 10
27.943469042159339
 20
158.1949347178824
 30
0.0
 11
24.023396790407219
 21
166.12931799883279
 31
0.0
  0
ARC
  5
CDD
  8
0
 62
     3
 10
37.940216371401107
 20
178.02765446645381
 30
0.0
 40
18.309786398170989
 50
185.23875991568781
 51
220.52914801188371
  0
ARC
  5
CDE
  8
0
 62
     3
 10
3.2793114650959292
 20
157.85651865424731
 30
0.0
 40
18.33747337523755
 50
339.11212228779192
 51
20.498415388482218
  0
ARC
  5
CDF
  8
0
 62
     3
 10
37.715860571575377
 20
171.41017658068449
 30
0.0
 40
18.675704997186411
 50
164.64380774734789
 51
202.4512989607251
  0
ARC
  5
CE0
  8
0
 62
     3
 10
25.411884560176421
 20
150.56462939750639
 30
0.0
 40
12.8268501665522
 50
243.392609200012
 51
350.7584825788943
  0
ARC
  5
CE1
  8
0
 62
     3
 10
23.811632532248488
 20
151.35486141915271
 30
0.0
 40
14.542646321886879
 50
348.69757720982568
 51
40.007853663034759
  0
LINE
  5
CE2
  8
0
 62
     3
 10
34.950664501984882
 20
160.70422122721899
 30
0.0
 11
29.256976359997001
 21
169.6710028326242
 31
0.0
  0
ARC
  5
CE3
  8
0
 62
     3
 10
39.723440520052009
 20
178.11475650563531
 30
0.0
 40
13.44781945536907
 50
218.8946342306763
 51
55.727684193143268
  0
ARC
  5
CE4
  8
0
 62
     3
 10
49.31080841767141
 20
194.1729413636443
 30
0.0
 40
5.3398877338050728
 50
247.8357749487491
 51
64.491118313070444
  0
ARC
  5
CE5
  8
0
 62
     3
 10
46.597341421740559
 20
199.39839376877219
 30
0.0
 40
5.0295171456372731
 50
289.50532602941831
 51
355.36865182407359
  0
ARC
  5
CE6
  8
0
 62
     3
 10
48.108345483896301
 20
198.75024399495121
 30
0.0
 40
4.0961856008271269
 50
148.62652758813741
 51
272.35511032550721
  0
ARC
  5
CE7
  8
0
 62
     3
 10
25.560645515055281
 20
242.89037000044581
 30
0.0
 40
46.125437330411351
 50
294.39425396447552
 51
352.7570813414099
  0
ARC
  5
CE8
  8
0
 62
     3
 10
71.81894758261069
 20
235.80932042696469
 30
0.0
 40
10.29080372947614
 50
339.1362849174576
 51
86.686174064480809
  0
ARC
  5
CE9
  8
0
 62
     3
 10
83.010841114492678
 20
237.9327385159844
 30
0.0
 40
13.36871509812465
 50
35.426178340560242
 51
142.436117954417
  0
ARC
  5
CEA
  8
0
 62
     3
 10
42.832189090553129
 20
179.19226323239761
 30
0.0
 40
3.1602849678735709
 50
27.418999958228991
 51
202.3422839235522
  0
ARC
  5
CEB
  8
0
 62
     3
 10
40.543998229032461
 20
177.35910699747041
 30
0.0
 40
6.0627726220082403
 50
288.25596691382759
 51
32.847180298522247
  0
ARC
  5
CEC
  8
0
 62
     3
 10
39.353843567165661
 20
182.87495228743771
 30
0.0
 40
11.68910623081848
 50
209.3467041176074
 51
285.32518220662598
  0
ARC
  5
CED
  8
0
 62
     3
 10
39.722396489586799
 20
181.66291906598451
 30
0.0
 40
11.48318733667832
 50
128.0515105450678
 51
203.16205413649271
  0
LINE
  5
CEE
  8
0
 62
     3
 10
32.644508092982619
 20
190.70543460395621
 30
0.0
 11
39.262732208748162
 21
196.4352385542802
 31
0.0
  0
ARC
  5
CEF
  8
0
 62
     3
 10
37.419991651340979
 20
181.56136095215459
 30
0.0
 40
4.3524680555216282
 50
186.84805380185159
 51
304.88251029664411
  0
ARC
  5
CF0
  8
0
 62
     3
 10
40.852463247369421
 20
183.11057295239789
 30
0.0
 40
8.0249723027384192
 50
82.160555272502634
 51
194.93474527308589
  0
ARC
  5
CF1
  8
0
 62
     3
 10
45.924886514970801
 20
196.40489179886021
 30
0.0
 40
6.662223422063219
 50
179.73901400339679
 51
233.3394202058636
  0
LINE
  5
CF2
  8
0
 62
     3
 10
19.272573504655949
 20
185.00724502620039
 30
0.0
 11
19.272573504655949
 21
206.15968895061721
 31
0.0
  0
LINE
  5
CF3
  8
0
 62
     3
 10
19.272573504655949
 20
213.58672440883629
 30
0.0
 11
19.272573504655949
 21
227.4148147722585
 31
0.0
  0
LINE
  5
CF4
  8
0
 62
     3
 10
19.272573504655949
 20
240.56736131783279
 30
0.0
 11
19.272573504655949
 21
247.36515042873501
 31
0.0
  0
LINE
  5
CF5
  8
0
 62
     3
 10
19.272573504655949
 20
247.36515042873501
 30
0.0
 11
27.255869752634801
 21
247.36515042873501
 31
0.0
  0
ARC
  5
CF6
  8
0
 62
     3
 10
42.859832550298052
 20
176.8589830419933
 30
0.0
 40
24.955018786799069
 50
114.05827093378829
 51
160.94243409121449
  0
ARC
  5
CF7
  8
0
 62
     3
 10
29.3551118301591
 20
209.85460027540009
 30
0.0
 40
10.738247006995181
 50
200.1261871952467
 51
288.07361659388641
  0
ARC
  5
CF8
  8
0
 62
     3
 10
28.515909775430721
 20
209.22889984249741
 30
0.0
 40
10.21909488974468
 50
99.108197200408583
 51
154.75819398548319
  0
ARC
  5
CF9
  8
0
 62
     3
 10
29.67228182644817
 20
229.5714429676309
 30
0.0
 40
10.620968804748021
 50
191.71559468251749
 51
254.85955542004939
  0
ARC
  5
CFA
  8
0
 62
     3
 10
35.376203406161608
 20
229.47695563343439
 30
0.0
 40
4.0763164834658721
 50
40.278369271278869
 51
171.54001430536951
  0
ARC
  5
CFB
  8
0
 62
     3
 10
35.818952719308527
 20
235.17633950649449
 30
0.0
 40
6.7845257290386449
 50
112.74569895595521
 51
228.7346979594472
  0
ARC
  5
CFC
  8
0
 62
     3
 10
33.297456261925511
 20
232.22375287036579
 30
0.0
 40
9.2100411335478398
 50
90.632592325734976
 51
209.55135645041781
  0
ARC
  5
CFD
  8
0
 62
     3
 10
32.17477498316498
 20
231.53276642899709
 30
0.0
 40
7.8927503414800722
 50
209.207347966187
 51
326.5077743970528
  0
ARC
  5
CFE
  8
0
 62
     3
 10
35.023097101082051
 20
229.44726484761119
 30
0.0
 40
4.3697418602059299
 50
328.70396298527942
 51
37.581134186575312
  0
ARC
  5
CFF
  8
0
 62
     3
 10
29.163287585102811
 20
237.0384164907359
 30
0.0
 40
10.50141307700267
 50
100.4649733013061
 51
160.36391827664809
  0
ARC
  5
D00
  8
0
 62
     3
 10
30.428847161167479
 20
209.6428716328605
 30
0.0
 40
4.6780477169821948
 50
0.4963308767462836
 51
141.6546664096731
  0
ARC
  5
D01
  8
0
 62
     3
 10
31.43998448982973
 20
209.37983314203211
 30
0.0
 40
5.6499651993989204
 50
145.92807180585501
 51
271.28169418112441
  0
ARC
  5
D02
  8
0
 62
     3
 10
29.122100353567699
 20
226.97383369187759
 30
0.0
 40
23.370722034122299
 50
276.0033437680147
 51
344.4790148743034
  0
ARC
  5
D03
  8
0
 62
     3
 10
35.945685842486107
 20
225.93500472010189
 30
0.0
 40
16.538583020320981
 50
341.61976900090121
 51
81.94883251180849
  0
ARC
  5
D04
  8
0
 62
     3
 10
33.442279228018613
 20
230.08568457524831
 30
0.0
 40
13.14069887725219
 50
336.79189891098258
 51
68.482775954941246
  0
ARC
  5
D05
  8
0
 62
     3
 10
35.231665863853891
 20
228.7491967863001
 30
0.0
 40
10.981907670896319
 50
271.78834024403102
 51
339.52257493519818
  0
ARC
  5
D06
  8
0
 62
     3
 10
32.697694840198778
 20
213.88080788080109
 30
0.0
 40
4.8395942156436771
 50
299.85284269694853
 51
53.529649631370567
  0
LINE
  5
D07
  8
0
 62
     3
 10
11.74267757539292
 20
132.58221066706341
 30
0.0
 11
11.74267757539292
 21
255.52005878386669
 31
0.0
  0
LINE
  5
D08
  8
0
 62
     3
 10
11.74267757539292
 20
255.52005878386669
 30
0.0
 11
34.583825610268271
 21
255.52005878386669
 31
0.0
  0
LINE
  5
D09
  8
0
 62
     3
 10
52.154891189415707
 20
255.52005878386669
 30
0.0
 11
78.715520494476323
 21
255.52005878386669
 31
0.0
  0
LINE
  5
D0A
  8
0
 62
     3
 10
87.255110495066106
 20
255.52005878386669
 30
0.0
 11
112.1246262316342
 21
255.52005878386669
 31
0.0
  0
LINE
  5
D0B
  8
0
 62
     3
 10
19.66706642421423
 20
139.09618792623809
 30
0.0
 11
19.66706642421423
 21
132.58221066706341
 31
0.0
  0
ARC
  5
D0C
  8
0
 62
     3
 10
36.770641954672222
 20
227.16720696729229
 30
0.0
 40
20.89271211503533
 50
332.07066785498091
 51
76.635965798899889
  0
LINE
  5
D0D
  8
0
 62
     3
 10
41.599725464787291
 20
247.49416866780419
 30
0.0
 11
65.346230723690496
 21
247.49416866780419
 31
0.0
  0
ARC
  5
D0E
  8
0
 62
     3
 10
30.843364962370181
 20
242.32970945738879
 30
0.0
 40
34.887238134878409
 50
314.34763511720189
 51
8.5129476942006796
  0
ARC
  5
D0F
  8
0
 62
     3
 10
80.15936833949263
 20
242.37137149151889
 30
0.0
 40
10.306329180290049
 50
210.92335075437919
 51
277.10974567948398
  0
ARC
  5
D10
  8
0
 62
     3
 10
100.2424491026994
 20
255.73496525918489
 30
0.0
 40
11.884120418294071
 50
237.77053701349291
 51
358.96383537115793
  0
LINE
  5
D11
  8
0
 62
     3
 10
34.583825610267809
 20
263.52005878386672
 30
0.0
 11
34.583825610268271
 21
255.52005878386669
 31
0.0
  0
LINE
  5
D12
  8
0
 62
     3
 10
52.154891189415707
 20
263.52005878386672
 30
0.0
 11
52.154891189415707
 21
255.52005878386669
 31
0.0
  0
ARC
  5
D13
  8
0
 62
     3
 10
23.737099323402269
 20
113.87034721681719
 30
0.0
 40
3.3255440018358411
 50
67.000820433029133
 51
180.4203150778313
  0
ARC
  5
D14
  8
0
 62
     3
 10
21.321680185386871
 20
110.44236478287711
 30
0.0
 40
7.477230130466058
 50
332.32468682381079
 51
60.210770815694246
  0
LINE
  5
D15
  8
0
 62
     3
 10
27.943469042159339
 20
106.9694866162444
 30
0.0
 11
24.023396790407219
 21
99.035103335293996
 31
0.0
  0
ARC
  5
D16
  8
0
 62
     3
 10
37.940216371401107
 20
87.136766867673018
 30
0.0
 40
18.309786398170989
 50
139.47085198811621
 51
174.76124008431211
  0
ARC
  5
D17
  8
0
 62
     3
 10
3.2793114650959292
 20
107.3079026798795
 30
0.0
 40
18.33747337523755
 50
339.50158461151779
 51
20.887877712208059
  0
ARC
  5
D18
  8
0
 62
     3
 10
37.715860571575377
 20
93.754244753442407
 30
0.0
 40
18.675704997186411
 50
157.54870103927479
 51
195.35619225265199
  0
ARC
  5
D19
  8
0
 62
     3
 10
25.411884560176421
 20
114.59979193662041
 30
0.0
 40
12.8268501665522
 50
9.241517421105744
 51
116.607390799988
  0
ARC
  5
D1A
  8
0
 62
     3
 10
23.811632532248488
 20
113.8095599149742
 30
0.0
 40
14.542646321886879
 50
319.99214633696522
 51
11.302422790173461
  0
LINE
  5
D1B
  8
0
 62
     3
 10
34.950664501984882
 20
104.46020010690791
 30
0.0
 11
29.256976359997001
 21
95.493418501502646
 31
0.0
  0
ARC
  5
D1C
  8
0
 62
     3
 10
39.723440520052009
 20
87.049664828491558
 30
0.0
 40
13.44781945536907
 50
304.2723158068568
 51
141.10536576932361
  0
ARC
  5
D1D
  8
0
 62
     3
 10
49.31080841767141
 20
70.991479970482473
 30
0.0
 40
5.3398877338050728
 50
295.50888168692961
 51
112.1642250512508
  0
ARC
  5
D1E
  8
0
 62
     3
 10
46.597341421740559
 20
65.766027565354747
 30
0.0
 40
5.0295171456372731
 50
4.6313481759264779
 51
70.494673970574723
  0
ARC
  5
D1F
  8
0
 62
     3
 10
48.108345483896301
 20
66.41417733917568
 30
0.0
 40
4.0961856008271269
 50
87.644889674492717
 51
211.37347241186251
  0
ARC
  5
D20
  8
0
 62
     3
 10
25.560645515055281
 20
22.274051333681069
 30
0.0
 40
46.125437330411351
 50
7.242918658590094
 51
65.605746035524476
  0
ARC
  5
D21
  8
0
 62
     3
 10
71.81894758261069
 20
29.355100907162171
 30
0.0
 40
10.29080372947614
 50
273.31382593551922
 51
20.863715082542381
  0
ARC
  5
D22
  8
0
 62
     3
 10
83.010841114492678
 20
27.23168281814241
 30
0.0
 40
13.36871509812465
 50
217.563882045583
 51
324.57382165943977
  0
ARC
  5
D23
  8
0
 62
     3
 10
42.832189090553129
 20
85.972158101729278
 30
0.0
 40
3.1602849678735709
 50
157.6577160764478
 51
332.58100004177101
  0
ARC
  5
D24
  8
0
 62
     3
 10
40.543998229032461
 20
87.805314336656451
 30
0.0
 40
6.0627726220082403
 50
327.15281970147771
 51
71.744033086172394
  0
ARC
  5
D25
  8
0
 62
     3
 10
39.353843567165661
 20
82.289469046689177
 30
0.0
 40
11.68910623081848
 50
74.674817793374004
 51
150.65329588239251
  0
ARC
  5
D26
  8
0
 62
     3
 10
39.722396489586799
 20
83.501502268142275
 30
0.0
 40
11.48318733667832
 50
156.83794586350729
 51
231.9484894549322
  0
LINE
  5
D27
  8
0
 62
     3
 10
32.644508092982619
 20
74.458986730170622
 30
0.0
 11
39.262732208748162
 21
68.72918277984671
 31
0.0
  0
ARC
  5
D28
  8
0
 62
     3
 10
37.419991651340979
 20
83.603060381972199
 30
0.0
 40
4.3524680555216282
 50
55.11748970335595
 51
173.15194619814829
  0
ARC
  5
D29
  8
0
 62
     3
 10
40.852463247369421
 20
82.053848381729026
 30
0.0
 40
8.0249723027384192
 50
165.0652547269132
 51
277.83944472749732
  0
ARC
  5
D2A
  8
0
 62
     3
 10
45.924886514970801
 20
68.759529535266651
 30
0.0
 40
6.662223422063219
 50
126.6605797941364
 51
180.26098599660321
  0
LINE
  5
D2B
  8
0
 62
     3
 10
19.272573504655949
 20
80.157176307926406
 30
0.0
 11
19.272573504655949
 21
59.004732383509683
 31
0.0
  0
LINE
  5
D2C
  8
0
 62
     3
 10
19.272573504655949
 20
51.577696925290617
 30
0.0
 11
19.272573504655949
 21
37.74960656186839
 31
0.0
  0
LINE
  5
D2D
  8
0
 62
     3
 10
19.272573504655949
 20
24.597060016294101
 30
0.0
 11
19.272573504655949
 21
17.799270905391928
 31
0.0
  0
LINE
  5
D2E
  8
0
 62
     3
 10
19.272573504655949
 20
17.799270905391928
 30
0.0
 11
27.255869752634801
 21
17.799270905391928
 31
0.0
  0
ARC
  5
D2F
  8
0
 62
     3
 10
42.859832550298052
 20
88.305438292133644
 30
0.0
 40
24.955018786799069
 50
199.05756590878539
 51
245.94172906621159
  0
ARC
  5
D30
  8
0
 62
     3
 10
29.3551118301591
 20
55.309821058726797
 30
0.0
 40
10.738247006995181
 50
71.926383406113644
 51
159.8738128047533
  0
ARC
  5
D31
  8
0
 62
     3
 10
28.515909775430721
 20
55.935521491629501
 30
0.0
 40
10.21909488974468
 50
205.2418060145167
 51
260.8918027995914
  0
ARC
  5
D32
  8
0
 62
     3
 10
29.67228182644817
 20
35.592978366496013
 30
0.0
 40
10.620968804748021
 50
105.1404445799506
 51
168.2844053174824
  0
ARC
  5
D33
  8
0
 62
     3
 10
35.376203406161608
 20
35.687465700692421
 30
0.0
 40
4.0763164834658721
 50
188.4599856946304
 51
319.7216307287211
  0
ARC
  5
D34
  8
0
 62
     3
 10
35.818952719308527
 20
29.98808182763241
 30
0.0
 40
6.7845257290386449
 50
131.2653020405528
 51
247.2543010440379
  0
ARC
  5
D35
  8
0
 62
     3
 10
33.297456261925511
 20
32.940668463761071
 30
0.0
 40
9.2100411335478398
 50
150.44864354958219
 51
269.367407674265
  0
ARC
  5
D36
  8
0
 62
     3
 10
32.17477498316498
 20
33.631654905129828
 30
0.0
 40
7.8927503414800722
 50
33.492225602947236
 51
150.792652033813
  0
ARC
  5
D37
  8
0
 62
     3
 10
35.023097101082051
 20
35.717156486515691
 30
0.0
 40
4.3697418602059299
 50
322.4188658134247
 51
31.296037014720572
  0
ARC
  5
D38
  8
0
 62
     3
 10
29.163287585102811
 20
28.126004843391001
 30
0.0
 40
10.50141307700267
 50
199.63608172335191
 51
259.53502669869391
  0
ARC
  5
D39
  8
0
 62
     3
 10
30.428847161167479
 20
55.521549701266387
 30
0.0
 40
4.6780477169821948
 50
218.3453335903269
 51
359.5036691232537
  0
ARC
  5
D3A
  8
0
 62
     3
 10
31.43998448982973
 20
55.784588192094802
 30
0.0
 40
5.6499651993989204
 50
88.718305818875635
 51
214.07192819414499
  0
ARC
  5
D3B
  8
0
 62
     3
 10
29.122100353567699
 20
38.19058764224927
 30
0.0
 40
23.370722034122299
 50
15.520985125696569
 51
83.996656231985284
  0
ARC
  5
D3C
  8
0
 62
     3
 10
35.945685842486107
 20
39.229416614024998
 30
0.0
 40
16.538583020320981
 50
278.05116748819148
 51
18.380230999097979
  0
ARC
  5
D3D
  8
0
 62
     3
 10
33.442279228018613
 20
35.078736758878669
 30
0.0
 40
13.14069887725219
 50
291.5172240450587
 51
23.20810108901733
  0
ARC
  5
D3E
  8
0
 62
     3
 10
35.231665863853891
 20
36.415224547826703
 30
0.0
 40
10.981907670896319
 50
20.47742506480181
 51
88.211659755969052
  0
ARC
  5
D3F
  8
0
 62
     3
 10
32.697694840198778
 20
51.283613453325849
 30
0.0
 40
4.8395942156436771
 50
306.4703503686294
 51
60.147157303051557
  0
LINE
  5
D40
  8
0
 62
     3
 10
11.74267757539292
 20
132.58221066706341
 30
0.0
 11
11.74267757539292
 21
9.6443625502601833
 31
0.0
  0
LINE
  5
D41
  8
0
 62
     3
 10
11.74267757539292
 20
9.6443625502601833
 30
0.0
 11
34.583825610268271
 21
9.6443625502601833
 31
0.0
  0
LINE
  5
D42
  8
0
 62
     3
 10
52.154891189415707
 20
9.6443625502601833
 30
0.0
 11
78.715520494476323
 21
9.6443625502601833
 31
0.0
  0
LINE
  5
D43
  8
0
 62
     3
 10
87.255110495066106
 20
9.6443625502601833
 30
0.0
 11
112.1246262316342
 21
9.6443625502601833
 31
0.0
  0
LINE
  5
D44
  8
0
 62
     3
 10
19.66706642421423
 20
126.0682334078888
 30
0.0
 11
19.66706642421423
 21
132.58221066706341
 31
0.0
  0
ARC
  5
D45
  8
0
 62
     3
 10
36.770641954672222
 20
37.997214366834648
 30
0.0
 40
20.89271211503533
 50
283.36403420110008
 51
27.929332145019121
  0
LINE
  5
D46
  8
0
 62
     3
 10
41.599725464787291
 20
17.670252666322749
 30
0.0
 11
65.346230723690496
 21
17.670252666322749
 31
0.0
  0
ARC
  5
D47
  8
0
 62
     3
 10
30.843364962370181
 20
22.83471187673808
 30
0.0
 40
34.887238134878409
 50
351.48705230579287
 51
45.652364882798118
  0
ARC
  5
D48
  8
0
 62
     3
 10
80.15936833949263
 20
22.79304984260806
 30
0.0
 40
10.306329180290049
 50
82.890254320515979
 51
149.07664924562081
  0
ARC
  5
D49
  8
0
 62
     3
 10
100.2424491026994
 20
9.4294560749419674
 30
0.0
 40
11.884120418294071
 50
1.036164628835583
 51
122.229462986507
  0
LINE
  5
D4A
  8
0
 62
     3
 10
87.255110495066106
 20
5.6443625502601833
 30
0.0
 11
78.715520494476323
 21
5.6443625502601833
 31
0.0
  0
LINE
  5
D4B
  8
0
 62
     3
 10
52.154891189415707
 20
5.6443625502601833
 30
0.0
 11
34.583825610267809
 21
5.6443625502601833
 31
0.0
  0
LINE
  5
D4C
  8
0
 62
     3
 10
34.583825610267809
 20
5.6443625502601833
 30
0.0
 11
34.583825610268271
 21
9.6443625502601833
 31
0.0
  0
LINE
  5
D4D
  8
0
 62
     3
 10
52.154891189415707
 20
5.6443625502601833
 30
0.0
 11
52.154891189415707
 21
9.6443625502601833
 31
0.0
  0
LINE
  5
D4E
  8
0
 62
     3
 10
78.715520494476323
 20
5.6443625502601833
 30
0.0
 11
78.715520494476323
 21
9.6443625502601833
 31
0.0
  0
LINE
  5
D4F
  8
0
 62
     3
 10
87.255110495066106
 20
5.6443625502601833
 30
0.0
 11
87.255110495066106
 21
9.6443625502601833
 31
0.0
  0
LINE
  5
D50
  8
0
 62
     3
 10
34.583825610267809
 20
263.52005878386672
 30
0.0
 11
52.154891189415707
 21
263.52005878386672
 31
0.0
  0
LINE
  5
D51
  8
0
 62
     3
 10
78.715520494476323
 20
255.52005878386669
 30
0.0
 11
78.715520494476323
 21
263.52005878386672
 31
0.0
  0
LINE
  5
D52
  8
0
 62
     3
 10
87.255110495066106
 20
255.52005878386669
 30
0.0
 11
87.255110495066106
 21
263.52005878386672
 31
0.0
  0
LINE
  5
D53
  8
0
 62
     3
 10
87.255110495066106
 20
263.52005878386672
 30
0.0
 11
78.715520494476323
 21
263.52005878386672
 31
0.0
  0
ARC
  5
D54
  8
0
 62
     2
 10
84.150609466854704
 20
83.656565098441874
 30
0.0
 40
44.334383643901553
 50
280.72779690792868
 51
347.70049372756398
  0
ARC
  5
D55
  8
0
 62
     2
 10
127.96832503334529
 20
72.946645327063592
 30
0.0
 40
10.290803729476171
 50
339.1362849174576
 51
28.590600461072199
  0
ARC
  5
D56
  8
0
 62
     2
 10
138.76738367939771
 20
52.045525499441943
 30
0.0
 40
25.88587409992763
 50
4.8641175119305622
 51
93.905468475637804
  0
ARC
  5
D57
  8
0
 62
     2
 10
81.041765282007191
 20
121.7928648039271
 30
0.0
 40
82.482061765138724
 50
266.09319550119591
 51
277.91731084226871
  0
ARC
  5
D58
  8
0
 62
     2
 10
91.525580856897037
 20
66.61428053353346
 30
0.0
 40
4.0763164834658721
 50
40.278369271278869
 51
171.54001430536951
  0
ARC
  5
D59
  8
0
 62
     2
 10
91.968330170043828
 20
72.313664406593475
 30
0.0
 40
6.7845257290386449
 50
112.7456989559621
 51
228.7346979594472
  0
ARC
  5
D5A
  8
0
 62
     2
 10
89.446833712660563
 20
69.361077770464803
 30
0.0
 40
9.2100411335478398
 50
90.632592325734976
 51
209.55135645041781
  0
ARC
  5
D5B
  8
0
 62
     2
 10
88.324152433900153
 20
68.670091329096053
 30
0.0
 40
7.8927503414800722
 50
209.207347966187
 51
326.5077743970528
  0
ARC
  5
D5C
  8
0
 62
     2
 10
91.172474551817004
 20
66.584589747710183
 30
0.0
 40
4.3697418602059299
 50
328.70396298527942
 51
37.581134186575312
  0
ARC
  5
D5D
  8
0
 62
     2
 10
85.934789722711685
 20
49.331713895764082
 30
0.0
 40
5.4323931949633604
 50
11.606860623589171
 51
152.461629633401
  0
ARC
  5
D5E
  8
0
 62
     2
 10
86.473443553327797
 20
49.224072828374673
 30
0.0
 40
5.9617642904937229
 50
153.93794409734349
 51
282.02727479737479
  0
ARC
  5
D5F
  8
0
 62
     2
 10
82.99003466657939
 20
67.553348758540537
 30
0.0
 40
24.61800430229497
 50
281.0672682604029
 51
338.70442615227381
  0
ARC
  5
D60
  8
0
 62
     2
 10
89.488324655498786
 20
63.126886148026401
 30
0.0
 40
17.04735302960961
 50
344.64441931066148
 51
73.214525746308681
  0
ARC
  5
D61
  8
0
 62
     2
 10
77.426979833234896
 20
66.23153383964744
 30
0.0
 40
21.520764315413832
 50
354.32513886816719
 51
37.888115691459213
  0
ARC
  5
D62
  8
0
 62
     2
 10
88.253000264171192
 20
68.97484451559454
 30
0.0
 40
11.65601746707163
 50
287.32344063265901
 51
335.29628932875681
  0
ARC
  5
D63
  8
0
 62
     2
 10
90.612267129466431
 20
54.19141544655416
 30
0.0
 40
3.8213573274131809
 50
279.6995672942943
 51
73.090353914841344
  0
ARC
  5
D64
  8
0
 62
     2
 10
88.778388815876497
 20
61.427976798979657
 30
0.0
 40
23.633393192372719
 50
343.00130879831659
 51
43.331040308056537
  0
ARC
  5
D65
  8
0
 62
     2
 10
100.5974390458008
 20
70.829057502940927
 30
0.0
 40
19.551824086516781
 50
303.46647756881168
 51
24.959499946765678
  0
ARC
  5
D66
  8
0
 62
     2
 10
136.30874579022779
 20
79.508696391617818
 30
0.0
 40
10.306329180290049
 50
210.92335075437919
 51
277.10974567948398
  0
ARC
  5
D67
  8
0
 62
     2
 10
163.92172248269719
 20
51.418923615823111
 30
0.0
 40
11.884120418294209
 50
237.7705370135011
 51
358.96383537116441
  0
ARC
  5
D68
  8
0
 62
     2
 10
228.40321138842179
 20
67.853246234665889
 30
0.0
 40
55.171409523611352
 50
162.43588902565739
 51
197.56411097434179
  0
ARC
  5
D69
  8
0
 62
     2
 10
169.72263940758131
 20
43.115677232515942
 30
0.0
 40
12.26431430972365
 50
114.89429131226061
 51
188.2024129884461
  0
ARC
  5
D6A
  8
0
 62
     2
 10
127.96832503334529
 20
96.058305330604284
 30
0.0
 40
10.290803729476171
 50
331.4093995389278
 51
20.863715082542381
  0
ARC
  5
D6B
  8
0
 62
     2
 10
138.76738367939771
 20
116.9594251582259
 30
0.0
 40
25.88587409992763
 50
266.0945315243622
 51
355.1358824880694
  0
ARC
  5
D6C
  8
0
 62
     2
 10
91.525580856897037
 20
102.3906701241344
 30
0.0
 40
4.0763164834658721
 50
188.4599856946304
 51
319.7216307287211
  0
ARC
  5
D6D
  8
0
 62
     2
 10
91.968330170043828
 20
96.691286251074402
 30
0.0
 40
6.7845257290386449
 50
131.2653020405528
 51
247.2543010440379
  0
ARC
  5
D6E
  8
0
 62
     2
 10
89.446833712660563
 20
99.643872887203074
 30
0.0
 40
9.2100411335478398
 50
150.44864354958219
 51
269.367407674265
  0
ARC
  5
D6F
  8
0
 62
     2
 10
88.324152433900153
 20
100.3348593285718
 30
0.0
 40
7.8927503414800722
 50
33.492225602947236
 51
150.792652033813
  0
ARC
  5
D70
  8
0
 62
     2
 10
91.172474551817004
 20
102.42036090995769
 30
0.0
 40
4.3697418602059299
 50
322.4188658134247
 51
31.296037014720572
  0
ARC
  5
D71
  8
0
 62
     2
 10
85.934789722711685
 20
119.67323676190379
 30
0.0
 40
5.4323931949633604
 50
207.538370366599
 51
348.39313937640441
  0
ARC
  5
D72
  8
0
 62
     2
 10
86.473443553327797
 20
119.7808778292932
 30
0.0
 40
5.9617642904937229
 50
77.972725202625199
 51
206.06205590265651
  0
ARC
  5
D73
  8
0
 62
     2
 10
82.99003466657939
 20
101.4516018991273
 30
0.0
 40
24.61800430229497
 50
21.295573847726189
 51
78.932731739597116
  0
ARC
  5
D74
  8
0
 62
     2
 10
89.488324655498786
 20
105.8780645096415
 30
0.0
 40
17.04735302960961
 50
286.78547425369129
 51
15.35558068933846
  0
ARC
  5
D75
  8
0
 62
     2
 10
77.426979833234896
 20
102.77341681802039
 30
0.0
 40
21.520764315413832
 50
322.11188430854082
 51
5.6748611318328228
  0
ARC
  5
D76
  8
0
 62
     2
 10
88.253000264171192
 20
100.03010614207329
 30
0.0
 40
11.65601746707163
 50
24.703710671243272
 51
72.676559367341056
  0
ARC
  5
D77
  8
0
 62
     2
 10
90.612267129466431
 20
114.8135352111137
 30
0.0
 40
3.8213573274131809
 50
286.90964608515861
 51
80.300432705705774
  0
ARC
  5
D78
  8
0
 62
     2
 10
136.30874579022779
 20
89.496254266050059
 30
0.0
 40
10.306329180290049
 50
82.890254320515979
 51
149.07664924562081
  0
ARC
  5
D79
  8
0
 62
     2
 10
163.92172248269719
 20
117.5860270418447
 30
0.0
 40
11.884120418294209
 50
1.036164628842096
 51
122.2294629864989
  0
ARC
  5
D7A
  8
0
 62
     2
 10
228.40321138842179
 20
101.1517044230019
 30
0.0
 40
55.171409523611352
 50
162.43588902565739
 51
197.56411097434179
  0
ARC
  5
D7B
  8
0
 62
     2
 10
169.72263940758131
 20
125.8892734251519
 30
0.0
 40
12.26431430972365
 50
171.79758701155379
 51
245.10570868773939
  0
ARC
  5
D7C
  8
0
 62
     2
 10
84.150609466854704
 20
85.348385559226003
 30
0.0
 40
44.334383643901553
 50
12.299506272436
 51
79.272203092071251
  0
ARC
  5
D7D
  8
0
 62
     2
 10
81.041765282007191
 20
47.212085853740732
 30
0.0
 40
82.482061765138724
 50
82.082689157731295
 51
93.906804498804107
  0
LINE
  5
D7E
  8
0
 62
     2
 10
75.421950955391125
 20
50.72404930893525
 30
0.0
 11
71.421950955391139
 21
50.724049309028928
 31
0.0
  0
LINE
  5
D7F
  8
0
 62
     2
 10
71.421950955391139
 20
50.724049309028928
 30
0.0
 11
71.421950955391139
 21
43.061927460373667
 31
0.0
  0
LINE
  5
D80
  8
0
 62
     2
 10
71.421950955391139
 20
43.061927460373667
 30
0.0
 11
75.421950955391125
 21
43.061927460373667
 31
0.0
  0
LINE
  5
D81
  8
0
 62
     2
 10
75.421950955391125
 20
43.061927460373667
 30
0.0
 11
75.421950955391125
 21
39.502475328833931
 31
0.0
  0
LINE
  5
D82
  8
0
 62
     2
 10
75.421950955391125
 20
118.2809013487297
 30
0.0
 11
71.421950955391139
 21
118.28090134863599
 31
0.0
  0
LINE
  5
D83
  8
0
 62
     2
 10
71.421950955391139
 20
118.28090134863599
 30
0.0
 11
71.421950955391139
 21
125.9430231972912
 31
0.0
  0
LINE
  5
D84
  8
0
 62
     2
 10
71.421950955391139
 20
125.9430231972912
 30
0.0
 11
75.421950955391125
 21
125.9430231972912
 31
0.0
  0
LINE
  5
D85
  8
0
 62
     2
 10
75.421950955391125
 20
125.9430231972912
 30
0.0
 11
75.421950955391125
 21
129.502475328831
 31
0.0
  0
LINE
  5
D86
  8
0
 62
     2
 10
115.8577923595827
 20
84.502475328833825
 30
0.0
 11
115.8577923595827
 21
86.502475328833825
 31
0.0
  0
LINE
  5
D87
  8
0
 62
     2
 10
115.8577923595827
 20
86.502475328833825
 30
0.0
 11
98.263098990263643
 21
86.502475328833938
 31
0.0
  0
LINE
  5
D88
  8
0
 62
     2
 10
98.263098990263643
 20
86.502475328833938
 30
0.0
 11
98.263098990264325
 21
84.502475328833924
 31
0.0
  0
LINE
  5
D89
  8
0
 62
     2
 10
98.263098990264325
 20
84.502475328833924
 30
0.0
 11
98.263098990264325
 21
82.502475328833938
 31
0.0
  0
LINE
  5
D8A
  8
0
 62
     2
 10
98.263098990264325
 20
82.502475328833938
 30
0.0
 11
115.8341645694142
 21
82.502475328833938
 31
0.0
  0
LINE
  5
D8B
  8
0
 62
     2
 10
115.8341645694142
 20
82.502475328833938
 30
0.0
 11
115.8577923595827
 21
84.502475328833825
 31
0.0
  0
ARC
  5
D8C
  8
0
 62
     2
 10
115.4578846642729
 20
49.83279131227674
 30
0.0
 40
29.386724063535961
 50
84.404467879601654
 51
108.8375021717566
  0
LINE
  5
D8D
  8
0
 62
     2
 10
142.39479387447469
 20
82.502475328833938
 30
0.0
 11
150.9343838750647
 21
82.502475328833938
 31
0.0
  0
LINE
  5
D8E
  8
0
 62
     2
 10
150.9343838750647
 20
82.502475328833938
 30
0.0
 11
150.9343838750647
 21
86.502475328833938
 31
0.0
  0
LINE
  5
D8F
  8
0
 62
     2
 10
142.39479387447469
 20
82.502475328833938
 30
0.0
 11
142.39479387447469
 21
84.502475328833924
 31
0.0
  0
LINE
  5
D90
  8
0
 62
     2
 10
142.39479387447469
 20
84.502475328833924
 30
0.0
 11
142.39479387447469
 21
86.502475328833938
 31
0.0
  0
LINE
  5
D91
  8
0
 62
     2
 10
142.39479387447469
 20
86.502475328833938
 30
0.0
 11
150.9343838750647
 21
86.502475328833938
 31
0.0
  0
LINE
  5
D92
  8
0
 62
     2
 10
75.421950955391125
 20
50.72404930893525
 30
0.0
 11
75.421950955391125
 21
60.724049308935257
 31
0.0
  0
LINE
  5
D93
  8
0
 62
     2
 10
75.421950955391125
 20
60.724049308935257
 30
0.0
 11
71.421950955391139
 21
60.724049308935257
 31
0.0
  0
LINE
  5
D94
  8
0
 62
     2
 10
71.421950955391139
 20
60.724049308935257
 30
0.0
 11
71.421950955391139
 21
70.72404930893525
 31
0.0
  0
LINE
  5
D95
  8
0
 62
     2
 10
71.421950955391139
 20
70.72404930893525
 30
0.0
 11
75.421950955391125
 21
70.72404930893525
 31
0.0
  0
LINE
  5
D96
  8
0
 62
     2
 10
75.421950955391125
 20
118.2809013487326
 30
0.0
 11
75.421950955391125
 21
108.2809013487326
 31
0.0
  0
LINE
  5
D97
  8
0
 62
     2
 10
75.421950955391125
 20
108.2809013487326
 30
0.0
 11
71.421950955391139
 21
108.2809013487326
 31
0.0
  0
LINE
  5
D98
  8
0
 62
     2
 10
71.421950955391139
 20
108.2809013487326
 30
0.0
 11
71.421950955391139
 21
98.280901348732627
 31
0.0
  0
LINE
  5
D99
  8
0
 62
     2
 10
71.421950955391139
 20
98.280901348732627
 30
0.0
 11
75.421950955391125
 21
98.280901348732627
 31
0.0
  0
LINE
  5
D9A
  8
0
 62
     2
 10
75.421950955391125
 20
70.72404930893525
 30
0.0
 11
75.421950955391125
 21
98.280901348732627
 31
0.0
  0
ARC
  5
D9B
  8
0
 62
     2
 10
88.778388815876497
 20
107.57697385868821
 30
0.0
 40
23.633393192372719
 50
316.66895969194343
 51
16.998691201683389
  0
ARC
  5
D9C
  8
0
 62
     2
 10
100.5974390458008
 20
98.175893154726936
 30
0.0
 40
19.551824086516781
 50
335.04050005323433
 51
56.533522431188281
  0
ARC
  5
D9D
  8
0
 62
     2
 10
115.4578846642729
 20
119.17215934539109
 30
0.0
 40
29.386724063535961
 50
251.1624978282434
 51
275.59553212039839
  0
ARC
  5
D9E
  8
0
 62
     2
 10
84.150609466854462
 20
180.0495227408756
 30
0.0
 40
44.334383643901553
 50
280.72779690792868
 51
347.70049372756398
  0
ARC
  5
D9F
  8
0
 62
     2
 10
127.968325033345
 20
169.33960296949729
 30
0.0
 40
10.290803729476171
 50
339.1362849174576
 51
28.590600461072199
  0
ARC
  5
DA0
  8
0
 62
     2
 10
138.7673836793974
 20
148.43848314187571
 30
0.0
 40
25.88587409992763
 50
4.8641175119305622
 51
93.905468475637804
  0
ARC
  5
DA1
  8
0
 62
     2
 10
81.041765282006509
 20
218.18582244636079
 30
0.0
 40
82.482061765138724
 50
266.09319550119591
 51
277.91731084226871
  0
ARC
  5
DA2
  8
0
 62
     2
 10
91.525580856896568
 20
163.00723817596719
 30
0.0
 40
4.0763164834658721
 50
40.278369271278869
 51
171.54001430536951
  0
ARC
  5
DA3
  8
0
 62
     2
 10
91.968330170043373
 20
168.7066220490272
 30
0.0
 40
6.7845257290386449
 50
112.7456989559621
 51
228.7346979594472
  0
ARC
  5
DA4
  8
0
 62
     2
 10
89.446833712659895
 20
165.75403541289859
 30
0.0
 40
9.2100411335478398
 50
90.632592325734976
 51
209.55135645041781
  0
ARC
  5
DA5
  8
0
 62
     2
 10
88.324152433899727
 20
165.06304897152981
 30
0.0
 40
7.8927503414800722
 50
209.207347966187
 51
326.5077743970528
  0
ARC
  5
DA6
  8
0
 62
     2
 10
91.172474551816535
 20
162.97754739014391
 30
0.0
 40
4.3697418602059299
 50
328.70396298527942
 51
37.581134186575312
  0
ARC
  5
DA7
  8
0
 62
     2
 10
85.93478972271123
 20
145.7246715381979
 30
0.0
 40
5.4323931949633604
 50
11.60686062359475
 51
152.461629633401
  0
ARC
  5
DA8
  8
0
 62
     2
 10
86.473443553327229
 20
145.6170304708084
 30
0.0
 40
5.9617642904937229
 50
153.93794409734349
 51
282.02727479737462
  0
ARC
  5
DA9
  8
0
 62
     2
 10
82.990034666579277
 20
163.94630640097429
 30
0.0
 40
24.61800430229497
 50
281.0672682604029
 51
338.70442615227381
  0
ARC
  5
DAA
  8
0
 62
     2
 10
89.488324655498687
 20
159.5198437904601
 30
0.0
 40
17.04735302960961
 50
344.64441931066148
 51
73.214525746308681
  0
ARC
  5
DAB
  8
0
 62
     2
 10
77.426979833234554
 20
162.6244914820812
 30
0.0
 40
21.520764315413832
 50
354.32513886816719
 51
37.888115691459213
  0
ARC
  5
DAC
  8
0
 62
     2
 10
88.253000264170524
 20
165.3678021580283
 30
0.0
 40
11.65601746707163
 50
287.32344063265901
 51
335.29628932875681
  0
ARC
  5
DAD
  8
0
 62
     2
 10
90.612267129466204
 20
150.58437308898789
 30
0.0
 40
3.8213573274131809
 50
279.6995672942943
 51
73.090353914841344
  0
ARC
  5
DAE
  8
0
 62
     2
 10
88.778388815875815
 20
157.82093444141341
 30
0.0
 40
23.633393192372719
 50
343.00130879831659
 51
43.331040308056537
  0
ARC
  5
DAF
  8
0
 62
     2
 10
100.5974390458003
 20
167.22201514537471
 30
0.0
 40
19.551824086516781
 50
303.46647756881168
 51
24.959499946765678
  0
ARC
  5
DB0
  8
0
 62
     2
 10
136.30874579022731
 20
175.90165403405149
 30
0.0
 40
10.306329180290049
 50
210.92335075437919
 51
277.10974567948398
  0
ARC
  5
DB1
  8
0
 62
     2
 10
163.92172248269651
 20
147.8118812582569
 30
0.0
 40
11.884120418294209
 50
237.7705370135011
 51
358.96383537116441
  0
ARC
  5
DB2
  8
0
 62
     2
 10
228.403211388421
 20
164.24620387709959
 30
0.0
 40
55.171409523611352
 50
162.43588902565739
 51
197.56411097434179
  0
ARC
  5
DB3
  8
0
 62
     2
 10
169.72263940758091
 20
139.50863487494971
 30
0.0
 40
12.26431430972365
 50
114.89429131226061
 51
188.2024129884461
  0
ARC
  5
DB4
  8
0
 62
     2
 10
127.968325033345
 20
192.45126297303801
 30
0.0
 40
10.290803729476171
 50
331.4093995389278
 51
20.863715082542381
  0
ARC
  5
DB5
  8
0
 62
     2
 10
138.7673836793974
 20
213.3523828006596
 30
0.0
 40
25.88587409992763
 50
266.0945315243622
 51
355.1358824880694
  0
ARC
  5
DB6
  8
0
 62
     2
 10
91.525580856896568
 20
198.78362776656809
 30
0.0
 40
4.0763164834658721
 50
188.4599856946304
 51
319.7216307287211
  0
ARC
  5
DB7
  8
0
 62
     2
 10
91.968330170043373
 20
193.08424389350819
 30
0.0
 40
6.7845257290386449
 50
131.2653020405528
 51
247.2543010440379
  0
ARC
  5
DB8
  8
0
 62
     2
 10
89.446833712659895
 20
196.0368305296368
 30
0.0
 40
9.2100411335478398
 50
150.44864354958219
 51
269.367407674265
  0
ARC
  5
DB9
  8
0
 62
     2
 10
88.324152433899727
 20
196.7278169710055
 30
0.0
 40
7.8927503414800722
 50
33.492225602947236
 51
150.792652033813
  0
ARC
  5
DBA
  8
0
 62
     2
 10
91.172474551816535
 20
198.81331855239151
 30
0.0
 40
4.3697418602059299
 50
322.4188658134247
 51
31.296037014720572
  0
ARC
  5
DBB
  8
0
 62
     2
 10
85.93478972271123
 20
216.06619440433761
 30
0.0
 40
5.4323931949633604
 50
207.538370366599
 51
348.39313937640441
  0
ARC
  5
DBC
  8
0
 62
     2
 10
86.473443553327229
 20
216.1738354717269
 30
0.0
 40
5.9617642904937229
 50
77.972725202625199
 51
206.06205590265651
  0
ARC
  5
DBD
  8
0
 62
     2
 10
82.990034666579277
 20
197.8445595415611
 30
0.0
 40
24.61800430229497
 50
21.295573847726189
 51
78.932731739590409
  0
ARC
  5
DBE
  8
0
 62
     2
 10
89.488324655498687
 20
202.27102215207529
 30
0.0
 40
17.04735302960961
 50
286.78547425369129
 51
15.35558068933846
  0
ARC
  5
DBF
  8
0
 62
     2
 10
77.426979833234554
 20
199.16637446045419
 30
0.0
 40
21.520764315413832
 50
322.11188430854082
 51
5.6748611318328228
  0
ARC
  5
DC0
  8
0
 62
     2
 10
88.253000264170524
 20
196.42306378450701
 30
0.0
 40
11.65601746707163
 50
24.703710671243272
 51
72.676559367341056
  0
ARC
  5
DC1
  8
0
 62
     2
 10
90.612267129466204
 20
211.20649285354739
 30
0.0
 40
3.8213573274131809
 50
286.90964608515861
 51
80.300432705705774
  0
ARC
  5
DC2
  8
0
 62
     2
 10
136.30874579022731
 20
185.8892119084837
 30
0.0
 40
10.306329180290049
 50
82.890254320515979
 51
149.07664924562081
  0
ARC
  5
DC3
  8
0
 62
     2
 10
163.92172248269651
 20
213.97898468427849
 30
0.0
 40
11.884120418294209
 50
1.036164628842096
 51
122.2294629864989
  0
ARC
  5
DC4
  8
0
 62
     2
 10
228.403211388421
 20
197.54466206543569
 30
0.0
 40
55.171409523611352
 50
162.43588902565739
 51
197.56411097434179
  0
ARC
  5
DC5
  8
0
 62
     2
 10
169.72263940758091
 20
222.2822310675856
 30
0.0
 40
12.26431430972365
 50
171.79758701155379
 51
245.10570868773939
  0
ARC
  5
DC6
  8
0
 62
     2
 10
84.150609466854462
 20
181.7413432016597
 30
0.0
 40
44.334383643901553
 50
12.299506272436
 51
79.272203092071251
  0
ARC
  5
DC7
  8
0
 62
     2
 10
81.041765282006509
 20
143.60504349617449
 30
0.0
 40
82.482061765138724
 50
82.082689157731295
 51
93.906804498804107
  0
LINE
  5
DC8
  8
0
 62
     2
 10
75.421950955390798
 20
147.11700695136901
 30
0.0
 11
71.421950955390784
 21
147.11700695146271
 31
0.0
  0
LINE
  5
DC9
  8
0
 62
     2
 10
71.421950955390784
 20
147.11700695146271
 30
0.0
 11
71.421950955390784
 21
139.4548851028074
 31
0.0
  0
LINE
  5
DCA
  8
0
 62
     2
 10
71.421950955390784
 20
139.4548851028074
 30
0.0
 11
75.421950955390798
 21
139.4548851028074
 31
0.0
  0
LINE
  5
DCB
  8
0
 62
     2
 10
75.421950955390798
 20
139.4548851028074
 30
0.0
 11
75.421950955390798
 21
135.8954329712677
 31
0.0
  0
LINE
  5
DCC
  8
0
 62
     2
 10
75.421950955390798
 20
214.6738589911634
 30
0.0
 11
71.421950955390784
 21
214.67385899106981
 31
0.0
  0
LINE
  5
DCD
  8
0
 62
     2
 10
71.421950955390784
 20
214.67385899106981
 30
0.0
 11
71.421950955390784
 21
222.33598083972501
 31
0.0
  0
LINE
  5
DCE
  8
0
 62
     2
 10
71.421950955390784
 20
222.33598083972501
 30
0.0
 11
75.421950955390798
 21
222.33598083972501
 31
0.0
  0
LINE
  5
DCF
  8
0
 62
     2
 10
75.421950955390798
 20
222.33598083972501
 30
0.0
 11
75.421950955390798
 21
225.89543297126471
 31
0.0
  0
LINE
  5
DD0
  8
0
 62
     2
 10
115.85779235958231
 20
180.8954329712675
 30
0.0
 11
115.8577923595825
 21
182.8954329712675
 31
0.0
  0
LINE
  5
DD1
  8
0
 62
     2
 10
115.8577923595825
 20
182.8954329712675
 30
0.0
 11
98.263098990263416
 21
182.89543297126761
 31
0.0
  0
LINE
  5
DD2
  8
0
 62
     2
 10
98.263098990263416
 20
182.89543297126761
 30
0.0
 11
98.263098990263643
 21
180.89543297126761
 31
0.0
  0
LINE
  5
DD3
  8
0
 62
     2
 10
98.263098990263643
 20
180.89543297126761
 30
0.0
 11
98.263098990263643
 21
178.89543297126761
 31
0.0
  0
LINE
  5
DD4
  8
0
 62
     2
 10
98.263098990263643
 20
178.89543297126761
 30
0.0
 11
115.8341645694139
 21
178.89543297126761
 31
0.0
  0
LINE
  5
DD5
  8
0
 62
     2
 10
115.8341645694139
 20
178.89543297126761
 30
0.0
 11
115.85779235958231
 21
180.8954329712675
 31
0.0
  0
ARC
  5
DD6
  8
0
 62
     2
 10
115.4578846642726
 20
146.2257489547105
 30
0.0
 40
29.386724063535961
 50
84.404467879601654
 51
108.8375021717566
  0
LINE
  5
DD7
  8
0
 62
     2
 10
142.39479387447449
 20
178.89543297126761
 30
0.0
 11
150.93438387506399
 21
178.89543297126761
 31
0.0
  0
LINE
  5
DD8
  8
0
 62
     2
 10
150.93438387506399
 20
178.89543297126761
 30
0.0
 11
150.93438387506399
 21
182.89543297126761
 31
0.0
  0
LINE
  5
DD9
  8
0
 62
     2
 10
142.39479387447449
 20
178.89543297126761
 30
0.0
 11
142.39479387447449
 21
180.89543297126761
 31
0.0
  0
LINE
  5
DDA
  8
0
 62
     2
 10
142.39479387447449
 20
180.89543297126761
 30
0.0
 11
142.39479387447449
 21
182.89543297126761
 31
0.0
  0
LINE
  5
DDB
  8
0
 62
     2
 10
142.39479387447449
 20
182.89543297126761
 30
0.0
 11
150.93438387506399
 21
182.89543297126761
 31
0.0
  0
LINE
  5
DDC
  8
0
 62
     2
 10
75.421950955390798
 20
147.11700695136901
 30
0.0
 11
75.421950955390798
 21
157.11700695136901
 31
0.0
  0
LINE
  5
DDD
  8
0
 62
     2
 10
75.421950955390798
 20
157.11700695136901
 30
0.0
 11
71.421950955390784
 21
157.11700695136901
 31
0.0
  0
LINE
  5
DDE
  8
0
 62
     2
 10
71.421950955390784
 20
157.11700695136901
 30
0.0
 11
71.421950955390784
 21
167.11700695136901
 31
0.0
  0
LINE
  5
DDF
  8
0
 62
     2
 10
71.421950955390784
 20
167.11700695136901
 30
0.0
 11
75.421950955390798
 21
167.11700695136901
 31
0.0
  0
LINE
  5
DE0
  8
0
 62
     2
 10
75.421950955390798
 20
214.6738589911663
 30
0.0
 11
75.421950955390798
 21
204.6738589911663
 31
0.0
  0
LINE
  5
DE1
  8
0
 62
     2
 10
75.421950955390798
 20
204.6738589911663
 30
0.0
 11
71.421950955390784
 21
204.6738589911663
 31
0.0
  0
LINE
  5
DE2
  8
0
 62
     2
 10
71.421950955390784
 20
204.6738589911663
 30
0.0
 11
71.421950955390784
 21
194.6738589911663
 31
0.0
  0
LINE
  5
DE3
  8
0
 62
     2
 10
71.421950955390784
 20
194.6738589911663
 30
0.0
 11
75.421950955390798
 21
194.6738589911663
 31
0.0
  0
LINE
  5
DE4
  8
0
 62
     2
 10
75.421950955390798
 20
167.11700695136901
 30
0.0
 11
75.421950955390798
 21
194.6738589911663
 31
0.0
  0
ARC
  5
DE5
  8
0
 62
     2
 10
88.778388815875815
 20
203.96993150112189
 30
0.0
 40
23.633393192372719
 50
316.66895969194343
 51
16.998691201683389
  0
ARC
  5
DE6
  8
0
 62
     2
 10
100.5974390458003
 20
194.56885079716059
 30
0.0
 40
19.551824086516781
 50
335.04050005323433
 51
56.533522431188281
  0
ARC
  5
DE7
  8
0
 62
     2
 10
115.4578846642726
 20
215.56511698782489
 30
0.0
 40
29.386724063535961
 50
251.1624978282434
 51
275.59553212039839
  0
LINE
  5
DEB
  8
0
 62
     1
 10
206.85121639995859
 20
155.83361625109731
 30
0.0
 11
206.85121270875811
 21
258.88733371827908
 31
0.0
  0
LINE
  5
DEC
  8
0
 62
     1
 10
209.851212708758
 20
226.80645537856299
 30
0.0
 11
213.85121270875811
 21
226.80645537856299
 31
0.0
  0
LINE
  5
DED
  8
0
 62
     1
 10
213.85121270875811
 20
226.80645537856299
 30
0.0
 11
213.85121270875811
 21
235.34604537915251
 31
0.0
  0
LINE
  5
DEE
  8
0
 62
     1
 10
213.85121270875811
 20
235.34604537915251
 30
0.0
 11
209.851212708758
 21
235.34604537915251
 31
0.0
  0
LINE
  5
DEF
  8
0
 62
     1
 10
209.851212708758
 20
235.34604537915251
 30
0.0
 11
209.851212708758
 21
226.80645537856299
 31
0.0
  0
LINE
  5
DF0
  8
0
 62
     1
 10
209.851212708758
 20
182.6747604943545
 30
0.0
 11
213.851212708758
 21
182.6747604943545
 31
0.0
  0
LINE
  5
DF1
  8
0
 62
     1
 10
213.851212708758
 20
182.6747604943545
 30
0.0
 11
213.851212708758
 21
200.24582607350251
 31
0.0
  0
LINE
  5
DF2
  8
0
 62
     1
 10
213.851212708758
 20
200.24582607350251
 30
0.0
 11
209.851212708758
 21
200.24582607350251
 31
0.0
  0
LINE
  5
DF3
  8
0
 62
     1
 10
209.851212708758
 20
200.24582607350251
 30
0.0
 11
209.851212708758
 21
182.6747604943545
 31
0.0
  0
ARC
  5
DF4
  8
0
 62
     1
 10
218.17652956680971
 20
86.372102074664085
 30
0.0
 40
1.8801468169100291
 50
75.533342951720144
 51
206.72275008059
  0
ARC
  5
DF5
  8
0
 62
     1
 10
211.8295304487626
 20
83.298910620453384
 30
0.0
 40
5.1720324895163881
 50
325.6350572230009
 51
25.513765915043511
  0
ARC
  5
DF6
  8
0
 62
     1
 10
220.5225665788962
 20
77.522457294988484
 30
0.0
 40
5.2661271868966493
 50
147.14389741064079
 51
208.87573513163909
  0
ARC
  5
DF7
  8
0
 62
     1
 10
240.0732054895833
 20
63.314658417923951
 30
0.0
 40
26.830378465450782
 50
136.0177369357404
 51
154.23009589170599
  0
ARC
  5
DF8
  8
0
 62
     1
 10
217.65191473050041
 20
84.371839432496117
 30
0.0
 40
3.948053656538201
 50
322.1003916676687
 51
75.41314743885664
  0
LINE
  5
DF9
  8
0
 62
     1
 10
216.85121270875811
 20
92.697314792058236
 30
0.0
 11
221.29812397428711
 21
92.697314792058236
 31
0.0
  0
ARC
  5
DFA
  8
0
 62
     1
 10
221.56169970899691
 20
86.646867519392103
 30
0.0
 40
6.0561856285322051
 50
334.465482901857
 51
92.494399884727144
  0
LINE
  5
DFB
  8
0
 62
     1
 10
227.02635203778689
 20
84.036319819639047
 30
0.0
 11
221.93859784278899
 21
78.192963613959805
 31
0.0
  0
ARC
  5
DFC
  8
0
 62
     1
 10
228.9257350104067
 20
66.929350875346458
 30
0.0
 40
13.25477490282476
 50
54.607627162043151
 51
121.8124959779355
  0
ARC
  5
DFD
  8
0
 62
     1
 10
231.60500384349021
 20
74.149333719704686
 30
0.0
 40
6.1506309529971874
 50
311.23591113552737
 51
35.65674293868107
  0
ARC
  5
DFE
  8
0
 62
     1
 10
233.75527689787529
 20
63.591314009089032
 30
0.0
 40
6.2307684562946992
 50
36.576462710801181
 51
72.207090345847064
  0
ARC
  5
DFF
  8
0
 62
     1
 10
236.8646324700253
 20
66.507539274429618
 30
0.0
 40
2.055039836872544
 50
284.2682793055543
 51
22.80903381566122
  0
ARC
  5
E00
  8
0
 62
     1
 10
234.15961619075921
 20
63.212484327068061
 30
0.0
 40
3.4659266300913081
 50
22.090055387821469
 51
85.965288364426996
  0
ARC
  5
E01
  8
0
 62
     1
 10
233.96312924728321
 20
64.782332119370935
 30
0.0
 40
1.9381755828916061
 50
76.867754054468833
 51
201.45816331815499
  0
ARC
  5
E02
  8
0
 62
     1
 10
229.8420495990608
 20
73.485288252674749
 30
0.0
 40
1.1469917284051401
 50
132.5333935245512
 51
236.8456075171749
  0
ARC
  5
E03
  8
0
 62
     1
 10
230.918276513553
 20
75.214129321217669
 30
0.0
 40
3.1832733565748512
 50
237.6462457388277
 51
312.05660154652759
  0
ARC
  5
E04
  8
0
 62
     1
 10
231.8450855191563
 20
74.687080423116171
 30
0.0
 40
2.1968185053837992
 50
303.28280996989878
 51
66.342880232378505
  0
ARC
  5
E05
  8
0
 62
     1
 10
228.63484370180819
 20
69.285191774782774
 30
0.0
 40
8.4682429115418856
 50
61.106261181050002
 51
138.1212658174324
  0
ARC
  5
E06
  8
0
 62
     1
 10
225.5731755165136
 20
72.418156235543833
 30
0.0
 40
4.107387835277275
 50
142.1537837808354
 51
237.43741765696581
  0
ARC
  5
E07
  8
0
 62
     1
 10
244.03617254761571
 20
96.758105524113247
 30
0.0
 40
34.645835638618813
 50
233.3650383141761
 51
244.5995884256107
  0
ARC
  5
E08
  8
0
 62
     1
 10
232.0309948304301
 20
65.428527784741604
 30
0.0
 40
2.8560524808628069
 50
108.53304922638191
 51
179.34040582517
  0
ARC
  5
E09
  8
0
 62
     1
 10
230.6036321415427
 20
74.933461146474414
 30
0.0
 40
6.816823130532434
 50
224.3485146652379
 51
274.37118508061639
  0
ARC
  5
E0A
  8
0
 62
     1
 10
227.95276337807911
 20
71.804369757021945
 30
0.0
 40
2.760803784629303
 50
66.204814818479846
 51
216.34067595479391
  0
LINE
  5
E0B
  8
0
 62
     1
 10
215.33692002478821
 20
71.275269836126412
 30
0.0
 11
215.33692002478821
 21
60.858100599722988
 31
0.0
  0
LINE
  5
E0C
  8
0
 62
     1
 10
215.33692002478821
 20
57.426619118048038
 30
0.0
 11
215.33692002478821
 21
51.311495054396332
 31
0.0
  0
LINE
  5
E0D
  8
0
 62
     1
 10
215.33692002478821
 20
45.587248778183593
 30
0.0
 11
215.33692002478821
 21
41.77449038649636
 31
0.0
  0
ARC
  5
E0E
  8
0
 62
     1
 10
230.9976110195667
 20
81.865542317547323
 30
0.0
 40
18.905319718657971
 50
214.0678461725455
 51
249.6340348809122
  0
ARC
  5
E0F
  8
0
 62
     1
 10
223.34826965428181
 20
52.902241812653862
 30
0.0
 40
11.290589529593641
 50
84.561952722961706
 51
135.19911923172239
  0
ARC
  5
E10
  8
0
 62
     1
 10
222.46240081504729
 20
46.484997508454377
 30
0.0
 40
8.6062509290245046
 50
100.9485206974157
 51
145.8879580716457
  0
ARC
  5
E11
  8
0
 62
     1
 10
224.6538823990962
 20
70.660270361287971
 30
0.0
 40
16.184415748242952
 50
234.85308845635191
 51
256.32567504054907
  0
ARC
  5
E12
  8
0
 62
     1
 10
223.16829609767419
 20
59.883003642629077
 30
0.0
 40
3.016840255414404
 50
262.06449081462051
 51
353.04985751008439
  0
ARC
  5
E13
  8
0
 62
     1
 10
222.71476832978169
 20
59.558571625256022
 30
0.0
 40
2.663776614433484
 50
180.05960864432581
 51
270.79646202970468
  0
ARC
  5
E14
  8
0
 62
     1
 10
222.96389247146169
 20
59.422060918746631
 30
0.0
 40
2.9159678743192461
 50
88.173334782358864
 51
177.37123568693491
  0
ARC
  5
E15
  8
0
 62
     1
 10
224.01146072760159
 20
47.180330351437277
 30
0.0
 40
15.186250379884459
 50
34.200963234692018
 51
93.604031887577776
  0
ARC
  5
E16
  8
0
 62
     1
 10
230.69153919910659
 20
51.901662672791403
 30
0.0
 40
7.0091080441722244
 50
310.28855210630098
 51
32.974504746575093
  0
ARC
  5
E17
  8
0
 62
     1
 10
229.79552440674649
 20
52.120256419392021
 30
0.0
 40
7.7741729542093294
 50
254.06954215730281
 51
314.2872821402587
  0
ARC
  5
E18
  8
0
 62
     1
 10
228.07868324814001
 20
50.082221029090292
 30
0.0
 40
5.4535361515093363
 50
265.61528456767718
 51
26.19566330342689
  0
ARC
  5
E19
  8
0
 62
     1
 10
226.3307109475341
 20
46.913493087112087
 30
0.0
 40
8.6718613323469906
 50
40.01691285372798
 51
90.827505597443107
  0
ARC
  5
E1A
  8
0
 62
     1
 10
225.87628290946921
 20
57.547872222625848
 30
0.0
 40
1.9908267456147
 50
279.51768756255268
 51
81.720446355121325
  0
ARC
  5
E1B
  8
0
 62
     1
 10
225.58314478935861
 20
47.614338967774742
 30
0.0
 40
2.9538070348129439
 50
132.32870360220389
 51
264.2430120934157
  0
ARC
  5
E1C
  8
0
 62
     1
 10
225.95249486784519
 20
50.597416633772227
 30
0.0
 40
2.490175501536867
 50
198.72341094079741
 51
346.4310058044444
  0
ARC
  5
E1D
  8
0
 62
     1
 10
225.79686831312159
 20
50.527640517849584
 30
0.0
 40
2.627160460502683
 50
348.70717941121319
 51
84.126178498453697
  0
ARC
  5
E1E
  8
0
 62
     1
 10
224.36610658413451
 20
46.820446482005181
 30
0.0
 40
6.5450898343330444
 50
74.949003832370977
 51
146.88323717770459
  0
ARC
  5
E1F
  8
0
 62
     1
 10
222.80886708649359
 20
49.097770752989597
 30
0.0
 40
4.1339110609319087
 50
161.69198233787191
 51
233.74942535519571
  0
ARC
  5
E20
  8
0
 62
     1
 10
223.9589658535626
 20
50.344471057714131
 30
0.0
 40
5.8224824930844248
 50
231.8765733418862
 51
283.18297304944559
  0
ARC
  5
E21
  8
0
 62
     1
 10
232.8051591295613
 20
51.544408516582827
 30
0.0
 40
9.2217313405049044
 50
288.48455451667138
 51
54.569317762516
  0
LINE
  5
E22
  8
0
 62
     1
 10
238.15115904532229
 20
59.058436319108957
 30
0.0
 11
232.1592984315555
 21
64.073305336838516
 31
0.0
  0
ARC
  5
E23
  8
0
 62
     1
 10
238.61525978222949
 20
44.222466787476698
 30
0.0
 40
3.218531176392966
 50
206.2601786772654
 51
310.48003096313653
  0
ARC
  5
E24
  8
0
 62
     1
 10
245.4925512931506
 20
43.226022557382613
 30
0.0
 40
5.003110391774646
 50
196.8671993063989
 51
253.17667091589331
  0
LINE
  5
E25
  8
0
 62
     1
 10
215.33692002478821
 20
41.77449038649636
 30
0.0
 11
221.19056867356451
 21
41.77449038649636
 31
0.0
  0
ARC
  5
E26
  8
0
 62
     1
 10
223.04382551156189
 20
51.019628759486501
 30
0.0
 40
9.4290585130923397
 50
215.17892791838381
 51
258.66486801513099
  0
LINE
  5
E27
  8
0
 62
     1
 10
244.04454325813759
 20
38.437036618499391
 30
0.0
 11
244.04454325813759
 21
10.21556490733883
 31
0.0
  0
LINE
  5
E28
  8
0
 62
     1
 10
244.04454325813759
 20
10.21556490733883
 30
0.0
 11
238.47293920116931
 21
10.21556490733883
 31
0.0
  0
LINE
  5
E29
  8
0
 62
     1
 10
238.47293920116931
 20
10.21556490733883
 30
0.0
 11
238.47293920116931
 21
38.076400983044081
 31
0.0
  0
LINE
  5
E2A
  8
0
 62
     1
 10
238.47293920116931
 20
38.076400983044081
 30
0.0
 11
233.31343408675141
 21
38.076400983044081
 31
0.0
  0
LINE
  5
E2B
  8
0
 62
     1
 10
233.31343408675141
 20
10.21556490733883
 30
0.0
 11
227.74183002978339
 21
10.21556490733883
 31
0.0
  0
LINE
  5
E2C
  8
0
 62
     1
 10
227.74183002978339
 20
10.21556490733883
 30
0.0
 11
227.74183002978339
 21
38.076400983044081
 31
0.0
  0
LINE
  5
E2D
  8
0
 62
     1
 10
227.74183002978339
 20
38.076400983044081
 30
0.0
 11
222.58232491536501
 21
38.076400983044081
 31
0.0
  0
LINE
  5
E2E
  8
0
 62
     1
 10
233.31343408675141
 20
38.076400983044081
 30
0.0
 11
233.31343408675141
 21
10.21556490733883
 31
0.0
  0
LINE
  5
E2F
  8
0
 62
     1
 10
222.58232491536501
 20
10.21556490733883
 30
0.0
 11
217.01072085839689
 21
10.21556490733883
 31
0.0
  0
LINE
  5
E30
  8
0
 62
     1
 10
217.01072085839689
 20
10.21556490733883
 30
0.0
 11
217.01072085839689
 21
38.076400983044081
 31
0.0
  0
LINE
  5
E31
  8
0
 62
     1
 10
217.01072085839689
 20
38.076400983044081
 30
0.0
 11
211.85121574397891
 21
38.076400983044081
 31
0.0
  0
LINE
  5
E32
  8
0
 62
     1
 10
222.58232491536501
 20
38.076400983044081
 30
0.0
 11
222.58232491536501
 21
10.21556490733883
 31
0.0
  0
ARC
  5
E33
  8
0
 62
     1
 10
205.5259019211484
 20
86.372102074664085
 30
0.0
 40
1.8801468169100291
 50
333.27724991941
 51
104.4666570482798
  0
ARC
  5
E34
  8
0
 62
     1
 10
211.8729010391954
 20
83.298910620453384
 30
0.0
 40
5.1720324895163881
 50
154.48623408495649
 51
214.36494277699919
  0
ARC
  5
E35
  8
0
 62
     1
 10
203.17986490906171
 20
77.522457294988484
 30
0.0
 40
5.2661271868966493
 50
331.12426486836091
 51
32.856102589359139
  0
ARC
  5
E36
  8
0
 62
     1
 10
183.62922599837449
 20
63.314658417923951
 30
0.0
 40
26.830378465450782
 50
25.769904108293922
 51
43.982263064250361
  0
ARC
  5
E37
  8
0
 62
     1
 10
206.05051675745781
 20
84.371839432496117
 30
0.0
 40
3.948053656538201
 50
104.5868525611433
 51
217.8996083323313
  0
LINE
  5
E38
  8
0
 62
     1
 10
206.85121877919971
 20
92.697314792058236
 30
0.0
 11
202.40430751367111
 21
92.697314792058236
 31
0.0
  0
ARC
  5
E39
  8
0
 62
     1
 10
202.1407317789614
 20
86.646867519392103
 30
0.0
 40
6.0561856285322051
 50
87.50560011527287
 51
205.534517098143
  0
LINE
  5
E3A
  8
0
 62
     1
 10
196.6760794501707
 20
84.036319819639047
 30
0.0
 11
201.7638336451686
 21
78.192963613959805
 31
0.0
  0
ARC
  5
E3B
  8
0
 62
     1
 10
194.77669647755121
 20
66.929350875346458
 30
0.0
 40
13.25477490282476
 50
58.187504022064488
 51
125.39237283794149
  0
ARC
  5
E3C
  8
0
 62
     1
 10
192.0974276444677
 20
74.149333719704686
 30
0.0
 40
6.1506309529971874
 50
144.3432570612994
 51
228.7640888644726
  0
ARC
  5
E3D
  8
0
 62
     1
 10
189.9471545900825
 20
63.591314009089032
 30
0.0
 40
6.2307684562946992
 50
107.79290965415289
 51
143.4235372891988
  0
ARC
  5
E3E
  8
0
 62
     1
 10
186.83779901793241
 20
66.507539274429618
 30
0.0
 40
2.055039836872544
 50
157.19096618433881
 51
255.7317206944457
  0
ARC
  5
E3F
  8
0
 62
     1
 10
189.54281529719921
 20
63.212484327068061
 30
0.0
 40
3.4659266300913081
 50
94.034711635573018
 51
157.9099446121777
  0
ARC
  5
E40
  8
0
 62
     1
 10
189.7393022406749
 20
64.782332119370935
 30
0.0
 40
1.9381755828916061
 50
338.54183668184498
 51
103.1322459455311
  0
ARC
  5
E41
  8
0
 62
     1
 10
193.86038188889711
 20
73.485288252674749
 30
0.0
 40
1.1469917284051401
 50
303.15439248282507
 51
47.466606475448764
  0
ARC
  5
E42
  8
0
 62
     1
 10
192.7841549744054
 20
75.214129321217669
 30
0.0
 40
3.1832733565748512
 50
227.94339845347241
 51
302.35375426117218
  0
ARC
  5
E43
  8
0
 62
     1
 10
191.85734596880161
 20
74.687080423116171
 30
0.0
 40
2.1968185053837992
 50
113.6571197676215
 51
236.71719003010119
  0
ARC
  5
E44
  8
0
 62
     1
 10
195.06758778614969
 20
69.285191774782774
 30
0.0
 40
8.4682429115418856
 50
41.878734182567626
 51
118.89373881895
  0
ARC
  5
E45
  8
0
 62
     1
 10
198.12925597144439
 20
72.418156235543833
 30
0.0
 40
4.107387835277275
 50
302.56258234303408
 51
37.846216219161349
  0
ARC
  5
E46
  8
0
 62
     1
 10
179.66625894034209
 20
96.758105524113247
 30
0.0
 40
34.645835638618813
 50
295.40041157439703
 51
306.6349616858239
  0
ARC
  5
E47
  8
0
 62
     1
 10
191.67143665752781
 20
65.428527784741604
 30
0.0
 40
2.8560524808628069
 50
0.6595941748299259
 51
71.46695077361808
  0
ARC
  5
E48
  8
0
 62
     1
 10
193.09879934641529
 20
74.933461146474414
 30
0.0
 40
6.816823130532434
 50
265.62881491938361
 51
315.65148533476213
  0
ARC
  5
E49
  8
0
 62
     1
 10
195.7496681098792
 20
71.804369757021945
 30
0.0
 40
2.760803784629303
 50
323.65932404520612
 51
113.7951851815201
  0
LINE
  5
E4A
  8
0
 62
     1
 10
208.3655114631697
 20
71.275269836126412
 30
0.0
 11
208.3655114631697
 21
60.858100599722988
 31
0.0
  0
LINE
  5
E4B
  8
0
 62
     1
 10
208.3655114631697
 20
57.426619118048038
 30
0.0
 11
208.3655114631697
 21
51.311495054396332
 31
0.0
  0
LINE
  5
E4C
  8
0
 62
     1
 10
208.3655114631697
 20
45.587248778183593
 30
0.0
 11
208.3655114631697
 21
41.77449038649636
 31
0.0
  0
ARC
  5
E4D
  8
0
 62
     1
 10
192.70482046839129
 20
81.865542317547323
 30
0.0
 40
18.905319718657971
 50
290.36596511908778
 51
325.93215382745439
  0
ARC
  5
E4E
  8
0
 62
     1
 10
200.3541618336761
 20
52.902241812653862
 30
0.0
 40
11.290589529593641
 50
44.800880768277587
 51
95.438047277038308
  0
ARC
  5
E4F
  8
0
 62
     1
 10
201.24003067291059
 20
46.484997508454377
 30
0.0
 40
8.6062509290245046
 50
34.11204192835433
 51
79.051479302584255
  0
ARC
  5
E50
  8
0
 62
     1
 10
199.04854908886171
 20
70.660270361287971
 30
0.0
 40
16.184415748242952
 50
283.67432495945093
 51
305.14691154364812
  0
ARC
  5
E51
  8
0
 62
     1
 10
200.53413539028381
 20
59.883003642629077
 30
0.0
 40
3.016840255414404
 50
186.9501424899147
 51
277.93550918537949
  0
ARC
  5
E52
  8
0
 62
     1
 10
200.98766315817599
 20
59.558571625256022
 30
0.0
 40
2.663776614433484
 50
269.20353797029532
 51
359.94039135567419
  0
ARC
  5
E53
  8
0
 62
     1
 10
200.73853901649619
 20
59.422060918746631
 30
0.0
 40
2.9159678743192461
 50
2.6287643130650928
 51
91.826665217641121
  0
ARC
  5
E54
  8
0
 62
     1
 10
199.69097076035629
 20
47.180330351437277
 30
0.0
 40
15.186250379884459
 50
86.39596811242221
 51
145.79903676530799
  0
ARC
  5
E55
  8
0
 62
     1
 10
193.01089228885141
 20
51.901662672791403
 30
0.0
 40
7.0091080441722244
 50
147.02549525342491
 51
229.71144789369899
  0
ARC
  5
E56
  8
0
 62
     1
 10
193.90690708121119
 20
52.120256419392021
 30
0.0
 40
7.7741729542093294
 50
225.71271785974071
 51
285.93045784269719
  0
ARC
  5
E57
  8
0
 62
     1
 10
195.6237482398179
 20
50.082221029090292
 30
0.0
 40
5.4535361515093363
 50
153.8043366965731
 51
274.38471543232282
  0
ARC
  5
E58
  8
0
 62
     1
 10
197.37172054042381
 20
46.913493087112087
 30
0.0
 40
8.6718613323469906
 50
89.172494402556907
 51
139.983087146272
  0
ARC
  5
E59
  8
0
 62
     1
 10
197.8261485784887
 20
57.547872222625848
 30
0.0
 40
1.9908267456147
 50
98.279553644878675
 51
260.48231243744732
  0
ARC
  5
E5A
  8
0
 62
     1
 10
198.1192866985993
 20
47.614338967774742
 30
0.0
 40
2.9538070348129439
 50
275.75698790658419
 51
47.671296397796013
  0
ARC
  5
E5B
  8
0
 62
     1
 10
197.74993662011289
 20
50.597416633772227
 30
0.0
 40
2.490175501536867
 50
193.5689941955556
 51
341.27658905920248
  0
ARC
  5
E5C
  8
0
 62
     1
 10
197.9055631748364
 20
50.527640517849584
 30
0.0
 40
2.627160460502683
 50
95.873821501546288
 51
191.2928205887867
  0
ARC
  5
E5D
  8
0
 62
     1
 10
199.3363249038234
 20
46.820446482005181
 30
0.0
 40
6.5450898343330444
 50
33.116762822309163
 51
105.05099616762899
  0
ARC
  5
E5E
  8
0
 62
     1
 10
200.8935644014646
 20
49.097770752989597
 30
0.0
 40
4.1339110609319087
 50
306.25057464480432
 51
18.30801766212802
  0
ARC
  5
E5F
  8
0
 62
     1
 10
199.74346563439531
 20
50.344471057714131
 30
0.0
 40
5.8224824930844248
 50
256.81702695055441
 51
308.12342665811377
  0
ARC
  5
E60
  8
0
 62
     1
 10
190.8972723583968
 20
51.544408516582827
 30
0.0
 40
9.2217313405049044
 50
125.43068223748401
 51
251.51544548332859
  0
LINE
  5
E61
  8
0
 62
     1
 10
185.55127244263571
 20
59.058436319108957
 30
0.0
 11
191.5431330564027
 21
64.073305336838516
 31
0.0
  0
ARC
  5
E62
  8
0
 62
     1
 10
185.08717170572851
 20
44.222466787476698
 30
0.0
 40
3.218531176392966
 50
229.5199690368635
 51
333.73982132273528
  0
ARC
  5
E63
  8
0
 62
     1
 10
178.2098801948072
 20
43.226022557382613
 30
0.0
 40
5.003110391774646
 50
286.8233290840659
 51
343.1328006936011
  0
LINE
  5
E64
  8
0
 62
     1
 10
208.3655114631697
 20
41.77449038649636
 30
0.0
 11
202.51186281439331
 21
41.77449038649636
 31
0.0
  0
ARC
  5
E65
  8
0
 62
     1
 10
200.65860597639619
 20
51.019628759486501
 30
0.0
 40
9.4290585130923397
 50
281.33513198486901
 51
324.82107208161682
  0
LINE
  5
E66
  8
0
 62
     1
 10
179.65788822982029
 20
38.437036618499391
 30
0.0
 11
179.65788822982029
 21
10.21556490733883
 31
0.0
  0
LINE
  5
E67
  8
0
 62
     1
 10
179.65788822982029
 20
10.21556490733883
 30
0.0
 11
185.22949228678851
 21
10.21556490733883
 31
0.0
  0
LINE
  5
E68
  8
0
 62
     1
 10
185.22949228678851
 20
10.21556490733883
 30
0.0
 11
185.22949228678851
 21
38.076400983044081
 31
0.0
  0
LINE
  5
E69
  8
0
 62
     1
 10
185.22949228678851
 20
38.076400983044081
 30
0.0
 11
190.3889974012065
 21
38.076400983044081
 31
0.0
  0
LINE
  5
E6A
  8
0
 62
     1
 10
190.3889974012065
 20
10.21556490733883
 30
0.0
 11
195.96060145817481
 21
10.21556490733883
 31
0.0
  0
LINE
  5
E6B
  8
0
 62
     1
 10
195.96060145817481
 20
10.21556490733883
 30
0.0
 11
195.96060145817481
 21
38.076400983044081
 31
0.0
  0
LINE
  5
E6C
  8
0
 62
     1
 10
195.96060145817481
 20
38.076400983044081
 30
0.0
 11
201.12010657259279
 21
38.076400983044081
 31
0.0
  0
LINE
  5
E6D
  8
0
 62
     1
 10
190.3889974012065
 20
38.076400983044081
 30
0.0
 11
190.3889974012065
 21
10.21556490733883
 31
0.0
  0
LINE
  5
E6E
  8
0
 62
     1
 10
201.12010657259279
 20
10.21556490733883
 30
0.0
 11
206.6917106295611
 21
10.21556490733883
 31
0.0
  0
LINE
  5
E6F
  8
0
 62
     1
 10
206.6917106295611
 20
10.21556490733883
 30
0.0
 11
206.6917106295611
 21
38.076400983044081
 31
0.0
  0
LINE
  5
E70
  8
0
 62
     1
 10
206.6917106295611
 20
38.076400983044081
 30
0.0
 11
211.85121574397891
 21
38.076400983044081
 31
0.0
  0
LINE
  5
E71
  8
0
 62
     1
 10
201.12010657259279
 20
38.076400983044081
 30
0.0
 11
201.12010657259279
 21
10.21556490733883
 31
0.0
  0
ARC
  5
E72
  8
0
 62
     1
 10
228.50044180292451
 20
312.81487668412899
 30
0.0
 40
55.171409523611352
 50
252.43588902565719
 51
257.81047370398869
  0
ARC
  5
E73
  8
0
 62
     1
 10
195.20198361458841
 20
312.81487668412899
 30
0.0
 40
55.171409523611352
 50
282.1895262960179
 51
287.56411097434278
  0
ARC
  5
E75
  8
0
 62
     1
 10
235.2083402725209
 20
91.842369128636037
 30
0.0
 40
18.37702545244127
 50
138.606429585071
 51
177.3334930844255
  0
ARC
  5
E76
  8
0
 62
     1
 10
211.24684881207131
 20
112.7440169068327
 30
0.0
 40
13.420281606630519
 50
319.30616295074202
 51
24.341571494099728
  0
ARC
  5
E77
  8
0
 62
     1
 10
217.3677763624496
 20
126.2514127742655
 30
0.0
 40
10.045011191708671
 50
307.43773147248049
 51
50.664085230922979
  0
ARC
  5
E78
  8
0
 62
     1
 10
234.5310106847954
 20
143.83536176943289
 30
0.0
 40
14.590511484993
 50
124.68100919227869
 51
222.27403357562
  0
LINE
  5
E79
  8
0
 62
     1
 10
216.85121270875811
 20
155.83361625109731
 30
0.0
 11
226.22890765080859
 21
155.83361625109731
 31
0.0
  0
ARC
  5
E7A
  8
0
 62
     1
 10
188.4940888361958
 20
91.842369128636037
 30
0.0
 40
18.37702545244127
 50
2.6665069155744621
 51
41.393570414929009
  0
ARC
  5
E7B
  8
0
 62
     1
 10
212.45558029664551
 20
112.7440169068327
 30
0.0
 40
13.420281606630519
 50
155.6584285059003
 51
220.69383704925551
  0
ARC
  5
E7C
  8
0
 62
     1
 10
206.33465274626681
 20
126.2514127742655
 30
0.0
 40
10.045011191708671
 50
129.33591476906989
 51
232.56226852751959
  0
ARC
  5
E7D
  8
0
 62
     1
 10
189.17141842392141
 20
143.83536176943289
 30
0.0
 40
14.590511484993
 50
317.72596642437952
 51
55.318990807720802
  0
LINE
  5
E7E
  8
0
 62
     1
 10
206.85121639995859
 20
155.83361625109731
 30
0.0
 11
197.47352145790819
 21
155.83361625109731
 31
0.0
  0
POLYLINE
  5
E7F
  8
0
 62
     1
 66
     1
 10
0.0
 20
0.0
 30
0.0
 70
     1
  0
VERTEX
  5
1142
  8
0
 62
     1
 10
8.9216248989969245
 20
0.2157361132308324
 30
0.0
  0
VERTEX
  5
1143
  8
0
 62
     1
 10
8.9216248989969245
 20
265.96430685533539
 30
0.0
  0
VERTEX
  5
1144
  8
0
 62
     1
 10
246.9442988374617
 20
265.96430685533539
 30
0.0
  0
VERTEX
  5
1145
  8
0
 62
     1
 10
246.9442988374617
 20
0.2157361132308324
 30
0.0
  0
SEQEND
  5
1146
  8
0
 62
     1
  0
LINE
  5
EE2
  8
0
 62
     1
 10
216.85121270876189
 20
258.88733371827777
 30
0.0
 11
216.85121270875811
 21
155.83361625109731
 31
0.0
  0
LINE
  5
1029
  8
0
 62
     1
 10
342.2905895310729
 20
262.09143173172231
 30
0.0
 11
349.95271137972787
 21
262.09143173172231
 31
0.0
  0
LINE
  5
102A
  8
0
 62
     1
 10
274.73373749146532
 20
262.09143173172231
 30
0.0
 11
267.07161564281029
 21
262.09143173172231
 31
0.0
  0
LINE
  5
102B
  8
0
 62
     1
 10
342.2905895310729
 20
262.09143173172231
 30
0.0
 11
342.29058953097899
 21
258.09143173172231
 31
0.0
  0
LINE
  5
102C
  8
0
 62
     1
 10
342.29058953097899
 20
258.09143173172231
 30
0.0
 11
349.95271137972787
 21
258.09143173172231
 31
0.0
  0
LINE
  5
102D
  8
0
 62
     1
 10
349.95271137972787
 20
258.09143173172231
 30
0.0
 11
349.95271137972787
 21
262.09143173172231
 31
0.0
  0
LINE
  5
102E
  8
0
 62
     1
 10
274.73373749146532
 20
262.09143173172231
 30
0.0
 11
274.73373749146532
 21
258.09143173172231
 31
0.0
  0
LINE
  5
102F
  8
0
 62
     1
 10
274.73373749146532
 20
258.09143173172231
 30
0.0
 11
267.07161564281029
 21
258.09143173172231
 31
0.0
  0
LINE
  5
1030
  8
0
 62
     1
 10
267.07161564281029
 20
258.09143173172231
 30
0.0
 11
267.07161564281029
 21
262.09143173172231
 31
0.0
  0
LINE
  5
1031
  8
0
 62
     1
 10
353.51216351126698
 20
0.2157354981159045
 30
0.0
 11
353.51216351126698
 21
262.09143173172231
 31
0.0
  0
LINE
  5
1032
  8
0
 62
     1
 10
263.51216329986812
 20
0.2157361132308324
 30
0.0
 11
263.51216329986812
 21
266.09143173172231
 31
0.0
  0
LINE
  5
1033
  8
0
 62
     1
 10
263.51216329986812
 20
0.2157361132308324
 30
0.0
 11
353.51216329986772
 21
0.2157361132308324
 31
0.0
  0
LINE
  5
1034
  8
0
 62
     1
 10
284.73373362407779
 20
258.09142648208262
 30
0.0
 11
284.73373362407779
 21
262.09142648208262
 31
0.0
  0
LINE
  5
1035
  8
0
 62
     1
 10
284.73373362407779
 20
262.09142648208262
 30
0.0
 11
294.73373362407762
 21
262.09142648208262
 31
0.0
  0
LINE
  5
1036
  8
0
 62
     1
 10
294.73373362407762
 20
262.09142648208262
 30
0.0
 11
294.73373362407762
 21
258.09142648208262
 31
0.0
  0
LINE
  5
1037
  8
0
 62
     1
 10
332.29058566387511
 20
258.09142648208262
 30
0.0
 11
332.29058566387511
 21
262.09142648208262
 31
0.0
  0
LINE
  5
1038
  8
0
 62
     1
 10
332.29058566387511
 20
262.09142648208262
 30
0.0
 11
322.29058566387499
 21
262.09142648208262
 31
0.0
  0
LINE
  5
1039
  8
0
 62
     1
 10
322.29058566387499
 20
262.09142648208262
 30
0.0
 11
322.29058566387499
 21
258.09142648208262
 31
0.0
  0
LINE
  5
103A
  8
0
 62
     1
 10
332.29058566387511
 20
258.09142648208262
 30
0.0
 11
322.29058566387499
 21
258.09142648208262
 31
0.0
  0
LINE
  5
103B
  8
0
 62
     1
 10
294.73373362407762
 20
258.09142648208262
 30
0.0
 11
284.73373362407779
 21
258.09142648208262
 31
0.0
  0
LINE
  5
103C
  8
0
 62
     1
 10
342.2905895310729
 20
4.2157361132308031
 30
0.0
 11
349.95271137972787
 21
4.2157361132308031
 31
0.0
  0
LINE
  5
103D
  8
0
 62
     1
 10
274.73373749146532
 20
4.2157361132308031
 30
0.0
 11
267.07161564281029
 21
4.2157361132308031
 31
0.0
  0
LINE
  5
103E
  8
0
 62
     1
 10
342.2905895310729
 20
4.2157361132308031
 30
0.0
 11
342.29058953097899
 21
8.2157361132308182
 31
0.0
  0
LINE
  5
103F
  8
0
 62
     1
 10
342.29058953097899
 20
8.2157361132308182
 30
0.0
 11
349.95271137972787
 21
8.2157361132308182
 31
0.0
  0
LINE
  5
1040
  8
0
 62
     1
 10
349.95271137972787
 20
8.2157361132308182
 30
0.0
 11
349.95271137972787
 21
4.2157361132308031
 31
0.0
  0
LINE
  5
1041
  8
0
 62
     1
 10
274.73373749146532
 20
4.2157361132308031
 30
0.0
 11
274.73373749146532
 21
8.2157361132308182
 31
0.0
  0
LINE
  5
1042
  8
0
 62
     1
 10
274.73373749146532
 20
8.2157361132308182
 30
0.0
 11
267.07161564281029
 21
8.2157361132308182
 31
0.0
  0
LINE
  5
1043
  8
0
 62
     1
 10
267.07161564281029
 20
8.2157361132308182
 30
0.0
 11
267.07161564281029
 21
4.2157361132308031
 31
0.0
  0
LINE
  5
1044
  8
0
 62
     1
 10
284.73373362407779
 20
8.2157413628706166
 30
0.0
 11
284.73373362407779
 21
4.2157413628706157
 31
0.0
  0
LINE
  5
1045
  8
0
 62
     1
 10
284.73373362407779
 20
4.2157413628706157
 30
0.0
 11
294.73373362407762
 21
4.2157413628706157
 31
0.0
  0
LINE
  5
1046
  8
0
 62
     1
 10
294.73373362407762
 20
4.2157413628706157
 30
0.0
 11
294.73373362407762
 21
8.2157413628706166
 31
0.0
  0
LINE
  5
1047
  8
0
 62
     1
 10
332.29058566387511
 20
8.2157413628706166
 30
0.0
 11
332.29058566387511
 21
4.2157413628706157
 31
0.0
  0
LINE
  5
1048
  8
0
 62
     1
 10
332.29058566387511
 20
4.2157413628706157
 30
0.0
 11
322.29058566387499
 21
4.2157413628706157
 31
0.0
  0
LINE
  5
1049
  8
0
 62
     1
 10
322.29058566387499
 20
4.2157413628706157
 30
0.0
 11
322.29058566387499
 21
8.2157413628706166
 31
0.0
  0
LINE
  5
104A
  8
0
 62
     1
 10
332.29058566387511
 20
8.2157413628706166
 30
0.0
 11
322.29058566387499
 21
8.2157413628706166
 31
0.0
  0
LINE
  5
104B
  8
0
 62
     1
 10
294.73373362407762
 20
8.2157413628706166
 30
0.0
 11
284.73373362407779
 21
8.2157413628706166
 31
0.0
  0
LINE
  5
104C
  8
0
 62
     1
 10
353.51216351126698
 20
262.09143173172231
 30
0.0
 11
353.51216351126698
 21
266.09143173172231
 31
0.0
  0
LINE
  5
104D
  8
0
 62
     1
 10
353.51216351126698
 20
266.09143173172231
 30
0.0
 11
263.51216329986812
 21
266.09143173172231
 31
0.0
  0
LINE
  5
104E
  8
0
 62
     1
 10
303.01216351126891
 20
253.59143173172239
 30
0.0
 11
303.01216351126891
 21
258.59143173172231
 31
0.0
  0
LINE
  5
104F
  8
0
 62
     1
 10
314.01216351126891
 20
253.59143173172239
 30
0.0
 11
314.01216351126891
 21
258.59143173172231
 31
0.0
  0
LINE
  5
1050
  8
0
 62
     1
 10
303.01216351126891
 20
253.59143173172239
 30
0.0
 11
314.01216351126891
 21
253.59143173172239
 31
0.0
  0
LINE
  5
1051
  8
0
 62
     1
 10
303.01216351126891
 20
258.59143173172231
 30
0.0
 11
314.01216351126891
 21
258.59143173172231
 31
0.0
  0
ENDSEC
  0
EOF
