  0
SECTION
  2
HEADER
  9
$ACADVER
  1
AC1009
  9
$INSBASE
 10
0.0
 20
0.0
 30
0.0
  9
$EXTMIN
 10
-212.95502597291249
 20
15.889460283925469
 30
0.0
  9
$EXTMAX
 10
1373.489167568519
 20
695.71849024881931
 30
0.0
  9
$LIMMIN
 10
0.0
 20
0.0
  9
$LIMMAX
 10
420.0
 20
297.0
  9
$ORTHOMODE
 70
     0
  9
$REGENMODE
 70
     1
  9
$FILLMODE
 70
     1
  9
$QTEXTMODE
 70
     0
  9
$MIRRTEXT
 70
     0
  9
$DRAGMODE
 70
     2
  9
$LTSCALE
 40
1.0
  9
$OSMODE
 70
    37
  9
$ATTMODE
 70
     1
  9
$TEXTSIZE
 40
2.5
  9
$TRACEWID
 40
1.0
  9
$TEXTSTYLE
  7
STANDARD
  9
$CLAYER
  8
0
  9
$CELTYPE
  6
BYLAYER
  9
$CECOLOR
 62
     2
  9
$DIMSCALE
 40
1.0
  9
$DIMASZ
 40
2.5
  9
$DIMEXO
 40
0.625
  9
$DIMDLI
 40
3.75
  9
$DIMRND
 40
0.0
  9
$DIMDLE
 40
0.0
  9
$DIMEXE
 40
1.25
  9
$DIMTP
 40
0.0
  9
$DIMTM
 40
0.0
  9
$DIMTXT
 40
2.5
  9
$DIMCEN
 40
2.5
  9
$DIMTSZ
 40
0.0
  9
$DIMTOL
 70
     0
  9
$DIMLIM
 70
     0
  9
$DIMTIH
 70
     0
  9
$DIMTOH
 70
     0
  9
$DIMSE1
 70
     0
  9
$DIMSE2
 70
     0
  9
$DIMTAD
 70
     1
  9
$DIMZIN
 70
     8
  9
$DIMBLK
  1

  9
$DIMASO
 70
     1
  9
$DIMSHO
 70
     1
  9
$DIMPOST
  1

  9
$DIMAPOST
  1

  9
$DIMALT
 70
     0
  9
$DIMALTD
 70
     3
  9
$DIMALTF
 40
0.03937007874016
  9
$DIMLFAC
 40
1.0
  9
$DIMTOFL
 70
     1
  9
$DIMTVP
 40
0.0
  9
$DIMTIX
 70
     0
  9
$DIMSOXD
 70
     0
  9
$DIMSAH
 70
     0
  9
$DIMBLK1
  1

  9
$DIMBLK2
  1

  9
$DIMSTYLE
  2
ISO-25
  9
$DIMCLRD
 70
     0
  9
$DIMCLRE
 70
     0
  9
$DIMCLRT
 70
     0
  9
$DIMTFAC
 40
1.0
  9
$DIMGAP
 40
0.625
  9
$LUNITS
 70
     2
  9
$LUPREC
 70
     4
  9
$SKETCHINC
 40
1.0
  9
$FILLETRAD
 40
0.0
  9
$AUNITS
 70
     0
  9
$AUPREC
 70
     0
  9
$MENU
  1
.
  9
$ELEVATION
 40
0.0
  9
$PELEVATION
 40
0.0
  9
$THICKNESS
 40
0.0
  9
$LIMCHECK
 70
     0
  9
$BLIPMODE
 70
     0
  9
$CHAMFERA
 40
0.0
  9
$CHAMFERB
 40
0.0
  9
$SKPOLY
 70
     0
  9
$TDCREATE
 40
2456772.911875301
  9
$TDUPDATE
 40
2456775.4645501971
  9
$TDINDWG
 40
0.6042216204000001
  9
$TDUSRTIMER
 40
0.6042202199
  9
$USRTIMER
 70
     1
  9
$ANGBASE
 50
0.0
  9
$ANGDIR
 70
     0
  9
$PDMODE
 70
     0
  9
$PDSIZE
 40
0.0
  9
$PLINEWID
 40
0.0
  9
$COORDS
 70
     1
  9
$SPLFRAME
 70
     0
  9
$SPLINETYPE
 70
     6
  9
$SPLINESEGS
 70
     8
  9
$ATTDIA
 70
     0
  9
$ATTREQ
 70
     1
  9
$HANDLING
 70
     1
  9
$HANDSEED
  5
1802
  9
$SURFTAB1
 70
     6
  9
$SURFTAB2
 70
     6
  9
$SURFTYPE
 70
     6
  9
$SURFU
 70
     6
  9
$SURFV
 70
     6
  9
$UCSNAME
  2

  9
$UCSORG
 10
0.0
 20
0.0
 30
0.0
  9
$UCSXDIR
 10
1.0
 20
0.0
 30
0.0
  9
$UCSYDIR
 10
0.0
 20
1.0
 30
0.0
  9
$PUCSNAME
  2

  9
$PUCSORG
 10
0.0
 20
0.0
 30
0.0
  9
$PUCSXDIR
 10
1.0
 20
0.0
 30
0.0
  9
$PUCSYDIR
 10
0.0
 20
1.0
 30
0.0
  9
$USERI1
 70
     0
  9
$USERI2
 70
     0
  9
$USERI3
 70
     0
  9
$USERI4
 70
     0
  9
$USERI5
 70
     0
  9
$USERR1
 40
0.0
  9
$USERR2
 40
0.0
  9
$USERR3
 40
0.0
  9
$USERR4
 40
0.0
  9
$USERR5
 40
0.0
  9
$WORLDVIEW
 70
     1
  9
$SHADEDGE
 70
     3
  9
$SHADEDIF
 70
    70
  9
$TILEMODE
 70
     1
  9
$MAXACTVP
 70
    64
  9
$PLIMCHECK
 70
     0
  9
$PEXTMIN
 10
0.0
 20
0.0
 30
0.0
  9
$PEXTMAX
 10
0.0
 20
0.0
 30
0.0
  9
$PLIMMIN
 10
0.0
 20
0.0
  9
$PLIMMAX
 10
12.0
 20
9.0
  9
$UNITMODE
 70
     0
  9
$VISRETAIN
 70
     1
  9
$PLINEGEN
 70
     0
  9
$PSLTSCALE
 70
     1
  0
ENDSEC
  0
SECTION
  2
TABLES
  0
TABLE
  2
VPORT
 70
     1
  0
VPORT
  2
*ACTIVE
 70
     0
 10
0.0
 20
0.0
 11
1.0
 21
1.0
 12
399.25834743326328
 22
261.93853738311662
 13
0.0
 23
0.0
 14
10.0
 24
10.0
 15
10.0
 25
10.0
 16
0.0
 26
0.0
 36
1.0
 17
0.0
 27
0.0
 37
0.0
 40
1214.319524344766
 41
2.4881170018281531
 42
50.0
 43
0.0
 44
0.0
 50
0.0
 51
0.0
 71
     0
 72
  1000
 73
     1
 74
     3
 75
     0
 76
     1
 77
     0
 78
     0
  0
ENDTAB
  0
TABLE
  2
LTYPE
 70
     1
  0
LTYPE
  2
CONTINUOUS
 70
     0
  3
Solid line
 72
    65
 73
     0
 40
0.0
  0
ENDTAB
  0
TABLE
  2
LAYER
 70
     1
  0
LAYER
  2
0
 70
     0
 62
     7
  6
CONTINUOUS
  0
ENDTAB
  0
TABLE
  2
STYLE
 70
     2
  0
STYLE
  2
STANDARD
 70
     0
 40
0.0
 41
1.0
 50
0.0
 71
     0
 42
2.5
  3
txt
  4

  0
STYLE
  2
������������
 70
     0
 40
0.0
 41
1.0
 50
0.0
 71
     0
 42
2.5
  3
txt
  4

  0
ENDTAB
  0
TABLE
  2
VIEW
 70
     0
  0
ENDTAB
  0
TABLE
  2
UCS
 70
     0
  0
ENDTAB
  0
TABLE
  2
APPID
 70
     9
  0
APPID
  2
ACAD
 70
     0
  0
APPID
  2
ACAD_PSEXT
 70
     0
  0
APPID
  2
ACADANNOPO
 70
     0
  0
APPID
  2
ACADANNOTATIVE
 70
     0
  0
APPID
  2
ACAD_DSTYLE_DIMJAG
 70
     0
  0
APPID
  2
ACAD_DSTYLE_DIMTALN
 70
     0
  0
APPID
  2
ACAD_MLEADERVER
 70
     0
  0
APPID
  2
ACAD_NAV_VCDISPLAY
 70
     0
  0
APPID
  2
ACAD_EXEMPT_FROM_CAD_STANDARDS
 70
     0
  0
ENDTAB
  0
TABLE
  2
DIMSTYLE
 70
     3
  0
DIMSTYLE
  2
STANDARD
 70
     0
  3

  4

  5

  6

  7

 40
1.0
 41
0.18
 42
0.0625
 43
0.38
 44
0.18
 45
0.0
 46
0.0
 47
0.0
 48
0.0
140
0.18
141
0.09
142
0.0
143
25.399999999999999
144
1.0
145
0.0
146
1.0
147
0.09
 71
     0
 72
     0
 73
     1
 74
     1
 75
     0
 76
     0
 77
     0
 78
     0
170
     0
171
     2
172
     0
173
     0
174
     0
175
     0
176
     0
177
     0
178
     0
  0
DIMSTYLE
  2
������������
 70
     0
  3

  4

  5

  6

  7

 40
0.0
 41
2.5
 42
0.625
 43
3.75
 44
1.25
 45
0.0
 46
0.0
 47
0.0
 48
0.0
140
2.5
141
2.5
142
0.0
143
0.03937007874016
144
1.0
145
0.0
146
1.0
147
0.625
 71
     0
 72
     0
 73
     0
 74
     0
 75
     0
 76
     0
 77
     1
 78
     8
170
     0
171
     3
172
     1
173
     0
174
     0
175
     0
176
     0
177
     0
178
     0
  0
DIMSTYLE
  2
ISO-25
 70
     0
  3

  4

  5

  6

  7

 40
1.0
 41
2.5
 42
0.625
 43
3.75
 44
1.25
 45
0.0
 46
0.0
 47
0.0
 48
0.0
140
2.5
141
2.5
142
0.0
143
0.03937007874016
144
1.0
145
0.0
146
1.0
147
0.625
 71
     0
 72
     0
 73
     0
 74
     0
 75
     0
 76
     0
 77
     1
 78
     8
170
     0
171
     3
172
     1
173
     0
174
     0
175
     0
176
     0
177
     0
178
     0
  0
ENDTAB
  0
ENDSEC
  0
SECTION
  2
BLOCKS
  0
BLOCK
  8
0
  2
$MODEL_SPACE
 70
     0
 10
0.0
 20
0.0
 30
0.0
  3
$MODEL_SPACE
  1

  0
ENDBLK
  5
21
  8
0
  0
BLOCK
 67
     1
  8
0
  2
$PAPER_SPACE
 70
     0
 10
0.0
 20
0.0
 30
0.0
  3
$PAPER_SPACE
  1

  0
ENDBLK
  5
D5
 67
     1
  8
0
  0
BLOCK
  8
0
 62
     2
  2
A$C25B12D73
 70
     0
 10
0.0
 20
0.0
 30
0.0
  3
A$C25B12D73
  1

  0
LINE
  5
16C1
  8
0
 62
     2
 10
0.0
 20
0.0
 30
0.0
 11
119.98429999999991
 21
0.0
 31
0.0
  0
ENDBLK
  5
16C5
  8
0
 62
     2
  0
ENDSEC
  0
SECTION
  2
ENTITIES
  0
ARC
  5
1143
  8
0
 62
     2
 10
-22.20069050486768
 20
162.2252790014395
 30
0.0
 40
267.25550740386882
 50
331.62479889963168
 51
24.80709145218734
  0
ARC
  5
1144
  8
0
 62
     2
 10
201.76156305580321
 20
42.697404606876489
 30
0.0
 40
13.45652058267958
 50
168.93207943937509
 51
326.21154326724991
  0
ARC
  5
1145
  8
0
 62
     2
 10
196.33857427316681
 20
44.157573530483553
 30
0.0
 40
7.8638590686917498
 50
43.442620034281511
 51
171.78896249888149
  0
LINE
  5
1146
  8
0
 62
     2
 10
202.0482343144518
 20
49.564981566243318
 30
0.0
 11
207.56176211341361
 21
63.911783172103931
 31
0.0
  0
ARC
  5
1147
  8
0
 62
     2
 10
180.79793578279941
 20
67.054626314352845
 30
0.0
 40
26.947724632555921
 50
353.3024999241062
 51
84.821392134754575
  0
ARC
  5
1148
  8
0
 62
     2
 10
179.27208042415879
 20
73.588135438840354
 30
0.0
 40
20.686432573103001
 50
78.96890551537534
 51
141.1617796596193
  0
ARC
  5
1149
  8
0
 62
     2
 10
152.8457227011165
 20
82.931513050443641
 30
0.0
 40
4.1884842445332584
 50
167.51480042790291
 51
305.83284672687171
  0
LINE
  5
114A
  8
0
 62
     2
 10
155.29775582135289
 20
79.535790175418924
 30
0.0
 11
163.15900845045721
 21
86.561084377761176
 31
0.0
  0
ARC
  5
114B
  8
0
 62
     2
 10
147.92495690297281
 20
84.115968156753297
 30
0.0
 40
0.8768859994629673
 50
341.4505553338023
 51
160.3205483460423
  0
ARC
  5
114C
  8
0
 62
     2
 10
115.2707542439333
 20
100.910129786497
 30
0.0
 40
35.85063597939255
 50
297.65405890135531
 51
332.59926437449298
  0
ARC
  5
114D
  8
0
 62
     2
 10
129.93017162474621
 20
77.723185479932795
 30
0.0
 40
8.7941318100756778
 50
223.4897165503136
 51
283.01176597959841
  0
ARC
  5
114E
  8
0
 62
     2
 10
121.04784473236541
 20
69.394399011049245
 30
0.0
 40
3.3827866679255161
 50
42.295256419050141
 51
132.3962391776021
  0
ARC
  5
114F
  8
0
 62
     2
 10
104.6010658896859
 20
101.6897053411703
 30
0.0
 40
32.993055050361157
 50
181.76505306002909
 51
295.42699631866691
  0
ARC
  5
1150
  8
0
 62
     2
 10
217.47397533387249
 20
104.2556682803978
 30
0.0
 40
145.8942942467734
 50
163.7847159178348
 51
181.4069416369459
  0
ARC
  5
1151
  8
0
 62
     2
 10
91.415529647897657
 20
92.467414917408334
 30
0.0
 40
6.2275084731099994
 50
194.58601526764929
 51
338.041670988362
  0
ARC
  5
1152
  8
0
 62
     2
 10
79.246785479496907
 20
94.396840522496916
 30
0.0
 40
18.44277284483158
 50
346.65103717310649
 51
18.50947703128428
  0
ARC
  5
1153
  8
0
 62
     2
 10
108.3272454046739
 20
104.10172145813
 30
0.0
 40
12.21434931706861
 50
132.00484356267901
 51
198.3731228954702
  0
ARC
  5
1154
  8
0
 62
     2
 10
99.869393164106341
 20
120.04888175598821
 30
0.0
 40
6.8766914221848001
 50
127.6151093310873
 51
272.36767781496047
  0
ARC
  5
1155
  8
0
 62
     2
 10
105.6990395570331
 20
129.85757924147291
 30
0.0
 40
10.934369055570761
 50
138.43601036504191
 51
203.50801829956299
  0
ARC
  5
1156
  8
0
 62
     2
 10
99.426582349501004
 20
145.70376378391089
 30
0.0
 40
8.8011946685493267
 50
205.22859033925391
 51
257.47414687137331
  0
ARC
  5
1157
  8
0
 62
     2
 10
98.215504276347133
 20
135.53324935951699
 30
0.0
 40
9.3153926147257611
 50
87.469505563208358
 51
136.44162114817331
  0
LINE
  5
1158
  8
0
 62
     2
 10
98.626789134461035
 20
144.83955820523951
 30
0.0
 11
104.78389163581549
 21
151.48986625523401
 31
0.0
  0
ARC
  5
1159
  8
0
 62
     2
 10
179.81456691457041
 20
111.3428116570594
 30
0.0
 40
96.613576698428275
 50
159.72010875933691
 51
192.21628877120051
  0
ARC
  5
115A
  8
0
 62
     2
 10
89.021664451645506
 20
226.97712310559089
 30
0.0
 40
19.03876353187275
 50
197.64753032660229
 51
244.93386005430091
  0
ARC
  5
115B
  8
0
 62
     2
 10
68.594795034837716
 20
230.55560589204609
 30
0.0
 40
9.6252186038093583
 50
207.1477713543056
 51
283.72733151698571
  0
LINE
  5
115C
  8
0
 62
     2
 10
60.029961000508479
 20
226.1637439707747
 30
0.0
 11
56.700920754467568
 21
232.96533611662451
 31
0.0
  0
ARC
  5
115D
  8
0
 62
     2
 10
46.459831264225947
 20
217.0115827243585
 30
0.0
 40
18.957904980466019
 50
57.302640311298312
 51
87.843169112803878
  0
ARC
  5
115E
  8
0
 62
     2
 10
47.464420004841713
 20
248.61762101038471
 30
0.0
 40
12.664910020568181
 50
207.89029292193081
 51
268.68291007877582
  0
ARC
  5
115F
  8
0
 62
     2
 10
80.672692769257537
 20
202.4205074599636
 30
0.0
 40
7.3164081874316524
 50
11.273699004598299
 51
87.783788772255889
  0
ARC
  5
1160
  8
0
 62
     2
 10
49.442554264430669
 20
193.47117658541009
 30
0.0
 40
39.783287931434039
 50
350.34892994353908
 51
15.12376922982061
  0
LINE
  5
1161
  8
0
 62
     2
 10
77.383468666045701
 20
144.99625044751539
 30
0.0
 11
88.662789228226629
 21
186.80160628290761
 31
0.0
  0
ARC
  5
1162
  8
0
 62
     2
 10
104.8908022572255
 20
93.330353953556198
 30
0.0
 40
14.20906813935173
 50
235.69110745882591
 51
42.888454114898181
  0
ARC
  5
1163
  8
0
 62
     2
 10
95.994396814653115
 20
91.896576299971741
 30
0.0
 40
10.34121186703601
 50
274.922739893234
 51
16.294049636805429
  0
ARC
  5
1164
  8
0
 62
     2
 10
108.7795997716261
 20
100.99371753487731
 30
0.0
 40
6.823713317122281
 50
245.22653472892659
 51
17.104401684912219
  0
ARC
  5
1165
  8
0
 62
     2
 10
110.2821413340136
 20
102.75153825790269
 30
0.0
 40
8.5677374827480541
 50
113.4458163461949
 51
182.9915015063176
  0
ARC
  5
1166
  8
0
 62
     2
 10
107.281148431053
 20
108.9589977882394
 30
0.0
 40
1.702497056641294
 50
282.89278060462249
 51
103.8641209772241
  0
ARC
  5
1167
  8
0
 62
     2
 10
109.6617445141421
 20
102.04151949402021
 30
0.0
 40
5.625693536435735
 50
110.83268313535631
 51
181.07102880390801
  0
ARC
  5
1168
  8
0
 62
     2
 10
102.9209265950393
 20
102.3675923220934
 30
0.0
 40
1.1965168944914759
 50
183.02708579896421
 51
338.87508327954907
  0
ARC
  5
1169
  8
0
 62
     2
 10
114.8381047088217
 20
127.7655100406262
 30
0.0
 40
14.974940845707261
 50
129.14976247968829
 51
229.27377103278729
  0
ARC
  5
116A
  8
0
 62
     2
 10
105.88815684251399
 20
148.22102669738021
 30
0.0
 40
8.8568533652322081
 50
266.73474031159287
 51
326.21904292597662
  0
ARC
  5
116B
  8
0
 62
     2
 10
130.00030904067711
 20
144.14920611375859
 30
0.0
 40
16.772300159100471
 50
182.9143719386413
 51
215.11800268953289
  0
ARC
  5
116C
  8
0
 62
     2
 10
106.0305970905236
 20
128.1438310766676
 30
0.0
 40
12.061623804376859
 50
355.56397387701008
 51
31.805369454561191
  0
LINE
  5
116D
  8
0
 62
     2
 10
118.0560880834862
 20
127.2109135152039
 30
0.0
 11
120.53331293806249
 21
130.4702731721847
 31
0.0
  0
ARC
  5
116E
  8
0
 62
     2
 10
131.5789617593154
 20
141.84728255024561
 30
0.0
 40
12.504391710109809
 50
207.55118677097559
 51
245.56291963710299
  0
ARC
  5
116F
  8
0
 62
     2
 10
111.3832164417466
 20
167.4539248456162
 30
0.0
 40
17.27432356335067
 50
214.67005746879701
 51
247.54046391456589
  0
ARC
  5
1170
  8
0
 62
     2
 10
108.2271676227471
 20
150.51751067456209
 30
0.0
 40
13.14066609240178
 50
103.2995406210017
 51
147.2440180086619
  0
ARC
  5
1171
  8
0
 62
     2
 10
130.01992705793381
 20
180.535333540202
 30
0.0
 40
30.210521205793391
 50
179.47716289673261
 51
214.77234837933861
  0
ARC
  5
1172
  8
0
 62
     2
 10
-157.7309506920212
 20
231.56488922081979
 30
0.0
 40
261.71157910586118
 50
340.64530697487902
 51
348.81776093369382
  0
ARC
  5
1173
  8
0
 62
     2
 10
99.411377705750397
 20
180.69386316339421
 30
0.0
 40
0.416115485189209
 50
16.35089247574507
 51
163.63657625478959
  0
ARC
  5
1174
  8
0
 62
     2
 10
119.00025436602991
 20
134.71142882614799
 30
0.0
 40
8.5377467851215698
 50
330.1589404021118
 51
50.18260812108295
  0
ARC
  5
1175
  8
0
 62
     2
 10
134.27908722753381
 20
134.70750347576859
 30
0.0
 40
14.38403390786811
 50
197.13227733256619
 51
227.54507568120309
  0
ARC
  5
1176
  8
0
 62
     2
 10
106.6777451904739
 20
110.2044790053957
 30
0.0
 40
6.4177088792950041
 50
24.042310809761592
 51
104.5286411297264
  0
ARC
  5
1177
  8
0
 62
     2
 10
112.39463674567079
 20
117.5968541996702
 30
0.0
 40
4.7799000521948587
 50
271.72693847551409
 51
319.23421549537977
  0
ARC
  5
1178
  8
0
 62
     2
 10
117.4184501606446
 20
107.9531302048081
 30
0.0
 40
6.6719092258352166
 50
42.251025442843648
 51
102.1442000536743
  0
ARC
  5
1179
  8
0
 62
     2
 10
122.7193622669983
 20
178.4993249160228
 30
0.0
 40
16.874824172322519
 50
146.20360643271709
 51
225.0347740877456
  0
ARC
  5
117A
  8
0
 62
     2
 10
128.6605635164
 20
170.6688649200193
 30
0.0
 40
18.332697370058121
 50
150.9991043620505
 51
192.95228530123791
  0
ARC
  5
117B
  8
0
 62
     2
 10
101.0138145245341
 20
164.7559238711743
 30
0.0
 40
18.812956198444549
 50
359.48968271339851
 51
51.882657272010633
  0
ARC
  5
117C
  8
0
 62
     2
 10
128.15783820282471
 20
161.14290506239999
 30
0.0
 40
9.0161138772079372
 50
70.255790994602236
 51
157.53341165166739
  0
ARC
  5
117D
  8
0
 62
     2
 10
127.6251744253882
 20
183.2662940244555
 30
0.0
 40
4.5671201576411544
 50
53.116384101412429
 51
198.45352876597241
  0
ARC
  5
117E
  8
0
 62
     2
 10
129.93332899419269
 20
184.55691701955899
 30
0.0
 40
7.1821039065285657
 50
202.39474624531471
 51
292.94240832421428
  0
ARC
  5
117F
  8
0
 62
     2
 10
108.8369076378208
 20
185.91928943266819
 30
0.0
 40
1.9715813397592901
 50
356.4122483352657
 51
94.096795288121385
  0
ARC
  5
1180
  8
0
 62
     2
 10
113.7969383016828
 20
192.03037129550029
 30
0.0
 40
6.9153744520495026
 50
244.36068517480641
 51
17.084185326581441
  0
ARC
  5
1181
  8
0
 62
     2
 10
125.7769992912465
 20
194.73885228947961
 30
0.0
 40
3.7874687242260019
 50
181.0864394372272
 51
294.78225132155609
  0
ARC
  5
1182
  8
0
 62
     2
 10
121.12337718584941
 20
194.56152236160591
 30
0.0
 40
0.8732327080332188
 50
6.9402544216903248
 51
214.8968070288864
  0
ARC
  5
1183
  8
0
 62
     2
 10
128.6301818804655
 20
187.9851526187835
 30
0.0
 40
3.5483974895258301
 50
357.09798277845277
 51
110.8954691139315
  0
ARC
  5
1184
  8
0
 62
     2
 10
130.9649000426285
 20
187.9851526187833
 30
0.0
 40
1.222401744388931
 50
240.6808190256819
 51
351.54899321101158
  0
ARC
  5
1185
  8
0
 62
     2
 10
155.9565134793404
 20
61.806150115095079
 30
0.0
 40
42.484002290772928
 50
80.283740257302284
 51
105.9553239514797
  0
ARC
  5
1186
  8
0
 62
     2
 10
144.88273136461061
 20
99.652067426143162
 30
0.0
 40
3.061723931889452
 50
101.3881031159213
 51
204.82350255106681
  0
ARC
  5
1187
  8
0
 62
     2
 10
140.87934501412099
 20
93.496763519438886
 30
0.0
 40
3.7815930193349718
 50
86.483270412857891
 51
215.6342079397788
  0
ARC
  5
1188
  8
0
 62
     2
 10
141.28146676181629
 20
98.114469595294054
 30
0.0
 40
0.8602312093504446
 50
258.59130966061048
 51
17.04904642968658
  0
ARC
  5
1189
  8
0
 62
     2
 10
135.27216910886719
 20
84.648237351497528
 30
0.0
 40
2.517764658316417
 50
131.281564228701
 51
289.46134118389921
  0
ARC
  5
118A
  8
0
 62
     2
 10
126.7436056820307
 20
101.6814588803103
 30
0.0
 40
21.549601778247041
 50
295.76560692861182
 51
318.9995806115756
  0
LINE
  5
118B
  8
0
 62
     2
 10
143.0071931089654
 20
87.543529017438573
 30
0.0
 11
152.6298862067618
 21
97.151246378118003
 31
0.0
  0
ARC
  5
118C
  8
0
 62
     2
 10
145.13883128569481
 20
71.915770790270244
 30
0.0
 40
18.621653617802021
 50
115.4786017648472
 51
128.24698035217151
  0
ARC
  5
118D
  8
0
 62
     2
 10
136.01823433972501
 20
90.392378101180384
 30
0.0
 40
2.0019252727892121
 50
303.67554549342128
 51
26.75430810979838
  0
ARC
  5
118E
  8
0
 62
     2
 10
163.5133366431958
 20
84.382615926592507
 30
0.0
 40
16.777586745713339
 50
91.582054833931437
 51
130.44289578790389
  0
ARC
  5
118F
  8
0
 62
     2
 10
162.62375698995911
 20
102.4313161954252
 30
0.0
 40
1.3467830185907359
 50
288.45667726209791
 51
68.081209752810594
  0
ARC
  5
1190
  8
0
 62
     2
 10
139.66033482653651
 20
108.2728654979136
 30
0.0
 40
2.0032192766022749
 50
65.609973312985005
 51
205.46265607821809
  0
ARC
  5
1191
  8
0
 62
     2
 10
139.92318021969029
 20
108.5879356552382
 30
0.0
 40
2.382167941577328
 50
209.59024035259401
 51
264.1897768622776
  0
LINE
  5
1192
  8
0
 62
     2
 10
139.6820242839417
 20
106.2180057160772
 30
0.0
 11
142.95517928148681
 21
106.2180057160772
 31
0.0
  0
LINE
  5
1193
  8
0
 62
     2
 10
140.48755602053851
 20
110.097308581801
 30
0.0
 11
143.70672527656819
 21
107.76083247058411
 31
0.0
  0
ARC
  5
1194
  8
0
 62
     2
 10
142.91796785089741
 20
107.19059319929261
 30
0.0
 40
0.9732990820265625
 50
272.19108156044661
 51
35.865386096101332
  0
ARC
  5
1195
  8
0
 62
     2
 10
118.2927539376294
 20
141.8634347323752
 30
0.0
 40
6.2031160348136751
 50
290.77105177093671
 51
354.5026668225766
  0
ARC
  5
1196
  8
0
 62
     2
 10
166.23523435647431
 20
92.298996860723037
 30
0.0
 40
5.9917002523099256
 50
76.965264779236534
 51
162.82510447551689
  0
ARC
  5
1197
  8
0
 62
     2
 10
168.84975634997861
 20
90.478453258815762
 30
0.0
 40
6.3958110319410908
 50
99.42962308193033
 51
160.81709015387401
  0
ARC
  5
1198
  8
0
 62
     2
 10
161.76378058980629
 20
93.484582031679338
 30
0.0
 40
1.3823440213216831
 50
155.02300437686009
 51
319.12826138629248
  0
ARC
  5
1199
  8
0
 62
     2
 10
167.32533724191009
 20
97.40318050335226
 30
0.0
 40
0.7782973202121388
 50
307.75631525118303
 51
70.384805518276664
  0
ARC
  5
119A
  8
0
 62
     2
 10
152.34251176586059
 20
172.16134395907071
 30
0.0
 40
2.6557861397558482
 50
212.8313893880985
 51
11.02455706805228
  0
ARC
  5
119B
  8
0
 62
     2
 10
157.24827820384209
 20
174.64455642410621
 30
0.0
 40
8.1444675386802405
 50
106.57363266524879
 51
208.79573920099281
  0
ARC
  5
119C
  8
0
 62
     2
 10
173.04684678075111
 20
177.60472765742179
 30
0.0
 40
18.758492523779179
 50
165.02886618658749
 51
195.25458875299199
  0
ARC
  5
119D
  8
0
 62
     2
 10
200.65474557937819
 20
40.77625823417327
 30
0.0
 40
3.7731167614465919
 50
59.353845364153273
 51
208.17035465568469
  0
ARC
  5
119E
  8
0
 62
     2
 10
202.39519529223591
 20
41.863141506919192
 30
0.0
 40
5.8221182161386391
 50
209.51360933991441
 51
316.62336457198882
  0
ARC
  5
119F
  8
0
 62
     2
 10
204.58881304031891
 20
47.614056193586521
 30
0.0
 40
4.1162237567732802
 50
240.7578990819764
 51
295.56382411476102
  0
ARC
  5
11A0
  8
0
 62
     2
 10
199.86256104230549
 20
56.355745961462162
 30
0.0
 40
14.0501974917906
 50
297.56810960070732
 51
321.6794803910006
  0
ARC
  5
11A1
  8
0
 62
     2
 10
194.49201977031129
 20
48.966039853438701
 30
0.0
 40
16.446923013832031
 50
317.54677209095553
 51
355.38869559417952
  0
ARC
  5
11A2
  8
0
 62
     2
 10
175.03987297709341
 20
67.541758063332281
 30
0.0
 40
38.513474645607133
 50
45.566945241989849
 51
89.24420763156607
  0
ARC
  5
11A3
  8
0
 62
     2
 10
174.2886914580003
 20
112.2689442110065
 30
0.0
 40
6.3432994958079361
 50
193.8859854475327
 51
281.44976916309008
  0
ARC
  5
11A4
  8
0
 62
     2
 10
160.5643872454915
 20
105.337848188685
 30
0.0
 40
9.3008025066077717
 50
35.558742485376122
 51
84.271974608973764
  0
ARC
  5
11A5
  8
0
 62
     2
 10
170.51737297564031
 20
130.97038688767799
 30
0.0
 40
18.699999209302309
 50
170.11420113124569
 51
241.1443489444606
  0
ARC
  5
11A6
  8
0
 62
     2
 10
146.26149351718249
 20
153.47221097294889
 30
0.0
 40
9.2649036736934161
 50
3.819310836642472
 51
69.184656269466913
  0
LINE
  5
11A7
  8
0
 62
     2
 10
152.09503304433039
 20
134.18089492896561
 30
0.0
 11
155.50582053300249
 21
154.08934799776529
 31
0.0
  0
ARC
  5
11A8
  8
0
 62
     2
 10
150.36370263230589
 20
173.8018613006613
 30
0.0
 40
11.69753008611354
 50
266.0300512397539
 51
9.4857226181932575
  0
ARC
  5
11A9
  8
0
 62
     2
 10
153.60869368636071
 20
206.0474845547742
 30
0.0
 40
31.431498460301661
 50
285.29748615239339
 51
330.55811617763288
  0
ARC
  5
11AA
  8
0
 62
     2
 10
197.02066806655489
 20
196.14727921073239
 30
0.0
 40
16.972647241804399
 50
199.0853350992177
 51
251.0403085092249
  0
ARC
  5
11AB
  8
0
 62
     2
 10
195.77590467881171
 20
192.1736705808618
 30
0.0
 40
12.81069556768546
 50
250.53130857996851
 51
331.32402610644073
  0
ARC
  5
11AC
  8
0
 62
     2
 10
196.696067812314
 20
189.13747472946639
 30
0.0
 40
10.778040941340841
 50
343.22280973041791
 51
49.501761209382281
  0
ARC
  5
11AD
  8
0
 62
     2
 10
200.61532386485709
 20
193.03018609673109
 30
0.0
 40
5.2920231550587697
 50
54.404508028765576
 51
165.4091221272657
  0
ARC
  5
11AE
  8
0
 62
     2
 10
193.56320520091111
 20
194.42564551662821
 30
0.0
 40
1.9317724424169209
 50
226.19403819832391
 51
358.15134945657712
  0
ARC
  5
11AF
  8
0
 62
     2
 10
196.60725115451339
 20
194.54837846492549
 30
0.0
 40
4.6364084593420607
 50
132.9012045479906
 51
199.09678943390281
  0
ARC
  5
11B0
  8
0
 62
     2
 10
213.8508744655785
 20
171.58794837360909
 30
0.0
 40
33.32910045286517
 50
109.5081914134625
 51
127.7394418718556
  0
ARC
  5
11B1
  8
0
 62
     2
 10
205.5974894312792
 20
194.33625281441911
 30
0.0
 40
9.13237527624511
 50
65.839598433066357
 51
108.3600908632194
  0
ARC
  5
11B2
  8
0
 62
     2
 10
212.0428468514969
 20
200.45904586973001
 30
0.0
 40
3.4947383689846419
 50
140.78226111643161
 51
273.31530323365803
  0
ARC
  5
11B3
  8
0
 62
     2
 10
212.14984687945869
 20
182.14498052046019
 30
0.0
 40
14.82548079144075
 50
46.452246984923391
 51
89.632454377196808
  0
ARC
  5
11B4
  8
0
 62
     2
 10
214.56318698448121
 20
186.87642181764721
 30
0.0
 40
9.8499575761093237
 50
349.02338955293072
 51
37.630616639681342
  0
ARC
  5
11B5
  8
0
 62
     2
 10
222.32298945494651
 20
187.32467689260349
 30
0.0
 40
3.007957522424265
 50
217.16354228375371
 51
309.41744608933129
  0
ARC
  5
11B6
  8
0
 62
     2
 10
229.67184110057269
 20
163.4276305694757
 30
0.0
 40
24.13520323020305
 50
113.8163178490839
 51
143.81131700749791
  0
ARC
  5
11B7
  8
0
 62
     2
 10
212.07618732560749
 20
175.98676666653279
 30
0.0
 40
2.5313465239756812
 50
138.0729624331459
 51
303.93194525374309
  0
ARC
  5
11B8
  8
0
 62
     2
 10
214.66601159958381
 20
172.7080300695406
 30
0.0
 40
1.665436501408623
 50
9.4645253649910952
 51
134.95941186550149
  0
ARC
  5
11B9
  8
0
 62
     2
 10
223.9504513613897
 20
179.15523005598649
 30
0.0
 40
9.823711880014514
 50
218.9330770586734
 51
272.27327407773367
  0
ARC
  5
11BA
  8
0
 62
     2
 10
225.55102399184759
 20
161.37569946555601
 30
0.0
 40
6.4201058505005131
 50
99.752346345505416
 51
189.17174618333539
  0
ARC
  5
11BB
  8
0
 62
     2
 10
224.18991678545009
 20
168.5051571044423
 30
0.0
 40
0.8475079232401427
 50
288.83454140866451
 51
79.791870466780111
  0
ARC
  5
11BC
  8
0
 62
     2
 10
221.06451447227431
 20
139.1922673015701
 30
0.0
 40
21.24095291248004
 50
95.00066111823169
 51
161.40284971919931
  0
ARC
  5
11BD
  8
0
 62
     2
 10
262.46592986838277
 20
121.7857954445746
 30
0.0
 40
66.11381699343427
 50
158.54686672284299
 51
203.8595362164545
  0
ARC
  5
11BE
  8
0
 62
     2
 10
224.7788136412988
 20
120.930275553822
 30
0.0
 40
20.74176593725354
 50
141.5444532321207
 51
203.47626933397279
  0
ARC
  5
11BF
  8
0
 62
     2
 10
146.42840233303471
 20
79.605746235306356
 30
0.0
 40
67.916069720183444
 50
5.537935578047013
 51
29.13057304987106
  0
ARC
  5
11C0
  8
0
 62
     2
 10
214.87557279802681
 20
117.8266421274286
 30
0.0
 40
6.3559067509792762
 50
215.50924804657981
 51
331.99011582647779
  0
ARC
  5
11C1
  8
0
 62
     2
 10
223.500507157459
 20
122.55065426863879
 30
0.0
 40
16.162643726368788
 50
143.70543522783819
 51
211.37860555245979
  0
ARC
  5
11C2
  8
0
 62
     2
 10
209.47928873951309
 20
132.94483881322029
 30
0.0
 40
1.293286530407282
 50
320.25320815650417
 51
136.8257638263143
  0
LINE
  5
11C3
  8
0
 62
     2
 10
220.4869905210391
 20
114.8417565743452
 30
0.0
 11
226.6316279035162
 21
128.0339005706671
 31
0.0
  0
ARC
  5
11C4
  8
0
 62
     2
 10
215.2776428127236
 20
86.151537626301206
 30
0.0
 40
1.2501960630436031
 50
179.61346019485791
 51
315.17938366730931
  0
ARC
  5
11C5
  8
0
 62
     2
 10
127.60513059742721
 20
129.60967199844001
 30
0.0
 40
99.039033841740647
 50
333.40403916032238
 51
359.0883507395036
  0
ARC
  5
11C6
  8
0
 62
     2
 10
212.2046626072096
 20
138.2563384801874
 30
0.0
 40
12.13785004460928
 50
303.7648611469665
 51
64.15832559751972
  0
ARC
  5
11C7
  8
0
 62
     2
 10
214.5896824020879
 20
140.93381735451919
 30
0.0
 40
8.7435492005417803
 50
70.590065506329481
 51
177.77058534047899
  0
ARC
  5
11C8
  8
0
 62
     2
 10
217.39654598240941
 20
129.6807938137392
 30
0.0
 40
2.1703737625998079
 50
141.52117279610459
 51
315.73181768912968
  0
ARC
  5
11C9
  8
0
 62
     2
 10
206.6910371797394
 20
141.201906320272
 30
0.0
 40
0.8413757375579569
 50
175.0880774556573
 51
331.74346173788041
  0
ARC
  5
11CA
  8
0
 62
     2
 10
211.1158899737616
 20
139.04353092359341
 30
0.0
 40
4.0826102876057453
 50
37.625698906376087
 51
154.4620222197228
  0
ARC
  5
11CB
  8
0
 62
     2
 10
206.20722423975511
 20
135.15219022629819
 30
0.0
 40
10.3463682005158
 50
336.52819693617892
 51
38.097859573649437
  0
ARC
  5
11CC
  8
0
 62
     2
 10
226.1987081114207
 20
161.1974457269294
 30
0.0
 40
2.8901333631838568
 50
55.551570181953991
 51
204.42462295059579
  0
ARC
  5
11CD
  8
0
 62
     2
 10
222.6022347339408
 20
157.339516318786
 30
0.0
 40
8.1436923532367462
 50
333.86469813235408
 51
50.030724590940942
  0
ARC
  5
11CE
  8
0
 62
     2
 10
220.17051449956401
 20
150.2067309003175
 30
0.0
 40
10.36786051775937
 50
19.997258077174749
 51
70.875668481415616
  0
ARC
  5
11CF
  8
0
 62
     2
 10
223.1889567044029
 20
177.9590858593715
 30
0.0
 40
1.8709146001728449
 50
66.510155804719389
 51
249.88187356098689
  0
ARC
  5
11D0
  8
0
 62
     2
 10
219.8616443688891
 20
167.5019124971586
 30
0.0
 40
12.836380642268519
 50
359.1726878319509
 51
71.500045606106255
  0
ARC
  5
11D1
  8
0
 62
     2
 10
219.27515395351949
 20
162.22492954171781
 30
0.0
 40
14.354872059819209
 50
20.774921108226192
 51
76.831395649759216
  0
ARC
  5
11D2
  8
0
 62
     2
 10
144.70745853887269
 20
122.2035689262472
 30
0.0
 40
3.6146284553742052
 50
357.16370485436448
 51
177.16370485436451
  0
ARC
  5
11D3
  8
0
 62
     2
 10
157.48826703739309
 20
122.5708328598414
 30
0.0
 40
16.392091751005012
 50
180.6585458848177
 51
268.93051250072511
  0
ARC
  5
11D4
  8
0
 62
     2
 10
164.9981887060373
 20
124.31094943866169
 30
0.0
 40
16.8364773300952
 50
187.80435923161619
 51
247.40801453220561
  0
ARC
  5
11D5
  8
0
 62
     2
 10
157.5646576284731
 20
107.62606663339101
 30
0.0
 40
1.494216860249342
 50
255.1739202079558
 51
49.746154090727572
  0
ARC
  5
11D6
  8
0
 62
     2
 10
220.52069721223731
 20
212.43120355048171
 30
0.0
 40
4.7561898120949477
 50
350.33878691556839
 51
174.5685067160268
  0
ARC
  5
11D7
  8
0
 62
     2
 10
226.46818908795569
 20
212.07653961138311
 30
0.0
 40
1.33461207074193
 50
199.4101672442703
 51
345.80462462666969
  0
ARC
  5
11D8
  8
0
 62
     2
 10
228.3769678689489
 20
207.93424566577389
 30
0.0
 40
3.8642480071686021
 50
51.60704820254125
 51
99.156418579706724
  0
ARC
  5
11D9
  8
0
 62
     2
 10
201.1473553638823
 20
203.32863586582809
 30
0.0
 40
30.597225412466511
 50
339.88349766797671
 51
14.448474348836941
  0
ARC
  5
11DA
  8
0
 62
     2
 10
222.96192829441301
 20
212.61475214399749
 30
0.0
 40
7.1810184654780382
 50
177.87196036771221
 51
258.67820106715072
  0
ARC
  5
11DB
  8
0
 62
     2
 10
218.01739046321589
 20
196.92139299171569
 30
0.0
 40
9.3462886159465661
 50
358.03975584701777
 51
67.77777198931939
  0
LINE
  5
11DC
  8
0
 62
     2
 10
227.35820965129369
 20
196.60169346370429
 30
0.0
 11
229.87800414686851
 21
192.80532728677511
 31
0.0
  0
ARC
  5
11DD
  8
0
 62
     2
 10
91.375581051546533
 20
199.953512924965
 30
0.0
 40
10.16442597821997
 50
338.81790397152429
 51
40.176338139905788
  0
ARC
  5
11DE
  8
0
 62
     2
 10
105.3095671735357
 20
194.22232175779911
 30
0.0
 40
4.9087500195404949
 50
155.2069300829952
 51
225.66894878515771
  0
ARC
  5
11DF
  8
0
 62
     2
 10
110.98615779402679
 20
193.4331637036093
 30
0.0
 40
5.6145143337245509
 50
56.414787814776517
 51
134.95310973793221
  0
ARC
  5
11E0
  8
0
 62
     2
 10
174.712645193893
 20
140.11830496329961
 30
0.0
 40
88.680983121392174
 50
139.75909275808721
 51
145.21472910740101
  0
ARC
  5
11E1
  8
0
 62
     2
 10
114.71757692646
 20
198.89756626102641
 30
0.0
 40
1.005478139847187
 50
231.52354628286139
 51
47.914216651568587
  0
ARC
  5
11E2
  8
0
 62
     2
 10
118.5716521823045
 20
205.6594627819714
 30
0.0
 40
6.804552604601767
 50
186.95788031976119
 51
242.13707486365769
  0
ARC
  5
11E3
  8
0
 62
     2
 10
161.5893113472209
 20
315.6729417193024
 30
0.0
 40
121.500104494623
 50
239.8662451351467
 51
245.8173660119665
  0
ARC
  5
11E4
  8
0
 62
     2
 10
100.1588785440853
 20
208.44840709283079
 30
0.0
 40
2.1881195107651328
 50
78.535585533401559
 51
242.30264432840499
  0
ARC
  5
11E5
  8
0
 62
     2
 10
158.0628384149652
 20
196.56762723042669
 30
0.0
 40
2.8148535523735361
 50
84.600370899260426
 51
243.56074711542789
  0
ARC
  5
11E6
  8
0
 62
     2
 10
160.96445702444731
 20
186.7866899539774
 30
0.0
 40
2.4260234013608488
 50
128.55701065800761
 51
293.0886436615861
  0
ARC
  5
11E7
  8
0
 62
     2
 10
159.32033883759351
 20
195.5883099750005
 30
0.0
 40
6.9057595469444344
 50
271.09520157117993
 51
336.96163536828431
  0
ARC
  5
11E8
  8
0
 62
     2
 10
164.69458298337099
 20
219.81860170022989
 30
0.0
 40
26.950693068932811
 50
252.9879183952124
 51
272.08544777398242
  0
ARC
  5
11E9
  8
0
 62
     2
 10
152.90349321829149
 20
205.6060344464556
 30
0.0
 40
22.899096778443379
 50
293.17666327918943
 51
341.70348666978828
  0
ARC
  5
11EA
  8
0
 62
     2
 10
182.43872722718581
 20
194.7429629443657
 30
0.0
 40
8.6164727951218918
 50
106.97156406204719
 51
154.7593149409773
  0
ARC
  5
11EB
  8
0
 62
     2
 10
167.38844266867019
 20
200.3963232403473
 30
0.0
 40
1.596304449251011
 50
270.45837202962861
 51
117.2103792151465
  0
ARC
  5
11EC
  8
0
 62
     2
 10
166.32570404664011
 20
203.0867896804111
 30
0.0
 40
1.313676869322403
 50
98.216453046428384
 51
284.67556407713607
  0
ARC
  5
11ED
  8
0
 62
     2
 10
170.41254465778209
 20
177.95546778167679
 30
0.0
 40
26.774932228506149
 50
69.192915791663694
 51
99.186504352950635
  0
ARC
  5
11EE
  8
0
 62
     2
 10
164.63727066218979
 20
227.3091864258738
 30
0.0
 40
28.642784510916439
 50
257.27428142010888
 51
275.53748687269888
  0
ARC
  5
11EF
  8
0
 62
     2
 10
184.3850571261228
 20
219.90917036588939
 30
0.0
 40
6.6912142644236416
 50
87.333330041195012
 51
229.35623975147681
  0
ARC
  5
11F0
  8
0
 62
     2
 10
185.97925022790849
 20
205.72553035896951
 30
0.0
 40
20.90700520940322
 50
45.065926254296748
 51
93.517955892290772
  0
ARC
  5
11F1
  8
0
 62
     2
 10
206.96944434888931
 20
227.3697218019197
 30
0.0
 40
9.2504654985474701
 50
227.71632731088721
 51
272.57885875256858
  0
ARC
  5
11F2
  8
0
 62
     2
 10
204.7755279778282
 20
219.40425354910619
 30
0.0
 40
2.9051738612745939
 50
333.95425485462658
 51
50.936793864353312
  0
ARC
  5
11F3
  8
0
 62
     2
 10
214.99646793060069
 20
230.0663142086234
 30
0.0
 40
11.876924592240769
 50
102.91942437703101
 51
225.05515698474051
  0
ARC
  5
11F4
  8
0
 62
     2
 10
211.22784446698211
 20
242.7932851457401
 30
0.0
 40
1.6010243466267311
 50
314.05021755087711
 51
64.183592331886359
  0
ARC
  5
11F5
  8
0
 62
     2
 10
215.54107447419381
 20
255.10394990035519
 30
0.0
 40
11.455130813634099
 50
166.27379996329401
 51
251.59894226882071
  0
ARC
  5
11F6
  8
0
 62
     2
 10
200.1457936676118
 20
259.58170150483738
 30
0.0
 40
4.6158664265658276
 50
337.59085871818741
 51
37.898762404085772
  0
ARC
  5
11F7
  8
0
 62
     2
 10
211.06385113618401
 20
268.83075065422759
 30
0.0
 40
9.6990109088594654
 50
149.641532130813
 51
221.39683731400569
  0
ARC
  5
11F8
  8
0
 62
     2
 10
211.79298033701909
 20
266.98672726087352
 30
0.0
 40
11.326332906676839
 50
40.590486892854798
 51
143.44444941103839
  0
LINE
  5
11F9
  8
0
 62
     2
 10
18.198084703680021
 20
253.3233584692432
 30
0.0
 11
22.645744503540531
 21
260.57230678241899
 31
0.0
  0
ARC
  5
11FA
  8
0
 62
     2
 10
27.883636416217541
 20
254.28011539162571
 30
0.0
 40
8.187013141998948
 50
9.7407957345010576
 51
129.77545890356791
  0
ARC
  5
11FB
  8
0
 62
     2
 10
38.101214199475749
 20
255.7491580625485
 30
0.0
 40
2.1502311419360418
 50
182.23545596515771
 51
318.2977067116118
  0
ARC
  5
11FC
  8
0
 62
     2
 10
41.317591540321132
 20
252.43125924897939
 30
0.0
 40
2.481471623060294
 50
26.109148186232801
 51
130.48187539681669
  0
ARC
  5
11FD
  8
0
 62
     2
 10
55.166897850554847
 20
257.3827262969441
 30
0.0
 40
12.24515827259383
 50
198.37161009992059
 51
281.4603525746557
  0
ARC
  5
11FE
  8
0
 62
     2
 10
57.33775668090356
 20
239.493320652374
 30
0.0
 40
5.8942177188204168
 50
25.089155401248789
 51
87.451086151612529
  0
ARC
  5
11FF
  8
0
 62
     2
 10
66.658438732183185
 20
238.77961889742639
 30
0.0
 40
1.9684341359066719
 50
211.8894858519146
 51
1.31679628900137
  0
ARC
  5
1200
  8
0
 62
     2
 10
18.581055245874609
 20
215.27470698455591
 30
0.0
 40
51.557720162822179
 50
25.831478844556539
 51
31.21251934637651
  0
ARC
  5
1201
  8
0
 62
     2
 10
71.493930791199773
 20
238.1419231226173
 30
0.0
 40
2.947778350169834
 50
34.705128397844987
 51
166.60420112435551
  0
ARC
  5
1202
  8
0
 62
     2
 10
80.15747241365051
 20
241.12812132312439
 30
0.0
 40
5.9711113714610331
 50
211.86598204508681
 51
276.9738157759341
  0
LINE
  5
1203
  8
0
 62
     2
 10
75.086295389616225
 20
237.9757675039443
 30
0.0
 11
73.917278983066922
 21
239.82024989136789
 31
0.0
  0
ARC
  5
1204
  8
0
 62
     2
 10
77.142351534329691
 20
206.74571169190651
 30
0.0
 40
28.700216221905741
 50
35.924542960799151
 51
82.512125966541959
  0
ARC
  5
1205
  8
0
 62
     2
 10
113.9793686085884
 20
234.3713055794158
 30
0.0
 40
17.355074011537148
 50
218.42763040510209
 51
273.46426977992098
  0
ARC
  5
1206
  8
0
 62
     2
 10
116.96062646919169
 20
206.44774595226659
 30
0.0
 40
10.774924674619459
 50
31.842819120907219
 51
100.33231231132621
  0
ARC
  5
1207
  8
0
 62
     2
 10
129.8584297687145
 20
210.07451470089401
 30
0.0
 40
4.2727879859414477
 50
61.415756908178217
 51
151.2068690003141
  0
ARC
  5
1208
  8
0
 62
     2
 10
108.9776524367865
 20
168.43351973422779
 30
0.0
 40
50.853551638188172
 50
50.668494066418887
 51
63.204581819006378
  0
ARC
  5
1209
  8
0
 62
     2
 10
149.45640182953829
 20
203.6577363598451
 30
0.0
 40
9.2150605933234431
 50
85.355679434194386
 51
153.50799581492291
  0
ARC
  5
120A
  8
0
 62
     2
 10
161.78576603445589
 20
263.73924938245392
 30
0.0
 40
52.198142404349738
 50
257.17883588276919
 51
290.4540316018215
  0
ARC
  5
120B
  8
0
 62
     2
 10
71.329067020540379
 20
232.44845421173949
 30
0.0
 40
1.8600689441350979
 50
55.795538950180273
 51
239.5496773347179
  0
ARC
  5
120C
  8
0
 62
     2
 10
65.249708568141386
 20
205.88030349186531
 30
0.0
 40
25.487624700116129
 50
55.148837304415451
 51
78.373163911014856
  0
ARC
  5
120D
  8
0
 62
     2
 10
83.584950604273615
 20
242.2478817289616
 30
0.0
 40
13.925343111619171
 50
216.38732584329921
 51
257.90040498863112
  0
ARC
  5
120E
  8
0
 62
     2
 10
80.306928066894557
 20
227.68325197465691
 30
0.0
 40
1.0143375086273649
 50
240.95848656512931
 51
69.265844316321278
  0
ARC
  5
120F
  8
0
 62
     2
 10
83.023804650552393
 20
220.80555912178079
 30
0.0
 40
3.0765477984287721
 50
86.733001341788224
 51
254.99709260538319
  0
ARC
  5
1210
  8
0
 62
     2
 10
83.737958591362599
 20
206.59285597826349
 30
0.0
 40
17.292647660211522
 50
42.332764168513719
 51
91.785578079034437
  0
ARC
  5
1211
  8
0
 62
     2
 10
84.967295627306484
 20
227.08333511217069
 30
0.0
 40
9.6467343958145282
 50
253.49944038874281
 51
294.3034220620458
  0
ARC
  5
1212
  8
0
 62
     2
 10
98.12292288136166
 20
233.5237344901154
 30
0.0
 40
17.787385683210509
 50
238.90919769574839
 51
260.70439068431779
  0
ARC
  5
1213
  8
0
 62
     2
 10
95.498350385430626
 20
217.32124628332511
 30
0.0
 40
1.3739908417950379
 50
259.5762495756623
 51
41.871669458869462
  0
ARC
  5
1214
  8
0
 62
     2
 10
201.8851474218047
 20
227.9724008813032
 30
0.0
 40
14.40537897089721
 50
219.5163466543853
 51
269.79019619932018
  0
ARC
  5
1215
  8
0
 62
     2
 10
189.2342971928355
 20
217.38105581280459
 30
0.0
 40
2.096775878187322
 50
42.821983769521779
 51
205.3746417853958
  0
ARC
  5
1216
  8
0
 62
     2
 10
194.53817208494499
 20
218.77278134489831
 30
0.0
 40
7.5539246521665762
 50
197.64925191767441
 51
272.02300273595938
  0
ARC
  5
1217
  8
0
 62
     2
 10
197.27245323833509
 20
183.8218306074086
 30
0.0
 40
27.512618835286151
 50
70.890206739361147
 51
95.145805412690564
  0
ARC
  5
1218
  8
0
 62
     2
 10
201.32880658548001
 20
208.45756070710311
 30
0.0
 40
5.1343145041097298
 50
15.36876569335158
 51
84.371176381291832
  0
ARC
  5
1219
  8
0
 62
     2
 10
216.45409874354371
 20
232.5404928515579
 30
0.0
 40
4.4266292826706799
 50
105.86188660284191
 51
263.93666648931151
  0
ARC
  5
121A
  8
0
 62
     2
 10
217.76188508722541
 20
227.0599211194274
 30
0.0
 40
10.058825032315109
 50
12.58614646662898
 51
104.4949483147529
  0
ARC
  5
121B
  8
0
 62
     2
 10
219.92100309327
 20
216.71658549034331
 30
0.0
 40
12.080693863579951
 50
77.143144348356515
 51
109.0069719938124
  0
ARC
  5
121C
  8
0
 62
     2
 10
223.76996646369801
 20
226.62488057217951
 30
0.0
 40
2.2005935321213901
 50
121.83675750230999
 51
272.47321763601582
  0
ARC
  5
121D
  8
0
 62
     2
 10
224.4329987806131
 20
219.29085931390549
 30
0.0
 40
5.1668012442387168
 50
43.946268310696389
 51
96.312228638372872
  0
ARC
  5
121E
  8
0
 62
     2
 10
190.08261854360421
 20
222.66199286538949
 30
0.0
 40
38.071034780050297
 50
0.3228797308217594
 51
9.9676858421092494
  0
ARC
  5
121F
  8
0
 62
     2
 10
216.73846900116749
 20
255.06035425120351
 30
0.0
 40
6.750393035752241
 50
156.18099394171401
 51
236.85108471288399
  0
ARC
  5
1220
  8
0
 62
     2
 10
263.18790133863649
 20
340.71995537632051
 30
0.0
 40
104.17223486995179
 50
241.22804898763781
 51
245.31786887994281
  0
ARC
  5
1221
  8
0
 62
     2
 10
218.6284078537185
 20
242.862095535593
 30
0.0
 40
3.3734486591428681
 50
15.96121901603169
 51
71.706671048155627
  0
ARC
  5
1222
  8
0
 62
     2
 10
223.16916575105461
 20
244.0551915087963
 30
0.0
 40
1.3242389062886499
 50
191.56322710404211
 51
4.1599732637478741
  0
ARC
  5
1223
  8
0
 62
     2
 10
204.74598240521101
 20
260.2160582505764
 30
0.0
 40
6.304038290871639
 50
337.33152714908522
 51
22.06633932596419
  0
ARC
  5
1224
  8
0
 62
     2
 10
214.1360091576725
 20
262.95523517394599
 30
0.0
 40
3.5670951347845139
 50
55.737291943775837
 51
185.96791984009189
  0
ARC
  5
1225
  8
0
 62
     2
 10
139.86248376785289
 20
190.26634722884319
 30
0.0
 40
107.4237281334903
 50
40.621141907640528
 51
44.75682003228227
  0
ARC
  5
1226
  8
0
 62
     2
 10
213.72150499788239
 20
252.67875196971681
 30
0.0
 40
10.752249992814299
 50
354.50524641756158
 51
44.424801248588722
  0
ARC
  5
1227
  8
0
 62
     2
 10
244.71686592856369
 20
248.07738120030811
 30
0.0
 40
20.604465240071882
 50
170.01732128395469
 51
190.98473209602821
  0
LINE
  5
1228
  8
0
 62
     2
 10
122.3570380267649
 20
112.4391888988506
 30
0.0
 11
124.569720952777
 21
124.09483943673879
 31
0.0
  0
LINE
  5
1229
  8
0
 62
     2
 10
132.7329538380221
 20
177.9429380917133
 30
0.0
 11
131.20367612671271
 21
169.62896308648789
 31
0.0
  0
ARC
  5
122A
  8
0
 62
     2
 10
36.299889234021983
 20
263.42082682880709
 30
0.0
 40
20.727619123457021
 50
209.1534583917047
 51
269.9190488821813
  0
ARC
  5
122B
  8
0
 62
     2
 10
116.9970504105123
 20
135.11670002100681
 30
0.0
 40
14.418331028896899
 50
69.7454865537986
 51
117.41272262726881
  0
ARC
  5
122C
  8
0
 62
     2
 10
104.5889685244038
 20
152.29762777023839
 30
0.0
 40
7.2450220808311139
 50
322.78757458385633
 51
75.511380725714673
  0
ARC
  5
122D
  8
0
 62
     2
 10
114.0970854894496
 20
142.7378363481248
 30
0.0
 40
18.273794554807239
 50
42.48941045522708
 51
114.9054605030889
  0
ARC
  5
122E
  8
0
 62
     2
 10
123.8774773554272
 20
152.64535493356649
 30
0.0
 40
4.4252935195935601
 50
244.73225973036989
 51
33.393004707237843
  0
LINE
  5
122F
  8
0
 62
     2
 10
124.3977826638378
 20
106.5212554394132
 30
0.0
 11
126.7607523810276
 21
121.3339653236864
 31
0.0
  0
LINE
  5
1230
  8
0
 62
     2
 10
128.34783863297801
 20
105.8911301814959
 30
0.0
 11
130.7108083501673
 21
120.7038400657692
 31
0.0
  0
LINE
  5
1231
  8
0
 62
     2
 10
128.34783863297801
 20
105.8911301814959
 30
0.0
 11
124.3977826638378
 21
106.5212554394132
 31
0.0
  0
LINE
  5
1232
  8
0
 62
     2
 10
130.7108083501673
 20
120.7038400657692
 30
0.0
 11
126.7607523810276
 21
121.3339653236864
 31
0.0
  0
LINE
  5
1233
  8
0
 62
     2
 10
137.54414453063279
 20
163.5398635859224
 30
0.0
 11
139.90711424782211
 21
178.35257347019561
 31
0.0
  0
LINE
  5
1234
  8
0
 62
     2
 10
133.5940885614927
 20
164.16998884383969
 30
0.0
 11
135.9570582786825
 21
178.98269872811281
 31
0.0
  0
LINE
  5
1235
  8
0
 62
     2
 10
133.5940885614927
 20
164.16998884383969
 30
0.0
 11
137.54414453063279
 21
163.5398635859224
 31
0.0
  0
LINE
  5
1236
  8
0
 62
     2
 10
135.9570582786825
 20
178.98269872811281
 30
0.0
 11
139.90711424782211
 21
178.35257347019561
 31
0.0
  0
LINE
  5
1237
  8
0
 62
     2
 10
130.46028658898879
 20
200.10422626802779
 30
0.0
 11
117.12009842510849
 21
206.9627523306936
 31
0.0
  0
LINE
  5
1238
  8
0
 62
     2
 10
115.2911581417309
 20
203.40536882032549
 30
0.0
 11
128.6313463056112
 21
196.5468427576597
 31
0.0
  0
LINE
  5
1239
  8
0
 62
     2
 10
128.6313463056112
 20
196.5468427576597
 30
0.0
 11
130.46028658898879
 21
200.10422626802779
 31
0.0
  0
LINE
  5
123A
  8
0
 62
     2
 10
115.2911581417309
 20
203.40536882032549
 30
0.0
 11
117.12009842510849
 21
206.9627523306936
 31
0.0
  0
LINE
  5
123B
  8
0
 62
     2
 10
36.527988407228349
 20
243.89949422291079
 30
0.0
 11
23.187800243347969
 21
250.75802028557649
 31
0.0
  0
LINE
  5
123C
  8
0
 62
     2
 10
25.016740526725592
 20
254.3154037959446
 30
0.0
 11
38.356928690605969
 21
247.45687773327879
 31
0.0
  0
LINE
  5
123D
  8
0
 62
     2
 10
36.527988407228349
 20
243.89949422291079
 30
0.0
 11
38.356928690605969
 21
247.45687773327879
 31
0.0
  0
LINE
  5
123E
  8
0
 62
     2
 10
23.187800243347969
 20
250.75802028557649
 30
0.0
 11
25.016740526725592
 21
254.3154037959446
 31
0.0
  0
LINE
  5
123F
  8
0
 62
     2
 10
245.6695205987474
 20
25.895345840004211
 30
0.0
 11
245.6695205987474
 21
282.58081760976279
 31
0.0
  0
LINE
  5
133F
  8
0
 62
     2
 10
16.79155726487534
 20
282.58081760976279
 30
0.0
 11
16.79155726487534
 21
25.895345840004211
 31
0.0
  0
LINE
  5
1340
  8
0
 62
     2
 10
245.6695205987474
 20
282.58081760976279
 30
0.0
 11
16.79155726487534
 21
282.58081760976279
 31
0.0
  0
LINE
  5
1341
  8
0
 62
     2
 10
245.6695205987474
 20
25.895345840004211
 30
0.0
 11
16.79155726487534
 21
25.895345840004211
 31
0.0
  0
LINE
  5
1357
  8
0
 62
     2
 10
245.6695205987474
 20
309.52440145748841
 30
0.0
 11
245.6695205987474
 21
499.07242062820501
 31
0.0
  0
LINE
  5
1358
  8
0
 62
     2
 10
16.79155726487534
 20
499.07242062820501
 30
0.0
 11
16.79155726487534
 21
309.52440145748841
 31
0.0
  0
LINE
  5
1359
  8
0
 62
     2
 10
245.6695205987474
 20
499.07242062820501
 30
0.0
 11
16.79155726487534
 21
499.07242062820501
 31
0.0
  0
LINE
  5
135A
  8
0
 62
     2
 10
245.6695205987474
 20
309.52440145748841
 30
0.0
 11
16.79155726487534
 21
309.52440145748841
 31
0.0
  0
ARC
  5
150D
  8
0
 62
     2
 10
229.01071605693849
 20
413.5055141923612
 30
0.0
 40
14.56560143962394
 50
267.26693897767308
 51
325.31066657383383
  0
ARC
  5
150E
  8
0
 62
     2
 10
211.07216454370291
 20
402.53714761321589
 30
0.0
 40
17.611856416773691
 50
275.09353426940311
 51
348.2694129010311
  0
ARC
  5
150F
  8
0
 62
     2
 10
207.48312313348791
 20
405.54299806573061
 30
0.0
 40
18.184740591047468
 50
285.7533404703255
 51
338.79915050070178
  0
ARC
  5
1510
  8
0
 62
     2
 10
198.04880190584339
 20
381.86309794026488
 30
0.0
 40
15.643133088165619
 50
23.262591484605199
 51
65.989583067615442
  0
ARC
  5
1511
  8
0
 62
     2
 10
194.24824346090759
 20
411.690071510314
 30
0.0
 40
18.567570289491641
 50
303.19584519447648
 51
330.42154388352532
  0
ARC
  5
1512
  8
0
 62
     2
 10
213.61021777384121
 20
404.87283476588618
 30
0.0
 40
3.9804054653524319
 50
216.14904342725839
 51
324.50049055941491
  0
ARC
  5
1513
  8
0
 62
     2
 10
221.5786718145809
 20
402.48582203232081
 30
0.0
 40
3.349152521920276
 50
182.71215257913491
 51
299.29811216613513
  0
ARC
  5
1514
  8
0
 62
     2
 10
223.7689123951557
 20
399.14680598006748
 30
0.0
 40
0.6920282623557125
 50
344.91442348637622
 51
142.8135766820802
  0
ARC
  5
1515
  8
0
 62
     2
 10
217.51897198036249
 20
402.30832764078582
 30
0.0
 40
0.714551961367194
 50
1.525133840221532
 51
159.25494787432959
  0
ARC
  5
1516
  8
0
 62
     2
 10
213.45714110128691
 20
382.46970867945652
 30
0.0
 40
2.655356607144653
 50
108.0184293265543
 51
172.970605092081
  0
ARC
  5
1517
  8
0
 62
     2
 10
201.7248696661743
 20
384.87756308997467
 30
0.0
 40
9.3322863233874536
 50
256.13335741536241
 51
347.10339021205709
  0
ARC
  5
1518
  8
0
 62
     2
 10
195.41219295684931
 20
391.15063569055928
 30
0.0
 40
7.917502435324054
 50
228.3499525619556
 51
324.16334501787901
  0
ARC
  5
1519
  8
0
 62
     2
 10
195.0215216932265
 20
389.18167295823559
 30
0.0
 40
7.3128064945222917
 50
338.61451513494001
 51
31.218817145242848
  0
ARC
  5
151A
  8
0
 62
     2
 10
196.33240124350979
 20
390.07268746306681
 30
0.0
 40
5.7305248277184662
 50
30.39341395755924
 51
99.799746557504321
  0
ARC
  5
151B
  8
0
 62
     2
 10
195.84718151434251
 20
397.08628385495882
 30
0.0
 40
1.4519219348890089
 50
155.50787267974491
 51
250.2702770528112
  0
ARC
  5
151C
  8
0
 62
     2
 10
191.8530002722986
 20
398.82805410921401
 30
0.0
 40
2.9058015165764171
 50
336.90437739064532
 51
74.530423794864333
  0
ARC
  5
151D
  8
0
 62
     2
 10
190.1038651470171
 20
393.57801159985252
 30
0.0
 40
8.4370175191637422
 50
72.591620366750917
 51
108.5297928634283
  0
ARC
  5
151E
  8
0
 62
     2
 10
180.1140439264895
 20
446.14926567476721
 30
0.0
 40
45.166853472711651
 50
258.31480656434007
 51
279.31210914520221
  0
ARC
  5
151F
  8
0
 62
     2
 10
167.71897129549501
 20
391.99494022225809
 30
0.0
 40
10.44132838032869
 50
71.880578791895914
 51
137.348319374596
  0
ARC
  5
1520
  8
0
 62
     2
 10
161.5243069414152
 20
398.06027544994049
 30
0.0
 40
1.7952266034105171
 50
145.79954725342279
 51
276.95738703512711
  0
ARC
  5
1521
  8
0
 62
     2
 10
169.97531359571161
 20
382.7178348882544
 30
0.0
 40
15.864320723586349
 50
42.78357086060813
 51
121.2650553635646
  0
ARC
  5
1522
  8
0
 62
     2
 10
295.32764750072261
 20
502.42512215296517
 30
0.0
 40
157.46710690421449
 50
223.77075142140069
 51
228.09237284654691
  0
ARC
  5
1523
  8
0
 62
     2
 10
194.86453321084761
 20
377.480246932206
 30
0.0
 40
4.9137010635271272
 50
240.14875951592509
 51
340.21815747860052
  0
ARC
  5
1524
  8
0
 62
     2
 10
204.4955997776037
 20
374.62175911516988
 30
0.0
 40
12.15811308275322
 50
186.62774240296909
 51
237.4107684349803
  0
ARC
  5
1525
  8
0
 62
     2
 10
198.4775084496259
 20
354.26521832557501
 30
0.0
 40
10.12657929562304
 50
37.798998405167112
 51
93.002467014966015
  0
ARC
  5
1526
  8
0
 62
     2
 10
202.8997923334002
 20
357.58555148948562
 30
0.0
 40
4.5980512608926576
 50
303.1405009690717
 51
38.880348684782533
  0
ARC
  5
1527
  8
0
 62
     2
 10
198.2298238296143
 20
346.2671805019184
 30
0.0
 40
10.362460474175981
 50
296.80062388992258
 51
46.112687263845928
  0
ARC
  5
1528
  8
0
 62
     2
 10
194.6568470420234
 20
354.67780084116322
 30
0.0
 40
19.489961865251029
 50
263.65216197641632
 51
295.02745871879409
  0
ARC
  5
1529
  8
0
 62
     2
 10
197.49730850565581
 20
333.90483962188893
 30
0.0
 40
5.1885002143346961
 50
164.3174111942871
 51
199.1242040664163
  0
ARC
  5
152A
  8
0
 62
     2
 10
180.0847494756631
 20
330.17197021519809
 30
0.0
 40
12.674523195787859
 50
245.94725459397691
 51
9.2302734552014591
  0
ARC
  5
152B
  8
0
 62
     2
 10
166.83451426140999
 20
321.78425532431828
 30
0.0
 40
8.6896324602218371
 50
203.5290744334163
 51
338.48918128927443
  0
ARC
  5
152C
  8
0
 62
     2
 10
186.31104926376241
 20
353.6113271215097
 30
0.0
 40
4.2032202580943858
 50
250.3545153457863
 51
59.170515796785047
  0
ARC
  5
152D
  8
0
 62
     2
 10
183.27648334989499
 20
348.84049923263001
 30
0.0
 40
9.8563930580994992
 50
58.235771667542757
 51
112.38659164107681
  0
ARC
  5
152E
  8
0
 62
     2
 10
184.2220480230028
 20
348.20229606397038
 30
0.0
 40
1.6002181861162501
 50
65.015801238514172
 51
186.57947521007
  0
ARC
  5
152F
  8
0
 62
     2
 10
190.5223234038753
 20
349.28553159629701
 30
0.0
 40
7.9909718484265264
 50
189.11999815429479
 51
319.13511965523992
  0
ARC
  5
1530
  8
0
 62
     2
 10
187.36684363937729
 20
349.18196587729182
 30
0.0
 40
10.52990565657865
 50
330.87707603588109
 51
47.121402789473223
  0
ARC
  5
1531
  8
0
 62
     2
 10
233.96116447752181
 20
392.57013732532232
 30
0.0
 40
53.170963233508452
 50
194.15328965642601
 51
222.13582065166699
  0
ARC
  5
1532
  8
0
 62
     2
 10
181.60993703033819
 20
379.3137966990916
 30
0.0
 40
0.8342404664757133
 50
17.808272888790889
 51
152.70185246489589
  0
ARC
  5
1533
  8
0
 62
     2
 10
150.41792438255791
 20
373.54807522566529
 30
0.0
 40
31.065185645921801
 50
333.14404334377502
 51
11.415164386631799
  0
ARC
  5
1534
  8
0
 62
     2
 10
179.04791295788209
 20
358.93050170527908
 30
0.0
 40
1.0857196395429509
 50
147.46566127447309
 51
295.92812445502358
  0
ARC
  5
1535
  8
0
 62
     2
 10
179.50403866753479
 20
334.97400613359218
 30
0.0
 40
4.3326987907519641
 50
89.967260279887952
 51
276.4033611978025
  0
ARC
  5
1536
  8
0
 62
     2
 10
180.22238079193079
 20
328.64391833845588
 30
0.0
 40
2.038027936063167
 50
283.41418323071491
 51
96.624993286090245
  0
ARC
  5
1537
  8
0
 62
     2
 10
178.32752652860401
 20
335.00908334956671
 30
0.0
 40
8.6768706231748425
 50
157.85668139666311
 51
285.83509295416889
  0
ARC
  5
1538
  8
0
 62
     2
 10
99.88620297190937
 20
370.06139378185622
 30
0.0
 40
77.245484227717981
 50
335.70475433962849
 51
347.42424311594351
  0
ARC
  5
1539
  8
0
 62
     2
 10
180.13785676978929
 20
342.48727841870641
 30
0.0
 40
3.2426293943995139
 50
258.77275804824018
 51
324.54968975159733
  0
ARC
  5
153A
  8
0
 62
     2
 10
187.54794599778589
 20
349.94115343637139
 30
0.0
 40
10.482076859974869
 50
184.407362672396
 51
242.93974730134539
  0
LINE
  5
153B
  8
0
 62
     2
 10
177.09686584055109
 20
349.13563568642871
 30
0.0
 11
176.74301706271351
 21
353.29882597196871
 31
0.0
  0
ARC
  5
153C
  8
0
 62
     2
 10
176.0156926882014
 20
353.14184679140732
 30
0.0
 40
0.7440720454961133
 50
12.179384044169391
 51
172.20908117379719
  0
ARC
  5
153D
  8
0
 62
     2
 10
162.65735880159309
 20
389.41395590301357
 30
0.0
 40
4.8521127869801264
 50
327.66740718049459
 51
79.096380561694829
  0
ARC
  5
153E
  8
0
 62
     2
 10
162.82016715000319
 20
381.87563820777081
 30
0.0
 40
6.3194805220125803
 50
51.464625338231727
 51
158.58885315790059
  0
ARC
  5
153F
  8
0
 62
     2
 10
163.49035612695249
 20
386.31491037299071
 30
0.0
 40
6.8916930019169031
 50
140.87737572579081
 51
198.02312768690661
  0
ARC
  5
1540
  8
0
 62
     2
 10
159.24222903064691
 20
394.91992308314548
 30
0.0
 40
4.3959237579573101
 50
255.52990653366271
 51
350.28962969778922
  0
ARC
  5
1541
  8
0
 62
     2
 10
170.50285310825799
 20
372.70656804850199
 30
0.0
 40
4.2003915977817448
 50
193.7162472133827
 51
319.47612248935877
  0
ARC
  5
1542
  8
0
 62
     2
 10
172.03654142733811
 20
370.18711408438179
 30
0.0
 40
5.8173264361891404
 50
101.3866479004153
 51
164.81792339469189
  0
ARC
  5
1543
  8
0
 62
     2
 10
160.57964740114971
 20
380.95014016557298
 30
0.0
 40
17.100717142960349
 50
320.08431776329132
 51
43.974178437173393
  0
ARC
  5
1544
  8
0
 62
     2
 10
167.9323402523334
 20
383.35462030341893
 30
0.0
 40
8.0285479777587252
 50
291.60143697597653
 51
27.083657857013851
  0
ARC
  5
1545
  8
0
 62
     2
 10
172.36795043158369
 20
392.41932690241401
 30
0.0
 40
0.6573956128847505
 50
37.965875962054433
 51
233.6959849741587
  0
ARC
  5
1546
  8
0
 62
     2
 10
152.9232122572584
 20
376.35103734613648
 30
0.0
 40
24.587755076992622
 50
25.69018639642778
 51
39.19495268701538
  0
ARC
  5
1547
  8
0
 62
     2
 10
70.545757292422422
 20
423.20428086802849
 30
0.0
 40
97.74119055577296
 50
289.54449283432268
 51
325.87895230735808
  0
LINE
  5
1548
  8
0
 62
     2
 10
103.2439743160853
 20
331.09474317114632
 30
0.0
 11
130.5359457085203
 21
331.09474317114632
 31
0.0
  0
LINE
  5
1549
  8
0
 62
     2
 10
136.95434221619689
 20
331.09474317114632
 30
0.0
 11
157.65045540970931
 21
331.09474317114632
 31
0.0
  0
LINE
  5
154A
  8
0
 62
     2
 10
34.263992549523209
 20
331.09474317114632
 30
0.0
 11
34.263992549523209
 21
341.48958102722798
 31
0.0
  0
LINE
  5
154B
  8
0
 62
     2
 10
34.263992549523209
 20
351.95268832508651
 30
0.0
 11
34.263992549523209
 21
386.34896291490531
 31
0.0
  0
ARC
  5
154C
  8
0
 62
     2
 10
152.80416828410401
 20
374.10399176927149
 30
0.0
 40
5.8823115197245652
 50
256.80287638395441
 51
313.5780854399934
  0
ARC
  5
154D
  8
0
 62
     2
 10
158.7142674267379
 20
366.6675603353317
 30
0.0
 40
3.677331634955423
 50
31.934059736688688
 51
120.2974078482512
  0
ARC
  5
154E
  8
0
 62
     2
 10
166.18581870699541
 20
353.97419217908651
 30
0.0
 40
15.27133881624326
 50
106.552683828897
 51
197.8132833225086
  0
ARC
  5
154F
  8
0
 62
     2
 10
149.6663942160198
 20
344.00875442266329
 30
0.0
 40
5.65193905628667
 50
69.490628749967797
 51
196.56803485272661
  0
ARC
  5
1550
  8
0
 62
     2
 10
142.49935629077819
 20
344.56612352877659
 30
0.0
 40
2.7868236329181459
 50
229.68455099002099
 51
308.89299587873222
  0
ARC
  5
1551
  8
0
 62
     2
 10
139.52120206433389
 20
340.00639962031659
 30
0.0
 40
2.7035224401639182
 50
64.23683082511161
 51
180.78537235967599
  0
ARC
  5
1552
  8
0
 62
     2
 10
133.47483079641461
 20
342.0543872187904
 30
0.0
 40
3.940018659808846
 50
252.94418836196439
 51
328.04881087692149
  0
ARC
  5
1553
  8
0
 62
     2
 10
133.19977206165731
 20
334.25183577150369
 30
0.0
 40
4.1307631893995982
 50
102.3082747958684
 51
229.84368794355831
  0
ARC
  5
1554
  8
0
 62
     2
 10
165.81083522591479
 20
331.5457689217842
 30
0.0
 40
8.1728344515518625
 50
116.0872582417842
 51
183.16352998323649
  0
ARC
  5
1555
  8
0
 62
     2
 10
160.8018621966867
 20
338.32796351808469
 30
0.0
 40
1.521113128577066
 50
21.52209390375322
 51
132.09740512104909
  0
ARC
  5
1556
  8
0
 62
     2
 10
144.92460526560669
 20
368.31213549436211
 30
0.0
 40
32.455899092118997
 50
269.8861164148592
 51
297.24365326951272
  0
ARC
  5
1557
  8
0
 62
     2
 10
143.54170137764211
 20
329.10141299972292
 30
0.0
 40
6.8823445056304582
 50
78.956066469935323
 51
163.1642224594784
  0
ARC
  5
1558
  8
0
 62
     2
 10
179.11193880528799
 20
328.59324525818812
 30
0.0
 40
13.98716624611459
 50
162.41650189960669
 51
215.17615119187809
  0
ARC
  5
1559
  8
0
 62
     2
 10
165.31266470628501
 20
320.4111716995626
 30
0.0
 40
2.3696334400643342
 50
184.11617141145979
 51
3.0038745636173738
  0
ARC
  5
155A
  8
0
 62
     2
 10
186.04006336989909
 20
326.8601189561528
 30
0.0
 40
24.020870685332589
 50
163.05983593387549
 51
195.99500706303499
  0
ARC
  5
155B
  8
0
 62
     2
 10
164.44529830511959
 20
333.40530654308168
 30
0.0
 40
1.45635055680597
 50
336.24728898035062
 51
161.84253995885911
  0
ARC
  5
155C
  8
0
 62
     2
 10
165.46019066780761
 20
367.6752048257236
 30
0.0
 40
7.8382533039791342
 50
283.83524579594763
 51
337.27199806312768
  0
ARC
  5
155D
  8
0
 62
     2
 10
158.3183285402356
 20
382.2987148587531
 30
0.0
 40
23.992893577219139
 50
278.57633065473209
 51
292.07299479201339
  0
ARC
  5
155E
  8
0
 62
     2
 10
163.47948908027141
 20
356.38710588413818
 30
0.0
 40
2.6998932120100871
 50
125.9008575321629
 51
204.54580808023599
  0
ARC
  5
155F
  8
0
 62
     2
 10
153.67498438856089
 20
356.54684752227632
 30
0.0
 40
7.4594752397454949
 50
312.76200727148392
 51
350.10910604664701
  0
ARC
  5
1560
  8
0
 62
     2
 10
159.93865272831911
 20
350.18714838903452
 30
0.0
 40
1.4891345909265949
 50
143.6277575338182
 51
278.50731588546512
  0
ARC
  5
1561
  8
0
 62
     2
 10
175.03480701123539
 20
363.7628993239357
 30
0.0
 40
2.5060762734684432
 50
89.589978213321018
 51
159.34624390231011
  0
ARC
  5
1562
  8
0
 62
     2
 10
174.4390934395424
 20
364.62361658777951
 30
0.0
 40
1.756006359944376
 50
330.55290019043218
 51
69.545936672918913
  0
ARC
  5
1563
  8
0
 62
     2
 10
139.9732722969627
 20
385.75286186800349
 30
0.0
 40
42.181859701289291
 50
298.59004319753421
 51
328.57552568438069
  0
ARC
  5
1564
  8
0
 62
     2
 10
136.63075592676131
 20
394.7413633230135
 30
0.0
 40
7.2392893380375947
 50
275.92395146413418
 51
39.497074680111893
  0
ARC
  5
1565
  8
0
 62
     2
 10
141.17515950761069
 20
410.07747929015198
 30
0.0
 40
22.854408889320649
 50
234.22292018839511
 51
260.43598249642321
  0
ARC
  5
1566
  8
0
 62
     2
 10
127.6066437325714
 20
389.7018701292136
 30
0.0
 40
1.845532013444348
 50
83.557803915551276
 51
223.01638256414549
  0
ARC
  5
1567
  8
0
 62
     2
 10
125.2170763901497
 20
387.58554048319621
 30
0.0
 40
1.347942672373063
 50
186.45155743450749
 51
39.494325496300249
  0
ARC
  5
1568
  8
0
 62
     2
 10
115.4922255519061
 20
384.79820806434532
 30
0.0
 40
8.7899662235181957
 50
17.449974176876651
 51
67.918753115356722
  0
ARC
  5
1569
  8
0
 62
     2
 10
117.66331148301541
 20
398.9718827236693
 30
0.0
 40
6.1340284549221682
 50
232.0702932643994
 51
280.64641548628867
  0
ARC
  5
156A
  8
0
 62
     2
 10
118.0618035163388
 20
392.23829632202887
 30
0.0
 40
4.5796288987110447
 50
70.674619419232357
 51
155.55312405808979
  0
ARC
  5
156B
  8
0
 62
     2
 10
120.26507788361771
 20
397.8750482155333
 30
0.0
 40
1.4841246853887471
 50
242.3940091183718
 51
339.77148636018438
  0
ARC
  5
156C
  8
0
 62
     2
 10
124.7466557401349
 20
391.28221710394467
 30
0.0
 40
6.8194054715856103
 50
48.405334411960773
 51
116.93445573400111
  0
ARC
  5
156D
  8
0
 62
     2
 10
143.79746216182451
 20
397.31972125219181
 30
0.0
 40
2.569624939396169
 50
127.9558278106341
 51
195.68621553100391
  0
ARC
  5
156E
  8
0
 62
     2
 10
136.46350119766561
 20
398.06786730482742
 30
0.0
 40
5.0697040134585318
 50
237.34921884207441
 51
343.46441406438851
  0
LINE
  5
156F
  8
0
 62
     2
 10
133.72830849330671
 20
393.79930552665218
 30
0.0
 11
129.27376298521261
 21
396.38217700353789
 31
0.0
  0
ARC
  5
1570
  8
0
 62
     2
 10
158.95486357661841
 20
393.95080841811841
 30
0.0
 40
17.144165255584731
 50
268.35760633491742
 51
307.44922673830217
  0
ARC
  5
1571
  8
0
 62
     2
 10
159.1952134930911
 20
378.14943581185622
 30
0.0
 40
1.523038259303173
 50
92.341899799281506
 51
241.2860864972684
  0
ARC
  5
1572
  8
0
 62
     2
 10
168.6947489314914
 20
381.71019117681499
 30
0.0
 40
1.5316071440758421
 50
296.55704389786519
 51
121.49906863621599
  0
ARC
  5
1573
  8
0
 62
     2
 10
158.66069873961141
 20
394.05552897218831
 30
0.0
 40
14.392078047210649
 50
271.8805128971473
 51
309.91046103409599
  0
ARC
  5
1574
  8
0
 62
     2
 10
129.0270831067551
 20
407.67718336781689
 30
0.0
 40
27.83465068271332
 50
256.25633135264547
 51
307.06880000778062
  0
ARC
  5
1575
  8
0
 62
     2
 10
143.73246056500651
 20
383.36437182705407
 30
0.0
 40
2.9528273388075559
 50
339.50199543758902
 51
45.419676302192521
  0
ARC
  5
1576
  8
0
 62
     2
 10
102.05554163676349
 20
391.9834705397065
 30
0.0
 40
45.47904646306003
 50
324.73949232165319
 51
347.7455315234244
  0
ARC
  5
1577
  8
0
 62
     2
 10
126.6841333244729
 20
365.21445015450468
 30
0.0
 40
12.517239023599959
 50
2.354320364900611
 51
56.306776972594527
  0
ARC
  5
1578
  8
0
 62
     2
 10
131.713719190006
 20
370.09553056100589
 30
0.0
 40
5.8552782277158792
 50
70.917077033621879
 51
156.99909919339731
  0
ARC
  5
1579
  8
0
 62
     2
 10
139.875641283503
 20
383.85486346913513
 30
0.0
 40
17.755048305163371
 50
190.43363799379489
 51
220.24765865410839
  0
ARC
  5
157A
  8
0
 62
     2
 10
89.112530871499075
 20
393.22971738198089
 30
0.0
 40
12.66776701180388
 50
242.81500180625611
 51
340.71618895482499
  0
ARC
  5
157B
  8
0
 62
     2
 10
80.336744646521979
 20
377.45342069584331
 30
0.0
 40
3.7349739623692231
 50
296.63544523700079
 51
53.241992626473909
  0
ARC
  5
157C
  8
0
 62
     2
 10
83.048117601406602
 20
381.15400850430979
 30
0.0
 40
0.853460100566888
 50
71.064313443664929
 51
236.08262982166289
  0
ARC
  5
157D
  8
0
 62
     2
 10
83.147287099418008
 20
372.69823382789258
 30
0.0
 40
1.8158851267956679
 50
128.72989891889031
 51
287.38945285114193
  0
ARC
  5
157E
  8
0
 62
     2
 10
81.624039621917063
 20
385.81772592250468
 30
0.0
 40
14.99538044815624
 50
277.91897535179157
 51
314.04572484925501
  0
ARC
  5
157F
  8
0
 62
     2
 10
92.517164948539175
 20
373.70166681872252
 30
0.0
 40
1.4170621269558661
 50
324.79311254784528
 51
109.2783367854661
  0
ARC
  5
1580
  8
0
 62
     2
 10
98.604764138266106
 20
370.17839270010472
 30
0.0
 40
5.6237432209437701
 50
151.23445965848941
 51
189.5959180450661
  0
ARC
  5
1581
  8
0
 62
     2
 10
93.142430638658425
 20
362.84043019341789
 30
0.0
 40
6.4010274831346301
 50
65.844180726385574
 51
90.740466092937226
  0
ARC
  5
1582
  8
0
 62
     2
 10
92.902434217766768
 20
368.24700984350147
 30
0.0
 40
2.8921628487301341
 50
308.14573954002952
 51
8.6293997291404043
  0
ARC
  5
1583
  8
0
 62
     2
 10
106.50410660307919
 20
349.22548787878191
 30
0.0
 40
20.495441899094811
 50
125.2036017358401
 51
146.34965774961049
  0
ARC
  5
1584
  8
0
 62
     2
 10
84.775796779368193
 20
355.73987656084267
 30
0.0
 40
6.725590541926004
 50
14.06573535127815
 51
46.056756420084021
  0
ARC
  5
1585
  8
0
 62
     2
 10
89.559527990553761
 20
367.2453586866414
 30
0.0
 40
10.02315116489034
 50
279.99830268855862
 51
319.219233001661
  0
ARC
  5
1586
  8
0
 62
     2
 10
100.90830343469089
 20
358.03422944332311
 30
0.0
 40
4.6075555685453553
 50
47.660809532546033
 51
144.67208219560959
  0
ARC
  5
1587
  8
0
 62
     2
 10
106.09578784307401
 20
376.5269835406184
 30
0.0
 40
15.230267282893919
 50
262.13458174343322
 51
307.67208764153759
  0
ARC
  5
1588
  8
0
 62
     2
 10
110.68178330592239
 20
371.50104359197758
 30
0.0
 40
8.4678646359255776
 50
303.89138414551888
 51
53.106904432316711
  0
ARC
  5
1589
  8
0
 62
     2
 10
114.6422651108889
 20
376.95927456375603
 30
0.0
 40
1.7284926194426331
 50
49.481986216986023
 51
217.6105304416372
  0
ARC
  5
158A
  8
0
 62
     2
 10
110.87917103195529
 20
375.84276611784799
 30
0.0
 40
2.3946142277609042
 50
226.438193323945
 51
1.4746686989081299
  0
LINE
  5
158B
  8
0
 62
     2
 10
109.2289545855251
 20
374.10755345660851
 30
0.0
 11
106.2833401366876
 21
376.6657958461642
 31
0.0
  0
ARC
  5
158C
  8
0
 62
     2
 10
112.5914530279851
 20
377.24876956715411
 30
0.0
 40
6.334993812839806
 50
105.9970074066765
 51
185.2800774998918
  0
ARC
  5
158D
  8
0
 62
     2
 10
111.4784500427772
 20
346.36053899645322
 30
0.0
 40
36.983323475935691
 50
83.178124168887464
 51
90.980464200593687
  0
ARC
  5
158E
  8
0
 62
     2
 10
115.91841532579041
 20
384.4851153344535
 30
0.0
 40
1.403872386106098
 50
268.0825794741271
 51
67.205370738466925
  0
ARC
  5
158F
  8
0
 62
     2
 10
104.2907793212582
 20
366.32684636962239
 30
0.0
 40
22.946590186487182
 50
57.96555409668656
 51
98.069767786839989
  0
ARC
  5
1590
  8
0
 62
     2
 10
131.43263893727109
 20
363.83273606412598
 30
0.0
 40
1.872540732690404
 50
260.92733758909992
 51
79.317841734278275
  0
ARC
  5
1591
  8
0
 62
     2
 10
127.6061841130763
 20
330.92351156899417
 30
0.0
 40
31.26019376436707
 50
83.513973157525442
 51
105.83612979853091
  0
ARC
  5
1592
  8
0
 62
     2
 10
120.5969377052424
 20
361.73069902910561
 30
0.0
 40
1.6888289779562451
 50
109.0579486178021
 51
205.7400569673851
  0
ARC
  5
1593
  8
0
 62
     2
 10
118.1405664647623
 20
369.60384425167649
 30
0.0
 40
6.5595738276368749
 50
286.8821544701778
 51
351.11370739057332
  0
ARC
  5
1594
  8
0
 62
     2
 10
125.1602503372801
 20
368.27770050000657
 30
0.0
 40
0.6230858256469231
 50
9.0906909737361108
 51
149.8600532935989
  0
ARC
  5
1595
  8
0
 62
     2
 10
131.73262917733561
 20
373.58772244172201
 30
0.0
 40
7.9150358883822216
 50
221.1810029487863
 51
270.34098873797529
  0
ARC
  5
1596
  8
0
 62
     2
 10
119.4783418936895
 20
355.6489003927004
 30
0.0
 40
1.6949559781543639
 50
83.885529804036551
 51
251.6427450138755
  0
LINE
  5
1597
  8
0
 62
     2
 10
118.9445306806945
 20
354.04019863141531
 30
0.0
 11
124.02578916426521
 21
352.06946919151051
 31
0.0
  0
LINE
  5
1598
  8
0
 62
     2
 10
124.02578916426521
 20
352.06946919151051
 30
0.0
 11
128.09519646224311
 21
353.6893693973953
 31
0.0
  0
LINE
  5
1599
  8
0
 62
     2
 10
128.09519646224311
 20
353.6893693973953
 30
0.0
 11
132.30781989769361
 21
356.37998737644261
 31
0.0
  0
ARC
  5
159A
  8
0
 62
     2
 10
131.80757168670581
 20
357.20732425048931
 30
0.0
 40
0.9668167229387583
 50
301.15920349259977
 51
67.978682360784276
  0
ARC
  5
159B
  8
0
 62
     2
 10
123.1063021755858
 20
403.38310698576919
 30
0.0
 40
46.177757324731132
 50
265.71857387234968
 51
281.31951836854
  0
ARC
  5
159C
  8
0
 62
     2
 10
103.58135786879301
 20
352.40761364927681
 30
0.0
 40
9.8547557012067664
 50
203.05605231775851
 51
258.69498815056397
  0
ARC
  5
159D
  8
0
 62
     2
 10
96.217617540029323
 20
368.68665266373318
 30
0.0
 40
19.346432320223119
 50
232.81589830377419
 51
261.00974405501881
  0
ARC
  5
159E
  8
0
 62
     2
 10
92.676648676376772
 20
347.55438053257831
 30
0.0
 40
2.088704543032335
 50
28.411296155872819
 51
75.647288820442284
  0
ARC
  5
159F
  8
0
 62
     2
 10
81.285121689889806
 20
354.24069442534852
 30
0.0
 40
3.3812505026742179
 50
220.74739980881819
 51
343.37674674883817
  0
LINE
  5
15A0
  8
0
 62
     2
 10
78.723504543877425
 20
352.03366643298199
 30
0.0
 11
74.491802571327071
 21
352.73722309638993
 31
0.0
  0
ARC
  5
15A1
  8
0
 62
     2
 10
63.51582638387913
 20
332.88028759423111
 30
0.0
 40
22.688542059910379
 50
17.74421851291164
 51
61.068255016785542
  0
ARC
  5
15A2
  8
0
 62
     2
 10
94.142735790909214
 20
351.77994633591788
 30
0.0
 40
11.747290480417471
 50
268.62751728054627
 51
309.71892050492397
  0
ARC
  5
15A3
  8
0
 62
     2
 10
98.855498975172637
 20
307.30369008221959
 30
0.0
 40
33.111134101240459
 50
98.674998753976055
 51
108.6076503980419
  0
ARC
  5
15A4
  8
0
 62
     2
 10
87.407765047422799
 20
341.23412928209319
 30
0.0
 40
2.6985235043979539
 50
212.2280195026724
 51
289.08728603364273
  0
ARC
  5
15A5
  8
0
 62
     2
 10
32.550130421143884
 20
356.7358914139229
 30
0.0
 40
15.34233697330791
 50
276.41378497584759
 51
315.3176046114699
  0
ARC
  5
15A6
  8
0
 62
     2
 10
46.154124193152711
 20
346.31699046683622
 30
0.0
 40
2.7205578999631461
 50
187.80519254836321
 51
310.5027738760914
  0
ARC
  5
15A7
  8
0
 62
     2
 10
51.034941239205182
 20
340.6441433592363
 30
0.0
 40
4.7630228087885547
 50
40.531938370680059
 51
130.8254085239187
  0
ARC
  5
15A8
  8
0
 62
     2
 10
56.786266945455957
 20
340.08266057291399
 30
0.0
 40
4.232558871438024
 50
61.337952768762641
 51
120.23380742036861
  0
ARC
  5
15A9
  8
0
 62
     2
 10
61.182275198520301
 20
341.36512028025157
 30
0.0
 40
3.3925571502689791
 50
134.216992896882
 51
242.51677818723491
  0
ARC
  5
15AA
  8
0
 62
     2
 10
48.250179388291372
 20
306.7421402987793
 30
0.0
 40
33.594590132525219
 50
52.214901037239457
 51
70.224094117454044
  0
ARC
  5
15AB
  8
0
 62
     2
 10
31.786036834788781
 20
284.74856358056701
 30
0.0
 40
61.065795814394932
 50
49.372142876534383
 51
52.649930427621989
  0
ARC
  5
15AC
  8
0
 62
     2
 10
49.320914135327492
 20
397.02641949938311
 30
0.0
 40
10.880897072467709
 50
270.71150081670771
 51
12.32699811356246
  0
LINE
  5
15AD
  8
0
 62
     2
 10
49.456029989369661
 20
386.14636137418802
 30
0.0
 11
43.683618405373409
 21
387.15441404830563
 31
0.0
  0
LINE
  5
15AE
  8
0
 62
     2
 10
43.683618405373409
 20
387.15441404830563
 30
0.0
 11
47.655104000112722
 21
388.16320422473609
 31
0.0
  0
ARC
  5
15AF
  8
0
 62
     2
 10
40.949552194287662
 20
400.30741368830741
 30
0.0
 40
13.872499721236
 50
298.9057419589065
 51
357.00782651735949
  0
ARC
  5
15B0
  8
0
 62
     2
 10
57.338544216615219
 20
398.61890578578141
 30
0.0
 40
2.7126163896076321
 50
15.62211306588701
 51
159.17512654452591
  0
ARC
  5
15B1
  8
0
 62
     2
 10
29.36707792893435
 20
361.78202239784702
 30
0.0
 40
10.981601937570989
 50
296.48220746680238
 51
351.29527100341102
  0
ARC
  5
15B2
  8
0
 62
     2
 10
46.94797389819837
 20
359.00478128760278
 30
0.0
 40
6.8176249377596108
 50
126.465171233295
 51
170.584974050353
  0
ARC
  5
15B3
  8
0
 62
     2
 10
44.699818556550781
 20
361.63502755278108
 30
0.0
 40
3.3750644660829199
 50
44.39854244370818
 51
122.30637774686259
  0
ARC
  5
15B4
  8
0
 62
     2
 10
45.97392665569032
 20
367.39190978676629
 30
0.0
 40
3.580950395737065
 50
288.51840991742188
 51
66.485046211854382
  0
ARC
  5
15B5
  8
0
 62
     2
 10
48.898687672719007
 20
372.66648237918503
 30
0.0
 40
2.490401972386846
 50
110.9036727110845
 51
233.07940881787511
  0
ARC
  5
15B6
  8
0
 62
     2
 10
45.59013097545585
 20
376.79564659296312
 30
0.0
 40
3.0176112181509671
 50
323.31713974293302
 51
102.98259129714501
  0
ARC
  5
15B7
  8
0
 62
     2
 10
44.683652746724867
 20
391.24757105119852
 30
0.0
 40
11.51371704959389
 50
205.1796848474705
 51
271.13744331240321
  0
LINE
  5
15B8
  8
0
 62
     2
 10
34.263992549523209
 20
331.09474317114632
 30
0.0
 11
71.548620450584394
 21
331.09474317114632
 31
0.0
  0
ARC
  5
15B9
  8
0
 62
     2
 10
106.3191692823093
 20
339.1909943725941
 30
0.0
 40
13.861162096381079
 50
39.294759897718713
 51
84.573008621856815
  0
ARC
  5
15BA
  8
0
 62
     2
 10
103.9399192310143
 20
363.64598919156788
 30
0.0
 40
20.43360763308571
 50
278.94870963453639
 51
309.89724943898563
  0
ARC
  5
15BB
  8
0
 62
     2
 10
103.4440566174285
 20
351.19592406308681
 30
0.0
 40
4.5543305108843928
 50
325.2070579713461
 51
23.199430289760642
  0
ARC
  5
15BC
  8
0
 62
     2
 10
98.985032389062795
 20
346.13373769265581
 30
0.0
 40
8.5612033456099628
 50
341.8093331621115
 51
16.722898524311901
  0
ARC
  5
15BD
  8
0
 62
     2
 10
91.374575376116567
 20
390.86857275326111
 30
0.0
 40
5.8183417234985333
 50
246.0025298061091
 51
37.064525267526292
  0
ARC
  5
15BE
  8
0
 62
     2
 10
85.150272453554393
 20
380.90278737791209
 30
0.0
 40
6.0423555783525078
 50
50.320424012783477
 51
123.8676736956006
  0
ARC
  5
15BF
  8
0
 62
     2
 10
82.445704334362276
 20
388.53499342984952
 30
0.0
 40
2.6977377417032451
 50
148.5833636914291
 51
255.77982138199511
  0
ARC
  5
15C0
  8
0
 62
     2
 10
77.419904815968493
 20
388.75030733738049
 30
0.0
 40
2.9725377105549158
 50
23.617867314384341
 51
165.47715216484531
  0
ARC
  5
15C1
  8
0
 62
     2
 10
70.60497240519453
 20
391.76499211760188
 30
0.0
 40
4.5445038771613468
 50
274.4595985232703
 51
330.0433549074794
  0
ARC
  5
15C2
  8
0
 62
     2
 10
64.886371086836107
 20
386.66608124855338
 30
0.0
 40
6.0984885450324811
 50
5.3457154940598057
 51
76.713207086784124
  0
ARC
  5
15C3
  8
0
 62
     2
 10
58.815630368734901
 20
395.48324131925477
 30
0.0
 40
8.0088160219832627
 50
338.90944368643602
 51
23.97761558905324
  0
ARC
  5
15C4
  8
0
 62
     2
 10
71.163692444704793
 20
408.99115407637009
 30
0.0
 40
11.420799165864
 50
243.86694811074901
 51
320.88720323176022
  0
ARC
  5
15C5
  8
0
 62
     2
 10
84.821051983765756
 20
408.53784968479079
 30
0.0
 40
8.2815064030987173
 50
234.6120720756517
 51
311.97249233615008
  0
ARC
  5
15C6
  8
0
 62
     2
 10
93.405360812458866
 20
399.2176563947919
 30
0.0
 40
4.3912306919532611
 50
67.081191698688485
 51
133.91751992594371
  0
ARC
  5
15C7
  8
0
 62
     2
 10
87.229822692648895
 20
407.23597726010797
 30
0.0
 40
8.8302500020274852
 50
300.19640311221173
 51
333.25535785364968
  0
ARC
  5
15C8
  8
0
 62
     2
 10
94.822076343766184
 20
395.43365041308539
 30
0.0
 40
5.2268259122336893
 50
127.0735853296212
 51
226.2718329082559
  0
ARC
  5
15C9
  8
0
 62
     2
 10
92.492258368172315
 20
394.99847733621982
 30
0.0
 40
3.5797526590150031
 50
248.994980808517
 51
349.97577050006981
  0
ARC
  5
15CA
  8
0
 62
     2
 10
41.202264634953281
 20
401.04648521622312
 30
0.0
 40
9.0257956413034641
 50
236.42406944892801
 51
356.32637208022942
  0
ARC
  5
15CB
  8
0
 62
     2
 10
47.906716568076028
 20
400.6464281698108
 30
0.0
 40
2.3096863357214592
 50
355.57373372491958
 51
167.4301261466056
  0
ARC
  5
15CC
  8
0
 62
     2
 10
38.002598977974458
 20
405.29297951500121
 30
0.0
 40
8.7000670483956242
 50
264.0895952177309
 51
331.55558232046758
  0
ARC
  5
15CD
  8
0
 62
     2
 10
36.722133577122349
 20
395.0646160502497
 30
0.0
 40
1.6208338259719921
 50
76.273924081037407
 51
251.60392106697111
  0
ARC
  5
15CE
  8
0
 62
     2
 10
101.9844031621474
 20
354.07579176408012
 30
0.0
 40
1.540953010632315
 50
252.92386122459291
 51
47.666655029596782
  0
ARC
  5
15CF
  8
0
 62
     2
 10
94.826350621115125
 20
337.55704263682952
 30
0.0
 40
16.472356469439791
 50
65.978475880043121
 51
100.82359536204279
  0
ARC
  5
15D0
  8
0
 62
     2
 10
98.247209161207138
 20
347.83614420349659
 30
0.0
 40
8.7889950268853418
 50
57.092388759315121
 51
137.83111972431391
  0
ARC
  5
15D1
  8
0
 62
     2
 10
61.762443191882539
 20
379.84796510190517
 30
0.0
 40
6.6204320732633448
 50
29.223042961031918
 51
100.8855736217655
  0
ARC
  5
15D2
  8
0
 62
     2
 10
56.689042583435374
 20
377.5012729790285
 30
0.0
 40
12.20133944270315
 50
359.16565585710958
 51
27.208716353223899
  0
ARC
  5
15D3
  8
0
 62
     2
 10
68.618547292621543
 20
382.58649732672978
 30
0.0
 40
5.2698436582628263
 50
204.9149269006798
 51
272.94272098872949
  0
ARC
  5
15D4
  8
0
 62
     2
 10
68.988375692665841
 20
375.97483347338198
 30
0.0
 40
6.7676398784655918
 50
139.5401226958522
 51
200.2059352298119
  0
ARC
  5
15D5
  8
0
 62
     2
 10
63.174473211660818
 20
378.77063420023552
 30
0.0
 40
5.1613488779754313
 50
192.0946345451606
 51
264.02533340389323
  0
ARC
  5
15D6
  8
0
 62
     2
 10
57.123501429063701
 20
381.97437241899388
 30
0.0
 40
4.4012687549100402
 50
176.75026718710509
 51
283.18872193455809
  0
ARC
  5
15D7
  8
0
 62
     2
 10
51.983513301745461
 20
393.03506545495111
 30
0.0
 40
10.836886743637089
 50
273.94622721346673
 51
321.9064059391028
  0
LINE
  5
15D8
  8
0
 62
     2
 10
153.25685858378961
 20
324.9105741606586
 30
0.0
 11
153.25685858378961
 21
320.9105741606586
 31
0.0
  0
LINE
  5
15D9
  8
0
 62
     2
 10
153.25685858378961
 20
320.9105741606586
 30
0.0
 11
138.25685858378961
 21
320.9105741606586
 31
0.0
  0
LINE
  5
15DA
  8
0
 62
     2
 10
138.25685858378961
 20
320.9105741606586
 30
0.0
 11
138.25685858378961
 21
324.9105741606586
 31
0.0
  0
LINE
  5
15DB
  8
0
 62
     2
 10
138.25685858378961
 20
324.9105741606586
 30
0.0
 11
49.693858583789741
 21
324.9105741606586
 31
0.0
  0
LINE
  5
15DC
  8
0
 62
     2
 10
49.693858583789741
 20
324.9105741606586
 30
0.0
 11
49.693858583789741
 21
320.9105741606586
 31
0.0
  0
LINE
  5
15DD
  8
0
 62
     2
 10
49.693858583789741
 20
320.9105741606586
 30
0.0
 11
34.693858583789741
 21
320.9105741606586
 31
0.0
  0
LINE
  5
15DE
  8
0
 62
     2
 10
34.693858583789741
 20
320.9105741606586
 30
0.0
 11
34.693858583789741
 21
324.9105741606586
 31
0.0
  0
LINE
  5
15DF
  8
0
 62
     2
 10
34.693858583789741
 20
324.9105741606586
 30
0.0
 11
24.169358583789752
 21
324.9105741606586
 31
0.0
  0
LINE
  5
15E0
  8
0
 62
     2
 10
153.25685858378961
 20
324.9105741606586
 30
0.0
 11
158.86735858378961
 21
324.9105741606586
 31
0.0
  0
LINE
  5
15E1
  8
0
 62
     2
 10
24.16936102208388
 20
405.21584504201007
 30
0.0
 11
24.16936102208388
 21
324.9105741606586
 31
0.0
  0
LINE
  5
15E2
  8
0
 62
     2
 10
158.86735858378961
 20
324.9105741606586
 30
0.0
 11
158.86735858378961
 21
318.31522913498202
 31
0.0
  0
ARC
  5
15E3
  8
0
 62
     2
 10
229.01071605693849
 20
396.92617589165911
 30
0.0
 40
14.56560143962394
 50
34.689333426166293
 51
92.733061022326893
  0
ARC
  5
15E4
  8
0
 62
     2
 10
211.07216454370291
 20
407.89454247080442
 30
0.0
 40
17.611856416773691
 50
11.73058709896889
 51
84.906465730596935
  0
ARC
  5
15E5
  8
0
 62
     2
 10
207.48312313348791
 20
404.8886920182897
 30
0.0
 40
18.184740591047468
 50
21.200849499298201
 51
74.246659529674503
  0
ARC
  5
15E6
  8
0
 62
     2
 10
198.04880190584339
 20
428.56859214375538
 30
0.0
 40
15.643133088165619
 50
294.01041693238449
 51
336.73740851537502
  0
ARC
  5
15E7
  8
0
 62
     2
 10
194.24824346090759
 20
398.74161857370632
 30
0.0
 40
18.567570289491641
 50
29.578456116474641
 51
56.80415480552351
  0
ARC
  5
15E8
  8
0
 62
     2
 10
213.61021777384121
 20
405.55885531813408
 30
0.0
 40
3.9804054653524319
 50
35.499509440585094
 51
143.8509565727415
  0
ARC
  5
15E9
  8
0
 62
     2
 10
221.5786718145809
 20
407.94586805169951
 30
0.0
 40
3.349152521920276
 50
60.701887833864859
 51
177.28784742086501
  0
ARC
  5
15EA
  8
0
 62
     2
 10
223.7689123951557
 20
411.28488410395289
 30
0.0
 40
0.6920282623557125
 50
217.1864233179198
 51
15.08557651362384
  0
ARC
  5
15EB
  8
0
 62
     2
 10
217.51897198036249
 20
408.12336244323461
 30
0.0
 40
0.7145519613673115
 50
200.74505212567891
 51
358.47486615976942
  0
ARC
  5
15EC
  8
0
 62
     2
 10
213.45714110128691
 20
427.9619814045638
 30
0.0
 40
2.655356607144653
 50
187.02939490791891
 51
251.9815706734457
  0
ARC
  5
15ED
  8
0
 62
     2
 10
201.7248696661743
 20
425.55412699404559
 30
0.0
 40
9.3322863233874536
 50
12.896609787942831
 51
103.8666425846376
  0
ARC
  5
15EE
  8
0
 62
     2
 10
195.41219295684931
 20
419.28105439346098
 30
0.0
 40
7.917502435324054
 50
35.836654982121019
 51
131.6500474380444
  0
ARC
  5
15EF
  8
0
 62
     2
 10
195.0215216932265
 20
421.25001712578478
 30
0.0
 40
7.3128064945222917
 50
328.78118285475711
 51
21.38548486506004
  0
ARC
  5
15F0
  8
0
 62
     2
 10
196.33240124350979
 20
420.35900262095362
 30
0.0
 40
5.7305248277184662
 50
260.20025344249569
 51
329.60658604245981
  0
ARC
  5
15F1
  8
0
 62
     2
 10
195.84718151434251
 20
413.3454062290615
 30
0.0
 40
1.4519219348890089
 50
109.7297229472026
 51
204.49212732025021
  0
ARC
  5
15F2
  8
0
 62
     2
 10
191.8530002722986
 20
411.60363597480631
 30
0.0
 40
2.9058015165764171
 50
285.46957620513558
 51
23.095622609354699
  0
ARC
  5
15F3
  8
0
 62
     2
 10
190.1038651470171
 20
416.8536784841678
 30
0.0
 40
8.4370175191637422
 50
251.4702071365856
 51
287.40837963324913
  0
ARC
  5
15F4
  8
0
 62
     2
 10
180.1140439264895
 20
364.28242440925311
 30
0.0
 40
45.166853472711651
 50
80.687890854797857
 51
101.6851934356599
  0
ARC
  5
15F5
  8
0
 62
     2
 10
167.71897129549501
 20
418.43674986176228
 30
0.0
 40
10.44132838032869
 50
222.651680625404
 51
288.11942120810409
  0
ARC
  5
15F6
  8
0
 62
     2
 10
161.5243069414152
 20
412.37141463407983
 30
0.0
 40
1.7952266034105171
 50
83.042612964872873
 51
214.20045274657721
  0
ARC
  5
15F7
  8
0
 62
     2
 10
169.97531359571161
 20
427.71385519576592
 30
0.0
 40
15.864320723586349
 50
238.7349446364434
 51
317.21642913939189
  0
ARC
  5
15F8
  8
0
 62
     2
 10
295.32764750072238
 20
308.00656793105509
 30
0.0
 40
157.46710690421449
 50
131.90762715345309
 51
136.22924857859931
  0
ARC
  5
15F9
  8
0
 62
     2
 10
194.86453321084761
 20
432.95144315181432
 30
0.0
 40
4.9137010635271272
 50
19.781842521399462
 51
119.85124048407479
  0
ARC
  5
15FA
  8
0
 62
     2
 10
204.4955997776037
 20
435.80993096885049
 30
0.0
 40
12.15811308275322
 50
122.5892315650197
 51
173.3722575970308
  0
ARC
  5
15FB
  8
0
 62
     2
 10
198.4775084496259
 20
456.16647175844531
 30
0.0
 40
10.12657929562304
 50
266.9975329850339
 51
322.2010015948328
  0
ARC
  5
15FC
  8
0
 62
     2
 10
202.89979233340051
 20
452.84613859453469
 30
0.0
 40
4.5980512608926576
 50
321.11965131521748
 51
56.85949903092822
  0
ARC
  5
15FD
  8
0
 62
     2
 10
198.2298238296143
 20
464.16450958210203
 30
0.0
 40
10.362460474175981
 50
313.887312736154
 51
63.199376110077431
  0
ARC
  5
15FE
  8
0
 62
     2
 10
194.6568470420234
 20
455.75388924285721
 30
0.0
 40
19.489961865251029
 50
64.972541281220316
 51
96.347838023583662
  0
ARC
  5
15FF
  8
0
 62
     2
 10
197.49730850565581
 20
476.52685046213151
 30
0.0
 40
5.1885002143346961
 50
160.87579593358359
 51
195.68258880571281
  0
ARC
  5
1600
  8
0
 62
     2
 10
180.0847494756633
 20
480.25971986882217
 30
0.0
 40
12.674523195787859
 50
350.76972654478487
 51
114.05274540602301
  0
ARC
  5
1601
  8
0
 62
     2
 10
166.83451426140999
 20
488.64743475970198
 30
0.0
 40
8.6896324602218371
 50
21.510818710725658
 51
156.4709255665837
  0
ARC
  5
1602
  8
0
 62
     2
 10
186.31104926376241
 20
456.82036296251073
 30
0.0
 40
4.2032202580943858
 50
300.82948420321497
 51
109.6454846542137
  0
ARC
  5
1603
  8
0
 62
     2
 10
183.27648334989499
 20
461.59119085139031
 30
0.0
 40
9.8563930580994992
 50
247.61340835892321
 51
301.76422833245721
  0
ARC
  5
1604
  8
0
 62
     2
 10
184.2220480230028
 20
462.22939402004988
 30
0.0
 40
1.6002181861162501
 50
173.4205247899298
 51
294.9841987614858
  0
ARC
  5
1605
  8
0
 62
     2
 10
190.5223234038755
 20
461.14615848772343
 30
0.0
 40
7.9909718484265264
 50
40.86488034476006
 51
170.8800018457051
  0
ARC
  5
1606
  8
0
 62
     2
 10
187.36684363937729
 20
461.24972420672862
 30
0.0
 40
10.52990565657865
 50
312.87859721052678
 51
29.122923964118868
  0
ARC
  5
1607
  8
0
 62
     2
 10
233.96116447752181
 20
417.861552758698
 30
0.0
 40
53.170963233508452
 50
137.86417934833301
 51
165.8467103435739
  0
ARC
  5
1608
  8
0
 62
     2
 10
181.60993703033819
 20
431.11789338492872
 30
0.0
 40
0.8342404664757133
 50
207.29814753510399
 51
342.1917271112091
  0
ARC
  5
1609
  8
0
 62
     2
 10
150.41792438255791
 20
436.88361485835497
 30
0.0
 40
31.065185645921801
 50
348.58483561336811
 51
26.855956656225011
  0
ARC
  5
160A
  8
0
 62
     2
 10
179.04791295788209
 20
451.50118837874129
 30
0.0
 40
1.0857196395429509
 50
64.071875544976464
 51
212.53433872551989
  0
ARC
  5
160B
  8
0
 62
     2
 10
179.50403866753479
 20
475.45768395042819
 30
0.0
 40
4.3326987907519641
 50
83.596638802197546
 51
270.03273972009902
  0
ARC
  5
160C
  8
0
 62
     2
 10
180.22238079193079
 20
481.78777174556438
 30
0.0
 40
2.038027936063167
 50
263.37500671390973
 51
76.585816769285103
  0
ARC
  5
160D
  8
0
 62
     2
 10
178.32752652860421
 20
475.42260673445372
 30
0.0
 40
8.6768706231748425
 50
74.164907045831143
 51
202.14331860333689
  0
ARC
  5
160E
  8
0
 62
     2
 10
99.88620297190937
 20
440.37029630216409
 30
0.0
 40
77.245484227717981
 50
12.57575688405649
 51
24.295245660371481
  0
ARC
  5
160F
  8
0
 62
     2
 10
180.13785676978929
 20
467.94441166531391
 30
0.0
 40
3.2426293943995139
 50
35.450310248402673
 51
101.22724195175979
  0
ARC
  5
1610
  8
0
 62
     2
 10
187.54794599778589
 20
460.49053664764892
 30
0.0
 40
10.482076859974869
 50
117.0602526986399
 51
175.59263732760391
  0
LINE
  5
1611
  8
0
 62
     2
 10
177.09686584055109
 20
461.2960543975916
 30
0.0
 11
176.74301706271351
 21
457.13286411205161
 31
0.0
  0
ARC
  5
1612
  8
0
 62
     2
 10
176.0156926882014
 20
457.289843292613
 30
0.0
 40
0.7440720454961133
 50
187.79091882620281
 51
347.8206159558307
  0
ARC
  5
1613
  8
0
 62
     2
 10
162.65735880159309
 20
421.01773418100669
 30
0.0
 40
4.8521127869801264
 50
280.90361943830521
 51
32.3325928195054
  0
ARC
  5
1614
  8
0
 62
     2
 10
162.82016715000319
 20
428.55605187624951
 30
0.0
 40
6.3194805220125803
 50
201.4111468420993
 51
308.53537466176829
  0
ARC
  5
1615
  8
0
 62
     2
 10
163.49035612695249
 20
424.11677971102972
 30
0.0
 40
6.8916930019169031
 50
161.97687231309331
 51
219.1226242742091
  0
ARC
  5
1616
  8
0
 62
     2
 10
159.24222903064691
 20
415.51176700087478
 30
0.0
 40
4.3959237579573101
 50
9.7103703022106984
 51
104.4700934663373
  0
ARC
  5
1617
  8
0
 62
     2
 10
170.50285310825799
 20
437.72512203551832
 30
0.0
 40
4.2003915977817448
 50
40.523877510650728
 51
166.28375278661721
  0
ARC
  5
1618
  8
0
 62
     2
 10
172.03654142733811
 20
440.24457599963853
 30
0.0
 40
5.8173264361891404
 50
195.182076605308
 51
258.61335209958469
  0
ARC
  5
1619
  8
0
 62
     2
 10
160.57964740114971
 20
429.4815499184474
 30
0.0
 40
17.100717142960349
 50
316.02582156282659
 51
39.915682236708591
  0
ARC
  5
161A
  8
0
 62
     2
 10
167.9323402523334
 20
427.07706978060151
 30
0.0
 40
8.0285479777587252
 50
332.91634214298608
 51
68.398563024037514
  0
ARC
  5
161B
  8
0
 62
     2
 10
172.36795043158369
 20
418.0123631816063
 30
0.0
 40
0.6573956128847505
 50
126.3040150258412
 51
322.03412403793578
  0
ARC
  5
161C
  8
0
 62
     2
 10
152.9232122572584
 20
434.08065273788378
 30
0.0
 40
24.587755076992622
 50
320.80504731298458
 51
334.30981360357231
  0
ARC
  5
161D
  8
0
 62
     2
 10
70.545757292422422
 20
387.22740921599188
 30
0.0
 40
97.74119055577296
 50
34.121047692641888
 51
70.455507165663391
  0
LINE
  5
161E
  8
0
 62
     2
 10
103.2439743160853
 20
479.336946912874
 30
0.0
 11
130.5359457085203
 21
479.336946912874
 31
0.0
  0
LINE
  5
161F
  8
0
 62
     2
 10
136.95434221619689
 20
479.336946912874
 30
0.0
 11
157.65045540970931
 21
479.336946912874
 31
0.0
  0
LINE
  5
1620
  8
0
 62
     2
 10
34.263992549523209
 20
479.336946912874
 30
0.0
 11
34.263992549523209
 21
468.94210905679228
 31
0.0
  0
LINE
  5
1621
  8
0
 62
     2
 10
34.263992549523209
 20
458.47900175893392
 30
0.0
 11
34.263992549523209
 21
424.082727169115
 31
0.0
  0
ARC
  5
1622
  8
0
 62
     2
 10
152.80416828410401
 20
436.32769831474877
 30
0.0
 40
5.8823115197245652
 50
46.421914560006563
 51
103.1971236160322
  0
ARC
  5
1623
  8
0
 62
     2
 10
158.7142674267379
 20
443.76412974868862
 30
0.0
 40
3.677331634955423
 50
239.70259215174869
 51
328.0659402633043
  0
ARC
  5
1624
  8
0
 62
     2
 10
166.18581870699541
 20
456.4574979049338
 30
0.0
 40
15.27133881624326
 50
162.1867166774914
 51
253.4473161711029
  0
ARC
  5
1625
  8
0
 62
     2
 10
149.6663942160198
 20
466.42293566135709
 30
0.0
 40
5.65193905628667
 50
163.43196514727339
 51
290.50937125003219
  0
ARC
  5
1626
  8
0
 62
     2
 10
142.49935629077819
 20
465.86556655524367
 30
0.0
 40
2.7868236329181459
 50
51.107004121267749
 51
130.31544900997901
  0
ARC
  5
1627
  8
0
 62
     2
 10
139.52120206433389
 20
470.42529046370367
 30
0.0
 40
2.7035224401639182
 50
179.21462764032401
 51
295.76316917488839
  0
ARC
  5
1628
  8
0
 62
     2
 10
133.47483079641461
 20
468.37730286522992
 30
0.0
 40
3.940018659808846
 50
31.951189123078439
 51
107.05581163803561
  0
ARC
  5
1629
  8
0
 62
     2
 10
133.19977206165731
 20
476.17985431251662
 30
0.0
 40
4.1307631893995982
 50
130.15631205644161
 51
257.69172520413161
  0
ARC
  5
162A
  8
0
 62
     2
 10
165.81083522591479
 20
478.88592116223612
 30
0.0
 40
8.1728344515518625
 50
176.8364700167634
 51
243.9127417582157
  0
ARC
  5
162B
  8
0
 62
     2
 10
160.8018621966867
 20
472.10372656593557
 30
0.0
 40
1.521113128577066
 50
227.90259487895079
 51
338.47790609624678
  0
ARC
  5
162C
  8
0
 62
     2
 10
144.92460526560669
 20
442.11955458965832
 30
0.0
 40
32.455899092118997
 50
62.756346730487337
 51
90.113883585140726
  0
ARC
  5
162D
  8
0
 62
     2
 10
143.54170137764211
 20
481.33027708429739
 30
0.0
 40
6.8823445056304582
 50
196.83577754052149
 51
281.04393353006469
  0
ARC
  5
162E
  8
0
 62
     2
 10
179.11193880528799
 20
481.8384448258322
 30
0.0
 40
13.98716624611459
 50
144.82384880812191
 51
197.5834981004092
  0
ARC
  5
162F
  8
0
 62
     2
 10
165.31266470628501
 20
490.02051838445772
 30
0.0
 40
2.3696334400643342
 50
356.99612543638261
 51
175.88382858854021
  0
ARC
  5
1630
  8
0
 62
     2
 10
186.04006336989929
 20
483.57157112786763
 30
0.0
 40
24.020870685332589
 50
164.0049929369649
 51
196.9401640661244
  0
ARC
  5
1631
  8
0
 62
     2
 10
164.44529830511959
 20
477.02638354093858
 30
0.0
 40
1.45635055680597
 50
198.15746004114081
 51
23.752711019649379
  0
ARC
  5
1632
  8
0
 62
     2
 10
165.46019066780761
 20
442.75648525829678
 30
0.0
 40
7.8382533039791342
 50
22.72800193687231
 51
76.164754204052414
  0
ARC
  5
1633
  8
0
 62
     2
 10
158.3183285402356
 20
428.13297522526722
 30
0.0
 40
23.992893577219139
 50
67.927005207986554
 51
81.423669345267896
  0
ARC
  5
1634
  8
0
 62
     2
 10
163.47948908027141
 20
454.04458419988208
 30
0.0
 40
2.6998932120100871
 50
155.45419191976401
 51
234.099142467837
  0
ARC
  5
1635
  8
0
 62
     2
 10
153.67498438856089
 20
453.88484256174411
 30
0.0
 40
7.4594752397454949
 50
9.8908939533530056
 51
47.237992728516083
  0
ARC
  5
1636
  8
0
 62
     2
 10
159.93865272831911
 20
460.2445416949858
 30
0.0
 40
1.4891345909265949
 50
81.492684114534896
 51
216.37224246618169
  0
ARC
  5
1637
  8
0
 62
     2
 10
175.03480701123539
 20
446.66879076008468
 30
0.0
 40
2.5060762734684432
 50
200.65375609768981
 51
270.41002178667901
  0
ARC
  5
1638
  8
0
 62
     2
 10
174.4390934395424
 20
445.80807349624081
 30
0.0
 40
1.756006359944376
 50
290.45406332708109
 51
29.447099809567689
  0
ARC
  5
1639
  8
0
 62
     2
 10
139.9732722969627
 20
424.67882821601683
 30
0.0
 40
42.181859701289291
 50
31.424474315619371
 51
61.409956802465807
  0
ARC
  5
163A
  8
0
 62
     2
 10
136.63075592676131
 20
415.69032676100687
 30
0.0
 40
7.2392893380375947
 50
320.50292531988811
 51
84.076048535865809
  0
ARC
  5
163B
  8
0
 62
     2
 10
141.17515950761069
 20
400.35421079386828
 30
0.0
 40
22.854408889320649
 50
99.564017503576835
 51
125.77707981160491
  0
ARC
  5
163C
  8
0
 62
     2
 10
127.6066437325714
 20
420.72981995480671
 30
0.0
 40
1.845532013444348
 50
136.98361743585451
 51
276.44219608444871
  0
ARC
  5
163D
  8
0
 62
     2
 10
125.2170763901497
 20
422.84614960082411
 30
0.0
 40
1.347942672373063
 50
320.50567450369982
 51
173.54844256549251
  0
ARC
  5
163E
  8
0
 62
     2
 10
115.4922255519061
 20
425.633482019675
 30
0.0
 40
8.7899662235181957
 50
292.08124688464329
 51
342.55002582312341
  0
ARC
  5
163F
  8
0
 62
     2
 10
117.66331148301541
 20
411.45980736035102
 30
0.0
 40
6.1340284549221682
 50
79.353584513711269
 51
127.9297067356006
  0
ARC
  5
1640
  8
0
 62
     2
 10
118.0618035163388
 20
418.19339376199139
 30
0.0
 40
4.5796288987110447
 50
204.44687594190879
 51
289.32538058076761
  0
ARC
  5
1641
  8
0
 62
     2
 10
120.26507788361771
 20
412.55664186848702
 30
0.0
 40
1.4841246853887471
 50
20.228513639832151
 51
117.6059908816281
  0
ARC
  5
1642
  8
0
 62
     2
 10
124.7466557401349
 20
419.14947298007559
 30
0.0
 40
6.8194054715856103
 50
243.06554426599891
 51
311.59466558803922
  0
ARC
  5
1643
  8
0
 62
     2
 10
143.79746216182451
 20
413.11196883182851
 30
0.0
 40
2.569624939396169
 50
164.31378446899609
 51
232.0441721893659
  0
ARC
  5
1644
  8
0
 62
     2
 10
136.46350119766561
 20
412.3638227791929
 30
0.0
 40
5.0697040134585318
 50
16.53558593561149
 51
122.65078115792561
  0
LINE
  5
1645
  8
0
 62
     2
 10
133.72830849330671
 20
416.63238455736808
 30
0.0
 11
129.27376298521261
 21
414.04951308048248
 31
0.0
  0
ARC
  5
1646
  8
0
 62
     2
 10
158.95486357661841
 20
416.4808816659019
 30
0.0
 40
17.144165255584731
 50
52.550773261697792
 51
91.642393665082665
  0
ARC
  5
1647
  8
0
 62
     2
 10
159.1952134930911
 20
432.28225427216421
 30
0.0
 40
1.523038259303173
 50
118.7139135027315
 51
267.65810020071848
  0
ARC
  5
1648
  8
0
 62
     2
 10
168.6947489314914
 20
428.72149890720539
 30
0.0
 40
1.5316071440758421
 50
238.5009313637841
 51
63.442956102134808
  0
ARC
  5
1649
  8
0
 62
     2
 10
158.66069873961141
 20
416.376161111832
 30
0.0
 40
14.392078047210649
 50
50.089538965903998
 51
88.11948710285273
  0
ARC
  5
164A
  8
0
 62
     2
 10
129.0270831067551
 20
402.75450671620342
 30
0.0
 40
27.83465068271332
 50
52.931199992219319
 51
103.7436686473544
  0
ARC
  5
164B
  8
0
 62
     2
 10
143.73246056500651
 20
427.06731825696619
 30
0.0
 40
2.9528273388075559
 50
314.5803236978075
 51
20.498004562411062
  0
ARC
  5
164C
  8
0
 62
     2
 10
102.05554163676349
 20
418.44821954431382
 30
0.0
 40
45.47904646306003
 50
12.254468476575591
 51
35.260507678346748
  0
ARC
  5
164D
  8
0
 62
     2
 10
126.6841333244729
 20
445.21723992951559
 30
0.0
 40
12.517239023599959
 50
303.69322302740551
 51
357.6456796351124
  0
ARC
  5
164E
  8
0
 62
     2
 10
131.713719190006
 20
440.33615952301437
 30
0.0
 40
5.8552782277158792
 50
203.00090080660269
 51
289.08292296637808
  0
ARC
  5
164F
  8
0
 62
     2
 10
139.875641283503
 20
426.57682661488519
 30
0.0
 40
17.755048305163371
 50
139.75234134589161
 51
169.56636200619141
  0
ARC
  5
1650
  8
0
 62
     2
 10
89.112530871499075
 20
417.20197270203943
 30
0.0
 40
12.66776701180388
 50
19.28381104517489
 51
117.1849981937584
  0
ARC
  5
1651
  8
0
 62
     2
 10
80.336744646521979
 20
432.97826938817701
 30
0.0
 40
3.7349739623692231
 50
306.75800737352608
 51
63.364554762999212
  0
ARC
  5
1652
  8
0
 62
     2
 10
83.048117601406602
 20
429.27768157971059
 30
0.0
 40
0.853460100566888
 50
123.91737017833699
 51
288.9356865563351
  0
ARC
  5
1653
  8
0
 62
     2
 10
83.147287099418008
 20
437.73345625612768
 30
0.0
 40
1.8158851267956679
 50
72.610547148858132
 51
231.27010108110969
  0
ARC
  5
1654
  8
0
 62
     2
 10
81.624039621917063
 20
424.61396416151558
 30
0.0
 40
14.99538044815624
 50
45.954275150735839
 51
82.081024648208427
  0
ARC
  5
1655
  8
0
 62
     2
 10
92.517164948539175
 20
436.7300232652978
 30
0.0
 40
1.4170621269558661
 50
250.72166321454779
 51
35.206887452154668
  0
ARC
  5
1656
  8
0
 62
     2
 10
98.604764138266106
 20
440.25329738391559
 30
0.0
 40
5.6237432209437701
 50
170.40408195493379
 51
208.7655403415105
  0
ARC
  5
1657
  8
0
 62
     2
 10
93.142430638658425
 20
447.59125989060249
 30
0.0
 40
6.4010274831346301
 50
269.25953390706269
 51
294.15581927361438
  0
ARC
  5
1658
  8
0
 62
     2
 10
92.902434217766768
 20
442.18468024051879
 30
0.0
 40
2.8921628487301341
 50
351.3706002708596
 51
51.854260459970519
  0
ARC
  5
1659
  8
0
 62
     2
 10
106.50410660307919
 20
461.20620220523841
 30
0.0
 40
20.495441899094811
 50
213.65034225038571
 51
234.7963982641599
  0
ARC
  5
165A
  8
0
 62
     2
 10
84.775796779368193
 20
454.69181352317759
 30
0.0
 40
6.725590541926004
 50
313.94324357991599
 51
345.93426464873528
  0
ARC
  5
165B
  8
0
 62
     2
 10
89.559527990553761
 20
443.18633139737898
 30
0.0
 40
10.02315116489034
 50
40.780766998339011
 51
80.001697311441404
  0
ARC
  5
165C
  8
0
 62
     2
 10
100.90830343469089
 20
452.39746064069732
 30
0.0
 40
4.6075555685453553
 50
215.3279178043903
 51
312.33919046745399
  0
ARC
  5
165D
  8
0
 62
     2
 10
106.09578784307401
 20
433.90470654340191
 30
0.0
 40
15.230267282893919
 50
52.32791235846237
 51
97.865418256566841
  0
ARC
  5
165E
  8
0
 62
     2
 10
110.68178330592239
 20
438.93064649204268
 30
0.0
 40
8.4678646359255776
 50
306.8930955676833
 51
56.108615854473477
  0
ARC
  5
165F
  8
0
 62
     2
 10
114.6422651108889
 20
433.47241552026429
 30
0.0
 40
1.7284926194426331
 50
142.3894695583628
 51
310.518013783014
  0
ARC
  5
1660
  8
0
 62
     2
 10
110.87917103195529
 20
434.58892396617227
 30
0.0
 40
2.3946142277609042
 50
358.52533130109191
 51
133.56180667606401
  0
LINE
  5
1661
  8
0
 62
     2
 10
109.2289545855251
 20
436.3241366274118
 30
0.0
 11
106.2833401366876
 21
433.76589423785617
 31
0.0
  0
ARC
  5
1662
  8
0
 62
     2
 10
112.5914530279851
 20
433.1829205168662
 30
0.0
 40
6.334993812839806
 50
174.719922500108
 51
254.00299259332351
  0
ARC
  5
1663
  8
0
 62
     2
 10
111.4784500427772
 20
464.07115108756722
 30
0.0
 40
36.983323475935691
 50
269.0195357994063
 51
276.82187583111249
  0
ARC
  5
1664
  8
0
 62
     2
 10
115.91841532579041
 20
425.94657474956688
 30
0.0
 40
1.403872386106098
 50
292.79462926153309
 51
91.917420525872984
  0
ARC
  5
1665
  8
0
 62
     2
 10
104.2907793212582
 20
444.10484371439787
 30
0.0
 40
22.946590186487182
 50
261.93023221316002
 51
302.03444590331338
  0
ARC
  5
1666
  8
0
 62
     2
 10
131.43263893727109
 20
446.59895401989428
 30
0.0
 40
1.872540732690404
 50
280.68215826572168
 51
99.072662410900136
  0
ARC
  5
1667
  8
0
 62
     2
 10
127.6061841130763
 20
479.50817851502609
 30
0.0
 40
31.26019376436707
 50
254.163870201469
 51
276.48602684247447
  0
ARC
  5
1668
  8
0
 62
     2
 10
120.5969377052424
 20
448.70099105491471
 30
0.0
 40
1.6888289779562451
 50
154.25994303261251
 51
250.94205138219789
  0
ARC
  5
1669
  8
0
 62
     2
 10
118.1405664647623
 20
440.82784583234383
 30
0.0
 40
6.5595738276368749
 50
8.8862926094267696
 51
73.117845529822119
  0
ARC
  5
166A
  8
0
 62
     2
 10
125.1602503372801
 20
442.15398958401369
 30
0.0
 40
0.6230858256469231
 50
210.1399467064011
 51
350.90930902626388
  0
ARC
  5
166B
  8
0
 62
     2
 10
131.73262917733561
 20
436.84396764229831
 30
0.0
 40
7.9150358883822216
 50
89.659011262024634
 51
138.81899705121359
  0
ARC
  5
166C
  8
0
 62
     2
 10
119.4783418936895
 20
454.78278969131992
 30
0.0
 40
1.6949559781543639
 50
108.3572549861245
 51
276.11447019596341
  0
LINE
  5
166D
  8
0
 62
     2
 10
118.9445306806945
 20
456.39149145260501
 30
0.0
 11
124.02578916426521
 21
458.36222089250981
 31
0.0
  0
LINE
  5
166E
  8
0
 62
     2
 10
124.02578916426521
 20
458.36222089250981
 30
0.0
 11
128.09519646224311
 21
456.74232068662508
 31
0.0
  0
LINE
  5
166F
  8
0
 62
     2
 10
128.09519646224311
 20
456.74232068662508
 30
0.0
 11
132.30781989769361
 21
454.0517027075777
 31
0.0
  0
ARC
  5
1670
  8
0
 62
     2
 10
131.80757168670581
 20
453.22436583353101
 30
0.0
 40
0.9668167229387583
 50
292.02131763921568
 51
58.840796507400093
  0
ARC
  5
1671
  8
0
 62
     2
 10
123.1063021755858
 20
407.04858309825102
 30
0.0
 40
46.177757324731132
 50
78.680481631459983
 51
94.281426127650363
  0
ARC
  5
1672
  8
0
 62
     2
 10
103.58135786879301
 20
458.02407643474351
 30
0.0
 40
9.8547557012067664
 50
101.3050118494359
 51
156.94394768224149
  0
ARC
  5
1673
  8
0
 62
     2
 10
96.217617540029323
 20
441.74503742028708
 30
0.0
 40
19.346432320223119
 50
98.990255944981158
 51
127.1841016962258
  0
ARC
  5
1674
  8
0
 62
     2
 10
92.676648676376772
 20
462.87730955144212
 30
0.0
 40
2.088704543032335
 50
284.35271117955767
 51
331.58870384412711
  0
ARC
  5
1675
  8
0
 62
     2
 10
81.285121689889806
 20
456.19099565867191
 30
0.0
 40
3.3812505026742179
 50
16.623253251161831
 51
139.2526001911817
  0
LINE
  5
1676
  8
0
 62
     2
 10
78.723504543877425
 20
458.39802365103827
 30
0.0
 11
74.491802571327071
 21
457.69446698763039
 31
0.0
  0
ARC
  5
1677
  8
0
 62
     2
 10
63.51582638387913
 20
477.55140248978933
 30
0.0
 40
22.688542059910379
 50
298.93174498321451
 51
342.25578148708843
  0
ARC
  5
1678
  8
0
 62
     2
 10
94.142735790909214
 20
458.65174374810249
 30
0.0
 40
11.747290480417471
 50
50.281079495076042
 51
91.372482719453743
  0
ARC
  5
1679
  8
0
 62
     2
 10
98.855498975172637
 20
503.12800000180067
 30
0.0
 40
33.111134101240459
 50
251.3923496019581
 51
261.32500124602387
  0
ARC
  5
167A
  8
0
 62
     2
 10
87.407765047422799
 20
469.19756080192718
 30
0.0
 40
2.6985235043979539
 50
70.912713966357316
 51
147.7719804973276
  0
ARC
  5
167B
  8
0
 62
     2
 10
32.550130421143884
 20
453.69579867009747
 30
0.0
 40
15.34233697330791
 50
44.682395388530111
 51
83.586215024152395
  0
ARC
  5
167C
  8
0
 62
     2
 10
46.154124193152711
 20
464.1146996171841
 30
0.0
 40
2.7205578999631461
 50
49.497226123908597
 51
172.19480745163679
  0
ARC
  5
167D
  8
0
 62
     2
 10
51.034941239205182
 20
469.78754672478408
 30
0.0
 40
4.7630228087885547
 50
229.1745914760813
 51
319.46806162931989
  0
ARC
  5
167E
  8
0
 62
     2
 10
56.786266945455957
 20
470.34902951110638
 30
0.0
 40
4.232558871438024
 50
239.76619257963139
 51
298.66204723123741
  0
ARC
  5
167F
  8
0
 62
     2
 10
61.182275198520301
 20
469.06656980376869
 30
0.0
 40
3.3925571502689791
 50
117.48322181276509
 51
225.783007103118
  0
ARC
  5
1680
  8
0
 62
     2
 10
48.250179388291372
 20
503.68954978524113
 30
0.0
 40
33.594590132525219
 50
289.77590588254589
 51
307.78509896276063
  0
ARC
  5
1681
  8
0
 62
     2
 10
31.786036834788781
 20
525.68312650345331
 30
0.0
 40
61.065795814394932
 50
307.350069572378
 51
310.62785712346562
  0
ARC
  5
1682
  8
0
 62
     2
 10
49.320914135327492
 20
413.40527058463721
 30
0.0
 40
10.880897072467709
 50
347.67300188643748
 51
89.288499183292288
  0
LINE
  5
1683
  8
0
 62
     2
 10
49.456029989369661
 20
424.2853287098323
 30
0.0
 11
43.683618405373409
 21
423.27727603571469
 31
0.0
  0
LINE
  5
1684
  8
0
 62
     2
 10
43.683618405373409
 20
423.27727603571469
 30
0.0
 11
47.655104000112722
 21
422.26848585928428
 31
0.0
  0
ARC
  5
1685
  8
0
 62
     2
 10
40.949552194287662
 20
410.12427639571291
 30
0.0
 40
13.872499721236
 50
2.9921734826404811
 51
61.094258041078689
  0
ARC
  5
1686
  8
0
 62
     2
 10
57.338544216615219
 20
411.81278429823891
 30
0.0
 40
2.7126163896076321
 50
200.82487345547401
 51
344.37788693411289
  0
ARC
  5
1687
  8
0
 62
     2
 10
29.36707792893435
 20
448.64966768617342
 30
0.0
 40
10.981601937570989
 50
8.7047289965890098
 51
63.517792533197621
  0
ARC
  5
1688
  8
0
 62
     2
 10
46.94797389819837
 20
451.42690879641759
 30
0.0
 40
6.8176249377596108
 50
189.41502594964689
 51
233.534828766705
  0
ARC
  5
1689
  8
0
 62
     2
 10
44.699818556550781
 20
448.79666253123918
 30
0.0
 40
3.3750644660829199
 50
237.69362225313739
 51
315.60145755629179
  0
ARC
  5
168A
  8
0
 62
     2
 10
45.97392665569032
 20
443.03978029725408
 30
0.0
 40
3.580950395737065
 50
293.51495378814559
 51
71.48159008256431
  0
ARC
  5
168B
  8
0
 62
     2
 10
48.898687672719007
 20
437.76520770483529
 30
0.0
 40
2.490401972386846
 50
126.92059118212489
 51
249.09632728892939
  0
ARC
  5
168C
  8
0
 62
     2
 10
45.59013097545585
 20
433.63604349105731
 30
0.0
 40
3.0176112181509671
 50
257.01740870285499
 51
36.682860257066977
  0
ARC
  5
168D
  8
0
 62
     2
 10
44.683652746724867
 20
419.1841190328218
 30
0.0
 40
11.51371704959389
 50
88.862556687596779
 51
154.8203151525295
  0
LINE
  5
168E
  8
0
 62
     2
 10
34.263992549523209
 20
479.336946912874
 30
0.0
 11
71.548620450584394
 21
479.336946912874
 31
0.0
  0
ARC
  5
168F
  8
0
 62
     2
 10
106.3191692823093
 20
471.24069571142633
 30
0.0
 40
13.861162096381079
 50
275.42699137814321
 51
320.70524010228132
  0
ARC
  5
1690
  8
0
 62
     2
 10
103.9399192310143
 20
446.78570089245238
 30
0.0
 40
20.43360763308571
 50
50.10275056101446
 51
81.051290365463558
  0
ARC
  5
1691
  8
0
 62
     2
 10
103.4440566174285
 20
459.23576602093362
 30
0.0
 40
4.5543305108843928
 50
336.80056971023942
 51
34.792942028653918
  0
ARC
  5
1692
  8
0
 62
     2
 10
98.985032389062795
 20
464.2979523913645
 30
0.0
 40
8.5612033456099628
 50
343.27710147568808
 51
18.1906668378885
  0
ARC
  5
1693
  8
0
 62
     2
 10
91.374575376116567
 20
419.56311733075921
 30
0.0
 40
5.8183417234985333
 50
322.93547473247372
 51
113.9974701938909
  0
ARC
  5
1694
  8
0
 62
     2
 10
85.150272453554393
 20
429.52890270610823
 30
0.0
 40
6.0423555783525078
 50
236.13232630441519
 51
309.67957598721642
  0
ARC
  5
1695
  8
0
 62
     2
 10
82.445704334362276
 20
421.8966966541708
 30
0.0
 40
2.6977377417032451
 50
104.22017861800489
 51
211.41663630857789
  0
ARC
  5
1696
  8
0
 62
     2
 10
77.419904815968493
 20
421.68138274663983
 30
0.0
 40
2.9725377105549158
 50
194.52284783515461
 51
336.3821326856156
  0
ARC
  5
1697
  8
0
 62
     2
 10
70.60497240519453
 20
418.6666979664185
 30
0.0
 40
4.5445038771613468
 50
29.956645092511359
 51
85.540401476729684
  0
ARC
  5
1698
  8
0
 62
     2
 10
64.886371086836107
 20
423.76560883546688
 30
0.0
 40
6.0984885450324811
 50
283.28679291321589
 51
354.65428450594021
  0
ARC
  5
1699
  8
0
 62
     2
 10
58.815630368734901
 20
414.94844876476549
 30
0.0
 40
8.0088160219832627
 50
336.02238441094681
 51
21.09055631356404
  0
ARC
  5
169A
  8
0
 62
     2
 10
71.163692444704793
 20
401.44053600765022
 30
0.0
 40
11.420799165864
 50
39.112796768239662
 51
116.13305188925089
  0
ARC
  5
169B
  8
0
 62
     2
 10
84.821051983765756
 20
401.89384039922948
 30
0.0
 40
8.2815064030987173
 50
48.027507663849882
 51
125.3879279243483
  0
ARC
  5
169C
  8
0
 62
     2
 10
93.405360812458866
 20
411.21403368922842
 30
0.0
 40
4.3912306919532611
 50
226.08248007405621
 51
292.91880830131151
  0
ARC
  5
169D
  8
0
 62
     2
 10
87.229822692648895
 20
403.19571282391229
 30
0.0
 40
8.8302500020274852
 50
26.744642146350309
 51
59.803596887788338
  0
ARC
  5
169E
  8
0
 62
     2
 10
94.822076343766184
 20
414.99803967093499
 30
0.0
 40
5.2268259122336893
 50
133.7281670917441
 51
232.92641467037879
  0
ARC
  5
169F
  8
0
 62
     2
 10
92.492258368172315
 20
415.4332127478005
 30
0.0
 40
3.5797526590150031
 50
10.02422949994371
 51
111.0050191914829
  0
ARC
  5
16A0
  8
0
 62
     2
 10
41.202264634953281
 20
409.3852048677972
 30
0.0
 40
9.0257956413034641
 50
3.6736279197706221
 51
123.57593055107201
  0
ARC
  5
16A1
  8
0
 62
     2
 10
47.906716568076028
 20
409.78526191420951
 30
0.0
 40
2.3096863357214592
 50
192.5698738533944
 51
4.426266275080331
  0
ARC
  5
16A2
  8
0
 62
     2
 10
38.002598977974458
 20
405.13871056901911
 30
0.0
 40
8.7000670483956242
 50
28.444417679532371
 51
95.910404782269083
  0
ARC
  5
16A3
  8
0
 62
     2
 10
36.722133577122349
 20
415.36707403377062
 30
0.0
 40
1.6208338259719921
 50
108.3960789330289
 51
283.72607591896258
  0
ARC
  5
16A4
  8
0
 62
     2
 10
101.9844031621474
 20
456.3558983199402
 30
0.0
 40
1.540953010632315
 50
312.33334497040318
 51
107.0761387754071
  0
ARC
  5
16A5
  8
0
 62
     2
 10
94.826350621115125
 20
472.8746474471908
 30
0.0
 40
16.472356469439791
 50
259.17640463795721
 51
294.02152411995689
  0
ARC
  5
16A6
  8
0
 62
     2
 10
98.247209161207138
 20
462.59554588052367
 30
0.0
 40
8.7889950268853418
 50
222.16888027568609
 51
302.9076112406849
  0
ARC
  5
16A7
  8
0
 62
     2
 10
61.762443191882539
 20
430.58372498211509
 30
0.0
 40
6.6204320732633448
 50
259.1144263782345
 51
330.77695703896808
  0
ARC
  5
16A8
  8
0
 62
     2
 10
56.689042583435374
 20
432.93041710499182
 30
0.0
 40
12.20133944270315
 50
332.79128364677609
 51
0.8343441428904522
  0
ARC
  5
16A9
  8
0
 62
     2
 10
68.618547292621543
 20
427.84519275729048
 30
0.0
 40
5.2698436582628263
 50
87.057279011270495
 51
155.085073099308
  0
ARC
  5
16AA
  8
0
 62
     2
 10
68.988375692665841
 20
434.45685661063828
 30
0.0
 40
6.7676398784655918
 50
159.7940647701881
 51
220.4598773041478
  0
ARC
  5
16AB
  8
0
 62
     2
 10
63.174473211660818
 20
431.66105588378491
 30
0.0
 40
5.1613488779754313
 50
95.974666596106786
 51
167.9053654548394
  0
ARC
  5
16AC
  8
0
 62
     2
 10
57.123501429063701
 20
428.45731766502649
 30
0.0
 40
4.4012687549100402
 50
76.811278065441869
 51
183.24973281289491
  0
ARC
  5
16AD
  8
0
 62
     2
 10
51.983513301745461
 20
417.39662462906921
 30
0.0
 40
10.836886743637089
 50
38.09359406089726
 51
86.053772786533244
  0
LINE
  5
16AE
  8
0
 62
     2
 10
153.25685858378961
 20
485.52111592336178
 30
0.0
 11
153.25685858378961
 21
489.52111592336178
 31
0.0
  0
LINE
  5
16AF
  8
0
 62
     2
 10
153.25685858378961
 20
489.52111592336178
 30
0.0
 11
138.25685858378961
 21
489.52111592336178
 31
0.0
  0
LINE
  5
16B0
  8
0
 62
     2
 10
138.25685858378961
 20
489.52111592336178
 30
0.0
 11
138.25685858378961
 21
485.52111592336178
 31
0.0
  0
LINE
  5
16B1
  8
0
 62
     2
 10
138.25685858378961
 20
485.52111592336178
 30
0.0
 11
49.693858583789741
 21
485.52111592336178
 31
0.0
  0
LINE
  5
16B2
  8
0
 62
     2
 10
49.693858583789741
 20
485.52111592336178
 30
0.0
 11
49.693858583789741
 21
489.52111592336178
 31
0.0
  0
LINE
  5
16B3
  8
0
 62
     2
 10
49.693858583789741
 20
489.52111592336178
 30
0.0
 11
34.693858583789741
 21
489.52111592336178
 31
0.0
  0
LINE
  5
16B4
  8
0
 62
     2
 10
34.693858583789741
 20
489.52111592336178
 30
0.0
 11
34.693858583789741
 21
485.52111592336178
 31
0.0
  0
LINE
  5
16B5
  8
0
 62
     2
 10
34.693858583789741
 20
485.52111592336178
 30
0.0
 11
24.169358583789752
 21
485.52111592336178
 31
0.0
  0
LINE
  5
16B6
  8
0
 62
     2
 10
153.25685858378961
 20
485.52111592336178
 30
0.0
 11
158.86735858378961
 21
485.52111592336178
 31
0.0
  0
LINE
  5
16B7
  8
0
 62
     2
 10
24.16936102208388
 20
405.21584504201007
 30
0.0
 11
24.16936102208388
 21
485.52111592336178
 31
0.0
  0
LINE
  5
16B8
  8
0
 62
     2
 10
158.86735858378961
 20
485.52111592336178
 30
0.0
 11
158.86735858378961
 21
492.1164609490383
 31
0.0
  0
LINE
  5
16D1
  8
0
 62
     2
 10
36.215684414240862
 20
633.4330877961014
 30
0.0
 11
36.215684414240862
 21
599.73958779610143
 31
0.0
  0
LINE
  5
16D2
  8
0
 62
     2
 10
36.215684414240862
 20
599.73958779610143
 30
0.0
 11
32.215684414240862
 21
599.73958779610143
 31
0.0
  0
LINE
  5
16D4
  8
0
 62
     2
 10
36.215684414240862
 20
584.73958779610143
 30
0.0
 11
32.215684414240862
 21
584.73958779610143
 31
0.0
  0
LINE
  5
16D5
  8
0
 62
     2
 10
36.215684414240862
 20
584.73958779610143
 30
0.0
 11
36.215684414240741
 21
541.36198779610129
 31
0.0
  0
LINE
  5
16D6
  8
0
 62
     2
 10
36.215684414240741
 20
541.36198779610129
 30
0.0
 11
32.215684414240741
 21
541.36198779610129
 31
0.0
  0
LINE
  5
16D8
  8
0
 62
     2
 10
36.215684414240741
 20
526.3619877961014
 30
0.0
 11
32.215684414240741
 21
526.3619877961014
 31
0.0
  0
LINE
  5
16E2
  8
0
 62
     2
 10
116.52095492223221
 20
513.44878919049211
 30
0.0
 11
36.21568404088066
 21
513.44878919049211
 31
0.0
  0
LINE
  5
16E3
  8
0
 62
     2
 10
116.52095492223221
 20
513.44878919049211
 30
0.0
 11
196.82622580358381
 21
513.44878919049211
 31
0.0
  0
LINE
  5
16E4
  8
0
 62
     2
 10
32.215684414240862
 20
599.73958779610143
 30
0.0
 11
32.215684414240862
 21
584.73958779610143
 31
0.0
  0
LINE
  5
16E5
  8
0
 62
     2
 10
32.215684414240741
 20
541.36198779610129
 30
0.0
 11
32.215684414240741
 21
526.3619877961014
 31
0.0
  0
LINE
  5
16E6
  8
0
 62
     2
 10
36.215684414240741
 20
526.3619877961014
 30
0.0
 11
36.21568404088066
 21
513.44878919049211
 31
0.0
  0
LINE
  5
16E7
  8
0
 62
     2
 10
196.8262254302237
 20
633.4330877961014
 30
0.0
 11
196.8262254302237
 21
599.73958779610143
 31
0.0
  0
LINE
  5
16E8
  8
0
 62
     2
 10
196.8262254302237
 20
599.73958779610143
 30
0.0
 11
200.82622543022379
 21
599.73958779610143
 31
0.0
  0
LINE
  5
16E9
  8
0
 62
     2
 10
196.8262254302237
 20
584.73958779610143
 30
0.0
 11
200.82622543022379
 21
584.73958779610143
 31
0.0
  0
LINE
  5
16EA
  8
0
 62
     2
 10
196.8262254302237
 20
584.73958779610143
 30
0.0
 11
196.8262254302237
 21
541.36198779610129
 31
0.0
  0
LINE
  5
16EB
  8
0
 62
     2
 10
196.8262254302237
 20
541.36198779610129
 30
0.0
 11
200.82622543022379
 21
541.36198779610129
 31
0.0
  0
LINE
  5
16EC
  8
0
 62
     2
 10
196.8262254302237
 20
526.3619877961014
 30
0.0
 11
200.82622543022379
 21
526.3619877961014
 31
0.0
  0
LINE
  5
16ED
  8
0
 62
     2
 10
200.82622543022379
 20
599.73958779610143
 30
0.0
 11
200.82622543022379
 21
584.73958779610143
 31
0.0
  0
LINE
  5
16EE
  8
0
 62
     2
 10
200.82622543022379
 20
541.36198779610129
 30
0.0
 11
200.82622543022379
 21
526.3619877961014
 31
0.0
  0
LINE
  5
16EF
  8
0
 62
     2
 10
196.8262254302237
 20
526.3619877961014
 30
0.0
 11
196.82622580358381
 21
513.44878919049211
 31
0.0
  0
ARC
  5
16F2
  8
0
 62
     2
 10
116.52095492223221
 20
413.85549668869209
 30
0.0
 40
233.80174291030059
 50
69.911211546504205
 51
110.08878845349579
  0
POLYLINE
  5
16F3
  8
0
 62
     2
 66
     1
 10
0.0
 20
0.0
 30
0.0
 70
     1
  0
VERTEX
  5
17FD
  8
0
 62
     2
 10
28.042821564453341
 20
509.6376848194638
 30
0.0
  0
VERTEX
  5
17FE
  8
0
 62
     2
 10
204.2970943843693
 20
509.6376848194638
 30
0.0
  0
VERTEX
  5
17FF
  8
0
 62
     2
 10
204.2970943843693
 20
649.60919205316088
 30
0.0
  0
VERTEX
  5
1800
  8
0
 62
     2
 10
28.042821564453341
 20
649.60919205316088
 30
0.0
  0
SEQEND
  5
1801
  8
0
 62
     2
  0
ENDSEC
  0
EOF
