  0
SECTION
  2
HEADER
  9
$ACADVER
  1
AC1009
  9
$INSBASE
 10
0.0
 20
0.0
 30
0.0
  9
$EXTMIN
 10
-351.23801112581498
 20
-239.84870493118891
 30
0.0
  9
$EXTMAX
 10
1849.3511483844561
 20
961.93261496101661
 30
0.0
  9
$LIMMIN
 10
0.0
 20
0.0
  9
$LIMMAX
 10
420.0
 20
297.0
  9
$ORTHOMODE
 70
     0
  9
$REGENMODE
 70
     1
  9
$FILLMODE
 70
     1
  9
$QTEXTMODE
 70
     0
  9
$MIRRTEXT
 70
     0
  9
$DRAGMODE
 70
     2
  9
$LTSCALE
 40
1.0
  9
$OSMODE
 70
    37
  9
$ATTMODE
 70
     1
  9
$TEXTSIZE
 40
10.0
  9
$TRACEWID
 40
1.0
  9
$TEXTSTYLE
  7
STANDARD
  9
$CLAYER
  8
0
  9
$CELTYPE
  6
BYLAYER
  9
$CECOLOR
 62
     3
  9
$DIMSCALE
 40
1.0
  9
$DIMASZ
 40
2.5
  9
$DIMEXO
 40
10.0
  9
$DIMDLI
 40
10.0
  9
$DIMRND
 40
0.0
  9
$DIMDLE
 40
0.0
  9
$DIMEXE
 40
3.0
  9
$DIMTP
 40
0.0
  9
$DIMTM
 40
0.0
  9
$DIMTXT
 40
10.0
  9
$DIMCEN
 40
2.5
  9
$DIMTSZ
 40
0.0
  9
$DIMTOL
 70
     0
  9
$DIMLIM
 70
     0
  9
$DIMTIH
 70
     0
  9
$DIMTOH
 70
     0
  9
$DIMSE1
 70
     0
  9
$DIMSE2
 70
     0
  9
$DIMTAD
 70
     1
  9
$DIMZIN
 70
     8
  9
$DIMBLK
  1
OBLIQUE
  9
$DIMASO
 70
     1
  9
$DIMSHO
 70
     1
  9
$DIMPOST
  1

  9
$DIMAPOST
  1

  9
$DIMALT
 70
     0
  9
$DIMALTD
 70
     3
  9
$DIMALTF
 40
0.03937007874016
  9
$DIMLFAC
 40
1.0
  9
$DIMTOFL
 70
     1
  9
$DIMTVP
 40
0.0
  9
$DIMTIX
 70
     0
  9
$DIMSOXD
 70
     0
  9
$DIMSAH
 70
     0
  9
$DIMBLK1
  1

  9
$DIMBLK2
  1

  9
$DIMSTYLE
  2
ISO-25
  9
$DIMCLRD
 70
     2
  9
$DIMCLRE
 70
     2
  9
$DIMCLRT
 70
     2
  9
$DIMTFAC
 40
1.0
  9
$DIMGAP
 40
0.625
  9
$LUNITS
 70
     2
  9
$LUPREC
 70
     4
  9
$SKETCHINC
 40
1.0
  9
$FILLETRAD
 40
0.0
  9
$AUNITS
 70
     0
  9
$AUPREC
 70
     0
  9
$MENU
  1
.
  9
$ELEVATION
 40
0.0
  9
$PELEVATION
 40
0.0
  9
$THICKNESS
 40
0.0
  9
$LIMCHECK
 70
     0
  9
$BLIPMODE
 70
     0
  9
$CHAMFERA
 40
0.0
  9
$CHAMFERB
 40
0.0
  9
$SKPOLY
 70
     0
  9
$TDCREATE
 40
2455257.245362164
  9
$TDUPDATE
 40
2456804.0417320719
  9
$TDINDWG
 40
1.5431071758999999
  9
$TDUSRTIMER
 40
1.5431061921
  9
$USRTIMER
 70
     1
  9
$ANGBASE
 50
0.0
  9
$ANGDIR
 70
     0
  9
$PDMODE
 70
     0
  9
$PDSIZE
 40
0.0
  9
$PLINEWID
 40
0.0
  9
$COORDS
 70
     1
  9
$SPLFRAME
 70
     0
  9
$SPLINETYPE
 70
     6
  9
$SPLINESEGS
 70
     8
  9
$ATTDIA
 70
     0
  9
$ATTREQ
 70
     1
  9
$HANDLING
 70
     1
  9
$HANDSEED
  5
7871
  9
$SURFTAB1
 70
     6
  9
$SURFTAB2
 70
     6
  9
$SURFTYPE
 70
     6
  9
$SURFU
 70
     6
  9
$SURFV
 70
     6
  9
$UCSNAME
  2

  9
$UCSORG
 10
0.0
 20
0.0
 30
0.0
  9
$UCSXDIR
 10
1.0
 20
0.0
 30
0.0
  9
$UCSYDIR
 10
0.0
 20
1.0
 30
0.0
  9
$PUCSNAME
  2

  9
$PUCSORG
 10
0.0
 20
0.0
 30
0.0
  9
$PUCSXDIR
 10
1.0
 20
0.0
 30
0.0
  9
$PUCSYDIR
 10
0.0
 20
1.0
 30
0.0
  9
$USERI1
 70
     0
  9
$USERI2
 70
     0
  9
$USERI3
 70
     0
  9
$USERI4
 70
     0
  9
$USERI5
 70
     0
  9
$USERR1
 40
0.0
  9
$USERR2
 40
0.0
  9
$USERR3
 40
0.0
  9
$USERR4
 40
0.0
  9
$USERR5
 40
0.0
  9
$WORLDVIEW
 70
     1
  9
$SHADEDGE
 70
     3
  9
$SHADEDIF
 70
    70
  9
$TILEMODE
 70
     1
  9
$MAXACTVP
 70
    64
  9
$PLIMCHECK
 70
     0
  9
$PEXTMIN
 10
0.0
 20
0.0
 30
0.0
  9
$PEXTMAX
 10
0.0
 20
0.0
 30
0.0
  9
$PLIMMIN
 10
0.0
 20
0.0
  9
$PLIMMAX
 10
12.0
 20
9.0
  9
$UNITMODE
 70
     0
  9
$VISRETAIN
 70
     1
  9
$PLINEGEN
 70
     0
  9
$PSLTSCALE
 70
     1
  0
ENDSEC
  0
SECTION
  2
TABLES
  0
TABLE
  2
VPORT
 70
     1
  0
VPORT
  2
*ACTIVE
 70
     0
 10
0.0
 20
0.0
 11
1.0
 21
1.0
 12
356.18365311600968
 22
140.7348043675122
 13
0.0
 23
0.0
 14
10.0
 24
10.0
 15
10.0
 25
10.0
 16
0.0
 26
0.0
 36
1.0
 17
0.0
 27
0.0
 37
0.0
 40
515.07402177403731
 41
2.4881170018281531
 42
50.0
 43
0.0
 44
0.0
 50
0.0
 51
0.0
 71
     0
 72
  1000
 73
     1
 74
     3
 75
     0
 76
     1
 77
     0
 78
     0
  0
ENDTAB
  0
TABLE
  2
LTYPE
 70
     3
  0
LTYPE
  2
CONTINUOUS
 70
     0
  3
Solid line
 72
    65
 73
     0
 40
0.0
  0
LTYPE
  2
PHANTOM2
 70
     0
  3
___ _ _ ___ _ _ ___ _ _ ___ _ _
 72
    65
 73
     6
 40
1.25
 49
0.625
 49
-0.125
 49
0.125
 49
-0.125
 49
0.125
 49
-0.125
  0
ENDTAB
  0
TABLE
  2
LAYER
 70
     2
  0
LAYER
  2
0
 70
     0
 62
     7
  6
CONTINUOUS
  0
LAYER
  2
DEFPOINTS
 70
     0
 62
     7
  6
CONTINUOUS
  0
ENDTAB
  0
TABLE
  2
STYLE
 70
     3
  0
STYLE
  2
STANDARD
 70
     0
 40
10.0
 41
1.0
 50
0.0
 71
     0
 42
10.0
  3
txt
  4

  0
STYLE
  2
ANNOTATIVE
 70
     0
 40
0.0
 41
1.0
 50
0.0
 71
     0
 42
0.2
  3
txt
  4

  0
STYLE
  2
SLDTEXTSTYLE0
 70
     0
 40
0.0
 41
0.75
 50
0.0
 71
     0
 42
0.2
  3
TXT
  4

  0
ENDTAB
  0
TABLE
  2
VIEW
 70
     3
  0
ENDTAB
  0
TABLE
  2
UCS
 70
     0
  0
ENDTAB
  0
TABLE
  2
APPID
 70
    10
  0
APPID
  2
ACAD
 70
     0
  0
APPID
  2
ACADANNOTATIVE
 70
     0
  0
APPID
  2
ACAD_PSEXT
 70
     0
  0
APPID
  2
ACAD_EXEMPT_FROM_CAD_STANDARDS
 70
     0
  0
APPID
  2
ACAD_NAV_VCDISPLAY
 70
     0
  0
APPID
  2
ACAD_MLEADERVER
 70
     0
  0
APPID
  2
GRADIENTCOLOR1ACI
 70
     0
  0
APPID
  2
GRADIENTCOLOR2ACI
 70
     0
  0
APPID
  2
AcDbDynamicBlockTrueName2
 70
     0
  0
APPID
  2
AcDbDynamicBlockGUID
 70
     0
  0
ENDTAB
  0
TABLE
  2
DIMSTYLE
 70
     4
  0
DIMSTYLE
  2
STANDARD
 70
     0
  3

  4

  5

  6

  7

 40
1.0
 41
0.18
 42
0.0625
 43
0.38
 44
0.18
 45
0.0
 46
0.0
 47
0.0
 48
0.0
140
0.18
141
0.09
142
0.0
143
25.399999999999999
144
1.0
145
0.0
146
1.0
147
0.09
 71
     0
 72
     0
 73
     1
 74
     1
 75
     0
 76
     0
 77
     0
 78
     0
170
     0
171
     2
172
     0
173
     0
174
     0
175
     0
176
     0
177
     0
178
     0
  0
DIMSTYLE
  2
ANNOTATIVE
 70
     0
  3

  4

  5

  6

  7

 40
1.0
 41
0.18
 42
0.0625
 43
0.38
 44
0.18
 45
0.0
 46
0.0
 47
0.0
 48
0.0
140
0.18
141
0.09
142
0.0
143
25.399999999999999
144
1.0
145
0.0
146
1.0
147
0.09
 71
     0
 72
     0
 73
     1
 74
     1
 75
     0
 76
     0
 77
     0
 78
     0
170
     0
171
     2
172
     0
173
     0
174
     0
175
     0
176
     0
177
     0
178
     0
  0
DIMSTYLE
  2
ISO-25
 70
     0
  3

  4

  5

  6

  7

 40
1.0
 41
2.5
 42
10.0
 43
10.0
 44
3.0
 45
0.0
 46
0.0
 47
0.0
 48
0.0
140
10.0
141
2.5
142
0.0
143
0.03937007874016
144
1.0
145
0.0
146
1.0
147
0.625
 71
     0
 72
     0
 73
     0
 74
     0
 75
     0
 76
     0
 77
     1
 78
     8
170
     0
171
     3
172
     1
173
     0
174
     0
175
     0
176
     2
177
     2
178
     2
  0
ENDTAB
  0
ENDSEC
  0
SECTION
  2
BLOCKS
  0
BLOCK
  8
0
  2
$MODEL_SPACE
 70
     0
 10
0.0
 20
0.0
 30
0.0
  3
$MODEL_SPACE
  1

  0
ENDBLK
  5
3602
  8
0
  0
BLOCK
 67
     1
  8
0
  2
$PAPER_SPACE
 70
     0
 10
0.0
 20
0.0
 30
0.0
  3
$PAPER_SPACE
  1

  0
ENDBLK
  5
35FE
 67
     1
  8
0
  0
BLOCK
  8
0
  2
SW_CENTERMARKSYMBOL_0
 70
     0
 10
0.0
 20
0.0
 30
0.0
  3
SW_CENTERMARKSYMBOL_0
  1

  0
LINE
  5
111
  8
0
  6
CONTINUOUS
 62
     0
 10
0.0
 20
0.0
 30
0.0
 11
-0.1
 21
0.0
 31
0.0
  0
LINE
  5
112
  8
0
  6
CONTINUOUS
 62
     0
 10
0.0
 20
0.0
 30
0.0
 11
0.0
 21
-0.1
 31
0.0
  0
LINE
  5
113
  8
0
  6
CONTINUOUS
 62
     0
 10
0.0
 20
0.0
 30
0.0
 11
0.1
 21
0.0
 31
0.0
  0
LINE
  5
114
  8
0
  6
CONTINUOUS
 62
     0
 10
0.0
 20
0.0
 30
0.0
 11
0.0
 21
0.1
 31
0.0
  0
LINE
  5
115
  8
0
  6
CONTINUOUS
 62
     0
 10
-0.1
 20
0.0
 30
0.0
 11
-0.1625
 21
0.0
 31
0.0
  0
LINE
  5
116
  8
0
  6
CONTINUOUS
 62
     0
 10
0.0
 20
-0.1
 30
0.0
 11
0.0
 21
-0.1625
 31
0.0
  0
LINE
  5
117
  8
0
  6
CONTINUOUS
 62
     0
 10
0.1
 20
0.0
 30
0.0
 11
0.1625
 21
0.0
 31
0.0
  0
LINE
  5
118
  8
0
  6
CONTINUOUS
 62
     0
 10
0.0
 20
0.1
 30
0.0
 11
0.0
 21
0.1625
 31
0.0
  0
ENDBLK
  5
119
  8
0
  0
BLOCK
  8
0
  2
SW_CENTERMARKSYMBOL_1
 70
     0
 10
0.0
 20
0.0
 30
0.0
  3
SW_CENTERMARKSYMBOL_1
  1

  0
LINE
  5
11C
  8
0
  6
CONTINUOUS
 62
     0
 10
0.0
 20
0.0
 30
0.0
 11
-0.1
 21
0.0
 31
0.0
  0
LINE
  5
11D
  8
0
  6
CONTINUOUS
 62
     0
 10
0.0
 20
0.0
 30
0.0
 11
0.0
 21
-0.1
 31
0.0
  0
LINE
  5
11E
  8
0
  6
CONTINUOUS
 62
     0
 10
0.0
 20
0.0
 30
0.0
 11
0.1
 21
0.0
 31
0.0
  0
LINE
  5
11F
  8
0
  6
CONTINUOUS
 62
     0
 10
0.0
 20
0.0
 30
0.0
 11
0.0
 21
0.1
 31
0.0
  0
LINE
  5
120
  8
0
  6
CONTINUOUS
 62
     0
 10
-0.1
 20
0.0
 30
0.0
 11
-0.1625
 21
0.0
 31
0.0
  0
LINE
  5
121
  8
0
  6
CONTINUOUS
 62
     0
 10
0.0
 20
-0.1
 30
0.0
 11
0.0
 21
-0.1625
 31
0.0
  0
LINE
  5
122
  8
0
  6
CONTINUOUS
 62
     0
 10
0.1
 20
0.0
 30
0.0
 11
0.1625
 21
0.0
 31
0.0
  0
LINE
  5
123
  8
0
  6
CONTINUOUS
 62
     0
 10
0.0
 20
0.1
 30
0.0
 11
0.0
 21
0.1625
 31
0.0
  0
ENDBLK
  5
124
  8
0
  0
BLOCK
  8
0
  2
SW_CENTERMARKSYMBOL_2
 70
     0
 10
0.0
 20
0.0
 30
0.0
  3
SW_CENTERMARKSYMBOL_2
  1

  0
LINE
  5
127
  8
0
  6
CONTINUOUS
 62
     0
 10
0.0
 20
0.0
 30
0.0
 11
0.0
 21
0.1
 31
0.0
  0
LINE
  5
128
  8
0
  6
CONTINUOUS
 62
     0
 10
0.0
 20
0.0
 30
0.0
 11
-0.1
 21
0.0
 31
0.0
  0
LINE
  5
129
  8
0
  6
CONTINUOUS
 62
     0
 10
0.0
 20
0.0
 30
0.0
 11
0.0
 21
-0.1
 31
0.0
  0
LINE
  5
12A
  8
0
  6
CONTINUOUS
 62
     0
 10
0.0
 20
0.0
 30
0.0
 11
0.1
 21
0.0
 31
0.0
  0
LINE
  5
12B
  8
0
  6
CONTINUOUS
 62
     0
 10
0.0
 20
0.2
 30
0.0
 11
0.0
 21
0.4125
 31
0.0
  0
LINE
  5
12C
  8
0
  6
CONTINUOUS
 62
     0
 10
-0.2
 20
0.0
 30
0.0
 11
-0.4125
 21
0.0
 31
0.0
  0
LINE
  5
12D
  8
0
  6
CONTINUOUS
 62
     0
 10
0.0
 20
-0.2
 30
0.0
 11
0.0
 21
-0.4125
 31
0.0
  0
LINE
  5
12E
  8
0
  6
CONTINUOUS
 62
     0
 10
0.2
 20
0.0
 30
0.0
 11
0.4125
 21
0.0
 31
0.0
  0
ENDBLK
  5
12F
  8
0
  0
BLOCK
  8
0
  2
SW_CENTERMARKSYMBOL_3
 70
     0
 10
0.0
 20
0.0
 30
0.0
  3
SW_CENTERMARKSYMBOL_3
  1

  0
LINE
  5
132
  8
0
  6
CONTINUOUS
 62
     0
 10
0.0
 20
0.0
 30
0.0
 11
0.0
 21
0.1
 31
0.0
  0
LINE
  5
133
  8
0
  6
CONTINUOUS
 62
     0
 10
0.0
 20
0.0
 30
0.0
 11
-0.1
 21
0.0
 31
0.0
  0
LINE
  5
134
  8
0
  6
CONTINUOUS
 62
     0
 10
0.0
 20
0.0
 30
0.0
 11
0.0
 21
-0.1
 31
0.0
  0
LINE
  5
135
  8
0
  6
CONTINUOUS
 62
     0
 10
0.0
 20
0.0
 30
0.0
 11
0.1
 21
0.0
 31
0.0
  0
LINE
  5
136
  8
0
  6
CONTINUOUS
 62
     0
 10
0.0
 20
0.2
 30
0.0
 11
0.0
 21
0.4125
 31
0.0
  0
LINE
  5
137
  8
0
  6
CONTINUOUS
 62
     0
 10
-0.2
 20
0.0
 30
0.0
 11
-0.4125
 21
0.0
 31
0.0
  0
LINE
  5
138
  8
0
  6
CONTINUOUS
 62
     0
 10
0.0
 20
-0.2
 30
0.0
 11
0.0
 21
-0.4125
 31
0.0
  0
LINE
  5
139
  8
0
  6
CONTINUOUS
 62
     0
 10
0.2
 20
0.0
 30
0.0
 11
0.4125
 21
0.0
 31
0.0
  0
ENDBLK
  5
13A
  8
0
  0
BLOCK
  8
0
  2
SW_CENTERMARKSYMBOL_4
 70
     0
 10
0.0
 20
0.0
 30
0.0
  3
SW_CENTERMARKSYMBOL_4
  1

  0
LINE
  5
13D
  8
0
  6
CONTINUOUS
 62
     0
 10
0.0
 20
0.0
 30
0.0
 11
-0.1
 21
0.0
 31
0.0
  0
LINE
  5
13E
  8
0
  6
CONTINUOUS
 62
     0
 10
0.0
 20
0.0
 30
0.0
 11
0.0
 21
-0.1
 31
0.0
  0
LINE
  5
13F
  8
0
  6
CONTINUOUS
 62
     0
 10
0.0
 20
0.0
 30
0.0
 11
0.1
 21
0.0
 31
0.0
  0
LINE
  5
140
  8
0
  6
CONTINUOUS
 62
     0
 10
0.0
 20
0.0
 30
0.0
 11
0.0
 21
0.1
 31
0.0
  0
LINE
  5
141
  8
0
  6
CONTINUOUS
 62
     0
 10
-0.1
 20
0.0
 30
0.0
 11
-0.1625
 21
0.0
 31
0.0
  0
LINE
  5
142
  8
0
  6
CONTINUOUS
 62
     0
 10
0.0
 20
-0.1
 30
0.0
 11
0.0
 21
-0.1625
 31
0.0
  0
LINE
  5
143
  8
0
  6
CONTINUOUS
 62
     0
 10
0.1
 20
0.0
 30
0.0
 11
0.1625
 21
0.0
 31
0.0
  0
LINE
  5
144
  8
0
  6
CONTINUOUS
 62
     0
 10
0.0
 20
0.1
 30
0.0
 11
0.0
 21
0.1625
 31
0.0
  0
ENDBLK
  5
145
  8
0
  0
BLOCK
  8
0
  2
SW_CENTERMARKSYMBOL_5
 70
     0
 10
0.0
 20
0.0
 30
0.0
  3
SW_CENTERMARKSYMBOL_5
  1

  0
LINE
  5
148
  8
0
  6
CONTINUOUS
 62
     0
 10
0.0
 20
0.0
 30
0.0
 11
-0.1
 21
0.0
 31
0.0
  0
LINE
  5
149
  8
0
  6
CONTINUOUS
 62
     0
 10
0.0
 20
0.0
 30
0.0
 11
0.0
 21
-0.1
 31
0.0
  0
LINE
  5
14A
  8
0
  6
CONTINUOUS
 62
     0
 10
0.0
 20
0.0
 30
0.0
 11
0.1
 21
0.0
 31
0.0
  0
LINE
  5
14B
  8
0
  6
CONTINUOUS
 62
     0
 10
0.0
 20
0.0
 30
0.0
 11
0.0
 21
0.1
 31
0.0
  0
LINE
  5
14C
  8
0
  6
CONTINUOUS
 62
     0
 10
-0.1
 20
0.0
 30
0.0
 11
-0.1625
 21
0.0
 31
0.0
  0
LINE
  5
14D
  8
0
  6
CONTINUOUS
 62
     0
 10
0.0
 20
-0.1
 30
0.0
 11
0.0
 21
-0.1625
 31
0.0
  0
LINE
  5
14E
  8
0
  6
CONTINUOUS
 62
     0
 10
0.1
 20
0.0
 30
0.0
 11
0.1625
 21
0.0
 31
0.0
  0
LINE
  5
14F
  8
0
  6
CONTINUOUS
 62
     0
 10
0.0
 20
0.1
 30
0.0
 11
0.0
 21
0.1625
 31
0.0
  0
ENDBLK
  5
150
  8
0
  0
BLOCK
  8
0
  2
SW_CENTERMARKSYMBOL_6
 70
     0
 10
0.0
 20
0.0
 30
0.0
  3
SW_CENTERMARKSYMBOL_6
  1

  0
LINE
  5
153
  8
0
  6
CONTINUOUS
 62
     0
 10
0.0
 20
0.0
 30
0.0
 11
0.0
 21
0.1
 31
0.0
  0
LINE
  5
154
  8
0
  6
CONTINUOUS
 62
     0
 10
0.0
 20
0.0
 30
0.0
 11
-0.1
 21
0.0
 31
0.0
  0
LINE
  5
155
  8
0
  6
CONTINUOUS
 62
     0
 10
0.0
 20
0.0
 30
0.0
 11
0.0
 21
-0.1
 31
0.0
  0
LINE
  5
156
  8
0
  6
CONTINUOUS
 62
     0
 10
0.0
 20
0.0
 30
0.0
 11
0.1
 21
0.0
 31
0.0
  0
LINE
  5
157
  8
0
  6
CONTINUOUS
 62
     0
 10
0.0
 20
0.1
 30
0.0
 11
0.0
 21
0.1625
 31
0.0
  0
LINE
  5
158
  8
0
  6
CONTINUOUS
 62
     0
 10
-0.1
 20
0.0
 30
0.0
 11
-0.1625
 21
0.0
 31
0.0
  0
LINE
  5
159
  8
0
  6
CONTINUOUS
 62
     0
 10
0.0
 20
-0.1
 30
0.0
 11
0.0
 21
-0.1625
 31
0.0
  0
LINE
  5
15A
  8
0
  6
CONTINUOUS
 62
     0
 10
0.1
 20
0.0
 30
0.0
 11
0.1625
 21
0.0
 31
0.0
  0
ENDBLK
  5
15B
  8
0
  0
BLOCK
  8
0
  2
SW_CENTERMARKSYMBOL_7
 70
     0
 10
0.0
 20
0.0
 30
0.0
  3
SW_CENTERMARKSYMBOL_7
  1

  0
LINE
  5
15E
  8
0
  6
CONTINUOUS
 62
     0
 10
0.0
 20
0.0
 30
0.0
 11
0.0
 21
0.1
 31
0.0
  0
LINE
  5
15F
  8
0
  6
CONTINUOUS
 62
     0
 10
0.0
 20
0.0
 30
0.0
 11
-0.1
 21
0.0
 31
0.0
  0
LINE
  5
160
  8
0
  6
CONTINUOUS
 62
     0
 10
0.0
 20
0.0
 30
0.0
 11
0.0
 21
-0.1
 31
0.0
  0
LINE
  5
161
  8
0
  6
CONTINUOUS
 62
     0
 10
0.0
 20
0.0
 30
0.0
 11
0.1
 21
0.0
 31
0.0
  0
LINE
  5
162
  8
0
  6
CONTINUOUS
 62
     0
 10
0.0
 20
0.2
 30
0.0
 11
0.0
 21
0.225
 31
0.0
  0
LINE
  5
163
  8
0
  6
CONTINUOUS
 62
     0
 10
-0.2
 20
0.0
 30
0.0
 11
-0.225
 21
0.0
 31
0.0
  0
LINE
  5
164
  8
0
  6
CONTINUOUS
 62
     0
 10
0.0
 20
-0.2
 30
0.0
 11
0.0
 21
-0.225
 31
0.0
  0
LINE
  5
165
  8
0
  6
CONTINUOUS
 62
     0
 10
0.2
 20
0.0
 30
0.0
 11
0.225
 21
0.0
 31
0.0
  0
ENDBLK
  5
166
  8
0
  0
BLOCK
  8
0
  2
SW_CENTERMARKSYMBOL_8
 70
     0
 10
0.0
 20
0.0
 30
0.0
  3
SW_CENTERMARKSYMBOL_8
  1

  0
LINE
  5
169
  8
0
  6
CONTINUOUS
 62
     0
 10
0.0
 20
0.0
 30
0.0
 11
0.0
 21
0.1
 31
0.0
  0
LINE
  5
16A
  8
0
  6
CONTINUOUS
 62
     0
 10
0.0
 20
0.0
 30
0.0
 11
-0.1
 21
0.0
 31
0.0
  0
LINE
  5
16B
  8
0
  6
CONTINUOUS
 62
     0
 10
0.0
 20
0.0
 30
0.0
 11
0.0
 21
-0.1
 31
0.0
  0
LINE
  5
16C
  8
0
  6
CONTINUOUS
 62
     0
 10
0.0
 20
0.0
 30
0.0
 11
0.1
 21
0.0
 31
0.0
  0
LINE
  5
16D
  8
0
  6
CONTINUOUS
 62
     0
 10
0.0
 20
0.1
 30
0.0
 11
0.0
 21
0.1625
 31
0.0
  0
LINE
  5
16E
  8
0
  6
CONTINUOUS
 62
     0
 10
-0.1
 20
0.0
 30
0.0
 11
-0.1625
 21
0.0
 31
0.0
  0
LINE
  5
16F
  8
0
  6
CONTINUOUS
 62
     0
 10
0.0
 20
-0.1
 30
0.0
 11
0.0
 21
-0.1625
 31
0.0
  0
LINE
  5
170
  8
0
  6
CONTINUOUS
 62
     0
 10
0.1
 20
0.0
 30
0.0
 11
0.1625
 21
0.0
 31
0.0
  0
ENDBLK
  5
171
  8
0
  0
BLOCK
  8
0
  2
SW_CENTERMARKSYMBOL_9
 70
     0
 10
0.0
 20
0.0
 30
0.0
  3
SW_CENTERMARKSYMBOL_9
  1

  0
LINE
  5
174
  8
0
  6
CONTINUOUS
 62
     0
 10
0.0
 20
0.0
 30
0.0
 11
0.0
 21
0.1
 31
0.0
  0
LINE
  5
175
  8
0
  6
CONTINUOUS
 62
     0
 10
0.0
 20
0.0
 30
0.0
 11
-0.1
 21
0.0
 31
0.0
  0
LINE
  5
176
  8
0
  6
CONTINUOUS
 62
     0
 10
0.0
 20
0.0
 30
0.0
 11
0.0
 21
-0.1
 31
0.0
  0
LINE
  5
177
  8
0
  6
CONTINUOUS
 62
     0
 10
0.0
 20
0.0
 30
0.0
 11
0.1
 21
0.0
 31
0.0
  0
LINE
  5
178
  8
0
  6
CONTINUOUS
 62
     0
 10
0.0
 20
0.1
 30
0.0
 11
0.0
 21
0.1625
 31
0.0
  0
LINE
  5
179
  8
0
  6
CONTINUOUS
 62
     0
 10
-0.1
 20
0.0
 30
0.0
 11
-0.1625
 21
0.0
 31
0.0
  0
LINE
  5
17A
  8
0
  6
CONTINUOUS
 62
     0
 10
0.0
 20
-0.1
 30
0.0
 11
0.0
 21
-0.1625
 31
0.0
  0
LINE
  5
17B
  8
0
  6
CONTINUOUS
 62
     0
 10
0.1
 20
0.0
 30
0.0
 11
0.1625
 21
0.0
 31
0.0
  0
ENDBLK
  5
17C
  8
0
  0
BLOCK
  8
0
  2
A$C2D2773C4
 70
     0
 10
0.0
 20
0.0
 30
0.0
  3
A$C2D2773C4
  1

  0
LINE
  5
5DC
  8
0
  6
CONTINUOUS
 62
     7
 10
-0.0000000144139041
 20
11.583835338753961
 30
0.0
 11
4.2623863472860961
 21
11.583835338753961
 31
0.0
  0
LINE
  5
5DD
  8
0
  6
CONTINUOUS
 62
     7
 10
-0.0000000144139041
 20
11.583835338753961
 30
0.0
 11
-0.0000000144139041
 21
7.9754659320539689
 31
0.0
  0
LINE
  5
5DE
  8
0
  6
CONTINUOUS
 62
     7
 10
-0.0000000144139041
 20
7.9754659320539689
 30
0.0
 11
4.2623863472860961
 21
7.9754659320539689
 31
0.0
  0
LINE
  5
5DF
  8
0
  6
CONTINUOUS
 62
     7
 10
4.2623863472860961
 20
11.583835338753961
 30
0.0
 11
4.2623863472860961
 21
7.9754659320539689
 31
0.0
  0
LINE
  5
5E0
  8
0
  6
CONTINUOUS
 62
     7
 10
13.4243638393861
 20
10.00038079235398
 30
0.0
 11
13.4400454518861
 21
9.9884847881539827
 31
0.0
  0
LINE
  5
5E1
  8
0
  6
CONTINUOUS
 62
     7
 10
13.628912247986101
 20
10.237453805153979
 30
0.0
 11
13.61323063548609
 21
10.24934980925398
 31
0.0
  0
LINE
  5
5E2
  8
0
  6
CONTINUOUS
 62
     7
 10
9.5981346182860872
 20
9.6366530657539808
 30
0.0
 11
9.6427221807860874
 21
9.7261129908539807
 31
0.0
  0
LINE
  5
5E3
  8
0
  6
CONTINUOUS
 62
     7
 10
9.6173709439860868
 20
9.8327415295539815
 30
0.0
 11
9.5372916546860953
 21
9.8925615696539815
 31
0.0
  0
LINE
  5
5E4
  8
0
  6
CONTINUOUS
 62
     7
 10
9.7170936476860792
 20
9.954304157653981
 30
0.0
 11
9.5819603683860954
 21
9.9221758404539813
 31
0.0
  0
LINE
  5
5E5
  8
0
  6
CONTINUOUS
 62
     7
 10
9.6513519431860875
 20
9.6303114747539826
 30
0.0
 11
9.7864852224860979
 21
9.6624397920539682
 31
0.0
  0
LINE
  5
5E6
  8
0
  6
CONTINUOUS
 62
     7
 10
10.6958361317861
 20
10.16130606485398
 30
0.0
 11
9.7598205115860868
 21
9.9387657185539808
 31
0.0
  0
LINE
  5
5E7
  8
0
  6
CONTINUOUS
 62
     7
 10
9.8176468230860792
 20
9.6955454130539813
 30
0.0
 11
10.753662443386091
 21
9.9180857593539802
 31
0.0
  0
LINE
  5
5E8
  8
0
  6
CONTINUOUS
 62
     7
 10
14.6681908653861
 20
11.57100882655398
 30
0.0
 11
14.587110872486081
 21
11.55173183015398
 31
0.0
  0
LINE
  5
5E9
  8
0
  6
CONTINUOUS
 62
     7
 10
14.725731567686079
 20
10.57742270275398
 30
0.0
 11
14.80681156068608
 21
10.59669969905398
 31
0.0
  0
LINE
  5
5EA
  8
0
  6
CONTINUOUS
 62
     7
 10
12.6378942848861
 20
9.7662592261539807
 30
0.0
 11
12.684939119986099
 21
9.7305712154539812
 31
0.0
  0
LINE
  5
5EB
  8
0
  6
CONTINUOUS
 62
     7
 10
13.234822433286091
 20
9.3331834313539712
 30
0.0
 11
13.28186726848608
 21
9.2974954207539682
 31
0.0
  0
LINE
  5
5EC
  8
0
  6
CONTINUOUS
 62
     7
 10
12.684939119986099
 20
9.7305712154539812
 30
0.0
 11
12.700620732486099
 21
9.7186752113539683
 31
0.0
  0
LINE
  5
5ED
  8
0
  6
CONTINUOUS
 62
     7
 10
12.6222126723861
 20
9.7781552302539811
 30
0.0
 11
12.6378942848861
 21
9.7662592261539807
 31
0.0
  0
LINE
  5
5EE
  8
0
  6
CONTINUOUS
 62
     7
 10
11.2241494596861
 20
10.74406610505398
 30
0.0
 11
11.143069474686101
 21
10.724789110553971
 31
0.0
  0
LINE
  5
5EF
  8
0
  6
CONTINUOUS
 62
     7
 10
11.281232860686091
 20
9.7223062796539814
 30
0.0
 11
11.3623128457861
 21
9.7415832741539816
 31
0.0
  0
LINE
  5
5F0
  8
0
  6
CONTINUOUS
 62
     7
 10
11.233137803786089
 20
10.58559767155398
 30
0.0
 11
11.17921091908609
 21
10.57277640305397
 31
0.0
  0
LINE
  5
5F1
  8
0
  6
CONTINUOUS
 62
     7
 10
14.036053188286081
 20
8.7677869817539822
 30
0.0
 11
14.083098023486089
 21
8.7320989710539703
 31
0.0
  0
LINE
  5
5F2
  8
0
  6
CONTINUOUS
 62
     7
 10
12.095056599886099
 20
9.5686821206539712
 30
0.0
 11
12.093684657586101
 21
9.4841609629539683
 31
0.0
  0
LINE
  5
5F3
  8
0
  6
CONTINUOUS
 62
     7
 10
12.368903793586091
 20
9.5264842874539681
 30
0.0
 11
12.3702757358861
 21
9.6110054450539781
 31
0.0
  0
LINE
  5
5F4
  8
0
  6
CONTINUOUS
 62
     7
 10
10.4054096793861
 20
10.85044104595397
 30
0.0
 11
10.404037737086099
 21
10.765919888253981
 31
0.0
  0
POLYLINE
  5
5F5
  8
0
  6
CONTINUOUS
 62
     7
 66
     1
 10
0.0
 20
0.0
 30
0.0
 70
   128
  0
VERTEX
  5
75D1
  8
0
  6
CONTINUOUS
 62
     7
 10
13.61323063548609
 20
10.24934980925398
 30
0.0
  0
VERTEX
  5
75D2
  8
0
  6
CONTINUOUS
 62
     7
 10
13.5995973744861
 20
10.257965349353981
 30
0.0
  0
VERTEX
  5
75D3
  8
0
  6
CONTINUOUS
 62
     7
 10
13.57441837668609
 20
10.26693897495398
 30
0.0
  0
VERTEX
  5
75D4
  8
0
  6
CONTINUOUS
 62
     7
 10
13.54663857868608
 20
10.269269360253981
 30
0.0
  0
VERTEX
  5
75D5
  8
0
  6
CONTINUOUS
 62
     7
 10
13.517556902886099
 20
10.264847620753979
 30
0.0
  0
VERTEX
  5
75D6
  8
0
  6
CONTINUOUS
 62
     7
 10
13.48853349598609
 20
10.253880499653979
 30
0.0
  0
VERTEX
  5
75D7
  8
0
  6
CONTINUOUS
 62
     7
 10
13.4609248785861
 20
10.23688067995398
 30
0.0
  0
VERTEX
  5
75D8
  8
0
  6
CONTINUOUS
 62
     7
 10
13.436022406986099
 20
10.214643196053981
 30
0.0
  0
VERTEX
  5
75D9
  8
0
  6
CONTINUOUS
 62
     7
 10
13.41499050718609
 20
10.18820783035398
 30
0.0
  0
VERTEX
  5
75DA
  8
0
  6
CONTINUOUS
 62
     7
 10
13.39881231278609
 20
10.15881055905397
 30
0.0
  0
VERTEX
  5
75DB
  8
0
  6
CONTINUOUS
 62
     7
 10
13.3882446353861
 20
10.12782611955398
 30
0.0
  0
VERTEX
  5
75DC
  8
0
  6
CONTINUOUS
 62
     7
 10
13.38378140628609
 20
10.096703207653981
 30
0.0
  0
VERTEX
  5
75DD
  8
0
  6
CONTINUOUS
 62
     7
 10
13.385631357586099
 20
10.06689716495398
 30
0.0
  0
VERTEX
  5
75DE
  8
0
  6
CONTINUOUS
 62
     7
 10
13.39370793958609
 20
10.03980155895397
 30
0.0
  0
VERTEX
  5
75DF
  8
0
  6
CONTINUOUS
 62
     7
 10
13.407633577886079
 20
10.01668350115397
 30
0.0
  0
VERTEX
  5
75E0
  8
0
  6
CONTINUOUS
 62
     7
 10
13.4243638393861
 20
10.00038079235398
 30
0.0
  0
SEQEND
  5
75E1
  8
0
  6
CONTINUOUS
 62
     7
  0
POLYLINE
  5
5F6
  8
0
  6
CONTINUOUS
 62
     7
 66
     1
 10
0.0
 20
0.0
 30
0.0
 70
   128
  0
VERTEX
  5
75E2
  8
0
  6
CONTINUOUS
 62
     7
 10
13.66048634648608
 20
10.094407500953981
 30
0.0
  0
VERTEX
  5
75E3
  8
0
  6
CONTINUOUS
 62
     7
 10
13.668046216586079
 20
10.12564431875397
 30
0.0
  0
VERTEX
  5
75E4
  8
0
  6
CONTINUOUS
 62
     7
 10
13.66936038248609
 20
10.15628838695398
 30
0.0
  0
VERTEX
  5
75E5
  8
0
  6
CONTINUOUS
 62
     7
 10
13.6643679349861
 20
10.18490699585398
 30
0.0
  0
VERTEX
  5
75E6
  8
0
  6
CONTINUOUS
 62
     7
 10
13.65330188068609
 20
10.21016184775397
 30
0.0
  0
VERTEX
  5
75E7
  8
0
  6
CONTINUOUS
 62
     7
 10
13.6366798043861
 20
10.230872068953969
 30
0.0
  0
VERTEX
  5
75E8
  8
0
  6
CONTINUOUS
 62
     7
 10
13.6152789869861
 20
10.24606934515398
 30
0.0
  0
VERTEX
  5
75E9
  8
0
  6
CONTINUOUS
 62
     7
 10
13.59009998908609
 20
10.25504297085396
 30
0.0
  0
VERTEX
  5
75EA
  8
0
  6
CONTINUOUS
 62
     7
 10
13.562320191186091
 20
10.25737335615397
 30
0.0
  0
VERTEX
  5
75EB
  8
0
  6
CONTINUOUS
 62
     7
 10
13.533238515386101
 20
10.25295161655397
 30
0.0
  0
VERTEX
  5
75EC
  8
0
  6
CONTINUOUS
 62
     7
 10
13.504215108486081
 20
10.24198449555398
 30
0.0
  0
VERTEX
  5
75ED
  8
0
  6
CONTINUOUS
 62
     7
 10
13.4766064910861
 20
10.22498467585398
 30
0.0
  0
VERTEX
  5
75EE
  8
0
  6
CONTINUOUS
 62
     7
 10
13.451704019386099
 20
10.20274719185398
 30
0.0
  0
VERTEX
  5
75EF
  8
0
  6
CONTINUOUS
 62
     7
 10
13.430672119586101
 20
10.176311826153979
 30
0.0
  0
VERTEX
  5
75F0
  8
0
  6
CONTINUOUS
 62
     7
 10
13.414493925286081
 20
10.14691455485398
 30
0.0
  0
VERTEX
  5
75F1
  8
0
  6
CONTINUOUS
 62
     7
 10
13.403926247786091
 20
10.115930115453979
 30
0.0
  0
VERTEX
  5
75F2
  8
0
  6
CONTINUOUS
 62
     7
 10
13.39946301878609
 20
10.08480720355397
 30
0.0
  0
VERTEX
  5
75F3
  8
0
  6
CONTINUOUS
 62
     7
 10
13.401312970086099
 20
10.055001160853971
 30
0.0
  0
VERTEX
  5
75F4
  8
0
  6
CONTINUOUS
 62
     7
 10
13.4093895519861
 20
10.02790555475398
 30
0.0
  0
VERTEX
  5
75F5
  8
0
  6
CONTINUOUS
 62
     7
 10
13.4233151903861
 20
10.004787496953981
 30
0.0
  0
VERTEX
  5
75F6
  8
0
  6
CONTINUOUS
 62
     7
 10
13.442438890786089
 20
9.986727913253981
 30
0.0
  0
VERTEX
  5
75F7
  8
0
  6
CONTINUOUS
 62
     7
 10
13.4658659992861
 20
9.9745711905539807
 30
0.0
  0
VERTEX
  5
75F8
  8
0
  6
CONTINUOUS
 62
     7
 10
13.492501661586081
 20
9.9688858524539814
 30
0.0
  0
VERTEX
  5
75F9
  8
0
  6
CONTINUOUS
 62
     7
 10
13.521100044786101
 20
9.9699377342539819
 30
0.0
  0
VERTEX
  5
75FA
  8
0
  6
CONTINUOUS
 62
     7
 10
13.55032377388609
 20
9.977677507953981
 30
0.0
  0
VERTEX
  5
75FB
  8
0
  6
CONTINUOUS
 62
     7
 10
13.5788069016861
 20
9.991743469153981
 30
0.0
  0
VERTEX
  5
75FC
  8
0
  6
CONTINUOUS
 62
     7
 10
13.60521708558608
 20
10.01147776885397
 30
0.0
  0
VERTEX
  5
75FD
  8
0
  6
CONTINUOUS
 62
     7
 10
13.6283197776861
 20
10.035957678453981
 30
0.0
  0
VERTEX
  5
75FE
  8
0
  6
CONTINUOUS
 62
     7
 10
13.64703451868608
 20
10.064038610153981
 30
0.0
  0
VERTEX
  5
75FF
  8
0
  6
CONTINUOUS
 62
     7
 10
13.66048634648608
 20
10.094407500953981
 30
0.0
  0
SEQEND
  5
7600
  8
0
  6
CONTINUOUS
 62
     7
  0
POLYLINE
  5
5F7
  8
0
  6
CONTINUOUS
 62
     7
 66
     1
 10
0.0
 20
0.0
 30
0.0
 70
   128
  0
VERTEX
  5
7601
  8
0
  6
CONTINUOUS
 62
     7
 10
13.5596804508861
 20
10.109256974853979
 30
0.0
  0
VERTEX
  5
7602
  8
0
  6
CONTINUOUS
 62
     7
 10
13.561502369086091
 20
10.12050636545397
 30
0.0
  0
VERTEX
  5
7603
  8
0
  6
CONTINUOUS
 62
     7
 10
13.559210525586099
 20
10.13060840855397
 30
0.0
  0
VERTEX
  5
7604
  8
0
  6
CONTINUOUS
 62
     7
 10
13.55315320358609
 20
10.13802496915398
 30
0.0
  0
VERTEX
  5
7605
  8
0
  6
CONTINUOUS
 62
     7
 10
13.54425316348609
 20
10.141627083853979
 30
0.0
  0
VERTEX
  5
7606
  8
0
  6
CONTINUOUS
 62
     7
 10
13.5338648641861
 20
10.14086629545398
 30
0.0
  0
VERTEX
  5
7607
  8
0
  6
CONTINUOUS
 62
     7
 10
13.52357011828609
 20
10.13585844455398
 30
0.0
  0
VERTEX
  5
7608
  8
0
  6
CONTINUOUS
 62
     7
 10
13.51493621588609
 20
10.12736597505398
 30
0.0
  0
VERTEX
  5
7609
  8
0
  6
CONTINUOUS
 62
     7
 10
13.509277503186089
 20
10.11668171185398
 30
0.0
  0
VERTEX
  5
760A
  8
0
  6
CONTINUOUS
 62
     7
 10
13.50745533128609
 20
10.105432260853981
 30
0.0
  0
VERTEX
  5
760B
  8
0
  6
CONTINUOUS
 62
     7
 10
13.509747428986079
 20
10.095330311153971
 30
0.0
  0
VERTEX
  5
760C
  8
0
  6
CONTINUOUS
 62
     7
 10
13.5158044973861
 20
10.087913690253981
 30
0.0
  0
VERTEX
  5
760D
  8
0
  6
CONTINUOUS
 62
     7
 10
13.524704791086091
 20
10.084311635853981
 30
0.0
  0
VERTEX
  5
760E
  8
0
  6
CONTINUOUS
 62
     7
 10
13.5350928361861
 20
10.085072330953979
 30
0.0
  0
VERTEX
  5
760F
  8
0
  6
CONTINUOUS
 62
     7
 10
13.5453875820861
 20
10.090080181753979
 30
0.0
  0
VERTEX
  5
7610
  8
0
  6
CONTINUOUS
 62
     7
 10
13.554021738686091
 20
10.09857274465398
 30
0.0
  0
VERTEX
  5
7611
  8
0
  6
CONTINUOUS
 62
     7
 10
13.5596804508861
 20
10.109256974853979
 30
0.0
  0
SEQEND
  5
7612
  8
0
  6
CONTINUOUS
 62
     7
  0
POLYLINE
  5
5F8
  8
0
  6
CONTINUOUS
 62
     7
 66
     1
 10
0.0
 20
0.0
 30
0.0
 70
   128
  0
VERTEX
  5
7613
  8
0
  6
CONTINUOUS
 62
     7
 10
13.543998838486081
 20
10.121152978953971
 30
0.0
  0
VERTEX
  5
7614
  8
0
  6
CONTINUOUS
 62
     7
 10
13.545820756586091
 20
10.132402369553979
 30
0.0
  0
VERTEX
  5
7615
  8
0
  6
CONTINUOUS
 62
     7
 10
13.5439026125861
 20
10.14167582005398
 30
0.0
  0
SEQEND
  5
7616
  8
0
  6
CONTINUOUS
 62
     7
  0
ARC
  5
5F9
  8
0
  6
CONTINUOUS
 62
     7
 10
13.510470468786091
 20
10.131120166653981
 30
0.0
 40
0.0349785134165396
 50
268.20308778499992
 51
343.44403718289988
  0
ARC
  5
5FA
  8
0
  6
CONTINUOUS
 62
     7
 10
9.5477117611860791
 20
9.7598519281539708
 30
0.0
 40
0.1008230912831657
 50
340.4496546705999
 51
46.298205921600008
  0
POLYLINE
  5
5FB
  8
0
  6
CONTINUOUS
 62
     7
 66
     1
 10
0.0
 20
0.0
 30
0.0
 70
   128
  0
VERTEX
  5
7617
  8
0
  6
CONTINUOUS
 62
     7
 10
9.4603044292860954
 20
9.8140674741539815
 30
0.0
  0
VERTEX
  5
7618
  8
0
  6
CONTINUOUS
 62
     7
 10
9.4625361231860872
 20
9.8418037696539802
 30
0.0
  0
VERTEX
  5
7619
  8
0
  6
CONTINUOUS
 62
     7
 10
9.4681830863860874
 20
9.8655731759539815
 30
0.0
  0
VERTEX
  5
761A
  8
0
  6
CONTINUOUS
 62
     7
 10
9.4769812783860967
 20
9.8842642591539782
 30
0.0
  0
VERTEX
  5
761B
  8
0
  6
CONTINUOUS
 62
     7
 10
9.4885193019860967
 20
9.8970030532539806
 30
0.0
  0
VERTEX
  5
761C
  8
0
  6
CONTINUOUS
 62
     7
 10
9.5022576504860954
 20
9.9031939071539821
 30
0.0
  0
VERTEX
  5
761D
  8
0
  6
CONTINUOUS
 62
     7
 10
9.5175539364860828
 20
9.9025473206539711
 30
0.0
  0
VERTEX
  5
761E
  8
0
  6
CONTINUOUS
 62
     7
 10
9.5336929214860877
 20
9.8950935477539801
 30
0.0
  0
VERTEX
  5
761F
  8
0
  6
CONTINUOUS
 62
     7
 10
9.5499199644860955
 20
9.8811811328539711
 30
0.0
  0
VERTEX
  5
7620
  8
0
  6
CONTINUOUS
 62
     7
 10
9.5654763072860955
 20
9.8614605752539806
 30
0.0
  0
VERTEX
  5
7621
  8
0
  6
CONTINUOUS
 62
     7
 10
9.5796345526860964
 20
9.8368539863539688
 30
0.0
  0
VERTEX
  5
7622
  8
0
  6
CONTINUOUS
 62
     7
 10
9.5917326753860976
 20
9.8085119704539814
 30
0.0
  0
VERTEX
  5
7623
  8
0
  6
CONTINUOUS
 62
     7
 10
9.6012049844860954
 20
9.7777597526539815
 30
0.0
  0
VERTEX
  5
7624
  8
0
  6
CONTINUOUS
 62
     7
 10
9.6076085624860958
 20
9.7460352671539816
 30
0.0
  0
VERTEX
  5
7625
  8
0
  6
CONTINUOUS
 62
     7
 10
9.6106439849860958
 20
9.7148219213539715
 30
0.0
  0
VERTEX
  5
7626
  8
0
  6
CONTINUOUS
 62
     7
 10
9.6101693191860864
 20
9.6855792187539702
 30
0.0
  0
VERTEX
  5
7627
  8
0
  6
CONTINUOUS
 62
     7
 10
9.6062067599860956
 20
9.6596745140539682
 30
0.0
  0
VERTEX
  5
7628
  8
0
  6
CONTINUOUS
 62
     7
 10
9.5989415919860956
 20
9.6383190827539806
 30
0.0
  0
VERTEX
  5
7629
  8
0
  6
CONTINUOUS
 62
     7
 10
9.588713526686087
 20
9.6225114806539782
 30
0.0
  0
VERTEX
  5
762A
  8
0
  6
CONTINUOUS
 62
     7
 10
9.5760008197860955
 20
9.6129908497539827
 30
0.0
  0
VERTEX
  5
762B
  8
0
  6
CONTINUOUS
 62
     7
 10
9.5613978992860957
 20
9.6102023665539704
 30
0.0
  0
VERTEX
  5
762C
  8
0
  6
CONTINUOUS
 62
     7
 10
9.5455875833860873
 20
9.6142764220539814
 30
0.0
  0
VERTEX
  5
762D
  8
0
  6
CONTINUOUS
 62
     7
 10
9.5293091448860956
 20
9.6250225179539708
 30
0.0
  0
VERTEX
  5
762E
  8
0
  6
CONTINUOUS
 62
     7
 10
9.5133237444860956
 20
9.6419381664539703
 30
0.0
  0
VERTEX
  5
762F
  8
0
  6
CONTINUOUS
 62
     7
 10
9.4983788421860957
 20
9.6642324244539815
 30
0.0
  0
VERTEX
  5
7630
  8
0
  6
CONTINUOUS
 62
     7
 10
9.4851732463860952
 20
9.6908628308539804
 30
0.0
  0
VERTEX
  5
7631
  8
0
  6
CONTINUOUS
 62
     7
 10
9.4743244332860872
 20
9.7205841834539708
 30
0.0
  0
VERTEX
  5
7632
  8
0
  6
CONTINUOUS
 62
     7
 10
9.4663396827860957
 20
9.752006737053982
 30
0.0
  0
VERTEX
  5
7633
  8
0
  6
CONTINUOUS
 62
     7
 10
9.4615923566860864
 20
9.7836612092539816
 30
0.0
  0
VERTEX
  5
7634
  8
0
  6
CONTINUOUS
 62
     7
 10
9.4603044292860954
 20
9.8140674741539815
 30
0.0
  0
SEQEND
  5
7635
  8
0
  6
CONTINUOUS
 62
     7
  0
POLYLINE
  5
5FC
  8
0
  6
CONTINUOUS
 62
     7
 66
     1
 10
0.0
 20
0.0
 30
0.0
 70
   128
  0
VERTEX
  5
7636
  8
0
  6
CONTINUOUS
 62
     7
 10
9.5489331447860941
 20
9.8838652677539827
 30
0.0
  0
VERTEX
  5
7637
  8
0
  6
CONTINUOUS
 62
     7
 10
9.5492630793860958
 20
9.8848501723539801
 30
0.0
  0
VERTEX
  5
7638
  8
0
  6
CONTINUOUS
 62
     7
 10
9.5580612713860962
 20
9.9035412554539715
 30
0.0
  0
VERTEX
  5
7639
  8
0
  6
CONTINUOUS
 62
     7
 10
9.5695992949860962
 20
9.9162800495539791
 30
0.0
  0
VERTEX
  5
763A
  8
0
  6
CONTINUOUS
 62
     7
 10
9.5833376434860966
 20
9.9224709035539806
 30
0.0
  0
VERTEX
  5
763B
  8
0
  6
CONTINUOUS
 62
     7
 10
9.5986339294860983
 20
9.9218243170539822
 30
0.0
  0
VERTEX
  5
763C
  8
0
  6
CONTINUOUS
 62
     7
 10
9.6147729144860961
 20
9.9143705441539822
 30
0.0
  0
VERTEX
  5
763D
  8
0
  6
CONTINUOUS
 62
     7
 10
9.6309999574860861
 20
9.9004581292539822
 30
0.0
  0
VERTEX
  5
763E
  8
0
  6
CONTINUOUS
 62
     7
 10
9.6465563002860968
 20
9.8807375716539791
 30
0.0
  0
VERTEX
  5
763F
  8
0
  6
CONTINUOUS
 62
     7
 10
9.6607145456860941
 20
9.8561309827539816
 30
0.0
  0
VERTEX
  5
7640
  8
0
  6
CONTINUOUS
 62
     7
 10
9.6728126683860864
 20
9.8277889667539782
 30
0.0
  0
VERTEX
  5
7641
  8
0
  6
CONTINUOUS
 62
     7
 10
9.6822849774860966
 20
9.7970367490539711
 30
0.0
  0
VERTEX
  5
7642
  8
0
  6
CONTINUOUS
 62
     7
 10
9.6886885554860953
 20
9.7653122635539713
 30
0.0
  0
VERTEX
  5
7643
  8
0
  6
CONTINUOUS
 62
     7
 10
9.6917239779860953
 20
9.7340989177539807
 30
0.0
  0
VERTEX
  5
7644
  8
0
  6
CONTINUOUS
 62
     7
 10
9.6912493121860983
 20
9.7048562151539812
 30
0.0
  0
VERTEX
  5
7645
  8
0
  6
CONTINUOUS
 62
     7
 10
9.6872867529860809
 20
9.6789515104539792
 30
0.0
  0
VERTEX
  5
7646
  8
0
  6
CONTINUOUS
 62
     7
 10
9.6800215849860969
 20
9.6575960791539703
 30
0.0
  0
VERTEX
  5
7647
  8
0
  6
CONTINUOUS
 62
     7
 10
9.6697935196860954
 20
9.6417884770539821
 30
0.0
  0
VERTEX
  5
7648
  8
0
  6
CONTINUOUS
 62
     7
 10
9.6570808127860968
 20
9.6322678461539688
 30
0.0
  0
VERTEX
  5
7649
  8
0
  6
CONTINUOUS
 62
     7
 10
9.6424778922860952
 20
9.6294793628539814
 30
0.0
  0
VERTEX
  5
764A
  8
0
  6
CONTINUOUS
 62
     7
 10
9.6266675763860867
 20
9.6335534184539711
 30
0.0
  0
VERTEX
  5
764B
  8
0
  6
CONTINUOUS
 62
     7
 10
9.6103891378860808
 20
9.6442995143539818
 30
0.0
  0
VERTEX
  5
764C
  8
0
  6
CONTINUOUS
 62
     7
 10
9.6046165200860951
 20
9.6496582510539781
 30
0.0
  0
SEQEND
  5
764D
  8
0
  6
CONTINUOUS
 62
     7
  0
POLYLINE
  5
5FD
  8
0
  6
CONTINUOUS
 62
     7
 66
     1
 10
0.0
 20
0.0
 30
0.0
 70
   128
  0
VERTEX
  5
764E
  8
0
  6
CONTINUOUS
 62
     7
 10
9.7170936476860792
 20
9.954304157653981
 30
0.0
  0
VERTEX
  5
764F
  8
0
  6
CONTINUOUS
 62
     7
 10
9.7184709228860964
 20
9.9545992207539804
 30
0.0
  0
VERTEX
  5
7650
  8
0
  6
CONTINUOUS
 62
     7
 10
9.7337672088860874
 20
9.9539526342539801
 30
0.0
  0
VERTEX
  5
7651
  8
0
  6
CONTINUOUS
 62
     7
 10
9.7499061938860958
 20
9.9464988614539802
 30
0.0
  0
VERTEX
  5
7652
  8
0
  6
CONTINUOUS
 62
     7
 10
9.7661332368860982
 20
9.9325864464539801
 30
0.0
  0
VERTEX
  5
7653
  8
0
  6
CONTINUOUS
 62
     7
 10
9.7816895796860983
 20
9.91286588895397
 30
0.0
  0
VERTEX
  5
7654
  8
0
  6
CONTINUOUS
 62
     7
 10
9.7958478249860956
 20
9.8882592999539813
 30
0.0
  0
VERTEX
  5
7655
  8
0
  6
CONTINUOUS
 62
     7
 10
9.8079459477860969
 20
9.8599172840539708
 30
0.0
  0
VERTEX
  5
7656
  8
0
  6
CONTINUOUS
 62
     7
 10
9.8174182568860981
 20
9.8291650662539674
 30
0.0
  0
VERTEX
  5
7657
  8
0
  6
CONTINUOUS
 62
     7
 10
9.8238218348860862
 20
9.7974405807539711
 30
0.0
  0
VERTEX
  5
7658
  8
0
  6
CONTINUOUS
 62
     7
 10
9.8268572573860862
 20
9.7662272349539805
 30
0.0
  0
VERTEX
  5
7659
  8
0
  6
CONTINUOUS
 62
     7
 10
9.8263825915860963
 20
9.7369845324539703
 30
0.0
  0
VERTEX
  5
765A
  8
0
  6
CONTINUOUS
 62
     7
 10
9.8224200323860877
 20
9.7110798276539807
 30
0.0
  0
VERTEX
  5
765B
  8
0
  6
CONTINUOUS
 62
     7
 10
9.8151548643860984
 20
9.6897243964539701
 30
0.0
  0
VERTEX
  5
765C
  8
0
  6
CONTINUOUS
 62
     7
 10
9.8049267990860862
 20
9.6739167942539819
 30
0.0
  0
VERTEX
  5
765D
  8
0
  6
CONTINUOUS
 62
     7
 10
9.7922140921860983
 20
9.6643961634539703
 30
0.0
  0
VERTEX
  5
765E
  8
0
  6
CONTINUOUS
 62
     7
 10
9.7864852224860979
 20
9.6624397920539682
 30
0.0
  0
SEQEND
  5
765F
  8
0
  6
CONTINUOUS
 62
     7
  0
POLYLINE
  5
5FE
  8
0
  6
CONTINUOUS
 62
     7
 66
     1
 10
0.0
 20
0.0
 30
0.0
 70
   128
  0
VERTEX
  5
7660
  8
0
  6
CONTINUOUS
 62
     7
 10
10.6958361317861
 20
10.16130606485398
 30
0.0
  0
VERTEX
  5
7661
  8
0
  6
CONTINUOUS
 62
     7
 10
10.704216567986091
 20
10.16194097655397
 30
0.0
  0
VERTEX
  5
7662
  8
0
  6
CONTINUOUS
 62
     7
 10
10.719004369086081
 20
10.15730473775397
 30
0.0
  0
VERTEX
  5
7663
  8
0
  6
CONTINUOUS
 62
     7
 10
10.7341260442861
 20
10.14583349955398
 30
0.0
  0
VERTEX
  5
7664
  8
0
  6
CONTINUOUS
 62
     7
 10
10.74870277618608
 20
10.12819392935398
 30
0.0
  0
VERTEX
  5
7665
  8
0
  6
CONTINUOUS
 62
     7
 10
10.761887419086079
 20
10.10541117635398
 30
0.0
  0
VERTEX
  5
7666
  8
0
  6
CONTINUOUS
 62
     7
 10
10.77291372958609
 20
10.07880928935398
 30
0.0
  0
VERTEX
  5
7667
  8
0
  6
CONTINUOUS
 62
     7
 10
10.781140895886081
 20
10.049934285153981
 30
0.0
  0
VERTEX
  5
7668
  8
0
  6
CONTINUOUS
 62
     7
 10
10.78609078858609
 20
10.02046425435398
 30
0.0
  0
VERTEX
  5
7669
  8
0
  6
CONTINUOUS
 62
     7
 10
10.787475732986101
 20
9.9921119011539687
 30
0.0
  0
VERTEX
  5
766A
  8
0
  6
CONTINUOUS
 62
     7
 10
10.78521524908609
 20
9.9665249556539806
 30
0.0
  0
VERTEX
  5
766B
  8
0
  6
CONTINUOUS
 62
     7
 10
10.7794407001861
 20
9.9451904429539812
 30
0.0
  0
VERTEX
  5
766C
  8
0
  6
CONTINUOUS
 62
     7
 10
10.770487686886099
 20
9.9293482412539813
 30
0.0
  0
VERTEX
  5
766D
  8
0
  6
CONTINUOUS
 62
     7
 10
10.7588765220861
 20
9.9199190502539807
 30
0.0
  0
VERTEX
  5
766E
  8
0
  6
CONTINUOUS
 62
     7
 10
10.753662443386091
 20
9.9180857593539802
 30
0.0
  0
SEQEND
  5
766F
  8
0
  6
CONTINUOUS
 62
     7
  0
POLYLINE
  5
5FF
  8
0
  6
CONTINUOUS
 62
     7
 66
     1
 10
0.0
 20
0.0
 30
0.0
 70
   128
  0
VERTEX
  5
7670
  8
0
  6
CONTINUOUS
 62
     7
 10
14.6772150347861
 20
11.34106695105398
 30
0.0
  0
VERTEX
  5
7671
  8
0
  6
CONTINUOUS
 62
     7
 10
14.675636421586081
 20
11.36177372335397
 30
0.0
  0
VERTEX
  5
7672
  8
0
  6
CONTINUOUS
 62
     7
 10
14.67046534568609
 20
11.38285264655396
 30
0.0
  0
VERTEX
  5
7673
  8
0
  6
CONTINUOUS
 62
     7
 10
14.662325514286101
 20
11.401761243153979
 30
0.0
  0
VERTEX
  5
7674
  8
0
  6
CONTINUOUS
 62
     7
 10
14.65219871148609
 20
11.41621891365398
 30
0.0
  0
VERTEX
  5
7675
  8
0
  6
CONTINUOUS
 62
     7
 10
14.64130637868608
 20
11.424481790653971
 30
0.0
  0
VERTEX
  5
7676
  8
0
  6
CONTINUOUS
 62
     7
 10
14.630962291686091
 20
11.42555324965398
 30
0.0
  0
VERTEX
  5
7677
  8
0
  6
CONTINUOUS
 62
     7
 10
14.6224141014861
 20
11.419304114853979
 30
0.0
  0
VERTEX
  5
7678
  8
0
  6
CONTINUOUS
 62
     7
 10
14.616692844486099
 20
11.40648806875398
 30
0.0
  0
VERTEX
  5
7679
  8
0
  6
CONTINUOUS
 62
     7
 10
14.614488589486101
 20
11.38865096415398
 30
0.0
  0
VERTEX
  5
767A
  8
0
  6
CONTINUOUS
 62
     7
 10
14.616067202086089
 20
11.36794415885398
 30
0.0
  0
VERTEX
  5
767B
  8
0
  6
CONTINUOUS
 62
     7
 10
14.6212382779861
 20
11.346865235653979
 30
0.0
  0
VERTEX
  5
767C
  8
0
  6
CONTINUOUS
 62
     7
 10
14.629378109386099
 20
11.327956639053969
 30
0.0
  0
VERTEX
  5
767D
  8
0
  6
CONTINUOUS
 62
     7
 10
14.63950491268608
 20
11.31349900165398
 30
0.0
  0
VERTEX
  5
767E
  8
0
  6
CONTINUOUS
 62
     7
 10
14.65039724558609
 20
11.30523612455398
 30
0.0
  0
VERTEX
  5
767F
  8
0
  6
CONTINUOUS
 62
     7
 10
14.66074133198609
 20
11.304164632553981
 30
0.0
  0
VERTEX
  5
7680
  8
0
  6
CONTINUOUS
 62
     7
 10
14.6692895221861
 20
11.31041376735398
 30
0.0
  0
VERTEX
  5
7681
  8
0
  6
CONTINUOUS
 62
     7
 10
14.67501077918609
 20
11.323229813453979
 30
0.0
  0
VERTEX
  5
7682
  8
0
  6
CONTINUOUS
 62
     7
 10
14.6772150347861
 20
11.34106695105398
 30
0.0
  0
SEQEND
  5
7683
  8
0
  6
CONTINUOUS
 62
     7
  0
LINE
  5
600
  8
0
  6
CONTINUOUS
 62
     7
 10
14.5266962184861
 20
11.468413245053981
 30
0.0
 11
14.47367393438609
 21
11.23509973515398
 31
0.0
  0
POLYLINE
  5
601
  8
0
  6
CONTINUOUS
 62
     7
 66
     1
 10
0.0
 20
0.0
 30
0.0
 70
   128
  0
VERTEX
  5
7684
  8
0
  6
CONTINUOUS
 62
     7
 10
14.765429541586091
 20
11.28731116755398
 30
0.0
  0
VERTEX
  5
7685
  8
0
  6
CONTINUOUS
 62
     7
 10
14.75787511278609
 20
11.32830115165398
 30
0.0
  0
VERTEX
  5
7686
  8
0
  6
CONTINUOUS
 62
     7
 10
14.74715052848609
 20
11.36873565835398
 30
0.0
  0
VERTEX
  5
7687
  8
0
  6
CONTINUOUS
 62
     7
 10
14.733556821086101
 20
11.40747965675398
 30
0.0
  0
VERTEX
  5
7688
  8
0
  6
CONTINUOUS
 62
     7
 10
14.717475579586081
 20
11.443445629953979
 30
0.0
  0
VERTEX
  5
7689
  8
0
  6
CONTINUOUS
 62
     7
 10
14.6993581928861
 20
11.475624021153971
 30
0.0
  0
VERTEX
  5
768A
  8
0
  6
CONTINUOUS
 62
     7
 10
14.679713209886099
 20
11.503111629853979
 30
0.0
  0
VERTEX
  5
768B
  8
0
  6
CONTINUOUS
 62
     7
 10
14.65909207048608
 20
11.52513675795398
 30
0.0
  0
VERTEX
  5
768C
  8
0
  6
CONTINUOUS
 62
     7
 10
14.63807360328609
 20
11.54108127725398
 30
0.0
  0
VERTEX
  5
768D
  8
0
  6
CONTINUOUS
 62
     7
 10
14.617247798886099
 20
11.55049762335398
 30
0.0
  0
VERTEX
  5
768E
  8
0
  6
CONTINUOUS
 62
     7
 10
14.59719922728609
 20
11.55312137535398
 30
0.0
  0
VERTEX
  5
768F
  8
0
  6
CONTINUOUS
 62
     7
 10
14.5784906607861
 20
11.548878994653981
 30
0.0
  0
VERTEX
  5
7690
  8
0
  6
CONTINUOUS
 62
     7
 10
14.56164724138609
 20
11.537889528453981
 30
0.0
  0
VERTEX
  5
7691
  8
0
  6
CONTINUOUS
 62
     7
 10
14.5471417524861
 20
11.52046146015398
 30
0.0
  0
VERTEX
  5
7692
  8
0
  6
CONTINUOUS
 62
     7
 10
14.5353813752861
 20
11.49708394905398
 30
0.0
  0
VERTEX
  5
7693
  8
0
  6
CONTINUOUS
 62
     7
 10
14.5266962184861
 20
11.468413245053981
 30
0.0
  0
SEQEND
  5
7694
  8
0
  6
CONTINUOUS
 62
     7
  0
LINE
  5
602
  8
0
  6
CONTINUOUS
 62
     7
 10
14.8197306278861
 20
10.91045264875398
 30
0.0
 11
14.765429541586091
 21
11.28731116755398
 31
0.0
  0
POLYLINE
  5
603
  8
0
  6
CONTINUOUS
 62
     7
 66
     1
 10
0.0
 20
0.0
 30
0.0
 70
   128
  0
VERTEX
  5
7695
  8
0
  6
CONTINUOUS
 62
     7
 10
14.65329162038609
 20
10.591049486553979
 30
0.0
  0
VERTEX
  5
7696
  8
0
  6
CONTINUOUS
 62
     7
 10
14.6727202795861
 20
10.581887400653979
 30
0.0
  0
VERTEX
  5
7697
  8
0
  6
CONTINUOUS
 62
     7
 10
14.6981503225861
 20
10.575738259453979
 30
0.0
  0
VERTEX
  5
7698
  8
0
  6
CONTINUOUS
 62
     7
 10
14.722430610986089
 20
10.57671235965398
 30
0.0
  0
VERTEX
  5
7699
  8
0
  6
CONTINUOUS
 62
     7
 10
14.74508926258609
 20
10.58479081645398
 30
0.0
  0
VERTEX
  5
769A
  8
0
  6
CONTINUOUS
 62
     7
 10
14.76568589838609
 20
10.59981660085398
 30
0.0
  0
VERTEX
  5
769B
  8
0
  6
CONTINUOUS
 62
     7
 10
14.78382022528608
 20
10.621497700853981
 30
0.0
  0
VERTEX
  5
769C
  8
0
  6
CONTINUOUS
 62
     7
 10
14.7991397961861
 20
10.649412745653979
 30
0.0
  0
VERTEX
  5
769D
  8
0
  6
CONTINUOUS
 62
     7
 10
14.8113468575861
 20
10.683019188053979
 30
0.0
  0
VERTEX
  5
769E
  8
0
  6
CONTINUOUS
 62
     7
 10
14.820204174686101
 20
10.72166388665398
 30
0.0
  0
VERTEX
  5
769F
  8
0
  6
CONTINUOUS
 62
     7
 10
14.82553961358609
 20
10.764595762353981
 30
0.0
  0
VERTEX
  5
76A0
  8
0
  6
CONTINUOUS
 62
     7
 10
14.82724948038609
 20
10.81098043845398
 30
0.0
  0
VERTEX
  5
76A1
  8
0
  6
CONTINUOUS
 62
     7
 10
14.82530051608609
 20
10.85991643245398
 30
0.0
  0
VERTEX
  5
76A2
  8
0
  6
CONTINUOUS
 62
     7
 10
14.8197306278861
 20
10.91045264875398
 30
0.0
  0
SEQEND
  5
76A3
  8
0
  6
CONTINUOUS
 62
     7
  0
LINE
  5
604
  8
0
  6
CONTINUOUS
 62
     7
 10
14.733767741786099
 20
10.913137718453971
 30
0.0
 11
14.663200489086099
 21
10.96666973445398
 31
0.0
  0
LINE
  5
605
  8
0
  6
CONTINUOUS
 62
     7
 10
14.663200489086099
 20
10.96666973445398
 30
0.0
 11
14.665258402586099
 21
11.09345147095398
 31
0.0
  0
LINE
  5
606
  8
0
  6
CONTINUOUS
 62
     7
 10
14.900810620886091
 20
10.929729645153961
 30
0.0
 11
14.846509534586099
 21
11.30658816385397
 31
0.0
  0
POLYLINE
  5
607
  8
0
  6
CONTINUOUS
 62
     7
 66
     1
 10
0.0
 20
0.0
 30
0.0
 70
   128
  0
VERTEX
  5
76A4
  8
0
  6
CONTINUOUS
 62
     7
 10
14.846509534586099
 20
11.30658816385397
 30
0.0
  0
VERTEX
  5
76A5
  8
0
  6
CONTINUOUS
 62
     7
 10
14.83895510578609
 20
11.347578148053961
 30
0.0
  0
VERTEX
  5
76A6
  8
0
  6
CONTINUOUS
 62
     7
 10
14.828230521486081
 20
11.38801265475397
 30
0.0
  0
VERTEX
  5
76A7
  8
0
  6
CONTINUOUS
 62
     7
 10
14.81463681408608
 20
11.426756653153969
 30
0.0
  0
VERTEX
  5
76A8
  8
0
  6
CONTINUOUS
 62
     7
 10
14.79855557258608
 20
11.462722626253971
 30
0.0
  0
VERTEX
  5
76A9
  8
0
  6
CONTINUOUS
 62
     7
 10
14.780438185786091
 20
11.494901017553961
 30
0.0
  0
VERTEX
  5
76AA
  8
0
  6
CONTINUOUS
 62
     7
 10
14.7607932028861
 20
11.52238862615398
 30
0.0
  0
VERTEX
  5
76AB
  8
0
  6
CONTINUOUS
 62
     7
 10
14.74017206348609
 20
11.544413754353981
 30
0.0
  0
VERTEX
  5
76AC
  8
0
  6
CONTINUOUS
 62
     7
 10
14.71915359628608
 20
11.56035827365398
 30
0.0
  0
VERTEX
  5
76AD
  8
0
  6
CONTINUOUS
 62
     7
 10
14.698327791886101
 20
11.56977461975398
 30
0.0
  0
VERTEX
  5
76AE
  8
0
  6
CONTINUOUS
 62
     7
 10
14.67827922028609
 20
11.57239837175398
 30
0.0
  0
VERTEX
  5
76AF
  8
0
  6
CONTINUOUS
 62
     7
 10
14.6681908653861
 20
11.57100882655398
 30
0.0
  0
SEQEND
  5
76B0
  8
0
  6
CONTINUOUS
 62
     7
  0
POLYLINE
  5
608
  8
0
  6
CONTINUOUS
 62
     7
 66
     1
 10
0.0
 20
0.0
 30
0.0
 70
   128
  0
VERTEX
  5
76B1
  8
0
  6
CONTINUOUS
 62
     7
 10
14.80681156068608
 20
10.59669969905398
 30
0.0
  0
VERTEX
  5
76B2
  8
0
  6
CONTINUOUS
 62
     7
 10
14.8261692555861
 20
10.60406781275398
 30
0.0
  0
VERTEX
  5
76B3
  8
0
  6
CONTINUOUS
 62
     7
 10
14.84676589138609
 20
10.619093597253981
 30
0.0
  0
VERTEX
  5
76B4
  8
0
  6
CONTINUOUS
 62
     7
 10
14.86490021828609
 20
10.640774697253979
 30
0.0
  0
VERTEX
  5
76B5
  8
0
  6
CONTINUOUS
 62
     7
 10
14.880219789186089
 20
10.66868974205398
 30
0.0
  0
VERTEX
  5
76B6
  8
0
  6
CONTINUOUS
 62
     7
 10
14.892426850586091
 20
10.70229618445398
 30
0.0
  0
VERTEX
  5
76B7
  8
0
  6
CONTINUOUS
 62
     7
 10
14.901284167686081
 20
10.74094088295398
 30
0.0
  0
VERTEX
  5
76B8
  8
0
  6
CONTINUOUS
 62
     7
 10
14.906619606586091
 20
10.783872758653979
 30
0.0
  0
VERTEX
  5
76B9
  8
0
  6
CONTINUOUS
 62
     7
 10
14.908329473386081
 20
10.83025743485398
 30
0.0
  0
VERTEX
  5
76BA
  8
0
  6
CONTINUOUS
 62
     7
 10
14.906380509086089
 20
10.879193428753981
 30
0.0
  0
VERTEX
  5
76BB
  8
0
  6
CONTINUOUS
 62
     7
 10
14.900810620886091
 20
10.929729645153961
 30
0.0
  0
SEQEND
  5
76BC
  8
0
  6
CONTINUOUS
 62
     7
  0
POLYLINE
  5
609
  8
0
  6
CONTINUOUS
 62
     7
 66
     1
 10
0.0
 20
0.0
 30
0.0
 70
   128
  0
VERTEX
  5
76BD
  8
0
  6
CONTINUOUS
 62
     7
 10
12.78751364758609
 20
9.8366617615539802
 30
0.0
  0
VERTEX
  5
76BE
  8
0
  6
CONTINUOUS
 62
     7
 10
12.7856029947861
 20
9.8469416304539674
 30
0.0
  0
VERTEX
  5
76BF
  8
0
  6
CONTINUOUS
 62
     7
 10
12.785591187886091
 20
9.8469693157539808
 30
0.0
  0
SEQEND
  5
76C0
  8
0
  6
CONTINUOUS
 62
     7
  0
ARC
  5
60A
  8
0
  6
CONTINUOUS
 62
     7
 10
12.751894000886089
 20
9.8370646281539802
 30
0.0
 40
0.0356219249119952
 50
268.66201993099992
 51
359.3519988276999
  0
LINE
  5
60B
  8
0
  6
CONTINUOUS
 62
     7
 10
13.37347708918608
 20
9.9552231105539803
 30
0.0
 11
13.4468892484861
 21
9.9837536536539702
 31
0.0
  0
ARC
  5
60C
  8
0
  6
CONTINUOUS
 62
     7
 10
12.49203529628609
 20
9.6524807290539663
 30
0.0
 40
0.9319831457805987
 50
340.46100898840001
 51
18.955685186299998
  0
POLYLINE
  5
60D
  8
0
  6
CONTINUOUS
 62
     7
 66
     1
 10
0.0
 20
0.0
 30
0.0
 70
   128
  0
VERTEX
  5
76C1
  8
0
  6
CONTINUOUS
 62
     7
 10
13.2678979648861
 20
9.3503371850539807
 30
0.0
  0
VERTEX
  5
76C2
  8
0
  6
CONTINUOUS
 62
     7
 10
13.2656430565861
 20
9.3307835339539782
 30
0.0
  0
VERTEX
  5
76C3
  8
0
  6
CONTINUOUS
 62
     7
 10
13.269656722786101
 20
9.3131459627539801
 30
0.0
  0
VERTEX
  5
76C4
  8
0
  6
CONTINUOUS
 62
     7
 10
13.27947297328609
 20
9.2994719933539702
 30
0.0
  0
VERTEX
  5
76C5
  8
0
  6
CONTINUOUS
 62
     7
 10
13.29395234028609
 20
9.2913492383539804
 30
0.0
  0
VERTEX
  5
76C6
  8
0
  6
CONTINUOUS
 62
     7
 10
13.3114136935861
 20
9.2897203308539815
 30
0.0
  0
VERTEX
  5
76C7
  8
0
  6
CONTINUOUS
 62
     7
 10
13.32983022948609
 20
9.2947747531539715
 30
0.0
  0
VERTEX
  5
76C8
  8
0
  6
CONTINUOUS
 62
     7
 10
13.347063856086081
 20
9.3059254012539672
 30
0.0
  0
VERTEX
  5
76C9
  8
0
  6
CONTINUOUS
 62
     7
 10
13.36111384748609
 20
9.3218779768539815
 30
0.0
  0
VERTEX
  5
76CA
  8
0
  6
CONTINUOUS
 62
     7
 10
13.370349363186101
 20
9.3407805785539715
 30
0.0
  0
SEQEND
  5
76CB
  8
0
  6
CONTINUOUS
 62
     7
  0
ARC
  5
60E
  8
0
  6
CONTINUOUS
 62
     7
 10
12.635358507386099
 20
9.5428567822539812
 30
0.0
 40
0.6611882943084579
 50
343.0718578478
 51
25.02899335590001
  0
ARC
  5
60F
  8
0
  6
CONTINUOUS
 62
     7
 10
13.1600314480861
 20
9.7812282989539803
 30
0.0
 40
0.0851468808445836
 50
29.063031534200011
 51
115.9493338722999
  0
LINE
  5
610
  8
0
  6
CONTINUOUS
 62
     7
 10
12.845767160886091
 20
9.7501364874539806
 30
0.0
 11
13.12277320128609
 21
9.8577907855539806
 31
0.0
  0
ARC
  5
611
  8
0
  6
CONTINUOUS
 62
     7
 10
12.740537535486091
 20
9.7991733773539806
 30
0.0
 40
0.0883031167217751
 50
176.77109690340001
 51
230.97706647050001
  0
LINE
  5
612
  8
0
  6
CONTINUOUS
 62
     7
 10
12.6539071638861
 20
9.9167709629539811
 30
0.0
 11
12.6523746018861
 21
9.8041470650539804
 31
0.0
  0
LINE
  5
613
  8
0
  6
CONTINUOUS
 62
     7
 10
13.3836581912861
 20
10.092350571253981
 30
0.0
 11
12.886157155286091
 21
9.9726507970539782
 31
0.0
  0
LINE
  5
614
  8
0
  6
CONTINUOUS
 62
     7
 10
12.65402285068609
 20
9.9167987971539802
 30
0.0
 11
12.6539071638861
 21
9.9167709629539811
 31
0.0
  0
POLYLINE
  5
615
  8
0
  6
CONTINUOUS
 62
     7
 66
     1
 10
0.0
 20
0.0
 30
0.0
 70
   128
  0
VERTEX
  5
76CC
  8
0
  6
CONTINUOUS
 62
     7
 10
13.545825199086091
 20
10.131368296053971
 30
0.0
  0
VERTEX
  5
76CD
  8
0
  6
CONTINUOUS
 62
     7
 10
13.5439142920861
 20
10.14164807155397
 30
0.0
  0
VERTEX
  5
76CE
  8
0
  6
CONTINUOUS
 62
     7
 10
13.5439026125861
 20
10.14167582005398
 30
0.0
  0
SEQEND
  5
76CF
  8
0
  6
CONTINUOUS
 62
     7
  0
ARC
  5
616
  8
0
  6
CONTINUOUS
 62
     7
 10
13.5102051551861
 20
10.131771473553981
 30
0.0
 40
0.0356223256030955
 50
268.66246822319988
 51
359.35150615830008
  0
LINE
  5
617
  8
0
  6
CONTINUOUS
 62
     7
 10
12.6539071638861
 20
9.9167709629539811
 30
0.0
 11
12.6514338233861
 21
9.9186472284539704
 31
0.0
  0
LINE
  5
618
  8
0
  6
CONTINUOUS
 62
     7
 10
12.606256152986081
 20
9.9079060939539705
 30
0.0
 11
12.605329766786101
 21
9.8398350757539674
 31
0.0
  0
ARC
  5
619
  8
0
  6
CONTINUOUS
 62
     7
 10
12.69349270038609
 20
9.8348613880539801
 30
0.0
 40
0.0883031167217618
 50
176.77109690340001
 51
230.97706647050001
  0
LINE
  5
61A
  8
0
  6
CONTINUOUS
 62
     7
 10
13.18499161148608
 20
9.8626924765539687
 30
0.0
 11
13.187412295486091
 21
9.8582782378539804
 31
0.0
  0
ARC
  5
61B
  8
0
  6
CONTINUOUS
 62
     7
 10
12.5883136722861
 20
9.5785447928539682
 30
0.0
 40
0.6611882943084636
 50
343.0718578478
 51
25.02899335590001
  0
ARC
  5
61C
  8
0
  6
CONTINUOUS
 62
     7
 10
13.265508562486101
 20
9.3695630002539811
 30
0.0
 40
0.0475931881179808
 50
159.7636251587999
 51
229.85240281930001
  0
POLYLINE
  5
61D
  8
0
  6
CONTINUOUS
 62
     7
 66
     1
 10
0.0
 20
0.0
 30
0.0
 70
   128
  0
VERTEX
  5
76D0
  8
0
  6
CONTINUOUS
 62
     7
 10
12.80319489858609
 20
9.8247357059539802
 30
0.0
  0
VERTEX
  5
76D1
  8
0
  6
CONTINUOUS
 62
     7
 10
12.801295190886091
 20
9.8350204161539807
 30
0.0
  0
VERTEX
  5
76D2
  8
0
  6
CONTINUOUS
 62
     7
 10
12.79557014658609
 20
9.8427540549539803
 30
0.0
  0
VERTEX
  5
76D3
  8
0
  6
CONTINUOUS
 62
     7
 10
12.78689106888609
 20
9.8467590378539711
 30
0.0
  0
VERTEX
  5
76D4
  8
0
  6
CONTINUOUS
 62
     7
 10
12.7765795831861
 20
9.8464257892539813
 30
0.0
  0
VERTEX
  5
76D5
  8
0
  6
CONTINUOUS
 62
     7
 10
12.7662051984861
 20
9.8418049553539806
 30
0.0
  0
VERTEX
  5
76D6
  8
0
  6
CONTINUOUS
 62
     7
 10
12.757347642586099
 20
9.8336000959539671
 30
0.0
  0
VERTEX
  5
76D7
  8
0
  6
CONTINUOUS
 62
     7
 10
12.7513551717861
 20
9.8230602347539815
 30
0.0
  0
VERTEX
  5
76D8
  8
0
  6
CONTINUOUS
 62
     7
 10
12.74914008078609
 20
9.8117900409539711
 30
0.0
  0
VERTEX
  5
76D9
  8
0
  6
CONTINUOUS
 62
     7
 10
12.7510397874861
 20
9.8015052646539811
 30
0.0
  0
VERTEX
  5
76DA
  8
0
  6
CONTINUOUS
 62
     7
 10
12.7567648328861
 20
9.7937716919539817
 30
0.0
  0
VERTEX
  5
76DB
  8
0
  6
CONTINUOUS
 62
     7
 10
12.7654439094861
 20
9.78976664285398
 30
0.0
  0
VERTEX
  5
76DC
  8
0
  6
CONTINUOUS
 62
     7
 10
12.775755395186099
 20
9.7900998915539699
 30
0.0
  0
VERTEX
  5
76DD
  8
0
  6
CONTINUOUS
 62
     7
 10
12.7861297798861
 20
9.7947207254539812
 30
0.0
  0
VERTEX
  5
76DE
  8
0
  6
CONTINUOUS
 62
     7
 10
12.7949873367861
 20
9.8029256509539806
 30
0.0
  0
VERTEX
  5
76DF
  8
0
  6
CONTINUOUS
 62
     7
 10
12.80097980658609
 20
9.8134654460539803
 30
0.0
  0
VERTEX
  5
76E0
  8
0
  6
CONTINUOUS
 62
     7
 10
12.80319489858609
 20
9.8247357059539802
 30
0.0
  0
SEQEND
  5
76E1
  8
0
  6
CONTINUOUS
 62
     7
  0
LINE
  5
61E
  8
0
  6
CONTINUOUS
 62
     7
 10
12.67469002748609
 20
10.245645124353979
 30
0.0
 11
12.66805791708609
 21
9.7923715256539712
 31
0.0
  0
LINE
  5
61F
  8
0
  6
CONTINUOUS
 62
     7
 10
12.884277061286079
 20
9.8441541551539782
 30
0.0
 11
12.890903680386099
 21
10.29705052845398
 31
0.0
  0
POLYLINE
  5
620
  8
0
  6
CONTINUOUS
 62
     7
 66
     1
 10
0.0
 20
0.0
 30
0.0
 70
   128
  0
VERTEX
  5
76E2
  8
0
  6
CONTINUOUS
 62
     7
 10
12.66805791708609
 20
9.7923715256539712
 30
0.0
  0
VERTEX
  5
76E3
  8
0
  6
CONTINUOUS
 62
     7
 10
12.67080490158609
 20
9.7661646022539816
 30
0.0
  0
VERTEX
  5
76E4
  8
0
  6
CONTINUOUS
 62
     7
 10
12.679675254486099
 20
9.7429853697539812
 30
0.0
  0
VERTEX
  5
76E5
  8
0
  6
CONTINUOUS
 62
     7
 10
12.69415333348609
 20
9.7241810610539687
 30
0.0
  0
VERTEX
  5
76E6
  8
0
  6
CONTINUOUS
 62
     7
 10
12.7133977932861
 20
9.7108443787539702
 30
0.0
  0
VERTEX
  5
76E7
  8
0
  6
CONTINUOUS
 62
     7
 10
12.73629009388609
 20
9.7037504765539708
 30
0.0
  0
VERTEX
  5
76E8
  8
0
  6
CONTINUOUS
 62
     7
 10
12.76150010158608
 20
9.7033117033539682
 30
0.0
  0
VERTEX
  5
76E9
  8
0
  6
CONTINUOUS
 62
     7
 10
12.7875623919861
 20
9.7095533309539803
 30
0.0
  0
VERTEX
  5
76EA
  8
0
  6
CONTINUOUS
 62
     7
 10
12.81296253898609
 20
9.7221128634539689
 30
0.0
  0
VERTEX
  5
76EB
  8
0
  6
CONTINUOUS
 62
     7
 10
12.836224248386101
 20
9.7402602926539803
 30
0.0
  0
VERTEX
  5
76EC
  8
0
  6
CONTINUOUS
 62
     7
 10
12.855995594186091
 20
9.7629408608539805
 30
0.0
  0
VERTEX
  5
76ED
  8
0
  6
CONTINUOUS
 62
     7
 10
12.871127724886099
 20
9.7888365815539782
 30
0.0
  0
VERTEX
  5
76EE
  8
0
  6
CONTINUOUS
 62
     7
 10
12.880741172986101
 20
9.8164424627539812
 30
0.0
  0
VERTEX
  5
76EF
  8
0
  6
CONTINUOUS
 62
     7
 10
12.884277061286079
 20
9.8441541551539782
 30
0.0
  0
SEQEND
  5
76F0
  8
0
  6
CONTINUOUS
 62
     7
  0
LINE
  5
621
  8
0
  6
CONTINUOUS
 62
     7
 10
12.658779060886101
 20
10.24186224895398
 30
0.0
 11
12.65237630458609
 21
9.8042675297539699
 31
0.0
  0
ARC
  5
622
  8
0
  6
CONTINUOUS
 62
     7
 10
12.739752457986089
 20
9.7988326814539803
 30
0.0
 40
0.0875450155971164
 50
176.4407541068999
 51
231.2358516473
  0
POLYLINE
  5
623
  8
0
  6
CONTINUOUS
 62
     7
 66
     1
 10
0.0
 20
0.0
 30
0.0
 70
   128
  0
VERTEX
  5
76F1
  8
0
  6
CONTINUOUS
 62
     7
 10
12.78751328608608
 20
9.8366317100539806
 30
0.0
  0
VERTEX
  5
76F2
  8
0
  6
CONTINUOUS
 62
     7
 10
12.785613578386091
 20
9.8469164202539812
 30
0.0
  0
VERTEX
  5
76F3
  8
0
  6
CONTINUOUS
 62
     7
 10
12.785591187886091
 20
9.8469693157539808
 30
0.0
  0
SEQEND
  5
76F4
  8
0
  6
CONTINUOUS
 62
     7
  0
ARC
  5
624
  8
0
  6
CONTINUOUS
 62
     7
 10
12.751894932386101
 20
9.8370636540539813
 30
0.0
 40
0.0356209727674493
 50
268.66048542250002
 51
359.30520784510009
  0
LINE
  5
625
  8
0
  6
CONTINUOUS
 62
     7
 10
12.6110459095861
 20
10.23051356055398
 30
0.0
 11
12.609723820086099
 21
10.14015066875398
 31
0.0
  0
ARC
  5
626
  8
0
  6
CONTINUOUS
 62
     7
 10
12.69270762278609
 20
9.8345206921539816
 30
0.0
 40
0.087545015597101
 50
176.4407541068999
 51
231.2358516473
  0
LINE
  5
627
  8
0
  6
CONTINUOUS
 62
     7
 10
12.595134942986091
 20
10.22673068515398
 30
0.0
 11
12.59398089578608
 21
10.14785686965398
 31
0.0
  0
LINE
  5
628
  8
0
  6
CONTINUOUS
 62
     7
 10
12.590414950986091
 20
9.9041398382539807
 30
0.0
 11
12.5896498569861
 21
9.8518515445539823
 31
0.0
  0
ARC
  5
629
  8
0
  6
CONTINUOUS
 62
     7
 10
12.677026010386101
 20
9.8464166962539803
 30
0.0
 40
0.0875450155970974
 50
176.4407541068999
 51
231.2358516473
  0
POLYLINE
  5
62A
  8
0
  6
CONTINUOUS
 62
     7
 66
     1
 10
0.0
 20
0.0
 30
0.0
 70
   128
  0
VERTEX
  5
76F5
  8
0
  6
CONTINUOUS
 62
     7
 10
11.178202356686089
 20
10.52392270555398
 30
0.0
  0
VERTEX
  5
76F6
  8
0
  6
CONTINUOUS
 62
     7
 10
11.1736279292861
 20
10.534958883753969
 30
0.0
  0
VERTEX
  5
76F7
  8
0
  6
CONTINUOUS
 62
     7
 10
11.1711038328861
 20
10.547181782453981
 30
0.0
  0
VERTEX
  5
76F8
  8
0
  6
CONTINUOUS
 62
     7
 10
11.17103402728609
 20
10.558635192753981
 30
0.0
  0
VERTEX
  5
76F9
  8
0
  6
CONTINUOUS
 62
     7
 10
11.1734296850861
 20
10.567486158053979
 30
0.0
  0
VERTEX
  5
76FA
  8
0
  6
CONTINUOUS
 62
     7
 10
11.1779073992861
 20
10.57231807105398
 30
0.0
  0
VERTEX
  5
76FB
  8
0
  6
CONTINUOUS
 62
     7
 10
11.1837505549861
 20
10.572357717553979
 30
0.0
  0
VERTEX
  5
76FC
  8
0
  6
CONTINUOUS
 62
     7
 10
11.1900240051861
 20
10.56759870515398
 30
0.0
  0
VERTEX
  5
76FD
  8
0
  6
CONTINUOUS
 62
     7
 10
11.195723740786081
 20
10.55880267065398
 30
0.0
  0
VERTEX
  5
76FE
  8
0
  6
CONTINUOUS
 62
     7
 10
11.199937569086091
 20
10.547377390653979
 30
0.0
  0
VERTEX
  5
76FF
  8
0
  6
CONTINUOUS
 62
     7
 10
11.201991105286091
 20
10.53515128585398
 30
0.0
  0
VERTEX
  5
7700
  8
0
  6
CONTINUOUS
 62
     7
 10
11.20155569848608
 20
10.52408112745398
 30
0.0
  0
VERTEX
  5
7701
  8
0
  6
CONTINUOUS
 62
     7
 10
11.198701030586101
 20
10.51593853635398
 30
0.0
  0
VERTEX
  5
7702
  8
0
  6
CONTINUOUS
 62
     7
 10
11.193883967986091
 20
10.51202670235398
 30
0.0
  0
SEQEND
  5
7703
  8
0
  6
CONTINUOUS
 62
     7
  0
LINE
  5
62B
  8
0
  6
CONTINUOUS
 62
     7
 10
11.193883967986091
 20
10.51202670235398
 30
0.0
 11
11.20482780008609
 21
10.42037051805398
 31
0.0
  0
POLYLINE
  5
62C
  8
0
  6
CONTINUOUS
 62
     7
 66
     1
 10
0.0
 20
0.0
 30
0.0
 70
   128
  0
VERTEX
  5
7704
  8
0
  6
CONTINUOUS
 62
     7
 10
11.20482780008609
 20
10.42037051805398
 30
0.0
  0
VERTEX
  5
7705
  8
0
  6
CONTINUOUS
 62
     7
 10
11.2188201856861
 20
10.421845898953981
 30
0.0
  0
VERTEX
  5
7706
  8
0
  6
CONTINUOUS
 62
     7
 10
11.2308819596861
 20
10.43050737805398
 30
0.0
  0
VERTEX
  5
7707
  8
0
  6
CONTINUOUS
 62
     7
 10
11.24029398368608
 20
10.445838549653979
 30
0.0
  0
VERTEX
  5
7708
  8
0
  6
CONTINUOUS
 62
     7
 10
11.246495085886091
 20
10.466925291653981
 30
0.0
  0
VERTEX
  5
7709
  8
0
  6
CONTINUOUS
 62
     7
 10
11.24911555058609
 20
10.49251043945398
 30
0.0
  0
VERTEX
  5
770A
  8
0
  6
CONTINUOUS
 62
     7
 10
11.247999143786091
 20
10.521068500653961
 30
0.0
  0
VERTEX
  5
770B
  8
0
  6
CONTINUOUS
 62
     7
 10
11.243212425186091
 20
10.550896840753961
 30
0.0
  0
VERTEX
  5
770C
  8
0
  6
CONTINUOUS
 62
     7
 10
11.23504078738609
 20
10.58021703825397
 30
0.0
  0
VERTEX
  5
770D
  8
0
  6
CONTINUOUS
 62
     7
 10
11.223971436886091
 20
10.60728095785398
 30
0.0
  0
VERTEX
  5
770E
  8
0
  6
CONTINUOUS
 62
     7
 10
11.210664348786089
 20
10.63047497215398
 30
0.0
  0
VERTEX
  5
770F
  8
0
  6
CONTINUOUS
 62
     7
 10
11.19591291638609
 20
10.64841627085398
 30
0.0
  0
VERTEX
  5
7710
  8
0
  6
CONTINUOUS
 62
     7
 10
11.180596644086091
 20
10.660035129553981
 30
0.0
  0
VERTEX
  5
7711
  8
0
  6
CONTINUOUS
 62
     7
 10
11.165628716386079
 20
10.66463881025398
 30
0.0
  0
VERTEX
  5
7712
  8
0
  6
CONTINUOUS
 62
     7
 10
11.151901546286091
 20
10.66195286855398
 30
0.0
  0
VERTEX
  5
7713
  8
0
  6
CONTINUOUS
 62
     7
 10
11.140233571686091
 20
10.65213738645398
 30
0.0
  0
VERTEX
  5
7714
  8
0
  6
CONTINUOUS
 62
     7
 10
11.131320459186091
 20
10.63577760745398
 30
0.0
  0
VERTEX
  5
7715
  8
0
  6
CONTINUOUS
 62
     7
 10
11.12569362408609
 20
10.613848944653981
 30
0.0
  0
VERTEX
  5
7716
  8
0
  6
CONTINUOUS
 62
     7
 10
11.12368854808609
 20
10.58765882695398
 30
0.0
  0
VERTEX
  5
7717
  8
0
  6
CONTINUOUS
 62
     7
 10
11.12542477368609
 20
10.558768712553981
 30
0.0
  0
VERTEX
  5
7718
  8
0
  6
CONTINUOUS
 62
     7
 10
11.13079878848608
 20
10.52890113635398
 30
0.0
  0
VERTEX
  5
7719
  8
0
  6
CONTINUOUS
 62
     7
 10
11.1394901870861
 20
10.499836785753971
 30
0.0
  0
VERTEX
  5
771A
  8
0
  6
CONTINUOUS
 62
     7
 10
11.1509807643861
 20
10.47330859365397
 30
0.0
  0
VERTEX
  5
771B
  8
0
  6
CONTINUOUS
 62
     7
 10
11.1645854376861
 20
10.450898201953979
 30
0.0
  0
SEQEND
  5
771C
  8
0
  6
CONTINUOUS
 62
     7
  0
LINE
  5
62D
  8
0
  6
CONTINUOUS
 62
     7
 10
11.1645854376861
 20
10.450898201953979
 30
0.0
 11
11.178202356686089
 21
10.52392270555398
 31
0.0
  0
LINE
  5
62E
  8
0
  6
CONTINUOUS
 62
     7
 10
11.110792283186081
 20
10.697544328153979
 30
0.0
 11
11.003527328786079
 21
10.510006219453979
 31
0.0
  0
POLYLINE
  5
62F
  8
0
  6
CONTINUOUS
 62
     7
 66
     1
 10
0.0
 20
0.0
 30
0.0
 70
   128
  0
VERTEX
  5
771D
  8
0
  6
CONTINUOUS
 62
     7
 10
11.265222000786091
 20
10.58039460505398
 30
0.0
  0
VERTEX
  5
771E
  8
0
  6
CONTINUOUS
 62
     7
 10
11.25391087348609
 20
10.61403693955398
 30
0.0
  0
VERTEX
  5
771F
  8
0
  6
CONTINUOUS
 62
     7
 10
11.24010694718609
 20
10.645031602053979
 30
0.0
  0
VERTEX
  5
7720
  8
0
  6
CONTINUOUS
 62
     7
 10
11.22432021988609
 20
10.67223345345398
 30
0.0
  0
VERTEX
  5
7721
  8
0
  6
CONTINUOUS
 62
     7
 10
11.20713394878608
 20
10.694637610753979
 30
0.0
  0
VERTEX
  5
7722
  8
0
  6
CONTINUOUS
 62
     7
 10
11.18918309268609
 20
10.71141618025398
 30
0.0
  0
VERTEX
  5
7723
  8
0
  6
CONTINUOUS
 62
     7
 10
11.1711308622861
 20
10.721949398153971
 30
0.0
  0
VERTEX
  5
7724
  8
0
  6
CONTINUOUS
 62
     7
 10
11.153644209786091
 20
10.72584797235398
 30
0.0
  0
VERTEX
  5
7725
  8
0
  6
CONTINUOUS
 62
     7
 10
11.137369196386089
 20
10.72296802025398
 30
0.0
  0
VERTEX
  5
7726
  8
0
  6
CONTINUOUS
 62
     7
 10
11.1229071160861
 20
10.713415829453981
 30
0.0
  0
VERTEX
  5
7727
  8
0
  6
CONTINUOUS
 62
     7
 10
11.110792283186081
 20
10.697544328153979
 30
0.0
  0
SEQEND
  5
7728
  8
0
  6
CONTINUOUS
 62
     7
  0
LINE
  5
630
  8
0
  6
CONTINUOUS
 62
     7
 10
11.36386331808608
 20
10.23665687955398
 30
0.0
 11
11.265222000786091
 21
10.58039460505398
 31
0.0
  0
ARC
  5
631
  8
0
  6
CONTINUOUS
 62
     7
 10
10.5001850598861
 20
9.9851859332539803
 30
0.0
 40
0.8995430898391399
 50
0.6627496388999931
 51
16.233592980099999
  0
LINE
  5
632
  8
0
  6
CONTINUOUS
 62
     7
 10
11.33708158788609
 20
10.04306862575398
 30
0.0
 11
11.399667971286091
 21
9.9955908630539714
 31
0.0
  0
LINE
  5
633
  8
0
  6
CONTINUOUS
 62
     7
 10
11.335709645586091
 20
9.9585474680539807
 30
0.0
 11
11.33708158788609
 21
10.04306862575398
 31
0.0
  0
LINE
  5
634
  8
0
  6
CONTINUOUS
 62
     7
 10
11.3949073663861
 20
9.9136403303539815
 30
0.0
 11
11.335709645586091
 21
9.9585474680539807
 31
0.0
  0
ARC
  5
635
  8
0
  6
CONTINUOUS
 62
     7
 10
11.87777700238609
 20
10.31423341745398
 30
0.0
 40
0.9177938209331427
 50
184.55319595249989
 51
204.8518970552999
  0
POLYLINE
  5
636
  8
0
  6
CONTINUOUS
 62
     7
 66
     1
 10
0.0
 20
0.0
 30
0.0
 70
   128
  0
VERTEX
  5
7729
  8
0
  6
CONTINUOUS
 62
     7
 10
11.19309703298609
 20
9.7403135087539816
 30
0.0
  0
VERTEX
  5
772A
  8
0
  6
CONTINUOUS
 62
     7
 10
11.2013789644861
 20
9.735652260253973
 30
0.0
  0
VERTEX
  5
772B
  8
0
  6
CONTINUOUS
 62
     7
 10
11.228782567186091
 20
9.7243812837539672
 30
0.0
  0
VERTEX
  5
772C
  8
0
  6
CONTINUOUS
 62
     7
 10
11.25540743478609
 20
9.719876901853981
 30
0.0
  0
VERTEX
  5
772D
  8
0
  6
CONTINUOUS
 62
     7
 10
11.28082821788608
 20
9.722211038253981
 30
0.0
  0
VERTEX
  5
772E
  8
0
  6
CONTINUOUS
 62
     7
 10
11.30463881158609
 20
9.7313464157539808
 30
0.0
  0
VERTEX
  5
772F
  8
0
  6
CONTINUOUS
 62
     7
 10
11.326458830586089
 20
9.7471371153539792
 30
0.0
  0
VERTEX
  5
7730
  8
0
  6
CONTINUOUS
 62
     7
 10
11.345939698886079
 20
9.7693308337539708
 30
0.0
  0
VERTEX
  5
7731
  8
0
  6
CONTINUOUS
 62
     7
 10
11.3627701752861
 20
9.7975730572539792
 30
0.0
  0
VERTEX
  5
7732
  8
0
  6
CONTINUOUS
 62
     7
 10
11.37668141598609
 20
9.8314125750539816
 30
0.0
  0
VERTEX
  5
7733
  8
0
  6
CONTINUOUS
 62
     7
 10
11.38745115358609
 20
9.8703087992539782
 30
0.0
  0
VERTEX
  5
7734
  8
0
  6
CONTINUOUS
 62
     7
 10
11.3949073663861
 20
9.9136403303539815
 30
0.0
  0
SEQEND
  5
7735
  8
0
  6
CONTINUOUS
 62
     7
  0
LINE
  5
637
  8
0
  6
CONTINUOUS
 62
     7
 10
11.02207740528609
 20
10.19646754375397
 30
0.0
 11
10.96287968448609
 21
10.24137468155398
 31
0.0
  0
LINE
  5
638
  8
0
  6
CONTINUOUS
 62
     7
 10
11.0234493475861
 20
10.28098870145398
 30
0.0
 11
11.02207740528609
 21
10.19646754375397
 31
0.0
  0
LINE
  5
639
  8
0
  6
CONTINUOUS
 62
     7
 10
10.960862964186081
 20
10.32846646415398
 30
0.0
 11
11.0234493475861
 21
10.28098870145398
 31
0.0
  0
ARC
  5
63A
  8
0
  6
CONTINUOUS
 62
     7
 10
11.36495713388609
 20
10.329281957253979
 30
0.0
 40
0.4040949925411725
 50
153.43376184109999
 51
180.11562713320001
  0
LINE
  5
63B
  8
0
  6
CONTINUOUS
 62
     7
 10
11.20621598318608
 20
10.29377231795398
 30
0.0
 11
11.20721774098608
 21
10.355487544153981
 31
0.0
  0
ARC
  5
63C
  8
0
  6
CONTINUOUS
 62
     7
 10
11.42952124838609
 20
10.206863031053979
 30
0.0
 40
0.3433856436503044
 50
169.00254356510001
 51
216.60346594369989
  0
LINE
  5
63D
  8
0
  6
CONTINUOUS
 62
     7
 10
11.19907755018609
 20
9.8539953579539805
 30
0.0
 11
11.20090247338608
 21
9.9664232820539826
 31
0.0
  0
POLYLINE
  5
63E
  8
0
  6
CONTINUOUS
 62
     7
 66
     1
 10
0.0
 20
0.0
 30
0.0
 70
   128
  0
VERTEX
  5
7736
  8
0
  6
CONTINUOUS
 62
     7
 10
11.20090247338608
 20
9.9664232820539826
 30
0.0
  0
VERTEX
  5
7737
  8
0
  6
CONTINUOUS
 62
     7
 10
11.21896100948609
 20
9.9647353833539807
 30
0.0
  0
VERTEX
  5
7738
  8
0
  6
CONTINUOUS
 62
     7
 10
11.23542435348608
 20
9.9705556331539782
 30
0.0
  0
VERTEX
  5
7739
  8
0
  6
CONTINUOUS
 62
     7
 10
11.249617816386079
 20
9.9836454965539811
 30
0.0
  0
VERTEX
  5
773A
  8
0
  6
CONTINUOUS
 62
     7
 10
11.26095972358609
 20
10.00346852105398
 30
0.0
  0
VERTEX
  5
773B
  8
0
  6
CONTINUOUS
 62
     7
 10
11.26898525238609
 20
10.029212343053979
 30
0.0
  0
VERTEX
  5
773C
  8
0
  6
CONTINUOUS
 62
     7
 10
11.273365508786091
 20
10.059821916753981
 30
0.0
  0
VERTEX
  5
773D
  8
0
  6
CONTINUOUS
 62
     7
 10
11.27392098028608
 20
10.094042811453971
 30
0.0
  0
VERTEX
  5
773E
  8
0
  6
CONTINUOUS
 62
     7
 10
11.270628902386081
 20
10.130472583053979
 30
0.0
  0
VERTEX
  5
773F
  8
0
  6
CONTINUOUS
 62
     7
 10
11.2636241924861
 20
10.167618279853979
 30
0.0
  0
VERTEX
  5
7740
  8
0
  6
CONTINUOUS
 62
     7
 10
11.25319390908609
 20
10.203957599253981
 30
0.0
  0
VERTEX
  5
7741
  8
0
  6
CONTINUOUS
 62
     7
 10
11.23976551508609
 20
10.238001285053979
 30
0.0
  0
VERTEX
  5
7742
  8
0
  6
CONTINUOUS
 62
     7
 10
11.22388933098609
 20
10.26835415405397
 30
0.0
  0
VERTEX
  5
7743
  8
0
  6
CONTINUOUS
 62
     7
 10
11.20621598318608
 20
10.29377231795398
 30
0.0
  0
SEQEND
  5
7744
  8
0
  6
CONTINUOUS
 62
     7
  0
LINE
  5
63F
  8
0
  6
CONTINUOUS
 62
     7
 10
11.44494330318609
 20
10.25593387405398
 30
0.0
 11
11.3463019858861
 21
10.599671599553981
 31
0.0
  0
LINE
  5
640
  8
0
  6
CONTINUOUS
 62
     7
 10
11.399667971286091
 20
9.9955908630539714
 30
0.0
 11
11.480747956386089
 21
10.01486785755398
 31
0.0
  0
ARC
  5
641
  8
0
  6
CONTINUOUS
 62
     7
 10
10.58126504498609
 20
10.00446292775398
 30
0.0
 40
0.8995430898390607
 50
0.6627496388999931
 51
16.233592980099999
  0
POLYLINE
  5
642
  8
0
  6
CONTINUOUS
 62
     7
 66
     1
 10
0.0
 20
0.0
 30
0.0
 70
   128
  0
VERTEX
  5
7745
  8
0
  6
CONTINUOUS
 62
     7
 10
11.3463019858861
 20
10.599671599553981
 30
0.0
  0
VERTEX
  5
7746
  8
0
  6
CONTINUOUS
 62
     7
 10
11.334990858486091
 20
10.63331393405397
 30
0.0
  0
VERTEX
  5
7747
  8
0
  6
CONTINUOUS
 62
     7
 10
11.3211869322861
 20
10.664308596553971
 30
0.0
  0
VERTEX
  5
7748
  8
0
  6
CONTINUOUS
 62
     7
 10
11.3054002049861
 20
10.691510447953981
 30
0.0
  0
VERTEX
  5
7749
  8
0
  6
CONTINUOUS
 62
     7
 10
11.288213933886089
 20
10.713914605253979
 30
0.0
  0
VERTEX
  5
774A
  8
0
  6
CONTINUOUS
 62
     7
 10
11.270263077686099
 20
10.730693174753981
 30
0.0
  0
VERTEX
  5
774B
  8
0
  6
CONTINUOUS
 62
     7
 10
11.25221084738609
 20
10.74122639265398
 30
0.0
  0
VERTEX
  5
774C
  8
0
  6
CONTINUOUS
 62
     7
 10
11.2347241948861
 20
10.745124966853981
 30
0.0
  0
VERTEX
  5
774D
  8
0
  6
CONTINUOUS
 62
     7
 10
11.2241494596861
 20
10.74406610505398
 30
0.0
  0
SEQEND
  5
774E
  8
0
  6
CONTINUOUS
 62
     7
  0
LINE
  5
643
  8
0
  6
CONTINUOUS
 62
     7
 10
11.20482780008609
 20
10.42037051805398
 30
0.0
 11
11.2249277167861
 21
10.42514932975398
 31
0.0
  0
ARC
  5
644
  8
0
  6
CONTINUOUS
 62
     7
 10
11.39376917678609
 20
10.604687441653979
 30
0.0
 40
0.1891260523404754
 50
170.65420955449989
 51
187.73516327659999
  0
POLYLINE
  5
645
  8
0
  6
CONTINUOUS
 62
     7
 66
     1
 10
0.0
 20
0.0
 30
0.0
 70
   128
  0
VERTEX
  5
774F
  8
0
  6
CONTINUOUS
 62
     7
 10
11.3623128457861
 20
9.7415832741539816
 30
0.0
  0
VERTEX
  5
7750
  8
0
  6
CONTINUOUS
 62
     7
 10
11.38571879668608
 20
9.750623410253981
 30
0.0
  0
VERTEX
  5
7751
  8
0
  6
CONTINUOUS
 62
     7
 10
11.407538815586101
 20
9.7664141098539812
 30
0.0
  0
VERTEX
  5
7752
  8
0
  6
CONTINUOUS
 62
     7
 10
11.42701968388609
 20
9.7886078282539781
 30
0.0
  0
VERTEX
  5
7753
  8
0
  6
CONTINUOUS
 62
     7
 10
11.44385016038609
 20
9.8168500517539812
 30
0.0
  0
VERTEX
  5
7754
  8
0
  6
CONTINUOUS
 62
     7
 10
11.45776140098609
 20
9.85068956955398
 30
0.0
  0
VERTEX
  5
7755
  8
0
  6
CONTINUOUS
 62
     7
 10
11.462958582886101
 20
9.86742780445398
 30
0.0
  0
SEQEND
  5
7756
  8
0
  6
CONTINUOUS
 62
     7
  0
LINE
  5
646
  8
0
  6
CONTINUOUS
 62
     7
 10
11.193883967986091
 20
10.51202670235398
 30
0.0
 11
11.247593938086091
 21
10.524796398753971
 31
0.0
  0
LINE
  5
647
  8
0
  6
CONTINUOUS
 62
     7
 10
11.20090247338608
 20
9.9664232820539826
 30
0.0
 11
11.243099008586089
 21
9.9764556269539781
 31
0.0
  0
ARC
  5
648
  8
0
  6
CONTINUOUS
 62
     7
 10
11.51848198548609
 20
10.228408097653981
 30
0.0
 40
0.3510763552560098
 50
170.61414045959981
 51
216.13371837369991
  0
LINE
  5
649
  8
0
  6
CONTINUOUS
 62
     7
 10
12.89051041878608
 20
10.27017321905398
 30
0.0
 11
12.9965312696861
 21
10.32216378655397
 31
0.0
  0
LINE
  5
64A
  8
0
  6
CONTINUOUS
 62
     7
 10
12.66309043028609
 20
10.482718443953971
 30
0.0
 11
12.66248929598609
 21
10.44568440385398
 31
0.0
  0
LINE
  5
64B
  8
0
  6
CONTINUOUS
 62
     7
 10
12.826622358486089
 20
10.605793592353979
 30
0.0
 11
12.66309043028609
 21
10.482718443953971
 31
0.0
  0
LINE
  5
64C
  8
0
  6
CONTINUOUS
 62
     7
 10
12.82547907328609
 20
10.535359296953979
 30
0.0
 11
12.826622358486089
 21
10.605793592353979
 31
0.0
  0
LINE
  5
64D
  8
0
  6
CONTINUOUS
 62
     7
 10
12.873688818786089
 20
10.495897684453981
 30
0.0
 11
12.82547907328609
 21
10.535359296953979
 31
0.0
  0
LINE
  5
64E
  8
0
  6
CONTINUOUS
 62
     7
 10
13.149707455586091
 20
10.606832509053961
 30
0.0
 11
13.6902408268861
 21
10.735345838353981
 31
0.0
  0
LINE
  5
64F
  8
0
  6
CONTINUOUS
 62
     7
 10
12.9432942193861
 20
10.661597652353979
 30
0.0
 11
13.04160088288609
 21
10.58112986735398
 31
0.0
  0
LINE
  5
650
  8
0
  6
CONTINUOUS
 62
     7
 10
11.85411982018609
 20
10.40264337565398
 30
0.0
 11
12.9432942193861
 21
10.661597652353979
 31
0.0
  0
LINE
  5
651
  8
0
  6
CONTINUOUS
 62
     7
 10
11.530535915486089
 20
10.37088029405397
 30
0.0
 11
11.85411982018609
 21
10.40264337565398
 31
0.0
  0
LINE
  5
652
  8
0
  6
CONTINUOUS
 62
     7
 10
11.09810933908609
 20
10.26806965935398
 30
0.0
 11
11.20621598318608
 21
10.29377231795398
 31
0.0
  0
LINE
  5
653
  8
0
  6
CONTINUOUS
 62
     7
 10
11.4195310521861
 20
10.344488575653971
 30
0.0
 11
11.530535915486089
 21
10.37088029405397
 31
0.0
  0
LINE
  5
654
  8
0
  6
CONTINUOUS
 62
     7
 10
11.099011751786101
 20
10.323664538053981
 30
0.0
 11
11.09810933908609
 21
10.26806965935398
 31
0.0
  0
LINE
  5
655
  8
0
  6
CONTINUOUS
 62
     7
 10
11.208132369086091
 20
10.41183497715398
 30
0.0
 11
11.099011751786101
 21
10.323664538053981
 31
0.0
  0
LINE
  5
656
  8
0
  6
CONTINUOUS
 62
     7
 10
11.20721774098608
 20
10.355487544153981
 30
0.0
 11
11.208132369086091
 21
10.41183497715398
 31
0.0
  0
LINE
  5
657
  8
0
  6
CONTINUOUS
 62
     7
 10
14.6675449728861
 20
11.234320053353979
 30
0.0
 11
11.387937284086091
 21
10.45458410135398
 31
0.0
  0
LINE
  5
658
  8
0
  6
CONTINUOUS
 62
     7
 10
14.6675449728861
 20
11.234320053353979
 30
0.0
 11
14.665258402586099
 21
11.09345147095398
 31
0.0
  0
LINE
  5
659
  8
0
  6
CONTINUOUS
 62
     7
 10
14.65915528838609
 20
10.717457323153971
 30
0.0
 11
14.6571182117861
 21
10.59195928475398
 31
0.0
  0
LINE
  5
65A
  8
0
  6
CONTINUOUS
 62
     7
 10
14.4376994731861
 20
10.539791862553979
 30
0.0
 11
14.6571182117861
 21
10.59195928475398
 31
0.0
  0
POLYLINE
  5
65B
  8
0
  6
CONTINUOUS
 62
     7
 66
     1
 10
0.0
 20
0.0
 30
0.0
 70
   128
  0
VERTEX
  5
7757
  8
0
  6
CONTINUOUS
 62
     7
 10
14.345222873486099
 20
10.34277034255398
 30
0.0
  0
VERTEX
  5
7758
  8
0
  6
CONTINUOUS
 62
     7
 10
14.33379494418609
 20
10.36402426985398
 30
0.0
  0
VERTEX
  5
7759
  8
0
  6
CONTINUOUS
 62
     7
 10
14.328241254586089
 20
10.38890784255398
 30
0.0
  0
VERTEX
  5
775A
  8
0
  6
CONTINUOUS
 62
     7
 10
14.32888123328609
 20
10.415989078553981
 30
0.0
  0
VERTEX
  5
775B
  8
0
  6
CONTINUOUS
 62
     7
 10
14.3356782124861
 20
10.44370957835398
 30
0.0
  0
VERTEX
  5
775C
  8
0
  6
CONTINUOUS
 62
     7
 10
14.34824062808609
 20
10.470474016053981
 30
0.0
  0
VERTEX
  5
775D
  8
0
  6
CONTINUOUS
 62
     7
 10
14.365846006186089
 20
10.494742281053981
 30
0.0
  0
VERTEX
  5
775E
  8
0
  6
CONTINUOUS
 62
     7
 10
14.38748080768608
 20
10.51511775095398
 30
0.0
  0
VERTEX
  5
775F
  8
0
  6
CONTINUOUS
 62
     7
 10
14.411900365886099
 20
10.530427960253981
 30
0.0
  0
VERTEX
  5
7760
  8
0
  6
CONTINUOUS
 62
     7
 10
14.4376994731861
 20
10.539791862553979
 30
0.0
  0
SEQEND
  5
7761
  8
0
  6
CONTINUOUS
 62
     7
  0
LINE
  5
65C
  8
0
  6
CONTINUOUS
 62
     7
 10
14.9550503622861
 20
9.5247595593539813
 30
0.0
 11
14.345222873486099
 21
10.34277034255398
 31
0.0
  0
ARC
  5
65D
  8
0
  6
CONTINUOUS
 62
     7
 10
14.18602582598608
 20
8.977055914853981
 30
0.0
 40
0.9441281796180611
 50
358.37700314509999
 51
35.458685593699997
  0
LINE
  5
65E
  8
0
  6
CONTINUOUS
 62
     7
 10
14.156815331486101
 20
8.7189915567539824
 30
0.0
 11
15.1297752474861
 21
8.9503155132539671
 31
0.0
  0
POLYLINE
  5
65F
  8
0
  6
CONTINUOUS
 62
     7
 66
     1
 10
0.0
 20
0.0
 30
0.0
 70
   128
  0
VERTEX
  5
7762
  8
0
  6
CONTINUOUS
 62
     7
 10
14.107833450786091
 20
8.9177907575539717
 30
0.0
  0
VERTEX
  5
7763
  8
0
  6
CONTINUOUS
 62
     7
 10
14.086637191286091
 20
8.8970318047539791
 30
0.0
  0
VERTEX
  5
7764
  8
0
  6
CONTINUOUS
 62
     7
 10
14.069554318586089
 20
8.8725397051539812
 30
0.0
  0
VERTEX
  5
7765
  8
0
  6
CONTINUOUS
 62
     7
 10
14.05756101548609
 20
8.8457138235539681
 30
0.0
  0
VERTEX
  5
7766
  8
0
  6
CONTINUOUS
 62
     7
 10
14.05134248218609
 20
8.8180865281539802
 30
0.0
  0
VERTEX
  5
7767
  8
0
  6
CONTINUOUS
 62
     7
 10
14.05125361878609
 20
8.7912362615539816
 30
0.0
  0
VERTEX
  5
7768
  8
0
  6
CONTINUOUS
 62
     7
 10
14.057300115186081
 20
8.7666967701539811
 30
0.0
  0
VERTEX
  5
7769
  8
0
  6
CONTINUOUS
 62
     7
 10
14.069135774386099
 20
8.7458700618539815
 30
0.0
  0
VERTEX
  5
776A
  8
0
  6
CONTINUOUS
 62
     7
 10
14.086084958086101
 20
8.7299457308539807
 30
0.0
  0
VERTEX
  5
776B
  8
0
  6
CONTINUOUS
 62
     7
 10
14.1071793987861
 20
8.7198335782539811
 30
0.0
  0
VERTEX
  5
776C
  8
0
  6
CONTINUOUS
 62
     7
 10
14.131213959286081
 20
8.7161114049539812
 30
0.0
  0
VERTEX
  5
776D
  8
0
  6
CONTINUOUS
 62
     7
 10
14.156815331486101
 20
8.7189915567539824
 30
0.0
  0
SEQEND
  5
776E
  8
0
  6
CONTINUOUS
 62
     7
  0
LINE
  5
660
  8
0
  6
CONTINUOUS
 62
     7
 10
13.49034024898609
 20
9.9641890075539816
 30
0.0
 11
14.107833450786091
 21
8.9177907575539717
 31
0.0
  0
LINE
  5
661
  8
0
  6
CONTINUOUS
 62
     7
 10
13.4881474125861
 20
9.9693368789539676
 30
0.0
 11
13.49034024898609
 21
9.9641890075539816
 31
0.0
  0
LINE
  5
662
  8
0
  6
CONTINUOUS
 62
     7
 10
11.735037645686081
 20
9.7007714739539708
 30
0.0
 11
11.838905610586099
 21
9.7254663746539816
 31
0.0
  0
LINE
  5
663
  8
0
  6
CONTINUOUS
 62
     7
 10
12.23323332858609
 20
9.8192188987539808
 30
0.0
 11
12.65405894198609
 21
9.9192713718539824
 31
0.0
  0
LINE
  5
664
  8
0
  6
CONTINUOUS
 62
     7
 10
12.886183610586089
 20
9.9744596646539812
 30
0.0
 11
13.383663958586091
 21
10.092737016553979
 31
0.0
  0
LINE
  5
665
  8
0
  6
CONTINUOUS
 62
     7
 10
11.42715200878609
 20
9.7887918769539812
 30
0.0
 11
11.735037645686081
 21
9.7007714739539708
 31
0.0
  0
LINE
  5
666
  8
0
  6
CONTINUOUS
 62
     7
 10
11.19907755018609
 20
9.8539953579539805
 30
0.0
 11
11.197248293686091
 21
9.7413004755539792
 31
0.0
  0
LINE
  5
667
  8
0
  6
CONTINUOUS
 62
     7
 10
11.0891416495861
 20
9.7155978168539701
 30
0.0
 11
11.197248293686091
 21
9.7413004755539792
 31
0.0
  0
LINE
  5
668
  8
0
  6
CONTINUOUS
 62
     7
 10
11.0928001623861
 20
9.9409875734539792
 30
0.0
 11
11.0891416495861
 21
9.7155978168539701
 31
0.0
  0
LINE
  5
669
  8
0
  6
CONTINUOUS
 62
     7
 10
11.24347597268609
 20
9.9768111710539813
 30
0.0
 11
11.0928001623861
 21
9.9409875734539792
 31
0.0
  0
ARC
  5
66A
  8
0
  6
CONTINUOUS
 62
     7
 10
12.71361695278609
 20
10.253296112753979
 30
0.0
 40
0.1593208277484342
 50
192.81272501729981
 51
249.09518640780001
  0
LINE
  5
66B
  8
0
  6
CONTINUOUS
 62
     7
 10
13.085164088086101
 20
10.280684755253979
 30
0.0
 11
12.88892085028608
 21
10.161541375453981
 31
0.0
  0
ARC
  5
66C
  8
0
  6
CONTINUOUS
 62
     7
 10
14.071395111986099
 20
8.6601783236539731
 30
0.0
 40
1.897022068273063
 50
113.8274470023
 51
121.3244567317
  0
LINE
  5
66D
  8
0
  6
CONTINUOUS
 62
     7
 10
11.208132369086091
 20
10.41183497715398
 30
0.0
 11
11.16108753398608
 21
10.447522987853979
 31
0.0
  0
LINE
  5
66E
  8
0
  6
CONTINUOUS
 62
     7
 10
11.099011751786101
 20
10.323664538053981
 30
0.0
 11
11.051966916586091
 21
10.35935254875398
 31
0.0
  0
LINE
  5
66F
  8
0
  6
CONTINUOUS
 62
     7
 10
11.16108753398608
 20
10.447522987853979
 30
0.0
 11
11.051966916586091
 21
10.35935254875398
 31
0.0
  0
LINE
  5
670
  8
0
  6
CONTINUOUS
 62
     7
 10
11.09810933908609
 20
10.26806965935398
 30
0.0
 11
11.05106450388608
 21
10.303757669953979
 31
0.0
  0
LINE
  5
671
  8
0
  6
CONTINUOUS
 62
     7
 10
11.051966916586091
 20
10.35935254875398
 30
0.0
 11
11.05106450388608
 21
10.303757669953979
 31
0.0
  0
LINE
  5
672
  8
0
  6
CONTINUOUS
 62
     7
 10
14.62050013778609
 20
11.27000806405397
 30
0.0
 11
14.6675449728861
 21
11.234320053353979
 31
0.0
  0
LINE
  5
673
  8
0
  6
CONTINUOUS
 62
     7
 10
14.62050013778609
 20
11.27000806405397
 30
0.0
 11
11.37534537648609
 21
10.49846339245398
 31
0.0
  0
LINE
  5
674
  8
0
  6
CONTINUOUS
 62
     7
 10
11.0928001623861
 20
9.9409875734539792
 30
0.0
 11
11.0457553272861
 21
9.9766755840539663
 31
0.0
  0
LINE
  5
675
  8
0
  6
CONTINUOUS
 62
     7
 10
11.0891416495861
 20
9.7155978168539701
 30
0.0
 11
11.04209681438609
 21
9.7512858275539802
 31
0.0
  0
LINE
  5
676
  8
0
  6
CONTINUOUS
 62
     7
 10
11.0457553272861
 20
9.9766755840539663
 30
0.0
 11
11.04209681438609
 21
9.7512858275539802
 31
0.0
  0
LINE
  5
677
  8
0
  6
CONTINUOUS
 62
     7
 10
11.2691089545861
 20
10.02977853715398
 30
0.0
 11
11.0457553272861
 21
9.9766755840539663
 31
0.0
  0
LINE
  5
678
  8
0
  6
CONTINUOUS
 62
     7
 10
12.826622358486089
 20
10.605793592353979
 30
0.0
 11
12.798454513286091
 21
10.627161599253981
 31
0.0
  0
LINE
  5
679
  8
0
  6
CONTINUOUS
 62
     7
 10
12.66309043028609
 20
10.482718443953971
 30
0.0
 11
12.616045595086099
 21
10.518406454653981
 31
0.0
  0
LINE
  5
67A
  8
0
  6
CONTINUOUS
 62
     7
 10
12.74304652798609
 20
10.613988194853979
 30
0.0
 11
12.616045595086099
 21
10.518406454653981
 31
0.0
  0
LINE
  5
67B
  8
0
  6
CONTINUOUS
 62
     7
 10
12.616045595086099
 20
10.518406454653981
 30
0.0
 11
12.6146806726861
 21
10.434317768453971
 31
0.0
  0
ARC
  5
67C
  8
0
  6
CONTINUOUS
 62
     7
 10
12.6672193045861
 20
10.29577102455398
 30
0.0
 40
0.1658660835132534
 50
244.32892625700001
 51
266.51800002030001
  0
LINE
  5
67D
  8
0
  6
CONTINUOUS
 62
     7
 10
13.04160088288609
 20
10.58112986735398
 30
0.0
 11
12.9945560476861
 21
10.616817877953981
 31
0.0
  0
LINE
  5
67E
  8
0
  6
CONTINUOUS
 62
     7
 10
12.9406245632861
 20
10.66096292845398
 30
0.0
 11
12.9945560476861
 21
10.616817877953981
 31
0.0
  0
LINE
  5
67F
  8
0
  6
CONTINUOUS
 62
     7
 10
13.0381192528861
 20
10.31637276595397
 30
0.0
 11
12.88986938408609
 21
10.22636715385398
 31
0.0
  0
LINE
  5
680
  8
0
  6
CONTINUOUS
 62
     7
 10
13.0381192528861
 20
10.31637276595397
 30
0.0
 11
13.082718138086101
 21
10.342654959453981
 31
0.0
  0
LINE
  5
681
  8
0
  6
CONTINUOUS
 62
     7
 10
14.107833450786091
 20
8.9177907575539717
 30
0.0
 11
14.060788615686089
 21
8.9534787682539712
 31
0.0
  0
LINE
  5
682
  8
0
  6
CONTINUOUS
 62
     7
 10
13.4557049778861
 20
9.9788481792539816
 30
0.0
 11
14.060788615686089
 21
8.9534787682539712
 31
0.0
  0
POLYLINE
  5
683
  8
0
  6
CONTINUOUS
 62
     7
 66
     1
 10
0.0
 20
0.0
 30
0.0
 70
   128
  0
VERTEX
  5
776F
  8
0
  6
CONTINUOUS
 62
     7
 10
14.060788615686089
 20
8.9534787682539712
 30
0.0
  0
VERTEX
  5
7770
  8
0
  6
CONTINUOUS
 62
     7
 10
14.039592356086089
 20
8.9327198154539662
 30
0.0
  0
VERTEX
  5
7771
  8
0
  6
CONTINUOUS
 62
     7
 10
14.0225094833861
 20
8.9082277158539682
 30
0.0
  0
VERTEX
  5
7772
  8
0
  6
CONTINUOUS
 62
     7
 10
14.010516180386089
 20
8.8814018342539782
 30
0.0
  0
VERTEX
  5
7773
  8
0
  6
CONTINUOUS
 62
     7
 10
14.0042976470861
 20
8.8537745388539708
 30
0.0
  0
VERTEX
  5
7774
  8
0
  6
CONTINUOUS
 62
     7
 10
14.00420878368608
 20
8.8269242722539811
 30
0.0
  0
VERTEX
  5
7775
  8
0
  6
CONTINUOUS
 62
     7
 10
14.010255279986101
 20
8.8023847808539681
 30
0.0
  0
VERTEX
  5
7776
  8
0
  6
CONTINUOUS
 62
     7
 10
14.022090939186089
 20
8.781558072553981
 30
0.0
  0
VERTEX
  5
7777
  8
0
  6
CONTINUOUS
 62
     7
 10
14.036053188286081
 20
8.7677869817539822
 30
0.0
  0
SEQEND
  5
7778
  8
0
  6
CONTINUOUS
 62
     7
  0
LINE
  5
684
  8
0
  6
CONTINUOUS
 62
     7
 10
13.6902408268861
 20
10.735345838353981
 30
0.0
 11
14.663200489086099
 21
10.96666973445398
 31
0.0
  0
LINE
  5
685
  8
0
  6
CONTINUOUS
 62
     7
 10
14.733767741786099
 20
10.913137718453971
 30
0.0
 11
14.8278574120861
 21
10.841761697153981
 31
0.0
  0
LINE
  5
686
  8
0
  6
CONTINUOUS
 62
     7
 10
11.951657323086099
 20
10.15793703665398
 30
0.0
 11
14.8278574120861
 21
10.841761697153981
 31
0.0
  0
POLYLINE
  5
687
  8
0
  6
CONTINUOUS
 62
     7
 66
     1
 10
0.0
 20
0.0
 30
0.0
 70
   128
  0
VERTEX
  5
7779
  8
0
  6
CONTINUOUS
 62
     7
 10
11.91190407258609
 20
10.014966962653981
 30
0.0
  0
VERTEX
  5
777A
  8
0
  6
CONTINUOUS
 62
     7
 10
11.8865896519861
 20
10.02793719275398
 30
0.0
  0
VERTEX
  5
777B
  8
0
  6
CONTINUOUS
 62
     7
 10
11.86708671618609
 20
10.04263039495398
 30
0.0
  0
VERTEX
  5
777C
  8
0
  6
CONTINUOUS
 62
     7
 10
11.8540620517861
 20
10.058544254653979
 30
0.0
  0
VERTEX
  5
777D
  8
0
  6
CONTINUOUS
 62
     7
 10
11.84796089558608
 20
10.075134764353979
 30
0.0
  0
VERTEX
  5
777E
  8
0
  6
CONTINUOUS
 62
     7
 10
11.84899182888608
 20
10.091834759353979
 30
0.0
  0
VERTEX
  5
777F
  8
0
  6
CONTINUOUS
 62
     7
 10
11.857119547986089
 20
10.10807333595398
 30
0.0
  0
VERTEX
  5
7780
  8
0
  6
CONTINUOUS
 62
     7
 10
11.87206628018609
 20
10.123295345553981
 30
0.0
  0
VERTEX
  5
7781
  8
0
  6
CONTINUOUS
 62
     7
 10
11.893321035986091
 20
10.13698044165398
 30
0.0
  0
VERTEX
  5
7782
  8
0
  6
CONTINUOUS
 62
     7
 10
11.92015718898609
 20
10.148660771053979
 30
0.0
  0
VERTEX
  5
7783
  8
0
  6
CONTINUOUS
 62
     7
 10
11.951657323086099
 20
10.15793703665398
 30
0.0
  0
SEQEND
  5
7784
  8
0
  6
CONTINUOUS
 62
     7
  0
POLYLINE
  5
688
  8
0
  6
CONTINUOUS
 62
     7
 66
     1
 10
0.0
 20
0.0
 30
0.0
 70
   128
  0
VERTEX
  5
7785
  8
0
  6
CONTINUOUS
 62
     7
 10
12.366156263686101
 20
9.6343793955539674
 30
0.0
  0
VERTEX
  5
7786
  8
0
  6
CONTINUOUS
 62
     7
 10
12.34468171738609
 20
9.6815703374539819
 30
0.0
  0
VERTEX
  5
7787
  8
0
  6
CONTINUOUS
 62
     7
 10
12.315472380586099
 20
9.7280750500539792
 30
0.0
  0
VERTEX
  5
7788
  8
0
  6
CONTINUOUS
 62
     7
 10
12.278679109386101
 20
9.7736533142539823
 30
0.0
  0
VERTEX
  5
7789
  8
0
  6
CONTINUOUS
 62
     7
 10
12.2344920245861
 20
9.8180696268539815
 30
0.0
  0
VERTEX
  5
778A
  8
0
  6
CONTINUOUS
 62
     7
 10
12.183139358686089
 20
9.8610946124539804
 30
0.0
  0
VERTEX
  5
778B
  8
0
  6
CONTINUOUS
 62
     7
 10
12.12488644138609
 20
9.902505919153981
 30
0.0
  0
VERTEX
  5
778C
  8
0
  6
CONTINUOUS
 62
     7
 10
12.060034181986101
 20
9.9420896540539712
 30
0.0
  0
VERTEX
  5
778D
  8
0
  6
CONTINUOUS
 62
     7
 10
11.98891758628608
 20
9.9796413509539708
 30
0.0
  0
VERTEX
  5
778E
  8
0
  6
CONTINUOUS
 62
     7
 10
11.91190407258609
 20
10.014966962653981
 30
0.0
  0
SEQEND
  5
778F
  8
0
  6
CONTINUOUS
 62
     7
  0
ARC
  5
689
  8
0
  6
CONTINUOUS
 62
     7
 10
12.284670578686081
 20
9.6136797137539673
 30
0.0
 40
0.0840737395965135
 50
294.30436525089999
 51
14.2532723566
  0
ARC
  5
68A
  8
0
  6
CONTINUOUS
 62
     7
 10
12.22398998138608
 20
9.7173909562539702
 30
0.0
 40
0.2039590083704544
 50
263.48100499700001
 51
297.85089629409993
  0
LINE
  5
68B
  8
0
  6
CONTINUOUS
 62
     7
 10
12.200833984586099
 20
9.5147506915539708
 30
0.0
 11
12.231808780486091
 21
9.5647734106539808
 31
0.0
  0
POLYLINE
  5
68C
  8
0
  6
CONTINUOUS
 62
     7
 66
     1
 10
0.0
 20
0.0
 30
0.0
 70
   128
  0
VERTEX
  5
7790
  8
0
  6
CONTINUOUS
 62
     7
 10
12.231808780486091
 20
9.5647734106539808
 30
0.0
  0
VERTEX
  5
7791
  8
0
  6
CONTINUOUS
 62
     7
 10
12.232194399886099
 20
9.5673995048539808
 30
0.0
  0
VERTEX
  5
7792
  8
0
  6
CONTINUOUS
 62
     7
 10
12.230222514386091
 20
9.5699202513539703
 30
0.0
  0
VERTEX
  5
7793
  8
0
  6
CONTINUOUS
 62
     7
 10
12.22619327788609
 20
9.5719519302539808
 30
0.0
  0
VERTEX
  5
7794
  8
0
  6
CONTINUOUS
 62
     7
 10
12.220720257886089
 20
9.5731851164539687
 30
0.0
  0
VERTEX
  5
7795
  8
0
  6
CONTINUOUS
 62
     7
 10
12.214636539386101
 20
9.5734321653539816
 30
0.0
  0
VERTEX
  5
7796
  8
0
  6
CONTINUOUS
 62
     7
 10
12.208868329186091
 20
9.5726554588539674
 30
0.0
  0
VERTEX
  5
7797
  8
0
  6
CONTINUOUS
 62
     7
 10
12.204293881386089
 20
9.5709731692539801
 30
0.0
  0
VERTEX
  5
7798
  8
0
  6
CONTINUOUS
 62
     7
 10
12.201609515586091
 20
9.5686414837539804
 30
0.0
  0
SEQEND
  5
7799
  8
0
  6
CONTINUOUS
 62
     7
  0
LINE
  5
68D
  8
0
  6
CONTINUOUS
 62
     7
 10
12.201609515586091
 20
9.5686414837539804
 30
0.0
 11
12.1706347275861
 21
9.5186187664539688
 31
0.0
  0
POLYLINE
  5
68E
  8
0
  6
CONTINUOUS
 62
     7
 66
     1
 10
0.0
 20
0.0
 30
0.0
 70
   128
  0
VERTEX
  5
779A
  8
0
  6
CONTINUOUS
 62
     7
 10
12.0950922844861
 20
9.5696383144539823
 30
0.0
  0
VERTEX
  5
779B
  8
0
  6
CONTINUOUS
 62
     7
 10
12.096014101286089
 20
9.5617014854539804
 30
0.0
  0
VERTEX
  5
779C
  8
0
  6
CONTINUOUS
 62
     7
 10
12.09968082338608
 20
9.5538784407539712
 30
0.0
  0
VERTEX
  5
779D
  8
0
  6
CONTINUOUS
 62
     7
 10
12.1060089568861
 20
9.5463471722539808
 30
0.0
  0
VERTEX
  5
779E
  8
0
  6
CONTINUOUS
 62
     7
 10
12.1148546094861
 20
9.5392789381539806
 30
0.0
  0
VERTEX
  5
779F
  8
0
  6
CONTINUOUS
 62
     7
 10
12.126016638386091
 20
9.5328344651539805
 30
0.0
  0
VERTEX
  5
77A0
  8
0
  6
CONTINUOUS
 62
     7
 10
12.1392411744861
 20
9.5271603308539792
 30
0.0
  0
VERTEX
  5
77A1
  8
0
  6
CONTINUOUS
 62
     7
 10
12.15422745568609
 20
9.5223855841539802
 30
0.0
  0
VERTEX
  5
77A2
  8
0
  6
CONTINUOUS
 62
     7
 10
12.1706347275861
 20
9.5186187664539688
 30
0.0
  0
SEQEND
  5
77A3
  8
0
  6
CONTINUOUS
 62
     7
  0
POLYLINE
  5
68F
  8
0
  6
CONTINUOUS
 62
     7
 66
     1
 10
0.0
 20
0.0
 30
0.0
 70
   128
  0
VERTEX
  5
77A4
  8
0
  6
CONTINUOUS
 62
     7
 10
11.7550853677861
 20
9.8362696554539806
 30
0.0
  0
VERTEX
  5
77A5
  8
0
  6
CONTINUOUS
 62
     7
 10
11.816199666986099
 20
9.8182666698539816
 30
0.0
  0
VERTEX
  5
77A6
  8
0
  6
CONTINUOUS
 62
     7
 10
11.87270502778609
 20
9.7975930731539815
 30
0.0
  0
VERTEX
  5
77A7
  8
0
  6
CONTINUOUS
 62
     7
 10
11.9239517398861
 20
9.7744865608539815
 30
0.0
  0
VERTEX
  5
77A8
  8
0
  6
CONTINUOUS
 62
     7
 10
11.9693504693861
 20
9.7492128587539781
 30
0.0
  0
VERTEX
  5
77A9
  8
0
  6
CONTINUOUS
 62
     7
 10
12.0083792178861
 20
9.7220625750539682
 30
0.0
  0
VERTEX
  5
77AA
  8
0
  6
CONTINUOUS
 62
     7
 10
12.04058921938609
 20
9.6933478719539821
 30
0.0
  0
VERTEX
  5
77AB
  8
0
  6
CONTINUOUS
 62
     7
 10
12.065609935986091
 20
9.6633990709539805
 30
0.0
  0
VERTEX
  5
77AC
  8
0
  6
CONTINUOUS
 62
     7
 10
12.083153812986099
 20
9.6325604298539815
 30
0.0
  0
VERTEX
  5
77AD
  8
0
  6
CONTINUOUS
 62
     7
 10
12.0930191078861
 20
9.6011865624539681
 30
0.0
  0
VERTEX
  5
77AE
  8
0
  6
CONTINUOUS
 62
     7
 10
12.0950922844861
 20
9.5696383144539823
 30
0.0
  0
SEQEND
  5
77AF
  8
0
  6
CONTINUOUS
 62
     7
  0
ARC
  5
690
  8
0
  6
CONTINUOUS
 62
     7
 10
11.985469550086099
 20
10.827589059653979
 30
0.0
 40
1.017738194516377
 50
235.1461271714999
 51
256.91661792869991
  0
LINE
  5
691
  8
0
  6
CONTINUOUS
 62
     7
 10
11.33708158788609
 20
10.04306862575398
 30
0.0
 11
11.40384702318609
 21
9.9924206521539816
 31
0.0
  0
LINE
  5
692
  8
0
  6
CONTINUOUS
 62
     7
 10
11.592402426286091
 20
10.172519019253979
 30
0.0
 11
11.469963859186089
 21
10.143408905553979
 31
0.0
  0
LINE
  5
693
  8
0
  6
CONTINUOUS
 62
     7
 10
11.78979779358608
 20
10.238199546853981
 30
0.0
 11
11.592402426286091
 21
10.172519019253979
 31
0.0
  0
LINE
  5
694
  8
0
  6
CONTINUOUS
 62
     7
 10
12.9789708550861
 20
10.520928786753981
 30
0.0
 11
11.78979779358608
 21
10.238199546853981
 31
0.0
  0
LINE
  5
695
  8
0
  6
CONTINUOUS
 62
     7
 10
12.840972676286089
 20
10.625613614753981
 30
0.0
 11
12.9789708550861
 21
10.520928786753981
 31
0.0
  0
LINE
  5
696
  8
0
  6
CONTINUOUS
 62
     7
 10
11.6517996147861
 20
10.34288437485398
 30
0.0
 11
12.720405616086101
 21
10.59694845715398
 31
0.0
  0
LINE
  5
697
  8
0
  6
CONTINUOUS
 62
     7
 10
12.810153978286101
 20
10.618286382653981
 30
0.0
 11
12.840972676286089
 21
10.625613614753981
 31
0.0
  0
LINE
  5
698
  8
0
  6
CONTINUOUS
 62
     7
 10
11.430044628186099
 20
10.30785163895397
 30
0.0
 11
11.6517996147861
 21
10.34288437485398
 31
0.0
  0
LINE
  5
699
  8
0
  6
CONTINUOUS
 62
     7
 10
11.17352842658609
 20
10.24792327845398
 30
0.0
 11
11.22820016708609
 21
10.26092163855397
 31
0.0
  0
LINE
  5
69A
  8
0
  6
CONTINUOUS
 62
     7
 10
11.1675830552861
 20
10.25243341175398
 30
0.0
 11
11.17352842658609
 21
10.24792327845398
 31
0.0
  0
LINE
  5
69B
  8
0
  6
CONTINUOUS
 62
     7
 10
10.956683912386101
 20
10.33163667505398
 30
0.0
 11
11.0234493475861
 21
10.28098870145398
 31
0.0
  0
POLYLINE
  5
69C
  8
0
  6
CONTINUOUS
 62
     7
 66
     1
 10
0.0
 20
0.0
 30
0.0
 70
   128
  0
VERTEX
  5
77B0
  8
0
  6
CONTINUOUS
 62
     7
 10
10.826847828086089
 20
10.54042668185398
 30
0.0
  0
VERTEX
  5
77B1
  8
0
  6
CONTINUOUS
 62
     7
 10
10.829134909086079
 20
10.513293125153981
 30
0.0
  0
VERTEX
  5
77B2
  8
0
  6
CONTINUOUS
 62
     7
 10
10.835502385986089
 20
10.486227851953981
 30
0.0
  0
VERTEX
  5
77B3
  8
0
  6
CONTINUOUS
 62
     7
 10
10.84592317798608
 20
10.45934600395398
 30
0.0
  0
VERTEX
  5
77B4
  8
0
  6
CONTINUOUS
 62
     7
 10
10.86035289768609
 20
10.43276198125398
 30
0.0
  0
VERTEX
  5
77B5
  8
0
  6
CONTINUOUS
 62
     7
 10
10.878730218786091
 20
10.406588833153981
 30
0.0
  0
VERTEX
  5
77B6
  8
0
  6
CONTINUOUS
 62
     7
 10
10.9009769426861
 20
10.38093792595398
 30
0.0
  0
VERTEX
  5
77B7
  8
0
  6
CONTINUOUS
 62
     7
 10
10.92699840468609
 20
10.35591839755398
 30
0.0
  0
VERTEX
  5
77B8
  8
0
  6
CONTINUOUS
 62
     7
 10
10.956683912386101
 20
10.33163667505398
 30
0.0
  0
SEQEND
  5
77B9
  8
0
  6
CONTINUOUS
 62
     7
  0
POLYLINE
  5
69D
  8
0
  6
CONTINUOUS
 62
     7
 66
     1
 10
0.0
 20
0.0
 30
0.0
 70
   128
  0
VERTEX
  5
77BA
  8
0
  6
CONTINUOUS
 62
     7
 10
10.469370019886091
 20
10.802904269253981
 30
0.0
  0
VERTEX
  5
77BB
  8
0
  6
CONTINUOUS
 62
     7
 10
10.531613998286099
 20
10.785661798653971
 30
0.0
  0
VERTEX
  5
77BC
  8
0
  6
CONTINUOUS
 62
     7
 10
10.5894345941861
 20
10.76568943885397
 30
0.0
  0
VERTEX
  5
77BD
  8
0
  6
CONTINUOUS
 62
     7
 10
10.6421668223861
 20
10.743216927253981
 30
0.0
  0
VERTEX
  5
77BE
  8
0
  6
CONTINUOUS
 62
     7
 10
10.6892043172861
 20
10.71850267725398
 30
0.0
  0
VERTEX
  5
77BF
  8
0
  6
CONTINUOUS
 62
     7
 10
10.73000635978609
 20
10.69183075605398
 30
0.0
  0
VERTEX
  5
77C0
  8
0
  6
CONTINUOUS
 62
     7
 10
10.76410358518609
 20
10.66350798885397
 30
0.0
  0
VERTEX
  5
77C1
  8
0
  6
CONTINUOUS
 62
     7
 10
10.7911039739861
 20
10.633860029553979
 30
0.0
  0
VERTEX
  5
77C2
  8
0
  6
CONTINUOUS
 62
     7
 10
10.8106970554861
 20
10.603227777453981
 30
0.0
  0
VERTEX
  5
77C3
  8
0
  6
CONTINUOUS
 62
     7
 10
10.82265750548609
 20
10.571963502953979
 30
0.0
  0
VERTEX
  5
77C4
  8
0
  6
CONTINUOUS
 62
     7
 10
10.826847828086089
 20
10.54042668185398
 30
0.0
  0
SEQEND
  5
77C5
  8
0
  6
CONTINUOUS
 62
     7
  0
POLYLINE
  5
69E
  8
0
  6
CONTINUOUS
 62
     7
 66
     1
 10
0.0
 20
0.0
 30
0.0
 70
   128
  0
VERTEX
  5
77C6
  8
0
  6
CONTINUOUS
 62
     7
 10
10.406446908186091
 20
10.85692409875398
 30
0.0
  0
VERTEX
  5
77C7
  8
0
  6
CONTINUOUS
 62
     7
 10
10.40543122358609
 20
10.84901492415398
 30
0.0
  0
VERTEX
  5
77C8
  8
0
  6
CONTINUOUS
 62
     7
 10
10.4071816100861
 20
10.841093306353971
 30
0.0
  0
VERTEX
  5
77C9
  8
0
  6
CONTINUOUS
 62
     7
 10
10.41165831938609
 20
10.833339351553979
 30
0.0
  0
VERTEX
  5
77CA
  8
0
  6
CONTINUOUS
 62
     7
 10
10.41875953158609
 20
10.82592940795397
 30
0.0
  0
VERTEX
  5
77CB
  8
0
  6
CONTINUOUS
 62
     7
 10
10.42832372778609
 20
10.819032009653981
 30
0.0
  0
VERTEX
  5
77CC
  8
0
  6
CONTINUOUS
 62
     7
 10
10.44013342408609
 20
10.81280399805398
 30
0.0
  0
VERTEX
  5
77CD
  8
0
  6
CONTINUOUS
 62
     7
 10
10.4539200687861
 20
10.807386993453971
 30
0.0
  0
VERTEX
  5
77CE
  8
0
  6
CONTINUOUS
 62
     7
 10
10.469370019886091
 20
10.802904269253981
 30
0.0
  0
SEQEND
  5
77CF
  8
0
  6
CONTINUOUS
 62
     7
  0
LINE
  5
69F
  8
0
  6
CONTINUOUS
 62
     7
 10
10.523051117686091
 20
10.84198870325398
 30
0.0
 11
10.406446908186091
 21
10.85692409875398
 31
0.0
  0
POLYLINE
  5
6A0
  8
0
  6
CONTINUOUS
 62
     7
 66
     1
 10
0.0
 20
0.0
 30
0.0
 70
   128
  0
VERTEX
  5
77D0
  8
0
  6
CONTINUOUS
 62
     7
 10
10.53107333738609
 20
10.85494404175398
 30
0.0
  0
VERTEX
  5
77D1
  8
0
  6
CONTINUOUS
 62
     7
 10
10.536546357386101
 20
10.853710855553979
 30
0.0
  0
VERTEX
  5
77D2
  8
0
  6
CONTINUOUS
 62
     7
 10
10.54057552028609
 20
10.85167923255398
 30
0.0
  0
VERTEX
  5
77D3
  8
0
  6
CONTINUOUS
 62
     7
 10
10.542547479386091
 20
10.849158430153979
 30
0.0
  0
VERTEX
  5
77D4
  8
0
  6
CONTINUOUS
 62
     7
 10
10.54216185998609
 20
10.846532335953979
 30
0.0
  0
VERTEX
  5
77D5
  8
0
  6
CONTINUOUS
 62
     7
 10
10.53947749418608
 20
10.844200650453979
 30
0.0
  0
VERTEX
  5
77D6
  8
0
  6
CONTINUOUS
 62
     7
 10
10.53490304638609
 20
10.84251836085398
 30
0.0
  0
VERTEX
  5
77D7
  8
0
  6
CONTINUOUS
 62
     7
 10
10.529134836186079
 20
10.84174165435398
 30
0.0
  0
VERTEX
  5
77D8
  8
0
  6
CONTINUOUS
 62
     7
 10
10.523051117686091
 20
10.84198870325398
 30
0.0
  0
SEQEND
  5
77D9
  8
0
  6
CONTINUOUS
 62
     7
  0
LINE
  5
6A1
  8
0
  6
CONTINUOUS
 62
     7
 10
10.4144691199861
 20
10.86987943545398
 30
0.0
 11
10.53107333738609
 21
10.85494404175398
 31
0.0
  0
ARC
  5
6A2
  8
0
  6
CONTINUOUS
 62
     7
 10
10.5099817944861
 20
10.74138282245398
 30
0.0
 40
0.1601063725094559
 50
85.996330900300009
 51
126.623750218
  0
ARC
  5
6A3
  8
0
  6
CONTINUOUS
 62
     7
 10
10.533807458886089
 20
10.25322027715397
 30
0.0
 40
0.6480016179309365
 50
71.350336392000003
 51
91.118306811000025
  0
LINE
  5
6A4
  8
0
  6
CONTINUOUS
 62
     7
 10
11.212151296686089
 20
10.580608059953979
 30
0.0
 11
11.205493818186101
 21
10.58809956035398
 31
0.0
  0
ARC
  5
6A5
  8
0
  6
CONTINUOUS
 62
     7
 10
10.30426682368609
 20
9.5758677406539672
 30
0.0
 40
1.3631903978019191
 50
54.202156218900008
 51
71.313200404100002
  0
LINE
  5
6A6
  8
0
  6
CONTINUOUS
 62
     7
 10
12.9945560476861
 20
10.616817877953981
 30
0.0
 11
13.04160088288609
 21
10.58112986735398
 31
0.0
  0
LINE
  5
6A7
  8
0
  6
CONTINUOUS
 62
     7
 10
13.04160088288609
 20
10.58112986735398
 30
0.0
 11
13.149707455586091
 21
10.606832509053961
 31
0.0
  0
LINE
  5
6A8
  8
0
  6
CONTINUOUS
 62
     7
 10
12.200833984586099
 20
9.5147506915539708
 30
0.0
 11
12.199462042186081
 21
9.4302295338539714
 31
0.0
  0
ARC
  5
6A9
  8
0
  6
CONTINUOUS
 62
     7
 10
12.222618039086081
 20
9.6328697985539709
 30
0.0
 40
0.2039590083704086
 50
263.48100499700001
 51
297.85089629409993
  0
LINE
  5
6AA
  8
0
  6
CONTINUOUS
 62
     7
 10
12.169262785286101
 20
9.4340976087539712
 30
0.0
 11
12.1706347275861
 21
9.5186187664539688
 31
0.0
  0
POLYLINE
  5
6AB
  8
0
  6
CONTINUOUS
 62
     7
 66
     1
 10
0.0
 20
0.0
 30
0.0
 70
   128
  0
VERTEX
  5
77DA
  8
0
  6
CONTINUOUS
 62
     7
 10
12.093720342186099
 20
9.4851171567539811
 30
0.0
  0
VERTEX
  5
77DB
  8
0
  6
CONTINUOUS
 62
     7
 10
12.09464215898609
 20
9.477180327853981
 30
0.0
  0
VERTEX
  5
77DC
  8
0
  6
CONTINUOUS
 62
     7
 10
12.098308881086091
 20
9.4693572831539807
 30
0.0
  0
VERTEX
  5
77DD
  8
0
  6
CONTINUOUS
 62
     7
 10
12.1046370145861
 20
9.4618260145539814
 30
0.0
  0
VERTEX
  5
77DE
  8
0
  6
CONTINUOUS
 62
     7
 10
12.1134826670861
 20
9.4547577804539813
 30
0.0
  0
VERTEX
  5
77DF
  8
0
  6
CONTINUOUS
 62
     7
 10
12.12464469608609
 20
9.4483133074539811
 30
0.0
  0
VERTEX
  5
77E0
  8
0
  6
CONTINUOUS
 62
     7
 10
12.1378692321861
 20
9.4426391731539674
 30
0.0
  0
VERTEX
  5
77E1
  8
0
  6
CONTINUOUS
 62
     7
 10
12.1528555133861
 20
9.4378644264539702
 30
0.0
  0
VERTEX
  5
77E2
  8
0
  6
CONTINUOUS
 62
     7
 10
12.169262785286101
 20
9.4340976087539712
 30
0.0
  0
SEQEND
  5
77E3
  8
0
  6
CONTINUOUS
 62
     7
  0
LINE
  5
6AC
  8
0
  6
CONTINUOUS
 62
     7
 10
12.200237573286101
 20
9.4841203260539704
 30
0.0
 11
12.169262785286101
 21
9.4340976087539712
 31
0.0
  0
ARC
  5
6AD
  8
0
  6
CONTINUOUS
 62
     7
 10
12.2775159948861
 20
9.5349521460539801
 30
0.0
 40
0.09177926981445
 50
296.10607209189988
 51
354.7061732819999
  0
LINE
  5
6AE
  8
0
  6
CONTINUOUS
 62
     7
 10
12.2003393870861
 20
9.4842769655539811
 30
0.0
 11
12.200237573286101
 21
9.4841203260539704
 31
0.0
  0
POLYLINE
  5
6AF
  8
0
  6
CONTINUOUS
 62
     7
 66
     1
 10
0.0
 20
0.0
 30
0.0
 70
   128
  0
VERTEX
  5
77E4
  8
0
  6
CONTINUOUS
 62
     7
 10
11.753713425486101
 20
9.7517484977539812
 30
0.0
  0
VERTEX
  5
77E5
  8
0
  6
CONTINUOUS
 62
     7
 10
11.81482772468609
 20
9.7337455121539804
 30
0.0
  0
VERTEX
  5
77E6
  8
0
  6
CONTINUOUS
 62
     7
 10
11.871333085486089
 20
9.7130719154539804
 30
0.0
  0
VERTEX
  5
77E7
  8
0
  6
CONTINUOUS
 62
     7
 10
11.92257979758609
 20
9.6899654031539804
 30
0.0
  0
VERTEX
  5
77E8
  8
0
  6
CONTINUOUS
 62
     7
 10
11.9679785270861
 20
9.6646917010539681
 30
0.0
  0
VERTEX
  5
77E9
  8
0
  6
CONTINUOUS
 62
     7
 10
12.007007275586099
 20
9.6375414173539813
 30
0.0
  0
VERTEX
  5
77EA
  8
0
  6
CONTINUOUS
 62
     7
 10
12.039217277086101
 20
9.6088267142539792
 30
0.0
  0
VERTEX
  5
77EB
  8
0
  6
CONTINUOUS
 62
     7
 10
12.06423799368609
 20
9.5788779133539688
 30
0.0
  0
VERTEX
  5
77EC
  8
0
  6
CONTINUOUS
 62
     7
 10
12.08178187068609
 20
9.5480392721539822
 30
0.0
  0
VERTEX
  5
77ED
  8
0
  6
CONTINUOUS
 62
     7
 10
12.091647165586091
 20
9.5166654047539812
 30
0.0
  0
VERTEX
  5
77EE
  8
0
  6
CONTINUOUS
 62
     7
 10
12.093881184286101
 20
9.4962681805539813
 30
0.0
  0
SEQEND
  5
77EF
  8
0
  6
CONTINUOUS
 62
     7
  0
ARC
  5
6B0
  8
0
  6
CONTINUOUS
 62
     7
 10
11.98409760778609
 20
10.74306790195398
 30
0.0
 40
1.017738194516389
 50
235.1461271714999
 51
256.91661792869991
  0
LINE
  5
6B1
  8
0
  6
CONTINUOUS
 62
     7
 10
11.33708158788609
 20
10.04306862575398
 30
0.0
 11
11.335709645586091
 21
9.9585474680539807
 31
0.0
  0
LINE
  5
6B2
  8
0
  6
CONTINUOUS
 62
     7
 10
11.335709645586091
 20
9.9585474680539807
 30
0.0
 11
11.40247508088609
 21
9.9078994945539822
 31
0.0
  0
ARC
  5
6B3
  8
0
  6
CONTINUOUS
 62
     7
 10
11.99109525078609
 20
9.8707522031539803
 30
0.0
 40
0.2067317367434739
 50
101.3852489735
 51
125.4899255878999
  0
LINE
  5
6B4
  8
0
  6
CONTINUOUS
 62
     7
 10
14.82648546978608
 20
10.75724053945398
 30
0.0
 11
14.8278574120861
 21
10.841761697153981
 31
0.0
  0
LINE
  5
6B5
  8
0
  6
CONTINUOUS
 62
     7
 10
11.95028538078609
 20
10.07341587895397
 30
0.0
 11
14.82648546978608
 21
10.75724053945398
 31
0.0
  0
LINE
  5
6B6
  8
0
  6
CONTINUOUS
 62
     7
 10
11.17352842658609
 20
10.24792327845398
 30
0.0
 11
11.172314684886089
 21
10.17314837155398
 31
0.0
  0
LINE
  5
6B7
  8
0
  6
CONTINUOUS
 62
     7
 10
11.174011525386099
 20
10.163843162053981
 30
0.0
 11
11.259340701886099
 21
10.184130413753969
 31
0.0
  0
LINE
  5
6B8
  8
0
  6
CONTINUOUS
 62
     7
 10
11.0234493475861
 20
10.28098870145398
 30
0.0
 11
11.02207740528609
 21
10.19646754375397
 31
0.0
  0
LINE
  5
6B9
  8
0
  6
CONTINUOUS
 62
     7
 10
10.95531197008609
 20
10.247115517353979
 30
0.0
 11
11.02207740528609
 21
10.19646754375397
 31
0.0
  0
LINE
  5
6BA
  8
0
  6
CONTINUOUS
 62
     7
 10
11.6517996147861
 20
10.34288437485398
 30
0.0
 11
11.650427672486099
 21
10.258363217153979
 31
0.0
  0
LINE
  5
6BB
  8
0
  6
CONTINUOUS
 62
     7
 10
11.452720849086081
 20
10.22712959155397
 30
0.0
 11
11.650427672486099
 21
10.258363217153979
 31
0.0
  0
POLYLINE
  5
6BC
  8
0
  6
CONTINUOUS
 62
     7
 66
     1
 10
0.0
 20
0.0
 30
0.0
 70
   128
  0
VERTEX
  5
77F0
  8
0
  6
CONTINUOUS
 62
     7
 10
10.825475885786091
 20
10.45590552425398
 30
0.0
  0
VERTEX
  5
77F1
  8
0
  6
CONTINUOUS
 62
     7
 10
10.827762966686089
 20
10.428771967453979
 30
0.0
  0
VERTEX
  5
77F2
  8
0
  6
CONTINUOUS
 62
     7
 10
10.83413044358608
 20
10.40170669425398
 30
0.0
  0
VERTEX
  5
77F3
  8
0
  6
CONTINUOUS
 62
     7
 10
10.84455123568609
 20
10.37482484625397
 30
0.0
  0
VERTEX
  5
77F4
  8
0
  6
CONTINUOUS
 62
     7
 10
10.858980955386089
 20
10.34824082355397
 30
0.0
  0
VERTEX
  5
77F5
  8
0
  6
CONTINUOUS
 62
     7
 10
10.87735827648609
 20
10.32206767545398
 30
0.0
  0
VERTEX
  5
77F6
  8
0
  6
CONTINUOUS
 62
     7
 10
10.899605000386099
 20
10.29641676835398
 30
0.0
  0
VERTEX
  5
77F7
  8
0
  6
CONTINUOUS
 62
     7
 10
10.9256264623861
 20
10.271397239853981
 30
0.0
  0
VERTEX
  5
77F8
  8
0
  6
CONTINUOUS
 62
     7
 10
10.95531197008609
 20
10.247115517353979
 30
0.0
  0
SEQEND
  5
77F9
  8
0
  6
CONTINUOUS
 62
     7
  0
LINE
  5
6BD
  8
0
  6
CONTINUOUS
 62
     7
 10
12.840972676286089
 20
10.625613614753981
 30
0.0
 11
12.83960073398608
 21
10.541092457053979
 31
0.0
  0
LINE
  5
6BE
  8
0
  6
CONTINUOUS
 62
     7
 10
11.650427672486099
 20
10.258363217153979
 30
0.0
 11
12.61554915728609
 21
10.487823564553979
 31
0.0
  0
LINE
  5
6BF
  8
0
  6
CONTINUOUS
 62
     7
 10
12.82551778918608
 20
10.53774419735398
 30
0.0
 11
12.83960073398608
 21
10.541092457053979
 31
0.0
  0
POLYLINE
  5
6C0
  8
0
  6
CONTINUOUS
 62
     7
 66
     1
 10
0.0
 20
0.0
 30
0.0
 70
   128
  0
VERTEX
  5
77FA
  8
0
  6
CONTINUOUS
 62
     7
 10
10.467998077586101
 20
10.718383111553971
 30
0.0
  0
VERTEX
  5
77FB
  8
0
  6
CONTINUOUS
 62
     7
 10
10.53024205598609
 20
10.70114064095398
 30
0.0
  0
VERTEX
  5
77FC
  8
0
  6
CONTINUOUS
 62
     7
 10
10.5880626518861
 20
10.68116828115398
 30
0.0
  0
VERTEX
  5
77FD
  8
0
  6
CONTINUOUS
 62
     7
 10
10.640794880086091
 20
10.658695769553979
 30
0.0
  0
VERTEX
  5
77FE
  8
0
  6
CONTINUOUS
 62
     7
 10
10.68783237498609
 20
10.633981519553981
 30
0.0
  0
VERTEX
  5
77FF
  8
0
  6
CONTINUOUS
 62
     7
 10
10.7286344174861
 20
10.60730959845398
 30
0.0
  0
VERTEX
  5
7800
  8
0
  6
CONTINUOUS
 62
     7
 10
10.76273164288609
 20
10.57898683115396
 30
0.0
  0
VERTEX
  5
7801
  8
0
  6
CONTINUOUS
 62
     7
 10
10.78973203168608
 20
10.54933887185398
 30
0.0
  0
VERTEX
  5
7802
  8
0
  6
CONTINUOUS
 62
     7
 10
10.809325113186089
 20
10.51870661985398
 30
0.0
  0
VERTEX
  5
7803
  8
0
  6
CONTINUOUS
 62
     7
 10
10.82128556318608
 20
10.48744234535398
 30
0.0
  0
VERTEX
  5
7804
  8
0
  6
CONTINUOUS
 62
     7
 10
10.825475885786091
 20
10.45590552425398
 30
0.0
  0
SEQEND
  5
7805
  8
0
  6
CONTINUOUS
 62
     7
  0
LINE
  5
6C1
  8
0
  6
CONTINUOUS
 62
     7
 10
12.83960073398608
 20
10.541092457053979
 30
0.0
 11
12.893095378986089
 21
10.50051164825398
 31
0.0
  0
POLYLINE
  5
6C2
  8
0
  6
CONTINUOUS
 62
     7
 66
     1
 10
0.0
 20
0.0
 30
0.0
 70
   128
  0
VERTEX
  5
7806
  8
0
  6
CONTINUOUS
 62
     7
 10
10.404037737086099
 20
10.765919888253981
 30
0.0
  0
VERTEX
  5
7807
  8
0
  6
CONTINUOUS
 62
     7
 10
10.40405928128609
 20
10.76449376645397
 30
0.0
  0
VERTEX
  5
7808
  8
0
  6
CONTINUOUS
 62
     7
 10
10.405809667786089
 20
10.756572148653969
 30
0.0
  0
VERTEX
  5
7809
  8
0
  6
CONTINUOUS
 62
     7
 10
10.4102863770861
 20
10.74881819385398
 30
0.0
  0
VERTEX
  5
780A
  8
0
  6
CONTINUOUS
 62
     7
 10
10.417387589286101
 20
10.741408250353979
 30
0.0
  0
VERTEX
  5
780B
  8
0
  6
CONTINUOUS
 62
     7
 10
10.42695178548608
 20
10.73451085195398
 30
0.0
  0
VERTEX
  5
780C
  8
0
  6
CONTINUOUS
 62
     7
 10
10.4387614817861
 20
10.72828284035398
 30
0.0
  0
VERTEX
  5
780D
  8
0
  6
CONTINUOUS
 62
     7
 10
10.45254812648608
 20
10.72286583575398
 30
0.0
  0
VERTEX
  5
780E
  8
0
  6
CONTINUOUS
 62
     7
 10
10.467998077586101
 20
10.718383111553971
 30
0.0
  0
SEQEND
  5
780F
  8
0
  6
CONTINUOUS
 62
     7
  0
LINE
  5
6C3
  8
0
  6
CONTINUOUS
 62
     7
 10
10.4144691199861
 20
10.86987943545398
 30
0.0
 11
10.414242621186091
 21
10.85592554185398
 31
0.0
  0
CIRCLE
  5
6C4
  8
0
  6
CONTINUOUS
 62
     7
 10
1.5982563639860961
 20
9.2433413345539819
 30
0.0
 40
0.0625
  0
LINE
  5
6C5
  8
0
  6
CONTINUOUS
 62
     7
 10
1.5982563639860961
 20
8.9933413345539819
 30
0.0
 11
0.5045063639860971
 21
8.9933413345539819
 31
0.0
  0
LINE
  5
6C6
  8
0
  6
CONTINUOUS
 62
     7
 10
0.5045063639860971
 20
9.4933413345539819
 30
0.0
 11
1.5982563639860961
 21
9.4933413345539819
 31
0.0
  0
ARC
  5
6C7
  8
0
  6
CONTINUOUS
 62
     7
 10
1.5982563639860961
 20
9.2433413345539819
 30
0.0
 40
0.2500000000000018
 50
270.0
 51
90.0
  0
CIRCLE
  5
6C8
  8
0
  6
CONTINUOUS
 62
     7
 10
0.5045063639860971
 20
9.2433413345539819
 30
0.0
 40
0.0625000000000018
  0
ARC
  5
6C9
  8
0
  6
CONTINUOUS
 62
     7
 10
0.5045063639860971
 20
9.2433413345539819
 30
0.0
 40
0.2500000000000018
 50
90.0
 51
270.0
  0
TEXT
  5
6CA
  8
0
 62
     7
 10
7.9587395663860949
 20
7.7983039244539798
 30
0.0
 40
0.1377952756
  1
3/16\" sheet
 41
0.75
  7
SLDTEXTSTYLE0
  0
INSERT
  5
6CB
  8
0
  6
CONTINUOUS
 62
     7
  2
SW_CENTERMARKSYMBOL_0
 10
1.5982563639860961
 20
9.2433413345539819
 30
0.0
  0
INSERT
  5
6CC
  8
0
  6
CONTINUOUS
 62
     7
  2
SW_CENTERMARKSYMBOL_1
 10
0.5045063639860971
 20
9.2433413345539819
 30
0.0
  0
CIRCLE
  5
6CD
  8
0
  6
CONTINUOUS
 62
     7
 10
2.597057385886095
 20
9.2009796044539822
 30
0.0
 40
0.0625
  0
CIRCLE
  5
6CE
  8
0
  6
CONTINUOUS
 62
     7
 10
2.597057385886095
 20
9.2009796044539822
 30
0.0
 40
0.3125
  0
INSERT
  5
6CF
  8
0
  6
CONTINUOUS
 62
     7
  2
SW_CENTERMARKSYMBOL_2
 10
2.597057385886095
 20
9.2009796044539822
 30
0.0
  0
CIRCLE
  5
6D0
  8
0
  6
CONTINUOUS
 62
     7
 10
2.6117939172860951
 20
10.08501988665398
 30
0.0
 40
0.0625000000000009
  0
CIRCLE
  5
6D1
  8
0
  6
CONTINUOUS
 62
     7
 10
2.6117939172860951
 20
10.08501988665398
 30
0.0
 40
0.3125
  0
INSERT
  5
6D2
  8
0
  6
CONTINUOUS
 62
     7
  2
SW_CENTERMARKSYMBOL_3
 10
2.6117939172860951
 20
10.08501988665398
 30
0.0
  0
LINE
  5
6D3
  8
0
  6
CONTINUOUS
 62
     7
 10
10.48084464888608
 20
3.7041132689539791
 30
0.0
 11
8.0433446488860962
 21
3.7041132689539791
 31
0.0
  0
LINE
  5
6D4
  8
0
  6
CONTINUOUS
 62
     7
 10
8.0433446488860962
 20
3.7041132689539791
 30
0.0
 11
8.0433446488860962
 21
3.5166132689539791
 31
0.0
  0
LINE
  5
6D5
  8
0
  6
CONTINUOUS
 62
     7
 10
8.0433446488860962
 20
3.5166132689539791
 30
0.0
 11
10.48084464888608
 21
3.5166132689539791
 31
0.0
  0
LINE
  5
6D6
  8
0
  6
CONTINUOUS
 62
     7
 10
10.48084464888608
 20
3.2353632689539791
 30
0.0
 11
10.48084464888608
 21
3.5166132689539791
 31
0.0
  0
LINE
  5
6D7
  8
0
  6
CONTINUOUS
 62
     7
 10
10.48084464888608
 20
3.2353632689539791
 30
0.0
 11
10.29334464888608
 21
3.2353632689539791
 31
0.0
  0
LINE
  5
6D8
  8
0
  6
CONTINUOUS
 62
     7
 10
10.29334464888608
 20
3.2353632689539791
 30
0.0
 11
10.29334464888608
 21
2.8603632689539782
 31
0.0
  0
LINE
  5
6D9
  8
0
  6
CONTINUOUS
 62
     7
 10
3.6420418359860962
 20
2.8603632689539782
 30
0.0
 11
10.29334464888608
 21
2.8603632689539782
 31
0.0
  0
ARC
  5
6DA
  8
0
  6
CONTINUOUS
 62
     7
 10
3.6420418359860962
 20
2.442156985053979
 30
0.0
 40
0.4182062839632368
 50
90.0
 51
196.08798282020001
  0
ARC
  5
6DB
  8
0
  6
CONTINUOUS
 62
     7
 10
0.2838726297860967
 20
1.47363422235398
 30
0.0
 40
3.076838316508486
 50
339.01679540069989
 51
16.087982820200001
  0
ARC
  5
6DC
  8
0
  6
CONTINUOUS
 62
     7
 10
2.549599318286095
 20
0.6046651771539806
 30
0.0
 40
0.6501894691784405
 50
297.3428648391
 51
339.01679540069989
  0
ARC
  5
6DD
  8
0
  6
CONTINUOUS
 62
     7
 10
2.7364724001860941
 20
0.2432688566539807
 30
0.0
 40
0.2433371014070201
 50
232.37845388400001
 51
297.3428648391
  0
LINE
  5
6DE
  8
0
  6
CONTINUOUS
 62
     7
 10
2.5879289548860962
 20
0.0505312376539795
 30
0.0
 11
2.7585694870860951
 21
0.2211717697539797
 31
0.0
  0
ARC
  5
6DF
  8
0
  6
CONTINUOUS
 62
     7
 10
2.7364724001860941
 20
0.2432688566539807
 30
0.0
 40
0.0312500000000006
 50
315.0
 51
135.0
  0
LINE
  5
6E0
  8
0
  6
CONTINUOUS
 62
     7
 10
2.7143753132860962
 20
0.2653659436539808
 30
0.0
 11
2.5437347810860951
 21
0.0947254114539797
 31
0.0
  0
ARC
  5
6E1
  8
0
  6
CONTINUOUS
 62
     7
 10
2.7364724001860941
 20
0.2432688566539807
 30
0.0
 40
0.2433371014070209
 50
148.43243848540001
 51
217.62154611599991
  0
ARC
  5
6E2
  8
0
  6
CONTINUOUS
 62
     7
 10
1.3704087864860961
 20
1.0826110452539781
 30
0.0
 40
1.3599798061708721
 50
328.43243848539998
 51
29.90222972090001
  0
ARC
  5
6E3
  8
0
  6
CONTINUOUS
 62
     7
 10
4.2163819771860931
 20
2.7192655912539792
 30
0.0
 40
1.9230373283191191
 50
180.0
 51
209.90222972090001
  0
LINE
  5
6E4
  8
0
  6
CONTINUOUS
 62
     7
 10
2.293344648886094
 20
2.9853632689539782
 30
0.0
 11
2.293344648886094
 21
2.7192655912539792
 31
0.0
  0
LINE
  5
6E5
  8
0
  6
CONTINUOUS
 62
     7
 10
2.480844648886094
 20
2.9853632689539782
 30
0.0
 11
2.293344648886094
 21
2.9853632689539782
 31
0.0
  0
LINE
  5
6E6
  8
0
  6
CONTINUOUS
 62
     7
 10
2.480844648886094
 20
3.2603632689539781
 30
0.0
 11
2.480844648886094
 21
2.9853632689539782
 31
0.0
  0
LINE
  5
6E7
  8
0
  6
CONTINUOUS
 62
     7
 10
3.043344648886094
 20
3.2603632689539781
 30
0.0
 11
2.480844648886094
 21
3.2603632689539781
 31
0.0
  0
LINE
  5
6E8
  8
0
  6
CONTINUOUS
 62
     7
 10
3.5433446488860949
 20
3.3353632689539801
 30
0.0
 11
3.043344648886094
 21
3.2603632689539781
 31
0.0
  0
LINE
  5
6E9
  8
0
  6
CONTINUOUS
 62
     7
 10
6.293344648886098
 20
3.3353632689539801
 30
0.0
 11
3.5433446488860949
 21
3.3353632689539801
 31
0.0
  0
LINE
  5
6EA
  8
0
  6
CONTINUOUS
 62
     7
 10
6.293344648886098
 20
3.8853632689539781
 30
0.0
 11
6.293344648886098
 21
3.3353632689539801
 31
0.0
  0
LINE
  5
6EB
  8
0
  6
CONTINUOUS
 62
     7
 10
3.5433446488860949
 20
3.8853632689539781
 30
0.0
 11
6.293344648886098
 21
3.8853632689539781
 31
0.0
  0
LINE
  5
6EC
  8
0
  6
CONTINUOUS
 62
     7
 10
3.043344648886094
 20
3.9603632689539801
 30
0.0
 11
3.5433446488860949
 21
3.8853632689539781
 31
0.0
  0
LINE
  5
6ED
  8
0
  6
CONTINUOUS
 62
     7
 10
2.480844648886094
 20
3.9603632689539801
 30
0.0
 11
3.043344648886094
 21
3.9603632689539801
 31
0.0
  0
LINE
  5
6EE
  8
0
  6
CONTINUOUS
 62
     7
 10
2.480844648886094
 20
4.2353632689539769
 30
0.0
 11
2.480844648886094
 21
3.9603632689539801
 31
0.0
  0
LINE
  5
6EF
  8
0
  6
CONTINUOUS
 62
     7
 10
2.293344648886094
 20
4.2353632689539769
 30
0.0
 11
2.480844648886094
 21
4.2353632689539769
 31
0.0
  0
LINE
  5
6F0
  8
0
  6
CONTINUOUS
 62
     7
 10
2.293344648886094
 20
4.5014609466539781
 30
0.0
 11
2.293344648886094
 21
4.2353632689539769
 31
0.0
  0
ARC
  5
6F1
  8
0
  6
CONTINUOUS
 62
     7
 10
4.2163819771860931
 20
4.5014609466539781
 30
0.0
 40
1.9230373283191191
 50
150.0977702790999
 51
180.0
  0
ARC
  5
6F2
  8
0
  6
CONTINUOUS
 62
     7
 10
1.3704087864860961
 20
6.138115492653978
 30
0.0
 40
1.3599798061708721
 50
330.09777027910008
 51
31.567561514600008
  0
LINE
  5
6F3
  8
0
  6
CONTINUOUS
 62
     7
 10
2.7143753132860962
 20
6.95536059435398
 30
0.0
 11
2.5437347810860951
 21
7.1260011265539802
 31
0.0
  0
ARC
  5
6F4
  8
0
  6
CONTINUOUS
 62
     7
 10
2.7364724001860941
 20
6.977457681253977
 30
0.0
 40
0.0312500000000015
 50
225.0
 51
45.0
  0
LINE
  5
6F5
  8
0
  6
CONTINUOUS
 62
     7
 10
2.5879289548860962
 20
7.1701953003539787
 30
0.0
 11
2.7585694870860951
 21
6.9995547681539811
 31
0.0
  0
ARC
  5
6F6
  8
0
  6
CONTINUOUS
 62
     7
 10
2.549599318286095
 20
6.6160613608539771
 30
0.0
 40
0.6501894691784398
 50
20.983204599299999
 51
62.657135160899998
  0
ARC
  5
6F7
  8
0
  6
CONTINUOUS
 62
     7
 10
0.2838726297860967
 20
5.747092315653977
 30
0.0
 40
3.076838316508486
 50
343.9120171798001
 51
20.983204599299999
  0
ARC
  5
6F8
  8
0
  6
CONTINUOUS
 62
     7
 10
3.6420418359860962
 20
4.7785695529539769
 30
0.0
 40
0.4182062839632368
 50
163.9120171797999
 51
270.0
  0
LINE
  5
6F9
  8
0
  6
CONTINUOUS
 62
     7
 10
10.29334464888608
 20
4.3603632689539769
 30
0.0
 11
3.6420418359860962
 21
4.3603632689539769
 31
0.0
  0
LINE
  5
6FA
  8
0
  6
CONTINUOUS
 62
     7
 10
10.29334464888608
 20
4.3603632689539769
 30
0.0
 11
10.29334464888608
 21
3.9853632689539769
 31
0.0
  0
LINE
  5
6FB
  8
0
  6
CONTINUOUS
 62
     7
 10
10.29334464888608
 20
3.9853632689539769
 30
0.0
 11
10.48084464888608
 21
3.9853632689539769
 31
0.0
  0
LINE
  5
6FC
  8
0
  6
CONTINUOUS
 62
     7
 10
10.48084464888608
 20
3.7041132689539791
 30
0.0
 11
10.48084464888608
 21
3.9853632689539769
 31
0.0
  0
LINE
  5
6FD
  8
0
  6
CONTINUOUS
 62
     7
 10
6.793344648886098
 20
3.7041132689539791
 30
0.0
 11
6.543344648886098
 21
3.7041132689539791
 31
0.0
  0
LINE
  5
6FE
  8
0
  6
CONTINUOUS
 62
     7
 10
6.543344648886098
 20
3.7041132689539791
 30
0.0
 11
6.543344648886098
 21
3.5166132689539791
 31
0.0
  0
LINE
  5
6FF
  8
0
  6
CONTINUOUS
 62
     7
 10
6.543344648886098
 20
3.5166132689539791
 30
0.0
 11
6.793344648886098
 21
3.5166132689539791
 31
0.0
  0
LINE
  5
700
  8
0
  6
CONTINUOUS
 62
     7
 10
6.793344648886098
 20
3.5166132689539791
 30
0.0
 11
6.793344648886098
 21
3.7041132689539791
 31
0.0
  0
ARC
  5
701
  8
0
  6
CONTINUOUS
 62
     7
 10
2.7364724001860941
 20
6.977457681253977
 30
0.0
 40
0.2433371014070203
 50
142.37845388400001
 51
211.56756151459999
  0
ARC
  5
702
  8
0
  6
CONTINUOUS
 62
     7
 10
2.7364724001860941
 20
6.977457681253977
 30
0.0
 40
0.2433371014070201
 50
62.657135160899998
 51
127.621546116
  0
CIRCLE
  5
703
  8
0
  6
CONTINUOUS
 62
     7
 10
1.601424760086096
 20
10.11824498205398
 30
0.0
 40
0.0625
  0
LINE
  5
704
  8
0
  6
CONTINUOUS
 62
     7
 10
1.601424760086096
 20
9.8682449820539802
 30
0.0
 11
0.5076747600860961
 21
9.8682449820539802
 31
0.0
  0
LINE
  5
705
  8
0
  6
CONTINUOUS
 62
     7
 10
0.5076747600860961
 20
10.36824498205398
 30
0.0
 11
1.601424760086096
 21
10.36824498205398
 31
0.0
  0
ARC
  5
706
  8
0
  6
CONTINUOUS
 62
     7
 10
1.601424760086096
 20
10.11824498205398
 30
0.0
 40
0.2500000000000018
 50
270.0
 51
90.0
  0
CIRCLE
  5
707
  8
0
  6
CONTINUOUS
 62
     7
 10
0.5076747600860961
 20
10.11824498205398
 30
0.0
 40
0.0625000000000018
  0
ARC
  5
708
  8
0
  6
CONTINUOUS
 62
     7
 10
0.5076747600860961
 20
10.11824498205398
 30
0.0
 40
0.2500000000000018
 50
90.0
 51
270.0
  0
TEXT
  5
709
  8
0
 62
     7
 10
1.4544680263860941
 20
11.22109169775398
 30
0.0
 40
0.1377952756
  1
1/16\" sheet
 41
0.75
  7
SLDTEXTSTYLE0
  0
INSERT
  5
70A
  8
0
  6
CONTINUOUS
 62
     7
  2
SW_CENTERMARKSYMBOL_4
 10
1.601424760086096
 20
10.11824498205398
 30
0.0
  0
INSERT
  5
70B
  8
0
  6
CONTINUOUS
 62
     7
  2
SW_CENTERMARKSYMBOL_5
 10
0.5076747600860961
 20
10.11824498205398
 30
0.0
  0
CIRCLE
  5
70C
  8
0
  6
CONTINUOUS
 62
     7
 10
11.5905528667861
 20
6.1194309963539757
 30
0.0
 40
0.0625000000000018
  0
ARC
  5
70D
  8
0
  6
CONTINUOUS
 62
     7
 10
14.3405528667861
 20
6.1194309963539757
 30
0.0
 40
0.0625000000000018
 50
270.0
 51
90.0
  0
LINE
  5
70E
  8
0
  6
CONTINUOUS
 62
     7
 10
13.32118761348608
 20
6.1819309963539757
 30
0.0
 11
14.3405528667861
 21
6.1819309963539757
 31
0.0
  0
ARC
  5
70F
  8
0
  6
CONTINUOUS
 62
     7
 10
13.32118761348608
 20
2.681930996353981
 30
0.0
 40
3.499999999999996
 50
90.0
 51
103.7277482224
  0
LINE
  5
710
  8
0
  6
CONTINUOUS
 62
     7
 10
11.649880026186089
 20
5.8765724198539759
 30
0.0
 11
12.4906073824861
 21
6.0819510668539758
 31
0.0
  0
ARC
  5
711
  8
0
  6
CONTINUOUS
 62
     7
 10
11.5905528667861
 20
6.1194309963539757
 30
0.0
 40
0.2500000000000003
 50
180.0
 51
283.72774822240001
  0
LINE
  5
712
  8
0
  6
CONTINUOUS
 62
     7
 10
11.340552866786091
 20
6.5256809963539757
 30
0.0
 11
11.340552866786091
 21
6.1194309963539757
 31
0.0
  0
LINE
  5
713
  8
0
  6
CONTINUOUS
 62
     7
 10
11.7155528667861
 20
6.7131809963539757
 30
0.0
 11
11.340552866786091
 21
6.5256809963539757
 31
0.0
  0
LINE
  5
714
  8
0
  6
CONTINUOUS
 62
     7
 10
11.7155528667861
 20
6.5569309963539757
 30
0.0
 11
11.7155528667861
 21
6.7131809963539757
 31
0.0
  0
LINE
  5
715
  8
0
  6
CONTINUOUS
 62
     7
 10
11.965552866786091
 20
6.3069309963539757
 30
0.0
 11
11.7155528667861
 21
6.5569309963539757
 31
0.0
  0
LINE
  5
716
  8
0
  6
CONTINUOUS
 62
     7
 10
14.3405528667861
 20
6.3069309963539757
 30
0.0
 11
11.965552866786091
 21
6.3069309963539757
 31
0.0
  0
ARC
  5
717
  8
0
  6
CONTINUOUS
 62
     7
 10
14.3405528667861
 20
6.3694309963539757
 30
0.0
 40
0.0625
 50
270.0
 51
180.0
  0
LINE
  5
718
  8
0
  6
CONTINUOUS
 62
     7
 10
13.7155528667861
 20
6.3694309963539757
 30
0.0
 11
14.2780528667861
 21
6.3694309963539757
 31
0.0
  0
LINE
  5
719
  8
0
  6
CONTINUOUS
 62
     7
 10
13.7155528667861
 20
6.5444309963539791
 30
0.0
 11
13.7155528667861
 21
6.3694309963539757
 31
0.0
  0
LINE
  5
71A
  8
0
  6
CONTINUOUS
 62
     7
 10
12.4655528667861
 20
6.5444309963539791
 30
0.0
 11
13.7155528667861
 21
6.5444309963539791
 31
0.0
  0
LINE
  5
71B
  8
0
  6
CONTINUOUS
 62
     7
 10
12.2155528667861
 20
6.4506809963539791
 30
0.0
 11
12.4655528667861
 21
6.5444309963539791
 31
0.0
  0
LINE
  5
71C
  8
0
  6
CONTINUOUS
 62
     7
 10
12.2155528667861
 20
6.5444309963539791
 30
0.0
 11
12.2155528667861
 21
6.4506809963539791
 31
0.0
  0
LINE
  5
71D
  8
0
  6
CONTINUOUS
 62
     7
 10
11.9843028667861
 20
6.7756809963539801
 30
0.0
 11
12.2155528667861
 21
6.5444309963539791
 31
0.0
  0
LINE
  5
71E
  8
0
  6
CONTINUOUS
 62
     7
 10
9.4655528667860942
 20
6.7756809963539801
 30
0.0
 11
11.9843028667861
 21
6.7756809963539801
 31
0.0
  0
LINE
  5
71F
  8
0
  6
CONTINUOUS
 62
     7
 10
8.7155528667860995
 20
6.8762731850539804
 30
0.0
 11
9.4655528667860942
 21
6.7756809963539801
 31
0.0
  0
LINE
  5
720
  8
0
  6
CONTINUOUS
 62
     7
 10
7.7155528667860969
 20
6.8762731850539804
 30
0.0
 11
8.7155528667860995
 21
6.8762731850539804
 31
0.0
  0
LINE
  5
721
  8
0
  6
CONTINUOUS
 62
     7
 10
7.7155528667860969
 20
6.999603733453978
 30
0.0
 11
7.7155528667860969
 21
6.8762731850539804
 31
0.0
  0
LINE
  5
722
  8
0
  6
CONTINUOUS
 62
     7
 10
7.9655528667860969
 20
7.1381809963539791
 30
0.0
 11
7.7155528667860969
 21
6.999603733453978
 31
0.0
  0
LINE
  5
723
  8
0
  6
CONTINUOUS
 62
     7
 10
7.9655528667860969
 20
7.0131809963539791
 30
0.0
 11
7.9655528667860969
 21
7.1381809963539791
 31
0.0
  0
LINE
  5
724
  8
0
  6
CONTINUOUS
 62
     7
 10
8.1530528667860995
 20
7.0131809963539791
 30
0.0
 11
7.9655528667860969
 21
7.0131809963539791
 31
0.0
  0
LINE
  5
725
  8
0
  6
CONTINUOUS
 62
     7
 10
8.1530528667860995
 20
7.1381809963539791
 30
0.0
 11
8.1530528667860995
 21
7.0131809963539791
 31
0.0
  0
LINE
  5
726
  8
0
  6
CONTINUOUS
 62
     7
 10
15.9655528667861
 20
7.1381809963539791
 30
0.0
 11
8.1530528667860995
 21
7.1381809963539791
 31
0.0
  0
LINE
  5
727
  8
0
  6
CONTINUOUS
 62
     7
 10
15.9655528667861
 20
7.1381809963539791
 30
0.0
 11
15.9655528667861
 21
6.8256809963539791
 31
0.0
  0
LINE
  5
728
  8
0
  6
CONTINUOUS
 62
     7
 10
15.9655528667861
 20
6.8256809963539791
 30
0.0
 11
16.153052866786101
 21
6.8256809963539791
 31
0.0
  0
LINE
  5
729
  8
0
  6
CONTINUOUS
 62
     7
 10
16.153052866786101
 20
6.0756809963539791
 30
0.0
 11
16.153052866786101
 21
6.8256809963539791
 31
0.0
  0
LINE
  5
72A
  8
0
  6
CONTINUOUS
 62
     7
 10
16.153052866786101
 20
6.0756809963539791
 30
0.0
 11
15.9655528667861
 21
6.0756809963539791
 31
0.0
  0
LINE
  5
72B
  8
0
  6
CONTINUOUS
 62
     7
 10
15.9655528667861
 20
6.0756809963539791
 30
0.0
 11
15.9655528667861
 21
5.713180996353981
 31
0.0
  0
LINE
  5
72C
  8
0
  6
CONTINUOUS
 62
     7
 10
15.458139982386101
 20
5.713180996353981
 30
0.0
 11
15.9655528667861
 21
5.713180996353981
 31
0.0
  0
ARC
  5
72D
  8
0
  6
CONTINUOUS
 62
     7
 10
15.458139982386101
 20
5.463180996353981
 30
0.0
 40
0.2500000000000018
 50
90.0
 51
214.0
  0
LINE
  5
72E
  8
0
  6
CONTINUOUS
 62
     7
 10
16.697413638886101
 20
3.17880933145398
 30
0.0
 11
15.250880589286091
 21
5.3233827704539793
 31
0.0
  0
ARC
  5
72F
  8
0
  6
CONTINUOUS
 62
     7
 10
14.6248197074861
 20
1.780827072753979
 30
0.0
 40
2.5
 50
0.6004477671999953
 51
34.0
  0
LINE
  5
730
  8
0
  6
CONTINUOUS
 62
     7
 10
14.8746824261861
 20
1.807026069553979
 30
0.0
 11
17.124682426186101
 21
1.807026069553979
 31
0.0
  0
ARC
  5
731
  8
0
  6
CONTINUOUS
 62
     7
 10
14.8746824261861
 20
2.057026069553979
 30
0.0
 40
0.25
 50
119.0
 51
270.0
  0
LINE
  5
732
  8
0
  6
CONTINUOUS
 62
     7
 10
13.28054501168609
 20
4.9329260938539781
 30
0.0
 11
14.753480021186091
 21
2.275680996353981
 31
0.0
  0
ARC
  5
733
  8
0
  6
CONTINUOUS
 62
     7
 10
13.33520874338609
 20
4.9632266951539794
 30
0.0
 40
0.0625000000000007
 50
89.020125938099966
 51
209.0
  0
ARC
  5
734
  8
0
  6
CONTINUOUS
 62
     7
 10
13.3405528667861
 20
5.275680996353981
 30
0.0
 40
0.25
 50
269.02012593810002
 51
180.0
  0
LINE
  5
735
  8
0
  6
CONTINUOUS
 62
     7
 10
9.2155528667860942
 20
5.275680996353981
 30
0.0
 11
13.0905528667861
 21
5.275680996353981
 31
0.0
  0
LINE
  5
736
  8
0
  6
CONTINUOUS
 62
     7
 10
8.4655528667860995
 20
5.650680996353981
 30
0.0
 11
9.2155528667860942
 21
5.275680996353981
 31
0.0
  0
LINE
  5
737
  8
0
  6
CONTINUOUS
 62
     7
 10
8.1530528667860995
 20
5.650680996353981
 30
0.0
 11
8.4655528667860995
 21
5.650680996353981
 31
0.0
  0
LINE
  5
738
  8
0
  6
CONTINUOUS
 62
     7
 10
8.1530528667860995
 20
5.650680996353981
 30
0.0
 11
8.1530528667860995
 21
5.9006809963539757
 31
0.0
  0
LINE
  5
739
  8
0
  6
CONTINUOUS
 62
     7
 10
8.1530528667860995
 20
5.9006809963539757
 30
0.0
 11
7.9655528667860969
 21
5.9006809963539757
 31
0.0
  0
LINE
  5
73A
  8
0
  6
CONTINUOUS
 62
     7
 10
7.9655528667860969
 20
5.9006809963539757
 30
0.0
 11
7.9655528667860969
 21
5.650680996353981
 31
0.0
  0
LINE
  5
73B
  8
0
  6
CONTINUOUS
 62
     7
 10
7.7155528667860969
 20
6.1506809963539757
 30
0.0
 11
7.7155528667860969
 21
5.650680996353981
 31
0.0
  0
LINE
  5
73C
  8
0
  6
CONTINUOUS
 62
     7
 10
8.7155528667860995
 20
6.1506809963539757
 30
0.0
 11
7.7155528667860969
 21
6.1506809963539757
 31
0.0
  0
LINE
  5
73D
  8
0
  6
CONTINUOUS
 62
     7
 10
9.4655528667860942
 20
6.2444309963539757
 30
0.0
 11
8.7155528667860995
 21
6.1506809963539757
 31
0.0
  0
LINE
  5
73E
  8
0
  6
CONTINUOUS
 62
     7
 10
11.0905528667861
 20
6.2444309963539757
 30
0.0
 11
9.4655528667860942
 21
6.2444309963539757
 31
0.0
  0
LINE
  5
73F
  8
0
  6
CONTINUOUS
 62
     7
 10
11.0905528667861
 20
6.1194309963539757
 30
0.0
 11
11.0905528667861
 21
6.2444309963539757
 31
0.0
  0
ARC
  5
740
  8
0
  6
CONTINUOUS
 62
     7
 10
11.5905528667861
 20
6.1194309963539757
 30
0.0
 40
0.5000000000000001
 50
180.0
 51
289.69007517329999
  0
LINE
  5
741
  8
0
  6
CONTINUOUS
 62
     7
 10
12.32800606078608
 20
5.852282225553977
 30
0.0
 11
11.759018952286089
 21
5.6486665350539811
 31
0.0
  0
ARC
  5
742
  8
0
  6
CONTINUOUS
 62
     7
 10
13.507268659286099
 20
2.556930996353981
 30
0.0
 40
3.5
 50
90.0
 51
109.6900751733
  0
LINE
  5
743
  8
0
  6
CONTINUOUS
 62
     7
 10
14.3405528667861
 20
6.0569309963539757
 30
0.0
 11
13.507268659286099
 21
6.0569309963539757
 31
0.0
  0
LINE
  5
744
  8
0
  6
CONTINUOUS
 62
     7
 10
7.7155528667860969
 20
5.650680996353981
 30
0.0
 11
7.9655528667860969
 21
5.650680996353981
 31
0.0
  0
INSERT
  5
745
  8
0
  6
CONTINUOUS
 62
     7
  2
SW_CENTERMARKSYMBOL_6
 10
11.5905528667861
 20
6.1194309963539757
 30
0.0
  0
ARC
  5
746
  8
0
  6
CONTINUOUS
 62
     7
 10
6.215804624386096
 20
1.788753690553978
 30
0.0
 40
0.0624999999999997
 50
300.0
 51
239.99999999999989
  0
LINE
  5
747
  8
0
  6
CONTINUOUS
 62
     7
 10
6.247054624386096
 20
1.7346271028539779
 30
0.0
 11
6.2959987936860964
 21
1.551964976253978
 31
0.0
  0
ARC
  5
748
  8
0
  6
CONTINUOUS
 62
     7
 10
6.215804624386096
 20
1.788753690553978
 30
0.0
 40
0.2499999999999993
 50
288.70990152420001
 51
251.29009847579999
  0
LINE
  5
749
  8
0
  6
CONTINUOUS
 62
     7
 10
6.135610455086093
 20
1.551964976253978
 30
0.0
 11
6.184554624386096
 21
1.7346271028539779
 31
0.0
  0
LINE
  5
74A
  8
0
  6
CONTINUOUS
 62
     7
 10
5.908060196886094
 20
2.003039404853979
 30
0.0
 11
5.4977342935860953
 21
1.413753690553978
 31
0.0
  0
ARC
  5
74B
  8
0
  6
CONTINUOUS
 62
     7
 10
6.215804624386096
 20
1.788753690553978
 30
0.0
 40
0.3750000000000003
 50
34.849904579000011
 51
145.150095421
  0
LINE
  5
74C
  8
0
  6
CONTINUOUS
 62
     7
 10
6.9338749551860941
 20
1.413753690553978
 30
0.0
 11
6.5235490518860919
 21
2.003039404853979
 31
0.0
  0
ARC
  5
74D
  8
0
  6
CONTINUOUS
 62
     7
 10
6.215804624386096
 20
0.9137536905539796
 30
0.0
 40
0.8750000000000001
 50
2.0467130976999921
 51
34.849904579000011
  0
LINE
  5
74E
  8
0
  6
CONTINUOUS
 62
     7
 10
6.840804624386096
 20
0.9450036905539796
 30
0.0
 11
7.0902464105860972
 21
0.9450036905539796
 31
0.0
  0
LINE
  5
74F
  8
0
  6
CONTINUOUS
 62
     7
 10
6.840804624386096
 20
0.7575036905539796
 30
0.0
 11
6.840804624386096
 21
0.9450036905539796
 31
0.0
  0
LINE
  5
750
  8
0
  6
CONTINUOUS
 62
     7
 10
7.0767407064860972
 20
0.7575036905539796
 30
0.0
 11
6.840804624386096
 21
0.7575036905539796
 31
0.0
  0
ARC
  5
751
  8
0
  6
CONTINUOUS
 62
     7
 10
6.215804624386096
 20
0.9137536905539796
 30
0.0
 40
0.8750000000000001
 50
190.28656061149999
 51
349.71343938849992
  0
LINE
  5
752
  8
0
  6
CONTINUOUS
 62
     7
 10
5.590804624386096
 20
0.7575036905539796
 30
0.0
 11
5.354868542286094
 21
0.7575036905539796
 31
0.0
  0
LINE
  5
753
  8
0
  6
CONTINUOUS
 62
     7
 10
5.590804624386096
 20
0.9450036905539796
 30
0.0
 11
5.590804624386096
 21
0.7575036905539796
 31
0.0
  0
LINE
  5
754
  8
0
  6
CONTINUOUS
 62
     7
 10
5.341362838186094
 20
0.9450036905539796
 30
0.0
 11
5.590804624386096
 21
0.9450036905539796
 31
0.0
  0
ARC
  5
755
  8
0
  6
CONTINUOUS
 62
     7
 10
6.215804624386096
 20
0.9137536905539796
 30
0.0
 40
0.8749999999999994
 50
145.150095421
 51
177.95328690229991
  0
LINE
  5
756
  8
0
  6
CONTINUOUS
 62
     7
 10
6.309554624386096
 20
1.2768458792539781
 30
0.0
 11
6.309554624386096
 21
1.413753690553978
 31
0.0
  0
LINE
  5
757
  8
0
  6
CONTINUOUS
 62
     7
 10
6.309554624386096
 20
1.413753690553978
 30
0.0
 11
6.122054624386096
 21
1.413753690553978
 31
0.0
  0
LINE
  5
758
  8
0
  6
CONTINUOUS
 62
     7
 10
6.122054624386096
 20
1.413753690553978
 30
0.0
 11
6.122054624386096
 21
1.2768458792539781
 31
0.0
  0
ARC
  5
759
  8
0
  6
CONTINUOUS
 62
     7
 10
6.215804624386096
 20
0.9137536905539796
 30
0.0
 40
0.3750000000000003
 50
104.4775121859
 51
255.52248781409989
  0
LINE
  5
75A
  8
0
  6
CONTINUOUS
 62
     7
 10
6.122054624386096
 20
0.5506615018539796
 30
0.0
 11
6.122054624386096
 21
0.3012536905539807
 31
0.0
  0
LINE
  5
75B
  8
0
  6
CONTINUOUS
 62
     7
 10
6.122054624386096
 20
0.3012536905539807
 30
0.0
 11
6.309554624386096
 21
0.3012536905539807
 31
0.0
  0
LINE
  5
75C
  8
0
  6
CONTINUOUS
 62
     7
 10
6.309554624386096
 20
0.3012536905539807
 30
0.0
 11
6.309554624386096
 21
0.5506615018539796
 31
0.0
  0
ARC
  5
75D
  8
0
  6
CONTINUOUS
 62
     7
 10
6.215804624386096
 20
0.9137536905539796
 30
0.0
 40
0.3750000000000003
 50
284.47751218590008
 51
75.522487814100003
  0
CIRCLE
  5
75E
  8
0
  6
CONTINUOUS
 62
     7
 10
9.2680246587860964
 20
1.8108254231539791
 30
0.0
 40
0.125
  0
LINE
  5
75F
  8
0
  6
CONTINUOUS
 62
     7
 10
8.7922817019860968
 20
1.8396715769539791
 30
0.0
 11
8.5544102235860962
 21
1.1040946538539811
 31
0.0
  0
ARC
  5
760
  8
0
  6
CONTINUOUS
 62
     7
 10
9.2680246587860964
 20
1.6858254231539791
 30
0.0
 40
0.500000000000001
 50
17.920213139400001
 51
162.0797868606
  0
LINE
  5
761
  8
0
  6
CONTINUOUS
 62
     7
 10
9.9816390939860877
 20
1.1040946538539811
 30
0.0
 11
9.7437676155860942
 21
1.8396715769539791
 31
0.0
  0
ARC
  5
762
  8
0
  6
CONTINUOUS
 62
     7
 10
9.2680246587860964
 20
0.8733254231539795
 30
0.0
 40
0.7500000000000008
 50
162.0797868606
 51
17.920213139400001
  0
LINE
  5
763
  8
0
  6
CONTINUOUS
 62
     7
 10
9.1742746587860875
 20
0.7795754231539798
 30
0.0
 11
9.1742746587860875
 21
0.4983254231539799
 31
0.0
  0
LINE
  5
764
  8
0
  6
CONTINUOUS
 62
     7
 10
9.1742746587860875
 20
0.4983254231539799
 30
0.0
 11
9.3617746587860875
 21
0.4983254231539799
 31
0.0
  0
LINE
  5
765
  8
0
  6
CONTINUOUS
 62
     7
 10
9.3617746587860875
 20
0.4983254231539799
 30
0.0
 11
9.3617746587860875
 21
0.7795754231539798
 31
0.0
  0
LINE
  5
766
  8
0
  6
CONTINUOUS
 62
     7
 10
9.3617746587860875
 20
0.7795754231539798
 30
0.0
 11
9.6430246587860875
 21
0.7795754231539798
 31
0.0
  0
LINE
  5
767
  8
0
  6
CONTINUOUS
 62
     7
 10
9.6430246587860875
 20
0.7795754231539798
 30
0.0
 11
9.6430246587860875
 21
0.9670754231539795
 31
0.0
  0
LINE
  5
768
  8
0
  6
CONTINUOUS
 62
     7
 10
9.6430246587860875
 20
0.9670754231539795
 30
0.0
 11
9.3617746587860875
 21
0.9670754231539795
 31
0.0
  0
LINE
  5
769
  8
0
  6
CONTINUOUS
 62
     7
 10
9.3617746587860875
 20
0.9670754231539795
 30
0.0
 11
9.3617746587860875
 21
1.2483254231539791
 31
0.0
  0
LINE
  5
76A
  8
0
  6
CONTINUOUS
 62
     7
 10
9.3617746587860875
 20
1.2483254231539791
 30
0.0
 11
9.1742746587860875
 21
1.2483254231539791
 31
0.0
  0
LINE
  5
76B
  8
0
  6
CONTINUOUS
 62
     7
 10
9.1742746587860875
 20
1.2483254231539791
 30
0.0
 11
9.1742746587860875
 21
0.9670754231539795
 31
0.0
  0
LINE
  5
76C
  8
0
  6
CONTINUOUS
 62
     7
 10
9.1742746587860875
 20
0.9670754231539795
 30
0.0
 11
8.8930246587860893
 21
0.9670754231539795
 31
0.0
  0
LINE
  5
76D
  8
0
  6
CONTINUOUS
 62
     7
 10
8.8930246587860893
 20
0.9670754231539795
 30
0.0
 11
8.8930246587860893
 21
0.7795754231539798
 31
0.0
  0
LINE
  5
76E
  8
0
  6
CONTINUOUS
 62
     7
 10
8.8930246587860893
 20
0.7795754231539798
 30
0.0
 11
9.1742746587860875
 21
0.7795754231539798
 31
0.0
  0
INSERT
  5
76F
  8
0
  6
CONTINUOUS
 62
     7
  2
SW_CENTERMARKSYMBOL_7
 10
9.2680246587860964
 20
1.8108254231539791
 30
0.0
  0
CIRCLE
  5
770
  8
0
  6
CONTINUOUS
 62
     7
 10
13.206515186986101
 20
1.7761123975539801
 30
0.0
 40
0.0625000000000018
  0
LINE
  5
771
  8
0
  6
CONTINUOUS
 62
     7
 10
11.70651518698609
 20
2.0261123975539781
 30
0.0
 11
13.45651518698609
 21
2.0261123975539781
 31
0.0
  0
LINE
  5
772
  8
0
  6
CONTINUOUS
 62
     7
 10
13.45651518698609
 20
2.0261123975539781
 30
0.0
 11
13.45651518698609
 21
1.7761123975539801
 31
0.0
  0
ARC
  5
773
  8
0
  6
CONTINUOUS
 62
     7
 10
13.206515186986101
 20
1.7761123975539801
 30
0.0
 40
0.2500000000000006
 50
261.86989764579988
 51
0.0
  0
LINE
  5
774
  8
0
  6
CONTINUOUS
 62
     7
 10
13.1711598478861
 20
1.528625024053978
 30
0.0
 11
12.3668705260861
 21
1.6435234986539791
 31
0.0
  0
ARC
  5
775
  8
0
  6
CONTINUOUS
 62
     7
 10
13.455844820486099
 20
0.849791788653979
 30
0.0
 40
1.5000000000000011
 50
154.08766318260001
 51
196.02819735269989
  0
ARC
  5
776
  8
0
  6
CONTINUOUS
 62
     7
 10
11.89401518698609
 20
0.401112397553981
 30
0.0
 40
0.1250000000000007
 50
199.4712206344999
 51
16.028197352699991
  0
ARC
  5
777
  8
0
  6
CONTINUOUS
 62
     7
 10
13.6617821399861
 20
1.0261123975539801
 30
0.0
 40
1.999999999999998
 50
159.51075423820001
 51
199.4712206344999
  0
LINE
  5
778
  8
0
  6
CONTINUOUS
 62
     7
 10
11.78830632878609
 20
1.72617552685398
 30
0.0
 11
11.42115984788609
 21
1.77862502405398
 31
0.0
  0
ARC
  5
779
  8
0
  6
CONTINUOUS
 62
     7
 10
11.456515186986101
 20
2.0261123975539781
 30
0.0
 40
0.2499999999999998
 50
0.0
 51
261.86989764579988
  0
CIRCLE
  5
77A
  8
0
  6
CONTINUOUS
 62
     7
 10
11.456515186986101
 20
2.0261123975539781
 30
0.0
 40
0.0625
  0
ARC
  5
77B
  8
0
  6
CONTINUOUS
 62
     7
 10
12.33151518698609
 20
1.396036125253977
 30
0.0
 40
0.2500000000000016
 50
81.869897645799981
 51
154.08766318260001
  0
INSERT
  5
77C
  8
0
  6
CONTINUOUS
 62
     7
  2
SW_CENTERMARKSYMBOL_8
 10
11.456515186986101
 20
2.0261123975539781
 30
0.0
  0
INSERT
  5
77D
  8
0
  6
CONTINUOUS
 62
     7
  2
SW_CENTERMARKSYMBOL_9
 10
13.206515186986101
 20
1.7761123975539801
 30
0.0
  0
ENDBLK
  5
77F
  8
0
  0
BLOCK
  8
0
 62
     5
  2
_OBLIQUE
 70
     0
 10
0.0
 20
0.0
 30
0.0
  3
_OBLIQUE
  1

  0
LINE
  5
10C5
  8
0
  6
BYBLOCK
 62
     0
 10
-0.5
 20
-0.5
 30
0.0
 11
0.5
 21
0.5
 31
0.0
  0
ENDBLK
  5
10C7
  8
0
 62
     5
  0
BLOCK
  8
0
 62
     1
  2
A$C5907658D
 70
     0
 10
0.0
 20
0.0
 30
0.0
  3
A$C5907658D
  1

  0
LINE
  5
1411
  8
0
 62
     1
 10
0.0
 20
0.0
 30
0.0
 11
5.4544183679308844
 21
0.0
 31
0.0
  0
ENDBLK
  5
1415
  8
0
 62
     1
  0
BLOCK
  8
0
 62
     1
  2
A$C543B4935
 70
     0
 10
0.0
 20
0.0
 30
0.0
  3
A$C543B4935
  1

  0
LINE
  5
141D
  8
0
 62
     1
 10
0.0
 20
0.0
 30
0.0
 11
32.792350061219622
 21
0.0
 31
0.0
  0
LINE
  5
141E
  8
0
 62
     1
 10
32.792350061219622
 20
0.0
 30
0.0
 11
32.792350061219622
 21
1.5
 31
0.0
  0
LINE
  5
141F
  8
0
 62
     1
 10
0.0
 20
1.5
 30
0.0
 11
32.792350061219622
 21
1.5
 31
0.0
  0
ENDBLK
  5
1423
  8
0
 62
     1
  0
BLOCK
  8
0
 62
     1
  2
A$C632E422D
 70
     0
 10
0.0
 20
0.0
 30
0.0
  3
A$C632E422D
  1

  0
LINE
  5
1472
  8
0
 62
     1
 10
0.0
 20
0.0
 30
0.0
 11
1.5
 21
0.0
 31
0.0
  0
ENDBLK
  5
1476
  8
0
 62
     1
  0
BLOCK
  8
0
 62
     1
  2
A$C32BA7A2D
 70
     0
 10
0.0
 20
0.0
 30
0.0
  3
A$C32BA7A2D
  1

  0
LINE
  5
148E
  8
0
 62
     1
 10
0.0
 20
8.9716565890960283
 30
0.0
 11
1.5
 21
8.9716565890960283
 31
0.0
  0
LINE
  5
148F
  8
0
 62
     1
 10
1.5
 20
8.9716565890960283
 30
0.0
 11
1.5
 21
-0.0000000000002274
 31
0.0
  0
LINE
  5
1490
  8
0
 62
     1
 10
0.0
 20
8.9716565890960283
 30
0.0
 11
0.0
 21
-0.0000000000002274
 31
0.0
  0
LINE
  5
1491
  8
0
 62
     1
 10
0.0
 20
-0.0000000000002274
 30
0.0
 11
1.5
 21
-0.0000000000002274
 31
0.0
  0
ENDBLK
  5
1495
  8
0
 62
     1
  0
BLOCK
  8
0
 62
     1
  2
A$C595B02A0
 70
     0
 10
0.0
 20
0.0
 30
0.0
  3
A$C595B02A0
  1

  0
LINE
  5
151C
  8
0
 62
     1
 10
0.0
 20
15.90517401712418
 30
0.0
 11
0.0
 21
0.0
 31
0.0
  0
ENDBLK
  5
1520
  8
0
 62
     1
  0
BLOCK
  8
0
 62
     1
  2
A$C5C113998
 70
     0
 10
0.0
 20
0.0
 30
0.0
  3
A$C5C113998
  1

  0
LINE
  5
1576
  8
0
 62
     1
 10
0.0000000842178451
 20
1.5000001988730101
 30
0.0
 11
0.0000000842178451
 21
0.0000001988730105
 31
0.0
  0
ENDBLK
  5
157A
  8
0
 62
     1
  0
BLOCK
  8
0
 62
     1
  2
A$C1AFA2CE7
 70
     0
 10
0.0
 20
0.0
 30
0.0
  3
A$C1AFA2CE7
  1

  0
POLYLINE
  5
15B7
  8
0
 62
     1
 66
     1
 10
0.0
 20
0.0
 30
0.0
 70
     1
  0
VERTEX
  5
7810
  8
0
 62
     1
 10
0.0
 20
0.0000001988730105
 30
0.0
  0
VERTEX
  5
7811
  8
0
 62
     1
 10
4.9971797546809267
 20
0.0000001988730105
 30
0.0
  0
VERTEX
  5
7812
  8
0
 62
     1
 10
4.9971797546809267
 20
1.5000001988730101
 30
0.0
  0
VERTEX
  5
7813
  8
0
 62
     1
 10
0.0
 20
1.5000001988730101
 30
0.0
  0
SEQEND
  5
7814
  8
0
 62
     1
  0
ENDBLK
  5
15BB
  8
0
 62
     1
  0
BLOCK
  8
0
 62
     1
  2
A$C5D0279A4
 70
     0
 10
0.0
 20
0.0
 30
0.0
  3
A$C5D0279A4
  1

  0
LINE
  5
15F9
  8
0
 62
     1
 10
0.0000000842178451
 20
1.5000001988730101
 30
0.0
 11
0.0000000842178451
 21
0.0000001988730105
 31
0.0
  0
ENDBLK
  5
15FD
  8
0
 62
     1
  0
BLOCK
  8
0
 62
     1
  2
A$C4E727CB4
 70
     0
 10
0.0
 20
0.0
 30
0.0
  3
A$C4E727CB4
  1

  0
LINE
  5
15FF
  8
0
 62
     1
 10
0.00000045487036
 20
0.000000129416037
 30
0.0
 11
0.00000045487036
 21
1.5000001294160361
 31
0.0
  0
ENDBLK
  5
1603
  8
0
 62
     1
  0
BLOCK
  8
0
 62
     1
  2
A$C313B5C36
 70
     0
 10
0.0
 20
0.0
 30
0.0
  3
A$C313B5C36
  1

  0
LINE
  5
16C7
  8
0
 62
     1
 10
0.0000002503437599
 20
-0.0000001471980795
 30
0.0
 11
32.89504175553418
 21
-0.0000001471980795
 31
0.0
  0
ENDBLK
  5
16CB
  8
0
 62
     1
  0
BLOCK
  8
0
 62
     1
  2
A$C2354769A
 70
     0
 10
0.0
 20
0.0
 30
0.0
  3
A$C2354769A
  1

  0
POLYLINE
  5
1731
  8
0
 62
     1
 66
     1
 10
0.0
 20
0.0
 30
0.0
 70
     1
  0
VERTEX
  5
7815
  8
0
 62
     1
 10
0.0000000232286084
 20
0.0000001583395601
 30
0.0
  0
VERTEX
  5
7816
  8
0
 62
     1
 10
4.997179777909535
 20
0.0000001583395601
 30
0.0
  0
VERTEX
  5
7817
  8
0
 62
     1
 10
4.997179777909535
 20
1.500000158339559
 30
0.0
  0
VERTEX
  5
7818
  8
0
 62
     1
 10
0.0000000232286084
 20
1.500000158339559
 30
0.0
  0
SEQEND
  5
7819
  8
0
 62
     1
  0
ENDBLK
  5
1735
  8
0
 62
     1
  0
BLOCK
  8
0
 62
     1
  2
A$C5A8B7936
 70
     0
 10
0.0
 20
0.0
 30
0.0
  3
A$C5A8B7936
  1

  0
LINE
  5
1825
  8
0
 62
     1
 10
1.112411450591777
 20
-0.0000000663322623
 30
0.0
 11
0.0
 21
-0.0000000663322623
 31
0.0
  0
ENDBLK
  5
1829
  8
0
 62
     1
  0
BLOCK
  8
0
 62
     1
  2
A$C49A75FDD
 70
     0
 10
0.0
 20
0.0
 30
0.0
  3
A$C49A75FDD
  1

  0
LINE
  5
182C
  8
0
 62
     1
 10
22.2761063446568
 20
12.5818475152563
 30
0.0
 11
22.2761063446568
 21
8.5818475152562996
 31
0.0
  0
LINE
  5
182D
  8
0
 62
     1
 10
20.776106344656789
 20
8.5818475152562996
 30
0.0
 11
22.2761063446568
 21
8.5818475152562996
 31
0.0
  0
LINE
  5
182E
  8
0
 62
     1
 10
20.776106344656789
 20
12.5818475152563
 30
0.0
 11
22.2761063446568
 21
12.5818475152563
 31
0.0
  0
LINE
  5
182F
  8
0
 62
     1
 10
20.776106344656789
 20
8.5818475152562996
 30
0.0
 11
20.776106344656789
 21
6.8200231256015513
 31
0.0
  0
LINE
  5
1830
  8
0
 62
     1
 10
20.776106317181078
 20
14.34367190491105
 30
0.0
 11
20.776106317181078
 21
12.5818475152563
 31
0.0
  0
LINE
  5
1831
  8
0
 62
     1
 10
17.762541391029981
 20
19.478557174621731
 30
0.0
 11
20.590968515776169
 21
16.650130049875571
 31
0.0
  0
LINE
  5
1832
  8
0
 62
     1
 10
19.530308343996349
 20
15.58946987809577
 30
0.0
 11
20.590968515776169
 21
16.650130049875571
 31
0.0
  0
LINE
  5
1833
  8
0
 62
     1
 10
16.701881219250168
 20
18.417897002841919
 30
0.0
 11
17.762541391029981
 21
19.478557174621731
 31
0.0
  0
LINE
  5
1834
  8
0
 62
     1
 10
19.530308343996349
 20
15.58946987809577
 30
0.0
 11
20.776106317181078
 21
14.34367190491105
 31
0.0
  0
LINE
  5
1835
  8
0
 62
     1
 10
15.456083226637171
 20
19.663694956598391
 30
0.0
 11
16.701881199821901
 21
18.417896983413669
 31
0.0
  0
LINE
  5
1836
  8
0
 62
     1
 10
2.7975491776169701
 20
16.650130002971562
 30
0.0
 11
5.6259763023631564
 21
19.47855712771775
 31
0.0
  0
LINE
  5
1837
  8
0
 62
     1
 10
6.6866364741429551
 20
18.417896955937952
 30
0.0
 11
5.6259763023631564
 21
19.47855712771775
 31
0.0
  0
LINE
  5
1838
  8
0
 62
     1
 10
3.858209349396799
 20
15.58946983119173
 30
0.0
 11
2.7975491776169701
 21
16.650130002971562
 31
0.0
  0
LINE
  5
1839
  8
0
 62
     1
 10
6.6866364741429551
 20
18.417896955937952
 30
0.0
 11
7.932434447327676
 21
19.66369492912267
 31
0.0
  0
LINE
  5
183A
  8
0
 62
     1
 10
2.6124113956403341
 20
14.34367183857875
 30
0.0
 11
3.858209368825058
 21
15.589469811763481
 31
0.0
  0
LINE
  5
183B
  8
0
 62
     1
 10
9.6942588369824296
 20
21.163694956598391
 30
0.0
 11
13.69425883698243
 21
21.163694956598391
 31
0.0
  0
LINE
  5
183C
  8
0
 62
     1
 10
13.69425883698243
 20
19.663694956598391
 30
0.0
 11
13.69425883698243
 21
21.163694956598391
 31
0.0
  0
LINE
  5
183D
  8
0
 62
     1
 10
9.6942588369824296
 20
19.663694956598391
 30
0.0
 11
9.6942588369824296
 21
21.163694956598391
 31
0.0
  0
LINE
  5
183E
  8
0
 62
     1
 10
13.69425883698243
 20
19.663694956598391
 30
0.0
 11
15.456083226637171
 21
19.663694956598391
 31
0.0
  0
LINE
  5
183F
  8
0
 62
     1
 10
7.932434447327676
 20
19.66369492912267
 30
0.0
 11
9.6942588369824296
 21
19.66369492912267
 31
0.0
  0
LINE
  5
1840
  8
0
 62
     1
 10
5.6259763492671482
 20
1.6851377895585811
 30
0.0
 11
2.7975492245209632
 21
4.513564914304764
 31
0.0
  0
LINE
  5
1841
  8
0
 62
     1
 10
3.858209396300778
 20
5.5742250860845672
 30
0.0
 11
2.7975492245209632
 21
4.513564914304764
 31
0.0
  0
LINE
  5
1842
  8
0
 62
     1
 10
6.686636521046962
 20
2.7457979613384111
 30
0.0
 11
5.6259763492671482
 21
1.6851377895585811
 31
0.0
  0
LINE
  5
1843
  8
0
 62
     1
 10
3.858209396300778
 20
5.5742250860845672
 30
0.0
 11
2.6124114231160549
 21
6.8200230592692881
 31
0.0
  0
LINE
  5
1844
  8
0
 62
     1
 10
7.9324345136599552
 20
1.5000000075819451
 30
0.0
 11
6.6866365404752317
 21
2.745797980766667
 31
0.0
  0
LINE
  5
1845
  8
0
 62
     1
 10
20.59096856268016
 20
4.5135649612087443
 30
0.0
 11
17.762541437933969
 21
1.685137836462558
 31
0.0
  0
LINE
  5
1846
  8
0
 62
     1
 10
16.701881266154171
 20
2.7457980082423581
 30
0.0
 11
17.762541437933969
 21
1.685137836462558
 31
0.0
  0
LINE
  5
1847
  8
0
 62
     1
 10
19.530308390900331
 20
5.5742251329885724
 30
0.0
 11
20.59096856268016
 21
4.5135649612087443
 31
0.0
  0
LINE
  5
1848
  8
0
 62
     1
 10
16.701881266154171
 20
2.7457980082423581
 30
0.0
 11
15.45608329296944
 21
1.5000000350576359
 31
0.0
  0
LINE
  5
1849
  8
0
 62
     1
 10
20.776106344656789
 20
6.8200231256015513
 30
0.0
 11
19.530308371472071
 21
5.5742251524168269
 31
0.0
  0
LINE
  5
184A
  8
0
 62
     1
 10
9.6942589033147044
 20
1.5000000075819451
 30
0.0
 11
9.6942589033147044
 21
0.0000000075819457
 31
0.0
  0
LINE
  5
184B
  8
0
 62
     1
 10
13.694258903314701
 20
1.5000000075819171
 30
0.0
 11
13.694258903314701
 21
0.0000000075819173
 31
0.0
  0
LINE
  5
184C
  8
0
 62
     1
 10
9.6942589033147044
 20
1.5000000075819451
 30
0.0
 11
7.9324345136599552
 21
1.5000000075819451
 31
0.0
  0
LINE
  5
184D
  8
0
 62
     1
 10
15.45608329296944
 20
1.5000000350576359
 30
0.0
 11
13.694258903314701
 21
1.5000000350576359
 31
0.0
  0
LINE
  5
184E
  8
0
 62
     1
 10
-0.0000000549514283
 20
8.5818474489240373
 30
0.0
 11
-0.0000000549514283
 21
12.58184744892403
 31
0.0
  0
LINE
  5
184F
  8
0
 62
     1
 10
1.499999945048569
 20
12.58184744892403
 30
0.0
 11
-0.0000000549514283
 21
12.58184744892403
 31
0.0
  0
LINE
  5
1850
  8
0
 62
     1
 10
1.499999945048569
 20
8.5818474489240373
 30
0.0
 11
-0.0000000549514283
 21
8.5818474489240373
 31
0.0
  0
LINE
  5
1851
  8
0
 62
     1
 10
1.499999945048569
 20
12.58184744892403
 30
0.0
 11
1.499999945048569
 21
14.34367183857878
 31
0.0
  0
LINE
  5
1852
  8
0
 62
     1
 10
1.4999999725242781
 20
6.8200230592692881
 30
0.0
 11
1.4999999725242921
 21
8.5818474489240373
 31
0.0
  0
LINE
  5
1853
  8
0
 62
     1
 10
2.6124114231160549
 20
6.8200230592692881
 30
0.0
 11
1.4999999725242781
 21
6.8200230592692881
 31
0.0
  0
LINE
  5
1854
  8
0
 62
     1
 10
1.499999945048569
 20
14.34367183857878
 30
0.0
 11
2.6124113956403341
 21
14.34367183857875
 31
0.0
  0
ENDBLK
  5
1858
  8
0
 62
     1
  0
BLOCK
  8
0
 62
     1
  2
A$C2762024A
 70
     0
 10
0.0
 20
0.0
 30
0.0
  3
A$C2762024A
  1

  0
CIRCLE
  5
1889
  8
0
 62
     1
 10
3.7618543494361321
 20
3.761854302021844
 30
0.0
 40
1.440088373090286
  0
CIRCLE
  5
188A
  8
0
 62
     1
 10
3.7618543494361321
 20
3.761854302021844
 30
0.0
 40
3.7618545070463321
  0
ENDBLK
  5
188E
  8
0
 62
     1
  0
BLOCK
  8
0
 62
     1
  2
A$C0621702F
 70
     0
 10
0.0
 20
0.0
 30
0.0
  3
A$C0621702F
  1

  0
LINE
  5
1898
  8
0
 62
     1
 10
12.843671601931639
 20
8.5818475152562996
 30
0.0
 11
14.343671601931639
 21
8.5818475152562996
 31
0.0
  0
LINE
  5
1899
  8
0
 62
     1
 10
12.843671601931639
 20
12.5818475152563
 30
0.0
 11
14.343671601931639
 21
12.5818475152563
 31
0.0
  0
LINE
  5
189A
  8
0
 62
     1
 10
12.843671601931639
 20
8.5818475152562996
 30
0.0
 11
12.843671601931639
 21
6.8200231256015513
 31
0.0
  0
LINE
  5
189B
  8
0
 62
     1
 10
12.84367157445592
 20
14.34367190491105
 30
0.0
 11
12.84367157445592
 21
12.5818475152563
 31
0.0
  0
LINE
  5
189C
  8
0
 62
     1
 10
9.8301066483048327
 20
19.478557174621731
 30
0.0
 11
12.658533773051021
 21
16.650130049875571
 31
0.0
  0
LINE
  5
189D
  8
0
 62
     1
 10
11.5978736012712
 20
15.58946987809577
 30
0.0
 11
12.658533773051021
 21
16.650130049875571
 31
0.0
  0
LINE
  5
189E
  8
0
 62
     1
 10
8.7694464765250189
 20
18.417897002841919
 30
0.0
 11
9.8301066483048327
 21
19.478557174621731
 31
0.0
  0
LINE
  5
189F
  8
0
 62
     1
 10
11.5978736012712
 20
15.58946987809577
 30
0.0
 11
12.84367157445592
 21
14.34367190491105
 31
0.0
  0
LINE
  5
18A0
  8
0
 62
     1
 10
7.5236484839120248
 20
19.663694956598391
 30
0.0
 11
8.7694464570967483
 21
18.417896983413669
 31
0.0
  0
LINE
  5
18A1
  8
0
 62
     1
 10
1.761824094257278
 20
21.163694956598391
 30
0.0
 11
5.7618240942572783
 21
21.163694956598391
 31
0.0
  0
LINE
  5
18A2
  8
0
 62
     1
 10
5.7618240942572783
 20
19.663694956598391
 30
0.0
 11
5.7618240942572783
 21
21.163694956598391
 31
0.0
  0
LINE
  5
18A3
  8
0
 62
     1
 10
1.761824094257278
 20
19.663694956598391
 30
0.0
 11
1.761824094257278
 21
21.163694956598391
 31
0.0
  0
LINE
  5
18A4
  8
0
 62
     1
 10
5.7618240942572783
 20
19.663694956598391
 30
0.0
 11
7.5236484839120248
 21
19.663694956598391
 31
0.0
  0
LINE
  5
18A5
  8
0
 62
     1
 10
-0.00000029539747
 20
19.66369492912267
 30
0.0
 11
1.761824094257278
 21
19.66369492912267
 31
0.0
  0
LINE
  5
18A6
  8
0
 62
     1
 10
12.658533819955011
 20
4.5135649612087443
 30
0.0
 11
9.8301066952088263
 21
1.685137836462558
 31
0.0
  0
LINE
  5
18A7
  8
0
 62
     1
 10
8.7694465234290249
 20
2.7457980082423581
 30
0.0
 11
9.8301066952088263
 21
1.685137836462558
 31
0.0
  0
LINE
  5
18A8
  8
0
 62
     1
 10
11.597873648175179
 20
5.5742251329885724
 30
0.0
 11
12.658533819955011
 21
4.5135649612087443
 31
0.0
  0
LINE
  5
18A9
  8
0
 62
     1
 10
8.7694465234290249
 20
2.7457980082423581
 30
0.0
 11
7.5236485502443022
 21
1.5000000350576359
 31
0.0
  0
LINE
  5
18AA
  8
0
 62
     1
 10
12.843671601931639
 20
6.8200231256015513
 30
0.0
 11
11.597873628746919
 21
5.5742251524168269
 31
0.0
  0
LINE
  5
18AB
  8
0
 62
     1
 10
5.761824160589553
 20
0.0000000075819173
 30
0.0
 11
1.761824160589553
 21
0.0000000075819457
 31
0.0
  0
LINE
  5
18AC
  8
0
 62
     1
 10
1.761824160589553
 20
1.5000000075819451
 30
0.0
 11
1.761824160589553
 21
0.0000000075819457
 31
0.0
  0
LINE
  5
18AD
  8
0
 62
     1
 10
5.761824160589553
 20
1.5000000075819171
 30
0.0
 11
5.761824160589553
 21
0.0000000075819173
 31
0.0
  0
LINE
  5
18AE
  8
0
 62
     1
 10
1.761824160589553
 20
1.5000000075819451
 30
0.0
 11
-0.0000002290651935
 21
1.5000000075819451
 31
0.0
  0
LINE
  5
18AF
  8
0
 62
     1
 10
7.5236485502443022
 20
1.5000000350576359
 30
0.0
 11
5.761824160589553
 21
1.5000000350576359
 31
0.0
  0
ENDBLK
  5
18B3
  8
0
 62
     1
  0
BLOCK
  8
0
 62
     1
  2
A$C21717CD8
 70
     0
 10
0.0
 20
0.0
 30
0.0
  3
A$C21717CD8
  1

  0
LINE
  5
1965
  8
0
 62
     1
 10
1.4999999725242781
 20
4.0000001380908543
 30
0.0
 11
1.4999999725242781
 21
0.0000001380908543
 31
0.0
  0
LINE
  5
1966
  8
0
 62
     1
 10
-0.0000000274757213
 20
0.0000001380908543
 30
0.0
 11
1.4999999725242781
 21
0.0000001380908543
 31
0.0
  0
LINE
  5
1967
  8
0
 62
     1
 10
-0.0000000274757213
 20
4.0000001380908543
 30
0.0
 11
1.4999999725242781
 21
4.0000001380908543
 31
0.0
  0
ENDBLK
  5
196B
  8
0
 62
     1
  0
BLOCK
  8
0
 62
     1
  2
A$C6C68103B
 70
     0
 10
0.0
 20
0.0
 30
0.0
  3
A$C6C68103B
  1

  0
LINE
  5
19D2
  8
0
 62
     1
 10
7.7913837331693658
 20
3.685752786680323
 30
0.0
 11
9.7353243445659228
 21
1.7195078775582711
 31
0.0
  0
LINE
  5
19D3
  8
0
 62
     1
 10
8.8520436429369056
 20
4.746413011004333
 30
0.0
 11
7.7913834711570731
 21
3.685752839224532
 31
0.0
  0
LINE
  5
19D4
  8
0
 62
     1
 10
8.8520436429369056
 20
4.746413011004333
 30
0.0
 11
10.79598425433346
 21
2.7801681018822801
 31
0.0
  0
LINE
  5
19D5
  8
0
 62
     1
 10
10.79598425433346
 20
2.7801681018822801
 30
0.0
 11
12.74233118690586
 21
4.7002394921414039
 31
0.0
  0
LINE
  5
19D6
  8
0
 62
     1
 10
7.9569372709151898
 20
9.7182247781337026
 30
0.0
 11
9.0175974426949921
 21
8.6575646063538727
 31
0.0
  0
LINE
  5
19D7
  8
0
 62
     1
 10
12.74233118690586
 20
4.7002394921414039
 30
0.0
 11
11.214083383009241
 21
10.8377417285636
 31
0.0
  0
LINE
  5
19D8
  8
0
 62
     1
 10
9.0175974426949921
 20
8.6575646063538727
 30
0.0
 11
11.214083383009241
 21
10.8377417285636
 31
0.0
  0
LINE
  5
19D9
  8
0
 62
     1
 10
7.9569372709151898
 20
9.7182247781337026
 30
0.0
 11
12.54929814934871
 21
14.342046687356801
 31
0.0
  0
LINE
  5
19DA
  8
0
 62
     1
 10
1.0842284800464761
 20
7.0105825065555631
 30
0.0
 11
8.649580808230894
 21
14.62776303135422
 31
0.0
  0
LINE
  5
19DB
  8
0
 62
     1
 10
6.4028177019791741
 20
20.481176370673339
 30
0.0
 11
12.54929814934871
 21
14.342046687356801
 31
0.0
  0
LINE
  5
19DC
  8
0
 62
     1
 10
4.5053758214322812
 20
18.767011836593959
 30
0.0
 11
8.649580808230894
 21
14.62776303135422
 31
0.0
  0
LINE
  5
19DD
  8
0
 62
     1
 10
1.0842284800464761
 20
7.0105825065555631
 30
0.0
 11
3.1725368638182641
 21
4.9443279012722172
 31
0.0
  0
ARC
  5
19DE
  8
0
 62
     1
 10
8.8171375997338952
 20
7.2714031826598919
 30
0.0
 40
5.6273091595534881
 50
227.1797051398872
 51
279.39072279498322
  0
LINE
  5
19DF
  8
0
 62
     1
 10
4.992249049525852
 20
3.1438329584623661
 30
0.0
 11
1.7252666639163861
 21
0.0
 31
0.0
  0
LINE
  5
19E0
  8
0
 62
     1
 10
1.7252666639163861
 20
0.0
 30
0.0
 11
0.0
 21
1.747238946123274
 31
0.0
  0
LINE
  5
19E1
  8
0
 62
     1
 10
0.0
 20
1.747238946123274
 30
0.0
 11
3.1725368638182641
 21
4.9443279012722172
 31
0.0
  0
ENDBLK
  5
19E5
  8
0
 62
     1
  0
BLOCK
  8
0
 62
     1
  2
A$C7DE10BBE
 70
     0
 10
0.0
 20
0.0
 30
0.0
  3
A$C7DE10BBE
  1

  0
LINE
  5
1BED
  8
0
 62
     1
 10
-0.0000003847241317
 20
8.5818472445007767
 30
0.0
 11
-0.0000003847241317
 21
12.58184724450078
 31
0.0
  0
LINE
  5
1BEE
  8
0
 62
     1
 10
1.499999615275867
 20
12.58184724450078
 30
0.0
 11
-0.0000003847241317
 21
12.58184724450078
 31
0.0
  0
LINE
  5
1BEF
  8
0
 62
     1
 10
1.499999615275867
 20
8.5818472445007767
 30
0.0
 11
-0.0000003847241317
 21
8.5818472445007767
 31
0.0
  0
LINE
  5
1BF0
  8
0
 62
     1
 10
1.499999615275867
 20
12.58184724450078
 30
0.0
 11
1.499999615275867
 21
14.34367163415553
 31
0.0
  0
LINE
  5
1BF1
  8
0
 62
     1
 10
1.499999642751588
 20
6.8200228548460302
 30
0.0
 11
1.499999642751588
 21
8.5818472445007767
 31
0.0
  0
LINE
  5
1BF2
  8
0
 62
     1
 10
4.5135645689026944
 20
1.6851375851353221
 30
0.0
 11
1.685137444156481
 21
4.5135647098815053
 31
0.0
  0
LINE
  5
1BF3
  8
0
 62
     1
 10
2.74579761593631
 20
5.5742248816613058
 30
0.0
 11
1.685137444156481
 21
4.5135647098815053
 31
0.0
  0
LINE
  5
1BF4
  8
0
 62
     1
 10
5.5742247406824941
 20
2.745797756915151
 30
0.0
 11
4.5135645689026944
 21
1.6851375851353221
 31
0.0
  0
LINE
  5
1BF5
  8
0
 62
     1
 10
2.74579761593631
 20
5.5742248816613058
 30
0.0
 11
1.499999642751588
 21
6.8200228548460302
 31
0.0
  0
LINE
  5
1BF6
  8
0
 62
     1
 10
6.820022733295473
 20
1.4999998031586861
 30
0.0
 11
5.5742247601107522
 21
2.745797776343406
 31
0.0
  0
LINE
  5
1BF7
  8
0
 62
     1
 10
19.478556782315682
 20
4.5135647567855131
 30
0.0
 11
16.650129657569519
 21
1.6851376320393281
 31
0.0
  0
LINE
  5
1BF8
  8
0
 62
     1
 10
15.58946948578969
 20
2.7457978038191282
 30
0.0
 11
16.650129657569519
 21
1.6851376320393281
 31
0.0
  0
LINE
  5
1BF9
  8
0
 62
     1
 10
18.417896610535848
 20
5.5742249285653411
 30
0.0
 11
19.478556782315682
 21
4.5135647567855131
 31
0.0
  0
LINE
  5
1BFA
  8
0
 62
     1
 10
15.58946948578969
 20
2.7457978038191282
 30
0.0
 11
14.343671512604971
 21
1.499999830634408
 31
0.0
  0
LINE
  5
1BFB
  8
0
 62
     1
 10
19.663694564292332
 20
6.8200229211783201
 30
0.0
 11
18.41789659110762
 21
5.5742249479935992
 31
0.0
  0
LINE
  5
1BFC
  8
0
 62
     1
 10
12.58184712295022
 20
-0.000000196841313
 30
0.0
 11
8.5818471229502222
 21
-0.000000196841313
 31
0.0
  0
LINE
  5
1BFD
  8
0
 62
     1
 10
8.5818471229502222
 20
1.4999998031586861
 30
0.0
 11
8.5818471229502222
 21
-0.000000196841313
 31
0.0
  0
LINE
  5
1BFE
  8
0
 62
     1
 10
12.58184712295022
 20
1.4999998031586861
 30
0.0
 11
12.58184712295022
 21
-0.000000196841313
 31
0.0
  0
LINE
  5
1BFF
  8
0
 62
     1
 10
8.5818471229502222
 20
1.4999998031586861
 30
0.0
 11
6.820022733295473
 21
1.4999998031586861
 31
0.0
  0
LINE
  5
1C00
  8
0
 62
     1
 10
14.343671512604971
 20
1.499999830634408
 30
0.0
 11
12.58184712295022
 21
1.499999830634408
 31
0.0
  0
LINE
  5
1C01
  8
0
 62
     1
 10
16.650129610665509
 20
19.4785569701985
 30
0.0
 11
19.478556735411701
 21
16.650129845452302
 31
0.0
  0
LINE
  5
1C02
  8
0
 62
     1
 10
18.417896563631889
 20
15.589469673672509
 30
0.0
 11
19.478556735411701
 21
16.650129845452302
 31
0.0
  0
LINE
  5
1C03
  8
0
 62
     1
 10
15.589469438885679
 20
18.41789679841866
 30
0.0
 11
16.650129610665509
 21
19.4785569701985
 31
0.0
  0
LINE
  5
1C04
  8
0
 62
     1
 10
18.417896563631889
 20
15.589469673672509
 30
0.0
 11
19.663694536816621
 21
14.343671700487789
 31
0.0
  0
LINE
  5
1C05
  8
0
 62
     1
 10
14.34367144627271
 20
19.663694752175129
 30
0.0
 11
15.58946941945743
 21
18.417896778990411
 31
0.0
  0
LINE
  5
1C06
  8
0
 62
     1
 10
1.685137397252501
 20
16.650129798548331
 30
0.0
 11
4.5135645219986884
 21
19.478556923294519
 31
0.0
  0
LINE
  5
1C07
  8
0
 62
     1
 10
5.5742246937784881
 20
18.417896751514721
 30
0.0
 11
4.5135645219986884
 21
19.478556923294519
 31
0.0
  0
LINE
  5
1C08
  8
0
 62
     1
 10
2.745797569032332
 20
15.5894696267685
 30
0.0
 11
1.685137397252501
 21
16.650129798548331
 31
0.0
  0
LINE
  5
1C09
  8
0
 62
     1
 10
5.5742246937784881
 20
18.417896751514721
 30
0.0
 11
6.8200226669632089
 21
19.66369472469944
 31
0.0
  0
LINE
  5
1C0A
  8
0
 62
     1
 10
1.499999615275867
 20
14.34367163415553
 30
0.0
 11
2.7457975884605901
 21
15.58946960734025
 31
0.0
  0
LINE
  5
1C0B
  8
0
 62
     1
 10
8.5818470566179599
 20
21.163694752175161
 30
0.0
 11
12.58184705661796
 21
21.163694752175129
 31
0.0
  0
LINE
  5
1C0C
  8
0
 62
     1
 10
12.58184705661796
 20
19.663694752175129
 30
0.0
 11
12.58184705661796
 21
21.163694752175129
 31
0.0
  0
LINE
  5
1C0D
  8
0
 62
     1
 10
8.5818470566179599
 20
19.663694752175161
 30
0.0
 11
8.5818470566179599
 21
21.163694752175161
 31
0.0
  0
LINE
  5
1C0E
  8
0
 62
     1
 10
12.58184705661796
 20
19.663694752175129
 30
0.0
 11
14.34367144627271
 21
19.663694752175129
 31
0.0
  0
LINE
  5
1C0F
  8
0
 62
     1
 10
6.8200226669632089
 20
19.66369472469944
 30
0.0
 11
8.5818470566179599
 21
19.66369472469944
 31
0.0
  0
LINE
  5
1C10
  8
0
 62
     1
 10
6.8200226669632089
 20
19.66369472469944
 30
0.0
 11
14.343671512604971
 21
1.499999830634408
 31
0.0
  0
LINE
  5
1C11
  8
0
 62
     1
 10
6.820022733295473
 20
1.4999998031586861
 30
0.0
 11
14.34367144627271
 21
19.663694752175129
 31
0.0
  0
LINE
  5
1C12
  8
0
 62
     1
 10
10.5818470897841
 20
10.58184727766692
 30
0.0
 11
-0.0000003847241317
 21
10.58184727766692
 31
0.0
  0
ENDBLK
  5
1C16
  8
0
 62
     1
  0
BLOCK
  8
0
 62
     1
  2
A$C0EE41E7E
 70
     0
 10
0.0
 20
0.0
 30
0.0
  3
A$C0EE41E7E
  1

  0
LINE
  5
1DD8
  8
0
 62
     1
 10
-0.0000000086237151
 20
0.0000000002353318
 30
0.0
 11
11.17257950058786
 21
0.0000000002353318
 31
0.0
  0
LINE
  5
1DD9
  8
0
 62
     1
 10
11.17257950058786
 20
1.5000000002353311
 30
0.0
 11
11.17257950058786
 21
0.0000000002353318
 31
0.0
  0
LINE
  5
1DDA
  8
0
 62
     1
 10
11.17257950058786
 20
1.5000000002353311
 30
0.0
 11
6.706774200795846
 21
1.5000000002353311
 31
0.0
  0
ENDBLK
  5
1DDE
  8
0
 62
     1
  0
BLOCK
  8
0
 62
     1
  2
A$C434017B0
 70
     0
 10
0.0
 20
0.0
 30
0.0
  3
A$C434017B0
  1

  0
LINE
  5
2409
  8
0
 62
     1
 10
0.0000005122126367
 20
-0.0000000541817826
 30
0.0
 11
0.0000005122126367
 21
1.4999999458182161
 31
0.0
  0
ENDBLK
  5
240D
  8
0
 62
     1
  0
BLOCK
  8
0
 62
     1
  2
A$C3178521D
 70
     0
 10
0.0
 20
0.0
 30
0.0
  3
A$C3178521D
  1

  0
LINE
  5
242C
  8
0
 62
     1
 10
0.0
 20
12.142231539244619
 30
0.0
 11
0.0
 21
0.0
 31
0.0
  0
ENDBLK
  5
2430
  8
0
 62
     1
  0
BLOCK
  8
0
 62
     1
  2
A$C2370291C
 70
     0
 10
0.0
 20
0.0
 30
0.0
  3
A$C2370291C
  1

  0
LINE
  5
246D
  8
0
 62
     1
 10
13.06275993637359
 20
4.0118372617326941
 30
0.0
 11
13.06275993637359
 21
0.0000001586386702
 31
0.0
  0
LINE
  5
246E
  8
0
 62
     1
 10
13.06275963270445
 20
4.0118373890917374
 30
0.0
 11
11.56275963270445
 21
4.0118373890917374
 31
0.0
  0
LINE
  5
246F
  8
0
 62
     1
 10
13.06275963270445
 20
0.0000002859977144
 30
0.0
 11
11.56275963270445
 21
0.0000002859977144
 31
0.0
  0
LINE
  5
2470
  8
0
 62
     1
 10
11.56275963270445
 20
4.0118373890917374
 30
0.0
 11
11.562759579870701
 21
8.648509727846033
 31
0.0
  0
LINE
  5
2471
  8
0
 62
     1
 10
-0.0000006313053973
 20
8.648509727846033
 30
0.0
 11
11.562759571510471
 21
8.648509727846033
 31
0.0
  0
ENDBLK
  5
2475
  8
0
 62
     1
  0
BLOCK
  8
0
 62
     1
  2
A$C04EA13AA
 70
     0
 10
0.0
 20
0.0
 30
0.0
  3
A$C04EA13AA
  1

  0
LINE
  5
2477
  8
0
 62
     1
 10
13.06275993637359
 20
16.154068514979599
 30
0.0
 11
13.06275993637359
 21
12.14223141188557
 31
0.0
  0
LINE
  5
2478
  8
0
 62
     1
 10
13.06275963270445
 20
16.15406864233864
 30
0.0
 11
11.56275963270445
 21
16.15406864233864
 31
0.0
  0
LINE
  5
2479
  8
0
 62
     1
 10
13.06275963270445
 20
12.142231539244619
 30
0.0
 11
11.56275963270445
 21
12.142231539244619
 31
0.0
  0
LINE
  5
247A
  8
0
 62
     1
 10
11.56275963270445
 20
12.142231539244619
 30
0.0
 11
11.56275963270445
 21
0.0
 31
0.0
  0
LINE
  5
247B
  8
0
 62
     1
 10
11.56275963270445
 20
16.15406864233864
 30
0.0
 11
11.562759579870701
 21
20.790740981092949
 31
0.0
  0
LINE
  5
247C
  8
0
 62
     1
 10
-0.0000006313053973
 20
20.790740981092949
 30
0.0
 11
11.562759571510471
 21
20.790740981092949
 31
0.0
  0
LINE
  5
247D
  8
0
 62
     1
 10
11.56275963270445
 20
0.0
 30
0.0
 11
-0.0000006313053973
 21
20.790740981092949
 31
0.0
  0
LINE
  5
247E
  8
0
 62
     1
 10
13.06275993637359
 20
25.976627973356361
 30
0.0
 11
13.06275993637359
 21
29.988465076450389
 31
0.0
  0
LINE
  5
247F
  8
0
 62
     1
 10
13.06275963270445
 20
25.97662784599731
 30
0.0
 11
11.56275963270445
 21
25.97662784599731
 31
0.0
  0
LINE
  5
2480
  8
0
 62
     1
 10
13.06275963270445
 20
29.988464949091341
 30
0.0
 11
11.56275963270445
 21
29.988464949091341
 31
0.0
  0
LINE
  5
2481
  8
0
 62
     1
 10
11.56275963270445
 20
29.988464949091341
 30
0.0
 11
11.56275963270445
 21
42.130696488335929
 31
0.0
  0
LINE
  5
2482
  8
0
 62
     1
 10
11.56275963270445
 20
25.97662784599731
 30
0.0
 11
11.562759579870701
 21
21.339955507243019
 31
0.0
  0
LINE
  5
2483
  8
0
 62
     1
 10
-0.0000006313053973
 20
21.339955507243019
 30
0.0
 11
11.562759571510471
 21
21.339955507243019
 31
0.0
  0
LINE
  5
2484
  8
0
 62
     1
 10
11.56275963270445
 20
42.130696488335929
 30
0.0
 11
-0.0000006313053973
 21
21.339955507243019
 31
0.0
  0
ENDBLK
  5
2488
  8
0
 62
     1
  0
BLOCK
  8
0
 62
     1
  2
A$C22A46A13
 70
     0
 10
0.0
 20
0.0
 30
0.0
  3
A$C22A46A13
  1

  0
LINE
  5
24FB
  8
0
 62
     1
 10
-0.0000003036691396
 20
4.0118372617558284
 30
0.0
 11
-0.0000003036691396
 21
0.0000001586618055
 31
0.0
  0
LINE
  5
24FC
  8
0
 62
     1
 10
0.0
 20
4.0118373891148709
 30
0.0
 11
1.5
 21
4.0118373891148709
 31
0.0
  0
LINE
  5
24FD
  8
0
 62
     1
 10
0.0
 20
0.0000002860208497
 30
0.0
 11
1.5
 21
0.0000002860208497
 31
0.0
  0
LINE
  5
24FE
  8
0
 62
     1
 10
1.5
 20
4.0118373891148709
 30
0.0
 11
1.50000005283374
 21
8.6485097278691683
 31
0.0
  0
LINE
  5
24FF
  8
0
 62
     1
 10
13.062760264009849
 20
8.6485097278691683
 30
0.0
 11
1.5000000611939861
 21
8.6485097278691683
 31
0.0
  0
ENDBLK
  5
2503
  8
0
 62
     1
  0
BLOCK
  8
0
 62
     1
  2
A$C6E4D4D8A
 70
     0
 10
0.0
 20
0.0
 30
0.0
  3
A$C6E4D4D8A
  1

  0
LINE
  5
2558
  8
0
 62
     1
 10
0.0000001140523409
 20
4.9327358538440631
 30
0.0
 11
3.030380497644614
 21
4.9327358538440631
 31
0.0
  0
LINE
  5
2559
  8
0
 62
     1
 10
4.5303804976446118
 20
4.9327358538440631
 30
0.0
 11
6.2273942606594801
 21
4.9327358538440631
 31
0.0
  0
LINE
  5
255A
  8
0
 62
     1
 10
4.6843435533940001
 20
-0.0000002700297159
 30
0.0
 11
6.2273942606594801
 21
-0.0000002700297159
 31
0.0
  0
ARC
  5
255B
  8
0
 62
     1
 10
5.92636636098183
 20
3.8452955677310849
 30
0.0
 40
1.128336905470086
 50
1.8717521281700391
 51
74.526716070803559
  0
ARC
  5
255C
  8
0
 62
     1
 10
6.1021526617381312
 20
0.8856376625238198
 30
0.0
 40
0.8944495545742315
 50
278.04905352514828
 51
351.2961282875965
  0
ARC
  5
255D
  8
0
 62
     1
 10
-9.1061027584050578
 20
2.665324366568099
 30
0.0
 40
16.20595128683075
 50
353.21355586140061
 51
4.3061117857028144
  0
LINE
  5
255E
  8
0
 62
     1
 10
3.030380497644614
 20
2.527911544452023
 30
0.0
 11
4.5303804976446118
 21
2.527911544452023
 31
0.0
  0
LINE
  5
255F
  8
0
 62
     1
 10
3.030380497644614
 20
4.9327358538440631
 30
0.0
 11
3.030380497644614
 21
2.527911544452023
 31
0.0
  0
LINE
  5
2560
  8
0
 62
     1
 10
4.5303804976446118
 20
4.9327358538440631
 30
0.0
 11
4.5303804976446118
 21
2.527911544452023
 31
0.0
  0
ENDBLK
  5
2564
  8
0
 62
     1
  0
BLOCK
  8
0
 62
     1
  2
A$C53410B58
 70
     0
 10
0.0
 20
0.0
 30
0.0
  3
A$C53410B58
  1

  0
LINE
  5
371D
  8
0
 62
     1
 10
-0.0000032719053706
 20
-0.0000017401507648
 30
0.0
 11
157.9999967280946
 21
-0.0000017401507648
 31
0.0
  0
ENDBLK
  5
3721
  8
0
 62
     1
  0
BLOCK
  8
0
 62
     1
  2
A$C69487760
 70
     0
 10
0.0
 20
0.0
 30
0.0
  3
A$C69487760
  1

  0
LINE
  5
3DD1
  8
0
 62
     1
 10
150.00000332887791
 20
0.0000019654544303
 30
0.0
 11
0.0000033288779377
 21
0.0000019654544303
 31
0.0
  0
ENDBLK
  5
3DD5
  8
0
 62
     1
  0
BLOCK
  8
0
 62
     1
  2
A$C39712C4C
 70
     0
 10
0.0
 20
0.0
 30
0.0
  3
A$C39712C4C
  1

  0
LINE
  5
3DE2
  8
0
 62
     1
 10
3.9999973231660979
 20
44.000000727592123
 30
0.0
 11
3.9999973231660979
 21
34.000000727592123
 31
0.0
  0
LINE
  5
3DE3
  8
0
 62
     1
 10
3.9999973231660979
 20
34.000000727592123
 30
0.0
 11
-0.0000026768339012
 21
34.000000727592123
 31
0.0
  0
LINE
  5
3DE4
  8
0
 62
     1
 10
-0.0000026768339012
 20
34.000000727592123
 30
0.0
 11
-0.0000026768339012
 21
24.00000072759212
 31
0.0
  0
LINE
  5
3DE5
  8
0
 62
     1
 10
-0.0000026768339012
 20
24.00000072759212
 30
0.0
 11
3.9999973231660979
 21
24.00000072759212
 31
0.0
  0
LINE
  5
3DE6
  8
0
 62
     1
 10
3.9999973231660979
 20
24.00000072759212
 30
0.0
 11
3.9999973231660979
 21
14.00000072759212
 31
0.0
  0
LINE
  5
3DE7
  8
0
 62
     1
 10
3.9999973231660979
 20
14.00000072759212
 30
0.0
 11
-0.0000026768339012
 21
14.00000072759212
 31
0.0
  0
LINE
  5
3DE8
  8
0
 62
     1
 10
-0.0000026768339012
 20
14.00000072759212
 30
0.0
 11
-0.0000026768339012
 21
4.0000007275921234
 31
0.0
  0
LINE
  5
3DE9
  8
0
 62
     1
 10
95.999997323166085
 20
44.000000727592123
 30
0.0
 11
95.999997323166085
 21
34.000000727592123
 31
0.0
  0
LINE
  5
3DEA
  8
0
 62
     1
 10
95.999997323166085
 20
34.000000727592123
 30
0.0
 11
99.999997323166085
 21
34.000000727592123
 31
0.0
  0
LINE
  5
3DEB
  8
0
 62
     1
 10
99.999997323166085
 20
34.000000727592123
 30
0.0
 11
99.999997323166085
 21
24.00000072759212
 31
0.0
  0
LINE
  5
3DEC
  8
0
 62
     1
 10
99.999997323166085
 20
24.00000072759212
 30
0.0
 11
95.999997323166085
 21
24.00000072759212
 31
0.0
  0
LINE
  5
3DED
  8
0
 62
     1
 10
95.999997323166085
 20
24.00000072759212
 30
0.0
 11
95.999997323166085
 21
14.00000072759212
 31
0.0
  0
LINE
  5
3DEE
  8
0
 62
     1
 10
95.999997323166085
 20
14.00000072759212
 30
0.0
 11
99.999997323166085
 21
14.00000072759212
 31
0.0
  0
LINE
  5
3DEF
  8
0
 62
     1
 10
99.999997323166085
 20
14.00000072759212
 30
0.0
 11
99.999997323166085
 21
4.0000007275921234
 31
0.0
  0
LINE
  5
3DF0
  8
0
 62
     1
 10
-0.0000026768339012
 20
4.0000007275921234
 30
0.0
 11
34.999997323166099
 21
4.0000007275921234
 31
0.0
  0
LINE
  5
3DF1
  8
0
 62
     1
 10
64.999997323166085
 20
4.0000007275921234
 30
0.0
 11
99.999997323166085
 21
4.0000007275921234
 31
0.0
  0
POLYLINE
  5
3DF2
  8
0
 62
     1
 66
     1
 10
0.0
 20
0.0
 30
0.0
  0
VERTEX
  5
7855
  8
0
 62
     1
 10
34.999997323166099
 20
4.0000007275921234
 30
0.0
  0
VERTEX
  5
7856
  8
0
 62
     1
 10
34.999997323166099
 20
0.0000007275921234
 30
0.0
  0
VERTEX
  5
7857
  8
0
 62
     1
 10
64.999997323166085
 20
0.0000007275921234
 30
0.0
  0
VERTEX
  5
7858
  8
0
 62
     1
 10
64.999997323166085
 20
4.0000007275921234
 30
0.0
  0
SEQEND
  5
7859
  8
0
 62
     1
  0
ENDBLK
  5
3DF6
  8
0
 62
     1
  0
BLOCK
  8
0
 62
     1
  2
A$C21CC0A77
 70
     0
 10
0.0
 20
0.0
 30
0.0
  3
A$C21CC0A77
  1

  0
LINE
  5
3E6F
  8
0
 62
     1
 10
150.00000300223289
 20
64.000000353202267
 30
0.0
 11
0.0000030022329156
 21
64.000000353202267
 31
0.0
  0
LINE
  5
3E70
  8
0
 62
     1
 10
0.0000030022329156
 20
64.000000353202267
 30
0.0
 11
0.0000030022329156
 21
54.000000353202267
 31
0.0
  0
LINE
  5
3E71
  8
0
 62
     1
 10
0.0000030022329156
 20
54.000000353202267
 30
0.0
 11
4.0000030022329147
 21
54.000000353202267
 31
0.0
  0
LINE
  5
3E72
  8
0
 62
     1
 10
4.0000030022329147
 20
54.000000353202267
 30
0.0
 11
4.0000030022329147
 21
44.000000353202267
 31
0.0
  0
LINE
  5
3E73
  8
0
 62
     1
 10
4.0000030022329147
 20
44.000000353202267
 30
0.0
 11
0.0000030022329156
 21
44.000000353202267
 31
0.0
  0
LINE
  5
3E74
  8
0
 62
     1
 10
0.0000030022329156
 20
44.000000353202267
 30
0.0
 11
0.0000030022329156
 21
34.000000353202267
 31
0.0
  0
LINE
  5
3E75
  8
0
 62
     1
 10
0.0000030022329156
 20
34.000000353202267
 30
0.0
 11
4.0000030022329147
 21
34.000000353202267
 31
0.0
  0
LINE
  5
3E76
  8
0
 62
     1
 10
4.0000030022329147
 20
34.000000353202267
 30
0.0
 11
4.0000030022329147
 21
24.000000353202271
 31
0.0
  0
LINE
  5
3E77
  8
0
 62
     1
 10
4.0000030022329147
 20
24.000000353202271
 30
0.0
 11
0.0000030022329156
 21
24.000000353202271
 31
0.0
  0
LINE
  5
3E78
  8
0
 62
     1
 10
0.0000030022329156
 20
24.000000353202271
 30
0.0
 11
0.0000030022329156
 21
14.000000353202269
 31
0.0
  0
LINE
  5
3E79
  8
0
 62
     1
 10
0.0000030022329156
 20
14.000000353202269
 30
0.0
 11
4.0000030022329147
 21
14.000000353202269
 31
0.0
  0
LINE
  5
3E7A
  8
0
 62
     1
 10
4.0000030022329147
 20
14.000000353202269
 30
0.0
 11
4.0000030022329147
 21
4.0000003532022674
 31
0.0
  0
LINE
  5
3E7B
  8
0
 62
     1
 10
150.00000300223289
 20
64.000000353202267
 30
0.0
 11
150.00000300223289
 21
54.000000353202267
 31
0.0
  0
LINE
  5
3E7C
  8
0
 62
     1
 10
150.00000300223289
 20
54.000000353202267
 30
0.0
 11
146.00000300223289
 21
54.000000353202267
 31
0.0
  0
LINE
  5
3E7D
  8
0
 62
     1
 10
146.00000300223289
 20
54.000000353202267
 30
0.0
 11
146.00000300223289
 21
44.000000353202267
 31
0.0
  0
LINE
  5
3E7E
  8
0
 62
     1
 10
146.00000300223289
 20
44.000000353202267
 30
0.0
 11
150.00000300223289
 21
44.000000353202267
 31
0.0
  0
LINE
  5
3E7F
  8
0
 62
     1
 10
150.00000300223289
 20
44.000000353202267
 30
0.0
 11
150.00000300223289
 21
34.000000353202267
 31
0.0
  0
LINE
  5
3E80
  8
0
 62
     1
 10
150.00000300223289
 20
34.000000353202267
 30
0.0
 11
146.00000300223289
 21
34.000000353202267
 31
0.0
  0
LINE
  5
3E81
  8
0
 62
     1
 10
146.00000300223289
 20
34.000000353202267
 30
0.0
 11
146.00000300223289
 21
24.000000353202271
 31
0.0
  0
LINE
  5
3E82
  8
0
 62
     1
 10
146.00000300223289
 20
24.000000353202271
 30
0.0
 11
150.00000300223289
 21
24.000000353202271
 31
0.0
  0
LINE
  5
3E83
  8
0
 62
     1
 10
150.00000300223289
 20
24.000000353202271
 30
0.0
 11
150.00000300223289
 21
14.000000353202269
 31
0.0
  0
LINE
  5
3E84
  8
0
 62
     1
 10
150.00000300223289
 20
14.000000353202269
 30
0.0
 11
146.00000300223289
 21
14.000000353202269
 31
0.0
  0
LINE
  5
3E85
  8
0
 62
     1
 10
146.00000300223289
 20
14.000000353202269
 30
0.0
 11
146.00000300223289
 21
4.0000003532022674
 31
0.0
  0
LINE
  5
3E86
  8
0
 62
     1
 10
146.00000300223289
 20
4.0000003532022674
 30
0.0
 11
127.5000030022329
 21
4.0000003532022674
 31
0.0
  0
LINE
  5
3E87
  8
0
 62
     1
 10
97.500003002232916
 20
4.0000003532022674
 30
0.0
 11
52.500003002232908
 21
4.0000003532022674
 31
0.0
  0
LINE
  5
3E88
  8
0
 62
     1
 10
22.500003002232919
 20
4.0000003532022674
 30
0.0
 11
4.0000030022329147
 21
4.0000003532022674
 31
0.0
  0
POLYLINE
  5
3E89
  8
0
 62
     1
 66
     1
 10
0.0
 20
0.0
 30
0.0
  0
VERTEX
  5
785A
  8
0
 62
     1
 10
52.500003002232908
 20
4.0000003532022674
 30
0.0
  0
VERTEX
  5
785B
  8
0
 62
     1
 10
52.500003002232908
 20
0.0000003532022674
 30
0.0
  0
VERTEX
  5
785C
  8
0
 62
     1
 10
22.500003002232919
 20
0.0000003532022674
 30
0.0
  0
VERTEX
  5
785D
  8
0
 62
     1
 10
22.500003002232919
 20
4.0000003532022674
 30
0.0
  0
SEQEND
  5
785E
  8
0
 62
     1
  0
POLYLINE
  5
3E8A
  8
0
 62
     1
 66
     1
 10
0.0
 20
0.0
 30
0.0
  0
VERTEX
  5
785F
  8
0
 62
     1
 10
97.500003002232916
 20
4.0000003532022674
 30
0.0
  0
VERTEX
  5
7860
  8
0
 62
     1
 10
97.500003002232916
 20
0.0000003532022674
 30
0.0
  0
VERTEX
  5
7861
  8
0
 62
     1
 10
127.5000030022329
 20
0.0000003532022674
 30
0.0
  0
VERTEX
  5
7862
  8
0
 62
     1
 10
127.5000030022329
 20
4.0000003532022674
 30
0.0
  0
SEQEND
  5
7863
  8
0
 62
     1
  0
LINE
  5
3E8B
  8
0
 62
     1
 10
4.0000030022329147
 20
54.000000353202267
 30
0.0
 11
4.0000030022329147
 21
59.000000353202267
 31
0.0
  0
ENDBLK
  5
3E8F
  8
0
 62
     1
  0
BLOCK
  8
0
 62
     1
  2
A$C1D040B29
 70
     0
 10
0.0
 20
0.0
 30
0.0
  3
A$C1D040B29
  1

  0
LINE
  5
3F4B
  8
0
 62
     1
 10
-0.0000019595919412
 20
9.9999987038163454
 30
0.0
 11
-0.0000019595919412
 21
-0.0000012961836546
 31
0.0
  0
LINE
  5
3F4C
  8
0
 62
     1
 10
-0.0000019595919412
 20
19.999998703816338
 30
0.0
 11
3.999998040408058
 21
19.999998703816338
 31
0.0
  0
LINE
  5
3F4D
  8
0
 62
     1
 10
3.999998040408058
 20
19.999998703816338
 30
0.0
 11
3.999998040408058
 21
-0.0000012961836546
 31
0.0
  0
LINE
  5
3F4E
  8
0
 62
     1
 10
3.999998040408058
 20
-0.0000012961836546
 30
0.0
 11
-0.0000019595919412
 21
-0.0000012961836546
 31
0.0
  0
ENDBLK
  5
3F52
  8
0
 62
     1
  0
BLOCK
  8
0
 62
     1
  2
A$C48C751D2
 70
     0
 10
0.0
 20
0.0
 30
0.0
  3
A$C48C751D2
  1

  0
LINE
  5
408C
  8
0
 62
     1
 10
36.28949010040197
 20
31.832076718806039
 30
0.0
 11
36.28949010040197
 21
21.712076718806031
 31
0.0
  0
LINE
  5
408D
  8
0
 62
     1
 10
32.494490100401997
 20
21.712076718806031
 30
0.0
 11
36.28949010040197
 21
21.712076718806031
 31
0.0
  0
LINE
  5
408E
  8
0
 62
     1
 10
32.494490100401997
 20
31.832076718806039
 30
0.0
 11
36.28949010040197
 21
31.832076718806039
 31
0.0
  0
LINE
  5
408F
  8
0
 62
     1
 10
32.494490100401997
 20
21.712076718806031
 30
0.0
 11
32.494490100401997
 21
17.254661012979451
 31
0.0
  0
LINE
  5
4090
  8
0
 62
     1
 10
32.494490030888301
 20
36.289492424632449
 30
0.0
 11
32.494490030888301
 21
31.832076718806039
 31
0.0
  0
LINE
  5
4091
  8
0
 62
     1
 10
24.870170767726218
 20
49.280752157000677
 30
0.0
 11
32.0260913933339
 21
42.124831531392772
 31
0.0
  0
LINE
  5
4092
  8
0
 62
     1
 10
29.342621158731099
 20
39.441361296789978
 30
0.0
 11
32.0260913933339
 21
42.124831531392772
 31
0.0
  0
LINE
  5
4093
  8
0
 62
     1
 10
22.186700533123261
 20
46.597281922397649
 30
0.0
 11
24.870170767726218
 21
49.280752157000677
 31
0.0
  0
LINE
  5
4094
  8
0
 62
     1
 10
29.342621158731099
 20
39.441361296789978
 30
0.0
 11
32.494490030888301
 21
36.289492424632449
 31
0.0
  0
LINE
  5
4095
  8
0
 62
     1
 10
19.034831611812361
 20
49.74915074540155
 30
0.0
 11
22.18670048396967
 21
46.597281873244128
 31
0.0
  0
LINE
  5
4096
  8
0
 62
     1
 10
4.4574159059857834
 20
53.54415074540151
 30
0.0
 11
14.577415905985729
 21
53.54415074540151
 31
0.0
  0
LINE
  5
4097
  8
0
 62
     1
 10
14.577415905985729
 20
49.74915074540155
 30
0.0
 11
14.577415905985729
 21
53.54415074540151
 31
0.0
  0
LINE
  5
4098
  8
0
 62
     1
 10
4.4574159059857834
 20
49.74915074540155
 30
0.0
 11
4.4574159059857834
 21
53.54415074540151
 31
0.0
  0
LINE
  5
4099
  8
0
 62
     1
 10
14.577415905985729
 20
49.74915074540155
 30
0.0
 11
19.034831611812361
 21
49.74915074540155
 31
0.0
  0
LINE
  5
409A
  8
0
 62
     1
 10
0.0000002001593202
 20
49.749150675887734
 30
0.0
 11
4.4574159059857834
 21
49.749150675887734
 31
0.0
  0
LINE
  5
409B
  8
0
 62
     1
 10
32.02609151200113
 20
11.419321857065761
 30
0.0
 11
24.870170886393339
 21
4.2634012314576921
 31
0.0
  0
LINE
  5
409C
  8
0
 62
     1
 10
22.186700651790382
 20
6.9468714660608271
 30
0.0
 11
24.870170886393339
 21
4.2634012314576921
 31
0.0
  0
LINE
  5
409D
  8
0
 62
     1
 10
29.342621277398049
 20
14.10279209166867
 30
0.0
 11
32.02609151200113
 21
11.419321857065761
 31
0.0
  0
LINE
  5
409E
  8
0
 62
     1
 10
22.186700651790382
 20
6.9468714660608271
 30
0.0
 11
19.034831779633009
 21
3.795002593903404
 31
0.0
  0
LINE
  5
409F
  8
0
 62
     1
 10
32.494490100401997
 20
17.254661012979451
 30
0.0
 11
29.342621228244582
 21
14.10279214082232
 31
0.0
  0
LINE
  5
40A0
  8
0
 62
     1
 10
4.4574160738064839
 20
3.795002524389929
 30
0.0
 11
4.4574160738064839
 21
0.0000025243899699
 31
0.0
  0
LINE
  5
40A1
  8
0
 62
     1
 10
14.577416073806489
 20
3.7950025243898149
 30
0.0
 11
14.577416073806489
 21
0.0000025243897426
 31
0.0
  0
LINE
  5
40A2
  8
0
 62
     1
 10
4.4574160738064839
 20
3.795002524389929
 30
0.0
 11
0.0000003679799647
 21
3.795002524389929
 31
0.0
  0
LINE
  5
40A3
  8
0
 62
     1
 10
19.034831779633009
 20
3.795002593903404
 30
0.0
 11
14.577416073806489
 21
3.795002593903404
 31
0.0
  0
LINE
  5
40A4
  8
0
 62
     1
 10
4.4574160738064839
 20
0.0000025243899699
 30
0.0
 11
14.577416073806489
 21
0.0000025243897426
 31
0.0
  0
ENDBLK
  5
40A8
  8
0
 62
     1
  0
BLOCK
  8
0
 62
     3
  2
A$C37E334E4
 70
     0
 10
0.0
 20
0.0
 30
0.0
  3
A$C37E334E4
  1

  0
LINE
  5
4509
  8
0
 62
     3
 10
0.0
 20
0.0000000000000107
 30
0.0
 11
50.000000000000078
 21
49.999999999999851
 31
0.0
  0
LINE
  5
450A
  8
0
 62
     3
 10
7.0710678118654613
 20
-0.0000000000000036
 30
0.0
 11
57.071067811865667
 21
49.999999999999972
 31
0.0
  0
ENDBLK
  5
450E
  8
0
 62
     3
  0
BLOCK
  8
0
 62
     1
  2
A$C35D51216
 70
     0
 10
0.0
 20
0.0
 30
0.0
  3
A$C35D51216
  1

  0
LINE
  5
4BEF
  8
0
 62
     3
 10
3.999999411651515
 20
-0.0000000000001279
 30
0.0
 11
3.999999411651515
 21
29.999999999999869
 31
0.0
  0
LINE
  5
4BF0
  8
0
 62
     3
 10
3.999999411651515
 20
29.999999999999869
 30
0.0
 11
-0.0000005883484846
 21
29.999999999999869
 31
0.0
  0
LINE
  5
4BF1
  8
0
 62
     3
 10
-0.0000005883484846
 20
29.999999999999869
 30
0.0
 11
-0.0000005883484846
 21
59.999999999999851
 31
0.0
  0
LINE
  5
4BF2
  8
0
 62
     3
 10
-0.0000005883484846
 20
59.999999999999851
 30
0.0
 11
3.999999411651515
 21
59.999999999999851
 31
0.0
  0
LINE
  5
4BF3
  8
0
 62
     3
 10
3.999999411651515
 20
59.999999999999851
 30
0.0
 11
3.999999411651515
 21
89.999999999999844
 31
0.0
  0
LINE
  5
4BF4
  8
0
 62
     3
 10
3.999999411651515
 20
89.999999999999844
 30
0.0
 11
-0.0000005883484846
 21
89.999999999999844
 31
0.0
  0
LINE
  5
4BF5
  8
0
 62
     3
 10
-0.0000005883484846
 20
89.999999999999844
 30
0.0
 11
-0.0000005883484846
 21
119.9999999999999
 31
0.0
  0
LINE
  5
4BF6
  8
0
 62
     3
 10
-0.0000005883484846
 20
119.9999999999999
 30
0.0
 11
3.999999411651515
 21
119.9999999999999
 31
0.0
  0
LINE
  5
4BF7
  8
0
 62
     3
 10
3.999999411651515
 20
119.9999999999999
 30
0.0
 11
3.999999411651515
 21
149.9999999999998
 31
0.0
  0
ENDBLK
  5
4BFB
  8
0
 62
     1
  0
BLOCK
  8
0
 62
     1
  2
A$C190335DB
 70
     0
 10
0.0
 20
0.0
 30
0.0
  3
A$C190335DB
  1

  0
LINE
  5
4BFD
  8
0
 62
     3
 10
60.0
 20
-0.0000000000001563
 30
0.0
 11
60.0
 21
199.9999999999998
 31
0.0
  0
LINE
  5
4BFE
  8
0
 62
     3
 10
0.0
 20
149.9999999999998
 30
0.0
 11
60.0
 21
199.9999999999998
 31
0.0
  0
LINE
  5
4BFF
  8
0
 62
     3
 10
0.0
 20
-0.0000000000001279
 30
0.0
 11
0.0
 21
29.999999999999869
 31
0.0
  0
LINE
  5
4C00
  8
0
 62
     3
 10
0.0
 20
29.999999999999869
 30
0.0
 11
4.0
 21
29.999999999999869
 31
0.0
  0
LINE
  5
4C01
  8
0
 62
     3
 10
4.0
 20
29.999999999999869
 30
0.0
 11
4.0
 21
59.999999999999851
 31
0.0
  0
LINE
  5
4C02
  8
0
 62
     3
 10
4.0
 20
59.999999999999851
 30
0.0
 11
0.0
 21
59.999999999999851
 31
0.0
  0
LINE
  5
4C03
  8
0
 62
     3
 10
0.0
 20
59.999999999999851
 30
0.0
 11
0.0
 21
89.999999999999844
 31
0.0
  0
LINE
  5
4C04
  8
0
 62
     3
 10
0.0
 20
89.999999999999844
 30
0.0
 11
4.0
 21
89.999999999999844
 31
0.0
  0
LINE
  5
4C05
  8
0
 62
     3
 10
4.0
 20
89.999999999999844
 30
0.0
 11
4.0
 21
119.9999999999999
 31
0.0
  0
LINE
  5
4C06
  8
0
 62
     3
 10
4.0
 20
119.9999999999999
 30
0.0
 11
0.0
 21
119.9999999999999
 31
0.0
  0
LINE
  5
4C07
  8
0
 62
     3
 10
0.0
 20
119.9999999999999
 30
0.0
 11
0.0
 21
149.9999999999998
 31
0.0
  0
LINE
  5
4C08
  8
0
 62
     3
 10
15.0
 20
114.9999999999999
 30
0.0
 11
15.0
 21
54.999999999999851
 31
0.0
  0
LINE
  5
4C09
  8
0
 62
     3
 10
15.0
 20
54.999999999999851
 30
0.0
 11
105.0
 21
54.999999999999851
 31
0.0
  0
LINE
  5
4C0A
  8
0
 62
     3
 10
120.0
 20
149.9999999999998
 30
0.0
 11
60.0
 21
199.9999999999998
 31
0.0
  0
LINE
  5
4C0B
  8
0
 62
     3
 10
120.0
 20
-0.0000000000001279
 30
0.0
 11
120.0
 21
29.999999999999869
 31
0.0
  0
LINE
  5
4C0C
  8
0
 62
     3
 10
120.0
 20
29.999999999999869
 30
0.0
 11
116.0
 21
29.999999999999869
 31
0.0
  0
LINE
  5
4C0D
  8
0
 62
     3
 10
116.0
 20
29.999999999999869
 30
0.0
 11
116.0
 21
59.999999999999851
 31
0.0
  0
LINE
  5
4C0E
  8
0
 62
     3
 10
116.0
 20
59.999999999999851
 30
0.0
 11
120.0
 21
59.999999999999851
 31
0.0
  0
LINE
  5
4C0F
  8
0
 62
     3
 10
120.0
 20
59.999999999999851
 30
0.0
 11
120.0
 21
89.999999999999844
 31
0.0
  0
LINE
  5
4C10
  8
0
 62
     3
 10
120.0
 20
89.999999999999844
 30
0.0
 11
116.0
 21
89.999999999999844
 31
0.0
  0
LINE
  5
4C11
  8
0
 62
     3
 10
116.0
 20
89.999999999999844
 30
0.0
 11
116.0
 21
119.9999999999999
 31
0.0
  0
LINE
  5
4C12
  8
0
 62
     3
 10
116.0
 20
119.9999999999999
 30
0.0
 11
120.0
 21
119.9999999999999
 31
0.0
  0
LINE
  5
4C13
  8
0
 62
     3
 10
120.0
 20
119.9999999999999
 30
0.0
 11
120.0
 21
149.9999999999998
 31
0.0
  0
LINE
  5
4C14
  8
0
 62
     3
 10
105.0
 20
114.9999999999999
 30
0.0
 11
105.0
 21
54.999999999999851
 31
0.0
  0
ARC
  5
4C15
  8
0
 62
     3
 10
60.0
 20
114.9999999999999
 30
0.0
 40
45.0
 50
0.0
 51
180.0
  0
LINE
  5
4C16
  8
0
 62
     3
 10
20.948751620466961
 20
49.999999999999851
 30
0.0
 11
17.04362678251368
 21
46.745729301705431
 31
0.0
  0
LINE
  5
4C17
  8
0
 62
     3
 10
17.04362678251368
 20
46.745729301705431
 30
0.0
 11
20.948751620466961
 21
43.491458603411019
 31
0.0
  0
LINE
  5
4C18
  8
0
 62
     3
 10
20.948751620466961
 20
43.491458603411019
 30
0.0
 11
24.853876458420238
 21
46.745729301705481
 31
0.0
  0
LINE
  5
4C19
  8
0
 62
     3
 10
24.853876458420238
 20
46.745729301705481
 30
0.0
 11
20.948751620467078
 21
49.999999999999829
 31
0.0
  0
LINE
  5
4C1A
  8
0
 62
     3
 10
52.189750324093438
 20
49.999999999999801
 30
0.0
 11
48.284625486140158
 21
46.745729301705381
 31
0.0
  0
LINE
  5
4C1B
  8
0
 62
     3
 10
48.284625486140158
 20
46.745729301705381
 30
0.0
 11
52.189750324093438
 21
43.491458603410962
 31
0.0
  0
LINE
  5
4C1C
  8
0
 62
     3
 10
52.189750324093438
 20
43.491458603410962
 30
0.0
 11
56.094875162046719
 21
46.745729301705417
 31
0.0
  0
LINE
  5
4C1D
  8
0
 62
     3
 10
56.094875162046719
 20
46.745729301705417
 30
0.0
 11
52.189750324093552
 21
49.999999999999773
 31
0.0
  0
LINE
  5
4C1E
  8
0
 62
     3
 10
36.569250972280088
 20
49.999999999999801
 30
0.0
 11
32.664126134326807
 21
46.745729301705381
 31
0.0
  0
LINE
  5
4C1F
  8
0
 62
     3
 10
32.664126134326807
 20
46.745729301705381
 30
0.0
 11
36.569250972280088
 21
43.491458603410962
 31
0.0
  0
LINE
  5
4C20
  8
0
 62
     3
 10
36.569250972280088
 20
43.491458603410962
 30
0.0
 11
40.474375810233369
 21
46.745729301705403
 31
0.0
  0
LINE
  5
4C21
  8
0
 62
     3
 10
40.474375810233369
 20
46.745729301705403
 30
0.0
 11
36.569250972280201
 21
49.999999999999773
 31
0.0
  0
LINE
  5
4C22
  8
0
 62
     3
 10
67.810247872935292
 20
49.999999999999829
 30
0.0
 11
63.905123034982012
 21
46.745729301705403
 31
0.0
  0
LINE
  5
4C23
  8
0
 62
     3
 10
63.905123034982012
 20
46.745729301705403
 30
0.0
 11
67.810247872935292
 21
43.491458603410983
 31
0.0
  0
LINE
  5
4C24
  8
0
 62
     3
 10
67.810247872935292
 20
43.491458603410983
 30
0.0
 11
71.715372710888573
 21
46.745729301705452
 31
0.0
  0
LINE
  5
4C25
  8
0
 62
     3
 10
71.715372710888573
 20
46.745729301705452
 30
0.0
 11
67.810247872935406
 21
49.999999999999801
 31
0.0
  0
LINE
  5
4C26
  8
0
 62
     3
 10
83.430747224748515
 20
49.999999999999829
 30
0.0
 11
79.525622386795249
 21
46.745729301705403
 31
0.0
  0
LINE
  5
4C27
  8
0
 62
     3
 10
79.525622386795249
 20
46.745729301705403
 30
0.0
 11
83.430747224748515
 21
43.491458603410983
 31
0.0
  0
LINE
  5
4C28
  8
0
 62
     3
 10
83.430747224748515
 20
43.491458603410983
 30
0.0
 11
87.33587206270181
 21
46.745729301705452
 31
0.0
  0
LINE
  5
4C29
  8
0
 62
     3
 10
87.33587206270181
 20
46.745729301705452
 30
0.0
 11
83.430747224748643
 21
49.999999999999801
 31
0.0
  0
LINE
  5
4C2A
  8
0
 62
     3
 10
91.240996900655205
 20
43.491458603411118
 30
0.0
 11
87.335872062701924
 21
40.237187905116699
 31
0.0
  0
LINE
  5
4C2B
  8
0
 62
     3
 10
87.335872062701924
 20
40.237187905116699
 30
0.0
 11
91.240996900655205
 21
36.982917206822279
 31
0.0
  0
LINE
  5
4C2C
  8
0
 62
     3
 10
91.240996900655205
 20
36.982917206822279
 30
0.0
 11
95.146121738608485
 21
40.237187905116741
 31
0.0
  0
LINE
  5
4C2D
  8
0
 62
     3
 10
95.146121738608485
 20
40.237187905116741
 30
0.0
 11
91.240996900655318
 21
43.49145860341109
 31
0.0
  0
LINE
  5
4C2E
  8
0
 62
     3
 10
99.051246576561766
 20
49.999999999999851
 30
0.0
 11
95.146121738608485
 21
46.745729301705431
 31
0.0
  0
LINE
  5
4C2F
  8
0
 62
     3
 10
95.146121738608485
 20
46.745729301705431
 30
0.0
 11
99.051246576561766
 21
43.491458603411019
 31
0.0
  0
LINE
  5
4C30
  8
0
 62
     3
 10
99.051246576561766
 20
43.491458603411019
 30
0.0
 11
102.956371414515
 21
46.745729301705481
 31
0.0
  0
LINE
  5
4C31
  8
0
 62
     3
 10
102.956371414515
 20
46.745729301705481
 30
0.0
 11
99.051246576561866
 21
49.999999999999829
 31
0.0
  0
LINE
  5
4C32
  8
0
 62
     3
 10
75.620497548841854
 20
43.491458603411132
 30
0.0
 11
71.715372710888573
 21
40.237187905116713
 31
0.0
  0
LINE
  5
4C33
  8
0
 62
     3
 10
71.715372710888573
 20
40.237187905116713
 30
0.0
 11
75.620497548841854
 21
36.9829172068223
 31
0.0
  0
LINE
  5
4C34
  8
0
 62
     3
 10
75.620497548841854
 20
36.9829172068223
 30
0.0
 11
79.525622386795135
 21
40.237187905116748
 31
0.0
  0
LINE
  5
4C35
  8
0
 62
     3
 10
79.525622386795135
 20
40.237187905116748
 30
0.0
 11
75.620497548841954
 21
43.491458603411097
 31
0.0
  0
LINE
  5
4C36
  8
0
 62
     3
 10
20.948751620466961
 20
49.999999999999801
 30
0.0
 11
17.04362678251368
 21
46.745729301705381
 31
0.0
  0
LINE
  5
4C37
  8
0
 62
     3
 10
17.04362678251368
 20
46.745729301705381
 30
0.0
 11
20.948751620466961
 21
43.491458603410962
 31
0.0
  0
LINE
  5
4C38
  8
0
 62
     3
 10
20.948751620466961
 20
43.491458603410962
 30
0.0
 11
24.853876458420238
 21
46.745729301705417
 31
0.0
  0
LINE
  5
4C39
  8
0
 62
     3
 10
24.853876458420238
 20
46.745729301705417
 30
0.0
 11
20.948751620467078
 21
49.999999999999773
 31
0.0
  0
LINE
  5
4C3A
  8
0
 62
     3
 10
28.75900129637364
 20
43.491458603411047
 30
0.0
 11
24.853876458420359
 21
40.23718790511662
 31
0.0
  0
LINE
  5
4C3B
  8
0
 62
     3
 10
24.853876458420359
 20
40.23718790511662
 30
0.0
 11
28.75900129637364
 21
36.982917206822208
 31
0.0
  0
LINE
  5
4C3C
  8
0
 62
     3
 10
28.75900129637364
 20
36.982917206822208
 30
0.0
 11
32.664126134326921
 21
40.23718790511667
 31
0.0
  0
LINE
  5
4C3D
  8
0
 62
     3
 10
32.664126134326921
 20
40.23718790511667
 30
0.0
 11
28.759001296373761
 21
43.491458603411019
 31
0.0
  0
LINE
  5
4C3E
  8
0
 62
     3
 10
44.379500648186877
 20
43.491458603411047
 30
0.0
 11
40.474375810233589
 21
40.237187905116642
 31
0.0
  0
LINE
  5
4C3F
  8
0
 62
     3
 10
40.474375810233589
 20
40.237187905116642
 30
0.0
 11
44.379500648186877
 21
36.982917206822229
 31
0.0
  0
LINE
  5
4C40
  8
0
 62
     3
 10
44.379500648186877
 20
36.982917206822229
 30
0.0
 11
48.284625486140158
 21
40.237187905116677
 31
0.0
  0
LINE
  5
4C41
  8
0
 62
     3
 10
48.284625486140158
 20
40.237187905116677
 30
0.0
 11
44.37950064818699
 21
43.491458603411033
 31
0.0
  0
LINE
  5
4C42
  8
0
 62
     3
 10
59.999999098514422
 20
43.491459354649152
 30
0.0
 11
56.094874260561141
 21
40.237188656354732
 31
0.0
  0
LINE
  5
4C43
  8
0
 62
     3
 10
56.094874260561141
 20
40.237188656354732
 30
0.0
 11
59.999999098514422
 21
36.982917958060312
 31
0.0
  0
LINE
  5
4C44
  8
0
 62
     3
 10
59.999999098514422
 20
36.982917958060312
 30
0.0
 11
63.905123936467703
 21
40.237188656354768
 31
0.0
  0
LINE
  5
4C45
  8
0
 62
     3
 10
63.905123936467703
 20
40.237188656354768
 30
0.0
 11
59.999999098514529
 21
43.491459354649123
 31
0.0
  0
LINE
  5
4C46
  8
0
 62
     3
 10
20.948751620466961
 20
36.982917206822151
 30
0.0
 11
17.04362678251368
 21
33.728646508527731
 31
0.0
  0
LINE
  5
4C47
  8
0
 62
     3
 10
17.04362678251368
 20
33.728646508527731
 30
0.0
 11
20.948751620466961
 21
30.474375810233312
 31
0.0
  0
LINE
  5
4C48
  8
0
 62
     3
 10
20.948751620466961
 20
30.474375810233312
 30
0.0
 11
24.853876458420238
 21
33.728646508527781
 31
0.0
  0
LINE
  5
4C49
  8
0
 62
     3
 10
24.853876458420238
 20
33.728646508527781
 30
0.0
 11
20.948751620467078
 21
36.982917206822123
 31
0.0
  0
LINE
  5
4C4A
  8
0
 62
     3
 10
20.948751620466961
 20
23.965834413644451
 30
0.0
 11
17.04362678251368
 21
20.711563715350021
 31
0.0
  0
LINE
  5
4C4B
  8
0
 62
     3
 10
17.04362678251368
 20
20.711563715350021
 30
0.0
 11
20.948751620466961
 21
17.457293017055601
 31
0.0
  0
LINE
  5
4C4C
  8
0
 62
     3
 10
20.948751620466961
 20
17.457293017055601
 30
0.0
 11
24.853876458420238
 21
20.711563715350071
 31
0.0
  0
LINE
  5
4C4D
  8
0
 62
     3
 10
24.853876458420238
 20
20.711563715350071
 30
0.0
 11
20.948751620467078
 21
23.965834413644419
 31
0.0
  0
LINE
  5
4C4E
  8
0
 62
     3
 10
28.759000394887831
 20
17.45729376829366
 30
0.0
 11
24.85387555693455
 21
14.20302306999924
 31
0.0
  0
LINE
  5
4C4F
  8
0
 62
     3
 10
32.664125232841123
 20
14.20302306999929
 30
0.0
 11
28.759000394887948
 21
17.457293768293638
 31
0.0
  0
LINE
  5
4C50
  8
0
 62
     3
 10
28.75900129637364
 20
30.474375810233301
 30
0.0
 11
24.853876458420359
 21
27.220105111938881
 31
0.0
  0
LINE
  5
4C51
  8
0
 62
     3
 10
24.853876458420359
 20
27.220105111938881
 30
0.0
 11
28.75900129637364
 21
23.965834413644458
 31
0.0
  0
LINE
  5
4C52
  8
0
 62
     3
 10
28.75900129637364
 20
23.965834413644458
 30
0.0
 11
32.664126134326921
 21
27.220105111938921
 31
0.0
  0
LINE
  5
4C53
  8
0
 62
     3
 10
32.664126134326921
 20
27.220105111938921
 30
0.0
 11
28.759001296373761
 21
30.474375810233269
 31
0.0
  0
LINE
  5
4C54
  8
0
 62
     3
 10
36.569250972280201
 20
36.982917206822172
 30
0.0
 11
32.664126134326921
 21
33.728646508527753
 31
0.0
  0
LINE
  5
4C55
  8
0
 62
     3
 10
32.664126134326921
 20
33.728646508527753
 30
0.0
 11
36.569250972280201
 21
30.47437581023333
 31
0.0
  0
LINE
  5
4C56
  8
0
 62
     3
 10
36.569250972280201
 20
30.47437581023333
 30
0.0
 11
40.474375810233482
 21
33.728646508527788
 31
0.0
  0
LINE
  5
4C57
  8
0
 62
     3
 10
40.474375810233482
 20
33.728646508527788
 30
0.0
 11
36.569250972280322
 21
36.982917206822137
 31
0.0
  0
LINE
  5
4C58
  8
0
 62
     3
 10
36.56925007079451
 20
23.965835164882542
 30
0.0
 11
32.664125232841229
 21
20.711564466588111
 31
0.0
  0
LINE
  5
4C59
  8
0
 62
     3
 10
32.664125232841229
 20
20.711564466588111
 30
0.0
 11
36.56925007079451
 21
17.457293768293692
 31
0.0
  0
LINE
  5
4C5A
  8
0
 62
     3
 10
36.56925007079451
 20
17.457293768293692
 30
0.0
 11
40.474374908747791
 21
20.711564466588161
 31
0.0
  0
LINE
  5
4C5B
  8
0
 62
     3
 10
40.474374908747791
 20
20.711564466588161
 30
0.0
 11
36.569250070794617
 21
23.965835164882499
 31
0.0
  0
LINE
  5
4C5C
  8
0
 62
     3
 10
44.379499746701178
 20
17.457293768293709
 30
0.0
 11
40.474374908747897
 21
14.20302306999929
 31
0.0
  0
LINE
  5
4C5D
  8
0
 62
     3
 10
48.284624584654459
 20
14.203023069999331
 30
0.0
 11
44.379499746701299
 21
17.457293768293681
 31
0.0
  0
LINE
  5
4C5E
  8
0
 62
     3
 10
44.379499746701057
 20
30.474376561471459
 30
0.0
 11
40.474374908747791
 21
27.220105863177039
 31
0.0
  0
LINE
  5
4C5F
  8
0
 62
     3
 10
40.474374908747791
 20
27.220105863177039
 30
0.0
 11
44.379499746701057
 21
23.96583516488262
 31
0.0
  0
LINE
  5
4C60
  8
0
 62
     3
 10
44.379499746701057
 20
23.96583516488262
 30
0.0
 11
48.284624584654352
 21
27.220105863177078
 31
0.0
  0
LINE
  5
4C61
  8
0
 62
     3
 10
48.284624584654352
 20
27.220105863177078
 30
0.0
 11
44.379499746701178
 21
30.474376561471431
 31
0.0
  0
LINE
  5
4C62
  8
0
 62
     3
 10
52.189749422607861
 20
36.982917958060298
 30
0.0
 11
48.28462458465458
 21
33.728647259765879
 31
0.0
  0
LINE
  5
4C63
  8
0
 62
     3
 10
48.28462458465458
 20
33.728647259765879
 30
0.0
 11
52.189749422607861
 21
30.474376561471459
 31
0.0
  0
LINE
  5
4C64
  8
0
 62
     3
 10
52.189749422607861
 20
30.474376561471459
 30
0.0
 11
56.094874260561141
 21
33.728647259765921
 31
0.0
  0
LINE
  5
4C65
  8
0
 62
     3
 10
56.094874260561141
 20
33.728647259765921
 30
0.0
 11
52.189749422607967
 21
36.98291795806027
 31
0.0
  0
LINE
  5
4C66
  8
0
 62
     3
 10
52.189749422607747
 20
23.965835164882559
 30
0.0
 11
48.284624584654459
 21
20.71156446658815
 31
0.0
  0
LINE
  5
4C67
  8
0
 62
     3
 10
48.284624584654459
 20
20.71156446658815
 30
0.0
 11
52.189749422607747
 21
17.45729376829372
 31
0.0
  0
LINE
  5
4C68
  8
0
 62
     3
 10
52.189749422607747
 20
17.45729376829372
 30
0.0
 11
56.094874260561021
 21
20.71156446658819
 31
0.0
  0
LINE
  5
4C69
  8
0
 62
     3
 10
56.094874260561021
 20
20.71156446658819
 30
0.0
 11
52.189749422607861
 21
23.965835164882542
 31
0.0
  0
LINE
  5
4C6A
  8
0
 62
     3
 10
60.0
 20
17.457293017055719
 30
0.0
 11
56.094875162046719
 21
14.203022318761301
 31
0.0
  0
LINE
  5
4C6B
  8
0
 62
     3
 10
63.905124837953281
 20
14.20302231876134
 30
0.0
 11
60.000000000000107
 21
17.45729301705569
 31
0.0
  0
LINE
  5
4C6C
  8
0
 62
     3
 10
75.620498450327773
 20
17.457293768293709
 30
0.0
 11
71.715373612374492
 21
14.20302306999929
 31
0.0
  0
LINE
  5
4C6D
  8
0
 62
     3
 10
79.525623288281054
 20
14.203023069999331
 30
0.0
 11
75.620498450327887
 21
17.457293768293681
 31
0.0
  0
LINE
  5
4C6E
  8
0
 62
     3
 10
59.999999098514309
 20
30.474376561471502
 30
0.0
 11
56.094874260561021
 21
27.220105863177078
 31
0.0
  0
LINE
  5
4C6F
  8
0
 62
     3
 10
56.094874260561021
 20
27.220105863177078
 30
0.0
 11
59.999999098514309
 21
23.965835164882659
 31
0.0
  0
LINE
  5
4C70
  8
0
 62
     3
 10
59.999999098514309
 20
23.965835164882659
 30
0.0
 11
63.905123936467582
 21
27.220105863177132
 31
0.0
  0
LINE
  5
4C71
  8
0
 62
     3
 10
63.905123936467582
 20
27.220105863177132
 30
0.0
 11
59.999999098514422
 21
30.47437656147148
 31
0.0
  0
LINE
  5
4C72
  8
0
 62
     3
 10
91.240997802140896
 20
17.457293768293731
 30
0.0
 11
87.335872964187615
 21
14.20302306999932
 31
0.0
  0
LINE
  5
4C73
  8
0
 62
     3
 10
95.146122640094177
 20
14.203023069999359
 30
0.0
 11
91.240997802140996
 21
17.457293768293709
 31
0.0
  0
LINE
  5
4C74
  8
0
 62
     3
 10
67.810248774421098
 20
23.965835164882559
 30
0.0
 11
63.905123936467817
 21
20.71156446658815
 31
0.0
  0
LINE
  5
4C75
  8
0
 62
     3
 10
63.905123936467817
 20
20.71156446658815
 30
0.0
 11
67.810248774421098
 21
17.45729376829372
 31
0.0
  0
LINE
  5
4C76
  8
0
 62
     3
 10
67.810248774421098
 20
17.45729376829372
 30
0.0
 11
71.715373612374378
 21
20.71156446658819
 31
0.0
  0
LINE
  5
4C77
  8
0
 62
     3
 10
71.715373612374378
 20
20.71156446658819
 30
0.0
 11
67.810248774421211
 21
23.965835164882542
 31
0.0
  0
LINE
  5
4C78
  8
0
 62
     3
 10
83.430748126234221
 20
23.965835164882591
 30
0.0
 11
79.525623288280926
 21
20.711564466588172
 31
0.0
  0
LINE
  5
4C79
  8
0
 62
     3
 10
79.525623288280926
 20
20.711564466588172
 30
0.0
 11
83.430748126234221
 21
17.457293768293749
 31
0.0
  0
LINE
  5
4C7A
  8
0
 62
     3
 10
83.430748126234221
 20
17.457293768293749
 30
0.0
 11
87.335872964187502
 21
20.711564466588221
 31
0.0
  0
LINE
  5
4C7B
  8
0
 62
     3
 10
87.335872964187502
 20
20.711564466588221
 30
0.0
 11
83.430748126234334
 21
23.965835164882559
 31
0.0
  0
LINE
  5
4C7C
  8
0
 62
     3
 10
99.051246576561994
 20
23.965834413644451
 30
0.0
 11
95.146121738608713
 21
20.711563715350021
 31
0.0
  0
LINE
  5
4C7D
  8
0
 62
     3
 10
95.146121738608713
 20
20.711563715350021
 30
0.0
 11
99.051246576561994
 21
17.457293017055601
 31
0.0
  0
LINE
  5
4C7E
  8
0
 62
     3
 10
99.051246576561994
 20
17.457293017055601
 30
0.0
 11
102.9563714145153
 21
20.711563715350071
 31
0.0
  0
LINE
  5
4C7F
  8
0
 62
     3
 10
102.9563714145153
 20
20.711563715350071
 30
0.0
 11
99.051246576562107
 21
23.965834413644419
 31
0.0
  0
LINE
  5
4C80
  8
0
 62
     3
 10
75.620498450327659
 20
30.474376561471459
 30
0.0
 11
71.715373612374378
 21
27.220105863177039
 31
0.0
  0
LINE
  5
4C81
  8
0
 62
     3
 10
71.715373612374378
 20
27.220105863177039
 30
0.0
 11
75.620498450327659
 21
23.96583516488262
 31
0.0
  0
LINE
  5
4C82
  8
0
 62
     3
 10
75.620498450327659
 20
23.96583516488262
 30
0.0
 11
79.525623288280926
 21
27.220105863177078
 31
0.0
  0
LINE
  5
4C83
  8
0
 62
     3
 10
79.525623288280926
 20
27.220105863177078
 30
0.0
 11
75.620498450327773
 21
30.474376561471431
 31
0.0
  0
LINE
  5
4C84
  8
0
 62
     3
 10
67.810248774421098
 20
36.982917958060277
 30
0.0
 11
63.905123936467817
 21
33.728647259765872
 31
0.0
  0
LINE
  5
4C85
  8
0
 62
     3
 10
63.905123936467817
 20
33.728647259765872
 30
0.0
 11
67.810248774421098
 21
30.474376561471448
 31
0.0
  0
LINE
  5
4C86
  8
0
 62
     3
 10
67.810248774421098
 20
30.474376561471448
 30
0.0
 11
71.715373612374378
 21
33.728647259765907
 31
0.0
  0
LINE
  5
4C87
  8
0
 62
     3
 10
71.715373612374378
 20
33.728647259765907
 30
0.0
 11
67.810248774421211
 21
36.982917958060263
 31
0.0
  0
LINE
  5
4C88
  8
0
 62
     3
 10
83.430747224748643
 20
36.982917206822179
 30
0.0
 11
79.525622386795362
 21
33.72864650852776
 31
0.0
  0
LINE
  5
4C89
  8
0
 62
     3
 10
79.525622386795362
 20
33.72864650852776
 30
0.0
 11
83.430747224748643
 21
30.47437581023334
 31
0.0
  0
LINE
  5
4C8A
  8
0
 62
     3
 10
83.430747224748643
 20
30.47437581023334
 30
0.0
 11
87.335872062701924
 21
33.728646508527802
 31
0.0
  0
LINE
  5
4C8B
  8
0
 62
     3
 10
87.335872062701924
 20
33.728646508527802
 30
0.0
 11
83.430747224748757
 21
36.982917206822151
 31
0.0
  0
LINE
  5
4C8C
  8
0
 62
     3
 10
91.240996900655205
 20
30.474375810233379
 30
0.0
 11
87.335872062701924
 21
27.22010511193897
 31
0.0
  0
LINE
  5
4C8D
  8
0
 62
     3
 10
87.335872062701924
 20
27.22010511193897
 30
0.0
 11
91.240996900655205
 21
23.96583441364454
 31
0.0
  0
LINE
  5
4C8E
  8
0
 62
     3
 10
91.240996900655205
 20
23.96583441364454
 30
0.0
 11
95.146121738608485
 21
27.220105111939009
 31
0.0
  0
LINE
  5
4C8F
  8
0
 62
     3
 10
95.146121738608485
 20
27.220105111939009
 30
0.0
 11
91.240996900655318
 21
30.474375810233362
 31
0.0
  0
LINE
  5
4C90
  8
0
 62
     3
 10
99.051246576561994
 20
36.982917206822172
 30
0.0
 11
95.146121738608713
 21
33.728646508527753
 31
0.0
  0
LINE
  5
4C91
  8
0
 62
     3
 10
95.146121738608713
 20
33.728646508527753
 30
0.0
 11
99.051246576561994
 21
30.47437581023333
 31
0.0
  0
LINE
  5
4C92
  8
0
 62
     3
 10
99.051246576561994
 20
30.47437581023333
 30
0.0
 11
102.9563714145153
 21
33.728646508527788
 31
0.0
  0
LINE
  5
4C93
  8
0
 62
     3
 10
102.9563714145153
 20
33.728646508527788
 30
0.0
 11
99.051246576562107
 21
36.982917206822137
 31
0.0
  0
LINE
  5
4C94
  8
0
 62
     3
 10
106.8614962524685
 20
43.491458603411033
 30
0.0
 11
102.9563714145153
 21
40.237187905116613
 31
0.0
  0
LINE
  5
4C95
  8
0
 62
     3
 10
102.9563714145153
 20
40.237187905116613
 30
0.0
 11
106.8614962524685
 21
36.982917206822187
 31
0.0
  0
LINE
  5
4C96
  8
0
 62
     3
 10
106.8614962524685
 20
36.982917206822187
 30
0.0
 11
110.76662109042179
 21
40.237187905116649
 31
0.0
  0
LINE
  5
4C97
  8
0
 62
     3
 10
110.76662109042179
 20
40.237187905116649
 30
0.0
 11
106.8614962524687
 21
43.491458603410997
 31
0.0
  0
LINE
  5
4C98
  8
0
 62
     3
 10
106.8614962524685
 20
30.47437581023333
 30
0.0
 11
102.9563714145153
 21
27.22010511193891
 31
0.0
  0
LINE
  5
4C99
  8
0
 62
     3
 10
102.9563714145153
 20
27.22010511193891
 30
0.0
 11
106.8614962524685
 21
23.96583441364449
 31
0.0
  0
LINE
  5
4C9A
  8
0
 62
     3
 10
106.8614962524685
 20
23.96583441364449
 30
0.0
 11
110.76662109042179
 21
27.220105111938949
 31
0.0
  0
LINE
  5
4C9B
  8
0
 62
     3
 10
110.76662109042179
 20
27.220105111938949
 30
0.0
 11
106.8614962524687
 21
30.474375810233301
 31
0.0
  0
LINE
  5
4C9C
  8
0
 62
     3
 10
106.8614962524685
 20
17.457293017055619
 30
0.0
 11
102.9563714145153
 21
14.203022318761199
 31
0.0
  0
LINE
  5
4C9D
  8
0
 62
     3
 10
110.76662109042179
 20
14.20302231876124
 30
0.0
 11
106.8614962524687
 21
17.457293017055591
 31
0.0
  0
LINE
  5
4C9E
  8
0
 62
     3
 10
13.138501944560399
 20
17.457293017055591
 30
0.0
 11
9.2333771066071222
 21
14.203022318761169
 31
0.0
  0
LINE
  5
4C9F
  8
0
 62
     3
 10
17.04362678251368
 20
14.20302231876121
 30
0.0
 11
13.13850194456051
 21
17.457293017055559
 31
0.0
  0
LINE
  5
4CA0
  8
0
 62
     3
 10
13.138501944560399
 20
30.47437581023328
 30
0.0
 11
9.2333771066071222
 21
27.22010511193886
 31
0.0
  0
LINE
  5
4CA1
  8
0
 62
     3
 10
9.2333771066071222
 20
27.22010511193886
 30
0.0
 11
13.138501944560399
 21
23.965834413644451
 31
0.0
  0
LINE
  5
4CA2
  8
0
 62
     3
 10
13.138501944560399
 20
23.965834413644451
 30
0.0
 11
17.04362678251368
 21
27.22010511193891
 31
0.0
  0
LINE
  5
4CA3
  8
0
 62
     3
 10
17.04362678251368
 20
27.22010511193891
 30
0.0
 11
13.13850194456051
 21
30.474375810233258
 31
0.0
  0
LINE
  5
4CA4
  8
0
 62
     3
 10
13.138501944560399
 20
43.491458603410969
 30
0.0
 11
9.2333771066071222
 21
40.237187905116549
 31
0.0
  0
LINE
  5
4CA5
  8
0
 62
     3
 10
9.2333771066071222
 20
40.237187905116549
 30
0.0
 11
13.138501944560399
 21
36.982917206822137
 31
0.0
  0
LINE
  5
4CA6
  8
0
 62
     3
 10
13.138501944560399
 20
36.982917206822137
 30
0.0
 11
17.04362678251368
 21
40.237187905116599
 31
0.0
  0
LINE
  5
4CA7
  8
0
 62
     3
 10
17.04362678251368
 20
40.237187905116599
 30
0.0
 11
13.13850194456051
 21
43.491458603410948
 31
0.0
  0
ENDBLK
  5
4CAB
  8
0
 62
     1
  0
BLOCK
  8
0
 62
     3
  2
A$C1DEF74B0
 70
     0
 10
0.0
 20
0.0
 30
0.0
  3
A$C1DEF74B0
  1

  0
LINE
  5
6FCE
  8
0
 62
     3
 10
546.78949172602552
 20
25.00000027208262
 30
0.0
 11
546.78949172602552
 21
0.000000272082616
 31
0.0
  0
LINE
  5
6FCF
  8
0
 62
     3
 10
434.78949172602552
 20
0.000000272082616
 30
0.0
 11
546.78949172602552
 21
0.000000272082616
 31
0.0
  0
LINE
  5
6FD0
  8
0
 62
     3
 10
440.78949172602552
 20
80.000000272082616
 30
0.0
 11
440.78949172602552
 21
84.000000272082616
 31
0.0
  0
LINE
  5
6FD1
  8
0
 62
     3
 10
440.78949172602552
 20
84.000000272082616
 30
0.0
 11
460.78949172602552
 21
84.000000272082616
 31
0.0
  0
LINE
  5
6FD2
  8
0
 62
     3
 10
460.78949172602552
 20
84.000000272082616
 30
0.0
 11
460.78949172602552
 21
80.000000272082616
 31
0.0
  0
LINE
  5
6FD3
  8
0
 62
     3
 10
475.78949172602552
 20
80.000000272082616
 30
0.0
 11
475.78949172602552
 21
84.000000272082616
 31
0.0
  0
LINE
  5
6FD4
  8
0
 62
     3
 10
475.78949172602552
 20
84.000000272082616
 30
0.0
 11
505.78949172602552
 21
84.000000272082616
 31
0.0
  0
LINE
  5
6FD5
  8
0
 62
     3
 10
505.78949172602552
 20
84.000000272082616
 30
0.0
 11
505.78949172602552
 21
80.000000272082616
 31
0.0
  0
LINE
  5
6FD6
  8
0
 62
     3
 10
520.7894917260254
 20
80.000000272082616
 30
0.0
 11
520.7894917260254
 21
84.000000272082616
 31
0.0
  0
LINE
  5
6FD7
  8
0
 62
     3
 10
520.7894917260254
 20
84.000000272082616
 30
0.0
 11
540.78949172602552
 21
84.000000272082616
 31
0.0
  0
LINE
  5
6FD8
  8
0
 62
     3
 10
540.78949172602552
 20
84.000000272082616
 30
0.0
 11
540.78949172602552
 21
80.000000272082616
 31
0.0
  0
LINE
  5
6FD9
  8
0
 62
     3
 10
434.78949172602552
 20
80.000000272082616
 30
0.0
 11
440.78949172602552
 21
80.000000272082616
 31
0.0
  0
LINE
  5
6FDA
  8
0
 62
     3
 10
460.78949172602552
 20
80.000000272082616
 30
0.0
 11
475.78949172602552
 21
80.000000272082616
 31
0.0
  0
LINE
  5
6FDB
  8
0
 62
     3
 10
505.78949172602552
 20
80.000000272082616
 30
0.0
 11
520.7894917260254
 21
80.000000272082616
 31
0.0
  0
LINE
  5
6FDC
  8
0
 62
     3
 10
540.78949172602552
 20
80.000000272082616
 30
0.0
 11
546.78949172602552
 21
80.000000272082616
 31
0.0
  0
LINE
  5
6FDD
  8
0
 62
     3
 10
430.78949172602552
 20
25.00000027208262
 30
0.0
 11
430.78949172602552
 21
55.000000272082623
 31
0.0
  0
LINE
  5
6FDE
  8
0
 62
     3
 10
430.78949172602552
 20
55.000000272082623
 30
0.0
 11
434.78949172602552
 21
55.000000272082623
 31
0.0
  0
LINE
  5
6FDF
  8
0
 62
     3
 10
434.78949172602552
 20
55.000000272082623
 30
0.0
 11
434.78949172602552
 21
80.000000272082616
 31
0.0
  0
LINE
  5
6FE0
  8
0
 62
     3
 10
430.78949172602552
 20
25.00000027208262
 30
0.0
 11
434.78949172602552
 21
25.00000027208262
 31
0.0
  0
LINE
  5
6FE1
  8
0
 62
     3
 10
550.78949172602552
 20
25.00000027208262
 30
0.0
 11
550.78949172602552
 21
55.000000272082623
 31
0.0
  0
LINE
  5
6FE2
  8
0
 62
     3
 10
550.78949172602552
 20
55.000000272082623
 30
0.0
 11
546.78949172602552
 21
55.000000272082623
 31
0.0
  0
LINE
  5
6FE3
  8
0
 62
     3
 10
550.78949172602552
 20
25.00000027208262
 30
0.0
 11
546.78949172602552
 21
25.00000027208262
 31
0.0
  0
LINE
  5
6FE4
  8
0
 62
     3
 10
434.78949172602552
 20
0.000000272082616
 30
0.0
 11
434.78949172602552
 21
25.00000027208262
 31
0.0
  0
LINE
  5
6FE5
  8
0
 62
     3
 10
546.78949172602552
 20
55.000000272082623
 30
0.0
 11
546.78949172602552
 21
80.000000272082616
 31
0.0
  0
LINE
  5
6FE6
  8
0
 62
     3
 10
0.0000019496305299
 20
344.9681910241805
 30
0.0
 11
25.00000194963053
 21
344.9681910241805
 31
0.0
  0
LINE
  5
6FE7
  8
0
 62
     3
 10
93.10250194963055
 20
256.96819102418021
 30
0.0
 11
93.10250194963055
 21
270.96819102418033
 31
0.0
  0
LINE
  5
6FE8
  8
0
 62
     3
 10
93.10250194963055
 20
270.96819102418033
 30
0.0
 11
83.10250194963055
 21
270.96819102418033
 31
0.0
  0
LINE
  5
6FE9
  8
0
 62
     3
 10
83.10250194963055
 20
270.96819102418033
 30
0.0
 11
83.10250194963055
 21
280.96819102418033
 31
0.0
  0
LINE
  5
6FEA
  8
0
 62
     3
 10
83.10250194963055
 20
280.96819102418033
 30
0.0
 11
93.10250194963055
 21
280.96819102418033
 31
0.0
  0
LINE
  5
6FEB
  8
0
 62
     3
 10
93.10250194963055
 20
280.96819102418033
 30
0.0
 11
93.10250194963055
 21
290.96819102418033
 31
0.0
  0
LINE
  5
6FEC
  8
0
 62
     3
 10
93.10250194963055
 20
290.96819102418033
 30
0.0
 11
83.10250194963055
 21
290.96819102418033
 31
0.0
  0
LINE
  5
6FED
  8
0
 62
     3
 10
83.10250194963055
 20
290.96819102418033
 30
0.0
 11
83.10250194963055
 21
300.96819102418033
 31
0.0
  0
LINE
  5
6FEE
  8
0
 62
     3
 10
83.10250194963055
 20
300.96819102418033
 30
0.0
 11
93.10250194963055
 21
300.96819102418033
 31
0.0
  0
LINE
  5
6FEF
  8
0
 62
     3
 10
93.10250194963055
 20
300.96819102418033
 30
0.0
 11
93.10250194963055
 21
310.96819102418033
 31
0.0
  0
LINE
  5
6FF0
  8
0
 62
     3
 10
93.10250194963055
 20
310.96819102418033
 30
0.0
 11
83.10250194963055
 21
310.96819102418033
 31
0.0
  0
LINE
  5
6FF1
  8
0
 62
     3
 10
83.10250194963055
 20
310.96819102418033
 30
0.0
 11
83.10250194963055
 21
320.96819102418033
 31
0.0
  0
LINE
  5
6FF2
  8
0
 62
     3
 10
83.10250194963055
 20
320.96819102418033
 30
0.0
 11
93.10250194963055
 21
320.96819102418033
 31
0.0
  0
LINE
  5
6FF3
  8
0
 62
     3
 10
93.10250194963055
 20
320.96819102418033
 30
0.0
 11
93.10250194963055
 21
330.96819102418033
 31
0.0
  0
LINE
  5
6FF4
  8
0
 62
     3
 10
93.10250194963055
 20
330.96819102418033
 30
0.0
 11
83.10250194963055
 21
330.96819102418033
 31
0.0
  0
LINE
  5
6FF5
  8
0
 62
     3
 10
83.10250194963055
 20
330.96819102418033
 30
0.0
 11
83.10250194963055
 21
344.9681910241805
 31
0.0
  0
ARC
  5
6FF6
  8
0
 62
     3
 10
5.000001949630529
 20
315.9681910241805
 30
0.0
 40
5.0
 50
90.0
 51
270.0
  0
ARC
  5
6FF7
  8
0
 62
     3
 10
5.000001949630529
 20
305.96819102418038
 30
0.0
 40
5.0
 50
90.0
 51
270.0
  0
ARC
  5
6FF8
  8
0
 62
     3
 10
5.000001949630529
 20
295.96819102418038
 30
0.0
 40
5.0
 50
90.0
 51
270.0
  0
ARC
  5
6FF9
  8
0
 62
     3
 10
5.000001949630529
 20
275.96819102418033
 30
0.0
 40
5.0
 50
90.0
 51
270.0
  0
ARC
  5
6FFA
  8
0
 62
     3
 10
5.000001949630529
 20
285.96819102418038
 30
0.0
 40
5.0
 50
90.0
 51
270.0
  0
LINE
  5
6FFB
  8
0
 62
     3
 10
25.00000194963053
 20
344.9681910241805
 30
0.0
 11
25.00000194963053
 21
340.9681910241805
 31
0.0
  0
LINE
  5
6FFC
  8
0
 62
     3
 10
25.00000194963053
 20
340.9681910241805
 30
0.0
 11
45.000001949630523
 21
340.9681910241805
 31
0.0
  0
LINE
  5
6FFD
  8
0
 62
     3
 10
45.000001949630523
 20
340.9681910241805
 30
0.0
 11
45.000001949630523
 21
344.9681910241805
 31
0.0
  0
LINE
  5
6FFE
  8
0
 62
     3
 10
176.2050019496306
 20
344.9681910241805
 30
0.0
 11
151.2050019496306
 21
344.9681910241805
 31
0.0
  0
ARC
  5
6FFF
  8
0
 62
     3
 10
171.2050019496306
 20
335.96819102418033
 30
0.0
 40
5.0
 50
270.0
 51
0.0
  0
ARC
  5
7000
  8
0
 62
     3
 10
171.2050019496306
 20
325.96819102418033
 30
0.0
 40
5.0
 50
270.0
 51
90.0
  0
ARC
  5
7001
  8
0
 62
     3
 10
171.2050019496306
 20
315.96819102418033
 30
0.0
 40
5.0
 50
270.0
 51
90.0
  0
ARC
  5
7002
  8
0
 62
     3
 10
171.2050019496306
 20
305.96819102418033
 30
0.0
 40
5.0
 50
270.0
 51
90.0
  0
ARC
  5
7003
  8
0
 62
     3
 10
171.2050019496306
 20
295.96819102418033
 30
0.0
 40
5.0
 50
270.0
 51
90.0
  0
ARC
  5
7004
  8
0
 62
     3
 10
171.2050019496306
 20
275.96819102418033
 30
0.0
 40
5.0
 50
270.0
 51
90.0
  0
ARC
  5
7005
  8
0
 62
     3
 10
171.2050019496306
 20
285.96819102418033
 30
0.0
 40
5.0
 50
270.0
 51
90.0
  0
LINE
  5
7006
  8
0
 62
     3
 10
151.2050019496306
 20
344.9681910241805
 30
0.0
 11
151.2050019496306
 21
340.9681910241805
 31
0.0
  0
LINE
  5
7007
  8
0
 62
     3
 10
151.2050019496306
 20
340.9681910241805
 30
0.0
 11
131.2050019496306
 21
340.9681910241805
 31
0.0
  0
LINE
  5
7008
  8
0
 62
     3
 10
131.2050019496306
 20
340.9681910241805
 30
0.0
 11
131.2050019496306
 21
344.9681910241805
 31
0.0
  0
LINE
  5
7009
  8
0
 62
     3
 10
45.000001949630523
 20
344.9681910241805
 30
0.0
 11
131.2050019496306
 21
344.9681910241805
 31
0.0
  0
LINE
  5
700A
  8
0
 62
     3
 10
176.2050019496306
 20
335.96819102418033
 30
0.0
 11
176.2050019496306
 21
344.9681910241805
 31
0.0
  0
ARC
  5
700B
  8
0
 62
     3
 10
5.000001949630529
 20
335.96819102418038
 30
0.0
 40
5.0
 50
180.0
 51
270.0
  0
ARC
  5
700C
  8
0
 62
     3
 10
5.000001949630529
 20
325.9681910241805
 30
0.0
 40
5.0
 50
90.0
 51
270.0
  0
LINE
  5
700D
  8
0
 62
     3
 10
0.0000019496305299
 20
335.96819102418038
 30
0.0
 11
0.0000019496305299
 21
344.9681910241805
 31
0.0
  0
LINE
  5
700E
  8
0
 62
     3
 10
0.0000019496305299
 20
256.9681910241801
 30
0.0
 11
25.00000194963053
 21
256.96819102418021
 31
0.0
  0
LINE
  5
700F
  8
0
 62
     3
 10
25.00000194963053
 20
256.96819102418021
 30
0.0
 11
25.00000194963053
 21
260.96819102418021
 31
0.0
  0
LINE
  5
7010
  8
0
 62
     3
 10
25.00000194963053
 20
260.96819102418021
 30
0.0
 11
45.000001949630523
 21
260.96819102418021
 31
0.0
  0
LINE
  5
7011
  8
0
 62
     3
 10
45.000001949630523
 20
260.96819102418021
 30
0.0
 11
45.000001949630523
 21
256.96819102418021
 31
0.0
  0
LINE
  5
7012
  8
0
 62
     3
 10
176.2050019496306
 20
256.96819102418021
 30
0.0
 11
151.2050019496306
 21
256.96819102418021
 31
0.0
  0
ARC
  5
7013
  8
0
 62
     3
 10
171.2050019496306
 20
265.96819102418033
 30
0.0
 40
5.0
 50
0.0
 51
90.0
  0
LINE
  5
7014
  8
0
 62
     3
 10
151.2050019496306
 20
256.96819102418021
 30
0.0
 11
151.2050019496306
 21
260.96819102418021
 31
0.0
  0
LINE
  5
7015
  8
0
 62
     3
 10
151.2050019496306
 20
260.96819102418021
 30
0.0
 11
131.2050019496306
 21
260.96819102418021
 31
0.0
  0
LINE
  5
7016
  8
0
 62
     3
 10
131.2050019496306
 20
260.96819102418021
 30
0.0
 11
131.2050019496306
 21
256.96819102418021
 31
0.0
  0
LINE
  5
7017
  8
0
 62
     3
 10
45.000001949630523
 20
256.96819102418021
 30
0.0
 11
131.2050019496306
 21
256.96819102418021
 31
0.0
  0
LINE
  5
7018
  8
0
 62
     3
 10
176.2050019496306
 20
265.96819102418033
 30
0.0
 11
176.2050019496306
 21
256.96819102418021
 31
0.0
  0
ARC
  5
7019
  8
0
 62
     3
 10
5.000001949630529
 20
265.96819102418021
 30
0.0
 40
5.0
 50
90.0
 51
180.0
  0
LINE
  5
701A
  8
0
 62
     3
 10
0.0000019496305299
 20
265.96819102418021
 30
0.0
 11
0.0000019496305299
 21
256.9681910241801
 31
0.0
  0
ENDBLK
  5
701E
  8
0
 62
     3
  0
ENDSEC
  0
SECTION
  2
ENTITIES
  0
LINE
  5
52C8
  8
0
 62
     3
 10
230.740847046011
 20
190.9838817698629
 30
0.0
 11
246.10527377066771
 21
203.78757070707701
 31
0.0
  0
LINE
  5
52C9
  8
0
 62
     3
 10
230.740847046011
 20
35.424092744979021
 30
0.0
 11
230.740847046011
 21
70.983881769862933
 31
0.0
  0
LINE
  5
52CA
  8
0
 62
     3
 10
230.740847046011
 20
70.983881769862933
 30
0.0
 11
234.740847046011
 21
70.983881769862933
 31
0.0
  0
LINE
  5
52CB
  8
0
 62
     3
 10
234.740847046011
 20
70.983881769862933
 30
0.0
 11
234.740847046011
 21
100.9838817698629
 31
0.0
  0
LINE
  5
52CC
  8
0
 62
     3
 10
234.740847046011
 20
100.9838817698629
 30
0.0
 11
230.740847046011
 21
100.9838817698629
 31
0.0
  0
LINE
  5
52CD
  8
0
 62
     3
 10
230.740847046011
 20
100.9838817698629
 30
0.0
 11
230.740847046011
 21
130.9838817698629
 31
0.0
  0
LINE
  5
52CE
  8
0
 62
     3
 10
230.740847046011
 20
130.9838817698629
 30
0.0
 11
234.740847046011
 21
130.9838817698629
 31
0.0
  0
LINE
  5
52CF
  8
0
 62
     3
 10
234.740847046011
 20
130.9838817698629
 30
0.0
 11
234.740847046011
 21
160.9838817698629
 31
0.0
  0
LINE
  5
52D0
  8
0
 62
     3
 10
234.740847046011
 20
160.9838817698629
 30
0.0
 11
230.740847046011
 21
160.9838817698629
 31
0.0
  0
LINE
  5
52D1
  8
0
 62
     3
 10
230.740847046011
 20
160.9838817698629
 30
0.0
 11
230.740847046011
 21
190.9838817698629
 31
0.0
  0
LINE
  5
52D2
  8
0
 62
     3
 10
245.740847046011
 20
155.9838817698629
 30
0.0
 11
245.740847046011
 21
95.983881769862933
 31
0.0
  0
LINE
  5
52D3
  8
0
 62
     3
 10
245.740847046011
 20
95.983881769862933
 30
0.0
 11
335.74084704601103
 21
95.983881769862933
 31
0.0
  0
LINE
  5
52D5
  8
0
 62
     3
 10
350.74084704601103
 20
35.424092744979021
 30
0.0
 11
350.74084704601103
 21
70.983881769862933
 31
0.0
  0
LINE
  5
52D6
  8
0
 62
     3
 10
350.74084704601103
 20
70.983881769862933
 30
0.0
 11
346.74084704601103
 21
70.983881769862933
 31
0.0
  0
LINE
  5
52D7
  8
0
 62
     3
 10
346.74084704601103
 20
70.983881769862933
 30
0.0
 11
346.74084704601103
 21
100.9838817698629
 31
0.0
  0
LINE
  5
52D8
  8
0
 62
     3
 10
346.74084704601103
 20
100.9838817698629
 30
0.0
 11
350.74084704601103
 21
100.9838817698629
 31
0.0
  0
LINE
  5
52D9
  8
0
 62
     3
 10
350.74084704601103
 20
100.9838817698629
 30
0.0
 11
350.74084704601103
 21
130.9838817698629
 31
0.0
  0
LINE
  5
52DA
  8
0
 62
     3
 10
350.74084704601103
 20
130.9838817698629
 30
0.0
 11
346.74084704601103
 21
130.9838817698629
 31
0.0
  0
LINE
  5
52DB
  8
0
 62
     3
 10
346.74084704601103
 20
130.9838817698629
 30
0.0
 11
346.74084704601103
 21
160.9838817698629
 31
0.0
  0
LINE
  5
52DC
  8
0
 62
     3
 10
346.74084704601103
 20
160.9838817698629
 30
0.0
 11
350.74084704601103
 21
160.9838817698629
 31
0.0
  0
LINE
  5
52DD
  8
0
 62
     3
 10
350.74084704601103
 20
160.9838817698629
 30
0.0
 11
350.74084704601103
 21
190.9838817698629
 31
0.0
  0
LINE
  5
52DE
  8
0
 62
     3
 10
335.74084704601103
 20
155.9838817698629
 30
0.0
 11
335.74084704601103
 21
95.983881769862933
 31
0.0
  0
ARC
  5
52DF
  8
0
 62
     3
 10
290.74084704601103
 20
155.9838817698629
 30
0.0
 40
45.0
 50
0.0
 51
180.0
  0
LINE
  5
52E0
  8
0
 62
     3
 10
251.68959866647791
 20
90.983881769862933
 30
0.0
 11
247.7844738285246
 21
87.729611071568456
 31
0.0
  0
LINE
  5
52E1
  8
0
 62
     3
 10
247.7844738285246
 20
87.729611071568456
 30
0.0
 11
251.68959866647791
 21
84.475340373274094
 31
0.0
  0
LINE
  5
52E2
  8
0
 62
     3
 10
251.68959866647791
 20
84.475340373274094
 30
0.0
 11
255.59472350443119
 21
87.729611071568456
 31
0.0
  0
LINE
  5
52E3
  8
0
 62
     3
 10
255.59472350443119
 20
87.729611071568456
 30
0.0
 11
251.68959866647799
 21
90.983881769862933
 31
0.0
  0
LINE
  5
52E4
  8
0
 62
     3
 10
282.93059737010441
 20
90.983881769862805
 30
0.0
 11
279.02547253215113
 21
87.729611071568456
 31
0.0
  0
LINE
  5
52E5
  8
0
 62
     3
 10
279.02547253215113
 20
87.729611071568456
 30
0.0
 11
282.93059737010441
 21
84.475340373273994
 31
0.0
  0
LINE
  5
52E6
  8
0
 62
     3
 10
282.93059737010441
 20
84.475340373273994
 30
0.0
 11
286.83572220805769
 21
87.729611071568456
 31
0.0
  0
LINE
  5
52E7
  8
0
 62
     3
 10
286.83572220805769
 20
87.729611071568456
 30
0.0
 11
282.93059737010452
 21
90.983881769862805
 31
0.0
  0
LINE
  5
52E8
  8
0
 62
     3
 10
267.31009801829111
 20
90.983881769862805
 30
0.0
 11
263.40497318033778
 21
87.729611071568456
 31
0.0
  0
LINE
  5
52E9
  8
0
 62
     3
 10
263.40497318033778
 20
87.729611071568456
 30
0.0
 11
267.31009801829111
 21
84.475340373273994
 31
0.0
  0
LINE
  5
52EA
  8
0
 62
     3
 10
267.31009801829111
 20
84.475340373273994
 30
0.0
 11
271.21522285624428
 21
87.729611071568456
 31
0.0
  0
LINE
  5
52EB
  8
0
 62
     3
 10
271.21522285624428
 20
87.729611071568456
 30
0.0
 11
267.31009801829123
 21
90.983881769862805
 31
0.0
  0
LINE
  5
52EC
  8
0
 62
     3
 10
298.55109491894632
 20
90.983881769862933
 30
0.0
 11
294.64597008099298
 21
87.729611071568456
 31
0.0
  0
LINE
  5
52ED
  8
0
 62
     3
 10
294.64597008099298
 20
87.729611071568456
 30
0.0
 11
298.55109491894632
 21
84.475340373273994
 31
0.0
  0
LINE
  5
52EE
  8
0
 62
     3
 10
298.55109491894632
 20
84.475340373273994
 30
0.0
 11
302.45621975689949
 21
87.729611071568456
 31
0.0
  0
LINE
  5
52EF
  8
0
 62
     3
 10
302.45621975689949
 20
87.729611071568456
 30
0.0
 11
298.55109491894638
 21
90.983881769862805
 31
0.0
  0
LINE
  5
52F0
  8
0
 62
     3
 10
314.1715942707595
 20
90.983881769862933
 30
0.0
 11
310.26646943280622
 21
87.729611071568456
 31
0.0
  0
LINE
  5
52F1
  8
0
 62
     3
 10
310.26646943280622
 20
87.729611071568456
 30
0.0
 11
314.1715942707595
 21
84.475340373273994
 31
0.0
  0
LINE
  5
52F2
  8
0
 62
     3
 10
314.1715942707595
 20
84.475340373273994
 30
0.0
 11
318.07671910871278
 21
87.729611071568456
 31
0.0
  0
LINE
  5
52F3
  8
0
 62
     3
 10
318.07671910871278
 20
87.729611071568456
 30
0.0
 11
314.17159427075961
 21
90.983881769862805
 31
0.0
  0
LINE
  5
52F4
  8
0
 62
     3
 10
321.98184394666617
 20
84.475340373274193
 30
0.0
 11
318.07671910871289
 21
81.221069674979731
 31
0.0
  0
LINE
  5
52F5
  8
0
 62
     3
 10
318.07671910871289
 20
81.221069674979731
 30
0.0
 11
321.98184394666617
 21
77.966798976685254
 31
0.0
  0
LINE
  5
52F6
  8
0
 62
     3
 10
321.98184394666617
 20
77.966798976685254
 30
0.0
 11
325.8869687846194
 21
81.221069674979731
 31
0.0
  0
LINE
  5
52F7
  8
0
 62
     3
 10
325.8869687846194
 20
81.221069674979731
 30
0.0
 11
321.98184394666629
 21
84.475340373274193
 31
0.0
  0
LINE
  5
52F8
  8
0
 62
     3
 10
329.79209362257279
 20
90.983881769862933
 30
0.0
 11
325.8869687846194
 21
87.729611071568456
 31
0.0
  0
LINE
  5
52F9
  8
0
 62
     3
 10
325.8869687846194
 20
87.729611071568456
 30
0.0
 11
329.79209362257279
 21
84.475340373274094
 31
0.0
  0
LINE
  5
52FA
  8
0
 62
     3
 10
329.79209362257279
 20
84.475340373274094
 30
0.0
 11
333.69721846052602
 21
87.729611071568456
 31
0.0
  0
LINE
  5
52FB
  8
0
 62
     3
 10
333.69721846052602
 20
87.729611071568456
 30
0.0
 11
329.79209362257279
 21
90.983881769862933
 31
0.0
  0
LINE
  5
52FC
  8
0
 62
     3
 10
306.36134459485282
 20
84.475340373274193
 30
0.0
 11
302.45621975689949
 21
81.221069674979731
 31
0.0
  0
LINE
  5
52FD
  8
0
 62
     3
 10
302.45621975689949
 20
81.221069674979731
 30
0.0
 11
306.36134459485282
 21
77.966798976685354
 31
0.0
  0
LINE
  5
52FE
  8
0
 62
     3
 10
306.36134459485282
 20
77.966798976685354
 30
0.0
 11
310.2664694328061
 21
81.221069674979731
 31
0.0
  0
LINE
  5
52FF
  8
0
 62
     3
 10
310.2664694328061
 20
81.221069674979731
 30
0.0
 11
306.36134459485288
 21
84.475340373274193
 31
0.0
  0
LINE
  5
5304
  8
0
 62
     3
 10
259.49984834238461
 20
84.475340373274094
 30
0.0
 11
255.5947235044313
 21
81.221069674979731
 31
0.0
  0
LINE
  5
5305
  8
0
 62
     3
 10
255.5947235044313
 20
81.221069674979731
 30
0.0
 11
259.49984834238461
 21
77.966798976685254
 31
0.0
  0
LINE
  5
5306
  8
0
 62
     3
 10
259.49984834238461
 20
77.966798976685254
 30
0.0
 11
263.40497318033789
 21
81.221069674979731
 31
0.0
  0
LINE
  5
5307
  8
0
 62
     3
 10
263.40497318033789
 20
81.221069674979731
 30
0.0
 11
259.49984834238472
 21
84.475340373274094
 31
0.0
  0
LINE
  5
5308
  8
0
 62
     3
 10
275.1203476941979
 20
84.475340373274094
 30
0.0
 11
271.21522285624451
 21
81.221069674979731
 31
0.0
  0
LINE
  5
5309
  8
0
 62
     3
 10
271.21522285624451
 20
81.221069674979731
 30
0.0
 11
275.1203476941979
 21
77.966798976685254
 31
0.0
  0
LINE
  5
530A
  8
0
 62
     3
 10
275.1203476941979
 20
77.966798976685254
 30
0.0
 11
279.02547253215113
 21
81.221069674979731
 31
0.0
  0
LINE
  5
530B
  8
0
 62
     3
 10
279.02547253215113
 20
81.221069674979731
 30
0.0
 11
275.1203476941979
 21
84.475340373274094
 31
0.0
  0
LINE
  5
530C
  8
0
 62
     3
 10
290.74084614452539
 20
84.47534112451217
 30
0.0
 11
286.83572130657211
 21
81.221070426217807
 31
0.0
  0
LINE
  5
530D
  8
0
 62
     3
 10
286.83572130657211
 20
81.221070426217807
 30
0.0
 11
290.74084614452539
 21
77.96679972792333
 31
0.0
  0
LINE
  5
530E
  8
0
 62
     3
 10
290.74084614452539
 20
77.96679972792333
 30
0.0
 11
294.64597098247867
 21
81.221070426217807
 31
0.0
  0
LINE
  5
530F
  8
0
 62
     3
 10
294.64597098247867
 20
81.221070426217807
 30
0.0
 11
290.74084614452551
 21
84.47534112451217
 31
0.0
  0
LINE
  5
5310
  8
0
 62
     3
 10
251.68959866647791
 20
77.966798976685254
 30
0.0
 11
247.7844738285246
 21
74.712528278390764
 31
0.0
  0
LINE
  5
5311
  8
0
 62
     3
 10
247.7844738285246
 20
74.712528278390764
 30
0.0
 11
251.68959866647791
 21
71.458257580096301
 31
0.0
  0
LINE
  5
5312
  8
0
 62
     3
 10
251.68959866647791
 20
71.458257580096301
 30
0.0
 11
255.59472350443119
 21
74.712528278390764
 31
0.0
  0
LINE
  5
5313
  8
0
 62
     3
 10
255.59472350443119
 20
74.712528278390764
 30
0.0
 11
251.68959866647799
 21
77.966798976685141
 31
0.0
  0
LINE
  5
5314
  8
0
 62
     3
 10
251.68959866647791
 20
64.949716183507462
 30
0.0
 11
247.7844738285246
 21
61.695445485213099
 31
0.0
  0
LINE
  5
5315
  8
0
 62
     3
 10
247.7844738285246
 20
61.695445485213099
 30
0.0
 11
251.68959866647791
 21
58.441174786918623
 31
0.0
  0
LINE
  5
5316
  8
0
 62
     3
 10
251.68959866647791
 20
58.441174786918623
 30
0.0
 11
255.59472350443119
 21
61.695445485213099
 31
0.0
  0
LINE
  5
5317
  8
0
 62
     3
 10
255.59472350443119
 20
61.695445485213099
 30
0.0
 11
251.68959866647799
 21
64.949716183507462
 31
0.0
  0
LINE
  5
5318
  8
0
 62
     3
 10
251.6895977649923
 20
51.93263414156786
 30
0.0
 11
247.78447292703899
 21
48.678363443273497
 31
0.0
  0
LINE
  5
5319
  8
0
 62
     3
 10
247.78447292703899
 20
48.678363443273497
 30
0.0
 11
251.6895977649923
 21
45.424092744979014
 31
0.0
  0
LINE
  5
531A
  8
0
 62
     3
 10
251.6895977649923
 20
45.424092744979014
 30
0.0
 11
255.5947226029455
 21
48.678363443273497
 31
0.0
  0
LINE
  5
531B
  8
0
 62
     3
 10
255.5947226029455
 20
48.678363443273497
 30
0.0
 11
251.68959776499241
 21
51.93263414156786
 31
0.0
  0
LINE
  5
531C
  8
0
 62
     3
 10
259.4998474408988
 20
58.441175538156699
 30
0.0
 11
255.5947226029455
 21
55.186904839862223
 31
0.0
  0
LINE
  5
531D
  8
0
 62
     3
 10
255.5947226029455
 20
55.186904839862223
 30
0.0
 11
259.4998474408988
 21
51.93263414156786
 31
0.0
  0
LINE
  5
531E
  8
0
 62
     3
 10
259.4998474408988
 20
51.93263414156786
 30
0.0
 11
263.40497227885209
 21
55.186904839862329
 31
0.0
  0
LINE
  5
531F
  8
0
 62
     3
 10
263.40497227885209
 20
55.186904839862329
 30
0.0
 11
259.49984744089892
 21
58.441175538156699
 31
0.0
  0
LINE
  5
5320
  8
0
 62
     3
 10
259.49984834238461
 20
71.458257580096301
 30
0.0
 11
255.5947235044313
 21
68.203986881801939
 31
0.0
  0
LINE
  5
5321
  8
0
 62
     3
 10
255.5947235044313
 20
68.203986881801939
 30
0.0
 11
259.49984834238461
 21
64.949716183507576
 31
0.0
  0
LINE
  5
5322
  8
0
 62
     3
 10
259.49984834238461
 20
64.949716183507576
 30
0.0
 11
263.40497318033789
 21
68.203986881801939
 31
0.0
  0
LINE
  5
5323
  8
0
 62
     3
 10
263.40497318033789
 20
68.203986881801939
 30
0.0
 11
259.49984834238472
 21
71.458257580096301
 31
0.0
  0
LINE
  5
5324
  8
0
 62
     3
 10
267.31009801829123
 20
77.966798976685254
 30
0.0
 11
263.40497318033789
 21
74.712528278390764
 31
0.0
  0
LINE
  5
5325
  8
0
 62
     3
 10
263.40497318033789
 20
74.712528278390764
 30
0.0
 11
267.31009801829123
 21
71.458257580096301
 31
0.0
  0
LINE
  5
5326
  8
0
 62
     3
 10
267.31009801829123
 20
71.458257580096301
 30
0.0
 11
271.21522285624451
 21
74.712528278390764
 31
0.0
  0
LINE
  5
5327
  8
0
 62
     3
 10
271.21522285624451
 20
74.712528278390764
 30
0.0
 11
267.31009801829128
 21
77.966798976685254
 31
0.0
  0
LINE
  5
5328
  8
0
 62
     3
 10
267.31009711680548
 20
64.949716934745652
 30
0.0
 11
263.4049722788522
 21
61.695446236451168
 31
0.0
  0
LINE
  5
5329
  8
0
 62
     3
 10
263.4049722788522
 20
61.695446236451168
 30
0.0
 11
267.31009711680548
 21
58.441175538156699
 31
0.0
  0
LINE
  5
532A
  8
0
 62
     3
 10
267.31009711680548
 20
58.441175538156699
 30
0.0
 11
271.21522195475882
 21
61.695446236451168
 31
0.0
  0
LINE
  5
532B
  8
0
 62
     3
 10
271.21522195475882
 20
61.695446236451168
 30
0.0
 11
267.31009711680559
 21
64.949716934745524
 31
0.0
  0
LINE
  5
532C
  8
0
 62
     3
 10
267.31009711680548
 20
51.93263414156786
 30
0.0
 11
263.4049722788522
 21
48.678363443273497
 31
0.0
  0
LINE
  5
532D
  8
0
 62
     3
 10
263.4049722788522
 20
48.678363443273497
 30
0.0
 11
267.31009711680548
 21
45.424092744979014
 31
0.0
  0
LINE
  5
532E
  8
0
 62
     3
 10
267.31009711680548
 20
45.424092744979014
 30
0.0
 11
271.21522195475882
 21
48.678363443273497
 31
0.0
  0
LINE
  5
532F
  8
0
 62
     3
 10
271.21522195475882
 20
48.678363443273497
 30
0.0
 11
267.31009711680559
 21
51.93263414156786
 31
0.0
  0
LINE
  5
5330
  8
0
 62
     3
 10
275.12034679271221
 20
58.441175538156699
 30
0.0
 11
271.21522195475887
 21
55.186904839862329
 31
0.0
  0
LINE
  5
5331
  8
0
 62
     3
 10
271.21522195475887
 20
55.186904839862329
 30
0.0
 11
275.12034679271221
 21
51.932634141567974
 31
0.0
  0
LINE
  5
5332
  8
0
 62
     3
 10
275.12034679271221
 20
51.932634141567974
 30
0.0
 11
279.02547163066538
 21
55.18690483986245
 31
0.0
  0
LINE
  5
5333
  8
0
 62
     3
 10
279.02547163066538
 20
55.18690483986245
 30
0.0
 11
275.12034679271233
 21
58.441175538156699
 31
0.0
  0
LINE
  5
5334
  8
0
 62
     3
 10
275.12034679271198
 20
71.458258331334491
 30
0.0
 11
271.21522195475882
 21
68.203987633040114
 31
0.0
  0
LINE
  5
5335
  8
0
 62
     3
 10
271.21522195475882
 20
68.203987633040114
 30
0.0
 11
275.12034679271198
 21
64.949716934745652
 31
0.0
  0
LINE
  5
5336
  8
0
 62
     3
 10
275.12034679271198
 20
64.949716934745652
 30
0.0
 11
279.02547163066532
 21
68.203987633040114
 31
0.0
  0
LINE
  5
5337
  8
0
 62
     3
 10
279.02547163066532
 20
68.203987633040114
 30
0.0
 11
275.12034679271221
 21
71.458258331334491
 31
0.0
  0
LINE
  5
5338
  8
0
 62
     3
 10
282.93059646861877
 20
77.96679972792333
 30
0.0
 11
279.02547163066549
 21
74.712529029628854
 31
0.0
  0
LINE
  5
5339
  8
0
 62
     3
 10
279.02547163066549
 20
74.712529029628854
 30
0.0
 11
282.93059646861877
 21
71.458258331334491
 31
0.0
  0
LINE
  5
533A
  8
0
 62
     3
 10
282.93059646861877
 20
71.458258331334491
 30
0.0
 11
286.83572130657211
 21
74.712529029628968
 31
0.0
  0
LINE
  5
533B
  8
0
 62
     3
 10
286.83572130657211
 20
74.712529029628968
 30
0.0
 11
282.93059646861889
 21
77.96679972792333
 31
0.0
  0
LINE
  5
533C
  8
0
 62
     3
 10
282.93059646861872
 20
64.949716934745652
 30
0.0
 11
279.02547163066538
 21
61.695446236451168
 31
0.0
  0
LINE
  5
533D
  8
0
 62
     3
 10
279.02547163066538
 20
61.695446236451168
 30
0.0
 11
282.93059646861872
 21
58.441175538156699
 31
0.0
  0
LINE
  5
533E
  8
0
 62
     3
 10
282.93059646861872
 20
58.441175538156699
 30
0.0
 11
286.835721306572
 21
61.695446236451168
 31
0.0
  0
LINE
  5
533F
  8
0
 62
     3
 10
286.835721306572
 20
61.695446236451168
 30
0.0
 11
282.93059646861877
 21
64.949716934745652
 31
0.0
  0
LINE
  5
5340
  8
0
 62
     3
 10
282.93059646861877
 20
51.93263414156786
 30
0.0
 11
279.02547163066549
 21
48.678363443273497
 31
0.0
  0
LINE
  5
5341
  8
0
 62
     3
 10
279.02547163066549
 20
48.678363443273497
 30
0.0
 11
282.93059646861877
 21
45.424092744979014
 31
0.0
  0
LINE
  5
5342
  8
0
 62
     3
 10
282.93059646861877
 20
45.424092744979014
 30
0.0
 11
286.83572130657211
 21
48.678363443273497
 31
0.0
  0
LINE
  5
5343
  8
0
 62
     3
 10
286.83572130657211
 20
48.678363443273497
 30
0.0
 11
282.93059646861889
 21
51.93263414156786
 31
0.0
  0
LINE
  5
5344
  8
0
 62
     3
 10
290.74084704601103
 20
58.441174786918737
 30
0.0
 11
286.83572220805769
 21
55.186904088624367
 31
0.0
  0
LINE
  5
5345
  8
0
 62
     3
 10
286.83572220805769
 20
55.186904088624367
 30
0.0
 11
290.74084704601103
 21
51.932633390329897
 31
0.0
  0
LINE
  5
5346
  8
0
 62
     3
 10
290.74084704601103
 20
51.932633390329897
 30
0.0
 11
294.64597188396419
 21
55.186904088624367
 31
0.0
  0
LINE
  5
5347
  8
0
 62
     3
 10
294.64597188396419
 20
55.186904088624367
 30
0.0
 11
290.74084704601108
 21
58.441174786918737
 31
0.0
  0
LINE
  5
5348
  8
0
 62
     3
 10
298.55109582043212
 20
51.93263414156786
 30
0.0
 11
294.64597098247879
 21
48.678363443273497
 31
0.0
  0
LINE
  5
5349
  8
0
 62
     3
 10
294.64597098247879
 20
48.678363443273497
 30
0.0
 11
298.55109582043212
 21
45.424092744979014
 31
0.0
  0
LINE
  5
534A
  8
0
 62
     3
 10
298.55109582043212
 20
45.424092744979014
 30
0.0
 11
302.45622065838529
 21
48.678363443273497
 31
0.0
  0
LINE
  5
534B
  8
0
 62
     3
 10
302.45622065838529
 20
48.678363443273497
 30
0.0
 11
298.55109582043218
 21
51.93263414156786
 31
0.0
  0
LINE
  5
534C
  8
0
 62
     3
 10
314.1715951722453
 20
51.932634141567974
 30
0.0
 11
310.26647033429202
 21
48.678363443273497
 31
0.0
  0
LINE
  5
534D
  8
0
 62
     3
 10
310.26647033429202
 20
48.678363443273497
 30
0.0
 11
314.1715951722453
 21
45.424092744979014
 31
0.0
  0
LINE
  5
534E
  8
0
 62
     3
 10
314.1715951722453
 20
45.424092744979014
 30
0.0
 11
318.07672001019858
 21
48.678363443273497
 31
0.0
  0
LINE
  5
534F
  8
0
 62
     3
 10
318.07672001019858
 20
48.678363443273497
 30
0.0
 11
314.17159517224542
 21
51.932634141567974
 31
0.0
  0
LINE
  5
5350
  8
0
 62
     3
 10
329.79209452405871
 20
51.932634141567974
 30
0.0
 11
325.88696968610537
 21
48.678363443273497
 31
0.0
  0
LINE
  5
5351
  8
0
 62
     3
 10
325.88696968610537
 20
48.678363443273497
 30
0.0
 11
329.79209452405871
 21
45.424092744979014
 31
0.0
  0
LINE
  5
5352
  8
0
 62
     3
 10
329.79209452405871
 20
45.424092744979014
 30
0.0
 11
333.69721936201188
 21
48.678363443273497
 31
0.0
  0
LINE
  5
5353
  8
0
 62
     3
 10
333.69721936201188
 20
48.678363443273497
 30
0.0
 11
329.79209452405871
 21
51.93263414156786
 31
0.0
  0
LINE
  5
5354
  8
0
 62
     3
 10
306.36134549633869
 20
58.441175538156699
 30
0.0
 11
302.45622065838552
 21
55.186904839862329
 31
0.0
  0
LINE
  5
5355
  8
0
 62
     3
 10
302.45622065838552
 20
55.186904839862329
 30
0.0
 11
306.36134549633869
 21
51.932634141567974
 31
0.0
  0
LINE
  5
5356
  8
0
 62
     3
 10
306.36134549633869
 20
51.932634141567974
 30
0.0
 11
310.26647033429202
 21
55.18690483986245
 31
0.0
  0
LINE
  5
5357
  8
0
 62
     3
 10
310.26647033429202
 20
55.18690483986245
 30
0.0
 11
306.3613454963388
 21
58.441175538156699
 31
0.0
  0
LINE
  5
5358
  8
0
 62
     3
 10
290.74084614452528
 20
71.458258331334605
 30
0.0
 11
286.835721306572
 21
68.203987633040114
 31
0.0
  0
LINE
  5
5359
  8
0
 62
     3
 10
286.835721306572
 20
68.203987633040114
 30
0.0
 11
290.74084614452528
 21
64.949716934745652
 31
0.0
  0
LINE
  5
535A
  8
0
 62
     3
 10
290.74084614452528
 20
64.949716934745652
 30
0.0
 11
294.64597098247862
 21
68.203987633040114
 31
0.0
  0
LINE
  5
535B
  8
0
 62
     3
 10
294.64597098247862
 20
68.203987633040114
 30
0.0
 11
290.74084614452539
 21
71.458258331334491
 31
0.0
  0
LINE
  5
535C
  8
0
 62
     3
 10
321.98184484815192
 20
58.441175538156813
 30
0.0
 11
318.07672001019858
 21
55.186904839862329
 31
0.0
  0
LINE
  5
535D
  8
0
 62
     3
 10
318.07672001019858
 20
55.186904839862329
 30
0.0
 11
321.98184484815192
 21
51.932634141567974
 31
0.0
  0
LINE
  5
535E
  8
0
 62
     3
 10
321.98184484815192
 20
51.932634141567974
 30
0.0
 11
325.88696968610509
 21
55.18690483986245
 31
0.0
  0
LINE
  5
535F
  8
0
 62
     3
 10
325.88696968610509
 20
55.18690483986245
 30
0.0
 11
321.98184484815198
 21
58.441175538156699
 31
0.0
  0
LINE
  5
5360
  8
0
 62
     3
 10
298.55109582043212
 20
64.949716934745652
 30
0.0
 11
294.64597098247879
 21
61.695446236451168
 31
0.0
  0
LINE
  5
5361
  8
0
 62
     3
 10
294.64597098247879
 20
61.695446236451168
 30
0.0
 11
298.55109582043212
 21
58.441175538156699
 31
0.0
  0
LINE
  5
5362
  8
0
 62
     3
 10
298.55109582043212
 20
58.441175538156699
 30
0.0
 11
302.45622065838529
 21
61.695446236451168
 31
0.0
  0
LINE
  5
5363
  8
0
 62
     3
 10
302.45622065838529
 20
61.695446236451168
 30
0.0
 11
298.55109582043218
 21
64.949716934745652
 31
0.0
  0
LINE
  5
5364
  8
0
 62
     3
 10
314.17159517224519
 20
64.949716934745652
 30
0.0
 11
310.26647033429191
 21
61.695446236451168
 31
0.0
  0
LINE
  5
5365
  8
0
 62
     3
 10
310.26647033429191
 20
61.695446236451168
 30
0.0
 11
314.17159517224519
 21
58.441175538156813
 31
0.0
  0
LINE
  5
5366
  8
0
 62
     3
 10
314.17159517224519
 20
58.441175538156813
 30
0.0
 11
318.07672001019853
 21
61.695446236451289
 31
0.0
  0
LINE
  5
5367
  8
0
 62
     3
 10
318.07672001019853
 20
61.695446236451289
 30
0.0
 11
314.1715951722453
 21
64.949716934745652
 31
0.0
  0
LINE
  5
5368
  8
0
 62
     3
 10
329.79209362257302
 20
64.949716183507462
 30
0.0
 11
325.88696878461968
 21
61.695445485213099
 31
0.0
  0
LINE
  5
5369
  8
0
 62
     3
 10
325.88696878461968
 20
61.695445485213099
 30
0.0
 11
329.79209362257302
 21
58.441174786918623
 31
0.0
  0
LINE
  5
536A
  8
0
 62
     3
 10
329.79209362257302
 20
58.441174786918623
 30
0.0
 11
333.69721846052619
 21
61.695445485213099
 31
0.0
  0
LINE
  5
536B
  8
0
 62
     3
 10
333.69721846052619
 20
61.695445485213099
 30
0.0
 11
329.79209362257308
 21
64.949716183507462
 31
0.0
  0
LINE
  5
536C
  8
0
 62
     3
 10
306.36134549633857
 20
71.458258331334491
 30
0.0
 11
302.45622065838529
 21
68.203987633040114
 31
0.0
  0
LINE
  5
536D
  8
0
 62
     3
 10
302.45622065838529
 20
68.203987633040114
 30
0.0
 11
306.36134549633857
 21
64.949716934745652
 31
0.0
  0
LINE
  5
536E
  8
0
 62
     3
 10
306.36134549633857
 20
64.949716934745652
 30
0.0
 11
310.26647033429191
 21
68.203987633040114
 31
0.0
  0
LINE
  5
536F
  8
0
 62
     3
 10
310.26647033429191
 20
68.203987633040114
 30
0.0
 11
306.36134549633869
 21
71.458258331334491
 31
0.0
  0
LINE
  5
5370
  8
0
 62
     3
 10
298.55109582043212
 20
77.96679972792333
 30
0.0
 11
294.64597098247879
 21
74.712529029628854
 31
0.0
  0
LINE
  5
5371
  8
0
 62
     3
 10
294.64597098247879
 20
74.712529029628854
 30
0.0
 11
298.55109582043212
 21
71.458258331334491
 31
0.0
  0
LINE
  5
5372
  8
0
 62
     3
 10
298.55109582043212
 20
71.458258331334491
 30
0.0
 11
302.45622065838529
 21
74.712529029628968
 31
0.0
  0
LINE
  5
5373
  8
0
 62
     3
 10
302.45622065838529
 20
74.712529029628968
 30
0.0
 11
298.55109582043218
 21
77.96679972792333
 31
0.0
  0
LINE
  5
5374
  8
0
 62
     3
 10
314.17159427075961
 20
77.966798976685254
 30
0.0
 11
310.26646943280628
 21
74.712528278390764
 31
0.0
  0
LINE
  5
5375
  8
0
 62
     3
 10
310.26646943280628
 20
74.712528278390764
 30
0.0
 11
314.17159427075961
 21
71.458257580096415
 31
0.0
  0
LINE
  5
5376
  8
0
 62
     3
 10
314.17159427075961
 20
71.458257580096415
 30
0.0
 11
318.07671910871289
 21
74.712528278390764
 31
0.0
  0
LINE
  5
5377
  8
0
 62
     3
 10
318.07671910871289
 20
74.712528278390764
 30
0.0
 11
314.17159427075973
 21
77.966798976685254
 31
0.0
  0
LINE
  5
5378
  8
0
 62
     3
 10
321.98184394666617
 20
71.458257580096415
 30
0.0
 11
318.07671910871289
 21
68.203986881802052
 31
0.0
  0
LINE
  5
5379
  8
0
 62
     3
 10
318.07671910871289
 20
68.203986881802052
 30
0.0
 11
321.98184394666617
 21
64.949716183507576
 31
0.0
  0
LINE
  5
537A
  8
0
 62
     3
 10
321.98184394666617
 20
64.949716183507576
 30
0.0
 11
325.8869687846194
 21
68.203986881802052
 31
0.0
  0
LINE
  5
537B
  8
0
 62
     3
 10
325.8869687846194
 20
68.203986881802052
 30
0.0
 11
321.98184394666629
 21
71.458257580096415
 31
0.0
  0
LINE
  5
537C
  8
0
 62
     3
 10
329.79209362257302
 20
77.966798976685254
 30
0.0
 11
325.88696878461968
 21
74.712528278390764
 31
0.0
  0
LINE
  5
537D
  8
0
 62
     3
 10
325.88696878461968
 20
74.712528278390764
 30
0.0
 11
329.79209362257302
 21
71.458257580096301
 31
0.0
  0
LINE
  5
537E
  8
0
 62
     3
 10
329.79209362257302
 20
71.458257580096301
 30
0.0
 11
333.69721846052619
 21
74.712528278390764
 31
0.0
  0
LINE
  5
537F
  8
0
 62
     3
 10
333.69721846052619
 20
74.712528278390764
 30
0.0
 11
329.79209362257308
 21
77.966798976685254
 31
0.0
  0
LINE
  5
5380
  8
0
 62
     3
 10
337.60234329847952
 20
84.475340373274094
 30
0.0
 11
333.69721846052619
 21
81.221069674979731
 31
0.0
  0
LINE
  5
5381
  8
0
 62
     3
 10
333.69721846052619
 20
81.221069674979731
 30
0.0
 11
337.60234329847952
 21
77.966798976685254
 31
0.0
  0
LINE
  5
5382
  8
0
 62
     3
 10
337.60234329847952
 20
77.966798976685254
 30
0.0
 11
341.50746813643281
 21
81.221069674979731
 31
0.0
  0
LINE
  5
5383
  8
0
 62
     3
 10
341.50746813643281
 20
81.221069674979731
 30
0.0
 11
337.60234329847958
 21
84.475340373273994
 31
0.0
  0
LINE
  5
5384
  8
0
 62
     3
 10
337.60234329847952
 20
71.458257580096301
 30
0.0
 11
333.69721846052619
 21
68.203986881801939
 31
0.0
  0
LINE
  5
5385
  8
0
 62
     3
 10
333.69721846052619
 20
68.203986881801939
 30
0.0
 11
337.60234329847952
 21
64.949716183507576
 31
0.0
  0
LINE
  5
5386
  8
0
 62
     3
 10
337.60234329847952
 20
64.949716183507576
 30
0.0
 11
341.50746813643281
 21
68.203986881802052
 31
0.0
  0
LINE
  5
5387
  8
0
 62
     3
 10
341.50746813643281
 20
68.203986881802052
 30
0.0
 11
337.60234329847958
 21
71.458257580096301
 31
0.0
  0
LINE
  5
5388
  8
0
 62
     3
 10
337.60234329847952
 20
58.441174786918623
 30
0.0
 11
333.69721846052619
 21
55.18690408862426
 31
0.0
  0
LINE
  5
5389
  8
0
 62
     3
 10
333.69721846052619
 20
55.18690408862426
 30
0.0
 11
337.60234329847952
 21
51.932633390329897
 31
0.0
  0
LINE
  5
538A
  8
0
 62
     3
 10
337.60234329847952
 20
51.932633390329897
 30
0.0
 11
341.50746813643281
 21
55.18690408862426
 31
0.0
  0
LINE
  5
538B
  8
0
 62
     3
 10
341.50746813643281
 20
55.18690408862426
 30
0.0
 11
337.60234329847958
 21
58.441174786918623
 31
0.0
  0
LINE
  5
538C
  8
0
 62
     3
 10
243.8793489905714
 20
58.441174786918623
 30
0.0
 11
239.97422415261809
 21
55.186904088624154
 31
0.0
  0
LINE
  5
538D
  8
0
 62
     3
 10
239.97422415261809
 20
55.186904088624154
 30
0.0
 11
243.8793489905714
 21
51.932633390329777
 31
0.0
  0
LINE
  5
538E
  8
0
 62
     3
 10
243.8793489905714
 20
51.932633390329777
 30
0.0
 11
247.7844738285246
 21
55.18690408862426
 31
0.0
  0
LINE
  5
538F
  8
0
 62
     3
 10
247.7844738285246
 20
55.18690408862426
 30
0.0
 11
243.87934899057149
 21
58.441174786918623
 31
0.0
  0
LINE
  5
5390
  8
0
 62
     3
 10
243.8793489905714
 20
71.458257580096301
 30
0.0
 11
239.97422415261809
 21
68.203986881801939
 31
0.0
  0
LINE
  5
5391
  8
0
 62
     3
 10
239.97422415261809
 20
68.203986881801939
 30
0.0
 11
243.8793489905714
 21
64.949716183507462
 31
0.0
  0
LINE
  5
5392
  8
0
 62
     3
 10
243.8793489905714
 20
64.949716183507462
 30
0.0
 11
247.7844738285246
 21
68.203986881801939
 31
0.0
  0
LINE
  5
5393
  8
0
 62
     3
 10
247.7844738285246
 20
68.203986881801939
 30
0.0
 11
243.87934899057149
 21
71.458257580096301
 31
0.0
  0
LINE
  5
5394
  8
0
 62
     3
 10
243.8793489905714
 20
84.475340373273994
 30
0.0
 11
239.97422415261809
 21
81.221069674979617
 31
0.0
  0
LINE
  5
5395
  8
0
 62
     3
 10
239.97422415261809
 20
81.221069674979617
 30
0.0
 11
243.8793489905714
 21
77.966798976685254
 31
0.0
  0
LINE
  5
5396
  8
0
 62
     3
 10
243.8793489905714
 20
77.966798976685254
 30
0.0
 11
247.7844738285246
 21
81.221069674979617
 31
0.0
  0
LINE
  5
5397
  8
0
 62
     3
 10
247.7844738285246
 20
81.221069674979617
 30
0.0
 11
243.87934899057149
 21
84.475340373273994
 31
0.0
  0
LINE
  5
55B5
  8
0
 62
     3
 10
353.203893657214
 20
35.424092744979021
 30
0.0
 11
353.203893657214
 21
70.983881769862251
 31
0.0
  0
LINE
  5
55B6
  8
0
 62
     3
 10
353.203893657214
 20
70.983881769862251
 30
0.0
 11
357.203893657214
 21
70.983881769862251
 31
0.0
  0
LINE
  5
55B7
  8
0
 62
     3
 10
357.203893657214
 20
70.983881769862251
 30
0.0
 11
357.203893657214
 21
100.98388176986219
 31
0.0
  0
LINE
  5
55B8
  8
0
 62
     3
 10
357.203893657214
 20
100.98388176986219
 30
0.0
 11
353.203893657214
 21
100.98388176986219
 31
0.0
  0
LINE
  5
55B9
  8
0
 62
     3
 10
353.203893657214
 20
100.98388176986219
 30
0.0
 11
353.203893657214
 21
130.98388176986219
 31
0.0
  0
LINE
  5
55BA
  8
0
 62
     3
 10
353.203893657214
 20
130.98388176986219
 30
0.0
 11
357.203893657214
 21
130.98388176986219
 31
0.0
  0
LINE
  5
55BB
  8
0
 62
     3
 10
357.203893657214
 20
130.98388176986219
 30
0.0
 11
357.203893657214
 21
160.98388176986219
 31
0.0
  0
LINE
  5
55BC
  8
0
 62
     3
 10
357.203893657214
 20
160.98388176986219
 30
0.0
 11
353.203893657214
 21
160.98388176986219
 31
0.0
  0
LINE
  5
55BD
  8
0
 62
     3
 10
353.203893657214
 20
160.98388176986219
 30
0.0
 11
353.203893657214
 21
190.98388176986219
 31
0.0
  0
LINE
  5
55C1
  8
0
 62
     3
 10
473.203893657214
 20
35.424092744979021
 30
0.0
 11
473.203893657214
 21
70.983881769862251
 31
0.0
  0
LINE
  5
55C2
  8
0
 62
     3
 10
473.203893657214
 20
70.983881769862251
 30
0.0
 11
469.20389365721388
 21
70.983881769862251
 31
0.0
  0
LINE
  5
55C3
  8
0
 62
     3
 10
469.20389365721388
 20
70.983881769862251
 30
0.0
 11
469.20389365721388
 21
100.98388176986219
 31
0.0
  0
LINE
  5
55C4
  8
0
 62
     3
 10
469.20389365721388
 20
100.98388176986219
 30
0.0
 11
473.203893657214
 21
100.98388176986219
 31
0.0
  0
LINE
  5
55C5
  8
0
 62
     3
 10
473.203893657214
 20
100.98388176986219
 30
0.0
 11
473.203893657214
 21
130.98388176986219
 31
0.0
  0
LINE
  5
55C6
  8
0
 62
     3
 10
473.203893657214
 20
130.98388176986219
 30
0.0
 11
469.20389365721388
 21
130.98388176986219
 31
0.0
  0
LINE
  5
55C7
  8
0
 62
     3
 10
469.20389365721388
 20
130.98388176986219
 30
0.0
 11
469.20389365721388
 21
160.98388176986219
 31
0.0
  0
LINE
  5
55C8
  8
0
 62
     3
 10
469.20389365721388
 20
160.98388176986219
 30
0.0
 11
473.203893657214
 21
160.98388176986219
 31
0.0
  0
LINE
  5
55C9
  8
0
 62
     3
 10
473.203893657214
 20
160.98388176986219
 30
0.0
 11
473.203893657214
 21
190.98388176986219
 31
0.0
  0
ARC
  5
5685
  8
0
 62
     3
 10
413.203893657214
 20
224.67256759560701
 30
0.0
 40
1.5
 50
0.0
 51
180.0
  0
ARC
  5
5686
  8
0
 62
     3
 10
413.203893657214
 20
219.01176179860821
 30
0.0
 40
3.5
 50
115.3769335251507
 51
64.623066474849253
  0
LINE
  5
5688
  8
0
 62
     3
 10
411.70389365721388
 20
224.67256759560701
 30
0.0
 11
411.70389365721388
 21
222.17403945877649
 31
0.0
  0
LINE
  5
5689
  8
0
 62
     3
 10
414.703893657214
 20
224.67256759560701
 30
0.0
 11
414.703893657214
 21
222.17403945877649
 31
0.0
  0
LINE
  5
56B4
  8
0
 62
     3
 10
428.20389365721388
 20
38.424092744979021
 30
0.0
 11
398.203893657214
 21
38.424092744979021
 31
0.0
  0
LINE
  5
56B5
  8
0
 62
     3
 10
398.203893657214
 20
38.424092744979021
 30
0.0
 11
398.203893657214
 21
42.424092744979021
 31
0.0
  0
LINE
  5
56B6
  8
0
 62
     3
 10
398.203893657214
 20
42.424092744979021
 30
0.0
 11
428.20389365721388
 21
42.424092744979021
 31
0.0
  0
LINE
  5
56B7
  8
0
 62
     3
 10
428.20389365721388
 20
42.424092744979021
 30
0.0
 11
428.20389365721388
 21
38.424092744979021
 31
0.0
  0
LINE
  5
56B8
  8
0
 62
     3
 10
443.203893657214
 20
38.424092744979021
 30
0.0
 11
463.203893657214
 21
38.424092744979021
 31
0.0
  0
LINE
  5
56B9
  8
0
 62
     3
 10
463.203893657214
 20
38.424092744979021
 30
0.0
 11
463.203893657214
 21
42.424092744979021
 31
0.0
  0
LINE
  5
56BA
  8
0
 62
     3
 10
463.203893657214
 20
42.424092744979021
 30
0.0
 11
443.203893657214
 21
42.424092744979021
 31
0.0
  0
LINE
  5
56BB
  8
0
 62
     3
 10
443.203893657214
 20
42.424092744979021
 30
0.0
 11
443.203893657214
 21
38.424092744979021
 31
0.0
  0
LINE
  5
56BC
  8
0
 62
     3
 10
383.203893657214
 20
38.424092744979021
 30
0.0
 11
363.203893657214
 21
38.424092744979021
 31
0.0
  0
LINE
  5
56BD
  8
0
 62
     3
 10
363.203893657214
 20
38.424092744979021
 30
0.0
 11
363.203893657214
 21
42.424092744979021
 31
0.0
  0
LINE
  5
56BE
  8
0
 62
     3
 10
363.203893657214
 20
42.424092744979021
 30
0.0
 11
383.203893657214
 21
42.424092744979021
 31
0.0
  0
LINE
  5
56BF
  8
0
 62
     3
 10
383.203893657214
 20
42.424092744979021
 30
0.0
 11
383.203893657214
 21
38.424092744979021
 31
0.0
  0
LINE
  5
56D2
  8
0
 62
     3
 10
230.740847046011
 20
35.424092744979021
 30
0.0
 11
350.74084704601103
 21
35.424092744979021
 31
0.0
  0
LINE
  5
56D4
  8
0
 62
     3
 10
353.203893657214
 20
35.424092744979021
 30
0.0
 11
473.203893657214
 21
35.424092744979021
 31
0.0
  0
LINE
  5
56E5
  8
0
 62
     3
 10
610.52407903660014
 20
56.889713840676343
 30
0.0
 11
610.52407903660014
 21
31.88971384067634
 31
0.0
  0
LINE
  5
56E6
  8
0
 62
     3
 10
498.5240790366002
 20
31.88971384067634
 30
0.0
 11
610.52407903660014
 21
31.88971384067634
 31
0.0
  0
LINE
  5
56ED
  8
0
 62
     3
 10
504.52407903660009
 20
111.88971384067629
 30
0.0
 11
504.52407903660009
 21
115.88971384067629
 31
0.0
  0
LINE
  5
56EF
  8
0
 62
     3
 10
504.52407903660009
 20
115.88971384067629
 30
0.0
 11
524.52407903660014
 21
115.88971384067629
 31
0.0
  0
LINE
  5
56F0
  8
0
 62
     3
 10
524.52407903660014
 20
115.88971384067629
 30
0.0
 11
524.52407903660014
 21
111.88971384067629
 31
0.0
  0
LINE
  5
56F1
  8
0
 62
     3
 10
539.52407903660014
 20
111.88971384067629
 30
0.0
 11
539.52407903660014
 21
115.88971384067629
 31
0.0
  0
LINE
  5
56F2
  8
0
 62
     3
 10
539.52407903660014
 20
115.88971384067629
 30
0.0
 11
569.52407903660014
 21
115.88971384067629
 31
0.0
  0
LINE
  5
56F3
  8
0
 62
     3
 10
569.52407903660014
 20
115.88971384067629
 30
0.0
 11
569.52407903660014
 21
111.88971384067629
 31
0.0
  0
LINE
  5
56F4
  8
0
 62
     3
 10
584.52407903660014
 20
111.88971384067629
 30
0.0
 11
584.52407903660014
 21
115.88971384067629
 31
0.0
  0
LINE
  5
56F5
  8
0
 62
     3
 10
584.52407903660014
 20
115.88971384067629
 30
0.0
 11
604.52407903660014
 21
115.88971384067629
 31
0.0
  0
LINE
  5
56F6
  8
0
 62
     3
 10
604.52407903660014
 20
115.88971384067629
 30
0.0
 11
604.52407903660014
 21
111.88971384067629
 31
0.0
  0
LINE
  5
56F7
  8
0
 62
     3
 10
498.5240790366002
 20
111.88971384067629
 30
0.0
 11
504.52407903660009
 21
111.88971384067629
 31
0.0
  0
LINE
  5
56F8
  8
0
 62
     3
 10
524.52407903660014
 20
111.88971384067629
 30
0.0
 11
539.52407903660014
 21
111.88971384067629
 31
0.0
  0
LINE
  5
56F9
  8
0
 62
     3
 10
569.52407903660014
 20
111.88971384067629
 30
0.0
 11
584.52407903660014
 21
111.88971384067629
 31
0.0
  0
LINE
  5
56FA
  8
0
 62
     3
 10
604.52407903660014
 20
111.88971384067629
 30
0.0
 11
610.52407903660014
 21
111.88971384067629
 31
0.0
  0
LINE
  5
570E
  8
0
 62
     3
 10
494.5240790366002
 20
56.889713840676343
 30
0.0
 11
494.5240790366002
 21
86.889713840676336
 31
0.0
  0
LINE
  5
570F
  8
0
 62
     3
 10
494.5240790366002
 20
86.889713840676336
 30
0.0
 11
498.5240790366002
 21
86.889713840676336
 31
0.0
  0
LINE
  5
5710
  8
0
 62
     3
 10
498.5240790366002
 20
86.889713840676336
 30
0.0
 11
498.5240790366002
 21
111.88971384067629
 31
0.0
  0
LINE
  5
5711
  8
0
 62
     3
 10
494.5240790366002
 20
56.889713840676343
 30
0.0
 11
498.5240790366002
 21
56.889713840676343
 31
0.0
  0
LINE
  5
5714
  8
0
 62
     3
 10
614.52407903660014
 20
56.889713840676343
 30
0.0
 11
614.52407903660014
 21
86.889713840676336
 31
0.0
  0
LINE
  5
5715
  8
0
 62
     3
 10
614.52407903660014
 20
86.889713840676336
 30
0.0
 11
610.52407903660014
 21
86.889713840676336
 31
0.0
  0
LINE
  5
5716
  8
0
 62
     3
 10
614.52407903660014
 20
56.889713840676343
 30
0.0
 11
610.52407903660014
 21
56.889713840676343
 31
0.0
  0
LINE
  5
5717
  8
0
 62
     3
 10
498.5240790366002
 20
31.88971384067634
 30
0.0
 11
498.5240790366002
 21
56.889713840676343
 31
0.0
  0
LINE
  5
5718
  8
0
 62
     3
 10
610.52407903660014
 20
86.889713840676336
 30
0.0
 11
610.52407903660014
 21
111.88971384067629
 31
0.0
  0
LINE
  5
57BF
  8
0
 62
     3
 10
258.9089612956335
 20
219.66414438074449
 30
0.0
 11
243.54453570368611
 21
206.8604563874548
 31
0.0
  0
LINE
  5
57C9
  8
0
 62
     3
 10
261.46969936261507
 20
216.59125870036641
 30
0.0
 11
258.9089612956335
 21
219.6641443807442
 31
0.0
  0
LINE
  5
57D1
  8
0
 62
     3
 10
246.10527377066771
 20
203.78757070707701
 30
0.0
 11
243.54453570368611
 21
206.8604563874548
 31
0.0
  0
LINE
  5
57DA
  8
0
 62
     3
 10
261.46969936261519
 20
216.59125870036661
 30
0.0
 11
290.74084704601103
 21
240.9838817698629
 31
0.0
  0
LINE
  5
57E6
  8
0
 62
     3
 10
350.74084704601103
 20
190.9838817698629
 30
0.0
 11
335.3764203213542
 21
203.78757070707701
 31
0.0
  0
LINE
  5
57E7
  8
0
 62
     3
 10
320.01199472940681
 20
216.59125870036661
 30
0.0
 11
290.74084704601103
 21
240.9838817698629
 31
0.0
  0
LINE
  5
57E8
  8
0
 62
     3
 10
322.57273279638838
 20
219.66414438074449
 30
0.0
 11
337.93715838833589
 21
206.8604563874548
 31
0.0
  0
LINE
  5
57E9
  8
0
 62
     3
 10
320.01199472940692
 20
216.59125870036641
 30
0.0
 11
322.57273279638838
 21
219.6641443807442
 31
0.0
  0
LINE
  5
57EA
  8
0
 62
     3
 10
335.37642032135432
 20
203.78757070707701
 30
0.0
 11
337.93715838833589
 21
206.8604563874548
 31
0.0
  0
LINE
  5
57FB
  8
0
 62
     3
 10
353.203893657214
 20
190.98388116770241
 30
0.0
 11
368.56832038187071
 21
203.7875701049164
 31
0.0
  0
LINE
  5
57FC
  8
0
 62
     3
 10
383.93274597381821
 20
216.591258098206
 30
0.0
 11
413.203893657214
 21
240.98388116770241
 31
0.0
  0
LINE
  5
57FD
  8
0
 62
     3
 10
381.37200790683659
 20
219.66414377858391
 30
0.0
 11
366.00758231488908
 21
206.86045578529431
 31
0.0
  0
LINE
  5
57FE
  8
0
 62
     3
 10
383.9327459738181
 20
216.59125809820591
 30
0.0
 11
381.37200790683659
 21
219.66414377858371
 31
0.0
  0
LINE
  5
57FF
  8
0
 62
     3
 10
368.56832038187071
 20
203.7875701049164
 30
0.0
 11
366.00758231488908
 21
206.86045578529419
 31
0.0
  0
LINE
  5
5800
  8
0
 62
     3
 10
473.203893657214
 20
190.98388116770241
 30
0.0
 11
457.83946693255729
 21
203.7875701049164
 31
0.0
  0
LINE
  5
5801
  8
0
 62
     3
 10
442.47504134060978
 20
216.591258098206
 30
0.0
 11
413.203893657214
 21
240.98388116770241
 31
0.0
  0
LINE
  5
5802
  8
0
 62
     3
 10
445.03577940759129
 20
219.66414377858391
 30
0.0
 11
460.4002049995388
 21
206.86045578529431
 31
0.0
  0
LINE
  5
5803
  8
0
 62
     3
 10
442.47504134060978
 20
216.59125809820591
 30
0.0
 11
445.03577940759129
 21
219.66414377858371
 31
0.0
  0
LINE
  5
5804
  8
0
 62
     3
 10
457.83946693255729
 20
203.7875701049164
 30
0.0
 11
460.4002049995388
 21
206.86045578529419
 31
0.0
  0
LINE
  5
6394
  8
0
 62
     3
 10
29.031303196603339
 20
57.803002884289981
 30
0.0
 11
33.031303196603353
 21
57.803002884289981
 31
0.0
  0
LINE
  5
6395
  8
0
 62
     3
 10
33.031303196603403
 20
87.803002884289981
 30
0.0
 11
29.0313031966034
 21
87.803002884289981
 31
0.0
  0
LINE
  5
6396
  8
0
 62
     3
 10
29.0313031966034
 20
117.8030028842899
 30
0.0
 11
33.031303196603403
 21
117.8030028842899
 31
0.0
  0
LINE
  5
6397
  8
0
 62
     3
 10
33.031303196603403
 20
147.80300288429001
 30
0.0
 11
29.0313031966034
 21
147.80300288429001
 31
0.0
  0
LINE
  5
6398
  8
0
 62
     3
 10
43.031303196603339
 20
82.803002884289981
 30
0.0
 11
73.03130319660346
 21
82.803002884289981
 31
0.0
  0
LINE
  5
6399
  8
0
 62
     3
 10
65.221053520696785
 20
77.803002884289981
 30
0.0
 11
61.315928682743497
 21
74.548732185995505
 31
0.0
  0
LINE
  5
639A
  8
0
 62
     3
 10
61.315928682743497
 20
74.548732185995505
 30
0.0
 11
65.221053520696785
 21
71.294461487701142
 31
0.0
  0
LINE
  5
639B
  8
0
 62
     3
 10
65.221053520696785
 20
71.294461487701142
 30
0.0
 11
69.126178358650066
 21
74.548732185995505
 31
0.0
  0
LINE
  5
639C
  8
0
 62
     3
 10
69.126178358650066
 20
74.548732185995505
 30
0.0
 11
65.221053520696898
 21
77.803002884289981
 31
0.0
  0
LINE
  5
639D
  8
0
 62
     3
 10
49.600554168883427
 20
77.803002884289981
 30
0.0
 11
45.695429330930153
 21
74.548732185995505
 31
0.0
  0
LINE
  5
639E
  8
0
 62
     3
 10
45.695429330930153
 20
74.548732185995505
 30
0.0
 11
49.600554168883427
 21
71.294461487701142
 31
0.0
  0
LINE
  5
639F
  8
0
 62
     3
 10
49.600554168883427
 20
71.294461487701142
 30
0.0
 11
53.505679006836708
 21
74.548732185995505
 31
0.0
  0
LINE
  5
63A0
  8
0
 62
     3
 10
53.505679006836708
 20
74.548732185995505
 30
0.0
 11
49.600554168883548
 21
77.803002884289981
 31
0.0
  0
LINE
  5
63A1
  8
0
 62
     3
 10
41.790304492976979
 20
71.294461487701255
 30
0.0
 11
37.885179655023713
 21
68.040190789406779
 31
0.0
  0
LINE
  5
63A2
  8
0
 62
     3
 10
37.885179655023713
 20
68.040190789406779
 30
0.0
 11
41.790304492976979
 21
64.785920091112303
 31
0.0
  0
LINE
  5
63A3
  8
0
 62
     3
 10
41.790304492976979
 20
64.785920091112303
 30
0.0
 11
45.695429330930267
 21
68.040190789406779
 31
0.0
  0
LINE
  5
63A4
  8
0
 62
     3
 10
45.695429330930267
 20
68.040190789406779
 30
0.0
 11
41.7903044929771
 21
71.294461487701142
 31
0.0
  0
LINE
  5
63A5
  8
0
 62
     3
 10
57.41080384479023
 20
71.294461487701255
 30
0.0
 11
53.505679006836942
 21
68.040190789406779
 31
0.0
  0
LINE
  5
63A6
  8
0
 62
     3
 10
53.505679006836942
 20
68.040190789406779
 30
0.0
 11
57.41080384479023
 21
64.785920091112303
 31
0.0
  0
LINE
  5
63A7
  8
0
 62
     3
 10
57.41080384479023
 20
64.785920091112303
 30
0.0
 11
61.315928682743497
 21
68.040190789406779
 31
0.0
  0
LINE
  5
63A8
  8
0
 62
     3
 10
61.315928682743497
 20
68.040190789406779
 30
0.0
 11
57.41080384479033
 21
71.294461487701255
 31
0.0
  0
LINE
  5
63A9
  8
0
 62
     3
 10
73.031302295117882
 20
71.294462238939332
 30
0.0
 11
69.126177457164488
 21
68.040191540644855
 31
0.0
  0
LINE
  5
63AA
  8
0
 62
     3
 10
69.126177457164488
 20
68.040191540644855
 30
0.0
 11
73.031302295117882
 21
64.785920842350492
 31
0.0
  0
LINE
  5
63AB
  8
0
 62
     3
 10
73.031302295117882
 20
64.785920842350492
 30
0.0
 11
76.936427133071163
 21
68.040191540644855
 31
0.0
  0
LINE
  5
63AC
  8
0
 62
     3
 10
76.936427133071163
 20
68.040191540644855
 30
0.0
 11
73.031302295117996
 21
71.294462238939332
 31
0.0
  0
LINE
  5
63AD
  8
0
 62
     3
 10
41.790303591491181
 20
45.26029665258374
 30
0.0
 11
37.8851787535379
 21
42.006025954289377
 31
0.0
  0
LINE
  5
63AE
  8
0
 62
     3
 10
37.8851787535379
 20
42.006025954289377
 30
0.0
 11
41.790303591491181
 21
38.751755255995022
 31
0.0
  0
LINE
  5
63AF
  8
0
 62
     3
 10
41.790303591491181
 20
38.751755255995022
 30
0.0
 11
45.695428429444462
 21
42.006025954289491
 31
0.0
  0
LINE
  5
63B0
  8
0
 62
     3
 10
45.695428429444462
 20
42.006025954289491
 30
0.0
 11
41.790303591491302
 21
45.26029665258374
 31
0.0
  0
LINE
  5
63B1
  8
0
 62
     3
 10
41.790304492976979
 20
58.277378694523463
 30
0.0
 11
37.885179655023713
 21
55.023107996229101
 31
0.0
  0
LINE
  5
63B2
  8
0
 62
     3
 10
37.885179655023713
 20
55.023107996229101
 30
0.0
 11
41.790304492976979
 21
51.768837297934631
 31
0.0
  0
LINE
  5
63B3
  8
0
 62
     3
 10
41.790304492976979
 20
51.768837297934631
 30
0.0
 11
45.695429330930267
 21
55.023107996229101
 31
0.0
  0
LINE
  5
63B4
  8
0
 62
     3
 10
45.695429330930267
 20
55.023107996229101
 30
0.0
 11
41.7903044929771
 21
58.277378694523343
 31
0.0
  0
LINE
  5
63B5
  8
0
 62
     3
 10
49.600554168883548
 20
64.785920091112303
 30
0.0
 11
45.695429330930267
 21
61.531649392817833
 31
0.0
  0
LINE
  5
63B6
  8
0
 62
     3
 10
45.695429330930267
 20
61.531649392817833
 30
0.0
 11
49.600554168883548
 21
58.277378694523463
 31
0.0
  0
LINE
  5
63B7
  8
0
 62
     3
 10
49.600554168883548
 20
58.277378694523463
 30
0.0
 11
53.505679006836829
 21
61.531649392817933
 31
0.0
  0
LINE
  5
63B8
  8
0
 62
     3
 10
53.505679006836829
 20
61.531649392817933
 30
0.0
 11
49.600554168883662
 21
64.785920091112303
 31
0.0
  0
LINE
  5
63B9
  8
0
 62
     3
 10
49.600553267397849
 20
51.7688380491727
 30
0.0
 11
45.695428429444569
 21
48.514567350878217
 31
0.0
  0
LINE
  5
63BA
  8
0
 62
     3
 10
45.695428429444569
 20
48.514567350878217
 30
0.0
 11
49.600553267397849
 21
45.260296652583861
 31
0.0
  0
LINE
  5
63BB
  8
0
 62
     3
 10
49.600553267397849
 20
45.260296652583861
 30
0.0
 11
53.505678105351137
 21
48.51456735087833
 31
0.0
  0
LINE
  5
63BC
  8
0
 62
     3
 10
53.505678105351137
 20
48.51456735087833
 30
0.0
 11
49.60055326739797
 21
51.7688380491727
 31
0.0
  0
LINE
  5
63BD
  8
0
 62
     3
 10
49.600553267397849
 20
38.751755255995022
 30
0.0
 11
45.695428429444569
 21
35.497484557700552
 31
0.0
  0
LINE
  5
63BE
  8
0
 62
     3
 10
45.695428429444569
 20
35.497484557700552
 30
0.0
 11
49.600553267397849
 21
32.243213859406069
 31
0.0
  0
LINE
  5
63BF
  8
0
 62
     3
 10
49.600553267397849
 20
32.243213859406069
 30
0.0
 11
53.505678105351137
 21
35.497484557700552
 31
0.0
  0
LINE
  5
63C0
  8
0
 62
     3
 10
53.505678105351137
 20
35.497484557700552
 30
0.0
 11
49.60055326739797
 21
38.751755255995022
 31
0.0
  0
LINE
  5
63C1
  8
0
 62
     3
 10
57.410802943304532
 20
45.260296652583861
 30
0.0
 11
53.505678105351251
 21
42.006025954289491
 31
0.0
  0
LINE
  5
63C2
  8
0
 62
     3
 10
53.505678105351251
 20
42.006025954289491
 30
0.0
 11
57.410802943304532
 21
38.751755255995022
 31
0.0
  0
LINE
  5
63C3
  8
0
 62
     3
 10
57.410802943304532
 20
38.751755255995022
 30
0.0
 11
61.315927781257813
 21
42.006025954289491
 31
0.0
  0
LINE
  5
63C4
  8
0
 62
     3
 10
61.315927781257813
 20
42.006025954289491
 30
0.0
 11
57.410802943304653
 21
45.260296652583861
 31
0.0
  0
LINE
  5
63C5
  8
0
 62
     3
 10
57.410802943304411
 20
58.277379445761653
 30
0.0
 11
53.505678105351137
 21
55.023108747467177
 31
0.0
  0
LINE
  5
63C6
  8
0
 62
     3
 10
53.505678105351137
 20
55.023108747467177
 30
0.0
 11
57.410802943304411
 21
51.7688380491727
 31
0.0
  0
LINE
  5
63C7
  8
0
 62
     3
 10
57.410802943304411
 20
51.7688380491727
 30
0.0
 11
61.315927781257699
 21
55.023108747467177
 31
0.0
  0
LINE
  5
63C8
  8
0
 62
     3
 10
61.315927781257699
 20
55.023108747467177
 30
0.0
 11
57.410802943304532
 21
58.277379445761653
 31
0.0
  0
LINE
  5
63C9
  8
0
 62
     3
 10
65.221052619211207
 20
64.785920842350379
 30
0.0
 11
61.315927781257919
 21
61.531650144056009
 31
0.0
  0
LINE
  5
63CA
  8
0
 62
     3
 10
61.315927781257919
 20
61.531650144056009
 30
0.0
 11
65.221052619211207
 21
58.277379445761653
 31
0.0
  0
LINE
  5
63CB
  8
0
 62
     3
 10
65.221052619211207
 20
58.277379445761653
 30
0.0
 11
69.126177457164488
 21
61.53165014405613
 31
0.0
  0
LINE
  5
63CC
  8
0
 62
     3
 10
69.126177457164488
 20
61.53165014405613
 30
0.0
 11
65.221052619211321
 21
64.785920842350379
 31
0.0
  0
LINE
  5
63CD
  8
0
 62
     3
 10
65.221052619211093
 20
51.7688380491727
 30
0.0
 11
61.315927781257813
 21
48.514567350878217
 31
0.0
  0
LINE
  5
63CE
  8
0
 62
     3
 10
61.315927781257813
 20
48.514567350878217
 30
0.0
 11
65.221052619211093
 21
45.260296652583861
 31
0.0
  0
LINE
  5
63CF
  8
0
 62
     3
 10
65.221052619211093
 20
45.260296652583861
 30
0.0
 11
69.126177457164374
 21
48.51456735087833
 31
0.0
  0
LINE
  5
63D0
  8
0
 62
     3
 10
69.126177457164374
 20
48.51456735087833
 30
0.0
 11
65.221052619211207
 21
51.7688380491727
 31
0.0
  0
LINE
  5
63D1
  8
0
 62
     3
 10
65.221052619211207
 20
38.751755255995022
 30
0.0
 11
61.315927781257919
 21
35.497484557700552
 31
0.0
  0
LINE
  5
63D2
  8
0
 62
     3
 10
61.315927781257919
 20
35.497484557700552
 30
0.0
 11
65.221052619211207
 21
32.243213859406069
 31
0.0
  0
LINE
  5
63D3
  8
0
 62
     3
 10
65.221052619211207
 20
32.243213859406069
 30
0.0
 11
69.126177457164488
 21
35.497484557700552
 31
0.0
  0
LINE
  5
63D4
  8
0
 62
     3
 10
69.126177457164488
 20
35.497484557700552
 30
0.0
 11
65.221052619211321
 21
38.751755255995022
 31
0.0
  0
LINE
  5
63D5
  8
0
 62
     3
 10
73.031303196603403
 20
45.260295901345899
 30
0.0
 11
69.126178358650066
 21
42.006025203051422
 31
0.0
  0
LINE
  5
63D6
  8
0
 62
     3
 10
69.126178358650066
 20
42.006025203051422
 30
0.0
 11
73.031303196603403
 21
38.751754504757059
 31
0.0
  0
LINE
  5
63D7
  8
0
 62
     3
 10
73.031303196603403
 20
38.751754504757059
 30
0.0
 11
76.936428034556684
 21
42.006025203051422
 31
0.0
  0
LINE
  5
63D8
  8
0
 62
     3
 10
76.936428034556684
 20
42.006025203051422
 30
0.0
 11
73.031303196603517
 21
45.260295901345899
 31
0.0
  0
LINE
  5
63D9
  8
0
 62
     3
 10
73.031302295117769
 20
58.277379445761653
 30
0.0
 11
69.126177457164374
 21
55.023108747467177
 31
0.0
  0
LINE
  5
63DA
  8
0
 62
     3
 10
69.126177457164374
 20
55.023108747467177
 30
0.0
 11
73.031302295117769
 21
51.768838049172807
 31
0.0
  0
LINE
  5
63DB
  8
0
 62
     3
 10
73.031302295117769
 20
51.768838049172807
 30
0.0
 11
76.936427133071049
 21
55.02310874746729
 31
0.0
  0
LINE
  5
63DC
  8
0
 62
     3
 10
76.936427133071049
 20
55.02310874746729
 30
0.0
 11
73.031302295117882
 21
58.277379445761653
 31
0.0
  0
LINE
  5
63DD
  8
0
 62
     3
 10
33.031303196603403
 20
22.243213859406751
 30
0.0
 11
33.031303196603353
 21
57.803002884289981
 31
0.0
  0
LINE
  5
63DE
  8
0
 62
     3
 10
29.031303196603339
 20
57.803002884289981
 30
0.0
 11
29.0313031966034
 21
87.803002884289981
 31
0.0
  0
LINE
  5
63DF
  8
0
 62
     3
 10
33.031303196603403
 20
87.803002884289981
 30
0.0
 11
33.031303196603403
 21
117.8030028842899
 31
0.0
  0
LINE
  5
63E0
  8
0
 62
     3
 10
29.0313031966034
 20
117.8030028842899
 30
0.0
 11
29.0313031966034
 21
147.80300288429009
 31
0.0
  0
LINE
  5
63E1
  8
0
 62
     3
 10
33.031303196603403
 20
147.80300288429009
 30
0.0
 11
33.031303196603403
 21
177.80300288429001
 31
0.0
  0
ARC
  5
63E2
  8
0
 62
     3
 10
73.03130319660346
 20
142.80300288429021
 30
0.0
 40
30.0
 50
0.0
 51
180.0
  0
LINE
  5
63E3
  8
0
 62
     3
 10
43.031303196603339
 20
82.803002884289981
 30
0.0
 11
43.031303196603403
 21
142.80300288429021
 31
0.0
  0
LINE
  5
63E4
  8
0
 62
     3
 10
103.0313031966034
 20
82.803002884289981
 30
0.0
 11
73.03130319660346
 21
82.803002884289981
 31
0.0
  0
LINE
  5
63E5
  8
0
 62
     3
 10
103.0313031966034
 20
82.803002884289981
 30
0.0
 11
103.0313031966034
 21
142.80300288429021
 31
0.0
  0
LINE
  5
63E6
  8
0
 62
     3
 10
117.0313031966034
 20
57.803002884289981
 30
0.0
 11
113.0313031966034
 21
57.803002884289981
 31
0.0
  0
LINE
  5
63E7
  8
0
 62
     3
 10
113.0313031966034
 20
87.803002884289981
 30
0.0
 11
117.0313031966034
 21
87.803002884289981
 31
0.0
  0
LINE
  5
63E8
  8
0
 62
     3
 10
117.0313031966034
 20
117.8030028842899
 30
0.0
 11
113.0313031966034
 21
117.8030028842899
 31
0.0
  0
LINE
  5
63E9
  8
0
 62
     3
 10
113.0313031966034
 20
147.80300288429001
 30
0.0
 11
117.0313031966034
 21
147.80300288429001
 31
0.0
  0
LINE
  5
63EA
  8
0
 62
     3
 10
80.841552872510022
 20
77.803002884289981
 30
0.0
 11
84.746677710463302
 21
74.548732185995505
 31
0.0
  0
LINE
  5
63EB
  8
0
 62
     3
 10
84.746677710463302
 20
74.548732185995505
 30
0.0
 11
80.841552872510022
 21
71.294461487701142
 31
0.0
  0
LINE
  5
63EC
  8
0
 62
     3
 10
80.841552872510022
 20
71.294461487701142
 30
0.0
 11
76.936428034556741
 21
74.548732185995505
 31
0.0
  0
LINE
  5
63ED
  8
0
 62
     3
 10
76.936428034556741
 20
74.548732185995505
 30
0.0
 11
80.841552872509908
 21
77.803002884289981
 31
0.0
  0
LINE
  5
63EE
  8
0
 62
     3
 10
96.462052224323372
 20
77.803002884289981
 30
0.0
 11
100.3671770622766
 21
74.548732185995505
 31
0.0
  0
LINE
  5
63EF
  8
0
 62
     3
 10
100.3671770622766
 20
74.548732185995505
 30
0.0
 11
96.462052224323372
 21
71.294461487701142
 31
0.0
  0
LINE
  5
63F0
  8
0
 62
     3
 10
96.462052224323372
 20
71.294461487701142
 30
0.0
 11
92.556927386370091
 21
74.548732185995505
 31
0.0
  0
LINE
  5
63F1
  8
0
 62
     3
 10
92.556927386370091
 20
74.548732185995505
 30
0.0
 11
96.462052224323259
 21
77.803002884289981
 31
0.0
  0
LINE
  5
63F2
  8
0
 62
     3
 10
104.27230190022981
 20
71.294461487701255
 30
0.0
 11
108.1774267381831
 21
68.040190789406779
 31
0.0
  0
LINE
  5
63F3
  8
0
 62
     3
 10
108.1774267381831
 20
68.040190789406779
 30
0.0
 11
104.27230190022981
 21
64.785920091112303
 31
0.0
  0
LINE
  5
63F4
  8
0
 62
     3
 10
104.27230190022981
 20
64.785920091112303
 30
0.0
 11
100.3671770622765
 21
68.040190789406779
 31
0.0
  0
LINE
  5
63F5
  8
0
 62
     3
 10
100.3671770622765
 20
68.040190789406779
 30
0.0
 11
104.27230190022971
 21
71.294461487701142
 31
0.0
  0
LINE
  5
63F6
  8
0
 62
     3
 10
88.651802548416583
 20
71.294461487701255
 30
0.0
 11
92.556927386369864
 21
68.040190789406779
 31
0.0
  0
LINE
  5
63F7
  8
0
 62
     3
 10
92.556927386369864
 20
68.040190789406779
 30
0.0
 11
88.651802548416583
 21
64.785920091112303
 31
0.0
  0
LINE
  5
63F8
  8
0
 62
     3
 10
88.651802548416583
 20
64.785920091112303
 30
0.0
 11
84.746677710463302
 21
68.040190789406779
 31
0.0
  0
LINE
  5
63F9
  8
0
 62
     3
 10
84.746677710463302
 20
68.040190789406779
 30
0.0
 11
88.651802548416455
 21
71.294461487701255
 31
0.0
  0
LINE
  5
63FA
  8
0
 62
     3
 10
104.2723028017155
 20
45.26029665258374
 30
0.0
 11
108.17742763966881
 21
42.006025954289377
 31
0.0
  0
LINE
  5
63FB
  8
0
 62
     3
 10
108.17742763966881
 20
42.006025954289377
 30
0.0
 11
104.2723028017155
 21
38.751755255995022
 31
0.0
  0
LINE
  5
63FC
  8
0
 62
     3
 10
104.2723028017155
 20
38.751755255995022
 30
0.0
 11
100.3671779637623
 21
42.006025954289491
 31
0.0
  0
LINE
  5
63FD
  8
0
 62
     3
 10
100.3671779637623
 20
42.006025954289491
 30
0.0
 11
104.2723028017154
 21
45.26029665258374
 31
0.0
  0
LINE
  5
63FE
  8
0
 62
     3
 10
104.27230190022981
 20
58.277378694523463
 30
0.0
 11
108.1774267381831
 21
55.023107996229101
 31
0.0
  0
LINE
  5
63FF
  8
0
 62
     3
 10
108.1774267381831
 20
55.023107996229101
 30
0.0
 11
104.27230190022981
 21
51.768837297934631
 31
0.0
  0
LINE
  5
6400
  8
0
 62
     3
 10
104.27230190022981
 20
51.768837297934631
 30
0.0
 11
100.3671770622765
 21
55.023107996229101
 31
0.0
  0
LINE
  5
6401
  8
0
 62
     3
 10
100.3671770622765
 20
55.023107996229101
 30
0.0
 11
104.27230190022971
 21
58.277378694523343
 31
0.0
  0
LINE
  5
6402
  8
0
 62
     3
 10
96.462052224323259
 20
64.785920091112303
 30
0.0
 11
100.3671770622765
 21
61.531649392817833
 31
0.0
  0
LINE
  5
6403
  8
0
 62
     3
 10
100.3671770622765
 20
61.531649392817833
 30
0.0
 11
96.462052224323259
 21
58.277378694523463
 31
0.0
  0
LINE
  5
6404
  8
0
 62
     3
 10
96.462052224323259
 20
58.277378694523463
 30
0.0
 11
92.556927386369978
 21
61.531649392817933
 31
0.0
  0
LINE
  5
6405
  8
0
 62
     3
 10
92.556927386369978
 20
61.531649392817933
 30
0.0
 11
96.462052224323145
 21
64.785920091112303
 31
0.0
  0
LINE
  5
6406
  8
0
 62
     3
 10
96.462053125808964
 20
51.7688380491727
 30
0.0
 11
100.3671779637621
 21
48.514567350878217
 31
0.0
  0
LINE
  5
6407
  8
0
 62
     3
 10
100.3671779637621
 20
48.514567350878217
 30
0.0
 11
96.462053125808893
 21
45.260296652583861
 31
0.0
  0
LINE
  5
6408
  8
0
 62
     3
 10
96.462053125808893
 20
45.260296652583861
 30
0.0
 11
92.556928287855598
 21
48.51456735087833
 31
0.0
  0
LINE
  5
6409
  8
0
 62
     3
 10
92.556928287855598
 20
48.51456735087833
 30
0.0
 11
96.462053125808836
 21
51.7688380491727
 31
0.0
  0
LINE
  5
640A
  8
0
 62
     3
 10
96.462053125808893
 20
38.751755255995022
 30
0.0
 11
100.3671779637621
 21
35.497484557700552
 31
0.0
  0
LINE
  5
640B
  8
0
 62
     3
 10
100.3671779637621
 20
35.497484557700552
 30
0.0
 11
96.462053125808893
 21
32.243213859406069
 31
0.0
  0
LINE
  5
640C
  8
0
 62
     3
 10
96.462053125808893
 20
32.243213859406069
 30
0.0
 11
92.556928287855598
 21
35.497484557700552
 31
0.0
  0
LINE
  5
640D
  8
0
 62
     3
 10
92.556928287855598
 20
35.497484557700552
 30
0.0
 11
96.462053125808779
 21
38.751755255995022
 31
0.0
  0
LINE
  5
640E
  8
0
 62
     3
 10
88.651803449902204
 20
45.260296652583861
 30
0.0
 11
92.556928287855499
 21
42.006025954289491
 31
0.0
  0
LINE
  5
640F
  8
0
 62
     3
 10
92.556928287855499
 20
42.006025954289491
 30
0.0
 11
88.651803449902204
 21
38.751755255995022
 31
0.0
  0
LINE
  5
6410
  8
0
 62
     3
 10
88.651803449902204
 20
38.751755255995022
 30
0.0
 11
84.746678611948937
 21
42.006025954289491
 31
0.0
  0
LINE
  5
6411
  8
0
 62
     3
 10
84.746678611948937
 20
42.006025954289491
 30
0.0
 11
88.651803449902104
 21
45.260296652583861
 31
0.0
  0
LINE
  5
6412
  8
0
 62
     3
 10
88.651803449902388
 20
58.277379445761653
 30
0.0
 11
92.556928287855669
 21
55.023108747467177
 31
0.0
  0
LINE
  5
6413
  8
0
 62
     3
 10
92.556928287855669
 20
55.023108747467177
 30
0.0
 11
88.651803449902388
 21
51.7688380491727
 31
0.0
  0
LINE
  5
6414
  8
0
 62
     3
 10
88.651803449902388
 20
51.7688380491727
 30
0.0
 11
84.746678611949108
 21
55.023108747467177
 31
0.0
  0
LINE
  5
6415
  8
0
 62
     3
 10
84.746678611949108
 20
55.023108747467177
 30
0.0
 11
88.651803449902275
 21
58.277379445761653
 31
0.0
  0
LINE
  5
6416
  8
0
 62
     3
 10
80.841553773995585
 20
64.785920842350379
 30
0.0
 11
84.74667861194888
 21
61.531650144056009
 31
0.0
  0
LINE
  5
6417
  8
0
 62
     3
 10
84.74667861194888
 20
61.531650144056009
 30
0.0
 11
80.841553773995585
 21
58.277379445761653
 31
0.0
  0
LINE
  5
6418
  8
0
 62
     3
 10
80.841553773995585
 20
58.277379445761653
 30
0.0
 11
76.936428936042319
 21
61.53165014405613
 31
0.0
  0
LINE
  5
6419
  8
0
 62
     3
 10
76.936428936042319
 20
61.53165014405613
 30
0.0
 11
80.841553773995486
 21
64.785920842350379
 31
0.0
  0
LINE
  5
641A
  8
0
 62
     3
 10
80.841553773995713
 20
51.7688380491727
 30
0.0
 11
84.746678611948937
 21
48.514567350878217
 31
0.0
  0
LINE
  5
641B
  8
0
 62
     3
 10
84.746678611948937
 20
48.514567350878217
 30
0.0
 11
80.841553773995656
 21
45.260296652583861
 31
0.0
  0
LINE
  5
641C
  8
0
 62
     3
 10
80.841553773995656
 20
45.260296652583861
 30
0.0
 11
76.936428936042375
 21
48.51456735087833
 31
0.0
  0
LINE
  5
641D
  8
0
 62
     3
 10
76.936428936042375
 20
48.51456735087833
 30
0.0
 11
80.841553773995585
 21
51.7688380491727
 31
0.0
  0
LINE
  5
641E
  8
0
 62
     3
 10
80.841553773995543
 20
38.751755255995022
 30
0.0
 11
84.746678611948823
 21
35.497484557700552
 31
0.0
  0
LINE
  5
641F
  8
0
 62
     3
 10
84.746678611948823
 20
35.497484557700552
 30
0.0
 11
80.841553773995543
 21
32.243213859406069
 31
0.0
  0
LINE
  5
6420
  8
0
 62
     3
 10
80.841553773995543
 20
32.243213859406069
 30
0.0
 11
76.936428936042262
 21
35.497484557700552
 31
0.0
  0
LINE
  5
6421
  8
0
 62
     3
 10
76.936428936042262
 20
35.497484557700552
 30
0.0
 11
80.841553773995429
 21
38.751755255995022
 31
0.0
  0
LINE
  5
6422
  8
0
 62
     3
 10
113.0313031966034
 20
22.243213859406751
 30
0.0
 11
113.0313031966034
 21
57.803002884289981
 31
0.0
  0
LINE
  5
6423
  8
0
 62
     3
 10
117.0313031966034
 20
57.803002884289981
 30
0.0
 11
117.0313031966034
 21
87.803002884289981
 31
0.0
  0
LINE
  5
6424
  8
0
 62
     3
 10
113.0313031966034
 20
87.803002884289981
 30
0.0
 11
113.0313031966034
 21
117.8030028842899
 31
0.0
  0
LINE
  5
6425
  8
0
 62
     3
 10
117.0313031966034
 20
117.8030028842899
 30
0.0
 11
117.0313031966034
 21
147.80300288429009
 31
0.0
  0
LINE
  5
6426
  8
0
 62
     3
 10
113.0313031966034
 20
147.80300288429009
 30
0.0
 11
113.0313031966034
 21
177.80300288429001
 31
0.0
  0
LINE
  5
6427
  8
0
 62
     3
 10
33.031303196603403
 20
177.80300288429001
 30
0.0
 11
113.0313031966034
 21
177.80300288429001
 31
0.0
  0
LINE
  5
6428
  8
0
 62
     3
 10
88.031303196603403
 20
25.243213859406751
 30
0.0
 11
58.031303196603339
 21
25.243213859406751
 31
0.0
  0
LINE
  5
6429
  8
0
 62
     3
 10
58.031303196603339
 20
25.243213859406751
 30
0.0
 11
58.031303196603339
 21
29.243213859406751
 31
0.0
  0
LINE
  5
642A
  8
0
 62
     3
 10
58.031303196603339
 20
29.243213859406751
 30
0.0
 11
88.031303196603403
 21
29.243213859406751
 31
0.0
  0
LINE
  5
642B
  8
0
 62
     3
 10
88.031303196603403
 20
29.243213859406751
 30
0.0
 11
88.031303196603403
 21
25.243213859406751
 31
0.0
  0
LINE
  5
642C
  8
0
 62
     3
 10
33.031303196603403
 20
22.243213859406751
 30
0.0
 11
113.0313031966034
 21
22.243213859406751
 31
0.0
  0
LINE
  5
642E
  8
0
 62
     3
 10
28.0313031966034
 20
271.8543085962981
 30
0.0
 11
53.031303196603403
 21
271.85430859629798
 31
0.0
  0
LINE
  5
642F
  8
0
 62
     3
 10
121.1338031966034
 20
183.8543085962977
 30
0.0
 11
121.1338031966034
 21
197.85430859629781
 31
0.0
  0
LINE
  5
6430
  8
0
 62
     3
 10
121.1338031966034
 20
197.85430859629781
 30
0.0
 11
111.1338031966034
 21
197.85430859629781
 31
0.0
  0
LINE
  5
6431
  8
0
 62
     3
 10
111.1338031966034
 20
197.85430859629781
 30
0.0
 11
111.1338031966034
 21
207.8543085962979
 31
0.0
  0
LINE
  5
6432
  8
0
 62
     3
 10
111.1338031966034
 20
207.8543085962979
 30
0.0
 11
121.1338031966034
 21
207.8543085962979
 31
0.0
  0
LINE
  5
6433
  8
0
 62
     3
 10
121.1338031966034
 20
207.8543085962979
 30
0.0
 11
121.1338031966034
 21
217.8543085962979
 31
0.0
  0
LINE
  5
6434
  8
0
 62
     3
 10
121.1338031966034
 20
217.8543085962979
 30
0.0
 11
111.1338031966034
 21
217.8543085962979
 31
0.0
  0
LINE
  5
6435
  8
0
 62
     3
 10
111.1338031966034
 20
217.8543085962979
 30
0.0
 11
111.1338031966034
 21
227.8543085962979
 31
0.0
  0
LINE
  5
6436
  8
0
 62
     3
 10
111.1338031966034
 20
227.8543085962979
 30
0.0
 11
121.1338031966034
 21
227.8543085962979
 31
0.0
  0
LINE
  5
6437
  8
0
 62
     3
 10
121.1338031966034
 20
227.8543085962979
 30
0.0
 11
121.1338031966034
 21
237.8543085962979
 31
0.0
  0
LINE
  5
6438
  8
0
 62
     3
 10
121.1338031966034
 20
237.8543085962979
 30
0.0
 11
111.1338031966034
 21
237.8543085962979
 31
0.0
  0
LINE
  5
6439
  8
0
 62
     3
 10
111.1338031966034
 20
237.8543085962979
 30
0.0
 11
111.1338031966034
 21
247.8543085962979
 31
0.0
  0
LINE
  5
643A
  8
0
 62
     3
 10
111.1338031966034
 20
247.8543085962979
 30
0.0
 11
121.1338031966034
 21
247.8543085962979
 31
0.0
  0
LINE
  5
643B
  8
0
 62
     3
 10
121.1338031966034
 20
247.8543085962979
 30
0.0
 11
121.1338031966034
 21
257.85430859629793
 31
0.0
  0
LINE
  5
643C
  8
0
 62
     3
 10
121.1338031966034
 20
257.85430859629793
 30
0.0
 11
111.1338031966034
 21
257.85430859629793
 31
0.0
  0
LINE
  5
643D
  8
0
 62
     3
 10
111.1338031966034
 20
257.85430859629793
 30
0.0
 11
111.1338031966034
 21
271.85430859629798
 31
0.0
  0
ARC
  5
6440
  8
0
 62
     3
 10
33.031303196603403
 20
242.85430859629801
 30
0.0
 40
5.0
 50
90.0
 51
270.0
  0
ARC
  5
6441
  8
0
 62
     3
 10
33.031303196603403
 20
232.85430859629801
 30
0.0
 40
5.0
 50
90.0
 51
270.0
  0
ARC
  5
6442
  8
0
 62
     3
 10
33.031303196603403
 20
222.85430859629801
 30
0.0
 40
5.0
 50
90.0
 51
270.0
  0
ARC
  5
6443
  8
0
 62
     3
 10
33.031303196603403
 20
202.8543085962979
 30
0.0
 40
5.0
 50
90.0
 51
270.0
  0
ARC
  5
6445
  8
0
 62
     3
 10
33.031303196603403
 20
212.85430859629801
 30
0.0
 40
5.0
 50
90.0
 51
270.0
  0
LINE
  5
6449
  8
0
 62
     3
 10
53.031303196603403
 20
271.85430859629798
 30
0.0
 11
53.031303196603403
 21
267.85430859629798
 31
0.0
  0
LINE
  5
644A
  8
0
 62
     3
 10
53.031303196603403
 20
267.85430859629798
 30
0.0
 11
73.031303196603403
 21
267.85430859629798
 31
0.0
  0
LINE
  5
644B
  8
0
 62
     3
 10
73.031303196603403
 20
267.85430859629798
 30
0.0
 11
73.031303196603403
 21
271.85430859629798
 31
0.0
  0
LINE
  5
644D
  8
0
 62
     3
 10
204.2363031966035
 20
271.85430859629798
 30
0.0
 11
179.2363031966035
 21
271.85430859629798
 31
0.0
  0
ARC
  5
644E
  8
0
 62
     3
 10
199.2363031966035
 20
262.85430859629793
 30
0.0
 40
5.0
 50
270.0
 51
0.0
  0
ARC
  5
644F
  8
0
 62
     3
 10
199.2363031966035
 20
252.8543085962979
 30
0.0
 40
5.0
 50
270.0
 51
90.0
  0
ARC
  5
6450
  8
0
 62
     3
 10
199.2363031966035
 20
242.8543085962979
 30
0.0
 40
5.0
 50
270.0
 51
90.0
  0
ARC
  5
6451
  8
0
 62
     3
 10
199.2363031966035
 20
232.8543085962979
 30
0.0
 40
5.0
 50
270.0
 51
90.0
  0
ARC
  5
6452
  8
0
 62
     3
 10
199.2363031966035
 20
222.8543085962979
 30
0.0
 40
5.0
 50
270.0
 51
90.0
  0
ARC
  5
6453
  8
0
 62
     3
 10
199.2363031966035
 20
202.8543085962979
 30
0.0
 40
5.0
 50
270.0
 51
90.0
  0
ARC
  5
6455
  8
0
 62
     3
 10
199.2363031966035
 20
212.8543085962979
 30
0.0
 40
5.0
 50
270.0
 51
90.0
  0
LINE
  5
6459
  8
0
 62
     3
 10
179.2363031966035
 20
271.85430859629798
 30
0.0
 11
179.2363031966035
 21
267.85430859629798
 31
0.0
  0
LINE
  5
645A
  8
0
 62
     3
 10
179.2363031966035
 20
267.85430859629798
 30
0.0
 11
159.23630319660339
 21
267.85430859629798
 31
0.0
  0
LINE
  5
645B
  8
0
 62
     3
 10
159.23630319660339
 20
267.85430859629798
 30
0.0
 11
159.23630319660339
 21
271.85430859629798
 31
0.0
  0
LINE
  5
645C
  8
0
 62
     3
 10
73.031303196603403
 20
271.85430859629798
 30
0.0
 11
159.23630319660339
 21
271.85430859629798
 31
0.0
  0
LINE
  5
645E
  8
0
 62
     3
 10
120.1874173795959
 20
57.803002884289981
 30
0.0
 11
124.1874173795959
 21
57.803002884289981
 31
0.0
  0
LINE
  5
645F
  8
0
 62
     3
 10
124.1874173795959
 20
87.803002884289981
 30
0.0
 11
120.1874173795959
 21
87.803002884289981
 31
0.0
  0
LINE
  5
6460
  8
0
 62
     3
 10
120.1874173795959
 20
117.8030028842899
 30
0.0
 11
124.1874173795959
 21
117.8030028842899
 31
0.0
  0
LINE
  5
6461
  8
0
 62
     3
 10
124.1874173795959
 20
147.80300288429001
 30
0.0
 11
120.1874173795959
 21
147.80300288429001
 31
0.0
  0
LINE
  5
6462
  8
0
 62
     3
 10
134.1874173795959
 20
82.803002884289981
 30
0.0
 11
164.1874173795959
 21
82.803002884289981
 31
0.0
  0
LINE
  5
6463
  8
0
 62
     3
 10
156.37716770368939
 20
77.803002884289981
 30
0.0
 11
152.47204286573611
 21
74.548732185995505
 31
0.0
  0
LINE
  5
6464
  8
0
 62
     3
 10
152.47204286573611
 20
74.548732185995505
 30
0.0
 11
156.37716770368939
 21
71.294461487701142
 31
0.0
  0
LINE
  5
6465
  8
0
 62
     3
 10
156.37716770368939
 20
71.294461487701142
 30
0.0
 11
160.28229254164259
 21
74.548732185995505
 31
0.0
  0
LINE
  5
6466
  8
0
 62
     3
 10
160.28229254164259
 20
74.548732185995505
 30
0.0
 11
156.37716770368951
 21
77.803002884289981
 31
0.0
  0
LINE
  5
6467
  8
0
 62
     3
 10
140.75666835187599
 20
77.803002884289981
 30
0.0
 11
136.85154351392271
 21
74.548732185995505
 31
0.0
  0
LINE
  5
6468
  8
0
 62
     3
 10
136.85154351392271
 20
74.548732185995505
 30
0.0
 11
140.75666835187599
 21
71.294461487701142
 31
0.0
  0
LINE
  5
6469
  8
0
 62
     3
 10
140.75666835187599
 20
71.294461487701142
 30
0.0
 11
144.6617931898293
 21
74.548732185995505
 31
0.0
  0
LINE
  5
646A
  8
0
 62
     3
 10
144.6617931898293
 20
74.548732185995505
 30
0.0
 11
140.7566683518761
 21
77.803002884289981
 31
0.0
  0
LINE
  5
646B
  8
0
 62
     3
 10
132.9464186759696
 20
71.294461487701255
 30
0.0
 11
129.04129383801629
 21
68.040190789406779
 31
0.0
  0
LINE
  5
646C
  8
0
 62
     3
 10
129.04129383801629
 20
68.040190789406779
 30
0.0
 11
132.9464186759696
 21
64.785920091112303
 31
0.0
  0
LINE
  5
646D
  8
0
 62
     3
 10
132.9464186759696
 20
64.785920091112303
 30
0.0
 11
136.85154351392291
 21
68.040190789406779
 31
0.0
  0
LINE
  5
646E
  8
0
 62
     3
 10
136.85154351392291
 20
68.040190789406779
 30
0.0
 11
132.94641867596971
 21
71.294461487701142
 31
0.0
  0
LINE
  5
646F
  8
0
 62
     3
 10
148.5669180277828
 20
71.294461487701255
 30
0.0
 11
144.6617931898295
 21
68.040190789406779
 31
0.0
  0
LINE
  5
6470
  8
0
 62
     3
 10
144.6617931898295
 20
68.040190789406779
 30
0.0
 11
148.5669180277828
 21
64.785920091112303
 31
0.0
  0
LINE
  5
6471
  8
0
 62
     3
 10
148.5669180277828
 20
64.785920091112303
 30
0.0
 11
152.47204286573611
 21
68.040190789406779
 31
0.0
  0
LINE
  5
6472
  8
0
 62
     3
 10
152.47204286573611
 20
68.040190789406779
 30
0.0
 11
148.56691802778289
 21
71.294461487701255
 31
0.0
  0
LINE
  5
6473
  8
0
 62
     3
 10
164.18741647811041
 20
71.294462238939332
 30
0.0
 11
160.2822916401571
 21
68.040191540644855
 31
0.0
  0
LINE
  5
6474
  8
0
 62
     3
 10
160.2822916401571
 20
68.040191540644855
 30
0.0
 11
164.18741647811041
 21
64.785920842350492
 31
0.0
  0
LINE
  5
6475
  8
0
 62
     3
 10
164.18741647811041
 20
64.785920842350492
 30
0.0
 11
168.0925413160636
 21
68.040191540644855
 31
0.0
  0
LINE
  5
6476
  8
0
 62
     3
 10
168.0925413160636
 20
68.040191540644855
 30
0.0
 11
164.18741647811049
 21
71.294462238939332
 31
0.0
  0
LINE
  5
6477
  8
0
 62
     3
 10
132.94641777448371
 20
45.26029665258374
 30
0.0
 11
129.0412929365304
 21
42.006025954289377
 31
0.0
  0
LINE
  5
6478
  8
0
 62
     3
 10
129.0412929365304
 20
42.006025954289377
 30
0.0
 11
132.94641777448371
 21
38.751755255995022
 31
0.0
  0
LINE
  5
6479
  8
0
 62
     3
 10
132.94641777448371
 20
38.751755255995022
 30
0.0
 11
136.85154261243699
 21
42.006025954289491
 31
0.0
  0
LINE
  5
647A
  8
0
 62
     3
 10
136.85154261243699
 20
42.006025954289491
 30
0.0
 11
132.94641777448379
 21
45.26029665258374
 31
0.0
  0
LINE
  5
647B
  8
0
 62
     3
 10
132.9464186759696
 20
58.277378694523463
 30
0.0
 11
129.04129383801629
 21
55.023107996229101
 31
0.0
  0
LINE
  5
647C
  8
0
 62
     3
 10
129.04129383801629
 20
55.023107996229101
 30
0.0
 11
132.9464186759696
 21
51.768837297934631
 31
0.0
  0
LINE
  5
647D
  8
0
 62
     3
 10
132.9464186759696
 20
51.768837297934631
 30
0.0
 11
136.85154351392291
 21
55.023107996229101
 31
0.0
  0
LINE
  5
647E
  8
0
 62
     3
 10
136.85154351392291
 20
55.023107996229101
 30
0.0
 11
132.94641867596971
 21
58.277378694523343
 31
0.0
  0
LINE
  5
647F
  8
0
 62
     3
 10
140.7566683518761
 20
64.785920091112303
 30
0.0
 11
136.85154351392291
 21
61.531649392817833
 31
0.0
  0
LINE
  5
6480
  8
0
 62
     3
 10
136.85154351392291
 20
61.531649392817833
 30
0.0
 11
140.7566683518761
 21
58.277378694523463
 31
0.0
  0
LINE
  5
6481
  8
0
 62
     3
 10
140.7566683518761
 20
58.277378694523463
 30
0.0
 11
144.66179318982941
 21
61.531649392817933
 31
0.0
  0
LINE
  5
6482
  8
0
 62
     3
 10
144.66179318982941
 20
61.531649392817933
 30
0.0
 11
140.7566683518763
 21
64.785920091112303
 31
0.0
  0
LINE
  5
6483
  8
0
 62
     3
 10
140.75666745039041
 20
51.7688380491727
 30
0.0
 11
136.8515426124371
 21
48.514567350878217
 31
0.0
  0
LINE
  5
6484
  8
0
 62
     3
 10
136.8515426124371
 20
48.514567350878217
 30
0.0
 11
140.75666745039041
 21
45.260296652583861
 31
0.0
  0
LINE
  5
6485
  8
0
 62
     3
 10
140.75666745039041
 20
45.260296652583861
 30
0.0
 11
144.66179228834369
 21
48.51456735087833
 31
0.0
  0
LINE
  5
6486
  8
0
 62
     3
 10
144.66179228834369
 20
48.51456735087833
 30
0.0
 11
140.75666745039061
 21
51.7688380491727
 31
0.0
  0
LINE
  5
6487
  8
0
 62
     3
 10
140.75666745039041
 20
38.751755255995022
 30
0.0
 11
136.8515426124371
 21
35.497484557700552
 31
0.0
  0
LINE
  5
6488
  8
0
 62
     3
 10
136.8515426124371
 20
35.497484557700552
 30
0.0
 11
140.75666745039041
 21
32.243213859406069
 31
0.0
  0
LINE
  5
6489
  8
0
 62
     3
 10
140.75666745039041
 20
32.243213859406069
 30
0.0
 11
144.66179228834369
 21
35.497484557700552
 31
0.0
  0
LINE
  5
648A
  8
0
 62
     3
 10
144.66179228834369
 20
35.497484557700552
 30
0.0
 11
140.75666745039049
 21
38.751755255995022
 31
0.0
  0
LINE
  5
648B
  8
0
 62
     3
 10
148.56691712629711
 20
45.260296652583861
 30
0.0
 11
144.6617922883438
 21
42.006025954289491
 31
0.0
  0
LINE
  5
648C
  8
0
 62
     3
 10
144.6617922883438
 20
42.006025954289491
 30
0.0
 11
148.56691712629711
 21
38.751755255995022
 31
0.0
  0
LINE
  5
648D
  8
0
 62
     3
 10
148.56691712629711
 20
38.751755255995022
 30
0.0
 11
152.47204196425031
 21
42.006025954289491
 31
0.0
  0
LINE
  5
648E
  8
0
 62
     3
 10
152.47204196425031
 20
42.006025954289491
 30
0.0
 11
148.5669171262972
 21
45.260296652583861
 31
0.0
  0
LINE
  5
648F
  8
0
 62
     3
 10
148.566917126297
 20
58.277379445761653
 30
0.0
 11
144.66179228834369
 21
55.023108747467177
 31
0.0
  0
LINE
  5
6490
  8
0
 62
     3
 10
144.66179228834369
 20
55.023108747467177
 30
0.0
 11
148.566917126297
 21
51.7688380491727
 31
0.0
  0
LINE
  5
6491
  8
0
 62
     3
 10
148.566917126297
 20
51.7688380491727
 30
0.0
 11
152.47204196425031
 21
55.023108747467177
 31
0.0
  0
LINE
  5
6492
  8
0
 62
     3
 10
152.47204196425031
 20
55.023108747467177
 30
0.0
 11
148.56691712629711
 21
58.277379445761653
 31
0.0
  0
LINE
  5
6493
  8
0
 62
     3
 10
156.37716680220379
 20
64.785920842350379
 30
0.0
 11
152.47204196425051
 21
61.531650144056009
 31
0.0
  0
LINE
  5
6494
  8
0
 62
     3
 10
152.47204196425051
 20
61.531650144056009
 30
0.0
 11
156.37716680220379
 21
58.277379445761653
 31
0.0
  0
LINE
  5
6495
  8
0
 62
     3
 10
156.37716680220379
 20
58.277379445761653
 30
0.0
 11
160.2822916401571
 21
61.53165014405613
 31
0.0
  0
LINE
  5
6496
  8
0
 62
     3
 10
160.2822916401571
 20
61.53165014405613
 30
0.0
 11
156.3771668022039
 21
64.785920842350379
 31
0.0
  0
LINE
  5
6497
  8
0
 62
     3
 10
156.3771668022037
 20
51.7688380491727
 30
0.0
 11
152.47204196425031
 21
48.514567350878217
 31
0.0
  0
LINE
  5
6498
  8
0
 62
     3
 10
152.47204196425031
 20
48.514567350878217
 30
0.0
 11
156.37716680220359
 21
45.260296652583861
 31
0.0
  0
LINE
  5
6499
  8
0
 62
     3
 10
156.37716680220359
 20
45.260296652583861
 30
0.0
 11
160.2822916401569
 21
48.51456735087833
 31
0.0
  0
LINE
  5
649A
  8
0
 62
     3
 10
160.2822916401569
 20
48.51456735087833
 30
0.0
 11
156.37716680220379
 21
51.7688380491727
 31
0.0
  0
LINE
  5
649B
  8
0
 62
     3
 10
156.3771668022037
 20
38.751755255995022
 30
0.0
 11
152.47204196425051
 21
35.497484557700552
 31
0.0
  0
LINE
  5
649C
  8
0
 62
     3
 10
152.47204196425051
 20
35.497484557700552
 30
0.0
 11
156.3771668022037
 21
32.243213859406069
 31
0.0
  0
LINE
  5
649D
  8
0
 62
     3
 10
156.3771668022037
 20
32.243213859406069
 30
0.0
 11
160.28229164015701
 21
35.497484557700552
 31
0.0
  0
LINE
  5
649E
  8
0
 62
     3
 10
160.28229164015701
 20
35.497484557700552
 30
0.0
 11
156.3771668022039
 21
38.751755255995022
 31
0.0
  0
LINE
  5
649F
  8
0
 62
     3
 10
164.1874173795959
 20
45.260295901345899
 30
0.0
 11
160.28229254164259
 21
42.006025203051422
 31
0.0
  0
LINE
  5
64A0
  8
0
 62
     3
 10
160.28229254164259
 20
42.006025203051422
 30
0.0
 11
164.1874173795959
 21
38.751754504757059
 31
0.0
  0
LINE
  5
64A1
  8
0
 62
     3
 10
164.1874173795959
 20
38.751754504757059
 30
0.0
 11
168.09254221754921
 21
42.006025203051308
 31
0.0
  0
LINE
  5
64A2
  8
0
 62
     3
 10
168.09254221754921
 20
42.006025203051308
 30
0.0
 11
164.18741737959601
 21
45.260295901345899
 31
0.0
  0
LINE
  5
64A3
  8
0
 62
     3
 10
164.18741647811021
 20
58.277379445761653
 30
0.0
 11
160.28229164015701
 21
55.023108747467177
 31
0.0
  0
LINE
  5
64A4
  8
0
 62
     3
 10
160.28229164015701
 20
55.023108747467177
 30
0.0
 11
164.18741647811021
 21
51.768838049172807
 31
0.0
  0
LINE
  5
64A5
  8
0
 62
     3
 10
164.18741647811021
 20
51.768838049172807
 30
0.0
 11
168.09254131606349
 21
55.02310874746729
 31
0.0
  0
LINE
  5
64A6
  8
0
 62
     3
 10
168.09254131606349
 20
55.02310874746729
 30
0.0
 11
164.18741647811041
 21
58.277379445761653
 31
0.0
  0
LINE
  5
64A7
  8
0
 62
     3
 10
124.1874173795959
 20
22.243213859406751
 30
0.0
 11
124.1874173795959
 21
57.803002884289981
 31
0.0
  0
LINE
  5
64A8
  8
0
 62
     3
 10
120.1874173795959
 20
57.803002884289981
 30
0.0
 11
120.1874173795959
 21
87.803002884289981
 31
0.0
  0
LINE
  5
64A9
  8
0
 62
     3
 10
124.1874173795959
 20
87.803002884289981
 30
0.0
 11
124.1874173795959
 21
117.8030028842899
 31
0.0
  0
LINE
  5
64AA
  8
0
 62
     3
 10
120.1874173795959
 20
117.8030028842899
 30
0.0
 11
120.1874173795959
 21
147.80300288429009
 31
0.0
  0
LINE
  5
64AB
  8
0
 62
     3
 10
124.1874173795959
 20
147.80300288429009
 30
0.0
 11
124.1874173795959
 21
177.80300288429001
 31
0.0
  0
ARC
  5
64AC
  8
0
 62
     3
 10
164.1874173795959
 20
142.80300288429021
 30
0.0
 40
30.0
 50
0.0
 51
180.0
  0
LINE
  5
64AD
  8
0
 62
     3
 10
134.1874173795959
 20
82.803002884289981
 30
0.0
 11
134.1874173795959
 21
142.80300288429021
 31
0.0
  0
LINE
  5
64AE
  8
0
 62
     3
 10
194.1874173795959
 20
82.803002884289981
 30
0.0
 11
164.1874173795959
 21
82.803002884289981
 31
0.0
  0
LINE
  5
64AF
  8
0
 62
     3
 10
194.1874173795959
 20
82.803002884289981
 30
0.0
 11
194.1874173795959
 21
142.80300288429021
 31
0.0
  0
LINE
  5
64B0
  8
0
 62
     3
 10
208.1874173795959
 20
57.80300288428986
 30
0.0
 11
204.1874173795959
 21
57.80300288428986
 31
0.0
  0
LINE
  5
64B1
  8
0
 62
     3
 10
204.1874173795959
 20
87.803002884289981
 30
0.0
 11
208.1874173795959
 21
87.803002884289981
 31
0.0
  0
LINE
  5
64B2
  8
0
 62
     3
 10
208.1874173795959
 20
117.8030028842899
 30
0.0
 11
204.1874173795959
 21
117.8030028842899
 31
0.0
  0
LINE
  5
64B3
  8
0
 62
     3
 10
204.18741737959601
 20
147.80300288429001
 30
0.0
 11
208.1874173795959
 21
147.80300288429001
 31
0.0
  0
LINE
  5
64B4
  8
0
 62
     3
 10
171.99766705550249
 20
77.803002884289981
 30
0.0
 11
175.9027918934558
 21
74.548732185995505
 31
0.0
  0
LINE
  5
64B5
  8
0
 62
     3
 10
175.9027918934558
 20
74.548732185995505
 30
0.0
 11
171.99766705550249
 21
71.294461487701142
 31
0.0
  0
LINE
  5
64B6
  8
0
 62
     3
 10
171.99766705550249
 20
71.294461487701142
 30
0.0
 11
168.09254221754921
 21
74.548732185995505
 31
0.0
  0
LINE
  5
64B7
  8
0
 62
     3
 10
168.09254221754921
 20
74.548732185995505
 30
0.0
 11
171.9976670555024
 21
77.803002884289981
 31
0.0
  0
LINE
  5
64B8
  8
0
 62
     3
 10
187.61816640731581
 20
77.803002884289981
 30
0.0
 11
191.52329124526909
 21
74.548732185995505
 31
0.0
  0
LINE
  5
64B9
  8
0
 62
     3
 10
191.52329124526909
 20
74.548732185995505
 30
0.0
 11
187.61816640731581
 21
71.294461487701142
 31
0.0
  0
LINE
  5
64BA
  8
0
 62
     3
 10
187.61816640731581
 20
71.294461487701142
 30
0.0
 11
183.71304156936259
 21
74.548732185995505
 31
0.0
  0
LINE
  5
64BB
  8
0
 62
     3
 10
183.71304156936259
 20
74.548732185995505
 30
0.0
 11
187.6181664073157
 21
77.803002884289981
 31
0.0
  0
LINE
  5
64BC
  8
0
 62
     3
 10
195.4284160832222
 20
71.294461487701255
 30
0.0
 11
199.33354092117551
 21
68.040190789406779
 31
0.0
  0
LINE
  5
64BD
  8
0
 62
     3
 10
199.33354092117551
 20
68.040190789406779
 30
0.0
 11
195.4284160832222
 21
64.785920091112189
 31
0.0
  0
LINE
  5
64BE
  8
0
 62
     3
 10
195.4284160832222
 20
64.785920091112189
 30
0.0
 11
191.52329124526901
 21
68.040190789406779
 31
0.0
  0
LINE
  5
64BF
  8
0
 62
     3
 10
191.52329124526901
 20
68.040190789406779
 30
0.0
 11
195.42841608322209
 21
71.294461487701142
 31
0.0
  0
LINE
  5
64C0
  8
0
 62
     3
 10
179.80791673140911
 20
71.294461487701255
 30
0.0
 11
183.7130415693623
 21
68.040190789406779
 31
0.0
  0
LINE
  5
64C1
  8
0
 62
     3
 10
183.7130415693623
 20
68.040190789406779
 30
0.0
 11
179.80791673140911
 21
64.785920091112189
 31
0.0
  0
LINE
  5
64C2
  8
0
 62
     3
 10
179.80791673140911
 20
64.785920091112189
 30
0.0
 11
175.9027918934558
 21
68.040190789406779
 31
0.0
  0
LINE
  5
64C3
  8
0
 62
     3
 10
175.9027918934558
 20
68.040190789406779
 30
0.0
 11
179.80791673140891
 21
71.294461487701255
 31
0.0
  0
LINE
  5
64C4
  8
0
 62
     3
 10
195.42841698470801
 20
45.260296652583627
 30
0.0
 11
199.33354182266129
 21
42.006025954289377
 31
0.0
  0
LINE
  5
64C5
  8
0
 62
     3
 10
199.33354182266129
 20
42.006025954289377
 30
0.0
 11
195.42841698470801
 21
38.751755255994908
 31
0.0
  0
LINE
  5
64C6
  8
0
 62
     3
 10
195.42841698470801
 20
38.751755255994908
 30
0.0
 11
191.52329214675481
 21
42.006025954289377
 31
0.0
  0
LINE
  5
64C7
  8
0
 62
     3
 10
191.52329214675481
 20
42.006025954289377
 30
0.0
 11
195.42841698470789
 21
45.260296652583627
 31
0.0
  0
LINE
  5
64C8
  8
0
 62
     3
 10
195.4284160832222
 20
58.277378694523463
 30
0.0
 11
199.33354092117551
 21
55.023107996228987
 31
0.0
  0
LINE
  5
64C9
  8
0
 62
     3
 10
199.33354092117551
 20
55.023107996228987
 30
0.0
 11
195.4284160832222
 21
51.76883729793451
 31
0.0
  0
LINE
  5
64CA
  8
0
 62
     3
 10
195.4284160832222
 20
51.76883729793451
 30
0.0
 11
191.52329124526901
 21
55.023107996228987
 31
0.0
  0
LINE
  5
64CB
  8
0
 62
     3
 10
191.52329124526901
 20
55.023107996228987
 30
0.0
 11
195.42841608322209
 21
58.277378694523243
 31
0.0
  0
LINE
  5
64CC
  8
0
 62
     3
 10
187.6181664073157
 20
64.785920091112189
 30
0.0
 11
191.52329124526901
 21
61.531649392817712
 31
0.0
  0
LINE
  5
64CD
  8
0
 62
     3
 10
191.52329124526901
 20
61.531649392817712
 30
0.0
 11
187.6181664073157
 21
58.277378694523463
 31
0.0
  0
LINE
  5
64CE
  8
0
 62
     3
 10
187.6181664073157
 20
58.277378694523463
 30
0.0
 11
183.7130415693625
 21
61.531649392817933
 31
0.0
  0
LINE
  5
64CF
  8
0
 62
     3
 10
183.7130415693625
 20
61.531649392817933
 30
0.0
 11
187.61816640731561
 21
64.785920091112189
 31
0.0
  0
LINE
  5
64D0
  8
0
 62
     3
 10
187.61816730880139
 20
51.768838049172587
 30
0.0
 11
191.5232921467547
 21
48.51456735087811
 31
0.0
  0
LINE
  5
64D1
  8
0
 62
     3
 10
191.5232921467547
 20
48.51456735087811
 30
0.0
 11
187.61816730880139
 21
45.260296652583861
 31
0.0
  0
LINE
  5
64D2
  8
0
 62
     3
 10
187.61816730880139
 20
45.260296652583861
 30
0.0
 11
183.71304247084811
 21
48.51456735087833
 31
0.0
  0
LINE
  5
64D3
  8
0
 62
     3
 10
183.71304247084811
 20
48.51456735087833
 30
0.0
 11
187.61816730880119
 21
51.768838049172587
 31
0.0
  0
LINE
  5
64D4
  8
0
 62
     3
 10
187.61816730880139
 20
38.751755255994908
 30
0.0
 11
191.5232921467547
 21
35.497484557700432
 31
0.0
  0
LINE
  5
64D5
  8
0
 62
     3
 10
191.5232921467547
 20
35.497484557700432
 30
0.0
 11
187.61816730880139
 21
32.243213859405962
 31
0.0
  0
LINE
  5
64D6
  8
0
 62
     3
 10
187.61816730880139
 20
32.243213859405962
 30
0.0
 11
183.71304247084811
 21
35.497484557700432
 31
0.0
  0
LINE
  5
64D7
  8
0
 62
     3
 10
183.71304247084811
 20
35.497484557700432
 30
0.0
 11
187.61816730880119
 21
38.751755255994908
 31
0.0
  0
LINE
  5
64D8
  8
0
 62
     3
 10
179.80791763289471
 20
45.260296652583861
 30
0.0
 11
183.71304247084799
 21
42.006025954289377
 31
0.0
  0
LINE
  5
64D9
  8
0
 62
     3
 10
183.71304247084799
 20
42.006025954289377
 30
0.0
 11
179.80791763289471
 21
38.751755255994908
 31
0.0
  0
LINE
  5
64DA
  8
0
 62
     3
 10
179.80791763289471
 20
38.751755255994908
 30
0.0
 11
175.9027927949414
 21
42.006025954289377
 31
0.0
  0
LINE
  5
64DB
  8
0
 62
     3
 10
175.9027927949414
 20
42.006025954289377
 30
0.0
 11
179.8079176328946
 21
45.260296652583861
 31
0.0
  0
LINE
  5
64DC
  8
0
 62
     3
 10
179.80791763289491
 20
58.27737944576154
 30
0.0
 11
183.71304247084811
 21
55.023108747467063
 31
0.0
  0
LINE
  5
64DD
  8
0
 62
     3
 10
183.71304247084811
 20
55.023108747467063
 30
0.0
 11
179.80791763289491
 21
51.768838049172587
 31
0.0
  0
LINE
  5
64DE
  8
0
 62
     3
 10
179.80791763289491
 20
51.768838049172587
 30
0.0
 11
175.9027927949416
 21
55.023108747467063
 31
0.0
  0
LINE
  5
64DF
  8
0
 62
     3
 10
175.9027927949416
 20
55.023108747467063
 30
0.0
 11
179.80791763289471
 21
58.27737944576154
 31
0.0
  0
LINE
  5
64E0
  8
0
 62
     3
 10
171.9976679569881
 20
64.785920842350265
 30
0.0
 11
175.9027927949414
 21
61.531650144056009
 31
0.0
  0
LINE
  5
64E1
  8
0
 62
     3
 10
175.9027927949414
 20
61.531650144056009
 30
0.0
 11
171.9976679569881
 21
58.27737944576154
 31
0.0
  0
LINE
  5
64E2
  8
0
 62
     3
 10
171.9976679569881
 20
58.27737944576154
 30
0.0
 11
168.09254311903479
 21
61.531650144056009
 31
0.0
  0
LINE
  5
64E3
  8
0
 62
     3
 10
168.09254311903479
 20
61.531650144056009
 30
0.0
 11
171.99766795698801
 21
64.785920842350265
 31
0.0
  0
LINE
  5
64E4
  8
0
 62
     3
 10
171.99766795698821
 20
51.768838049172587
 30
0.0
 11
175.9027927949414
 21
48.51456735087811
 31
0.0
  0
LINE
  5
64E5
  8
0
 62
     3
 10
175.9027927949414
 20
48.51456735087811
 30
0.0
 11
171.9976679569881
 21
45.260296652583861
 31
0.0
  0
LINE
  5
64E6
  8
0
 62
     3
 10
171.9976679569881
 20
45.260296652583861
 30
0.0
 11
168.09254311903479
 21
48.51456735087833
 31
0.0
  0
LINE
  5
64E7
  8
0
 62
     3
 10
168.09254311903479
 20
48.51456735087833
 30
0.0
 11
171.9976679569881
 21
51.768838049172587
 31
0.0
  0
LINE
  5
64E8
  8
0
 62
     3
 10
171.99766795698801
 20
38.751755255994908
 30
0.0
 11
175.90279279494129
 21
35.497484557700432
 31
0.0
  0
LINE
  5
64E9
  8
0
 62
     3
 10
175.90279279494129
 20
35.497484557700432
 30
0.0
 11
171.99766795698801
 21
32.243213859405962
 31
0.0
  0
LINE
  5
64EA
  8
0
 62
     3
 10
171.99766795698801
 20
32.243213859405962
 30
0.0
 11
168.0925431190347
 21
35.497484557700432
 31
0.0
  0
LINE
  5
64EB
  8
0
 62
     3
 10
168.0925431190347
 20
35.497484557700432
 30
0.0
 11
171.9976679569879
 21
38.751755255994908
 31
0.0
  0
LINE
  5
64EC
  8
0
 62
     3
 10
204.1874173795959
 20
22.243213859406641
 30
0.0
 11
204.1874173795959
 21
57.80300288428986
 31
0.0
  0
LINE
  5
64ED
  8
0
 62
     3
 10
208.1874173795959
 20
57.80300288428986
 30
0.0
 11
208.1874173795959
 21
87.803002884289981
 31
0.0
  0
LINE
  5
64EE
  8
0
 62
     3
 10
204.1874173795959
 20
87.803002884289981
 30
0.0
 11
204.1874173795959
 21
117.8030028842899
 31
0.0
  0
LINE
  5
64EF
  8
0
 62
     3
 10
208.1874173795959
 20
117.8030028842899
 30
0.0
 11
208.1874173795959
 21
147.80300288429009
 31
0.0
  0
LINE
  5
64F0
  8
0
 62
     3
 10
204.18741737959601
 20
147.80300288429009
 30
0.0
 11
204.18741737959601
 21
177.80300288429001
 31
0.0
  0
LINE
  5
64F1
  8
0
 62
     3
 10
124.1874173795959
 20
177.80300288429001
 30
0.0
 11
204.18741737959601
 21
177.80300288429001
 31
0.0
  0
LINE
  5
64F2
  8
0
 62
     3
 10
179.1874173795959
 20
25.243213859406641
 30
0.0
 11
149.1874173795959
 21
25.243213859406751
 31
0.0
  0
LINE
  5
64F3
  8
0
 62
     3
 10
149.1874173795959
 20
25.243213859406751
 30
0.0
 11
149.1874173795959
 21
29.243213859406751
 31
0.0
  0
LINE
  5
64F4
  8
0
 62
     3
 10
149.1874173795959
 20
29.243213859406751
 30
0.0
 11
179.1874173795959
 21
29.243213859406641
 31
0.0
  0
LINE
  5
64F5
  8
0
 62
     3
 10
179.1874173795959
 20
29.243213859406641
 30
0.0
 11
179.1874173795959
 21
25.243213859406641
 31
0.0
  0
LINE
  5
64F6
  8
0
 62
     3
 10
124.1874173795959
 20
22.243213859406751
 30
0.0
 11
204.1874173795959
 21
22.243213859406641
 31
0.0
  0
LINE
  5
64FC
  8
0
 62
     3
 10
204.2363031966035
 20
262.85430859629793
 30
0.0
 11
204.2363031966035
 21
271.85430859629798
 31
0.0
  0
ARC
  5
64FD
  8
0
 62
     3
 10
33.031303196603403
 20
262.85430859629798
 30
0.0
 40
5.0
 50
180.0
 51
270.0
  0
ARC
  5
64FE
  8
0
 62
     3
 10
33.031303196603403
 20
252.85430859629801
 30
0.0
 40
5.0
 50
90.0
 51
270.0
  0
LINE
  5
64FF
  8
0
 62
     3
 10
28.0313031966034
 20
262.85430859629798
 30
0.0
 11
28.0313031966034
 21
271.8543085962981
 31
0.0
  0
LINE
  5
6500
  8
0
 62
     3
 10
28.0313031966034
 20
183.85430859629761
 30
0.0
 11
53.031303196603403
 21
183.8543085962977
 31
0.0
  0
LINE
  5
6501
  8
0
 62
     3
 10
53.031303196603403
 20
183.8543085962977
 30
0.0
 11
53.031303196603403
 21
187.8543085962977
 31
0.0
  0
LINE
  5
6502
  8
0
 62
     3
 10
53.031303196603403
 20
187.8543085962977
 30
0.0
 11
73.031303196603403
 21
187.8543085962977
 31
0.0
  0
LINE
  5
6503
  8
0
 62
     3
 10
73.031303196603403
 20
187.8543085962977
 30
0.0
 11
73.031303196603403
 21
183.8543085962977
 31
0.0
  0
LINE
  5
6504
  8
0
 62
     3
 10
204.2363031966035
 20
183.8543085962977
 30
0.0
 11
179.2363031966035
 21
183.8543085962977
 31
0.0
  0
ARC
  5
6505
  8
0
 62
     3
 10
199.2363031966035
 20
192.85430859629781
 30
0.0
 40
5.0
 50
0.0
 51
90.0
  0
LINE
  5
6506
  8
0
 62
     3
 10
179.2363031966035
 20
183.8543085962977
 30
0.0
 11
179.2363031966035
 21
187.8543085962977
 31
0.0
  0
LINE
  5
6507
  8
0
 62
     3
 10
179.2363031966035
 20
187.8543085962977
 30
0.0
 11
159.23630319660339
 21
187.8543085962977
 31
0.0
  0
LINE
  5
6508
  8
0
 62
     3
 10
159.23630319660339
 20
187.8543085962977
 30
0.0
 11
159.23630319660339
 21
183.8543085962977
 31
0.0
  0
LINE
  5
6509
  8
0
 62
     3
 10
73.031303196603403
 20
183.8543085962977
 30
0.0
 11
159.23630319660339
 21
183.8543085962977
 31
0.0
  0
LINE
  5
650A
  8
0
 62
     3
 10
204.2363031966035
 20
192.85430859629781
 30
0.0
 11
204.2363031966035
 21
183.8543085962977
 31
0.0
  0
ARC
  5
650B
  8
0
 62
     3
 10
33.031303196603403
 20
192.8543085962977
 30
0.0
 40
5.0
 50
90.0
 51
180.0
  0
LINE
  5
650C
  8
0
 62
     3
 10
28.0313031966034
 20
192.8543085962977
 30
0.0
 11
28.0313031966034
 21
183.85430859629761
 31
0.0
  0
ENDSEC
  0
EOF
