  0
SECTION
  2
ENTITIES
  0
ARC
  8
VISIBLE_EDGES(ISO)
 10
1703.082324
 20
1267.681312
 40
5.0
 50
337.447051
 51
12.358277
  0
LINE
  8
VISIBLE_EDGES(ISO)
 10
1707.966466
 11
1686.424631
 20
1268.751432
 21
1367.070644
  0
LINE
  8
VISIBLE_EDGES(ISO)
 10
1686.424631
 11
1685.447692
 20
1367.070644
 21
1367.019877
  0
LINE
  8
VISIBLE_EDGES(ISO)
 10
1685.447692
 11
1674.311042
 20
1367.019877
 21
1267.872742
  0
ARC
  8
VISIBLE_EDGES(ISO)
 10
1669.342289
 20
1268.430854
 40
5.0
 50
338.523911
 51
353.591145
  0
LINE
  8
VISIBLE_EDGES(ISO)
 10
1673.995141
 11
1624.283836
 20
1266.60029
 21
1140.246176
  0
ARC
  8
VISIBLE_EDGES(ISO)
 10
1619.630983
 20
1142.076741
 40
5.0
 50
286.263706
 51
338.523911
  0
LINE
  8
VISIBLE_EDGES(ISO)
 10
1621.031277
 11
1419.090153
 20
1137.276826
 21
1078.363943
  0
ARC
  8
VISIBLE_EDGES(ISO)
 10
1417.68986
 20
1083.163858
 40
5.0
 50
194.17062
 51
286.263706
  0
LINE
  8
VISIBLE_EDGES(ISO)
 10
1412.842005
 11
1379.646058
 20
1081.939806
 21
1213.412364
  0
ARC
  8
VISIBLE_EDGES(ISO)
 10
1384.493913
 20
1214.636415
 40
5.0
 50
164.124496
 51
194.17062
  0
LINE
  8
VISIBLE_EDGES(ISO)
 10
1379.684621
 11
1449.595256
 20
1216.004156
 21
1461.826181
  0
ARC
  8
VISIBLE_EDGES(ISO)
 10
1454.404548
 20
1460.458441
 40
5.0
 50
129.590035
 51
164.124496
  0
LINE
  8
VISIBLE_EDGES(ISO)
 10
1451.218098
 11
1567.589745
 20
1464.311561
 21
1560.548475
  0
LINE
  8
VISIBLE_EDGES(ISO)
 10
1567.589745
 11
1567.162298
 20
1560.548475
 21
1561.237182
  0
LINE
  8
VISIBLE_EDGES(ISO)
 10
1567.162298
 11
1427.744837
 20
1561.237182
 21
1498.984396
  0
ARC
  8
VISIBLE_EDGES(ISO)
 10
1429.783442
 20
1494.418863
 40
5.0
 50
114.061752
 51
163.712446
  0
LINE
  8
VISIBLE_EDGES(ISO)
 10
1424.984111
 11
1353.038761
 20
1495.821154
 21
1249.588708
  0
ARC
  8
VISIBLE_EDGES(ISO)
 10
1348.239429
 20
1250.990999
 40
5.0
 50
229.019687
 51
343.712446
  0
LINE
  8
VISIBLE_EDGES(ISO)
 10
1344.960431
 11
1155.033627
 20
1247.216325
 21
1412.20264
  0
ARC
  8
VISIBLE_EDGES(ISO)
 10
1158.312625
 20
1415.977315
 40
5.0
 50
182.550835
 51
229.019687
  0
LINE
  8
VISIBLE_EDGES(ISO)
 10
1153.317579
 11
1146.012912
 20
1415.754786
 21
1579.720712
  0
LINE
  8
VISIBLE_EDGES(ISO)
 10
1146.012912
 11
1145.251014
 20
1579.720712
 21
1579.784288
  0
LINE
  8
VISIBLE_EDGES(ISO)
 10
1145.251014
 11
1117.440522
 20
1579.784288
 21
1449.957339
  0
ARC
  8
VISIBLE_EDGES(ISO)
 10
1112.551436
 20
1451.00464
 40
5.0
 50
265.267352
 51
347.909281
  0
LINE
  8
VISIBLE_EDGES(ISO)
 10
1112.138905
 11
1022.367152
 20
1446.021687
 21
1453.453771
  0
LINE
  8
VISIBLE_EDGES(ISO)
 10
1022.367152
 11
1022.147957
 20
1453.453771
 21
1452.550679
  0
LINE
  8
VISIBLE_EDGES(ISO)
 10
1022.147957
 11
1101.473392
 20
1452.550679
 21
1419.60709
  0
ARC
  8
VISIBLE_EDGES(ISO)
 10
1099.555707
 20
1414.989463
 40
5.0
 50
292.193113
 51
67.447051
  0
LINE
  8
VISIBLE_EDGES(ISO)
 10
1101.444354
 11
1032.912259
 20
1410.359883
 21
1382.402062
  0
LINE
  8
VISIBLE_EDGES(ISO)
 10
1032.912259
 11
1033.123583
 20
1382.402062
 21
1381.524696
  0
LINE
  8
VISIBLE_EDGES(ISO)
 10
1033.123583
 11
1140.177645
 20
1381.524696
 21
1390.687026
  0
ARC
  8
VISIBLE_EDGES(ISO)
 10
1140.604017
 20
1385.705238
 40
5.0
 50
46.874252
 51
94.891796
  0
LINE
  8
VISIBLE_EDGES(ISO)
 10
1144.022026
 11
1349.298518
 20
1389.354514
 21
1197.087064
  0
LINE
  8
VISIBLE_EDGES(ISO)
 10
1349.298518
 11
1382.161183
 20
1197.087064
 21
1041.627983
  0
ARC
  8
VISIBLE_EDGES(ISO)
 10
1377.269289
 20
1040.59388
 40
5.0
 50
348.4994
 51
11.936095
  0
LINE
  8
VISIBLE_EDGES(ISO)
 10
1382.168902
 11
1355.981467
 20
1039.596989
 21
910.888532
  0
ARC
  8
VISIBLE_EDGES(ISO)
 10
1351.081854
 20
911.885423
 40
5.0
 50
231.466882
 51
348.4994
  0
LINE
  8
VISIBLE_EDGES(ISO)
 10
1347.967019
 11
1269.889173
 20
907.974182
 21
970.153824
  0
LINE
  8
VISIBLE_EDGES(ISO)
 10
1269.889173
 11
1279.130397
 20
970.153824
 21
1171.117917
  0
ARC
  8
VISIBLE_EDGES(ISO)
 10
1274.135675
 20
1171.347597
 40
5.0
 50
357.36714
 51
42.713829
  0
LINE
  8
VISIBLE_EDGES(ISO)
 10
1277.80943
 11
1210.558838
 20
1174.739282
 21
1247.582765
  0
LINE
  8
VISIBLE_EDGES(ISO)
 10
1210.558838
 11
1209.727304
 20
1247.582765
 21
1247.038992
  0
LINE
  8
VISIBLE_EDGES(ISO)
 10
1209.727304
 11
1247.213759
 20
1247.038992
 21
1161.442189
  0
ARC
  8
VISIBLE_EDGES(ISO)
 10
1242.633717
 20
1159.436395
 40
5.0
 50
355.267352
 51
23.650642
  0
LINE
  8
VISIBLE_EDGES(ISO)
 10
1247.616669
 11
1235.545983
 20
1159.023863
 21
1013.222666
  0
ARC
  8
VISIBLE_EDGES(ISO)
 10
1230.56303
 20
1013.635197
 40
5.0
 50
234.671433
 51
355.267352
  0
LINE
  8
VISIBLE_EDGES(ISO)
 10
1227.671708
 11
1078.332448
 20
1009.555951
 21
1115.405867
  0
ARC
  8
VISIBLE_EDGES(ISO)
 10
1081.22377
 20
1119.485114
 40
5.0
 50
178.896365
 51
234.671433
  0
LINE
  8
VISIBLE_EDGES(ISO)
 10
1076.224698
 11
1078.914241
 20
1119.581418
 21
1259.193169
  0
LINE
  8
VISIBLE_EDGES(ISO)
 10
1078.914241
 11
1078.051016
 20
1259.193169
 21
1259.337487
  0
LINE
  8
VISIBLE_EDGES(ISO)
 10
1078.051016
 11
1039.49173
 20
1259.337487
 21
1139.803706
  0
ARC
  8
VISIBLE_EDGES(ISO)
 10
1034.733187
 20
1141.33872
 40
5.0
 50
265.071117
 51
342.121303
  0
LINE
  8
VISIBLE_EDGES(ISO)
 10
1034.303591
 11
927.650932
 20
1136.35721
 21
1145.554729
  0
LINE
  8
VISIBLE_EDGES(ISO)
 10
927.650932
 11
927.41939
 20
1145.554729
 21
1144.630563
  0
LINE
  8
VISIBLE_EDGES(ISO)
 10
927.41939
 11
1050.20572
 20
1144.630563
 21
1091.999131
  0
ARC
  8
VISIBLE_EDGES(ISO)
 10
1048.235848
 20
1087.403524
 40
5.0
 50
51.906977
 51
66.797972
  0
LINE
  8
VISIBLE_EDGES(ISO)
 10
1051.320548
 11
1314.661652
 20
1091.338574
 21
884.904551
  0
ARC
  8
VISIBLE_EDGES(ISO)
 10
1311.576952
 20
880.9695
 40
5.0
 50
25.692596
 51
51.906977
  0
LINE
  8
VISIBLE_EDGES(ISO)
 10
1316.082617
 11
1372.141126
 20
883.137213
 21
766.617704
  0
ARC
  8
VISIBLE_EDGES(ISO)
 10
1367.635461
 20
764.44999
 40
5.0
 50
356.310485
 51
25.692596
  0
LINE
  8
VISIBLE_EDGES(ISO)
 10
1372.625098
 11
1361.842081
 20
764.128242
 21
596.906497
  0
ARC
  8
VISIBLE_EDGES(ISO)
 10
1356.852444
 20
597.228245
 40
5.0
 50
241.401486
 51
356.310485
  0
LINE
  8
VISIBLE_EDGES(ISO)
 10
1354.459099
 11
1180.948614
 20
592.838268
 21
687.433419
  0
ARC
  8
VISIBLE_EDGES(ISO)
 10
1183.34196
 20
691.823396
 40
5.0
 50
176.310485
 51
241.401486
  0
LINE
  8
VISIBLE_EDGES(ISO)
 10
1178.352323
 11
1194.275093
 20
692.145144
 21
939.073581
  0
ARC
  8
VISIBLE_EDGES(ISO)
 10
1189.285456
 20
939.395329
 40
5.0
 50
356.310485
 51
47.736637
  0
LINE
  8
VISIBLE_EDGES(ISO)
 10
1192.648154
 11
1115.516005
 20
943.095636
 21
1013.190385
  0
LINE
  8
VISIBLE_EDGES(ISO)
 10
1115.516005
 11
1114.846195
 20
1013.190385
 21
1012.639669
  0
LINE
  8
VISIBLE_EDGES(ISO)
 10
1114.846195
 11
1163.536353
 20
1012.639669
 21
931.980017
  0
ARC
  8
VISIBLE_EDGES(ISO)
 10
1159.255796
 20
929.396061
 40
5.0
 50
350.605
 51
31.117259
  0
LINE
  8
VISIBLE_EDGES(ISO)
 10
1164.188728
 11
1131.659992
 20
928.579862
 21
731.983223
  0
ARC
  8
VISIBLE_EDGES(ISO)
 10
1126.72706
 20
732.799422
 40
5.0
 50
227.736637
 51
350.605
  0
LINE
  8
VISIBLE_EDGES(ISO)
 10
1123.364363
 11
1064.23535
 20
729.099116
 21
782.833303
  0
ARC
  8
VISIBLE_EDGES(ISO)
 10
1067.598047
 20
786.53361
 40
5.0
 50
215.127936
 51
227.736637
  0
LINE
  8
VISIBLE_EDGES(ISO)
 10
1063.508701
 11
988.43905
 20
783.656589
 21
890.359274
  0
ARC
  8
VISIBLE_EDGES(ISO)
 10
992.528396
 20
893.236294
 40
5.0
 50
187.594643
 51
215.127936
  0
LINE
  8
VISIBLE_EDGES(ISO)
 10
987.572257
 11
969.604367
 20
892.575475
 21
1027.334651
  0
LINE
  8
VISIBLE_EDGES(ISO)
 10
969.604367
 11
968.725716
 20
1027.334651
 21
1027.347335
  0
LINE
  8
VISIBLE_EDGES(ISO)
 10
968.725716
 11
950.691264
 20
1027.347335
 21
916.595743
  0
ARC
  8
VISIBLE_EDGES(ISO)
 10
945.756264
 20
917.399344
 40
5.0
 50
248.688552
 51
350.751306
  0
LINE
  8
VISIBLE_EDGES(ISO)
 10
943.939077
 11
773.322654
 20
912.741251
 21
979.301091
  0
LINE
  8
VISIBLE_EDGES(ISO)
 10
773.322654
 11
773.098866
 20
979.301091
 21
978.845566
  0
LINE
  8
VISIBLE_EDGES(ISO)
 10
773.098866
 11
961.547607
 20
978.845566
 21
865.542041
  0
ARC
  8
VISIBLE_EDGES(ISO)
 10
958.971212
 20
861.256929
 40
5.0
 50
31.932519
 51
58.983897
  0
LINE
  8
VISIBLE_EDGES(ISO)
 10
963.21457
 11
1040.159306
 20
863.901529
 21
740.440887
  0
ARC
  8
VISIBLE_EDGES(ISO)
 10
1035.915947
 20
737.796286
 40
5.0
 50
267.408665
 51
31.932519
  0
LINE
  8
VISIBLE_EDGES(ISO)
 10
1035.689888
 11
837.488119
 20
732.801399
 21
741.771652
  0
ARC
  8
VISIBLE_EDGES(ISO)
 10
837.714179
 20
746.766539
 40
5.0
 50
236.58867
 51
267.408665
  0
LINE
  8
VISIBLE_EDGES(ISO)
 10
834.96095
 11
769.998679
 20
742.592844
 21
785.446003
  0
LINE
  8
VISIBLE_EDGES(ISO)
 10
769.998679
 11
769.443419
 20
785.446003
 21
784.817246
  0
LINE
  8
VISIBLE_EDGES(ISO)
 10
769.443419
 11
826.76435
 20
784.817246
 21
717.739558
  0
ARC
  8
VISIBLE_EDGES(ISO)
 10
830.565507
 20
720.98782
 40
5.0
 50
220.515393
 51
264.509842
  0
LINE
  8
VISIBLE_EDGES(ISO)
 10
830.087133
 11
1110.963655
 20
716.010757
 21
689.014116
  0
ARC
  8
VISIBLE_EDGES(ISO)
 10
1110.485281
 20
684.037052
 40
5.0
 50
55.175951
 51
84.509842
  0
LINE
  8
VISIBLE_EDGES(ISO)
 10
1113.340572
 11
1345.665543
 20
688.1416
 21
526.526878
  0
ARC
  8
VISIBLE_EDGES(ISO)
 10
1342.810252
 20
522.42233
 40
5.0
 50
350.537191
 51
55.175951
  0
LINE
  8
VISIBLE_EDGES(ISO)
 10
1347.742214
 11
1331.157112
 20
521.600293
 21
422.094886
  0
ARC
  8
VISIBLE_EDGES(ISO)
 10
1326.225149
 20
422.916923
 40
5.0
 50
345.395478
 51
350.537191
  0
LINE
  8
VISIBLE_EDGES(ISO)
 10
1331.063595
 11
1271.197888
 20
421.656194
 21
191.902548
  0
ARC
  8
VISIBLE_EDGES(ISO)
 10
1266.359441
 20
193.163277
 40
5.0
 50
247.195138
 51
345.395478
  0
LINE
  8
VISIBLE_EDGES(ISO)
 10
1264.421472
 11
1157.864335
 20
188.554126
 21
233.357262
  0
ARC
  8
VISIBLE_EDGES(ISO)
 10
1159.802304
 20
237.966414
 40
5.0
 50
238.983897
 51
247.195138
  0
LINE
  8
VISIBLE_EDGES(ISO)
 10
1157.225909
 11
1053.365105
 20
233.681301
 21
296.126904
  0
LINE
  8
VISIBLE_EDGES(ISO)
 10
1053.365105
 11
1087.346649
 20
296.126904
 21
455.920726
  0
ARC
  8
VISIBLE_EDGES(ISO)
 10
1092.237286
 20
454.88069
 40
5.0
 50
109.230859
 51
167.994402
  0
LINE
  8
VISIBLE_EDGES(ISO)
 10
1090.59041
 11
1261.585266
 20
459.601685
 21
519.251677
  0
LINE
  8
VISIBLE_EDGES(ISO)
 10
1261.585266
 11
1261.452642
 20
519.251677
 21
519.784322
  0
LINE
  8
VISIBLE_EDGES(ISO)
 10
1261.452642
 11
1092.874279
 20
519.784322
 21
493.889393
  0
ARC
  8
VISIBLE_EDGES(ISO)
 10
1092.115145
 20
498.831428
 40
5.0
 50
188.732814
 51
278.732814
  0
LINE
  8
VISIBLE_EDGES(ISO)
 10
1087.173109
 11
1068.158023
 20
498.072294
 21
621.862246
  0
LINE
  8
VISIBLE_EDGES(ISO)
 10
1068.158023
 11
1067.415518
 20
621.862246
 21
621.84123
  0
LINE
  8
VISIBLE_EDGES(ISO)
 10
1067.415518
 11
1051.652813
 20
621.84123
 21
457.844018
  0
ARC
  8
VISIBLE_EDGES(ISO)
 10
1046.675749
 20
458.322392
 40
5.0
 50
347.014156
 51
354.509842
  0
LINE
  8
VISIBLE_EDGES(ISO)
 10
1051.547877
 11
1019.553749
 20
457.19884
 21
318.460664
  0
ARC
  8
VISIBLE_EDGES(ISO)
 10
1014.681621
 20
319.584216
 40
5.0
 50
236.58867
 51
347.014156
  0
LINE
  8
VISIBLE_EDGES(ISO)
 10
1011.928392
 11
946.981367
 20
315.410521
 21
358.253622
  0
ARC
  8
VISIBLE_EDGES(ISO)
 10
949.734596
 20
362.427317
 40
5.0
 50
184.169349
 51
236.58867
  0
LINE
  8
VISIBLE_EDGES(ISO)
 10
944.747828
 11
928.954457
 20
362.063794
 21
578.715296
  0
LINE
  8
VISIBLE_EDGES(ISO)
 10
928.954457
 11
928.165881
 20
578.715296
 21
578.762094
  0
LINE
  8
VISIBLE_EDGES(ISO)
 10
928.165881
 11
904.154285
 20
578.762094
 21
454.791704
  0
ARC
  8
VISIBLE_EDGES(ISO)
 10
899.245513
 20
455.742475
 40
5.0
 50
254.110796
 51
349.038219
  0
LINE
  8
VISIBLE_EDGES(ISO)
 10
897.876623
 11
805.522651
 20
450.93351
 21
477.222418
  0
LINE
  8
VISIBLE_EDGES(ISO)
 10
805.522651
 11
805.179739
 20
477.222418
 21
476.451313
  0
LINE
  8
VISIBLE_EDGES(ISO)
 10
805.179739
 11
904.854591
 20
476.451313
 21
414.021349
  0
ARC
  8
VISIBLE_EDGES(ISO)
 10
902.200526
 20
409.783904
 40
5.0
 50
358.896365
 51
57.939598
  0
LINE
  8
VISIBLE_EDGES(ISO)
 10
907.199598
 11
905.965539
 20
409.6876
 21
345.628717
  0
ARC
  8
VISIBLE_EDGES(ISO)
 10
910.964611
 20
345.532413
 40
5.0
 50
178.896365
 51
238.403346
  0
LINE
  8
VISIBLE_EDGES(ISO)
 10
908.344931
 11
1124.551407
 20
341.273625
 21
208.279918
  0
ARC
  8
VISIBLE_EDGES(ISO)
 10
1121.931727
 20
204.02113
 40
5.0
 50
303.834641
 51
58.403346
  0
LINE
  8
VISIBLE_EDGES(ISO)
 10
1124.715716
 11
1029.021844
 20
199.86789
 21
135.722608
  0
ARC
  8
VISIBLE_EDGES(ISO)
 10
1026.237855
 20
139.875848
 40
5.0
 50
257.253258
 51
303.834641
  0
LINE
  8
VISIBLE_EDGES(ISO)
 10
1025.134645
 11
784.799179
 20
134.999074
 21
189.367071
  0
LINE
  8
VISIBLE_EDGES(ISO)
 10
784.799179
 11
784.656981
 20
189.367071
 21
188.910925
  0
LINE
  8
VISIBLE_EDGES(ISO)
 10
784.656981
 11
1023.425739
 20
188.910925
 21
93.01528
  0
ARC
  8
VISIBLE_EDGES(ISO)
 10
1025.289193
 20
97.655058
 40
5.0
 50
248.118343
 51
301.932519
  0
LINE
  8
VISIBLE_EDGES(ISO)
 10
1027.933793
 11
1170.85136
 20
93.4117
 21
182.482632
  0
ARC
  8
VISIBLE_EDGES(ISO)
 10
1173.495961
 20
178.239273
 40
5.0
 50
63.717673
 51
121.932519
  0
LINE
  8
VISIBLE_EDGES(ISO)
 10
1175.709934
 11
1258.116583
 20
182.722389
 21
142.026109
  0
ARC
  8
VISIBLE_EDGES(ISO)
 10
1255.902609
 20
137.542994
 40
5.0
 50
14.17062
 51
63.717673
  0
LINE
  8
VISIBLE_EDGES(ISO)
 10
1260.750464
 11
1304.109298
 20
138.767045
 21
-32.95563
  0
ARC
  8
VISIBLE_EDGES(ISO)
 10
1299.261443
 20
-34.179681
 40
5.0
 50
350.130754
 51
14.17062
  0
LINE
  8
VISIBLE_EDGES(ISO)
 10
1304.187451
 11
1269.742454
 20
-35.036683
 21
-233.025008
  0
LINE
  8
VISIBLE_EDGES(ISO)
 10
1269.742454
 11
1425.632813
 20
-233.025008
 21
-233.025008
  0
LINE
  8
VISIBLE_EDGES(ISO)
 10
1425.632813
 11
1410.909926
 20
-233.025008
 21
-75.764387
  0
ARC
  8
VISIBLE_EDGES(ISO)
 10
1415.888157
 20
-75.29832
 40
5.0
 50
104.918837
 51
185.348495
  0
LINE
  8
VISIBLE_EDGES(ISO)
 10
1414.600905
 11
1657.124944
 20
-70.466863
 21
-5.850821
  0
ARC
  8
VISIBLE_EDGES(ISO)
 10
1658.412196
 20
-10.682278
 40
5.0
 50
97.594643
 51
104.918837
  0
LINE
  8
VISIBLE_EDGES(ISO)
 10
1657.751378
 11
1806.566446
 20
-5.726139
 21
14.11587
  0
ARC
  8
VISIBLE_EDGES(ISO)
 10
1805.905627
 20
19.072009
 40
5.0
 50
277.594643
 51
310.515393
  0
LINE
  8
VISIBLE_EDGES(ISO)
 10
1809.153889
 11
1897.781369
 20
15.270852
 21
91.007059
  0
LINE
  8
VISIBLE_EDGES(ISO)
 10
1897.781369
 11
1897.337161
 20
91.007059
 21
91.701063
  0
LINE
  8
VISIBLE_EDGES(ISO)
 10
1897.337161
 11
1799.934286
 20
91.701063
 21
46.842185
  0
ARC
  8
VISIBLE_EDGES(ISO)
 10
1797.842697
 20
51.383688
 40
5.0
 50
276.272745
 51
294.728426
  0
LINE
  8
VISIBLE_EDGES(ISO)
 10
1798.389005
 11
1667.561794
 20
46.413623
 21
32.033152
  0
ARC
  8
VISIBLE_EDGES(ISO)
 10
1667.015487
 20
37.003217
 40
5.0
 50
167.014156
 51
276.272745
  0
LINE
  8
VISIBLE_EDGES(ISO)
 10
1662.143359
 11
1700.709115
 20
38.126769
 21
205.361911
  0
ARC
  8
VISIBLE_EDGES(ISO)
 10
1705.581243
 20
204.23836
 40
5.0
 50
100.552639
 51
167.014156
  0
LINE
  8
VISIBLE_EDGES(ISO)
 10
1704.665549
 11
1839.603784
 20
209.153795
 21
234.29137
  0
ARC
  8
VISIBLE_EDGES(ISO)
 10
1838.68809
 20
239.206805
 40
5.0
 50
280.552639
 51
294.426137
  0
LINE
  8
VISIBLE_EDGES(ISO)
 10
1840.755689
 11
1874.925352
 20
234.65433
 21
250.173175
  0
LINE
  8
VISIBLE_EDGES(ISO)
 10
1874.925352
 11
1874.668355
 20
250.173175
 21
251.676363
  0
LINE
  8
VISIBLE_EDGES(ISO)
 10
1874.668355
 11
1840.451291
 20
251.676363
 21
254.683368
  0
ARC
  8
VISIBLE_EDGES(ISO)
 10
1840.889006
 20
259.664172
 40
5.0
 50
188.080849
 51
264.977734
  0
LINE
  8
VISIBLE_EDGES(ISO)
 10
1835.938652
 11
1828.209652
 20
258.96132
 21
313.398541
  0
LINE
  8
VISIBLE_EDGES(ISO)
 10
1828.209652
 11
1827.034509
 20
313.398541
 21
313.464904
  0
LINE
  8
VISIBLE_EDGES(ISO)
 10
1827.034509
 11
1813.405918
 20
313.464904
 21
260.938058
  0
ARC
  8
VISIBLE_EDGES(ISO)
 10
1808.566169
 20
262.193777
 40
5.0
 50
278.080849
 51
345.454793
  0
LINE
  8
VISIBLE_EDGES(ISO)
 10
1809.26902
 11
1713.034566
 20
257.243424
 21
243.580049
  0
ARC
  8
VISIBLE_EDGES(ISO)
 10
1712.331714
 20
248.530403
 40
5.0
 50
196.263706
 51
278.080849
  0
LINE
  8
VISIBLE_EDGES(ISO)
 10
1707.5318
 11
1655.219226
 20
247.130109
 21
426.446741
  0
LINE
  8
VISIBLE_EDGES(ISO)
 10
1655.219226
 11
1654.469823
 20
426.446741
 21
426.328064
  0
LINE
  8
VISIBLE_EDGES(ISO)
 10
1654.469823
 11
1660.22866
 20
426.328064
 21
236.087249
  0
ARC
  8
VISIBLE_EDGES(ISO)
 10
1655.230949
 20
235.935962
 40
5.0
 50
350.537191
 51
1.733888
  0
LINE
  8
VISIBLE_EDGES(ISO)
 10
1660.162912
 11
1628.631971
 20
235.113925
 21
45.938183
  0
ARC
  8
VISIBLE_EDGES(ISO)
 10
1623.700008
 20
46.76022
 40
5.0
 50
288.21737
 51
350.537191
  0
LINE
  8
VISIBLE_EDGES(ISO)
 10
1625.263123
 11
1409.021435
 20
42.010834
 21
-29.158467
  0
ARC
  8
VISIBLE_EDGES(ISO)
 10
1407.458321
 20
-24.40908
 40
5.0
 50
196.263706
 51
288.21737
  0
LINE
  8
VISIBLE_EDGES(ISO)
 10
1402.658406
 11
1340.069117
 20
-25.809373
 21
188.733705
  0
ARC
  8
VISIBLE_EDGES(ISO)
 10
1344.869032
 20
190.133998
 40
5.0
 50
166.059784
 51
196.263706
  0
LINE
  8
VISIBLE_EDGES(ISO)
 10
1340.016294
 11
1397.210979
 20
191.338545
 21
421.75787
  0
ARC
  8
VISIBLE_EDGES(ISO)
 10
1402.063717
 20
420.553324
 40
5.0
 50
101.546259
 51
166.059784
  0
LINE
  8
VISIBLE_EDGES(ISO)
 10
1401.062922
 11
1821.761915
 20
425.452141
 21
511.398094
  0
ARC
  8
VISIBLE_EDGES(ISO)
 10
1820.76112
 20
516.296911
 40
5.0
 50
281.546259
 51
325.86198
  0
LINE
  8
VISIBLE_EDGES(ISO)
 10
1824.899561
 11
1891.189552
 20
513.490969
 21
611.261064
  0
LINE
  8
VISIBLE_EDGES(ISO)
 10
1891.189552
 11
1890.592422
 20
611.261064
 21
611.795172
  0
LINE
  8
VISIBLE_EDGES(ISO)
 10
1890.592422
 11
1803.704356
 20
611.795172
 21
537.545373
  0
ARC
  8
VISIBLE_EDGES(ISO)
 10
1800.456095
 20
541.34653
 40
5.0
 50
277.594643
 51
310.515393
  0
LINE
  8
VISIBLE_EDGES(ISO)
 10
1801.116913
 11
1704.276513
 20
536.39039
 21
523.478338
  0
ARC
  8
VISIBLE_EDGES(ISO)
 10
1703.615695
 20
528.434477
 40
5.0
 50
180.0
 51
277.594643
  0
LINE
  8
VISIBLE_EDGES(ISO)
 10
1698.615695
 11
1698.615695
 20
528.434477
 21
707.626999
  0
ARC
  8
VISIBLE_EDGES(ISO)
 10
1703.615695
 20
707.626999
 40
5.0
 50
125.370146
 51
180.0
  0
LINE
  8
VISIBLE_EDGES(ISO)
 10
1700.721413
 11
1819.252202
 20
711.704146
 21
795.846676
  0
LINE
  8
VISIBLE_EDGES(ISO)
 10
1819.252202
 11
1818.942471
 20
795.846676
 21
796.39819
  0
LINE
  8
VISIBLE_EDGES(ISO)
 10
1818.942471
 11
1667.845677
 20
796.39819
 21
731.428373
  0
ARC
  8
VISIBLE_EDGES(ISO)
 10
1669.820769
 20
726.835007
 40
5.0
 50
113.267127
 51
176.580354
  0
LINE
  8
VISIBLE_EDGES(ISO)
 10
1664.829672
 11
1652.3754
 20
727.133251
 21
518.711154
  0
ARC
  8
VISIBLE_EDGES(ISO)
 10
1647.384303
 20
519.009397
 40
5.0
 50
281.876892
 51
356.580354
  0
LINE
  8
VISIBLE_EDGES(ISO)
 10
1648.413351
 11
1417.518324
 20
514.116437
 21
465.556472
  0
ARC
  8
VISIBLE_EDGES(ISO)
 10
1416.489277
 20
470.449433
 40
5.0
 50
180.0
 51
281.876892
  0
LINE
  8
VISIBLE_EDGES(ISO)
 10
1411.489277
 11
1411.489277
 20
470.449433
 21
754.096243
  0
ARC
  8
VISIBLE_EDGES(ISO)
 10
1416.489277
 20
754.096243
 40
5.0
 50
103.018563
 51
180.0
  0
LINE
  8
VISIBLE_EDGES(ISO)
 10
1415.362943
 11
1727.122056
 20
758.967729
 21
831.04939
  0
ARC
  8
VISIBLE_EDGES(ISO)
 10
1725.995723
 20
835.920876
 40
5.0
 50
283.018563
 51
310.515393
  0
LINE
  8
VISIBLE_EDGES(ISO)
 10
1729.243984
 11
1825.507246
 20
832.119719
 21
914.381049
  0
LINE
  8
VISIBLE_EDGES(ISO)
 10
1825.507246
 11
1825.084542
 20
914.381049
 21
915.029378
  0
LINE
  8
VISIBLE_EDGES(ISO)
 10
1825.084542
 11
1716.606966
 20
915.029378
 21
862.83991
  0
ARC
  8
VISIBLE_EDGES(ISO)
 10
1714.439253
 20
867.345575
 40
5.0
 50
283.018563
 51
295.692596
  0
LINE
  8
VISIBLE_EDGES(ISO)
 10
1715.565586
 11
1643.680378
 20
862.47409
 21
845.853548
  0
ARC
  8
VISIBLE_EDGES(ISO)
 10
1642.554045
 20
850.725034
 40
5.0
 50
193.018563
 51
283.018563
  0
LINE
  8
VISIBLE_EDGES(ISO)
 10
1637.682559
 11
1620.737296
 20
849.5987
 21
922.888358
  0
ARC
  8
VISIBLE_EDGES(ISO)
 10
1625.608781
 20
924.014692
 40
5.0
 50
161.41128
 51
193.018563
  0
LINE
  8
VISIBLE_EDGES(ISO)
 10
1620.869625
 11
1641.483886
 20
925.608555
 21
986.902506
  0
LINE
  8
VISIBLE_EDGES(ISO)
 10
1641.483886
 11
1640.485356
 20
986.902506
 21
987.470352
  0
LINE
  8
VISIBLE_EDGES(ISO)
 10
1640.485356
 11
1589.919802
 20
987.470352
 21
928.606748
  0
ARC
  8
VISIBLE_EDGES(ISO)
 10
1593.712548
 20
925.348669
 40
5.0
 50
139.336459
 51
186.272745
  0
LINE
  8
VISIBLE_EDGES(ISO)
 10
1588.742482
 11
1598.452284
 20
924.802361
 21
836.466846
  0
ARC
  8
VISIBLE_EDGES(ISO)
 10
1593.482219
 20
835.920539
 40
5.0
 50
281.357398
 51
6.272745
  0
LINE
  8
VISIBLE_EDGES(ISO)
 10
1594.466861
 11
1409.97347
 20
831.018449
 21
793.960792
  0
LINE
  8
VISIBLE_EDGES(ISO)
 10
1409.97347
 11
1382.895703
 20
793.960792
 21
868.89041
  0
ARC
  8
VISIBLE_EDGES(ISO)
 10
1387.598074
 20
870.589734
 40
5.0
 50
165.838667
 51
199.86864
  0
LINE
  8
VISIBLE_EDGES(ISO)
 10
1382.750021
 11
1422.751743
 20
871.813
 21
1030.348086
  0
ARC
  8
VISIBLE_EDGES(ISO)
 10
1427.599796
 20
1029.12482
 40
5.0
 50
108.21737
 51
165.838667
  0
LINE
  8
VISIBLE_EDGES(ISO)
 10
1426.036682
 11
1647.492432
 20
1033.874207
 21
1106.759555
  0
ARC
  8
VISIBLE_EDGES(ISO)
 10
1649.055546
 20
1102.010169
 40
5.0
 50
96.272745
 51
108.21737
  0
LINE
  8
VISIBLE_EDGES(ISO)
 10
1648.509239
 11
1779.42141
 20
1106.980234
 21
1121.370044
  0
ARC
  8
VISIBLE_EDGES(ISO)
 10
1778.875103
 20
1126.340109
 40
5.0
 50
276.272745
 51
312.197703
  0
LINE
  8
VISIBLE_EDGES(ISO)
 10
1782.233557
 11
1864.258588
 20
1122.635951
 21
1197.005715
  0
LINE
  8
VISIBLE_EDGES(ISO)
 10
1864.258588
 11
1863.841324
 20
1197.005715
 21
1197.595419
  0
LINE
  8
VISIBLE_EDGES(ISO)
 10
1863.841324
 11
1790.108925
 20
1197.595419
 21
1157.782722
  0
ARC
  8
VISIBLE_EDGES(ISO)
 10
1787.73331
 20
1162.182318
 40
5.0
 50
274.253569
 51
298.367363
  0
LINE
  8
VISIBLE_EDGES(ISO)
 10
1788.104163
 11
1666.718524
 20
1157.196091
 21
1148.167977
  0
ARC
  8
VISIBLE_EDGES(ISO)
 10
1666.347671
 20
1153.154205
 40
5.0
 50
157.447051
 51
274.253569
  0
LINE
  8
VISIBLE_EDGES(ISO)
 10
1661.730043
 11
1707.699951
 20
1155.07189
 21
1265.763626
  0
LINE
  8
APS_GEOMETRY
 10
762.572461
 11
4422.572461
 20
-233.025008
 21
-233.025008
  0
LINE
  8
APS_GEOMETRY
 10
4422.572461
 11
4422.572461
 20
-233.025008
 21
1596.974992
  0
LINE
  8
APS_GEOMETRY
 10
4422.572461
 11
762.572461
 20
1596.974992
 21
1596.974992
  0
LINE
  8
APS_GEOMETRY
 10
762.572461
 11
762.572461
 20
1596.974992
 21
-233.025008
  0
ARC
  8
VISIBLE_EDGES(ISO)
 10
2795.263551
 20
1267.681312
 40
5.0
 50
337.447051
 51
12.358277
  0
LINE
  8
VISIBLE_EDGES(ISO)
 10
2800.147693
 11
2778.605858
 20
1268.751432
 21
1367.070644
  0
LINE
  8
VISIBLE_EDGES(ISO)
 10
2778.605858
 11
2777.628919
 20
1367.070644
 21
1367.019877
  0
LINE
  8
VISIBLE_EDGES(ISO)
 10
2777.628919
 11
2766.492269
 20
1367.019877
 21
1267.872742
  0
ARC
  8
VISIBLE_EDGES(ISO)
 10
2761.523516
 20
1268.430854
 40
5.0
 50
338.523911
 51
353.591145
  0
LINE
  8
VISIBLE_EDGES(ISO)
 10
2766.176368
 11
2716.465063
 20
1266.60029
 21
1140.246176
  0
ARC
  8
VISIBLE_EDGES(ISO)
 10
2711.812211
 20
1142.076741
 40
5.0
 50
286.263706
 51
338.523911
  0
LINE
  8
VISIBLE_EDGES(ISO)
 10
2713.212504
 11
2511.27138
 20
1137.276826
 21
1078.363943
  0
ARC
  8
VISIBLE_EDGES(ISO)
 10
2509.871087
 20
1083.163858
 40
5.0
 50
194.17062
 51
286.263706
  0
LINE
  8
VISIBLE_EDGES(ISO)
 10
2505.023232
 11
2471.827285
 20
1081.939806
 21
1213.412364
  0
ARC
  8
VISIBLE_EDGES(ISO)
 10
2476.67514
 20
1214.636415
 40
5.0
 50
164.124496
 51
194.17062
  0
LINE
  8
VISIBLE_EDGES(ISO)
 10
2471.865848
 11
2541.776484
 20
1216.004156
 21
1461.826181
  0
ARC
  8
VISIBLE_EDGES(ISO)
 10
2546.585775
 20
1460.458441
 40
5.0
 50
129.590035
 51
164.124496
  0
LINE
  8
VISIBLE_EDGES(ISO)
 10
2543.399325
 11
2659.770972
 20
1464.311561
 21
1560.548475
  0
LINE
  8
VISIBLE_EDGES(ISO)
 10
2659.770972
 11
2659.343525
 20
1560.548475
 21
1561.237182
  0
LINE
  8
VISIBLE_EDGES(ISO)
 10
2659.343525
 11
2519.926064
 20
1561.237182
 21
1498.984396
  0
ARC
  8
VISIBLE_EDGES(ISO)
 10
2521.964669
 20
1494.418863
 40
5.0
 50
114.061752
 51
163.712446
  0
LINE
  8
VISIBLE_EDGES(ISO)
 10
2517.165338
 11
2445.219988
 20
1495.821154
 21
1249.588708
  0
ARC
  8
VISIBLE_EDGES(ISO)
 10
2440.420657
 20
1250.990999
 40
5.0
 50
229.019687
 51
343.712446
  0
LINE
  8
VISIBLE_EDGES(ISO)
 10
2437.141658
 11
2247.214854
 20
1247.216325
 21
1412.20264
  0
ARC
  8
VISIBLE_EDGES(ISO)
 10
2250.493852
 20
1415.977315
 40
5.0
 50
182.550835
 51
229.019687
  0
LINE
  8
VISIBLE_EDGES(ISO)
 10
2245.498807
 11
2238.194139
 20
1415.754786
 21
1579.720712
  0
LINE
  8
VISIBLE_EDGES(ISO)
 10
2238.194139
 11
2237.432241
 20
1579.720712
 21
1579.784288
  0
LINE
  8
VISIBLE_EDGES(ISO)
 10
2237.432241
 11
2209.62175
 20
1579.784288
 21
1449.957339
  0
ARC
  8
VISIBLE_EDGES(ISO)
 10
2204.732664
 20
1451.00464
 40
5.0
 50
265.267352
 51
347.909281
  0
LINE
  8
VISIBLE_EDGES(ISO)
 10
2204.320132
 11
2114.548379
 20
1446.021687
 21
1453.453771
  0
LINE
  8
VISIBLE_EDGES(ISO)
 10
2114.548379
 11
2114.329184
 20
1453.453771
 21
1452.550679
  0
LINE
  8
VISIBLE_EDGES(ISO)
 10
2114.329184
 11
2193.654619
 20
1452.550679
 21
1419.60709
  0
ARC
  8
VISIBLE_EDGES(ISO)
 10
2191.736934
 20
1414.989463
 40
5.0
 50
292.193113
 51
67.447051
  0
LINE
  8
VISIBLE_EDGES(ISO)
 10
2193.625582
 11
2125.093486
 20
1410.359883
 21
1382.402062
  0
LINE
  8
VISIBLE_EDGES(ISO)
 10
2125.093486
 11
2125.30481
 20
1382.402062
 21
1381.524696
  0
LINE
  8
VISIBLE_EDGES(ISO)
 10
2125.30481
 11
2232.358873
 20
1381.524696
 21
1390.687026
  0
ARC
  8
VISIBLE_EDGES(ISO)
 10
2232.785244
 20
1385.705238
 40
5.0
 50
46.874252
 51
94.891796
  0
LINE
  8
VISIBLE_EDGES(ISO)
 10
2236.203253
 11
2441.479745
 20
1389.354514
 21
1197.087064
  0
LINE
  8
VISIBLE_EDGES(ISO)
 10
2441.479745
 11
2474.34241
 20
1197.087064
 21
1041.627983
  0
ARC
  8
VISIBLE_EDGES(ISO)
 10
2469.450516
 20
1040.59388
 40
5.0
 50
348.4994
 51
11.936095
  0
LINE
  8
VISIBLE_EDGES(ISO)
 10
2474.350129
 11
2448.162694
 20
1039.596989
 21
910.888532
  0
ARC
  8
VISIBLE_EDGES(ISO)
 10
2443.263081
 20
911.885423
 40
5.0
 50
231.466882
 51
348.4994
  0
LINE
  8
VISIBLE_EDGES(ISO)
 10
2440.148246
 11
2362.0704
 20
907.974182
 21
970.153824
  0
LINE
  8
VISIBLE_EDGES(ISO)
 10
2362.0704
 11
2371.311624
 20
970.153824
 21
1171.117917
  0
ARC
  8
VISIBLE_EDGES(ISO)
 10
2366.316902
 20
1171.347597
 40
5.0
 50
357.36714
 51
42.713829
  0
LINE
  8
VISIBLE_EDGES(ISO)
 10
2369.990657
 11
2302.740065
 20
1174.739282
 21
1247.582765
  0
LINE
  8
VISIBLE_EDGES(ISO)
 10
2302.740065
 11
2301.908531
 20
1247.582765
 21
1247.038992
  0
LINE
  8
VISIBLE_EDGES(ISO)
 10
2301.908531
 11
2339.394986
 20
1247.038992
 21
1161.442189
  0
ARC
  8
VISIBLE_EDGES(ISO)
 10
2334.814944
 20
1159.436395
 40
5.0
 50
355.267352
 51
23.650642
  0
LINE
  8
VISIBLE_EDGES(ISO)
 10
2339.797896
 11
2327.72721
 20
1159.023863
 21
1013.222666
  0
ARC
  8
VISIBLE_EDGES(ISO)
 10
2322.744258
 20
1013.635197
 40
5.0
 50
234.671433
 51
355.267352
  0
LINE
  8
VISIBLE_EDGES(ISO)
 10
2319.852935
 11
2170.513675
 20
1009.555951
 21
1115.405867
  0
ARC
  8
VISIBLE_EDGES(ISO)
 10
2173.404998
 20
1119.485114
 40
5.0
 50
178.896365
 51
234.671433
  0
LINE
  8
VISIBLE_EDGES(ISO)
 10
2168.405925
 11
2171.095469
 20
1119.581418
 21
1259.193169
  0
LINE
  8
VISIBLE_EDGES(ISO)
 10
2171.095469
 11
2170.232243
 20
1259.193169
 21
1259.337487
  0
LINE
  8
VISIBLE_EDGES(ISO)
 10
2170.232243
 11
2131.672957
 20
1259.337487
 21
1139.803706
  0
ARC
  8
VISIBLE_EDGES(ISO)
 10
2126.914414
 20
1141.33872
 40
5.0
 50
265.071117
 51
342.121303
  0
LINE
  8
VISIBLE_EDGES(ISO)
 10
2126.484818
 11
2019.83216
 20
1136.35721
 21
1145.554729
  0
LINE
  8
VISIBLE_EDGES(ISO)
 10
2019.83216
 11
2019.600617
 20
1145.554729
 21
1144.630563
  0
LINE
  8
VISIBLE_EDGES(ISO)
 10
2019.600617
 11
2142.386948
 20
1144.630563
 21
1091.999131
  0
ARC
  8
VISIBLE_EDGES(ISO)
 10
2140.417075
 20
1087.403524
 40
5.0
 50
51.906977
 51
66.797972
  0
LINE
  8
VISIBLE_EDGES(ISO)
 10
2143.501776
 11
2406.842879
 20
1091.338574
 21
884.904551
  0
ARC
  8
VISIBLE_EDGES(ISO)
 10
2403.758179
 20
880.9695
 40
5.0
 50
25.692596
 51
51.906977
  0
LINE
  8
VISIBLE_EDGES(ISO)
 10
2408.263844
 11
2464.322353
 20
883.137213
 21
766.617704
  0
ARC
  8
VISIBLE_EDGES(ISO)
 10
2459.816688
 20
764.44999
 40
5.0
 50
356.310485
 51
25.692596
  0
LINE
  8
VISIBLE_EDGES(ISO)
 10
2464.806325
 11
2454.023308
 20
764.128242
 21
596.906497
  0
ARC
  8
VISIBLE_EDGES(ISO)
 10
2449.033671
 20
597.228245
 40
5.0
 50
241.401486
 51
356.310485
  0
LINE
  8
VISIBLE_EDGES(ISO)
 10
2446.640326
 11
2273.129842
 20
592.838268
 21
687.433419
  0
ARC
  8
VISIBLE_EDGES(ISO)
 10
2275.523187
 20
691.823396
 40
5.0
 50
176.310485
 51
241.401486
  0
LINE
  8
VISIBLE_EDGES(ISO)
 10
2270.53355
 11
2286.456321
 20
692.145144
 21
939.073581
  0
ARC
  8
VISIBLE_EDGES(ISO)
 10
2281.466684
 20
939.395329
 40
5.0
 50
356.310485
 51
47.736637
  0
LINE
  8
VISIBLE_EDGES(ISO)
 10
2284.829381
 11
2207.697233
 20
943.095636
 21
1013.190385
  0
LINE
  8
VISIBLE_EDGES(ISO)
 10
2207.697233
 11
2207.027422
 20
1013.190385
 21
1012.639669
  0
LINE
  8
VISIBLE_EDGES(ISO)
 10
2207.027422
 11
2255.71758
 20
1012.639669
 21
931.980017
  0
ARC
  8
VISIBLE_EDGES(ISO)
 10
2251.437023
 20
929.396061
 40
5.0
 50
350.605
 51
31.117259
  0
LINE
  8
VISIBLE_EDGES(ISO)
 10
2256.369955
 11
2223.841219
 20
928.579862
 21
731.983223
  0
ARC
  8
VISIBLE_EDGES(ISO)
 10
2218.908287
 20
732.799422
 40
5.0
 50
227.736637
 51
350.605
  0
LINE
  8
VISIBLE_EDGES(ISO)
 10
2215.54559
 11
2156.416577
 20
729.099116
 21
782.833303
  0
ARC
  8
VISIBLE_EDGES(ISO)
 10
2159.779275
 20
786.53361
 40
5.0
 50
215.127936
 51
227.736637
  0
LINE
  8
VISIBLE_EDGES(ISO)
 10
2155.689928
 11
2080.620277
 20
783.656589
 21
890.359274
  0
ARC
  8
VISIBLE_EDGES(ISO)
 10
2084.709623
 20
893.236294
 40
5.0
 50
187.594643
 51
215.127936
  0
LINE
  8
VISIBLE_EDGES(ISO)
 10
2079.753484
 11
2061.785594
 20
892.575475
 21
1027.334651
  0
LINE
  8
VISIBLE_EDGES(ISO)
 10
2061.785594
 11
2060.906943
 20
1027.334651
 21
1027.347335
  0
LINE
  8
VISIBLE_EDGES(ISO)
 10
2060.906943
 11
2042.872492
 20
1027.347335
 21
916.595743
  0
ARC
  8
VISIBLE_EDGES(ISO)
 10
2037.937491
 20
917.399344
 40
5.0
 50
248.688552
 51
350.751306
  0
LINE
  8
VISIBLE_EDGES(ISO)
 10
2036.120305
 11
1865.503881
 20
912.741251
 21
979.301091
  0
LINE
  8
VISIBLE_EDGES(ISO)
 10
1865.503881
 11
1865.280093
 20
979.301091
 21
978.845566
  0
LINE
  8
VISIBLE_EDGES(ISO)
 10
1865.280093
 11
2053.728834
 20
978.845566
 21
865.542041
  0
ARC
  8
VISIBLE_EDGES(ISO)
 10
2051.152439
 20
861.256929
 40
5.0
 50
31.932519
 51
58.983897
  0
LINE
  8
VISIBLE_EDGES(ISO)
 10
2055.395797
 11
2132.340533
 20
863.901529
 21
740.440887
  0
ARC
  8
VISIBLE_EDGES(ISO)
 10
2128.097175
 20
737.796286
 40
5.0
 50
267.408665
 51
31.932519
  0
LINE
  8
VISIBLE_EDGES(ISO)
 10
2127.871115
 11
1929.669346
 20
732.801399
 21
741.771652
  0
ARC
  8
VISIBLE_EDGES(ISO)
 10
1929.895406
 20
746.766539
 40
5.0
 50
236.58867
 51
267.408665
  0
LINE
  8
VISIBLE_EDGES(ISO)
 10
1927.142177
 11
1862.179906
 20
742.592844
 21
785.446003
  0
LINE
  8
VISIBLE_EDGES(ISO)
 10
1862.179906
 11
1861.624646
 20
785.446003
 21
784.817246
  0
LINE
  8
VISIBLE_EDGES(ISO)
 10
1861.624646
 11
1918.945577
 20
784.817246
 21
717.739558
  0
ARC
  8
VISIBLE_EDGES(ISO)
 10
1922.746734
 20
720.98782
 40
5.0
 50
220.515393
 51
264.509842
  0
LINE
  8
VISIBLE_EDGES(ISO)
 10
1922.26836
 11
2203.144882
 20
716.010757
 21
689.014116
  0
ARC
  8
VISIBLE_EDGES(ISO)
 10
2202.666509
 20
684.037052
 40
5.0
 50
55.175951
 51
84.509842
  0
LINE
  8
VISIBLE_EDGES(ISO)
 10
2205.521799
 11
2437.84677
 20
688.1416
 21
526.526878
  0
ARC
  8
VISIBLE_EDGES(ISO)
 10
2434.991479
 20
522.42233
 40
5.0
 50
350.537191
 51
55.175951
  0
LINE
  8
VISIBLE_EDGES(ISO)
 10
2439.923441
 11
2423.338339
 20
521.600293
 21
422.094886
  0
ARC
  8
VISIBLE_EDGES(ISO)
 10
2418.406376
 20
422.916923
 40
5.0
 50
345.395478
 51
350.537191
  0
LINE
  8
VISIBLE_EDGES(ISO)
 10
2423.244822
 11
2363.379115
 20
421.656194
 21
191.902548
  0
ARC
  8
VISIBLE_EDGES(ISO)
 10
2358.540669
 20
193.163277
 40
5.0
 50
247.195138
 51
345.395478
  0
LINE
  8
VISIBLE_EDGES(ISO)
 10
2356.6027
 11
2250.045562
 20
188.554126
 21
233.357262
  0
ARC
  8
VISIBLE_EDGES(ISO)
 10
2251.983531
 20
237.966414
 40
5.0
 50
238.983897
 51
247.195138
  0
LINE
  8
VISIBLE_EDGES(ISO)
 10
2249.407136
 11
2145.546332
 20
233.681301
 21
296.126904
  0
LINE
  8
VISIBLE_EDGES(ISO)
 10
2145.546332
 11
2179.527877
 20
296.126904
 21
455.920726
  0
ARC
  8
VISIBLE_EDGES(ISO)
 10
2184.418513
 20
454.88069
 40
5.0
 50
109.230859
 51
167.994402
  0
LINE
  8
VISIBLE_EDGES(ISO)
 10
2182.771637
 11
2353.766493
 20
459.601685
 21
519.251677
  0
LINE
  8
VISIBLE_EDGES(ISO)
 10
2353.766493
 11
2353.633869
 20
519.251677
 21
519.784322
  0
LINE
  8
VISIBLE_EDGES(ISO)
 10
2353.633869
 11
2185.055507
 20
519.784322
 21
493.889393
  0
ARC
  8
VISIBLE_EDGES(ISO)
 10
2184.296372
 20
498.831428
 40
5.0
 50
188.732814
 51
278.732814
  0
LINE
  8
VISIBLE_EDGES(ISO)
 10
2179.354336
 11
2160.33925
 20
498.072294
 21
621.862246
  0
LINE
  8
VISIBLE_EDGES(ISO)
 10
2160.33925
 11
2159.596745
 20
621.862246
 21
621.84123
  0
LINE
  8
VISIBLE_EDGES(ISO)
 10
2159.596745
 11
2143.83404
 20
621.84123
 21
457.844018
  0
ARC
  8
VISIBLE_EDGES(ISO)
 10
2138.856977
 20
458.322392
 40
5.0
 50
347.014156
 51
354.509842
  0
LINE
  8
VISIBLE_EDGES(ISO)
 10
2143.729105
 11
2111.734976
 20
457.19884
 21
318.460664
  0
ARC
  8
VISIBLE_EDGES(ISO)
 10
2106.862848
 20
319.584216
 40
5.0
 50
236.58867
 51
347.014156
  0
LINE
  8
VISIBLE_EDGES(ISO)
 10
2104.109619
 11
2039.162594
 20
315.410521
 21
358.253622
  0
ARC
  8
VISIBLE_EDGES(ISO)
 10
2041.915823
 20
362.427317
 40
5.0
 50
184.169349
 51
236.58867
  0
LINE
  8
VISIBLE_EDGES(ISO)
 10
2036.929055
 11
2021.135685
 20
362.063794
 21
578.715296
  0
LINE
  8
VISIBLE_EDGES(ISO)
 10
2021.135685
 11
2020.347108
 20
578.715296
 21
578.762094
  0
LINE
  8
VISIBLE_EDGES(ISO)
 10
2020.347108
 11
1996.335512
 20
578.762094
 21
454.791704
  0
ARC
  8
VISIBLE_EDGES(ISO)
 10
1991.426741
 20
455.742475
 40
5.0
 50
254.110796
 51
349.038219
  0
LINE
  8
VISIBLE_EDGES(ISO)
 10
1990.057851
 11
1897.703878
 20
450.93351
 21
477.222418
  0
LINE
  8
VISIBLE_EDGES(ISO)
 10
1897.703878
 11
1897.360966
 20
477.222418
 21
476.451313
  0
LINE
  8
VISIBLE_EDGES(ISO)
 10
1897.360966
 11
1997.035818
 20
476.451313
 21
414.021349
  0
ARC
  8
VISIBLE_EDGES(ISO)
 10
1994.381753
 20
409.783904
 40
5.0
 50
358.896365
 51
57.939598
  0
LINE
  8
VISIBLE_EDGES(ISO)
 10
1999.380825
 11
1998.146766
 20
409.6876
 21
345.628717
  0
ARC
  8
VISIBLE_EDGES(ISO)
 10
2003.145839
 20
345.532413
 40
5.0
 50
178.896365
 51
238.403346
  0
LINE
  8
VISIBLE_EDGES(ISO)
 10
2000.526158
 11
2216.732635
 20
341.273625
 21
208.279918
  0
ARC
  8
VISIBLE_EDGES(ISO)
 10
2214.112954
 20
204.02113
 40
5.0
 50
303.834641
 51
58.403346
  0
LINE
  8
VISIBLE_EDGES(ISO)
 10
2216.896943
 11
2121.203072
 20
199.86789
 21
135.722608
  0
ARC
  8
VISIBLE_EDGES(ISO)
 10
2118.419082
 20
139.875848
 40
5.0
 50
257.253258
 51
303.834641
  0
LINE
  8
VISIBLE_EDGES(ISO)
 10
2117.315872
 11
1876.980406
 20
134.999074
 21
189.367071
  0
LINE
  8
VISIBLE_EDGES(ISO)
 10
1876.980406
 11
1876.838208
 20
189.367071
 21
188.910925
  0
LINE
  8
VISIBLE_EDGES(ISO)
 10
1876.838208
 11
2115.606966
 20
188.910925
 21
93.01528
  0
ARC
  8
VISIBLE_EDGES(ISO)
 10
2117.47042
 20
97.655058
 40
5.0
 50
248.118343
 51
301.932519
  0
LINE
  8
VISIBLE_EDGES(ISO)
 10
2120.115021
 11
2263.032587
 20
93.4117
 21
182.482632
  0
ARC
  8
VISIBLE_EDGES(ISO)
 10
2265.677188
 20
178.239273
 40
5.0
 50
63.717673
 51
121.932519
  0
LINE
  8
VISIBLE_EDGES(ISO)
 10
2267.891161
 11
2350.29781
 20
182.722389
 21
142.026109
  0
ARC
  8
VISIBLE_EDGES(ISO)
 10
2348.083836
 20
137.542994
 40
5.0
 50
14.17062
 51
63.717673
  0
LINE
  8
VISIBLE_EDGES(ISO)
 10
2352.931692
 11
2396.290526
 20
138.767045
 21
-32.95563
  0
ARC
  8
VISIBLE_EDGES(ISO)
 10
2391.442671
 20
-34.179681
 40
5.0
 50
350.130754
 51
14.17062
  0
LINE
  8
VISIBLE_EDGES(ISO)
 10
2396.368678
 11
2361.923681
 20
-35.036683
 21
-233.025008
  0
LINE
  8
VISIBLE_EDGES(ISO)
 10
2361.923681
 11
2517.81404
 20
-233.025008
 21
-233.025008
  0
LINE
  8
VISIBLE_EDGES(ISO)
 10
2517.81404
 11
2503.091154
 20
-233.025008
 21
-75.764387
  0
ARC
  8
VISIBLE_EDGES(ISO)
 10
2508.069384
 20
-75.29832
 40
5.0
 50
104.918837
 51
185.348495
  0
LINE
  8
VISIBLE_EDGES(ISO)
 10
2506.782132
 11
2749.306171
 20
-70.466863
 21
-5.850821
  0
ARC
  8
VISIBLE_EDGES(ISO)
 10
2750.593424
 20
-10.682278
 40
5.0
 50
97.594643
 51
104.918837
  0
LINE
  8
VISIBLE_EDGES(ISO)
 10
2749.932605
 11
2898.747673
 20
-5.726139
 21
14.11587
  0
ARC
  8
VISIBLE_EDGES(ISO)
 10
2898.086854
 20
19.072009
 40
5.0
 50
277.594643
 51
310.515393
  0
LINE
  8
VISIBLE_EDGES(ISO)
 10
2901.335116
 11
2989.962596
 20
15.270852
 21
91.007059
  0
LINE
  8
VISIBLE_EDGES(ISO)
 10
2989.962596
 11
2989.518388
 20
91.007059
 21
91.701063
  0
LINE
  8
VISIBLE_EDGES(ISO)
 10
2989.518388
 11
2892.115513
 20
91.701063
 21
46.842185
  0
ARC
  8
VISIBLE_EDGES(ISO)
 10
2890.023924
 20
51.383688
 40
5.0
 50
276.272745
 51
294.728426
  0
LINE
  8
VISIBLE_EDGES(ISO)
 10
2890.570232
 11
2759.743021
 20
46.413623
 21
32.033152
  0
ARC
  8
VISIBLE_EDGES(ISO)
 10
2759.196714
 20
37.003217
 40
5.0
 50
167.014156
 51
276.272745
  0
LINE
  8
VISIBLE_EDGES(ISO)
 10
2754.324586
 11
2792.890342
 20
38.126769
 21
205.361911
  0
ARC
  8
VISIBLE_EDGES(ISO)
 10
2797.76247
 20
204.23836
 40
5.0
 50
100.552639
 51
167.014156
  0
LINE
  8
VISIBLE_EDGES(ISO)
 10
2796.846776
 11
2931.785011
 20
209.153795
 21
234.29137
  0
ARC
  8
VISIBLE_EDGES(ISO)
 10
2930.869317
 20
239.206805
 40
5.0
 50
280.552639
 51
294.426137
  0
LINE
  8
VISIBLE_EDGES(ISO)
 10
2932.936916
 11
2967.106579
 20
234.65433
 21
250.173175
  0
LINE
  8
VISIBLE_EDGES(ISO)
 10
2967.106579
 11
2966.849583
 20
250.173175
 21
251.676363
  0
LINE
  8
VISIBLE_EDGES(ISO)
 10
2966.849583
 11
2932.632518
 20
251.676363
 21
254.683368
  0
ARC
  8
VISIBLE_EDGES(ISO)
 10
2933.070233
 20
259.664172
 40
5.0
 50
188.080849
 51
264.977734
  0
LINE
  8
VISIBLE_EDGES(ISO)
 10
2928.119879
 11
2920.390879
 20
258.96132
 21
313.398541
  0
LINE
  8
VISIBLE_EDGES(ISO)
 10
2920.390879
 11
2919.215736
 20
313.398541
 21
313.464904
  0
LINE
  8
VISIBLE_EDGES(ISO)
 10
2919.215736
 11
2905.587145
 20
313.464904
 21
260.938058
  0
ARC
  8
VISIBLE_EDGES(ISO)
 10
2900.747396
 20
262.193777
 40
5.0
 50
278.080849
 51
345.454793
  0
LINE
  8
VISIBLE_EDGES(ISO)
 10
2901.450248
 11
2805.215793
 20
257.243424
 21
243.580049
  0
ARC
  8
VISIBLE_EDGES(ISO)
 10
2804.512941
 20
248.530403
 40
5.0
 50
196.263706
 51
278.080849
  0
LINE
  8
VISIBLE_EDGES(ISO)
 10
2799.713027
 11
2747.400454
 20
247.130109
 21
426.446741
  0
LINE
  8
VISIBLE_EDGES(ISO)
 10
2747.400454
 11
2746.65105
 20
426.446741
 21
426.328064
  0
LINE
  8
VISIBLE_EDGES(ISO)
 10
2746.65105
 11
2752.409887
 20
426.328064
 21
236.087249
  0
ARC
  8
VISIBLE_EDGES(ISO)
 10
2747.412176
 20
235.935962
 40
5.0
 50
350.537191
 51
1.733888
  0
LINE
  8
VISIBLE_EDGES(ISO)
 10
2752.344139
 11
2720.813198
 20
235.113925
 21
45.938183
  0
ARC
  8
VISIBLE_EDGES(ISO)
 10
2715.881235
 20
46.76022
 40
5.0
 50
288.21737
 51
350.537191
  0
LINE
  8
VISIBLE_EDGES(ISO)
 10
2717.44435
 11
2501.202662
 20
42.010834
 21
-29.158467
  0
ARC
  8
VISIBLE_EDGES(ISO)
 10
2499.639548
 20
-24.40908
 40
5.0
 50
196.263706
 51
288.21737
  0
LINE
  8
VISIBLE_EDGES(ISO)
 10
2494.839633
 11
2432.250345
 20
-25.809373
 21
188.733705
  0
ARC
  8
VISIBLE_EDGES(ISO)
 10
2437.050259
 20
190.133998
 40
5.0
 50
166.059784
 51
196.263706
  0
LINE
  8
VISIBLE_EDGES(ISO)
 10
2432.197521
 11
2489.392206
 20
191.338545
 21
421.75787
  0
ARC
  8
VISIBLE_EDGES(ISO)
 10
2494.244944
 20
420.553324
 40
5.0
 50
101.546259
 51
166.059784
  0
LINE
  8
VISIBLE_EDGES(ISO)
 10
2493.244149
 11
2913.943142
 20
425.452141
 21
511.398094
  0
ARC
  8
VISIBLE_EDGES(ISO)
 10
2912.942347
 20
516.296911
 40
5.0
 50
281.546259
 51
325.86198
  0
LINE
  8
VISIBLE_EDGES(ISO)
 10
2917.080788
 11
2983.370779
 20
513.490969
 21
611.261064
  0
LINE
  8
VISIBLE_EDGES(ISO)
 10
2983.370779
 11
2982.773649
 20
611.261064
 21
611.795172
  0
LINE
  8
VISIBLE_EDGES(ISO)
 10
2982.773649
 11
2895.885584
 20
611.795172
 21
537.545373
  0
ARC
  8
VISIBLE_EDGES(ISO)
 10
2892.637322
 20
541.34653
 40
5.0
 50
277.594643
 51
310.515393
  0
LINE
  8
VISIBLE_EDGES(ISO)
 10
2893.298141
 11
2796.45774
 20
536.39039
 21
523.478338
  0
ARC
  8
VISIBLE_EDGES(ISO)
 10
2795.796922
 20
528.434477
 40
5.0
 50
180.0
 51
277.594643
  0
LINE
  8
VISIBLE_EDGES(ISO)
 10
2790.796922
 11
2790.796922
 20
528.434477
 21
707.626999
  0
ARC
  8
VISIBLE_EDGES(ISO)
 10
2795.796922
 20
707.626999
 40
5.0
 50
125.370146
 51
180.0
  0
LINE
  8
VISIBLE_EDGES(ISO)
 10
2792.90264
 11
2911.433429
 20
711.704146
 21
795.846676
  0
LINE
  8
VISIBLE_EDGES(ISO)
 10
2911.433429
 11
2911.123698
 20
795.846676
 21
796.39819
  0
LINE
  8
VISIBLE_EDGES(ISO)
 10
2911.123698
 11
2760.026904
 20
796.39819
 21
731.428373
  0
ARC
  8
VISIBLE_EDGES(ISO)
 10
2762.001996
 20
726.835007
 40
5.0
 50
113.267127
 51
176.580354
  0
LINE
  8
VISIBLE_EDGES(ISO)
 10
2757.010899
 11
2744.556628
 20
727.133251
 21
518.711154
  0
ARC
  8
VISIBLE_EDGES(ISO)
 10
2739.56553
 20
519.009397
 40
5.0
 50
281.876892
 51
356.580354
  0
LINE
  8
VISIBLE_EDGES(ISO)
 10
2740.594578
 11
2509.699551
 20
514.116437
 21
465.556472
  0
ARC
  8
VISIBLE_EDGES(ISO)
 10
2508.670504
 20
470.449433
 40
5.0
 50
180.0
 51
281.876892
  0
LINE
  8
VISIBLE_EDGES(ISO)
 10
2503.670504
 11
2503.670504
 20
470.449433
 21
754.096243
  0
ARC
  8
VISIBLE_EDGES(ISO)
 10
2508.670504
 20
754.096243
 40
5.0
 50
103.018563
 51
180.0
  0
LINE
  8
VISIBLE_EDGES(ISO)
 10
2507.54417
 11
2819.303284
 20
758.967729
 21
831.04939
  0
ARC
  8
VISIBLE_EDGES(ISO)
 10
2818.17695
 20
835.920876
 40
5.0
 50
283.018563
 51
310.515393
  0
LINE
  8
VISIBLE_EDGES(ISO)
 10
2821.425212
 11
2917.688473
 20
832.119719
 21
914.381049
  0
LINE
  8
VISIBLE_EDGES(ISO)
 10
2917.688473
 11
2917.265769
 20
914.381049
 21
915.029378
  0
LINE
  8
VISIBLE_EDGES(ISO)
 10
2917.265769
 11
2808.788193
 20
915.029378
 21
862.83991
  0
ARC
  8
VISIBLE_EDGES(ISO)
 10
2806.62048
 20
867.345575
 40
5.0
 50
283.018563
 51
295.692596
  0
LINE
  8
VISIBLE_EDGES(ISO)
 10
2807.746813
 11
2735.861605
 20
862.47409
 21
845.853548
  0
ARC
  8
VISIBLE_EDGES(ISO)
 10
2734.735272
 20
850.725034
 40
5.0
 50
193.018563
 51
283.018563
  0
LINE
  8
VISIBLE_EDGES(ISO)
 10
2729.863786
 11
2712.918523
 20
849.5987
 21
922.888358
  0
ARC
  8
VISIBLE_EDGES(ISO)
 10
2717.790008
 20
924.014692
 40
5.0
 50
161.41128
 51
193.018563
  0
LINE
  8
VISIBLE_EDGES(ISO)
 10
2713.050853
 11
2733.665113
 20
925.608555
 21
986.902506
  0
LINE
  8
VISIBLE_EDGES(ISO)
 10
2733.665113
 11
2732.666583
 20
986.902506
 21
987.470352
  0
LINE
  8
VISIBLE_EDGES(ISO)
 10
2732.666583
 11
2682.101029
 20
987.470352
 21
928.606748
  0
ARC
  8
VISIBLE_EDGES(ISO)
 10
2685.893775
 20
925.348669
 40
5.0
 50
139.336459
 51
186.272745
  0
LINE
  8
VISIBLE_EDGES(ISO)
 10
2680.923709
 11
2690.633511
 20
924.802361
 21
836.466846
  0
ARC
  8
VISIBLE_EDGES(ISO)
 10
2685.663446
 20
835.920539
 40
5.0
 50
281.357398
 51
6.272745
  0
LINE
  8
VISIBLE_EDGES(ISO)
 10
2686.648088
 11
2502.154697
 20
831.018449
 21
793.960792
  0
LINE
  8
VISIBLE_EDGES(ISO)
 10
2502.154697
 11
2475.07693
 20
793.960792
 21
868.89041
  0
ARC
  8
VISIBLE_EDGES(ISO)
 10
2479.779301
 20
870.589734
 40
5.0
 50
165.838667
 51
199.86864
  0
LINE
  8
VISIBLE_EDGES(ISO)
 10
2474.931248
 11
2514.93297
 20
871.813
 21
1030.348086
  0
ARC
  8
VISIBLE_EDGES(ISO)
 10
2519.781023
 20
1029.12482
 40
5.0
 50
108.21737
 51
165.838667
  0
LINE
  8
VISIBLE_EDGES(ISO)
 10
2518.217909
 11
2739.673659
 20
1033.874207
 21
1106.759555
  0
ARC
  8
VISIBLE_EDGES(ISO)
 10
2741.236774
 20
1102.010169
 40
5.0
 50
96.272745
 51
108.21737
  0
LINE
  8
VISIBLE_EDGES(ISO)
 10
2740.690466
 11
2871.602637
 20
1106.980234
 21
1121.370044
  0
ARC
  8
VISIBLE_EDGES(ISO)
 10
2871.05633
 20
1126.340109
 40
5.0
 50
276.272745
 51
312.197703
  0
LINE
  8
VISIBLE_EDGES(ISO)
 10
2874.414784
 11
2956.439815
 20
1122.635951
 21
1197.005715
  0
LINE
  8
VISIBLE_EDGES(ISO)
 10
2956.439815
 11
2956.022552
 20
1197.005715
 21
1197.595419
  0
LINE
  8
VISIBLE_EDGES(ISO)
 10
2956.022552
 11
2882.290152
 20
1197.595419
 21
1157.782722
  0
ARC
  8
VISIBLE_EDGES(ISO)
 10
2879.914537
 20
1162.182318
 40
5.0
 50
274.253569
 51
298.367363
  0
LINE
  8
VISIBLE_EDGES(ISO)
 10
2880.28539
 11
2758.899751
 20
1157.196091
 21
1148.167977
  0
ARC
  8
VISIBLE_EDGES(ISO)
 10
2758.528898
 20
1153.154205
 40
5.0
 50
157.447051
 51
274.253569
  0
LINE
  8
VISIBLE_EDGES(ISO)
 10
2753.91127
 11
2799.881179
 20
1155.07189
 21
1265.763626
  0
ARC
  8
VISIBLE_EDGES(ISO)
 10
3849.783357
 20
1267.681312
 40
5.0
 50
337.447051
 51
12.358277
  0
LINE
  8
VISIBLE_EDGES(ISO)
 10
3854.667499
 11
3833.125664
 20
1268.751432
 21
1367.070644
  0
LINE
  8
VISIBLE_EDGES(ISO)
 10
3833.125664
 11
3832.148724
 20
1367.070644
 21
1367.019877
  0
LINE
  8
VISIBLE_EDGES(ISO)
 10
3832.148724
 11
3821.012075
 20
1367.019877
 21
1267.872742
  0
ARC
  8
VISIBLE_EDGES(ISO)
 10
3816.043322
 20
1268.430854
 40
5.0
 50
338.523911
 51
353.591145
  0
LINE
  8
VISIBLE_EDGES(ISO)
 10
3820.696174
 11
3770.984868
 20
1266.60029
 21
1140.246176
  0
ARC
  8
VISIBLE_EDGES(ISO)
 10
3766.332016
 20
1142.076741
 40
5.0
 50
286.263706
 51
338.523911
  0
LINE
  8
VISIBLE_EDGES(ISO)
 10
3767.732309
 11
3565.791186
 20
1137.276826
 21
1078.363943
  0
ARC
  8
VISIBLE_EDGES(ISO)
 10
3564.390893
 20
1083.163858
 40
5.0
 50
194.17062
 51
286.263706
  0
LINE
  8
VISIBLE_EDGES(ISO)
 10
3559.543038
 11
3526.347091
 20
1081.939806
 21
1213.412364
  0
ARC
  8
VISIBLE_EDGES(ISO)
 10
3531.194946
 20
1214.636415
 40
5.0
 50
164.124496
 51
194.17062
  0
LINE
  8
VISIBLE_EDGES(ISO)
 10
3526.385654
 11
3596.296289
 20
1216.004156
 21
1461.826181
  0
ARC
  8
VISIBLE_EDGES(ISO)
 10
3601.105581
 20
1460.458441
 40
5.0
 50
129.590035
 51
164.124496
  0
LINE
  8
VISIBLE_EDGES(ISO)
 10
3597.919131
 11
3714.290778
 20
1464.311561
 21
1560.548475
  0
LINE
  8
VISIBLE_EDGES(ISO)
 10
3714.290778
 11
3713.863331
 20
1560.548475
 21
1561.237182
  0
LINE
  8
VISIBLE_EDGES(ISO)
 10
3713.863331
 11
3574.44587
 20
1561.237182
 21
1498.984396
  0
ARC
  8
VISIBLE_EDGES(ISO)
 10
3576.484475
 20
1494.418863
 40
5.0
 50
114.061752
 51
163.712446
  0
LINE
  8
VISIBLE_EDGES(ISO)
 10
3571.685143
 11
3499.739793
 20
1495.821154
 21
1249.588708
  0
ARC
  8
VISIBLE_EDGES(ISO)
 10
3494.940462
 20
1250.990999
 40
5.0
 50
229.019687
 51
343.712446
  0
LINE
  8
VISIBLE_EDGES(ISO)
 10
3491.661464
 11
3301.734659
 20
1247.216325
 21
1412.20264
  0
ARC
  8
VISIBLE_EDGES(ISO)
 10
3305.013658
 20
1415.977315
 40
5.0
 50
182.550835
 51
229.019687
  0
LINE
  8
VISIBLE_EDGES(ISO)
 10
3300.018612
 11
3292.713945
 20
1415.754786
 21
1579.720712
  0
LINE
  8
VISIBLE_EDGES(ISO)
 10
3292.713945
 11
3291.952047
 20
1579.720712
 21
1579.784288
  0
LINE
  8
VISIBLE_EDGES(ISO)
 10
3291.952047
 11
3264.141555
 20
1579.784288
 21
1449.957339
  0
ARC
  8
VISIBLE_EDGES(ISO)
 10
3259.252469
 20
1451.00464
 40
5.0
 50
265.267352
 51
347.909281
  0
LINE
  8
VISIBLE_EDGES(ISO)
 10
3258.839937
 11
3169.068185
 20
1446.021687
 21
1453.453771
  0
LINE
  8
VISIBLE_EDGES(ISO)
 10
3169.068185
 11
3168.84899
 20
1453.453771
 21
1452.550679
  0
LINE
  8
VISIBLE_EDGES(ISO)
 10
3168.84899
 11
3248.174425
 20
1452.550679
 21
1419.60709
  0
ARC
  8
VISIBLE_EDGES(ISO)
 10
3246.25674
 20
1414.989463
 40
5.0
 50
292.193113
 51
67.447051
  0
LINE
  8
VISIBLE_EDGES(ISO)
 10
3248.145387
 11
3179.613291
 20
1410.359883
 21
1382.402062
  0
LINE
  8
VISIBLE_EDGES(ISO)
 10
3179.613291
 11
3179.824616
 20
1382.402062
 21
1381.524696
  0
LINE
  8
VISIBLE_EDGES(ISO)
 10
3179.824616
 11
3286.878678
 20
1381.524696
 21
1390.687026
  0
ARC
  8
VISIBLE_EDGES(ISO)
 10
3287.305049
 20
1385.705238
 40
5.0
 50
46.874252
 51
94.891796
  0
LINE
  8
VISIBLE_EDGES(ISO)
 10
3290.723059
 11
3495.999551
 20
1389.354514
 21
1197.087064
  0
LINE
  8
VISIBLE_EDGES(ISO)
 10
3495.999551
 11
3528.862216
 20
1197.087064
 21
1041.627983
  0
ARC
  8
VISIBLE_EDGES(ISO)
 10
3523.970321
 20
1040.59388
 40
5.0
 50
348.4994
 51
11.936095
  0
LINE
  8
VISIBLE_EDGES(ISO)
 10
3528.869935
 11
3502.682499
 20
1039.596989
 21
910.888532
  0
ARC
  8
VISIBLE_EDGES(ISO)
 10
3497.782886
 20
911.885423
 40
5.0
 50
231.466882
 51
348.4994
  0
LINE
  8
VISIBLE_EDGES(ISO)
 10
3494.668052
 11
3416.590206
 20
907.974182
 21
970.153824
  0
LINE
  8
VISIBLE_EDGES(ISO)
 10
3416.590206
 11
3425.83143
 20
970.153824
 21
1171.117917
  0
ARC
  8
VISIBLE_EDGES(ISO)
 10
3420.836708
 20
1171.347597
 40
5.0
 50
357.36714
 51
42.713829
  0
LINE
  8
VISIBLE_EDGES(ISO)
 10
3424.510462
 11
3357.259871
 20
1174.739282
 21
1247.582765
  0
LINE
  8
VISIBLE_EDGES(ISO)
 10
3357.259871
 11
3356.428336
 20
1247.582765
 21
1247.038992
  0
LINE
  8
VISIBLE_EDGES(ISO)
 10
3356.428336
 11
3393.914792
 20
1247.038992
 21
1161.442189
  0
ARC
  8
VISIBLE_EDGES(ISO)
 10
3389.334749
 20
1159.436395
 40
5.0
 50
355.267352
 51
23.650642
  0
LINE
  8
VISIBLE_EDGES(ISO)
 10
3394.317702
 11
3382.247016
 20
1159.023863
 21
1013.222666
  0
ARC
  8
VISIBLE_EDGES(ISO)
 10
3377.264063
 20
1013.635197
 40
5.0
 50
234.671433
 51
355.267352
  0
LINE
  8
VISIBLE_EDGES(ISO)
 10
3374.372741
 11
3225.033481
 20
1009.555951
 21
1115.405867
  0
ARC
  8
VISIBLE_EDGES(ISO)
 10
3227.924803
 20
1119.485114
 40
5.0
 50
178.896365
 51
234.671433
  0
LINE
  8
VISIBLE_EDGES(ISO)
 10
3222.925731
 11
3225.615274
 20
1119.581418
 21
1259.193169
  0
LINE
  8
VISIBLE_EDGES(ISO)
 10
3225.615274
 11
3224.752048
 20
1259.193169
 21
1259.337487
  0
LINE
  8
VISIBLE_EDGES(ISO)
 10
3224.752048
 11
3186.192762
 20
1259.337487
 21
1139.803706
  0
ARC
  8
VISIBLE_EDGES(ISO)
 10
3181.434219
 20
1141.33872
 40
5.0
 50
265.071117
 51
342.121303
  0
LINE
  8
VISIBLE_EDGES(ISO)
 10
3181.004623
 11
3074.351965
 20
1136.35721
 21
1145.554729
  0
LINE
  8
VISIBLE_EDGES(ISO)
 10
3074.351965
 11
3074.120423
 20
1145.554729
 21
1144.630563
  0
LINE
  8
VISIBLE_EDGES(ISO)
 10
3074.120423
 11
3196.906753
 20
1144.630563
 21
1091.999131
  0
ARC
  8
VISIBLE_EDGES(ISO)
 10
3194.936881
 20
1087.403524
 40
5.0
 50
51.906977
 51
66.797972
  0
LINE
  8
VISIBLE_EDGES(ISO)
 10
3198.021581
 11
3461.362685
 20
1091.338574
 21
884.904551
  0
ARC
  8
VISIBLE_EDGES(ISO)
 10
3458.277985
 20
880.9695
 40
5.0
 50
25.692596
 51
51.906977
  0
LINE
  8
VISIBLE_EDGES(ISO)
 10
3462.78365
 11
3518.842159
 20
883.137213
 21
766.617704
  0
ARC
  8
VISIBLE_EDGES(ISO)
 10
3514.336494
 20
764.44999
 40
5.0
 50
356.310485
 51
25.692596
  0
LINE
  8
VISIBLE_EDGES(ISO)
 10
3519.326131
 11
3508.543114
 20
764.128242
 21
596.906497
  0
ARC
  8
VISIBLE_EDGES(ISO)
 10
3503.553477
 20
597.228245
 40
5.0
 50
241.401486
 51
356.310485
  0
LINE
  8
VISIBLE_EDGES(ISO)
 10
3501.160131
 11
3327.649647
 20
592.838268
 21
687.433419
  0
ARC
  8
VISIBLE_EDGES(ISO)
 10
3330.042993
 20
691.823396
 40
5.0
 50
176.310485
 51
241.401486
  0
LINE
  8
VISIBLE_EDGES(ISO)
 10
3325.053356
 11
3340.976126
 20
692.145144
 21
939.073581
  0
ARC
  8
VISIBLE_EDGES(ISO)
 10
3335.986489
 20
939.395329
 40
5.0
 50
356.310485
 51
47.736637
  0
LINE
  8
VISIBLE_EDGES(ISO)
 10
3339.349186
 11
3262.217038
 20
943.095636
 21
1013.190385
  0
LINE
  8
VISIBLE_EDGES(ISO)
 10
3262.217038
 11
3261.547228
 20
1013.190385
 21
1012.639669
  0
LINE
  8
VISIBLE_EDGES(ISO)
 10
3261.547228
 11
3310.237386
 20
1012.639669
 21
931.980017
  0
ARC
  8
VISIBLE_EDGES(ISO)
 10
3305.956828
 20
929.396061
 40
5.0
 50
350.605
 51
31.117259
  0
LINE
  8
VISIBLE_EDGES(ISO)
 10
3310.88976
 11
3278.361025
 20
928.579862
 21
731.983223
  0
ARC
  8
VISIBLE_EDGES(ISO)
 10
3273.428093
 20
732.799422
 40
5.0
 50
227.736637
 51
350.605
  0
LINE
  8
VISIBLE_EDGES(ISO)
 10
3270.065396
 11
3210.936383
 20
729.099116
 21
782.833303
  0
ARC
  8
VISIBLE_EDGES(ISO)
 10
3214.29908
 20
786.53361
 40
5.0
 50
215.127936
 51
227.736637
  0
LINE
  8
VISIBLE_EDGES(ISO)
 10
3210.209734
 11
3135.140083
 20
783.656589
 21
890.359274
  0
ARC
  8
VISIBLE_EDGES(ISO)
 10
3139.229429
 20
893.236294
 40
5.0
 50
187.594643
 51
215.127936
  0
LINE
  8
VISIBLE_EDGES(ISO)
 10
3134.273289
 11
3116.3054
 20
892.575475
 21
1027.334651
  0
LINE
  8
VISIBLE_EDGES(ISO)
 10
3116.3054
 11
3115.426748
 20
1027.334651
 21
1027.347335
  0
LINE
  8
VISIBLE_EDGES(ISO)
 10
3115.426748
 11
3097.392297
 20
1027.347335
 21
916.595743
  0
ARC
  8
VISIBLE_EDGES(ISO)
 10
3092.457297
 20
917.399344
 40
5.0
 50
248.688552
 51
350.751306
  0
LINE
  8
VISIBLE_EDGES(ISO)
 10
3090.64011
 11
2920.023687
 20
912.741251
 21
979.301091
  0
LINE
  8
VISIBLE_EDGES(ISO)
 10
2920.023687
 11
2919.799898
 20
979.301091
 21
978.845566
  0
LINE
  8
VISIBLE_EDGES(ISO)
 10
2919.799898
 11
3108.24864
 20
978.845566
 21
865.542041
  0
ARC
  8
VISIBLE_EDGES(ISO)
 10
3105.672245
 20
861.256929
 40
5.0
 50
31.932519
 51
58.983897
  0
LINE
  8
VISIBLE_EDGES(ISO)
 10
3109.915603
 11
3186.860338
 20
863.901529
 21
740.440887
  0
ARC
  8
VISIBLE_EDGES(ISO)
 10
3182.61698
 20
737.796286
 40
5.0
 50
267.408665
 51
31.932519
  0
LINE
  8
VISIBLE_EDGES(ISO)
 10
3182.390921
 11
2984.189152
 20
732.801399
 21
741.771652
  0
ARC
  8
VISIBLE_EDGES(ISO)
 10
2984.415211
 20
746.766539
 40
5.0
 50
236.58867
 51
267.408665
  0
LINE
  8
VISIBLE_EDGES(ISO)
 10
2981.661982
 11
2916.699712
 20
742.592844
 21
785.446003
  0
LINE
  8
VISIBLE_EDGES(ISO)
 10
2916.699712
 11
2916.144452
 20
785.446003
 21
784.817246
  0
LINE
  8
VISIBLE_EDGES(ISO)
 10
2916.144452
 11
2973.465382
 20
784.817246
 21
717.739558
  0
ARC
  8
VISIBLE_EDGES(ISO)
 10
2977.26654
 20
720.98782
 40
5.0
 50
220.515393
 51
264.509842
  0
LINE
  8
VISIBLE_EDGES(ISO)
 10
2976.788166
 11
3257.664688
 20
716.010757
 21
689.014116
  0
ARC
  8
VISIBLE_EDGES(ISO)
 10
3257.186314
 20
684.037052
 40
5.0
 50
55.175951
 51
84.509842
  0
LINE
  8
VISIBLE_EDGES(ISO)
 10
3260.041605
 11
3492.366575
 20
688.1416
 21
526.526878
  0
ARC
  8
VISIBLE_EDGES(ISO)
 10
3489.511284
 20
522.42233
 40
5.0
 50
350.537191
 51
55.175951
  0
LINE
  8
VISIBLE_EDGES(ISO)
 10
3494.443247
 11
3477.858144
 20
521.600293
 21
422.094886
  0
ARC
  8
VISIBLE_EDGES(ISO)
 10
3472.926182
 20
422.916923
 40
5.0
 50
345.395478
 51
350.537191
  0
LINE
  8
VISIBLE_EDGES(ISO)
 10
3477.764628
 11
3417.898921
 20
421.656194
 21
191.902548
  0
ARC
  8
VISIBLE_EDGES(ISO)
 10
3413.060474
 20
193.163277
 40
5.0
 50
247.195138
 51
345.395478
  0
LINE
  8
VISIBLE_EDGES(ISO)
 10
3411.122505
 11
3304.565368
 20
188.554126
 21
233.357262
  0
ARC
  8
VISIBLE_EDGES(ISO)
 10
3306.503337
 20
237.966414
 40
5.0
 50
238.983897
 51
247.195138
  0
LINE
  8
VISIBLE_EDGES(ISO)
 10
3303.926942
 11
3200.066138
 20
233.681301
 21
296.126904
  0
LINE
  8
VISIBLE_EDGES(ISO)
 10
3200.066138
 11
3234.047682
 20
296.126904
 21
455.920726
  0
ARC
  8
VISIBLE_EDGES(ISO)
 10
3238.938319
 20
454.88069
 40
5.0
 50
109.230859
 51
167.994402
  0
LINE
  8
VISIBLE_EDGES(ISO)
 10
3237.291442
 11
3408.286298
 20
459.601685
 21
519.251677
  0
LINE
  8
VISIBLE_EDGES(ISO)
 10
3408.286298
 11
3408.153675
 20
519.251677
 21
519.784322
  0
LINE
  8
VISIBLE_EDGES(ISO)
 10
3408.153675
 11
3239.575312
 20
519.784322
 21
493.889393
  0
ARC
  8
VISIBLE_EDGES(ISO)
 10
3238.816178
 20
498.831428
 40
5.0
 50
188.732814
 51
278.732814
  0
LINE
  8
VISIBLE_EDGES(ISO)
 10
3233.874142
 11
3214.859056
 20
498.072294
 21
621.862246
  0
LINE
  8
VISIBLE_EDGES(ISO)
 10
3214.859056
 11
3214.116551
 20
621.862246
 21
621.84123
  0
LINE
  8
VISIBLE_EDGES(ISO)
 10
3214.116551
 11
3198.353845
 20
621.84123
 21
457.844018
  0
ARC
  8
VISIBLE_EDGES(ISO)
 10
3193.376782
 20
458.322392
 40
5.0
 50
347.014156
 51
354.509842
  0
LINE
  8
VISIBLE_EDGES(ISO)
 10
3198.24891
 11
3166.254781
 20
457.19884
 21
318.460664
  0
ARC
  8
VISIBLE_EDGES(ISO)
 10
3161.382653
 20
319.584216
 40
5.0
 50
236.58867
 51
347.014156
  0
LINE
  8
VISIBLE_EDGES(ISO)
 10
3158.629424
 11
3093.682399
 20
315.410521
 21
358.253622
  0
ARC
  8
VISIBLE_EDGES(ISO)
 10
3096.435629
 20
362.427317
 40
5.0
 50
184.169349
 51
236.58867
  0
LINE
  8
VISIBLE_EDGES(ISO)
 10
3091.448861
 11
3075.65549
 20
362.063794
 21
578.715296
  0
LINE
  8
VISIBLE_EDGES(ISO)
 10
3075.65549
 11
3074.866914
 20
578.715296
 21
578.762094
  0
LINE
  8
VISIBLE_EDGES(ISO)
 10
3074.866914
 11
3050.855317
 20
578.762094
 21
454.791704
  0
ARC
  8
VISIBLE_EDGES(ISO)
 10
3045.946546
 20
455.742475
 40
5.0
 50
254.110796
 51
349.038219
  0
LINE
  8
VISIBLE_EDGES(ISO)
 10
3044.577656
 11
2952.223684
 20
450.93351
 21
477.222418
  0
LINE
  8
VISIBLE_EDGES(ISO)
 10
2952.223684
 11
2951.880772
 20
477.222418
 21
476.451313
  0
LINE
  8
VISIBLE_EDGES(ISO)
 10
2951.880772
 11
3051.555623
 20
476.451313
 21
414.021349
  0
ARC
  8
VISIBLE_EDGES(ISO)
 10
3048.901558
 20
409.783904
 40
5.0
 50
358.896365
 51
57.939598
  0
LINE
  8
VISIBLE_EDGES(ISO)
 10
3053.900631
 11
3052.666572
 20
409.6876
 21
345.628717
  0
ARC
  8
VISIBLE_EDGES(ISO)
 10
3057.665644
 20
345.532413
 40
5.0
 50
178.896365
 51
238.403346
  0
LINE
  8
VISIBLE_EDGES(ISO)
 10
3055.045963
 11
3271.25244
 20
341.273625
 21
208.279918
  0
ARC
  8
VISIBLE_EDGES(ISO)
 10
3268.632759
 20
204.02113
 40
5.0
 50
303.834641
 51
58.403346
  0
LINE
  8
VISIBLE_EDGES(ISO)
 10
3271.416749
 11
3175.722877
 20
199.86789
 21
135.722608
  0
ARC
  8
VISIBLE_EDGES(ISO)
 10
3172.938888
 20
139.875848
 40
5.0
 50
257.253258
 51
303.834641
  0
LINE
  8
VISIBLE_EDGES(ISO)
 10
3171.835678
 11
2931.500211
 20
134.999074
 21
189.367071
  0
LINE
  8
VISIBLE_EDGES(ISO)
 10
2931.500211
 11
2931.358014
 20
189.367071
 21
188.910925
  0
LINE
  8
VISIBLE_EDGES(ISO)
 10
2931.358014
 11
3170.126772
 20
188.910925
 21
93.01528
  0
ARC
  8
VISIBLE_EDGES(ISO)
 10
3171.990226
 20
97.655058
 40
5.0
 50
248.118343
 51
301.932519
  0
LINE
  8
VISIBLE_EDGES(ISO)
 10
3174.634826
 11
3317.552393
 20
93.4117
 21
182.482632
  0
ARC
  8
VISIBLE_EDGES(ISO)
 10
3320.196993
 20
178.239273
 40
5.0
 50
63.717673
 51
121.932519
  0
LINE
  8
VISIBLE_EDGES(ISO)
 10
3322.410967
 11
3404.817615
 20
182.722389
 21
142.026109
  0
ARC
  8
VISIBLE_EDGES(ISO)
 10
3402.603642
 20
137.542994
 40
5.0
 50
14.17062
 51
63.717673
  0
LINE
  8
VISIBLE_EDGES(ISO)
 10
3407.451497
 11
3450.810331
 20
138.767045
 21
-32.95563
  0
ARC
  8
VISIBLE_EDGES(ISO)
 10
3445.962476
 20
-34.179681
 40
5.0
 50
350.130754
 51
14.17062
  0
LINE
  8
VISIBLE_EDGES(ISO)
 10
3450.888483
 11
3416.443487
 20
-35.036683
 21
-233.025008
  0
LINE
  8
VISIBLE_EDGES(ISO)
 10
3416.443487
 11
3572.333846
 20
-233.025008
 21
-233.025008
  0
LINE
  8
VISIBLE_EDGES(ISO)
 10
3572.333846
 11
3557.610959
 20
-233.025008
 21
-75.764387
  0
ARC
  8
VISIBLE_EDGES(ISO)
 10
3562.58919
 20
-75.29832
 40
5.0
 50
104.918837
 51
185.348495
  0
LINE
  8
VISIBLE_EDGES(ISO)
 10
3561.301938
 11
3803.825977
 20
-70.466863
 21
-5.850821
  0
ARC
  8
VISIBLE_EDGES(ISO)
 10
3805.113229
 20
-10.682278
 40
5.0
 50
97.594643
 51
104.918837
  0
LINE
  8
VISIBLE_EDGES(ISO)
 10
3804.452411
 11
3953.267479
 20
-5.726139
 21
14.11587
  0
ARC
  8
VISIBLE_EDGES(ISO)
 10
3952.60666
 20
19.072009
 40
5.0
 50
277.594643
 51
310.515393
  0
LINE
  8
VISIBLE_EDGES(ISO)
 10
3955.854922
 11
4044.482401
 20
15.270852
 21
91.007059
  0
LINE
  8
VISIBLE_EDGES(ISO)
 10
4044.482401
 11
4044.038194
 20
91.007059
 21
91.701063
  0
LINE
  8
VISIBLE_EDGES(ISO)
 10
4044.038194
 11
3946.635319
 20
91.701063
 21
46.842185
  0
ARC
  8
VISIBLE_EDGES(ISO)
 10
3944.54373
 20
51.383688
 40
5.0
 50
276.272745
 51
294.728426
  0
LINE
  8
VISIBLE_EDGES(ISO)
 10
3945.090037
 11
3814.262827
 20
46.413623
 21
32.033152
  0
ARC
  8
VISIBLE_EDGES(ISO)
 10
3813.716519
 20
37.003217
 40
5.0
 50
167.014156
 51
276.272745
  0
LINE
  8
VISIBLE_EDGES(ISO)
 10
3808.844391
 11
3847.410148
 20
38.126769
 21
205.361911
  0
ARC
  8
VISIBLE_EDGES(ISO)
 10
3852.282276
 20
204.23836
 40
5.0
 50
100.552639
 51
167.014156
  0
LINE
  8
VISIBLE_EDGES(ISO)
 10
3851.366582
 11
3986.304817
 20
209.153795
 21
234.29137
  0
ARC
  8
VISIBLE_EDGES(ISO)
 10
3985.389123
 20
239.206805
 40
5.0
 50
280.552639
 51
294.426137
  0
LINE
  8
VISIBLE_EDGES(ISO)
 10
3987.456722
 11
4021.626385
 20
234.65433
 21
250.173175
  0
LINE
  8
VISIBLE_EDGES(ISO)
 10
4021.626385
 11
4021.369388
 20
250.173175
 21
251.676363
  0
LINE
  8
VISIBLE_EDGES(ISO)
 10
4021.369388
 11
3987.152324
 20
251.676363
 21
254.683368
  0
ARC
  8
VISIBLE_EDGES(ISO)
 10
3987.590038
 20
259.664172
 40
5.0
 50
188.080849
 51
264.977734
  0
LINE
  8
VISIBLE_EDGES(ISO)
 10
3982.639685
 11
3974.910684
 20
258.96132
 21
313.398541
  0
LINE
  8
VISIBLE_EDGES(ISO)
 10
3974.910684
 11
3973.735542
 20
313.398541
 21
313.464904
  0
LINE
  8
VISIBLE_EDGES(ISO)
 10
3973.735542
 11
3960.106951
 20
313.464904
 21
260.938058
  0
ARC
  8
VISIBLE_EDGES(ISO)
 10
3955.267202
 20
262.193777
 40
5.0
 50
278.080849
 51
345.454793
  0
LINE
  8
VISIBLE_EDGES(ISO)
 10
3955.970053
 11
3859.735598
 20
257.243424
 21
243.580049
  0
ARC
  8
VISIBLE_EDGES(ISO)
 10
3859.032747
 20
248.530403
 40
5.0
 50
196.263706
 51
278.080849
  0
LINE
  8
VISIBLE_EDGES(ISO)
 10
3854.232832
 11
3801.920259
 20
247.130109
 21
426.446741
  0
LINE
  8
VISIBLE_EDGES(ISO)
 10
3801.920259
 11
3801.170855
 20
426.446741
 21
426.328064
  0
LINE
  8
VISIBLE_EDGES(ISO)
 10
3801.170855
 11
3806.929692
 20
426.328064
 21
236.087249
  0
ARC
  8
VISIBLE_EDGES(ISO)
 10
3801.931982
 20
235.935962
 40
5.0
 50
350.537191
 51
1.733888
  0
LINE
  8
VISIBLE_EDGES(ISO)
 10
3806.863944
 11
3775.333004
 20
235.113925
 21
45.938183
  0
ARC
  8
VISIBLE_EDGES(ISO)
 10
3770.401041
 20
46.76022
 40
5.0
 50
288.21737
 51
350.537191
  0
LINE
  8
VISIBLE_EDGES(ISO)
 10
3771.964155
 11
3555.722468
 20
42.010834
 21
-29.158467
  0
ARC
  8
VISIBLE_EDGES(ISO)
 10
3554.159353
 20
-24.40908
 40
5.0
 50
196.263706
 51
288.21737
  0
LINE
  8
VISIBLE_EDGES(ISO)
 10
3549.359439
 11
3486.77015
 20
-25.809373
 21
188.733705
  0
ARC
  8
VISIBLE_EDGES(ISO)
 10
3491.570065
 20
190.133998
 40
5.0
 50
166.059784
 51
196.263706
  0
LINE
  8
VISIBLE_EDGES(ISO)
 10
3486.717326
 11
3543.912012
 20
191.338545
 21
421.75787
  0
ARC
  8
VISIBLE_EDGES(ISO)
 10
3548.76475
 20
420.553324
 40
5.0
 50
101.546259
 51
166.059784
  0
LINE
  8
VISIBLE_EDGES(ISO)
 10
3547.763955
 11
3968.462948
 20
425.452141
 21
511.398094
  0
ARC
  8
VISIBLE_EDGES(ISO)
 10
3967.462153
 20
516.296911
 40
5.0
 50
281.546259
 51
325.86198
  0
LINE
  8
VISIBLE_EDGES(ISO)
 10
3971.600593
 11
4037.890584
 20
513.490969
 21
611.261064
  0
LINE
  8
VISIBLE_EDGES(ISO)
 10
4037.890584
 11
4037.293455
 20
611.261064
 21
611.795172
  0
LINE
  8
VISIBLE_EDGES(ISO)
 10
4037.293455
 11
3950.405389
 20
611.795172
 21
537.545373
  0
ARC
  8
VISIBLE_EDGES(ISO)
 10
3947.157128
 20
541.34653
 40
5.0
 50
277.594643
 51
310.515393
  0
LINE
  8
VISIBLE_EDGES(ISO)
 10
3947.817946
 11
3850.977546
 20
536.39039
 21
523.478338
  0
ARC
  8
VISIBLE_EDGES(ISO)
 10
3850.316727
 20
528.434477
 40
5.0
 50
180.0
 51
277.594643
  0
LINE
  8
VISIBLE_EDGES(ISO)
 10
3845.316727
 11
3845.316727
 20
528.434477
 21
707.626999
  0
ARC
  8
VISIBLE_EDGES(ISO)
 10
3850.316727
 20
707.626999
 40
5.0
 50
125.370146
 51
180.0
  0
LINE
  8
VISIBLE_EDGES(ISO)
 10
3847.422445
 11
3965.953235
 20
711.704146
 21
795.846676
  0
LINE
  8
VISIBLE_EDGES(ISO)
 10
3965.953235
 11
3965.643504
 20
795.846676
 21
796.39819
  0
LINE
  8
VISIBLE_EDGES(ISO)
 10
3965.643504
 11
3814.546709
 20
796.39819
 21
731.428373
  0
ARC
  8
VISIBLE_EDGES(ISO)
 10
3816.521802
 20
726.835007
 40
5.0
 50
113.267127
 51
176.580354
  0
LINE
  8
VISIBLE_EDGES(ISO)
 10
3811.530705
 11
3799.076433
 20
727.133251
 21
518.711154
  0
ARC
  8
VISIBLE_EDGES(ISO)
 10
3794.085336
 20
519.009397
 40
5.0
 50
281.876892
 51
356.580354
  0
LINE
  8
VISIBLE_EDGES(ISO)
 10
3795.114384
 11
3564.219357
 20
514.116437
 21
465.556472
  0
ARC
  8
VISIBLE_EDGES(ISO)
 10
3563.190309
 20
470.449433
 40
5.0
 50
180.0
 51
281.876892
  0
LINE
  8
VISIBLE_EDGES(ISO)
 10
3558.190309
 11
3558.190309
 20
470.449433
 21
754.096243
  0
ARC
  8
VISIBLE_EDGES(ISO)
 10
3563.190309
 20
754.096243
 40
5.0
 50
103.018563
 51
180.0
  0
LINE
  8
VISIBLE_EDGES(ISO)
 10
3562.063976
 11
3873.823089
 20
758.967729
 21
831.04939
  0
ARC
  8
VISIBLE_EDGES(ISO)
 10
3872.696756
 20
835.920876
 40
5.0
 50
283.018563
 51
310.515393
  0
LINE
  8
VISIBLE_EDGES(ISO)
 10
3875.945017
 11
3972.208279
 20
832.119719
 21
914.381049
  0
LINE
  8
VISIBLE_EDGES(ISO)
 10
3972.208279
 11
3971.785574
 20
914.381049
 21
915.029378
  0
LINE
  8
VISIBLE_EDGES(ISO)
 10
3971.785574
 11
3863.307999
 20
915.029378
 21
862.83991
  0
ARC
  8
VISIBLE_EDGES(ISO)
 10
3861.140285
 20
867.345575
 40
5.0
 50
283.018563
 51
295.692596
  0
LINE
  8
VISIBLE_EDGES(ISO)
 10
3862.266619
 11
3790.381411
 20
862.47409
 21
845.853548
  0
ARC
  8
VISIBLE_EDGES(ISO)
 10
3789.255077
 20
850.725034
 40
5.0
 50
193.018563
 51
283.018563
  0
LINE
  8
VISIBLE_EDGES(ISO)
 10
3784.383592
 11
3767.438328
 20
849.5987
 21
922.888358
  0
ARC
  8
VISIBLE_EDGES(ISO)
 10
3772.309814
 20
924.014692
 40
5.0
 50
161.41128
 51
193.018563
  0
LINE
  8
VISIBLE_EDGES(ISO)
 10
3767.570658
 11
3788.184918
 20
925.608555
 21
986.902506
  0
LINE
  8
VISIBLE_EDGES(ISO)
 10
3788.184918
 11
3787.186389
 20
986.902506
 21
987.470352
  0
LINE
  8
VISIBLE_EDGES(ISO)
 10
3787.186389
 11
3736.620835
 20
987.470352
 21
928.606748
  0
ARC
  8
VISIBLE_EDGES(ISO)
 10
3740.41358
 20
925.348669
 40
5.0
 50
139.336459
 51
186.272745
  0
LINE
  8
VISIBLE_EDGES(ISO)
 10
3735.443515
 11
3745.153317
 20
924.802361
 21
836.466846
  0
ARC
  8
VISIBLE_EDGES(ISO)
 10
3740.183252
 20
835.920539
 40
5.0
 50
281.357398
 51
6.272745
  0
LINE
  8
VISIBLE_EDGES(ISO)
 10
3741.167894
 11
3556.674503
 20
831.018449
 21
793.960792
  0
LINE
  8
VISIBLE_EDGES(ISO)
 10
3556.674503
 11
3529.596735
 20
793.960792
 21
868.89041
  0
ARC
  8
VISIBLE_EDGES(ISO)
 10
3534.299107
 20
870.589734
 40
5.0
 50
165.838667
 51
199.86864
  0
LINE
  8
VISIBLE_EDGES(ISO)
 10
3529.451053
 11
3569.452776
 20
871.813
 21
1030.348086
  0
ARC
  8
VISIBLE_EDGES(ISO)
 10
3574.300829
 20
1029.12482
 40
5.0
 50
108.21737
 51
165.838667
  0
LINE
  8
VISIBLE_EDGES(ISO)
 10
3572.737714
 11
3794.193465
 20
1033.874207
 21
1106.759555
  0
ARC
  8
VISIBLE_EDGES(ISO)
 10
3795.756579
 20
1102.010169
 40
5.0
 50
96.272745
 51
108.21737
  0
LINE
  8
VISIBLE_EDGES(ISO)
 10
3795.210272
 11
3926.122443
 20
1106.980234
 21
1121.370044
  0
ARC
  8
VISIBLE_EDGES(ISO)
 10
3925.576135
 20
1126.340109
 40
5.0
 50
276.272745
 51
312.197703
  0
LINE
  8
VISIBLE_EDGES(ISO)
 10
3928.93459
 11
4010.959621
 20
1122.635951
 21
1197.005715
  0
LINE
  8
VISIBLE_EDGES(ISO)
 10
4010.959621
 11
4010.542357
 20
1197.005715
 21
1197.595419
  0
LINE
  8
VISIBLE_EDGES(ISO)
 10
4010.542357
 11
3936.809958
 20
1197.595419
 21
1157.782722
  0
ARC
  8
VISIBLE_EDGES(ISO)
 10
3934.434343
 20
1162.182318
 40
5.0
 50
274.253569
 51
298.367363
  0
LINE
  8
VISIBLE_EDGES(ISO)
 10
3934.805196
 11
3813.419556
 20
1157.196091
 21
1148.167977
  0
ARC
  8
VISIBLE_EDGES(ISO)
 10
3813.048703
 20
1153.154205
 40
5.0
 50
157.447051
 51
274.253569
  0
LINE
  8
VISIBLE_EDGES(ISO)
 10
3808.431076
 11
3854.400984
 20
1155.07189
 21
1265.763626
  0
ENDSEC
  0
EOF
