  0
SECTION
  2
ENTITIES
  0
LINE
  8
APS_GEOMETR�
 10
1003.945769
 11
1879.393994
 20
4179.680017
 21
4179.680017
  0
ARC
  8
APS_GEOMETR�
 10
2043.044304
 20
4085.498176
 40
188.816427
 50
150.079287
 51
190.712804
  0
ARC
  8
APS_GEOMETR�
 10
2050.94746
 20
4087.812545
 40
197.013695
 50
190.9469
 51
221.506809
  0
ARC
  8
APS_GEOMETR�
 10
1817.172746
 20
3881.109704
 40
115.03872
 50
15.243542
 51
41.442251
  0
ARC
  8
APS_GEOMETR�
 10
1822.660452
 20
3882.878136
 40
109.279446
 50
347.987241
 51
15.105455
  0
ARC
  8
APS_GEOMETR�
 10
1818.184227
 20
3884.131837
 40
113.918961
 50
321.467635
 51
347.839065
  0
ARC
  8
APS_GEOMETR�
 10
1961.501835
 20
3770.04611
 40
69.262621
 50
141.497715
 51
165.505415
  0
ARC
  8
APS_GEOMETR�
 10
1958.56345
 20
3770.934078
 40
66.195629
 50
165.612969
 51
190.361222
  0
ARC
  8
APS_GEOMETR�
 10
1960.744411
 20
3771.474812
 40
68.438422
 50
190.478147
 51
214.679434
  0
ARC
  8
APS_GEOMETR�
 10
1965.937107
 20
3775.119295
 40
74.782293
 50
214.711973
 51
237.515584
  0
ARC
  8
APS_GEOMETR�
 10
1838.800207
 20
3573.299539
 40
163.745705
 50
16.519523
 51
57.916799
  0
ARC
  8
APS_GEOMETR�
 10
1761.516207
 20
3552.530712
 40
243.75383
 50
341.645762
 51
16.03447
  0
ARC
  8
APS_GEOMETR�
 10
1838.827123
 20
3527.16501
 40
162.38868
 50
317.141145
 51
341.550771
  0
ARC
  8
APS_GEOMETR�
 10
2355.9246
 20
3049.498521
 40
541.568582
 50
137.308549
 51
145.205247
  0
ARC
  8
APS_GEOMETR�
 10
2054.435152
 20
3258.379288
 40
174.790363
 50
145.038643
 51
172.150243
  0
ARC
  8
APS_GEOMETR�
 10
2049.784593
 20
3259.524615
 40
170.027691
 50
172.318545
 51
199.937985
  0
ARC
  8
APS_GEOMETR�
 10
2060.661255
 20
3263.894973
 40
181.743174
 50
200.06391
 51
226.474053
  0
ARC
  8
APS_GEOMETR�
 10
2060.661255
 20
3000.344626
 40
181.743174
 50
133.525947
 51
159.93609
  0
ARC
  8
APS_GEOMETR�
 10
2049.784593
 20
3004.714983
 40
170.027691
 50
160.062015
 51
187.681455
  0
ARC
  8
APS_GEOMETR�
 10
2054.435152
 20
3005.86031
 40
174.790363
 50
187.849757
 51
214.961357
  0
ARC
  8
APS_GEOMETR�
 10
2355.9246
 20
3214.741077
 40
541.568582
 50
214.794753
 51
222.691451
  0
ARC
  8
APS_GEOMETR�
 10
1838.827123
 20
2737.074588
 40
162.38868
 50
18.449229
 51
42.858855
  0
ARC
  8
APS_GEOMETR�
 10
1761.516207
 20
2711.708886
 40
243.75383
 50
343.96553
 51
18.354238
  0
ARC
  8
APS_GEOMETR�
 10
1838.800207
 20
2690.940059
 40
163.745705
 50
302.083201
 51
343.480477
  0
ARC
  8
APS_GEOMETR�
 10
1965.937107
 20
2489.120303
 40
74.782293
 50
122.484416
 51
145.288027
  0
ARC
  8
APS_GEOMETR�
 10
1960.744411
 20
2492.764786
 40
68.438422
 50
145.320566
 51
169.521853
  0
ARC
  8
APS_GEOMETR�
 10
1958.56345
 20
2493.305521
 40
66.195629
 50
169.638778
 51
194.387031
  0
ARC
  8
APS_GEOMETR�
 10
1961.501835
 20
2494.193488
 40
69.262621
 50
194.494585
 51
218.502285
  0
ARC
  8
APS_GEOMETR�
 10
1818.184227
 20
2380.107762
 40
113.918961
 50
12.160935
 51
38.532365
  0
ARC
  8
APS_GEOMETR�
 10
1822.660452
 20
2381.361463
 40
109.279446
 50
344.894545
 51
12.012759
  0
ARC
  8
APS_GEOMETR�
 10
1817.172746
 20
2383.129894
 40
115.03872
 50
318.557749
 51
344.756458
  0
ARC
  8
APS_GEOMETR�
 10
2050.94746
 20
2176.427053
 40
197.013695
 50
138.493191
 51
169.0531
  0
ARC
  8
APS_GEOMETR�
 10
2043.044304
 20
2178.741422
 40
188.816427
 50
169.287196
 51
204.753866
  0
LINE
  8
APS_GEOMETR�
 10
1871.577289
 11
1003.945769
 20
2099.680017
 21
2099.680017
  0
LINE
  8
APS_GEOMETR�
 10
1003.945769
 11
1003.945769
 20
2099.680017
 21
4179.680017
  0
ARC
  8
APS_GEOMETR�
 10
4699.937701
 20
1177.572792
 40
78.89411
 50
193.892257
 51
212.70891
  0
ARC
  8
APS_GEOMETR�
 10
4714.887812
 20
1181.685942
 40
94.39533
 50
177.451868
 51
194.137089
  0
ARC
  8
APS_GEOMETR�
 10
4708.891694
 20
1180.548243
 40
88.46685
 50
141.80691
 51
176.543074
  0
ARC
  8
APS_GEOMETR�
 10
4776.167323
 20
1128.60142
 40
173.462025
 50
124.757998
 51
142.06151
  0
ARC
  8
APS_GEOMETR�
 10
4691.292323
 20
1248.583851
 40
10.183011
 50
290.169626
 51
100.807376
  0
ARC
  8
APS_GEOMETR�
 10
4674.807095
 20
1366.618997
 40
8.421228
 50
36.852729
 51
194.073961
  0
ARC
  8
APS_GEOMETR�
 10
4699.937701
 20
916.978369
 40
78.89411
 50
147.29109
 51
166.107743
  0
ARC
  8
APS_GEOMETR�
 10
4714.887812
 20
912.865219
 40
94.39533
 50
165.862911
 51
182.548132
  0
ARC
  8
APS_GEOMETR�
 10
4708.891694
 20
914.002918
 40
88.46685
 50
183.456926
 51
218.19309
  0
ARC
  8
APS_GEOMETR�
 10
4776.167323
 20
965.949741
 40
173.462025
 50
217.93849
 51
235.242002
  0
ARC
  8
APS_GEOMETR�
 10
4691.292323
 20
845.96731
 40
10.183011
 50
259.192624
 51
69.830374
  0
ARC
  8
APS_GEOMETR�
 10
4674.807095
 20
727.932164
 40
8.421228
 50
165.926039
 51
323.147271
  0
ARC
  8
APS_GEOMETR�
 10
4637.511061
 20
1005.50098
 40
9.749689
 50
348.420008
 51
13.54331
  0
ARC
  8
APS_GEOMETR�
 10
4637.193705
 20
1005.581547
 40
10.076769
 50
323.743297
 51
348.333454
  0
ARC
  8
APS_GEOMETR�
 10
4636.466257
 20
1006.109781
 40
10.975766
 50
300.546513
 51
323.765542
  0
ARC
  8
APS_GEOMETR�
 10
4635.980343
 20
1006.898502
 40
11.901999
 50
278.652749
 51
300.631332
  0
ARC
  8
APS_GEOMETR�
 10
4635.909249
 20
1007.227929
 40
12.238389
 50
257.182466
 51
278.749771
  0
ARC
  8
APS_GEOMETR�
 10
4637.85406
 20
1015.968989
 40
21.193129
 50
233.729651
 51
257.298252
  0
ARC
  8
APS_GEOMETR�
 10
4636.716744
 20
1014.470716
 40
19.312363
 50
208.717888
 51
233.820348
  0
ARC
  8
APS_GEOMETR�
 10
4635.448945
 20
1013.769885
 40
17.863761
 50
182.260263
 51
208.700401
  0
ARC
  8
APS_GEOMETR�
 10
4635.332528
 20
1013.728002
 40
17.745822
 50
155.58693
 51
182.139964
  0
ARC
  8
APS_GEOMETR�
 10
4636.476444
 20
1013.193402
 40
19.008421
 50
130.172138
 51
155.544712
  0
ARC
  8
APS_GEOMETR�
 10
4637.729704
 20
1011.754376
 40
20.916476
 50
106.472538
 51
130.252486
  0
ARC
  8
APS_GEOMETR�
 10
4638.099837
 20
1010.657704
 40
22.073134
 50
83.660474
 51
106.586681
  0
ARC
  8
APS_GEOMETR�
 10
4638.195474
 20
1011.119609
 40
21.603538
 50
60.513805
 51
83.777298
  0
ARC
  8
APS_GEOMETR�
 10
4633.203946
 20
1002.089377
 40
31.921178
 50
32.52086
 51
60.692951
  0
ARC
  8
APS_GEOMETR�
 10
4635.636401
 20
1003.640665
 40
29.036159
 50
2.503063
 51
32.520198
  0
ARC
  8
APS_GEOMETR�
 10
4635.864811
 20
1003.733979
 40
28.804012
 50
332.165924
 51
2.337466
  0
ARC
  8
APS_GEOMETR�
 10
4633.619559
 20
1004.943815
 40
31.354391
 50
303.609166
 51
332.126588
  0
ARC
  8
APS_GEOMETR�
 10
4707.370154
 20
894.912649
 40
101.107266
 50
123.902102
 51
131.616155
  0
ARC
  8
APS_GEOMETR�
 10
4702.375491
 20
899.747679
 40
94.176856
 50
131.298004
 51
161.459061
  0
ARC
  8
APS_GEOMETR�
 10
4697.144166
 20
901.699346
 40
88.596656
 50
161.57993
 51
192.96691
  0
ARC
  8
APS_GEOMETR�
 10
4738.860838
 20
916.89583
 40
132.771289
 50
195.318689
 51
215.550737
  0
ARC
  8
APS_GEOMETR�
 10
4705.822393
 20
892.787506
 40
91.874922
 50
215.298029
 51
241.205176
  0
ARC
  8
APS_GEOMETR�
 10
4705.822393
 20
1201.763655
 40
91.874922
 50
118.794824
 51
144.701971
  0
ARC
  8
APS_GEOMETR�
 10
4738.860838
 20
1177.655331
 40
132.771289
 50
144.449263
 51
164.681311
  0
ARC
  8
APS_GEOMETR�
 10
4697.144166
 20
1192.851815
 40
88.596656
 50
167.03309
 51
198.42007
  0
ARC
  8
APS_GEOMETR�
 10
4702.375491
 20
1194.803482
 40
94.176856
 50
198.540939
 51
228.701996
  0
ARC
  8
APS_GEOMETR�
 10
4707.370154
 20
1199.638512
 40
101.107266
 50
228.383845
 51
236.097898
  0
ARC
  8
APS_GEOMETR�
 10
4633.619559
 20
1089.607346
 40
31.354391
 50
27.873412
 51
56.390834
  0
ARC
  8
APS_GEOMETR�
 10
4635.864811
 20
1090.817182
 40
28.804012
 50
357.662534
 51
27.834076
  0
ARC
  8
APS_GEOMETR�
 10
4635.636401
 20
1090.910496
 40
29.036159
 50
327.479802
 51
357.496937
  0
ARC
  8
APS_GEOMETR�
 10
4633.203946
 20
1092.461784
 40
31.921178
 50
299.307049
 51
327.47914
  0
ARC
  8
APS_GEOMETR�
 10
4638.195474
 20
1083.431553
 40
21.603538
 50
276.222702
 51
299.486195
  0
ARC
  8
APS_GEOMETR�
 10
4638.099837
 20
1083.893457
 40
22.073134
 50
253.413319
 51
276.339526
  0
ARC
  8
APS_GEOMETR�
 10
4637.729704
 20
1082.796785
 40
20.916476
 50
229.747514
 51
253.527462
  0
ARC
  8
APS_GEOMETR�
 10
4636.476444
 20
1081.357759
 40
19.008421
 50
204.455288
 51
229.827862
  0
ARC
  8
APS_GEOMETR�
 10
4635.332528
 20
1080.823159
 40
17.745822
 50
177.860036
 51
204.41307
  0
ARC
  8
APS_GEOMETR�
 10
4635.448945
 20
1080.781276
 40
17.863761
 50
151.299599
 51
177.739737
  0
ARC
  8
APS_GEOMETR�
 10
4636.716744
 20
1080.080445
 40
19.312363
 50
126.179652
 51
151.282112
  0
ARC
  8
APS_GEOMETR�
 10
4637.85406
 20
1078.582173
 40
21.193129
 50
102.701748
 51
126.270349
  0
ARC
  8
APS_GEOMETR�
 10
4635.909249
 20
1087.323233
 40
12.238389
 50
81.250229
 51
102.817534
  0
ARC
  8
APS_GEOMETR�
 10
4635.980343
 20
1087.652659
 40
11.901999
 50
59.368668
 51
81.347251
  0
ARC
  8
APS_GEOMETR�
 10
4636.466257
 20
1088.44138
 40
10.975766
 50
36.234458
 51
59.453487
  0
ARC
  8
APS_GEOMETR�
 10
4637.193705
 20
1088.969614
 40
10.076769
 50
11.666546
 51
36.256703
  0
ARC
  8
APS_GEOMETR�
 10
4637.511061
 20
1089.050181
 40
9.749689
 50
346.45669
 51
11.579992
  0
ARC
  8
APS_GEOMETR�
 10
3981.280244
 20
418.998529
 40
785.784295
 50
26.693633
 51
30.03217
  0
ARC
  8
APS_GEOMETR�
 10
4344.993807
 20
618.750901
 40
371.408234
 50
10.717316
 51
24.367317
  0
ARC
  8
APS_GEOMETR�
 10
4337.969328
 20
617.421413
 40
378.557419
 50
344.023739
 51
10.717316
  0
ARC
  8
APS_GEOMETR�
 10
4528.164503
 20
563.722924
 40
180.929907
 50
312.459605
 51
343.794242
  0
ARC
  8
APS_GEOMETR�
 10
4697.844053
 20
378.525806
 40
70.245706
 50
132.590609
 51
156.116141
  0
ARC
  8
APS_GEOMETR�
 10
4693.553101
 20
380.522438
 40
65.513852
 50
156.193381
 51
180.845786
  0
ARC
  8
APS_GEOMETR�
 10
4693.745974
 20
380.672304
 40
65.70908
 50
180.973966
 51
205.57722
  0
ARC
  8
APS_GEOMETR�
 10
4475.669047
 20
276.300482
 40
176.057384
 50
1.268162
 51
25.575298
  0
ARC
  8
APS_GEOMETR�
 10
4476.346705
 20
276.694269
 40
175.371585
 50
336.773598
 51
1.144439
  0
ARC
  8
APS_GEOMETR�
 10
4465.159608
 20
281.768394
 40
187.653237
 50
313.407933
 51
336.696936
  0
ARC
  8
APS_GEOMETR�
 10
4636.826899
 20
99.987464
 40
62.374945
 50
133.219699
 51
167.589102
  0
ARC
  8
APS_GEOMETR�
 10
4756.312025
 20
74.720473
 40
184.50101
 50
167.900684
 51
198.939914
  0
LINE
  8
APS_GEOMETR�
 10
4581.799996
 11
4473.287422
 20
14.835798
 21
14.835798
  0
ARC
  8
APS_GEOMETR�
 10
4644.754437
 20
93.897204
 40
188.816427
 50
169.287196
 51
204.753866
  0
ARC
  8
APS_GEOMETR�
 10
4652.657593
 20
91.582834
 40
197.013695
 50
138.493191
 51
169.0531
  0
ARC
  8
APS_GEOMETR�
 10
4418.88288
 20
298.285675
 40
115.03872
 50
318.557749
 51
344.756458
  0
ARC
  8
APS_GEOMETR�
 10
4424.370586
 20
296.517244
 40
109.279446
 50
344.894545
 51
12.012759
  0
ARC
  8
APS_GEOMETR�
 10
4419.89436
 20
295.263543
 40
113.918961
 50
12.160935
 51
38.532365
  0
ARC
  8
APS_GEOMETR�
 10
4563.211969
 20
409.349269
 40
69.262621
 50
194.494585
 51
218.502285
  0
ARC
  8
APS_GEOMETR�
 10
4560.273583
 20
408.461302
 40
66.195629
 50
169.638778
 51
194.387031
  0
ARC
  8
APS_GEOMETR�
 10
4562.454544
 20
407.920567
 40
68.438422
 50
145.320566
 51
169.521853
  0
ARC
  8
APS_GEOMETR�
 10
4567.647241
 20
404.276085
 40
74.782293
 50
122.484416
 51
145.288027
  0
ARC
  8
APS_GEOMETR�
 10
4440.51034
 20
606.09584
 40
163.745705
 50
302.083201
 51
343.480477
  0
ARC
  8
APS_GEOMETR�
 10
4363.226341
 20
626.864668
 40
243.75383
 50
343.96553
 51
18.354238
  0
ARC
  8
APS_GEOMETR�
 10
4440.537257
 20
652.230369
 40
162.38868
 50
18.449229
 51
42.858855
  0
ARC
  8
APS_GEOMETR�
 10
4957.634733
 20
1129.896859
 40
541.568582
 50
214.794753
 51
222.691451
  0
ARC
  8
APS_GEOMETR�
 10
4656.145286
 20
921.016092
 40
174.790363
 50
187.849757
 51
214.961357
  0
ARC
  8
APS_GEOMETR�
 10
4651.494727
 20
919.870764
 40
170.027691
 50
160.062015
 51
187.681455
  0
ARC
  8
APS_GEOMETR�
 10
4662.371389
 20
915.500407
 40
181.743174
 50
133.525947
 51
159.93609
  0
ARC
  8
APS_GEOMETR�
 10
4662.371389
 20
1179.050754
 40
181.743174
 50
200.06391
 51
226.474053
  0
ARC
  8
APS_GEOMETR�
 10
4651.494727
 20
1174.680397
 40
170.027691
 50
172.318545
 51
199.937985
  0
ARC
  8
APS_GEOMETR�
 10
4656.145286
 20
1173.535069
 40
174.790363
 50
145.038643
 51
172.150243
  0
ARC
  8
APS_GEOMETR�
 10
4957.634733
 20
964.654302
 40
541.568582
 50
137.308549
 51
145.205247
  0
ARC
  8
APS_GEOMETR�
 10
4440.537257
 20
1442.320792
 40
162.38868
 50
317.141145
 51
341.550771
  0
ARC
  8
APS_GEOMETR�
 10
4363.226341
 20
1467.686493
 40
243.75383
 50
341.645762
 51
16.03447
  0
ARC
  8
APS_GEOMETR�
 10
4440.51034
 20
1488.455321
 40
163.745705
 50
16.519523
 51
57.916799
  0
ARC
  8
APS_GEOMETR�
 10
4567.647241
 20
1690.275076
 40
74.782293
 50
214.711973
 51
237.515584
  0
ARC
  8
APS_GEOMETR�
 10
4562.454544
 20
1686.630594
 40
68.438422
 50
190.478147
 51
214.679434
  0
ARC
  8
APS_GEOMETR�
 10
4560.273583
 20
1686.089859
 40
66.195629
 50
165.612969
 51
190.361222
  0
ARC
  8
APS_GEOMETR�
 10
4563.211969
 20
1685.201892
 40
69.262621
 50
141.497715
 51
165.505415
  0
ARC
  8
APS_GEOMETR�
 10
4419.89436
 20
1799.287618
 40
113.918961
 50
321.467635
 51
347.839065
  0
ARC
  8
APS_GEOMETR�
 10
4424.370586
 20
1798.033917
 40
109.279446
 50
347.987241
 51
15.105455
  0
ARC
  8
APS_GEOMETR�
 10
4418.88288
 20
1796.265486
 40
115.03872
 50
15.243542
 51
41.442251
  0
ARC
  8
APS_GEOMETR�
 10
4652.657593
 20
2002.968327
 40
197.013695
 50
190.9469
 51
221.506809
  0
ARC
  8
APS_GEOMETR�
 10
4644.754437
 20
2000.653957
 40
188.816427
 50
150.079287
 51
190.712804
  0
LINE
  8
APS_GEOMETR�
 10
4481.104128
 11
4587.744958
 20
2094.835798
 21
2094.835798
  0
ARC
  8
APS_GEOMETR�
 10
4756.312025
 20
2019.830688
 40
184.50101
 50
156.012989
 51
192.099316
  0
ARC
  8
APS_GEOMETR�
 10
4636.826899
 20
1994.563697
 40
62.374945
 50
192.410898
 51
226.780301
  0
ARC
  8
APS_GEOMETR�
 10
4465.159608
 20
1812.782767
 40
187.653237
 50
23.303064
 51
46.592067
  0
ARC
  8
APS_GEOMETR�
 10
4476.346705
 20
1817.856892
 40
175.371585
 50
358.855561
 51
23.226402
  0
ARC
  8
APS_GEOMETR�
 10
4475.669047
 20
1818.250679
 40
176.057384
 50
334.424702
 51
358.731838
  0
ARC
  8
APS_GEOMETR�
 10
4693.745974
 20
1713.878858
 40
65.70908
 50
154.42278
 51
179.026034
  0
ARC
  8
APS_GEOMETR�
 10
4693.553101
 20
1714.028723
 40
65.513852
 50
179.154214
 51
203.806619
  0
ARC
  8
APS_GEOMETR�
 10
4697.844053
 20
1716.025356
 40
70.245706
 50
203.883859
 51
227.409391
  0
ARC
  8
APS_GEOMETR�
 10
4528.164503
 20
1530.828238
 40
180.929907
 50
16.205758
 51
47.540395
  0
ARC
  8
APS_GEOMETR�
 10
4337.969328
 20
1477.129748
 40
378.557419
 50
349.282684
 51
15.976261
  0
ARC
  8
APS_GEOMETR�
 10
4344.993807
 20
1475.80026
 40
371.408234
 50
335.632683
 51
349.282684
  0
ARC
  8
APS_GEOMETR�
 10
3981.280244
 20
1675.552632
 40
785.784295
 50
329.96783
 51
333.306367
  0
ARC
  8
APS_GEOMETR�
 10
4671.537843
 20
1281.63186
 40
9.990089
 50
176.288963
 51
200.446515
  0
ARC
  8
APS_GEOMETR�
 10
4672.084408
 20
1281.846723
 40
10.577283
 50
200.502818
 51
225.13385
  0
ARC
  8
APS_GEOMETR�
 10
4672.818497
 20
1282.567543
 40
11.60604
 50
225.075665
 51
248.209466
  0
ARC
  8
APS_GEOMETR�
 10
4673.129484
 20
1283.288123
 40
12.390594
 50
248.111082
 51
270.240828
  0
ARC
  8
APS_GEOMETR�
 10
4673.151933
 20
1283.280428
 40
12.382824
 50
270.137104
 51
292.276265
  0
ARC
  8
APS_GEOMETR�
 10
4688.495034
 20
1245.810111
 40
28.107117
 50
87.791607
 51
112.264068
  0
ARC
  8
APS_GEOMETR�
 10
4688.572227
 20
1246.026625
 40
27.887874
 50
63.329666
 51
87.93294
  0
ARC
  8
APS_GEOMETR�
 10
4689.625971
 20
1247.99656
 40
25.654617
 50
37.415891
 51
63.457888
  0
ARC
  8
APS_GEOMETR�
 10
4691.511716
 20
1249.421464
 40
23.29111
 50
9.657413
 51
37.450447
  0
ARC
  8
APS_GEOMETR�
 10
4692.183233
 20
1249.586584
 40
22.601465
 50
341.193134
 51
9.530333
  0
ARC
  8
APS_GEOMETR�
 10
4698.561691
 20
1247.43233
 40
15.869071
 50
316.143722
 51
341.131605
  0
ARC
  8
APS_GEOMETR�
 10
4697.428536
 20
1248.497733
 40
17.424341
 50
292.740407
 51
316.199187
  0
ARC
  8
APS_GEOMETR�
 10
4696.921722
 20
1249.621794
 40
18.656965
 50
270.445928
 51
292.841455
  0
ARC
  8
APS_GEOMETR�
 10
4696.886494
 20
1249.652785
 40
18.688262
 50
248.183115
 51
270.553191
  0
ARC
  8
APS_GEOMETR�
 10
4696.414429
 20
1248.557158
 40
17.495697
 50
224.891055
 51
248.284878
  0
ARC
  8
APS_GEOMETR�
 10
4695.293645
 20
1247.463903
 40
15.93011
 50
200.026587
 51
224.950359
  0
ARC
  8
APS_GEOMETR�
 10
4684.572984
 20
1243.552133
 40
4.518078
 50
168.762912
 51
199.977332
  0
ARC
  8
APS_GEOMETR�
 10
4678.615539
 20
1244.370341
 40
1.52725
 50
2.33513
 51
28.680978
  0
ARC
  8
APS_GEOMETR�
 10
4678.507522
 20
1244.310682
 40
1.650646
 50
28.698283
 51
53.715797
  0
ARC
  8
APS_GEOMETR�
 10
4678.410343
 20
1244.183094
 40
1.811006
 50
53.626261
 51
77.118758
  0
ARC
  8
APS_GEOMETR�
 10
4678.38895
 20
1244.106453
 40
1.890491
 50
77.004523
 51
99.821588
  0
ARC
  8
APS_GEOMETR�
 10
4678.374888
 20
1244.166153
 40
1.829271
 50
99.706568
 51
123.039468
  0
ARC
  8
APS_GEOMETR�
 10
4722.997694
 20
1175.331032
 40
83.862608
 50
122.955455
 51
147.115165
  0
ARC
  8
APS_GEOMETR�
 10
4717.359794
 20
1178.965247
 40
77.154901
 50
147.108312
 51
172.654419
  0
ARC
  8
APS_GEOMETR�
 10
4715.757523
 20
1179.311899
 40
75.521586
 50
172.759836
 51
198.661564
  0
ARC
  8
APS_GEOMETR�
 10
4700.781209
 20
1174.483541
 40
59.78808
 50
198.87007
 51
235.02688
  0
ARC
  8
APS_GEOMETR�
 10
4639.7667
 20
1087.582103
 40
46.394191
 50
27.589878
 51
54.797968
  0
ARC
  8
APS_GEOMETR�
 10
4642.949572
 20
1089.273857
 40
42.789747
 50
358.845814
 51
27.55605
  0
ARC
  8
APS_GEOMETR�
 10
4642.783554
 20
1089.387791
 40
42.958168
 50
330.060254
 51
358.698343
  0
ARC
  8
APS_GEOMETR�
 10
4639.44789
 20
1091.324632
 40
46.815349
 50
303.001717
 51
330.043636
  0
ARC
  8
APS_GEOMETR�
 10
4641.414459
 20
1087.993406
 40
42.9508
 50
288.556395
 51
303.221996
  0
ARC
  8
APS_GEOMETR�
 10
4641.414459
 20
1006.557755
 40
42.9508
 50
56.778004
 51
71.443605
  0
ARC
  8
APS_GEOMETR�
 10
4639.44789
 20
1003.226529
 40
46.815349
 50
29.956364
 51
56.998283
  0
ARC
  8
APS_GEOMETR�
 10
4642.783554
 20
1005.16337
 40
42.958168
 50
1.301657
 51
29.939746
  0
ARC
  8
APS_GEOMETR�
 10
4642.949572
 20
1005.277305
 40
42.789747
 50
332.44395
 51
1.154186
  0
ARC
  8
APS_GEOMETR�
 10
4639.7667
 20
1006.969058
 40
46.394191
 50
305.202032
 51
332.410122
  0
ARC
  8
APS_GEOMETR�
 10
4700.781209
 20
920.06762
 40
59.78808
 50
124.97312
 51
161.12993
  0
ARC
  8
APS_GEOMETR�
 10
4715.757523
 20
915.239262
 40
75.521586
 50
161.338436
 51
187.240164
  0
ARC
  8
APS_GEOMETR�
 10
4717.359794
 20
915.585914
 40
77.154901
 50
187.345581
 51
212.891688
  0
ARC
  8
APS_GEOMETR�
 10
4722.997694
 20
919.220129
 40
83.862608
 50
212.884835
 51
237.044545
  0
ARC
  8
APS_GEOMETR�
 10
4678.374888
 20
850.385008
 40
1.829271
 50
236.960532
 51
260.293432
  0
ARC
  8
APS_GEOMETR�
 10
4678.38895
 20
850.444708
 40
1.890491
 50
260.178412
 51
282.995477
  0
ARC
  8
APS_GEOMETR�
 10
4678.410343
 20
850.368067
 40
1.811006
 50
282.881242
 51
306.373739
  0
ARC
  8
APS_GEOMETR�
 10
4678.507522
 20
850.240479
 40
1.650646
 50
306.284203
 51
331.301717
  0
ARC
  8
APS_GEOMETR�
 10
4678.615539
 20
850.18082
 40
1.52725
 50
331.319022
 51
357.66487
  0
ARC
  8
APS_GEOMETR�
 10
4684.572984
 20
850.999028
 40
4.518078
 50
160.022668
 51
191.237088
  0
ARC
  8
APS_GEOMETR�
 10
4695.293645
 20
847.087258
 40
15.93011
 50
135.049641
 51
159.973413
  0
ARC
  8
APS_GEOMETR�
 10
4696.414429
 20
845.994003
 40
17.495697
 50
111.715122
 51
135.108945
  0
ARC
  8
APS_GEOMETR�
 10
4696.886494
 20
844.898376
 40
18.688262
 50
89.446809
 51
111.816885
  0
ARC
  8
APS_GEOMETR�
 10
4696.921722
 20
844.929367
 40
18.656965
 50
67.158545
 51
89.554072
  0
ARC
  8
APS_GEOMETR�
 10
4697.428536
 20
846.053428
 40
17.424341
 50
43.800813
 51
67.259593
  0
ARC
  8
APS_GEOMETR�
 10
4698.561691
 20
847.118831
 40
15.869071
 50
18.868395
 51
43.856278
  0
ARC
  8
APS_GEOMETR�
 10
4692.183233
 20
844.964577
 40
22.601465
 50
350.469667
 51
18.806866
  0
ARC
  8
APS_GEOMETR�
 10
4691.511716
 20
845.129697
 40
23.29111
 50
322.549553
 51
350.342587
  0
ARC
  8
APS_GEOMETR�
 10
4689.625971
 20
846.554601
 40
25.654617
 50
296.542112
 51
322.584109
  0
ARC
  8
APS_GEOMETR�
 10
4688.572227
 20
848.524536
 40
27.887874
 50
272.06706
 51
296.670334
  0
ARC
  8
APS_GEOMETR�
 10
4688.495034
 20
848.74105
 40
28.107117
 50
247.735932
 51
272.208393
  0
ARC
  8
APS_GEOMETR�
 10
4673.151933
 20
811.270734
 40
12.382824
 50
67.723735
 51
89.862896
  0
ARC
  8
APS_GEOMETR�
 10
4673.129484
 20
811.263038
 40
12.390594
 50
89.759172
 51
111.888918
  0
ARC
  8
APS_GEOMETR�
 10
4672.818497
 20
811.983618
 40
11.60604
 50
111.790534
 51
134.924335
  0
ARC
  8
APS_GEOMETR�
 10
4672.084408
 20
812.704438
 40
10.577283
 50
134.86615
 51
159.497182
  0
ARC
  8
APS_GEOMETR�
 10
4671.537843
 20
812.919301
 40
9.990089
 50
159.553485
 51
183.711037
  0
LINE
  8
APS_GEOMETR�
 10
3650.293294
 11
3650.293294
 20
2551.635079
 21
2897.205731
  0
ARC
  8
APS_GEOMETR�
 10
1947.418128
 20
2724.420405
 40
1711.618707
 50
5.793791
 51
30.970107
  0
ARC
  8
APS_GEOMETR�
 10
3701.780491
 20
3777.302306
 40
334.43789
 50
194.716815
 51
210.970107
  0
ARC
  8
APS_GEOMETR�
 10
3495.584838
 20
3723.143205
 40
121.248172
 50
173.969811
 51
194.716815
  0
ARC
  8
APS_GEOMETR�
 10
3492.640097
 20
3723.6885
 40
118.262671
 50
152.985487
 51
174.082658
  0
ARC
  8
APS_GEOMETR�
 10
3483.002853
 20
3728.776201
 40
107.366128
 50
130.55645
 51
153.068308
  0
ARC
  8
APS_GEOMETR�
 10
3475.330423
 20
3737.723532
 40
95.579663
 50
106.209861
 51
130.549424
  0
ARC
  8
APS_GEOMETR�
 10
3509.053346
 20
3619.589443
 40
218.432189
 50
90.603393
 51
106.053634
  0
ARC
  8
APS_GEOMETR�
 10
3503.249586
 20
4032.059376
 40
194.08148
 50
271.034327
 51
293.880135
  0
ARC
  8
APS_GEOMETR�
 10
3502.568844
 20
4033.546935
 40
195.717278
 50
293.886068
 51
316.604818
  0
ARC
  8
APS_GEOMETR�
 10
3751.515721
 20
3796.69585
 40
147.902426
 50
112.061983
 51
136.190074
  0
ARC
  8
APS_GEOMETR�
 10
3746.940286
 20
3807.297212
 40
136.358985
 50
86.47352
 51
111.95339
  0
ARC
  8
APS_GEOMETR�
 10
3746.41353
 20
3805.322424
 40
138.363025
 50
61.074229
 51
86.306104
  0
ARC
  8
APS_GEOMETR�
 10
3866.97339
 20
4023.343708
 40
110.771408
 50
241.039067
 51
269.79729
  0
ARC
  8
APS_GEOMETR�
 10
3866.499425
 20
4023.30426
 40
110.731298
 50
270.042461
 51
298.807679
  0
ARC
  8
APS_GEOMETR�
 10
3860.022444
 20
4034.603965
 40
123.75386
 50
298.914351
 51
325.607575
  0
ARC
  8
APS_GEOMETR�
 10
4034.710905
 20
3915.739011
 40
87.54078
 50
105.028399
 51
145.99256
  0
ARC
  8
APS_GEOMETR�
 10
4043.474917
 20
3878.277116
 40
126.000066
 50
73.659598
 51
104.460195
  0
ARC
  8
APS_GEOMETR�
 10
4110.297442
 20
4107.03633
 40
112.319238
 50
253.780257
 51
278.391379
  0
ARC
  8
APS_GEOMETR�
 10
4110.213224
 20
4107.415644
 40
112.706785
 50
278.405593
 51
302.960882
  0
ARC
  8
APS_GEOMETR�
 10
3797.73959
 20
4598.659006
 40
694.905728
 50
302.541169
 51
305.529717
  0
ARC
  8
APS_GEOMETR�
 10
4247.837532
 20
3968.843022
 40
79.211246
 50
99.893741
 51
125.74253
  0
ARC
  8
APS_GEOMETR�
 10
4247.071847
 20
3971.886849
 40
76.081477
 50
73.162236
 51
99.719551
  0
ARC
  8
APS_GEOMETR�
 10
4382.07878
 20
4419.436651
 40
391.38802
 50
253.223642
 51
258.36189
  0
ARC
  8
APS_GEOMETR�
 10
4388.765538
 20
4451.274514
 40
423.920273
 50
258.344772
 51
271.558249
  0
ARC
  8
APS_GEOMETR�
 10
4411.821049
 20
4451.274514
 40
423.920273
 50
268.441751
 51
281.655228
  0
ARC
  8
APS_GEOMETR�
 10
4418.507808
 20
4419.436651
 40
391.38802
 50
281.63811
 51
286.776358
  0
ARC
  8
APS_GEOMETR�
 10
4553.51474
 20
3971.886849
 40
76.081477
 50
80.280449
 51
106.837764
  0
ARC
  8
APS_GEOMETR�
 10
4552.749056
 20
3968.843022
 40
79.211246
 50
54.25747
 51
80.106259
  0
ARC
  8
APS_GEOMETR�
 10
5002.846998
 20
4598.659006
 40
694.905728
 50
234.470283
 51
237.458831
  0
ARC
  8
APS_GEOMETR�
 10
4690.373363
 20
4107.415644
 40
112.706785
 50
237.039118
 51
261.594407
  0
ARC
  8
APS_GEOMETR�
 10
4690.289146
 20
4107.03633
 40
112.319238
 50
261.608621
 51
286.219743
  0
ARC
  8
APS_GEOMETR�
 10
4757.111671
 20
3878.277116
 40
126.000066
 50
75.539805
 51
106.340402
  0
ARC
  8
APS_GEOMETR�
 10
4765.875682
 20
3915.739011
 40
87.54078
 50
34.00744
 51
74.971601
  0
ARC
  8
APS_GEOMETR�
 10
4940.564143
 20
4034.603965
 40
123.75386
 50
214.392425
 51
241.085649
  0
ARC
  8
APS_GEOMETR�
 10
4934.087162
 20
4023.30426
 40
110.731298
 50
241.192321
 51
269.957539
  0
ARC
  8
APS_GEOMETR�
 10
4933.613197
 20
4023.343708
 40
110.771408
 50
270.20271
 51
298.960933
  0
ARC
  8
APS_GEOMETR�
 10
5054.173058
 20
3805.322424
 40
138.363025
 50
93.693896
 51
118.925771
  0
ARC
  8
APS_GEOMETR�
 10
5053.646301
 20
3807.297212
 40
136.358985
 50
68.04661
 51
93.52648
  0
ARC
  8
APS_GEOMETR�
 10
5049.070866
 20
3796.69585
 40
147.902426
 50
43.809926
 51
67.938017
  0
ARC
  8
APS_GEOMETR�
 10
5298.017743
 20
4033.546935
 40
195.717278
 50
223.395182
 51
246.113932
  0
ARC
  8
APS_GEOMETR�
 10
5297.337001
 20
4032.059376
 40
194.08148
 50
246.119865
 51
268.965673
  0
ARC
  8
APS_GEOMETR�
 10
5291.533242
 20
3619.589443
 40
218.432189
 50
73.946366
 51
89.396607
  0
ARC
  8
APS_GEOMETR�
 10
5325.256164
 20
3737.723532
 40
95.579663
 50
49.450576
 51
73.790139
  0
ARC
  8
APS_GEOMETR�
 10
5317.583735
 20
3728.776201
 40
107.366128
 50
26.931692
 51
49.44355
  0
ARC
  8
APS_GEOMETR�
 10
5307.94649
 20
3723.6885
 40
118.262671
 50
5.917342
 51
27.014513
  0
ARC
  8
APS_GEOMETR�
 10
5305.00175
 20
3723.143205
 40
121.248172
 50
345.283185
 51
6.030189
  0
ARC
  8
APS_GEOMETR�
 10
5098.806096
 20
3777.302306
 40
334.43789
 50
329.029893
 51
345.283185
  0
ARC
  8
APS_GEOMETR�
 10
6853.168459
 20
2724.420405
 40
1711.618707
 50
149.029893
 51
174.206209
  0
LINE
  8
APS_GEOMETR�
 10
5150.293294
 11
5150.293294
 20
2897.205731
 21
2551.635079
  0
LINE
  8
APS_GEOMETR�
 10
5150.293294
 11
3650.293294
 20
2551.635079
 21
2551.635079
  0
ARC
  8
APS_GEOMETR�
 10
4529.345056
 20
3921.008595
 40
83.12702
 50
101.244581
 51
135.253557
  0
ARC
  8
APS_GEOMETR�
 10
4536.399999
 20
3893.150453
 40
111.835975
 50
87.821759
 51
102.006549
  0
ARC
  8
APS_GEOMETR�
 10
4536.219235
 20
3905.792368
 40
99.212268
 50
56.835182
 51
87.439948
  0
ARC
  8
APS_GEOMETR�
 10
4501.608597
 20
3853.172261
 40
162.194413
 50
39.532536
 51
56.7692
  0
ARC
  8
APS_GEOMETR�
 10
4602.230948
 20
3944.920464
 40
8.664438
 50
203.851925
 51
229.727309
  0
ARC
  8
APS_GEOMETR�
 10
4603.49244
 20
3946.382149
 40
10.595145
 50
229.632037
 51
252.236604
  0
ARC
  8
APS_GEOMETR�
 10
4603.951559
 20
3947.683082
 40
11.974195
 50
252.043614
 51
272.860877
  0
ARC
  8
APS_GEOMETR�
 10
4604.004556
 20
3947.444394
 40
11.733231
 50
272.660579
 51
293.764962
  0
ARC
  8
APS_GEOMETR�
 10
4604.70569
 20
3945.931419
 40
10.066051
 50
293.582959
 51
316.97959
  0
ARC
  8
APS_GEOMETR�
 10
4606.051492
 20
3944.682081
 40
8.229749
 50
316.946308
 51
343.730983
  0
ARC
  8
APS_GEOMETR�
 10
4606.823032
 20
3944.419454
 40
7.415617
 50
344.008868
 51
12.731381
  0
ARC
  8
APS_GEOMETR�
 10
4724.190406
 20
3959.247138
 40
7.644595
 50
301.914217
 51
328.547936
  0
ARC
  8
APS_GEOMETR�
 10
4725.299463
 20
3958.551989
 40
6.335782
 50
328.677492
 51
358.891537
  0
ARC
  8
APS_GEOMETR�
 10
4725.33897
 20
3958.502923
 40
6.295519
 50
359.331055
 51
29.67463
  0
ARC
  8
APS_GEOMETR�
 10
4724.26038
 20
3957.864908
 40
7.548545
 50
29.829151
 51
56.690219
  0
ARC
  8
APS_GEOMETR�
 10
4723.306996
 20
3956.465568
 40
9.241601
 50
56.514846
 51
79.955765
  0
ARC
  8
APS_GEOMETR�
 10
4723.132744
 20
3955.729103
 40
9.997262
 50
79.708553
 51
101.938891
  0
ARC
  8
APS_GEOMETR�
 10
4272.065503
 20
3921.008595
 40
83.12702
 50
44.746443
 51
78.755419
  0
ARC
  8
APS_GEOMETR�
 10
4265.01056
 20
3893.150453
 40
111.835975
 50
77.993451
 51
92.178241
  0
ARC
  8
APS_GEOMETR�
 10
4265.191324
 20
3905.792368
 40
99.212268
 50
92.560052
 51
123.164818
  0
ARC
  8
APS_GEOMETR�
 10
4299.801962
 20
3853.172261
 40
162.194413
 50
123.2308
 51
140.467464
  0
ARC
  8
APS_GEOMETR�
 10
4199.179611
 20
3944.920464
 40
8.664438
 50
310.272691
 51
336.148075
  0
ARC
  8
APS_GEOMETR�
 10
4197.918119
 20
3946.382149
 40
10.595145
 50
287.763396
 51
310.367963
  0
ARC
  8
APS_GEOMETR�
 10
4197.459
 20
3947.683082
 40
11.974195
 50
267.139123
 51
287.956386
  0
ARC
  8
APS_GEOMETR�
 10
4197.406003
 20
3947.444394
 40
11.733231
 50
246.235038
 51
267.339421
  0
ARC
  8
APS_GEOMETR�
 10
4196.704869
 20
3945.931419
 40
10.066051
 50
223.02041
 51
246.417041
  0
ARC
  8
APS_GEOMETR�
 10
4195.359067
 20
3944.682081
 40
8.229749
 50
196.269017
 51
223.053692
  0
ARC
  8
APS_GEOMETR�
 10
4194.587527
 20
3944.419454
 40
7.415617
 50
167.268619
 51
195.991132
  0
ARC
  8
APS_GEOMETR�
 10
4078.277815
 20
3955.729103
 40
9.997262
 50
78.061109
 51
100.291447
  0
ARC
  8
APS_GEOMETR�
 10
4078.103563
 20
3956.465568
 40
9.241601
 50
100.044235
 51
123.485154
  0
ARC
  8
APS_GEOMETR�
 10
4077.150179
 20
3957.864908
 40
7.548545
 50
123.309781
 51
150.170849
  0
ARC
  8
APS_GEOMETR�
 10
4076.071589
 20
3958.502923
 40
6.295519
 50
150.32537
 51
180.668945
  0
ARC
  8
APS_GEOMETR�
 10
4076.111096
 20
3958.551989
 40
6.335782
 50
181.108463
 51
211.322508
  0
ARC
  8
APS_GEOMETR�
 10
4077.220153
 20
3959.247138
 40
7.644595
 50
211.452064
 51
238.085783
  0
ARC
  8
APS_GEOMETR�
 10
4358.526755
 20
3993.664508
 40
11.577749
 50
260.175835
 51
281.487652
  0
ARC
  8
APS_GEOMETR�
 10
4358.427621
 20
3993.242863
 40
11.145401
 50
238.424637
 51
260.308142
  0
ARC
  8
APS_GEOMETR�
 10
4357.885956
 20
3992.404818
 40
10.147826
 50
215.24396
 51
238.552554
  0
ARC
  8
APS_GEOMETR�
 10
4357.132339
 20
3991.874981
 40
9.226598
 50
190.429413
 51
215.25739
  0
ARC
  8
APS_GEOMETR�
 10
4356.821847
 20
3991.798425
 40
8.907398
 50
164.893063
 51
190.306652
  0
ARC
  8
APS_GEOMETR�
 10
4364.595859
 20
3989.661667
 40
16.969674
 50
138.712149
 51
164.768676
  0
ARC
  8
APS_GEOMETR�
 10
4366.037111
 20
3988.42264
 40
18.870209
 50
114.490815
 51
138.772843
  0
ARC
  8
APS_GEOMETR�
 10
4366.795869
 20
3986.897788
 40
20.572491
 50
91.758041
 51
114.653372
  0
ARC
  8
APS_GEOMETR�
 10
4366.857718
 20
3986.736402
 40
20.735776
 50
69.146729
 51
91.915177
  0
ARC
  8
APS_GEOMETR�
 10
4367.455887
 20
3988.152277
 40
19.199793
 50
45.308996
 51
69.310767
  0
ARC
  8
APS_GEOMETR�
 10
4368.854383
 20
3989.527982
 40
17.238273
 50
19.610764
 51
45.397722
  0
ARC
  8
APS_GEOMETR�
 10
4369.884821
 20
3989.924772
 40
16.134456
 50
352.570249
 51
19.51158
  0
ARC
  8
APS_GEOMETR�
 10
4369.452154
 20
3990.026212
 40
16.576668
 50
325.952208
 51
352.415957
  0
ARC
  8
APS_GEOMETR�
 10
4358.497755
 20
3997.452646
 40
29.811113
 50
297.817919
 51
325.913516
  0
ARC
  8
APS_GEOMETR�
 10
4356.836069
 20
4000.323835
 40
33.126196
 50
271.891335
 51
298.04238
  0
ARC
  8
APS_GEOMETR�
 10
4356.684533
 20
4000.649515
 40
33.456996
 50
246.165011
 51
272.132296
  0
ARC
  8
APS_GEOMETR�
 10
4355.336756
 20
3997.904378
 40
30.401592
 50
218.667528
 51
246.397779
  0
ARC
  8
APS_GEOMETR�
 10
4261.084233
 20
3922.890208
 40
90.058767
 50
38.464522
 51
46.400527
  0
ARC
  8
APS_GEOMETR�
 10
4256.110594
 20
3917.214513
 40
97.599367
 50
46.583823
 51
74.624423
  0
ARC
  8
APS_GEOMETR�
 10
4253.703785
 20
3910.282812
 40
104.922236
 50
74.360797
 51
101.017972
  0
ARC
  8
APS_GEOMETR�
 10
4266.17485
 20
3871.216899
 40
145.729741
 50
102.895683
 51
120.997086
  0
ARC
  8
APS_GEOMETR�
 10
4234.042823
 20
3923.197874
 40
84.627706
 50
120.473428
 51
146.548416
  0
ARC
  8
APS_GEOMETR�
 10
1581.369018
 20
1070.353123
 40
815.057268
 50
337.846933
 51
18.459192
  0
ARC
  8
APS_GEOMETR�
 10
2232.703562
 20
1287.75502
 40
128.398494
 50
18.465912
 51
27.342551
  0
ARC
  8
APS_GEOMETR�
 10
2365.328431
 20
1356.296589
 40
20.890852
 50
185.713508
 51
207.25482
  0
ARC
  8
APS_GEOMETR�
 10
2365.728598
 20
1356.371978
 40
21.296566
 50
164.543072
 51
185.808144
  0
ARC
  8
APS_GEOMETR�
 10
2364.750103
 20
1356.67426
 40
20.272922
 50
142.649708
 51
164.629459
  0
ARC
  8
APS_GEOMETR�
 10
2389.81975
 20
1337.413926
 40
51.886901
 50
131.687306
 51
142.537716
  0
ARC
  8
APS_GEOMETR�
 10
2406.027411
 20
1319.925295
 40
75.727779
 50
111.196415
 51
132.044857
  0
ARC
  8
APS_GEOMETR�
 10
2413.968903
 20
1300.636069
 40
96.584352
 50
93.74334
 51
111.451434
  0
ARC
  8
APS_GEOMETR�
 10
2399.418013
 20
1525.654526
 40
128.904132
 50
273.667349
 51
293.943892
  0
ARC
  8
APS_GEOMETR�
 10
2413.518658
 20
1495.434877
 40
95.564483
 50
293.570494
 51
318.367676
  0
ARC
  8
APS_GEOMETR�
 10
2583.277614
 20
1343.581476
 40
132.202795
 50
109.16861
 51
138.055732
  0
ARC
  8
APS_GEOMETR�
 10
2600.640183
 20
1299.622286
 40
179.436485
 50
86.290742
 51
109.796373
  0
ARC
  8
APS_GEOMETR�
 10
2640.854843
 20
1478.587073
 40
28.606435
 50
148.256869
 51
179.8081
  0
ARC
  8
APS_GEOMETR�
 10
2649.8159
 20
1472.889096
 40
39.225048
 50
122.5478
 51
148.065331
  0
ARC
  8
APS_GEOMETR�
 10
2658.599039
 20
1459.628482
 40
55.129002
 50
102.528139
 51
122.827826
  0
ARC
  8
APS_GEOMETR�
 10
2661.059868
 20
1450.07887
 40
64.985876
 50
84.642569
 51
102.819744
  0
ARC
  8
APS_GEOMETR�
 10
2661.763606
 20
1454.416256
 40
60.602453
 50
67.561512
 51
84.922124
  0
ARC
  8
APS_GEOMETR�
 10
2771.73119
 20
1403.364381
 40
137.853794
 50
125.480346
 51
129.043841
  0
ARC
  8
APS_GEOMETR�
 10
2717.772255
 20
1480.982192
 40
43.343688
 50
106.419646
 51
126.950007
  0
ARC
  8
APS_GEOMETR�
 10
2720.295994
 20
1473.259917
 40
51.464962
 50
88.406922
 51
106.684562
  0
ARC
  8
APS_GEOMETR�
 10
2717.650655
 20
1472.22167
 40
52.641365
 50
64.856852
 51
85.559045
  0
ARC
  8
APS_GEOMETR�
 10
2723.037854
 20
1483.062289
 40
40.539889
 50
40.524246
 51
65.239555
  0
ARC
  8
APS_GEOMETR�
 10
2773.506384
 20
1503.617986
 40
20.486902
 50
141.668669
 51
163.595347
  0
ARC
  8
APS_GEOMETR�
 10
2771.080147
 20
1505.621875
 40
17.340973
 50
117.329757
 51
141.890552
  0
ARC
  8
APS_GEOMETR�
 10
2770.133314
 20
1507.468351
 40
15.265902
 50
90.650001
 51
117.354494
  0
ARC
  8
APS_GEOMETR�
 10
2770.083081
 20
1507.509825
 40
15.223943
 50
63.712367
 51
90.462727
  0
ARC
  8
APS_GEOMETR�
 10
2769.201001
 20
1505.716297
 40
17.222642
 50
39.049596
 51
63.723868
  0
ARC
  8
APS_GEOMETR�
 10
2766.810554
 20
1503.67649
 40
20.364279
 50
17.252556
 51
39.269479
  0
ARC
  8
APS_GEOMETR�
 10
2805.7066
 20
1503.67649
 40
20.364279
 50
140.730521
 51
162.747444
  0
ARC
  8
APS_GEOMETR�
 10
2803.316153
 20
1505.716297
 40
17.222642
 50
116.276132
 51
140.950404
  0
ARC
  8
APS_GEOMETR�
 10
2802.434074
 20
1507.509825
 40
15.223943
 50
89.537273
 51
116.287633
  0
ARC
  8
APS_GEOMETR�
 10
2802.38384
 20
1507.468351
 40
15.265902
 50
62.645506
 51
89.349999
  0
ARC
  8
APS_GEOMETR�
 10
2801.437007
 20
1505.621875
 40
17.340973
 50
38.109448
 51
62.670243
  0
ARC
  8
APS_GEOMETR�
 10
2799.01077
 20
1503.617986
 40
20.486902
 50
16.404653
 51
38.331331
  0
ARC
  8
APS_GEOMETR�
 10
2849.4793
 20
1483.062289
 40
40.539889
 50
114.760445
 51
139.475754
  0
ARC
  8
APS_GEOMETR�
 10
2854.8665
 20
1472.22167
 40
52.641365
 50
94.440955
 51
115.143148
  0
ARC
  8
APS_GEOMETR�
 10
2852.22116
 20
1473.259917
 40
51.464962
 50
73.315438
 51
91.593078
  0
ARC
  8
APS_GEOMETR�
 10
2854.744899
 20
1480.982192
 40
43.343688
 50
53.049993
 51
73.580354
  0
ARC
  8
APS_GEOMETR�
 10
2800.785964
 20
1403.364381
 40
137.853794
 50
50.956159
 51
54.519654
  0
ARC
  8
APS_GEOMETR�
 10
2910.753549
 20
1454.416256
 40
60.602453
 50
95.077876
 51
112.438488
  0
ARC
  8
APS_GEOMETR�
 10
2911.457286
 20
1450.07887
 40
64.985876
 50
77.180256
 51
95.357431
  0
ARC
  8
APS_GEOMETR�
 10
2913.918115
 20
1459.628482
 40
55.129002
 50
57.172174
 51
77.471861
  0
ARC
  8
APS_GEOMETR�
 10
2922.701255
 20
1472.889096
 40
39.225048
 50
31.934669
 51
57.4522
  0
ARC
  8
APS_GEOMETR�
 10
2931.662311
 20
1478.587073
 40
28.606435
 50
0.1919
 51
31.743131
  0
ARC
  8
APS_GEOMETR�
 10
2971.876971
 20
1299.622286
 40
179.436485
 50
70.203627
 51
93.709258
  0
ARC
  8
APS_GEOMETR�
 10
2989.239541
 20
1343.581476
 40
132.202795
 50
41.944268
 51
70.83139
  0
ARC
  8
APS_GEOMETR�
 10
3158.998497
 20
1495.434877
 40
95.564483
 50
221.632324
 51
246.429506
  0
ARC
  8
APS_GEOMETR�
 10
3173.099141
 20
1525.654526
 40
128.904132
 50
246.056108
 51
266.332651
  0
ARC
  8
APS_GEOMETR�
 10
3158.548251
 20
1300.636069
 40
96.584352
 50
68.548566
 51
86.25666
  0
ARC
  8
APS_GEOMETR�
 10
3166.489744
 20
1319.925295
 40
75.727779
 50
47.955143
 51
68.803585
  0
ARC
  8
APS_GEOMETR�
 10
3182.697404
 20
1337.413926
 40
51.886901
 50
37.462284
 51
48.312694
  0
ARC
  8
APS_GEOMETR�
 10
3207.767051
 20
1356.67426
 40
20.272922
 50
15.370541
 51
37.350292
  0
ARC
  8
APS_GEOMETR�
 10
3206.788556
 20
1356.371978
 40
21.296566
 50
354.191856
 51
15.456928
  0
ARC
  8
APS_GEOMETR�
 10
3207.188724
 20
1356.296589
 40
20.890852
 50
332.74518
 51
354.286492
  0
ARC
  8
APS_GEOMETR�
 10
3339.813592
 20
1287.75502
 40
128.398494
 50
152.657449
 51
161.534088
  0
ARC
  8
APS_GEOMETR�
 10
3991.148136
 20
1070.353123
 40
815.057268
 50
161.540808
 51
202.153067
  0
LINE
  8
APS_GEOMETR�
 10
3236.258577
 11
2336.258577
 20
763.009499
 21
763.009499
  0
LINE
  8
APS_GEOMETR�
 10
2343.708041
 11
2343.708041
 20
-298.900101
 21
501.099899
  0
LINE
  8
APS_GEOMETR�
 10
2343.708041
 11
3243.708041
 20
501.099899
 21
501.099899
  0
LINE
  8
APS_GEOMETR�
 10
3243.708041
 11
3243.708041
 20
501.099899
 21
-298.900101
  0
LINE
  8
APS_GEOMETR�
 10
3243.708041
 11
3117.621412
 20
-298.900101
 21
-298.900101
  0
ARC
  8
APS_GEOMETR�
 10
3144.999337
 20
-446.765178
 40
150.378296
 50
100.489792
 51
121.657585
  0
ARC
  8
APS_GEOMETR�
 10
2996.689004
 20
-206.23219
 40
132.202795
 50
289.16861
 51
301.657585
  0
ARC
  8
APS_GEOMETR�
 10
2979.326435
 20
-162.273
 40
179.436485
 50
266.290742
 51
289.796373
  0
ARC
  8
APS_GEOMETR�
 10
2939.111775
 20
-341.237787
 40
28.606435
 50
328.256869
 51
359.8081
  0
ARC
  8
APS_GEOMETR�
 10
2930.150718
 20
-335.53981
 40
39.225048
 50
302.5478
 51
328.065331
  0
ARC
  8
APS_GEOMETR�
 10
2921.367579
 20
-322.279196
 40
55.129002
 50
282.528139
 51
302.827826
  0
ARC
  8
APS_GEOMETR�
 10
2918.90675
 20
-312.729584
 40
64.985876
 50
264.642569
 51
282.819744
  0
ARC
  8
APS_GEOMETR�
 10
2918.203013
 20
-317.06697
 40
60.602453
 50
247.561512
 51
264.922124
  0
ARC
  8
APS_GEOMETR�
 10
2808.235428
 20
-266.015095
 40
137.853794
 50
305.480346
 51
309.043841
  0
ARC
  8
APS_GEOMETR�
 10
2862.194363
 20
-343.632906
 40
43.343688
 50
286.419646
 51
306.950007
  0
ARC
  8
APS_GEOMETR�
 10
2859.670624
 20
-335.910631
 40
51.464962
 50
268.406922
 51
286.684562
  0
ARC
  8
APS_GEOMETR�
 10
2862.315963
 20
-334.872384
 40
52.641365
 50
244.856852
 51
265.559045
  0
ARC
  8
APS_GEOMETR�
 10
2856.928764
 20
-345.713003
 40
40.539889
 50
220.524246
 51
245.239555
  0
ARC
  8
APS_GEOMETR�
 10
2806.460234
 20
-366.268699
 40
20.486902
 50
321.668669
 51
343.595347
  0
ARC
  8
APS_GEOMETR�
 10
2808.886471
 20
-368.272589
 40
17.340973
 50
297.329757
 51
321.890552
  0
ARC
  8
APS_GEOMETR�
 10
2809.833304
 20
-370.119065
 40
15.265902
 50
270.650001
 51
297.354494
  0
ARC
  8
APS_GEOMETR�
 10
2809.883537
 20
-370.160539
 40
15.223943
 50
243.712367
 51
270.462727
  0
ARC
  8
APS_GEOMETR�
 10
2810.765617
 20
-368.367011
 40
17.222642
 50
219.049596
 51
243.723868
  0
ARC
  8
APS_GEOMETR�
 10
2813.156064
 20
-366.327203
 40
20.364279
 50
197.252556
 51
219.269479
  0
ARC
  8
APS_GEOMETR�
 10
2774.260018
 20
-366.327203
 40
20.364279
 50
320.730521
 51
342.747444
  0
ARC
  8
APS_GEOMETR�
 10
2776.650465
 20
-368.367011
 40
17.222642
 50
296.276132
 51
320.950404
  0
ARC
  8
APS_GEOMETR�
 10
2777.532544
 20
-370.160539
 40
15.223943
 50
269.537273
 51
296.287633
  0
ARC
  8
APS_GEOMETR�
 10
2777.582778
 20
-370.119065
 40
15.265902
 50
242.645506
 51
269.349999
  0
ARC
  8
APS_GEOMETR�
 10
2778.529611
 20
-368.272589
 40
17.340973
 50
218.109448
 51
242.670243
  0
ARC
  8
APS_GEOMETR�
 10
2780.955848
 20
-366.268699
 40
20.486902
 50
196.404653
 51
218.331331
  0
ARC
  8
APS_GEOMETR�
 10
2730.487318
 20
-345.713003
 40
40.539889
 50
294.760445
 51
319.475754
  0
ARC
  8
APS_GEOMETR�
 10
2725.100118
 20
-334.872384
 40
52.641365
 50
274.440955
 51
295.143148
  0
ARC
  8
APS_GEOMETR�
 10
2727.745458
 20
-335.910631
 40
51.464962
 50
253.315438
 51
271.593078
  0
ARC
  8
APS_GEOMETR�
 10
2725.221719
 20
-343.632906
 40
43.343688
 50
233.049993
 51
253.580354
  0
ARC
  8
APS_GEOMETR�
 10
2779.180654
 20
-266.015095
 40
137.853794
 50
230.956159
 51
234.519654
  0
ARC
  8
APS_GEOMETR�
 10
2669.213069
 20
-317.06697
 40
60.602453
 50
275.077876
 51
292.438488
  0
ARC
  8
APS_GEOMETR�
 10
2668.509332
 20
-312.729584
 40
64.985876
 50
257.180256
 51
275.357431
  0
ARC
  8
APS_GEOMETR�
 10
2666.048503
 20
-322.279196
 40
55.129002
 50
237.172174
 51
257.471861
  0
ARC
  8
APS_GEOMETR�
 10
2657.265363
 20
-335.53981
 40
39.225048
 50
211.934669
 51
237.4522
  0
ARC
  8
APS_GEOMETR�
 10
2648.304307
 20
-341.237787
 40
28.606435
 50
180.1919
 51
211.743131
  0
ARC
  8
APS_GEOMETR�
 10
2608.089647
 20
-162.273
 40
179.436485
 50
250.203627
 51
273.709258
  0
ARC
  8
APS_GEOMETR�
 10
2590.727077
 20
-206.23219
 40
132.202795
 50
238.342415
 51
250.83139
  0
ARC
  8
APS_GEOMETR�
 10
2442.416745
 20
-446.765178
 40
150.378296
 50
58.342415
 51
79.510208
  0
LINE
  8
APS_GEOMETR�
 10
2469.79467
 11
2343.708041
 20
-298.900101
 21
-298.900101
  0
LINE
  8
APS_GEOMETR�
 10
5917.331779
 11
5917.331779
 20
2212.912858
 21
2558.48351
  0
ARC
  8
APS_GEOMETR�
 10
4214.456613
 20
2385.698184
 40
1711.618707
 50
5.793791
 51
30.970107
  0
ARC
  8
APS_GEOMETR�
 10
5968.818976
 20
3438.580085
 40
334.43789
 50
194.716815
 51
210.970107
  0
ARC
  8
APS_GEOMETR�
 10
5762.623323
 20
3384.420985
 40
121.248172
 50
173.969811
 51
194.716815
  0
ARC
  8
APS_GEOMETR�
 10
5759.678582
 20
3384.966279
 40
118.262671
 50
152.985487
 51
174.082658
  0
ARC
  8
APS_GEOMETR�
 10
5750.041338
 20
3390.05398
 40
107.366128
 50
130.55645
 51
153.068308
  0
ARC
  8
APS_GEOMETR�
 10
5742.368908
 20
3399.001311
 40
95.579663
 50
106.209861
 51
130.549424
  0
ARC
  8
APS_GEOMETR�
 10
5776.091831
 20
3280.867222
 40
218.432189
 50
90.603393
 51
106.053634
  0
ARC
  8
APS_GEOMETR�
 10
5770.288071
 20
3693.337156
 40
194.08148
 50
271.034327
 51
293.880135
  0
ARC
  8
APS_GEOMETR�
 10
5769.607329
 20
3694.824714
 40
195.717278
 50
293.886068
 51
316.604818
  0
ARC
  8
APS_GEOMETR�
 10
6018.554206
 20
3457.973629
 40
147.902426
 50
112.061983
 51
136.190074
  0
ARC
  8
APS_GEOMETR�
 10
6013.978771
 20
3468.574991
 40
136.358985
 50
86.47352
 51
111.95339
  0
ARC
  8
APS_GEOMETR�
 10
6013.452015
 20
3466.600203
 40
138.363025
 50
61.074229
 51
86.306104
  0
ARC
  8
APS_GEOMETR�
 10
6134.011875
 20
3684.621487
 40
110.771408
 50
241.039067
 51
269.79729
  0
ARC
  8
APS_GEOMETR�
 10
6133.53791
 20
3684.582039
 40
110.731298
 50
270.042461
 51
298.807679
  0
ARC
  8
APS_GEOMETR�
 10
6127.060929
 20
3695.881744
 40
123.75386
 50
298.914351
 51
325.607575
  0
ARC
  8
APS_GEOMETR�
 10
6301.74939
 20
3577.01679
 40
87.54078
 50
105.028399
 51
145.99256
  0
ARC
  8
APS_GEOMETR�
 10
6310.513402
 20
3539.554895
 40
126.000066
 50
73.659598
 51
104.460195
  0
ARC
  8
APS_GEOMETR�
 10
6377.335926
 20
3768.314109
 40
112.319238
 50
253.780257
 51
278.391379
  0
ARC
  8
APS_GEOMETR�
 10
6377.251709
 20
3768.693424
 40
112.706785
 50
278.405593
 51
302.960882
  0
ARC
  8
APS_GEOMETR�
 10
6064.778075
 20
4259.936785
 40
694.905728
 50
302.541169
 51
305.529717
  0
ARC
  8
APS_GEOMETR�
 10
6514.876017
 20
3630.120802
 40
79.211246
 50
99.893741
 51
125.74253
  0
ARC
  8
APS_GEOMETR�
 10
6514.110332
 20
3633.164629
 40
76.081477
 50
73.162236
 51
99.719551
  0
ARC
  8
APS_GEOMETR�
 10
6649.117265
 20
4080.71443
 40
391.38802
 50
253.223642
 51
258.36189
  0
ARC
  8
APS_GEOMETR�
 10
6655.804023
 20
4112.552293
 40
423.920273
 50
258.344772
 51
271.558249
  0
ARC
  8
APS_GEOMETR�
 10
6678.859534
 20
4112.552293
 40
423.920273
 50
268.441751
 51
281.655228
  0
ARC
  8
APS_GEOMETR�
 10
6685.546293
 20
4080.71443
 40
391.38802
 50
281.63811
 51
286.776358
  0
ARC
  8
APS_GEOMETR�
 10
6820.553225
 20
3633.164629
 40
76.081477
 50
80.280449
 51
106.837764
  0
ARC
  8
APS_GEOMETR�
 10
6819.787541
 20
3630.120802
 40
79.211246
 50
54.25747
 51
80.106259
  0
ARC
  8
APS_GEOMETR�
 10
7269.885483
 20
4259.936785
 40
694.905728
 50
234.470283
 51
237.458831
  0
ARC
  8
APS_GEOMETR�
 10
6957.411848
 20
3768.693424
 40
112.706785
 50
237.039118
 51
261.594407
  0
ARC
  8
APS_GEOMETR�
 10
6957.327631
 20
3768.314109
 40
112.319238
 50
261.608621
 51
286.219743
  0
ARC
  8
APS_GEOMETR�
 10
7024.150156
 20
3539.554895
 40
126.000066
 50
75.539805
 51
106.340402
  0
ARC
  8
APS_GEOMETR�
 10
7032.914167
 20
3577.01679
 40
87.54078
 50
34.00744
 51
74.971601
  0
ARC
  8
APS_GEOMETR�
 10
7207.602628
 20
3695.881744
 40
123.75386
 50
214.392425
 51
241.085649
  0
ARC
  8
APS_GEOMETR�
 10
7201.125647
 20
3684.582039
 40
110.731298
 50
241.192321
 51
269.957539
  0
ARC
  8
APS_GEOMETR�
 10
7200.651682
 20
3684.621487
 40
110.771408
 50
270.20271
 51
298.960933
  0
ARC
  8
APS_GEOMETR�
 10
7321.211543
 20
3466.600203
 40
138.363025
 50
93.693896
 51
118.925771
  0
ARC
  8
APS_GEOMETR�
 10
7320.684786
 20
3468.574991
 40
136.358985
 50
68.04661
 51
93.52648
  0
ARC
  8
APS_GEOMETR�
 10
7316.109351
 20
3457.973629
 40
147.902426
 50
43.809926
 51
67.938017
  0
ARC
  8
APS_GEOMETR�
 10
7565.056228
 20
3694.824714
 40
195.717278
 50
223.395182
 51
246.113932
  0
ARC
  8
APS_GEOMETR�
 10
7564.375486
 20
3693.337156
 40
194.08148
 50
246.119865
 51
268.965673
  0
ARC
  8
APS_GEOMETR�
 10
7558.571727
 20
3280.867222
 40
218.432189
 50
73.946366
 51
89.396607
  0
ARC
  8
APS_GEOMETR�
 10
7592.294649
 20
3399.001311
 40
95.579663
 50
49.450576
 51
73.790139
  0
ARC
  8
APS_GEOMETR�
 10
7584.62222
 20
3390.05398
 40
107.366128
 50
26.931692
 51
49.44355
  0
ARC
  8
APS_GEOMETR�
 10
7574.984975
 20
3384.966279
 40
118.262671
 50
5.917342
 51
27.014513
  0
ARC
  8
APS_GEOMETR�
 10
7572.040235
 20
3384.420985
 40
121.248172
 50
345.283185
 51
6.030189
  0
ARC
  8
APS_GEOMETR�
 10
7365.844581
 20
3438.580085
 40
334.43789
 50
329.029893
 51
345.283185
  0
ARC
  8
APS_GEOMETR�
 10
9120.206944
 20
2385.698184
 40
1711.618707
 50
149.029893
 51
174.206209
  0
LINE
  8
APS_GEOMETR�
 10
7417.331779
 11
7417.331779
 20
2558.48351
 21
2212.912858
  0
LINE
  8
APS_GEOMETR�
 10
7417.331779
 11
7317.331779
 20
2212.912858
 21
2212.912858
  0
LINE
  8
APS_GEOMETR�
 10
7317.331779
 11
7317.331779
 20
2212.912858
 21
2550.468755
  0
ARC
  8
APS_GEOMETR�
 10
9120.206944
 20
2372.695087
 40
1811.618707
 50
149.029893
 51
174.368517
  0
ARC
  8
APS_GEOMETR�
 10
7365.844581
 20
3425.576988
 40
234.43789
 50
329.029893
 51
345.283185
  0
ARC
  8
APS_GEOMETR�
 10
7572.040235
 20
3371.417887
 40
21.248172
 50
345.283185
 51
6.304131
  0
ARC
  8
APS_GEOMETR�
 10
7574.984975
 20
3371.963181
 40
18.262671
 50
5.61815
 51
27.286635
  0
ARC
  8
APS_GEOMETR�
 10
7584.62222
 20
3377.050883
 40
7.366128
 50
26.481999
 51
42.615233
  0
ARC
  8
APS_GEOMETR�
 10
7558.571727
 20
3267.864125
 40
118.432189
 50
74.589482
 51
89.532799
  0
ARC
  8
APS_GEOMETR�
 10
7564.375486
 20
3680.334058
 40
294.08148
 50
246.118856
 51
269.057362
  0
ARC
  8
APS_GEOMETR�
 10
7565.056228
 20
3681.821617
 40
295.717278
 50
223.491048
 51
246.114935
  0
ARC
  8
APS_GEOMETR�
 10
7316.109351
 20
3444.970532
 40
47.902426
 50
44.083928
 51
67.819163
  0
ARC
  8
APS_GEOMETR�
 10
7320.684786
 20
3455.571894
 40
36.358985
 50
68.18869
 51
93.298501
  0
ARC
  8
APS_GEOMETR�
 10
7321.211543
 20
3453.597106
 40
38.363025
 50
93.914228
 51
118.900449
  0
ARC
  8
APS_GEOMETR�
 10
7200.651682
 20
3671.61839
 40
210.771408
 50
270.144552
 51
298.948859
  0
ARC
  8
APS_GEOMETR�
 10
7201.125647
 20
3671.578942
 40
210.731298
 50
241.166687
 51
270.015713
  0
ARC
  8
APS_GEOMETR�
 10
7207.602628
 20
3682.878647
 40
223.75386
 50
215.639134
 51
241.109181
  0
ARC
  8
APS_GEOMETR�
 10
7024.150156
 20
3526.551798
 40
26.000066
 50
86.456329
 51
106.455652
  0
ARC
  8
APS_GEOMETR�
 10
6957.327631
 20
3755.311012
 40
212.319238
 50
261.605273
 51
286.262459
  0
ARC
  8
APS_GEOMETR�
 10
6957.411848
 20
3755.690326
 40
212.706785
 50
237.150063
 51
261.597747
  0
ARC
  8
APS_GEOMETR�
 10
7269.885483
 20
4246.933688
 40
794.905728
 50
235.216289
 51
237.435718
  0
ARC
  8
APS_GEOMETR�
 10
6685.546293
 20
4067.711333
 40
491.38802
 50
281.639858
 51
285.444778
  0
ARC
  8
APS_GEOMETR�
 10
6711.219001
 20
3943.08387
 40
364.143797
 50
270.005793
 51
281.639858
  0
ARC
  8
APS_GEOMETR�
 10
6711.247184
 20
3664.345514
 40
85.405439
 50
239.056059
 51
270.005793
  0
ARC
  8
APS_GEOMETR�
 10
6623.416373
 20
3664.345514
 40
85.405439
 50
269.994207
 51
300.943941
  0
ARC
  8
APS_GEOMETR�
 10
6623.444556
 20
3943.08387
 40
364.143797
 50
258.360142
 51
269.994207
  0
ARC
  8
APS_GEOMETR�
 10
6649.117265
 20
4067.711333
 40
491.38802
 50
254.555222
 51
258.360142
  0
ARC
  8
APS_GEOMETR�
 10
6064.778075
 20
4246.933688
 40
794.905728
 50
302.564282
 51
304.783711
  0
ARC
  8
APS_GEOMETR�
 10
6377.251709
 20
3755.690326
 40
212.706785
 50
278.402253
 51
302.849937
  0
ARC
  8
APS_GEOMETR�
 10
6377.335926
 20
3755.311012
 40
212.319238
 50
253.737541
 51
278.394727
  0
ARC
  8
APS_GEOMETR�
 10
6310.513402
 20
3526.551798
 40
26.000066
 50
73.544348
 51
93.543671
  0
ARC
  8
APS_GEOMETR�
 10
6127.060929
 20
3682.878647
 40
223.75386
 50
298.890819
 51
324.360866
  0
ARC
  8
APS_GEOMETR�
 10
6133.53791
 20
3671.578942
 40
210.731298
 50
269.984287
 51
298.833313
  0
ARC
  8
APS_GEOMETR�
 10
6134.011875
 20
3671.61839
 40
210.771408
 50
241.051141
 51
269.855448
  0
ARC
  8
APS_GEOMETR�
 10
6013.452015
 20
3453.597106
 40
38.363025
 50
61.099551
 51
86.085772
  0
ARC
  8
APS_GEOMETR�
 10
6013.978771
 20
3455.571894
 40
36.358985
 50
86.701499
 51
111.81131
  0
ARC
  8
APS_GEOMETR�
 10
6018.554206
 20
3444.970532
 40
47.902426
 50
112.180837
 51
135.916072
  0
ARC
  8
APS_GEOMETR�
 10
5769.607329
 20
3681.821617
 40
295.717278
 50
293.885065
 51
316.508952
  0
ARC
  8
APS_GEOMETR�
 10
5770.288071
 20
3680.334058
 40
294.08148
 50
270.942638
 51
293.881144
  0
ARC
  8
APS_GEOMETR�
 10
5776.091831
 20
3267.864125
 40
118.432189
 50
90.467201
 51
105.410518
  0
ARC
  8
APS_GEOMETR�
 10
5750.041338
 20
3377.050883
 40
7.366128
 50
137.384767
 51
153.518001
  0
ARC
  8
APS_GEOMETR�
 10
5759.678582
 20
3371.963181
 40
18.262671
 50
152.713365
 51
174.38185
  0
ARC
  8
APS_GEOMETR�
 10
5762.623323
 20
3371.417887
 40
21.248172
 50
173.695869
 51
194.716815
  0
ARC
  8
APS_GEOMETR�
 10
5968.818976
 20
3425.576988
 40
234.43789
 50
194.716815
 51
210.970107
  0
ARC
  8
APS_GEOMETR�
 10
4214.456613
 20
2372.695087
 40
1811.618707
 50
5.631483
 51
30.970107
  0
LINE
  8
APS_GEOMETR�
 10
6017.331779
 11
6017.331779
 20
2550.468755
 21
2212.912858
  0
LINE
  8
APS_GEOMETR�
 10
6017.331779
 11
5917.331779
 20
2212.912858
 21
2212.912858
  0
LINE
  8
APS_GEOMETR�
 10
7357.887778
 11
5976.77578
 20
2812.912858
 21
2812.912858
  0
ARC
  8
APS_GEOMETR�
 10
3981.280244
 20
418.998529
 40
785.784295
 50
26.693633
 51
30.032187
  0
ARC
  8
APS_GEOMETR�
 10
4600.737615
 20
730.466881
 40
92.43015
 50
357.342611
 51
26.693633
  0
ARC
  8
APS_GEOMETR�
 10
4673.728258
 20
727.079132
 40
19.360931
 50
190.845112
 51
357.342611
  0
ARC
  8
APS_GEOMETR�
 10
4670.553956
 20
726.471011
 40
16.128903
 50
66.650491
 51
190.845112
  0
ARC
  8
APS_GEOMETR�
 10
4590.138403
 20
725.885427
 40
88.162369
 50
10.055678
 51
45.390636
  0
ARC
  8
APS_GEOMETR�
 10
4867.843213
 20
1004.452475
 40
305.183284
 50
213.756846
 51
225.001618
  0
ARC
  8
APS_GEOMETR�
 10
4696.181226
 20
892.5439
 40
100.306206
 50
195.414939
 51
215.097135
  0
ARC
  8
APS_GEOMETR�
 10
4717.672918
 20
899.063456
 40
122.75904
 50
178.492634
 51
195.682084
  0
ARC
  8
APS_GEOMETR�
 10
4719.241617
 20
893.296751
 40
124.610402
 50
156.29925
 51
175.860072
  0
ARC
  8
APS_GEOMETR�
 10
4688.991417
 20
907.209516
 40
91.321055
 50
132.562221
 51
156.663127
  0
ARC
  8
APS_GEOMETR�
 10
4640.033598
 20
1014.955048
 40
42.462247
 50
229.80631
 51
252.440245
  0
ARC
  8
APS_GEOMETR�
 10
4637.609206
 20
1012.158675
 40
38.76158
 50
205.8015
 51
229.876092
  0
ARC
  8
APS_GEOMETR�
 10
4635.296439
 20
1011.020573
 40
36.184019
 50
180.574052
 51
205.772999
  0
ARC
  8
APS_GEOMETR�
 10
4635.2425
 20
1010.95299
 40
36.129468
 50
155.24427
 51
180.467738
  0
ARC
  8
APS_GEOMETR�
 10
4637.493461
 20
1009.890065
 40
38.618675
 50
131.076158
 51
155.210663
  0
ARC
  8
APS_GEOMETR�
 10
4639.963576
 20
1007.131902
 40
42.320928
 50
108.45839
 51
131.143553
  0
ARC
  8
APS_GEOMETR�
 10
4639.963576
 20
1087.419259
 40
42.320928
 50
228.856447
 51
251.54161
  0
ARC
  8
APS_GEOMETR�
 10
4637.493461
 20
1084.661096
 40
38.618675
 50
204.789337
 51
228.923842
  0
ARC
  8
APS_GEOMETR�
 10
4635.2425
 20
1083.598171
 40
36.129468
 50
179.532262
 51
204.75573
  0
ARC
  8
APS_GEOMETR�
 10
4635.296439
 20
1083.530588
 40
36.184019
 50
154.227001
 51
179.425948
  0
ARC
  8
APS_GEOMETR�
 10
4637.609206
 20
1082.392486
 40
38.76158
 50
130.123908
 51
154.1985
  0
ARC
  8
APS_GEOMETR�
 10
4640.033598
 20
1079.596113
 40
42.462247
 50
107.559755
 51
130.19369
  0
ARC
  8
APS_GEOMETR�
 10
4688.991417
 20
1187.341645
 40
91.321055
 50
203.336873
 51
227.437779
  0
ARC
  8
APS_GEOMETR�
 10
4719.241617
 20
1201.25441
 40
124.610402
 50
184.139928
 51
203.70075
  0
ARC
  8
APS_GEOMETR�
 10
4717.672918
 20
1195.487706
 40
122.75904
 50
164.317916
 51
181.507366
  0
ARC
  8
APS_GEOMETR�
 10
4696.181226
 20
1202.007262
 40
100.306206
 50
144.902865
 51
164.585061
  0
ARC
  8
APS_GEOMETR�
 10
4867.843213
 20
1090.098686
 40
305.183284
 50
134.998382
 51
146.243154
  0
ARC
  8
APS_GEOMETR�
 10
4590.138403
 20
1368.665734
 40
88.162369
 50
314.609364
 51
349.944322
  0
ARC
  8
APS_GEOMETR�
 10
4670.553956
 20
1368.08015
 40
16.128903
 50
169.154888
 51
293.349509
  0
ARC
  8
APS_GEOMETR�
 10
4673.728258
 20
1367.472029
 40
19.360931
 50
2.657389
 51
169.154888
  0
ARC
  8
APS_GEOMETR�
 10
4600.737615
 20
1364.08428
 40
92.43015
 50
333.306367
 51
2.657389
  0
ARC
  8
APS_GEOMETR�
 10
3981.280244
 20
1675.552632
 40
785.784295
 50
329.96783
 51
333.306367
  0
ARC
  8
APS_GEOMETR�
 10
4671.537843
 20
1281.63186
 40
9.990089
 50
176.288963
 51
200.446515
  0
ARC
  8
APS_GEOMETR�
 10
4672.084408
 20
1281.846723
 40
10.577283
 50
200.502818
 51
225.13385
  0
ARC
  8
APS_GEOMETR�
 10
4672.818497
 20
1282.567543
 40
11.60604
 50
225.075665
 51
248.209466
  0
ARC
  8
APS_GEOMETR�
 10
4673.129484
 20
1283.288123
 40
12.390594
 50
248.111082
 51
270.240828
  0
ARC
  8
APS_GEOMETR�
 10
4673.151933
 20
1283.280428
 40
12.382824
 50
270.137104
 51
292.276265
  0
ARC
  8
APS_GEOMETR�
 10
4688.495034
 20
1245.810111
 40
28.107117
 50
87.791607
 51
112.264068
  0
ARC
  8
APS_GEOMETR�
 10
4688.572227
 20
1246.026625
 40
27.887874
 50
63.329666
 51
87.93294
  0
ARC
  8
APS_GEOMETR�
 10
4689.625971
 20
1247.99656
 40
25.654617
 50
37.415891
 51
63.457888
  0
ARC
  8
APS_GEOMETR�
 10
4691.511716
 20
1249.421464
 40
23.29111
 50
9.657413
 51
37.450447
  0
ARC
  8
APS_GEOMETR�
 10
4692.183233
 20
1249.586584
 40
22.601465
 50
341.193134
 51
9.530333
  0
ARC
  8
APS_GEOMETR�
 10
4698.561691
 20
1247.43233
 40
15.869071
 50
316.143722
 51
341.131605
  0
ARC
  8
APS_GEOMETR�
 10
4697.428536
 20
1248.497733
 40
17.424341
 50
292.740407
 51
316.199187
  0
ARC
  8
APS_GEOMETR�
 10
4696.921722
 20
1249.621794
 40
18.656965
 50
270.445928
 51
292.841455
  0
ARC
  8
APS_GEOMETR�
 10
4696.886494
 20
1249.652785
 40
18.688262
 50
248.183115
 51
270.553191
  0
ARC
  8
APS_GEOMETR�
 10
4696.414429
 20
1248.557158
 40
17.495697
 50
224.891055
 51
248.284878
  0
ARC
  8
APS_GEOMETR�
 10
4695.293645
 20
1247.463903
 40
15.93011
 50
200.026587
 51
224.950359
  0
ARC
  8
APS_GEOMETR�
 10
4684.572984
 20
1243.552133
 40
4.518078
 50
168.762912
 51
199.977332
  0
ARC
  8
APS_GEOMETR�
 10
4678.615539
 20
1244.370341
 40
1.52725
 50
2.33513
 51
28.680978
  0
ARC
  8
APS_GEOMETR�
 10
4678.507522
 20
1244.310682
 40
1.650646
 50
28.698283
 51
53.715797
  0
ARC
  8
APS_GEOMETR�
 10
4678.410343
 20
1244.183094
 40
1.811006
 50
53.626261
 51
77.118758
  0
ARC
  8
APS_GEOMETR�
 10
4678.38895
 20
1244.106453
 40
1.890491
 50
77.004523
 51
99.821588
  0
ARC
  8
APS_GEOMETR�
 10
4678.374888
 20
1244.166153
 40
1.829271
 50
99.706568
 51
123.039468
  0
ARC
  8
APS_GEOMETR�
 10
4722.997694
 20
1175.331032
 40
83.862608
 50
122.955455
 51
147.115165
  0
ARC
  8
APS_GEOMETR�
 10
4717.359794
 20
1178.965247
 40
77.154901
 50
147.108312
 51
172.654419
  0
ARC
  8
APS_GEOMETR�
 10
4715.757523
 20
1179.311899
 40
75.521586
 50
172.759836
 51
198.661564
  0
ARC
  8
APS_GEOMETR�
 10
4700.781209
 20
1174.483541
 40
59.78808
 50
198.87007
 51
235.02688
  0
ARC
  8
APS_GEOMETR�
 10
4639.7667
 20
1087.582103
 40
46.394191
 50
27.589878
 51
54.797968
  0
ARC
  8
APS_GEOMETR�
 10
4642.949572
 20
1089.273857
 40
42.789747
 50
358.845814
 51
27.55605
  0
ARC
  8
APS_GEOMETR�
 10
4642.783554
 20
1089.387791
 40
42.958168
 50
330.060254
 51
358.698343
  0
ARC
  8
APS_GEOMETR�
 10
4639.44789
 20
1091.324632
 40
46.815349
 50
303.001717
 51
330.043636
  0
ARC
  8
APS_GEOMETR�
 10
4641.414459
 20
1087.993406
 40
42.9508
 50
288.556395
 51
303.221996
  0
ARC
  8
APS_GEOMETR�
 10
4641.414459
 20
1006.557755
 40
42.9508
 50
56.778004
 51
71.443605
  0
ARC
  8
APS_GEOMETR�
 10
4639.44789
 20
1003.226529
 40
46.815349
 50
29.956364
 51
56.998283
  0
ARC
  8
APS_GEOMETR�
 10
4642.783554
 20
1005.16337
 40
42.958168
 50
1.301657
 51
29.939746
  0
ARC
  8
APS_GEOMETR�
 10
4642.949572
 20
1005.277305
 40
42.789747
 50
332.44395
 51
1.154186
  0
ARC
  8
APS_GEOMETR�
 10
4639.7667
 20
1006.969058
 40
46.394191
 50
305.202032
 51
332.410122
  0
ARC
  8
APS_GEOMETR�
 10
4700.781209
 20
920.06762
 40
59.78808
 50
124.97312
 51
161.12993
  0
ARC
  8
APS_GEOMETR�
 10
4715.757523
 20
915.239262
 40
75.521586
 50
161.338436
 51
187.240164
  0
ARC
  8
APS_GEOMETR�
 10
4717.359794
 20
915.585914
 40
77.154901
 50
187.345581
 51
212.891688
  0
ARC
  8
APS_GEOMETR�
 10
4722.997694
 20
919.220129
 40
83.862608
 50
212.884835
 51
237.044545
  0
ARC
  8
APS_GEOMETR�
 10
4678.374888
 20
850.385008
 40
1.829271
 50
236.960532
 51
260.293432
  0
ARC
  8
APS_GEOMETR�
 10
4678.38895
 20
850.444708
 40
1.890491
 50
260.178412
 51
282.995477
  0
ARC
  8
APS_GEOMETR�
 10
4678.410343
 20
850.368067
 40
1.811006
 50
282.881242
 51
306.373739
  0
ARC
  8
APS_GEOMETR�
 10
4678.507522
 20
850.240479
 40
1.650646
 50
306.284203
 51
331.301717
  0
ARC
  8
APS_GEOMETR�
 10
4678.615539
 20
850.18082
 40
1.52725
 50
331.319022
 51
357.66487
  0
ARC
  8
APS_GEOMETR�
 10
4684.572984
 20
850.999028
 40
4.518078
 50
160.022668
 51
191.237088
  0
ARC
  8
APS_GEOMETR�
 10
4695.293645
 20
847.087258
 40
15.93011
 50
135.049641
 51
159.973413
  0
ARC
  8
APS_GEOMETR�
 10
4696.414429
 20
845.994003
 40
17.495697
 50
111.715122
 51
135.108945
  0
ARC
  8
APS_GEOMETR�
 10
4696.886494
 20
844.898376
 40
18.688262
 50
89.446809
 51
111.816885
  0
ARC
  8
APS_GEOMETR�
 10
4696.921722
 20
844.929367
 40
18.656965
 50
67.158545
 51
89.554072
  0
ARC
  8
APS_GEOMETR�
 10
4697.428536
 20
846.053428
 40
17.424341
 50
43.800813
 51
67.259593
  0
ARC
  8
APS_GEOMETR�
 10
4698.561691
 20
847.118831
 40
15.869071
 50
18.868395
 51
43.856278
  0
ARC
  8
APS_GEOMETR�
 10
4692.183233
 20
844.964577
 40
22.601465
 50
350.469667
 51
18.806866
  0
ARC
  8
APS_GEOMETR�
 10
4691.511716
 20
845.129697
 40
23.29111
 50
322.549553
 51
350.342587
  0
ARC
  8
APS_GEOMETR�
 10
4689.625971
 20
846.554601
 40
25.654617
 50
296.542112
 51
322.584109
  0
ARC
  8
APS_GEOMETR�
 10
4688.572227
 20
848.524536
 40
27.887874
 50
272.06706
 51
296.670334
  0
ARC
  8
APS_GEOMETR�
 10
4688.495034
 20
848.74105
 40
28.107117
 50
247.735932
 51
272.208393
  0
ARC
  8
APS_GEOMETR�
 10
4673.151933
 20
811.270734
 40
12.382824
 50
67.723735
 51
89.862896
  0
ARC
  8
APS_GEOMETR�
 10
4673.129484
 20
811.263038
 40
12.390594
 50
89.759172
 51
111.888918
  0
ARC
  8
APS_GEOMETR�
 10
4672.818497
 20
811.983618
 40
11.60604
 50
111.790534
 51
134.924335
  0
ARC
  8
APS_GEOMETR�
 10
4672.084408
 20
812.704438
 40
10.577283
 50
134.86615
 51
159.497182
  0
ARC
  8
APS_GEOMETR�
 10
4671.537843
 20
812.919301
 40
9.990089
 50
159.553485
 51
183.711037
  0
ARC
  8
APS_GEOMETR�
 10
4442.883804
 20
3993.664508
 40
11.577749
 50
258.512348
 51
279.824165
  0
ARC
  8
APS_GEOMETR�
 10
4442.982938
 20
3993.242863
 40
11.145401
 50
279.691858
 51
301.575363
  0
ARC
  8
APS_GEOMETR�
 10
4443.524603
 20
3992.404818
 40
10.147826
 50
301.447446
 51
324.75604
  0
ARC
  8
APS_GEOMETR�
 10
4444.27822
 20
3991.874981
 40
9.226598
 50
324.74261
 51
349.570587
  0
ARC
  8
APS_GEOMETR�
 10
4444.588712
 20
3991.798425
 40
8.907398
 50
349.693348
 51
15.106937
  0
ARC
  8
APS_GEOMETR�
 10
4436.8147
 20
3989.661667
 40
16.969674
 50
15.231324
 51
41.287851
  0
ARC
  8
APS_GEOMETR�
 10
4435.373448
 20
3988.42264
 40
18.870209
 50
41.227157
 51
65.509185
  0
ARC
  8
APS_GEOMETR�
 10
4434.61469
 20
3986.897788
 40
20.572491
 50
65.346628
 51
88.241959
  0
ARC
  8
APS_GEOMETR�
 10
4434.552841
 20
3986.736402
 40
20.735776
 50
88.084823
 51
110.853271
  0
ARC
  8
APS_GEOMETR�
 10
4433.954672
 20
3988.152277
 40
19.199793
 50
110.689233
 51
134.691004
  0
ARC
  8
APS_GEOMETR�
 10
4432.556176
 20
3989.527982
 40
17.238273
 50
134.602278
 51
160.389236
  0
ARC
  8
APS_GEOMETR�
 10
4431.525738
 20
3989.924772
 40
16.134456
 50
160.48842
 51
187.429751
  0
ARC
  8
APS_GEOMETR�
 10
4431.958405
 20
3990.026212
 40
16.576668
 50
187.584043
 51
214.047792
  0
ARC
  8
APS_GEOMETR�
 10
4442.912804
 20
3997.452646
 40
29.811113
 50
214.086484
 51
242.182081
  0
ARC
  8
APS_GEOMETR�
 10
4444.57449
 20
4000.323835
 40
33.126196
 50
241.95762
 51
268.108665
  0
ARC
  8
APS_GEOMETR�
 10
4444.726027
 20
4000.649515
 40
33.456996
 50
267.867704
 51
293.834989
  0
ARC
  8
APS_GEOMETR�
 10
4446.073803
 20
3997.904378
 40
30.401592
 50
293.602221
 51
321.332472
  0
ARC
  8
APS_GEOMETR�
 10
4540.326326
 20
3922.890208
 40
90.058767
 50
133.599473
 51
141.535478
  0
ARC
  8
APS_GEOMETR�
 10
4545.299965
 20
3917.214513
 40
97.599367
 50
105.375577
 51
133.416177
  0
ARC
  8
APS_GEOMETR�
 10
4547.706774
 20
3910.282812
 40
104.922236
 50
78.982028
 51
105.639203
  0
ARC
  8
APS_GEOMETR�
 10
4535.235709
 20
3871.216899
 40
145.729741
 50
59.002914
 51
77.104317
  0
ARC
  8
APS_GEOMETR�
 10
4567.367736
 20
3923.197874
 40
84.627706
 50
33.451584
 51
59.526572
  0
ARC
  8
APS_GEOMETR�
 10
4637.322332
 20
3958.091446
 40
11.774155
 50
86.812467
 51
107.402428
  0
ARC
  8
APS_GEOMETR�
 10
4637.076234
 20
3958.78292
 40
11.040763
 50
107.256988
 51
130.04792
  0
ARC
  8
APS_GEOMETR�
 10
4636.364812
 20
3959.601154
 40
9.956667
 50
129.943623
 51
154.362664
  0
ARC
  8
APS_GEOMETR�
 10
4635.683213
 20
3959.937499
 40
9.196648
 50
154.414516
 51
180.152437
  0
ARC
  8
APS_GEOMETR�
 10
4635.690447
 20
3959.961155
 40
9.203975
 50
180.299575
 51
206.023933
  0
ARC
  8
APS_GEOMETR�
 10
4608.715375
 20
3946.782574
 40
20.818176
 50
357.533716
 51
26.043739
  0
ARC
  8
APS_GEOMETR�
 10
4608.514012
 20
3946.862336
 40
21.022904
 50
329.013865
 51
357.340149
  0
ARC
  8
APS_GEOMETR�
 10
4606.657942
 20
3947.986936
 40
23.193078
 50
302.450144
 51
328.992746
  0
ARC
  8
APS_GEOMETR�
 10
4605.193649
 20
3950.143714
 40
25.798902
 50
277.91895
 51
302.624268
  0
ARC
  8
APS_GEOMETR�
 10
4604.974219
 20
3951.066948
 40
26.743715
 50
254.023446
 51
278.112071
  0
ARC
  8
APS_GEOMETR�
 10
4602.179215
 20
3941.458113
 40
16.736773
 50
231.207654
 51
254.168153
  0
ARC
  8
APS_GEOMETR�
 10
4601.122596
 20
3940.191266
 40
15.087422
 50
206.712145
 51
231.321098
  0
ARC
  8
APS_GEOMETR�
 10
4600.059549
 20
3939.643785
 40
13.891735
 50
180.673477
 51
206.665938
  0
ARC
  8
APS_GEOMETR�
 10
4600.030448
 20
3939.606742
 40
13.862249
 50
154.492757
 51
180.521792
  0
ARC
  8
APS_GEOMETR�
 10
4601.06581
 20
3939.097049
 40
15.016189
 50
129.752383
 51
154.438727
  0
ARC
  8
APS_GEOMETR�
 10
4602.1456
 20
3937.848156
 40
16.666881
 50
106.835164
 51
129.860767
  0
ARC
  8
APS_GEOMETR�
 10
4598.878274
 20
3948.69056
 40
5.342896
 50
80.436084
 51
106.973231
  0
ARC
  8
APS_GEOMETR�
 10
4599.710064
 20
3955.716995
 40
1.758689
 50
271.82213
 51
294.637224
  0
ARC
  8
APS_GEOMETR�
 10
4599.774628
 20
3955.587091
 40
1.613702
 50
294.476239
 51
318.667528
  0
ARC
  8
APS_GEOMETR�
 10
4599.897408
 20
3955.481157
 40
1.451547
 50
318.606653
 51
344.561518
  0
ARC
  8
APS_GEOMETR�
 10
4599.969338
 20
3955.458257
 40
1.376119
 50
344.683332
 51
11.570985
  0
ARC
  8
APS_GEOMETR�
 10
4599.913359
 20
3955.443247
 40
1.433976
 50
11.709898
 51
37.874858
  0
ARC
  8
APS_GEOMETR�
 10
4538.289038
 20
3907.588079
 40
79.457523
 50
37.832372
 51
61.690703
  0
ARC
  8
APS_GEOMETR�
 10
4534.478867
 20
3900.982464
 40
87.080293
 50
61.544707
 51
83.97018
  0
ARC
  8
APS_GEOMETR�
 10
4534.022223
 20
3898.800632
 40
89.298306
 50
83.825863
 51
105.860076
  0
ARC
  8
APS_GEOMETR�
 10
4525.632879
 20
3926.53663
 40
60.327438
 50
105.394662
 51
139.621032
  0
ARC
  8
APS_GEOMETR�
 10
4445.085919
 20
3994.937118
 40
45.343973
 50
293.401747
 51
319.716692
  0
ARC
  8
APS_GEOMETR�
 10
4443.213391
 20
3998.819553
 40
49.651085
 50
268.875336
 51
293.60541
  0
ARC
  8
APS_GEOMETR�
 10
4443.032273
 20
3998.585082
 40
49.413419
 50
244.265835
 51
269.079969
  0
ARC
  8
APS_GEOMETR�
 10
4440.929675
 20
3994.585723
 40
44.89806
 50
217.97749
 51
244.466893
  0
ARC
  8
APS_GEOMETR�
 10
4432.94557
 20
3988.260459
 40
34.712382
 50
201.754016
 51
217.857209
  0
ARC
  8
APS_GEOMETR�
 10
4368.464989
 20
3988.260459
 40
34.712382
 50
322.142791
 51
338.245984
  0
ARC
  8
APS_GEOMETR�
 10
4360.480884
 20
3994.585723
 40
44.89806
 50
295.533107
 51
322.02251
  0
ARC
  8
APS_GEOMETR�
 10
4358.378286
 20
3998.585082
 40
49.413419
 50
270.920031
 51
295.734165
  0
ARC
  8
APS_GEOMETR�
 10
4358.197168
 20
3998.819553
 40
49.651085
 50
246.39459
 51
271.124664
  0
ARC
  8
APS_GEOMETR�
 10
4356.32464
 20
3994.937118
 40
45.343973
 50
220.283308
 51
246.598253
  0
ARC
  8
APS_GEOMETR�
 10
4275.77768
 20
3926.53663
 40
60.327438
 50
40.378968
 51
74.605338
  0
ARC
  8
APS_GEOMETR�
 10
4267.388336
 20
3898.800632
 40
89.298306
 50
74.139924
 51
96.174137
  0
ARC
  8
APS_GEOMETR�
 10
4266.931692
 20
3900.982464
 40
87.080293
 50
96.02982
 51
118.455293
  0
ARC
  8
APS_GEOMETR�
 10
4263.121521
 20
3907.588079
 40
79.457523
 50
118.309297
 51
142.167628
  0
ARC
  8
APS_GEOMETR�
 10
4201.4972
 20
3955.443247
 40
1.433976
 50
142.125142
 51
168.290102
  0
ARC
  8
APS_GEOMETR�
 10
4201.441221
 20
3955.458257
 40
1.376119
 50
168.429015
 51
195.316668
  0
ARC
  8
APS_GEOMETR�
 10
4201.513151
 20
3955.481157
 40
1.451547
 50
195.438482
 51
221.393347
  0
ARC
  8
APS_GEOMETR�
 10
4201.635931
 20
3955.587091
 40
1.613702
 50
221.332472
 51
245.523761
  0
ARC
  8
APS_GEOMETR�
 10
4201.700495
 20
3955.716995
 40
1.758689
 50
245.362776
 51
268.17787
  0
ARC
  8
APS_GEOMETR�
 10
4202.532285
 20
3948.69056
 40
5.342896
 50
73.026769
 51
99.563916
  0
ARC
  8
APS_GEOMETR�
 10
4199.264959
 20
3937.848156
 40
16.666881
 50
50.139233
 51
73.164836
  0
ARC
  8
APS_GEOMETR�
 10
4200.344749
 20
3939.097049
 40
15.016189
 50
25.561273
 51
50.247617
  0
ARC
  8
APS_GEOMETR�
 10
4201.380111
 20
3939.606742
 40
13.862249
 50
359.478208
 51
25.507243
  0
ARC
  8
APS_GEOMETR�
 10
4201.35101
 20
3939.643785
 40
13.891735
 50
333.334062
 51
359.326523
  0
ARC
  8
APS_GEOMETR�
 10
4200.287963
 20
3940.191266
 40
15.087422
 50
308.678902
 51
333.287855
  0
ARC
  8
APS_GEOMETR�
 10
4199.231344
 20
3941.458113
 40
16.736773
 50
285.831847
 51
308.792346
  0
ARC
  8
APS_GEOMETR�
 10
4196.436341
 20
3951.066948
 40
26.743715
 50
261.887929
 51
285.976554
  0
ARC
  8
APS_GEOMETR�
 10
4196.21691
 20
3950.143714
 40
25.798902
 50
237.375732
 51
262.08105
  0
ARC
  8
APS_GEOMETR�
 10
4194.752617
 20
3947.986936
 40
23.193078
 50
211.007254
 51
237.549856
  0
ARC
  8
APS_GEOMETR�
 10
4192.896547
 20
3946.862336
 40
21.022904
 50
182.659851
 51
210.986135
  0
ARC
  8
APS_GEOMETR�
 10
4192.695184
 20
3946.782574
 40
20.818176
 50
153.956261
 51
182.466284
  0
ARC
  8
APS_GEOMETR�
 10
4165.720112
 20
3959.961155
 40
9.203975
 50
333.976067
 51
359.700425
  0
ARC
  8
APS_GEOMETR�
 10
4165.727346
 20
3959.937499
 40
9.196648
 50
359.847563
 51
25.585484
  0
ARC
  8
APS_GEOMETR�
 10
4165.045748
 20
3959.601154
 40
9.956667
 50
25.637336
 51
50.056377
  0
ARC
  8
APS_GEOMETR�
 10
4164.334325
 20
3958.78292
 40
11.040763
 50
49.95208
 51
72.743012
  0
ARC
  8
APS_GEOMETR�
 10
4164.088228
 20
3958.091446
 40
11.774155
 50
72.597572
 51
93.187533
  0
ARC
  8
APS_GEOMETR�
 10
4234.042823
 20
3923.197874
 40
84.627706
 50
146.548416
 51
146.548521
  0
ARC
  8
APS_GEOMETR�
 10
3790.342204
 20
4731.755859
 40
848.352401
 50
293.068986
 51
296.090058
  0
ARC
  8
APS_GEOMETR�
 10
4080.990286
 20
4050.442587
 40
107.63481
 50
267.614783
 51
292.834329
  0
ARC
  8
APS_GEOMETR�
 10
4077.343426
 20
3965.276199
 40
22.390655
 50
247.326605
 51
267.868774
  0
ARC
  8
APS_GEOMETR�
 10
4076.128408
 20
3962.518508
 40
19.377811
 50
224.859284
 51
247.498363
  0
ARC
  8
APS_GEOMETR�
 10
4073.651487
 20
3960.072899
 40
15.897019
 50
199.050991
 51
224.908274
  0
ARC
  8
APS_GEOMETR�
 10
4072.002507
 20
3959.442723
 40
14.132777
 50
170.839095
 51
198.818216
  0
ARC
  8
APS_GEOMETR�
 10
4072.864143
 20
3959.222126
 40
15.01876
 50
143.66984
 51
170.531591
  0
ARC
  8
APS_GEOMETR�
 10
4075.341641
 20
3957.385097
 40
18.103003
 50
119.933403
 51
143.631294
  0
ARC
  8
APS_GEOMETR�
 10
4077.118104
 20
3954.412397
 40
21.565678
 50
99.014659
 51
120.082549
  0
ARC
  8
APS_GEOMETR�
 10
4076.80169
 20
3956.807409
 40
19.150774
 50
78.129609
 51
99.202432
  0
ARC
  8
APS_GEOMETR�
 10
4077.18792
 20
3958.332059
 40
17.579398
 50
56.015161
 51
78.339351
  0
ARC
  8
APS_GEOMETR�
 10
4078.950765
 20
3960.880282
 40
14.481113
 50
30.730387
 51
56.162883
  0
ARC
  8
APS_GEOMETR�
 10
4080.955872
 20
3962.101517
 40
12.133537
 50
1.973774
 51
30.61166
  0
ARC
  8
APS_GEOMETR�
 10
4081.101189
 20
3962.185337
 40
11.985678
 50
332.722939
 51
1.597245
  0
ARC
  8
APS_GEOMETR�
 10
4078.51723
 20
4050.776271
 40
95.010491
 50
278.008486
 51
309.994378
  0
ARC
  8
APS_GEOMETR�
 10
4335.364992
 20
3746.241932
 40
303.376606
 50
119.440353
 51
130.191736
  0
ARC
  8
APS_GEOMETR�
 10
4242.334564
 20
3915.551338
 40
110.226411
 50
102.988834
 51
120.584656
  0
ARC
  8
APS_GEOMETR�
 10
4251.020136
 20
3881.751213
 40
145.116488
 50
88.696046
 51
103.330908
  0
ARC
  8
APS_GEOMETR�
 10
4245.675922
 20
3882.512714
 40
144.576198
 50
69.709673
 51
86.571319
  0
ARC
  8
APS_GEOMETR�
 10
4264.212894
 20
3930.093134
 40
93.524266
 50
47.665004
 51
70.25302
  0
ARC
  8
APS_GEOMETR�
 10
4360.035797
 20
3986.739829
 40
35.132175
 50
134.700121
 51
159.17798
  0
ARC
  8
APS_GEOMETR�
 10
4362.756159
 20
3984.065155
 40
38.946856
 50
111.922566
 51
134.777021
  0
ARC
  8
APS_GEOMETR�
 10
4364.00479
 20
3981.241942
 40
42.03223
 50
90.368891
 51
112.064723
  0
ARC
  8
APS_GEOMETR�
 10
4364.103002
 20
3981.167916
 40
42.107
 50
68.833045
 51
90.501878
  0
ARC
  8
APS_GEOMETR�
 10
4365.277918
 20
3983.933497
 40
39.103881
 50
46.182421
 51
68.975218
  0
ARC
  8
APS_GEOMETR�
 10
4367.968007
 20
3986.663856
 40
35.27131
 50
21.850855
 51
46.264657
  0
ARC
  8
APS_GEOMETR�
 10
4433.442552
 20
3986.663856
 40
35.27131
 50
133.735343
 51
158.149145
  0
ARC
  8
APS_GEOMETR�
 10
4436.132641
 20
3983.933497
 40
39.103881
 50
111.024782
 51
133.817579
  0
ARC
  8
APS_GEOMETR�
 10
4437.307557
 20
3981.167916
 40
42.107
 50
89.498122
 51
111.166955
  0
ARC
  8
APS_GEOMETR�
 10
4437.405769
 20
3981.241942
 40
42.03223
 50
67.935277
 51
89.631109
  0
ARC
  8
APS_GEOMETR�
 10
4438.6544
 20
3984.065155
 40
38.946856
 50
45.222979
 51
68.077434
  0
ARC
  8
APS_GEOMETR�
 10
4441.374762
 20
3986.739829
 40
35.132175
 50
20.82202
 51
45.299879
  0
ARC
  8
APS_GEOMETR�
 10
4537.197665
 20
3930.093134
 40
93.524266
 50
109.74698
 51
132.334996
  0
ARC
  8
APS_GEOMETR�
 10
4555.734637
 20
3882.512714
 40
144.576198
 50
93.428681
 51
110.290327
  0
ARC
  8
APS_GEOMETR�
 10
4550.390423
 20
3881.751213
 40
145.116488
 50
76.669092
 51
91.303954
  0
ARC
  8
APS_GEOMETR�
 10
4559.075995
 20
3915.551338
 40
110.226411
 50
59.415344
 51
77.011166
  0
ARC
  8
APS_GEOMETR�
 10
4466.045567
 20
3746.241932
 40
303.376606
 50
49.808264
 51
60.559647
  0
ARC
  8
APS_GEOMETR�
 10
4722.893329
 20
4050.776271
 40
95.010491
 50
230.005622
 51
261.991514
  0
ARC
  8
APS_GEOMETR�
 10
4720.30937
 20
3962.185337
 40
11.985678
 50
178.402755
 51
207.277061
  0
ARC
  8
APS_GEOMETR�
 10
4720.454687
 20
3962.101517
 40
12.133537
 50
149.38834
 51
178.026226
  0
ARC
  8
APS_GEOMETR�
 10
4722.459794
 20
3960.880282
 40
14.481113
 50
123.837117
 51
149.269613
  0
ARC
  8
APS_GEOMETR�
 10
4724.222639
 20
3958.332059
 40
17.579398
 50
101.660649
 51
123.984839
  0
ARC
  8
APS_GEOMETR�
 10
4724.608869
 20
3956.807409
 40
19.150774
 50
80.797568
 51
101.870391
  0
ARC
  8
APS_GEOMETR�
 10
4724.292455
 20
3954.412397
 40
21.565678
 50
59.917451
 51
80.985341
  0
ARC
  8
APS_GEOMETR�
 10
4726.068918
 20
3957.385097
 40
18.103003
 50
36.368706
 51
60.066597
  0
ARC
  8
APS_GEOMETR�
 10
4728.546416
 20
3959.222126
 40
15.01876
 50
9.468409
 51
36.33016
  0
ARC
  8
APS_GEOMETR�
 10
4729.408052
 20
3959.442723
 40
14.132777
 50
341.181784
 51
9.160905
  0
ARC
  8
APS_GEOMETR�
 10
4727.759072
 20
3960.072899
 40
15.897019
 50
315.091726
 51
340.949009
  0
ARC
  8
APS_GEOMETR�
 10
4725.282151
 20
3962.518508
 40
19.377811
 50
292.501637
 51
315.140716
  0
ARC
  8
APS_GEOMETR�
 10
4724.067133
 20
3965.276199
 40
22.390655
 50
272.131226
 51
292.673395
  0
ARC
  8
APS_GEOMETR�
 10
4720.420273
 20
4050.442587
 40
107.63481
 50
247.165671
 51
272.385217
  0
ARC
  8
APS_GEOMETR�
 10
5011.068355
 20
4731.755859
 40
848.352401
 50
243.909942
 51
246.931014
  0
ARC
  8
APS_GEOMETR�
 10
4567.367736
 20
3923.197874
 40
84.627706
 50
33.451479
 51
33.451584
  0
ARC
  8
APS_GEOMETR�
 10
2844.792366
 20
1477.612558
 40
34.802932
 50
104.935379
 51
143.153547
  0
ARC
  8
APS_GEOMETR�
 10
2846.08649
 20
1473.05838
 40
39.536866
 50
87.294815
 51
105.046471
  0
ARC
  8
APS_GEOMETR�
 10
2845.499169
 20
1474.934455
 40
37.696648
 50
49.611749
 51
86.268495
  0
ARC
  8
APS_GEOMETR�
 10
2818.683972
 20
1442.073911
 40
80.105557
 50
32.971123
 51
50.232657
  0
ARC
  8
APS_GEOMETR�
 10
2767.664842
 20
1503.981547
 40
4.079937
 50
257.67014
 51
284.421565
  0
ARC
  8
APS_GEOMETR�
 10
2767.729228
 20
1504.228239
 40
4.3347
 50
231.790343
 51
257.535014
  0
ARC
  8
APS_GEOMETR�
 10
2768.178728
 20
1504.819765
 40
5.077543
 50
208.780021
 51
231.93351
  0
ARC
  8
APS_GEOMETR�
 10
2768.869366
 20
1505.224433
 40
5.877738
 50
188.045485
 51
208.996176
  0
ARC
  8
APS_GEOMETR�
 10
2769.161275
 20
1505.284447
 40
6.1752
 50
167.964004
 51
188.217769
  0
ARC
  8
APS_GEOMETR�
 10
2773.246441
 20
1504.45337
 40
10.343937
 50
145.528905
 51
168.180344
  0
ARC
  8
APS_GEOMETR�
 10
2771.940345
 20
1505.398461
 40
8.732355
 50
120.359298
 51
145.790743
  0
ARC
  8
APS_GEOMETR�
 10
2771.355205
 20
1506.414903
 40
7.559557
 50
92.453246
 51
120.426222
  0
ARC
  8
APS_GEOMETR�
 10
2771.324365
 20
1506.504035
 40
7.469236
 50
64.063866
 51
92.246155
  0
ARC
  8
APS_GEOMETR�
 10
2770.88298
 20
1505.595134
 40
8.479642
 50
38.126646
 51
64.067891
  0
ARC
  8
APS_GEOMETR�
 10
2769.634401
 20
1504.55779
 40
10.102394
 50
15.360888
 51
38.382713
  0
ARC
  8
APS_GEOMETR�
 10
2768.663264
 20
1504.245729
 40
11.121589
 50
354.035297
 51
15.585816
  0
ARC
  8
APS_GEOMETR�
 10
2769.073829
 20
1504.1644
 40
10.704863
 50
332.115949
 51
354.239887
  0
ARC
  8
APS_GEOMETR�
 10
2765.519901
 20
1505.92284
 40
14.668955
 50
304.2922
 51
332.537156
  0
ARC
  8
APS_GEOMETR�
 10
2766.817055
 20
1503.962965
 40
12.318964
 50
272.71754
 51
304.443564
  0
ARC
  8
APS_GEOMETR�
 10
2766.881968
 20
1503.790276
 40
12.143525
 50
240.445217
 51
272.450239
  0
ARC
  8
APS_GEOMETR�
 10
2767.879664
 20
1505.578878
 40
14.191528
 50
211.611604
 51
240.503187
  0
ARC
  8
APS_GEOMETR�
 10
2715.463689
 20
1472.718165
 40
47.673959
 50
32.22526
 51
39.808103
  0
ARC
  8
APS_GEOMETR�
 10
2719.919237
 20
1477.086656
 40
41.457506
 50
39.112479
 51
70.257693
  0
ARC
  8
APS_GEOMETR�
 10
2721.467128
 20
1481.142551
 40
37.11725
 50
70.391783
 51
103.798974
  0
ARC
  8
APS_GEOMETR�
 10
2728.740432
 20
1462.111517
 40
57.389358
 50
106.31985
 51
127.421331
  0
ARC
  8
APS_GEOMETR�
 10
2719.520872
 20
1473.799542
 40
42.504967
 50
127.12533
 51
152.969335
  0
ARC
  8
APS_GEOMETR�
 10
2501.570285
 20
1785.476729
 40
343.374951
 50
301.632317
 51
301.632347
  0
ARC
  8
APS_GEOMETR�
 10
2876.205573
 20
1478.925688
 40
4.859679
 50
198.840972
 51
222.638516
  0
ARC
  8
APS_GEOMETR�
 10
2875.941847
 20
1478.667575
 40
4.490847
 50
222.495128
 51
247.604385
  0
ARC
  8
APS_GEOMETR�
 10
2875.861279
 20
1478.469247
 40
4.276781
 50
247.59002
 51
273.491008
  0
ARC
  8
APS_GEOMETR�
 10
2875.854189
 20
1478.502297
 40
4.310204
 50
273.558333
 51
299.338377
  0
ARC
  8
APS_GEOMETR�
 10
2875.723782
 20
1478.744111
 40
4.584902
 50
299.278395
 51
324.042089
  0
ARC
  8
APS_GEOMETR�
 10
2875.433921
 20
1478.970504
 40
4.952482
 50
323.89112
 51
347.378327
  0
ARC
  8
APS_GEOMETR�
 10
2875.255978
 20
1479.021448
 40
5.137269
 50
347.257534
 51
10.149906
  0
ARC
  8
APS_GEOMETR�
 10
2727.724789
 20
1477.612558
 40
34.802932
 50
36.846453
 51
75.064621
  0
ARC
  8
APS_GEOMETR�
 10
2726.430665
 20
1473.05838
 40
39.536866
 50
74.953529
 51
92.705185
  0
ARC
  8
APS_GEOMETR�
 10
2727.017985
 20
1474.934455
 40
37.696648
 50
93.731505
 51
130.388251
  0
ARC
  8
APS_GEOMETR�
 10
2753.833183
 20
1442.073911
 40
80.105557
 50
129.767343
 51
147.028877
  0
ARC
  8
APS_GEOMETR�
 10
2696.311582
 20
1478.925688
 40
4.859679
 50
317.361484
 51
341.159028
  0
ARC
  8
APS_GEOMETR�
 10
2696.575307
 20
1478.667575
 40
4.490847
 50
292.395615
 51
317.504872
  0
ARC
  8
APS_GEOMETR�
 10
2696.655875
 20
1478.469247
 40
4.276781
 50
266.508992
 51
292.40998
  0
ARC
  8
APS_GEOMETR�
 10
2696.662965
 20
1478.502297
 40
4.310204
 50
240.661623
 51
266.441667
  0
ARC
  8
APS_GEOMETR�
 10
2696.793373
 20
1478.744111
 40
4.584902
 50
215.957911
 51
240.721605
  0
ARC
  8
APS_GEOMETR�
 10
2697.083234
 20
1478.970504
 40
4.952482
 50
192.621673
 51
216.10888
  0
ARC
  8
APS_GEOMETR�
 10
2697.261176
 20
1479.021448
 40
5.137269
 50
169.850094
 51
192.742466
  0
ARC
  8
APS_GEOMETR�
 10
2644.320941
 20
1486.700281
 40
3.917608
 50
205.247533
 51
231.289248
  0
ARC
  8
APS_GEOMETR�
 10
2644.571095
 20
1486.832611
 40
4.200329
 50
180.619345
 51
205.424731
  0
ARC
  8
APS_GEOMETR�
 10
2644.580427
 20
1486.842974
 40
4.209785
 50
155.993043
 51
180.759006
  0
ARC
  8
APS_GEOMETR�
 10
2644.335986
 20
1486.964981
 40
3.936869
 50
130.21388
 51
156.167724
  0
ARC
  8
APS_GEOMETR�
 10
2644.14578
 20
1487.204165
 40
3.631425
 50
102.959613
 51
130.358692
  0
ARC
  8
APS_GEOMETR�
 10
2644.119093
 20
1487.307736
 40
3.524508
 50
75.014035
 51
102.914432
  0
ARC
  8
APS_GEOMETR�
 10
2804.852313
 20
1503.981547
 40
4.079937
 50
255.578435
 51
282.32986
  0
ARC
  8
APS_GEOMETR�
 10
2804.787926
 20
1504.228239
 40
4.3347
 50
282.464986
 51
308.209657
  0
ARC
  8
APS_GEOMETR�
 10
2804.338426
 20
1504.819765
 40
5.077543
 50
308.06649
 51
331.219979
  0
ARC
  8
APS_GEOMETR�
 10
2803.647788
 20
1505.224433
 40
5.877738
 50
331.003824
 51
351.954515
  0
ARC
  8
APS_GEOMETR�
 10
2803.35588
 20
1505.284447
 40
6.1752
 50
351.782231
 51
12.035996
  0
ARC
  8
APS_GEOMETR�
 10
2799.270714
 20
1504.45337
 40
10.343937
 50
11.819656
 51
34.471095
  0
ARC
  8
APS_GEOMETR�
 10
2800.576809
 20
1505.398461
 40
8.732355
 50
34.209257
 51
59.640702
  0
ARC
  8
APS_GEOMETR�
 10
2801.161949
 20
1506.414903
 40
7.559557
 50
59.573778
 51
87.546754
  0
ARC
  8
APS_GEOMETR�
 10
2801.192789
 20
1506.504035
 40
7.469236
 50
87.753845
 51
115.936134
  0
ARC
  8
APS_GEOMETR�
 10
2801.634174
 20
1505.595134
 40
8.479642
 50
115.932109
 51
141.873354
  0
ARC
  8
APS_GEOMETR�
 10
2802.882754
 20
1504.55779
 40
10.102394
 50
141.617287
 51
164.639112
  0
ARC
  8
APS_GEOMETR�
 10
2803.853891
 20
1504.245729
 40
11.121589
 50
164.414184
 51
185.964703
  0
ARC
  8
APS_GEOMETR�
 10
2803.443326
 20
1504.1644
 40
10.704863
 50
185.760113
 51
207.884051
  0
ARC
  8
APS_GEOMETR�
 10
2806.997253
 20
1505.92284
 40
14.668955
 50
207.462844
 51
235.7078
  0
ARC
  8
APS_GEOMETR�
 10
2805.700099
 20
1503.962965
 40
12.318964
 50
235.556436
 51
267.28246
  0
ARC
  8
APS_GEOMETR�
 10
2805.635186
 20
1503.790276
 40
12.143525
 50
267.549761
 51
299.554783
  0
ARC
  8
APS_GEOMETR�
 10
2804.637491
 20
1505.578878
 40
14.191528
 50
299.496813
 51
328.388396
  0
ARC
  8
APS_GEOMETR�
 10
2857.053465
 20
1472.718165
 40
47.673959
 50
140.191897
 51
147.77474
  0
ARC
  8
APS_GEOMETR�
 10
2852.597918
 20
1477.086656
 40
41.457506
 50
109.742307
 51
140.887521
  0
ARC
  8
APS_GEOMETR�
 10
2851.050027
 20
1481.142551
 40
37.11725
 50
76.201026
 51
109.608217
  0
ARC
  8
APS_GEOMETR�
 10
2843.776723
 20
1462.111517
 40
57.389358
 50
52.578669
 51
73.68015
  0
ARC
  8
APS_GEOMETR�
 10
2852.996282
 20
1473.799542
 40
42.504967
 50
27.030665
 51
52.87467
  0
ARC
  8
APS_GEOMETR�
 10
3070.94687
 20
1785.476729
 40
343.374951
 50
238.367653
 51
238.367683
  0
ARC
  8
APS_GEOMETR�
 10
2890.570376
 20
1488.934487
 40
4.191978
 50
86.0615
 51
111.748618
  0
ARC
  8
APS_GEOMETR�
 10
2890.746504
 20
1488.503009
 40
4.658006
 50
111.794284
 51
137.190901
  0
ARC
  8
APS_GEOMETR�
 10
2891.368196
 20
1487.899075
 40
5.524539
 50
136.977433
 51
159.598878
  0
ARC
  8
APS_GEOMETR�
 10
2892.003475
 20
1487.638351
 40
6.210898
 50
159.387455
 51
180.26483
  0
ARC
  8
APS_GEOMETR�
 10
2891.996643
 20
1487.619165
 40
6.204007
 50
180.087932
 51
200.981215
  0
ARC
  8
APS_GEOMETR�
 10
2873.039336
 20
1480.354379
 40
14.097634
 50
357.885394
 51
20.961816
  0
ARC
  8
APS_GEOMETR�
 10
2873.232458
 20
1480.287875
 40
13.902315
 50
334.830171
 51
358.12992
  0
ARC
  8
APS_GEOMETR�
 10
2874.968353
 20
1479.402356
 40
11.954795
 50
309.28233
 51
335.132875
  0
ARC
  8
APS_GEOMETR�
 10
2876.178376
 20
1477.866466
 40
9.999909
 50
280.336903
 51
309.487658
  0
ARC
  8
APS_GEOMETR�
 10
2876.305837
 20
1477.351442
 40
9.47043
 50
249.982244
 51
280.137384
  0
ARC
  8
APS_GEOMETR�
 10
2875.452555
 20
1474.988057
 40
6.957741
 50
224.081034
 51
249.92229
  0
ARC
  8
APS_GEOMETR�
 10
2876.369675
 20
1475.919088
 40
8.264313
 50
201.297651
 51
224.294528
  0
ARC
  8
APS_GEOMETR�
 10
2877.360403
 20
1476.343996
 40
9.341782
 50
180.374633
 51
201.51872
  0
ARC
  8
APS_GEOMETR�
 10
2877.387932
 20
1476.374131
 40
9.369555
 50
159.45677
 51
180.557807
  0
ARC
  8
APS_GEOMETR�
 10
2876.421627
 20
1476.770158
 40
8.325788
 50
136.794697
 51
159.675288
  0
ARC
  8
APS_GEOMETR�
 10
2875.479058
 20
1477.692219
 40
7.00754
 50
111.295096
 51
137.013814
  0
ARC
  8
APS_GEOMETR�
 10
2873.620847
 20
1482.456561
 40
1.893648
 50
78.046562
 51
111.262921
  0
ARC
  8
APS_GEOMETR�
 10
2873.984489
 20
1484.954848
 40
0.646332
 50
272.532966
 51
300.405009
  0
ARC
  8
APS_GEOMETR�
 10
2873.934669
 20
1485.041454
 40
0.746242
 50
300.338678
 51
325.68642
  0
ARC
  8
APS_GEOMETR�
 10
2873.823463
 20
1485.12219
 40
0.883616
 50
325.42732
 51
348.010841
  0
ARC
  8
APS_GEOMETR�
 10
2873.755491
 20
1485.140264
 40
0.953867
 50
347.796975
 51
9.223896
  0
ARC
  8
APS_GEOMETR�
 10
2873.808499
 20
1485.152174
 40
0.899641
 50
9.016381
 51
31.322891
  0
ARC
  8
APS_GEOMETR�
 10
2841.687199
 20
1465.786603
 40
38.407009
 50
31.090867
 51
55.351953
  0
ARC
  8
APS_GEOMETR�
 10
2844.75565
 20
1470.345203
 40
32.912383
 50
55.234572
 51
82.126353
  0
ARC
  8
APS_GEOMETR�
 10
2845.024984
 20
1471.580008
 40
31.652474
 50
82.303098
 51
109.859914
  0
ARC
  8
APS_GEOMETR�
 10
2843.368243
 20
1476.474298
 40
26.486642
 50
110.085943
 51
147.32729
  0
ARC
  8
APS_GEOMETR�
 10
2803.543049
 20
1502.243779
 40
20.9492
 50
299.198482
 51
326.800214
  0
ARC
  8
APS_GEOMETR�
 10
2804.942784
 20
1499.705108
 40
18.050271
 50
268.811378
 51
299.251106
  0
ARC
  8
APS_GEOMETR�
 10
2805.023206
 20
1499.831194
 40
18.178165
 50
238.258111
 51
268.566195
  0
ARC
  8
APS_GEOMETR�
 10
2806.63658
 20
1502.506396
 40
21.302044
 50
211.063522
 51
238.35319
  0
ARC
  8
APS_GEOMETR�
 10
2806.231127
 20
1502.466558
 40
20.93491
 50
197.440095
 51
211.542707
  0
ARC
  8
APS_GEOMETR�
 10
2766.286028
 20
1502.466558
 40
20.93491
 50
328.457293
 51
342.559905
  0
ARC
  8
APS_GEOMETR�
 10
2765.880574
 20
1502.506396
 40
21.302044
 50
301.64681
 51
328.936478
  0
ARC
  8
APS_GEOMETR�
 10
2767.493949
 20
1499.831194
 40
18.178165
 50
271.433805
 51
301.741889
  0
ARC
  8
APS_GEOMETR�
 10
2767.57437
 20
1499.705108
 40
18.050271
 50
240.748894
 51
271.188622
  0
ARC
  8
APS_GEOMETR�
 10
2768.974105
 20
1502.243779
 40
20.9492
 50
213.199786
 51
240.801518
  0
ARC
  8
APS_GEOMETR�
 10
2729.148912
 20
1476.474298
 40
26.486642
 50
32.67271
 51
69.914057
  0
ARC
  8
APS_GEOMETR�
 10
2727.492171
 20
1471.580008
 40
31.652474
 50
70.140086
 51
97.696902
  0
ARC
  8
APS_GEOMETR�
 10
2727.761505
 20
1470.345203
 40
32.912383
 50
97.873647
 51
124.765428
  0
ARC
  8
APS_GEOMETR�
 10
2730.829955
 20
1465.786603
 40
38.407009
 50
124.648047
 51
148.909133
  0
ARC
  8
APS_GEOMETR�
 10
2698.708655
 20
1485.152174
 40
0.899641
 50
148.677109
 51
170.983619
  0
ARC
  8
APS_GEOMETR�
 10
2698.761663
 20
1485.140264
 40
0.953867
 50
170.776104
 51
192.203025
  0
ARC
  8
APS_GEOMETR�
 10
2698.693692
 20
1485.12219
 40
0.883616
 50
191.989159
 51
214.57268
  0
ARC
  8
APS_GEOMETR�
 10
2698.582486
 20
1485.041454
 40
0.746242
 50
214.31358
 51
239.661322
  0
ARC
  8
APS_GEOMETR�
 10
2698.532665
 20
1484.954848
 40
0.646332
 50
239.594991
 51
267.467034
  0
ARC
  8
APS_GEOMETR�
 10
2698.896307
 20
1482.456561
 40
1.893648
 50
68.737079
 51
101.953438
  0
ARC
  8
APS_GEOMETR�
 10
2697.038096
 20
1477.692219
 40
7.00754
 50
42.986186
 51
68.704904
  0
ARC
  8
APS_GEOMETR�
 10
2696.095528
 20
1476.770158
 40
8.325788
 50
20.324712
 51
43.205303
  0
ARC
  8
APS_GEOMETR�
 10
2695.129223
 20
1476.374131
 40
9.369555
 50
359.442193
 51
20.54323
  0
ARC
  8
APS_GEOMETR�
 10
2695.156752
 20
1476.343996
 40
9.341782
 50
338.48128
 51
359.625367
  0
ARC
  8
APS_GEOMETR�
 10
2696.14748
 20
1475.919088
 40
8.264313
 50
315.705472
 51
338.702349
  0
ARC
  8
APS_GEOMETR�
 10
2697.0646
 20
1474.988057
 40
6.957741
 50
290.07771
 51
315.918966
  0
ARC
  8
APS_GEOMETR�
 10
2696.211317
 20
1477.351442
 40
9.47043
 50
259.862616
 51
290.017756
  0
ARC
  8
APS_GEOMETR�
 10
2696.338778
 20
1477.866466
 40
9.999909
 50
230.512342
 51
259.663097
  0
ARC
  8
APS_GEOMETR�
 10
2697.548801
 20
1479.402356
 40
11.954795
 50
204.867125
 51
230.71767
  0
ARC
  8
APS_GEOMETR�
 10
2699.284696
 20
1480.287875
 40
13.902315
 50
181.87008
 51
205.169829
  0
ARC
  8
APS_GEOMETR�
 10
2699.477819
 20
1480.354379
 40
14.097634
 50
159.038184
 51
182.114606
  0
ARC
  8
APS_GEOMETR�
 10
2680.520512
 20
1487.619165
 40
6.204007
 50
339.018785
 51
359.912068
  0
ARC
  8
APS_GEOMETR�
 10
2680.51368
 20
1487.638351
 40
6.210898
 50
359.73517
 51
20.612545
  0
ARC
  8
APS_GEOMETR�
 10
2681.148958
 20
1487.899075
 40
5.524539
 50
20.401122
 51
43.022567
  0
ARC
  8
APS_GEOMETR�
 10
2681.770651
 20
1488.503009
 40
4.658006
 50
42.809099
 51
68.205716
  0
ARC
  8
APS_GEOMETR�
 10
2681.946778
 20
1488.934487
 40
4.191978
 50
68.251382
 51
93.9385
  0
ARC
  8
APS_GEOMETR�
 10
2501.570285
 20
1785.476729
 40
343.374951
 50
298.180307
 51
301.632317
  0
ARC
  8
APS_GEOMETR�
 10
2645.237322
 20
1517.071142
 40
38.938328
 50
267.206726
 51
298.351544
  0
ARC
  8
APS_GEOMETR�
 10
2643.749668
 20
1486.352946
 40
8.184139
 50
241.955842
 51
267.129094
  0
ARC
  8
APS_GEOMETR�
 10
2643.974679
 20
1486.791081
 40
8.676624
 50
217.768507
 51
242.004699
  0
ARC
  8
APS_GEOMETR�
 10
2644.503811
 20
1487.230013
 40
9.363759
 50
194.903129
 51
217.908587
  0
ARC
  8
APS_GEOMETR�
 10
2644.881202
 20
1487.350773
 40
9.759533
 50
172.668199
 51
195.018421
  0
ARC
  8
APS_GEOMETR�
 10
2644.68182
 20
1487.394075
 40
9.556272
 50
150.091087
 51
172.773145
  0
ARC
  8
APS_GEOMETR�
 10
2644.136505
 20
1487.732588
 40
8.914818
 50
126.43333
 51
150.22942
  0
ARC
  8
APS_GEOMETR�
 10
2643.787026
 20
1488.229643
 40
8.307374
 50
101.591044
 51
126.530033
  0
ARC
  8
APS_GEOMETR�
 10
2643.468923
 20
1489.754528
 40
6.749674
 50
75.098806
 51
101.54666
  0
ARC
  8
APS_GEOMETR�
 10
2643.406413
 20
1489.534305
 40
6.978566
 50
49.158377
 51
75.067794
  0
ARC
  8
APS_GEOMETR�
 10
2643.051724
 20
1489.098063
 40
7.540567
 50
24.690798
 51
49.287242
  0
ARC
  8
APS_GEOMETR�
 10
2642.60134
 20
1488.867791
 40
8.045992
 50
1.329607
 51
24.840947
  0
ARC
  8
APS_GEOMETR�
 10
2642.567349
 20
1488.85049
 40
8.080392
 50
338.005794
 51
1.446656
  0
ARC
  8
APS_GEOMETR�
 10
2642.951156
 20
1523.251633
 40
38.096426
 50
280.753994
 51
317.73499
  0
ARC
  8
APS_GEOMETR�
 10
2771.73119
 20
1403.364381
 40
137.853794
 50
125.480346
 51
136.858312
  0
ARC
  8
APS_GEOMETR�
 10
2717.772255
 20
1480.982192
 40
43.343688
 50
106.419646
 51
126.950007
  0
ARC
  8
APS_GEOMETR�
 10
2720.295994
 20
1473.259917
 40
51.464962
 50
88.406922
 51
106.684562
  0
ARC
  8
APS_GEOMETR�
 10
2717.650655
 20
1472.22167
 40
52.641365
 50
64.856852
 51
85.559045
  0
ARC
  8
APS_GEOMETR�
 10
2723.037854
 20
1483.062289
 40
40.539889
 50
40.524246
 51
65.239555
  0
ARC
  8
APS_GEOMETR�
 10
2773.506384
 20
1503.617986
 40
20.486902
 50
141.668669
 51
163.595347
  0
ARC
  8
APS_GEOMETR�
 10
2771.080147
 20
1505.621875
 40
17.340973
 50
117.329757
 51
141.890552
  0
ARC
  8
APS_GEOMETR�
 10
2770.133314
 20
1507.468351
 40
15.265902
 50
90.650001
 51
117.354494
  0
ARC
  8
APS_GEOMETR�
 10
2770.083081
 20
1507.509825
 40
15.223943
 50
63.712367
 51
90.462727
  0
ARC
  8
APS_GEOMETR�
 10
2769.201001
 20
1505.716297
 40
17.222642
 50
39.049596
 51
63.723868
  0
ARC
  8
APS_GEOMETR�
 10
2766.810554
 20
1503.67649
 40
20.364279
 50
17.252556
 51
39.269479
  0
ARC
  8
APS_GEOMETR�
 10
2805.7066
 20
1503.67649
 40
20.364279
 50
140.730521
 51
162.747444
  0
ARC
  8
APS_GEOMETR�
 10
2803.316153
 20
1505.716297
 40
17.222642
 50
116.276132
 51
140.950404
  0
ARC
  8
APS_GEOMETR�
 10
2802.434074
 20
1507.509825
 40
15.223943
 50
89.537273
 51
116.287633
  0
ARC
  8
APS_GEOMETR�
 10
2802.38384
 20
1507.468351
 40
15.265902
 50
62.645506
 51
89.349999
  0
ARC
  8
APS_GEOMETR�
 10
2801.437007
 20
1505.621875
 40
17.340973
 50
38.109448
 51
62.670243
  0
ARC
  8
APS_GEOMETR�
 10
2799.01077
 20
1503.617986
 40
20.486902
 50
16.404653
 51
38.331331
  0
ARC
  8
APS_GEOMETR�
 10
2849.4793
 20
1483.062289
 40
40.539889
 50
114.760445
 51
139.475754
  0
ARC
  8
APS_GEOMETR�
 10
2854.8665
 20
1472.22167
 40
52.641365
 50
94.440955
 51
115.143148
  0
ARC
  8
APS_GEOMETR�
 10
2852.22116
 20
1473.259917
 40
51.464962
 50
73.315438
 51
91.593078
  0
ARC
  8
APS_GEOMETR�
 10
2854.744899
 20
1480.982192
 40
43.343688
 50
53.049993
 51
73.580354
  0
ARC
  8
APS_GEOMETR�
 10
2800.785964
 20
1403.364381
 40
137.853794
 50
43.141688
 51
54.519654
  0
ARC
  8
APS_GEOMETR�
 10
2929.565998
 20
1523.251633
 40
38.096426
 50
222.26501
 51
259.246006
  0
ARC
  8
APS_GEOMETR�
 10
2929.949805
 20
1488.85049
 40
8.080392
 50
178.553344
 51
201.994206
  0
ARC
  8
APS_GEOMETR�
 10
2929.915814
 20
1488.867791
 40
8.045992
 50
155.159053
 51
178.670393
  0
ARC
  8
APS_GEOMETR�
 10
2929.465431
 20
1489.098063
 40
7.540567
 50
130.712758
 51
155.309202
  0
ARC
  8
APS_GEOMETR�
 10
2929.110742
 20
1489.534305
 40
6.978566
 50
104.932206
 51
130.841623
  0
ARC
  8
APS_GEOMETR�
 10
2929.048231
 20
1489.754528
 40
6.749674
 50
78.45334
 51
104.901194
  0
ARC
  8
APS_GEOMETR�
 10
2928.730128
 20
1488.229643
 40
8.307374
 50
53.469967
 51
78.408956
  0
ARC
  8
APS_GEOMETR�
 10
2928.380649
 20
1487.732588
 40
8.914818
 50
29.77058
 51
53.56667
  0
ARC
  8
APS_GEOMETR�
 10
2927.835334
 20
1487.394075
 40
9.556272
 50
7.226855
 51
29.908913
  0
ARC
  8
APS_GEOMETR�
 10
2927.635953
 20
1487.350773
 40
9.759533
 50
344.981579
 51
7.331801
  0
ARC
  8
APS_GEOMETR�
 10
2928.013344
 20
1487.230013
 40
9.363759
 50
322.091413
 51
345.096871
  0
ARC
  8
APS_GEOMETR�
 10
2928.542475
 20
1486.791081
 40
8.676624
 50
297.995301
 51
322.231493
  0
ARC
  8
APS_GEOMETR�
 10
2928.767486
 20
1486.352946
 40
8.184139
 50
272.870906
 51
298.044158
  0
ARC
  8
APS_GEOMETR�
 10
2927.279832
 20
1517.071142
 40
38.938328
 50
241.648456
 51
272.793274
  0
ARC
  8
APS_GEOMETR�
 10
3070.94687
 20
1785.476729
 40
343.374951
 50
238.367683
 51
241.819693
  0
ARC
  8
APS_GEOMETR�
 10
2928.196214
 20
1486.700281
 40
3.917608
 50
308.710752
 51
334.752467
  0
ARC
  8
APS_GEOMETR�
 10
2927.946059
 20
1486.832611
 40
4.200329
 50
334.575269
 51
359.380655
  0
ARC
  8
APS_GEOMETR�
 10
2927.936727
 20
1486.842974
 40
4.209785
 50
359.240994
 51
24.006957
  0
ARC
  8
APS_GEOMETR�
 10
2928.181168
 20
1486.964981
 40
3.936869
 50
23.832276
 51
49.78612
  0
ARC
  8
APS_GEOMETR�
 10
2928.371375
 20
1487.204165
 40
3.631425
 50
49.641308
 51
77.040387
  0
ARC
  8
APS_GEOMETR�
 10
2928.398061
 20
1487.307736
 40
3.524508
 50
77.085568
 51
104.985965
  0
ARC
  8
APS_GEOMETR�
 10
5397.900223
 20
1134.775251
 40
34.802932
 50
216.846453
 51
255.064621
  0
ARC
  8
APS_GEOMETR�
 10
5399.194347
 20
1139.32943
 40
39.536866
 50
254.953529
 51
272.705185
  0
ARC
  8
APS_GEOMETR�
 10
5398.607026
 20
1137.453354
 40
37.696648
 50
273.731505
 51
310.388251
  0
ARC
  8
APS_GEOMETR�
 10
5371.791829
 20
1170.313899
 40
80.105557
 50
309.767343
 51
327.028877
  0
ARC
  8
APS_GEOMETR�
 10
5320.772699
 20
1108.406262
 40
4.079937
 50
75.578435
 51
102.32986
  0
ARC
  8
APS_GEOMETR�
 10
5320.837085
 20
1108.15957
 40
4.3347
 50
102.464986
 51
128.209657
  0
ARC
  8
APS_GEOMETR�
 10
5321.286585
 20
1107.568044
 40
5.077543
 50
128.06649
 51
151.219979
  0
ARC
  8
APS_GEOMETR�
 10
5321.977223
 20
1107.163377
 40
5.877738
 50
151.003824
 51
171.954515
  0
ARC
  8
APS_GEOMETR�
 10
5322.269132
 20
1107.103363
 40
6.1752
 50
171.782231
 51
192.035996
  0
ARC
  8
APS_GEOMETR�
 10
5326.354298
 20
1107.934439
 40
10.343937
 50
191.819656
 51
214.471095
  0
ARC
  8
APS_GEOMETR�
 10
5325.048202
 20
1106.989349
 40
8.732355
 50
214.209257
 51
239.640702
  0
ARC
  8
APS_GEOMETR�
 10
5324.463062
 20
1105.972906
 40
7.559557
 50
239.573778
 51
267.546754
  0
ARC
  8
APS_GEOMETR�
 10
5324.432222
 20
1105.883775
 40
7.469236
 50
267.753845
 51
295.936134
  0
ARC
  8
APS_GEOMETR�
 10
5323.990838
 20
1106.792675
 40
8.479642
 50
295.932109
 51
321.873354
  0
ARC
  8
APS_GEOMETR�
 10
5322.742258
 20
1107.83002
 40
10.102394
 50
321.617287
 51
344.639112
  0
ARC
  8
APS_GEOMETR�
 10
5321.771121
 20
1108.14208
 40
11.121589
 50
344.414184
 51
5.964703
  0
ARC
  8
APS_GEOMETR�
 10
5322.181686
 20
1108.223409
 40
10.704863
 50
5.760113
 51
27.884051
  0
ARC
  8
APS_GEOMETR�
 10
5318.627758
 20
1106.46497
 40
14.668955
 50
27.462844
 51
55.7078
  0
ARC
  8
APS_GEOMETR�
 10
5319.924912
 20
1108.424845
 40
12.318964
 50
55.556436
 51
87.28246
  0
ARC
  8
APS_GEOMETR�
 10
5319.989825
 20
1108.597533
 40
12.143525
 50
87.549761
 51
119.554783
  0
ARC
  8
APS_GEOMETR�
 10
5320.987521
 20
1106.808931
 40
14.191528
 50
119.496813
 51
148.388396
  0
ARC
  8
APS_GEOMETR�
 10
5268.571546
 20
1139.669644
 40
47.673959
 50
320.191897
 51
327.77474
  0
ARC
  8
APS_GEOMETR�
 10
5273.027094
 20
1135.301154
 40
41.457506
 50
289.742307
 51
320.887521
  0
ARC
  8
APS_GEOMETR�
 10
5274.574985
 20
1131.245258
 40
37.11725
 50
256.201026
 51
289.608217
  0
ARC
  8
APS_GEOMETR�
 10
5281.848289
 20
1150.276292
 40
57.389358
 50
232.578669
 51
253.68015
  0
ARC
  8
APS_GEOMETR�
 10
5272.628729
 20
1138.588268
 40
42.504967
 50
207.030665
 51
232.87467
  0
ARC
  8
APS_GEOMETR�
 10
5054.678142
 20
826.91108
 40
343.374951
 50
58.367653
 51
58.367683
  0
ARC
  8
APS_GEOMETR�
 10
5429.31343
 20
1133.462121
 40
4.859679
 50
137.361484
 51
161.159028
  0
ARC
  8
APS_GEOMETR�
 10
5429.049704
 20
1133.720235
 40
4.490847
 50
112.395615
 51
137.504872
  0
ARC
  8
APS_GEOMETR�
 10
5428.969136
 20
1133.918563
 40
4.276781
 50
86.508992
 51
112.40998
  0
ARC
  8
APS_GEOMETR�
 10
5428.962046
 20
1133.885513
 40
4.310204
 50
60.661623
 51
86.441667
  0
ARC
  8
APS_GEOMETR�
 10
5428.831639
 20
1133.643698
 40
4.584902
 50
35.957911
 51
60.721605
  0
ARC
  8
APS_GEOMETR�
 10
5428.541778
 20
1133.417306
 40
4.952482
 50
12.621673
 51
36.10888
  0
ARC
  8
APS_GEOMETR�
 10
5428.363835
 20
1133.366361
 40
5.137269
 50
349.850094
 51
12.742466
  0
ARC
  8
APS_GEOMETR�
 10
5280.832646
 20
1134.775251
 40
34.802932
 50
284.935379
 51
323.153547
  0
ARC
  8
APS_GEOMETR�
 10
5279.538522
 20
1139.32943
 40
39.536866
 50
267.294815
 51
285.046471
  0
ARC
  8
APS_GEOMETR�
 10
5280.125843
 20
1137.453354
 40
37.696648
 50
229.611749
 51
266.268495
  0
ARC
  8
APS_GEOMETR�
 10
5306.94104
 20
1170.313899
 40
80.105557
 50
212.971123
 51
230.232657
  0
ARC
  8
APS_GEOMETR�
 10
5249.419439
 20
1133.462121
 40
4.859679
 50
18.840972
 51
42.638516
  0
ARC
  8
APS_GEOMETR�
 10
5249.683165
 20
1133.720235
 40
4.490847
 50
42.495128
 51
67.604385
  0
ARC
  8
APS_GEOMETR�
 10
5249.763732
 20
1133.918563
 40
4.276781
 50
67.59002
 51
93.491008
  0
ARC
  8
APS_GEOMETR�
 10
5249.770822
 20
1133.885513
 40
4.310204
 50
93.558333
 51
119.338377
  0
ARC
  8
APS_GEOMETR�
 10
5249.90123
 20
1133.643698
 40
4.584902
 50
119.278395
 51
144.042089
  0
ARC
  8
APS_GEOMETR�
 10
5250.191091
 20
1133.417306
 40
4.952482
 50
143.89112
 51
167.378327
  0
ARC
  8
APS_GEOMETR�
 10
5250.369034
 20
1133.366361
 40
5.137269
 50
167.257534
 51
190.149906
  0
ARC
  8
APS_GEOMETR�
 10
5197.428798
 20
1125.687528
 40
3.917608
 50
128.710752
 51
154.752467
  0
ARC
  8
APS_GEOMETR�
 10
5197.678952
 20
1125.555199
 40
4.200329
 50
154.575269
 51
179.380655
  0
ARC
  8
APS_GEOMETR�
 10
5197.688284
 20
1125.544836
 40
4.209785
 50
179.240994
 51
204.006957
  0
ARC
  8
APS_GEOMETR�
 10
5197.443843
 20
1125.422829
 40
3.936869
 50
203.832276
 51
229.78612
  0
ARC
  8
APS_GEOMETR�
 10
5197.253637
 20
1125.183645
 40
3.631425
 50
229.641308
 51
257.040387
  0
ARC
  8
APS_GEOMETR�
 10
5197.22695
 20
1125.080073
 40
3.524508
 50
257.085568
 51
284.985965
  0
ARC
  8
APS_GEOMETR�
 10
5357.96017
 20
1108.406262
 40
4.079937
 50
77.67014
 51
104.421565
  0
ARC
  8
APS_GEOMETR�
 10
5357.895783
 20
1108.15957
 40
4.3347
 50
51.790343
 51
77.535014
  0
ARC
  8
APS_GEOMETR�
 10
5357.446284
 20
1107.568044
 40
5.077543
 50
28.780021
 51
51.93351
  0
ARC
  8
APS_GEOMETR�
 10
5356.755645
 20
1107.163377
 40
5.877738
 50
8.045485
 51
28.996176
  0
ARC
  8
APS_GEOMETR�
 10
5356.463737
 20
1107.103363
 40
6.1752
 50
347.964004
 51
8.217769
  0
ARC
  8
APS_GEOMETR�
 10
5352.378571
 20
1107.934439
 40
10.343937
 50
325.528905
 51
348.180344
  0
ARC
  8
APS_GEOMETR�
 10
5353.684666
 20
1106.989349
 40
8.732355
 50
300.359298
 51
325.790743
  0
ARC
  8
APS_GEOMETR�
 10
5354.269806
 20
1105.972906
 40
7.559557
 50
272.453246
 51
300.426222
  0
ARC
  8
APS_GEOMETR�
 10
5354.300646
 20
1105.883775
 40
7.469236
 50
244.063866
 51
272.246155
  0
ARC
  8
APS_GEOMETR�
 10
5354.742031
 20
1106.792675
 40
8.479642
 50
218.126646
 51
244.067891
  0
ARC
  8
APS_GEOMETR�
 10
5355.990611
 20
1107.83002
 40
10.102394
 50
195.360888
 51
218.382713
  0
ARC
  8
APS_GEOMETR�
 10
5356.961748
 20
1108.14208
 40
11.121589
 50
174.035297
 51
195.585816
  0
ARC
  8
APS_GEOMETR�
 10
5356.551183
 20
1108.223409
 40
10.704863
 50
152.115949
 51
174.239887
  0
ARC
  8
APS_GEOMETR�
 10
5360.10511
 20
1106.46497
 40
14.668955
 50
124.2922
 51
152.537156
  0
ARC
  8
APS_GEOMETR�
 10
5358.807957
 20
1108.424845
 40
12.318964
 50
92.71754
 51
124.443564
  0
ARC
  8
APS_GEOMETR�
 10
5358.743043
 20
1108.597533
 40
12.143525
 50
60.445217
 51
92.450239
  0
ARC
  8
APS_GEOMETR�
 10
5357.745348
 20
1106.808931
 40
14.191528
 50
31.611604
 51
60.503187
  0
ARC
  8
APS_GEOMETR�
 10
5410.161322
 20
1139.669644
 40
47.673959
 50
212.22526
 51
219.808103
  0
ARC
  8
APS_GEOMETR�
 10
5405.705775
 20
1135.301154
 40
41.457506
 50
219.112479
 51
250.257693
  0
ARC
  8
APS_GEOMETR�
 10
5404.157884
 20
1131.245258
 40
37.11725
 50
250.391783
 51
283.798974
  0
ARC
  8
APS_GEOMETR�
 10
5396.88458
 20
1150.276292
 40
57.389358
 50
286.31985
 51
307.421331
  0
ARC
  8
APS_GEOMETR�
 10
5406.104139
 20
1138.588268
 40
42.504967
 50
307.12533
 51
332.969335
  0
ARC
  8
APS_GEOMETR�
 10
5624.054727
 20
826.91108
 40
343.374951
 50
121.632317
 51
121.632347
  0
ARC
  8
APS_GEOMETR�
 10
5624.054727
 20
826.91108
 40
343.374951
 50
118.180307
 51
121.632317
  0
ARC
  8
APS_GEOMETR�
 10
5480.387689
 20
1095.316667
 40
38.938328
 50
87.206726
 51
118.351544
  0
ARC
  8
APS_GEOMETR�
 10
5481.875343
 20
1126.034864
 40
8.184139
 50
61.955842
 51
87.129094
  0
ARC
  8
APS_GEOMETR�
 10
5481.650332
 20
1125.596728
 40
8.676624
 50
37.768507
 51
62.004699
  0
ARC
  8
APS_GEOMETR�
 10
5481.121201
 20
1125.157797
 40
9.363759
 50
14.903129
 51
37.908587
  0
ARC
  8
APS_GEOMETR�
 10
5480.74381
 20
1125.037036
 40
9.759533
 50
352.668199
 51
15.018421
  0
ARC
  8
APS_GEOMETR�
 10
5480.943191
 20
1124.993735
 40
9.556272
 50
330.091087
 51
352.773145
  0
ARC
  8
APS_GEOMETR�
 10
5481.488506
 20
1124.655221
 40
8.914818
 50
306.43333
 51
330.22942
  0
ARC
  8
APS_GEOMETR�
 10
5481.837986
 20
1124.158166
 40
8.307374
 50
281.591044
 51
306.530033
  0
ARC
  8
APS_GEOMETR�
 10
5482.156089
 20
1122.633282
 40
6.749674
 50
255.098806
 51
281.54666
  0
ARC
  8
APS_GEOMETR�
 10
5482.218599
 20
1122.853504
 40
6.978566
 50
229.158377
 51
255.067794
  0
ARC
  8
APS_GEOMETR�
 10
5482.573288
 20
1123.289746
 40
7.540567
 50
204.690798
 51
229.287242
  0
ARC
  8
APS_GEOMETR�
 10
5483.023672
 20
1123.520019
 40
8.045992
 50
181.329607
 51
204.840947
  0
ARC
  8
APS_GEOMETR�
 10
5483.057662
 20
1123.537319
 40
8.080392
 50
158.005794
 51
181.446656
  0
ARC
  8
APS_GEOMETR�
 10
5482.673855
 20
1089.136176
 40
38.096426
 50
100.753994
 51
137.73499
  0
ARC
  8
APS_GEOMETR�
 10
5353.893821
 20
1209.023429
 40
137.853794
 50
305.480346
 51
316.858312
  0
ARC
  8
APS_GEOMETR�
 10
5407.852756
 20
1131.405617
 40
43.343688
 50
286.419646
 51
306.950007
  0
ARC
  8
APS_GEOMETR�
 10
5405.329017
 20
1139.127892
 40
51.464962
 50
268.406922
 51
286.684562
  0
ARC
  8
APS_GEOMETR�
 10
5407.974357
 20
1140.16614
 40
52.641365
 50
244.856852
 51
265.559045
  0
ARC
  8
APS_GEOMETR�
 10
5402.587158
 20
1129.325521
 40
40.539889
 50
220.524246
 51
245.239555
  0
ARC
  8
APS_GEOMETR�
 10
5352.118628
 20
1108.769824
 40
20.486902
 50
321.668669
 51
343.595347
  0
ARC
  8
APS_GEOMETR�
 10
5354.544864
 20
1106.765934
 40
17.340973
 50
297.329757
 51
321.890552
  0
ARC
  8
APS_GEOMETR�
 10
5355.491697
 20
1104.919459
 40
15.265902
 50
270.650001
 51
297.354494
  0
ARC
  8
APS_GEOMETR�
 10
5355.541931
 20
1104.877984
 40
15.223943
 50
243.712367
 51
270.462727
  0
ARC
  8
APS_GEOMETR�
 10
5356.42401
 20
1106.671513
 40
17.222642
 50
219.049596
 51
243.723868
  0
ARC
  8
APS_GEOMETR�
 10
5358.814457
 20
1108.71132
 40
20.364279
 50
197.252556
 51
219.269479
  0
ARC
  8
APS_GEOMETR�
 10
5319.918411
 20
1108.71132
 40
20.364279
 50
320.730521
 51
342.747444
  0
ARC
  8
APS_GEOMETR�
 10
5322.308858
 20
1106.671513
 40
17.222642
 50
296.276132
 51
320.950404
  0
ARC
  8
APS_GEOMETR�
 10
5323.190938
 20
1104.877984
 40
15.223943
 50
269.537273
 51
296.287633
  0
ARC
  8
APS_GEOMETR�
 10
5323.241172
 20
1104.919459
 40
15.265902
 50
242.645506
 51
269.349999
  0
ARC
  8
APS_GEOMETR�
 10
5324.188004
 20
1106.765934
 40
17.340973
 50
218.109448
 51
242.670243
  0
ARC
  8
APS_GEOMETR�
 10
5326.614241
 20
1108.769824
 40
20.486902
 50
196.404653
 51
218.331331
  0
ARC
  8
APS_GEOMETR�
 10
5276.145711
 20
1129.325521
 40
40.539889
 50
294.760445
 51
319.475754
  0
ARC
  8
APS_GEOMETR�
 10
5270.758512
 20
1140.16614
 40
52.641365
 50
274.440955
 51
295.143148
  0
ARC
  8
APS_GEOMETR�
 10
5273.403851
 20
1139.127892
 40
51.464962
 50
253.315438
 51
271.593078
  0
ARC
  8
APS_GEOMETR�
 10
5270.880113
 20
1131.405617
 40
43.343688
 50
233.049993
 51
253.580354
  0
ARC
  8
APS_GEOMETR�
 10
5324.839048
 20
1209.023429
 40
137.853794
 50
223.141688
 51
234.519654
  0
ARC
  8
APS_GEOMETR�
 10
5196.059013
 20
1089.136176
 40
38.096426
 50
42.26501
 51
79.246006
  0
ARC
  8
APS_GEOMETR�
 10
5195.675207
 20
1123.537319
 40
8.080392
 50
358.553344
 51
21.994206
  0
ARC
  8
APS_GEOMETR�
 10
5195.709197
 20
1123.520019
 40
8.045992
 50
335.159053
 51
358.670393
  0
ARC
  8
APS_GEOMETR�
 10
5196.159581
 20
1123.289746
 40
7.540567
 50
310.712758
 51
335.309202
  0
ARC
  8
APS_GEOMETR�
 10
5196.51427
 20
1122.853504
 40
6.978566
 50
284.932206
 51
310.841623
  0
ARC
  8
APS_GEOMETR�
 10
5196.57678
 20
1122.633282
 40
6.749674
 50
258.45334
 51
284.901194
  0
ARC
  8
APS_GEOMETR�
 10
5196.894883
 20
1124.158166
 40
8.307374
 50
233.469967
 51
258.408956
  0
ARC
  8
APS_GEOMETR�
 10
5197.244363
 20
1124.655221
 40
8.914818
 50
209.77058
 51
233.56667
  0
ARC
  8
APS_GEOMETR�
 10
5197.789678
 20
1124.993735
 40
9.556272
 50
187.226855
 51
209.908913
  0
ARC
  8
APS_GEOMETR�
 10
5197.989059
 20
1125.037036
 40
9.759533
 50
164.981579
 51
187.331801
  0
ARC
  8
APS_GEOMETR�
 10
5197.611668
 20
1125.157797
 40
9.363759
 50
142.091413
 51
165.096871
  0
ARC
  8
APS_GEOMETR�
 10
5197.082536
 20
1125.596728
 40
8.676624
 50
117.995301
 51
142.231493
  0
ARC
  8
APS_GEOMETR�
 10
5196.857525
 20
1126.034864
 40
8.184139
 50
92.870906
 51
118.044158
  0
ARC
  8
APS_GEOMETR�
 10
5198.345179
 20
1095.316667
 40
38.938328
 50
61.648456
 51
92.793274
  0
ARC
  8
APS_GEOMETR�
 10
5054.678142
 20
826.91108
 40
343.374951
 50
58.367683
 51
61.819693
  0
ARC
  8
APS_GEOMETR�
 10
5235.054635
 20
1123.453323
 40
4.191978
 50
266.0615
 51
291.748618
  0
ARC
  8
APS_GEOMETR�
 10
5234.878508
 20
1123.884801
 40
4.658006
 50
291.794284
 51
317.190901
  0
ARC
  8
APS_GEOMETR�
 10
5234.256815
 20
1124.488734
 40
5.524539
 50
316.977433
 51
339.598878
  0
ARC
  8
APS_GEOMETR�
 10
5233.621537
 20
1124.749458
 40
6.210898
 50
339.387455
 51
0.26483
  0
ARC
  8
APS_GEOMETR�
 10
5233.628369
 20
1124.768645
 40
6.204007
 50
0.087932
 51
20.981215
  0
ARC
  8
APS_GEOMETR�
 10
5252.585676
 20
1132.033431
 40
14.097634
 50
177.885394
 51
200.961816
  0
ARC
  8
APS_GEOMETR�
 10
5252.392553
 20
1132.099934
 40
13.902315
 50
154.830171
 51
178.12992
  0
ARC
  8
APS_GEOMETR�
 10
5250.656659
 20
1132.985453
 40
11.954795
 50
129.28233
 51
155.132875
  0
ARC
  8
APS_GEOMETR�
 10
5249.446636
 20
1134.521343
 40
9.999909
 50
100.336903
 51
129.487658
  0
ARC
  8
APS_GEOMETR�
 10
5249.319174
 20
1135.036367
 40
9.47043
 50
69.982244
 51
100.137384
  0
ARC
  8
APS_GEOMETR�
 10
5250.172457
 20
1137.399752
 40
6.957741
 50
44.081034
 51
69.92229
  0
ARC
  8
APS_GEOMETR�
 10
5249.255337
 20
1136.468722
 40
8.264313
 50
21.297651
 51
44.294528
  0
ARC
  8
APS_GEOMETR�
 10
5248.264609
 20
1136.043814
 40
9.341782
 50
0.374633
 51
21.51872
  0
ARC
  8
APS_GEOMETR�
 10
5248.23708
 20
1136.013679
 40
9.369555
 50
339.45677
 51
0.557807
  0
ARC
  8
APS_GEOMETR�
 10
5249.203385
 20
1135.617651
 40
8.325788
 50
316.794697
 51
339.675288
  0
ARC
  8
APS_GEOMETR�
 10
5250.145954
 20
1134.69559
 40
7.00754
 50
291.295096
 51
317.013814
  0
ARC
  8
APS_GEOMETR�
 10
5252.004164
 20
1129.931248
 40
1.893648
 50
258.046562
 51
291.262921
  0
ARC
  8
APS_GEOMETR�
 10
5251.640522
 20
1127.432962
 40
0.646332
 50
92.532966
 51
120.405009
  0
ARC
  8
APS_GEOMETR�
 10
5251.690343
 20
1127.346355
 40
0.746242
 50
120.338678
 51
145.68642
  0
ARC
  8
APS_GEOMETR�
 10
5251.801549
 20
1127.265619
 40
0.883616
 50
145.42732
 51
168.010841
  0
ARC
  8
APS_GEOMETR�
 10
5251.86952
 20
1127.247545
 40
0.953867
 50
167.796975
 51
189.223896
  0
ARC
  8
APS_GEOMETR�
 10
5251.816512
 20
1127.235636
 40
0.899641
 50
189.016381
 51
211.322891
  0
ARC
  8
APS_GEOMETR�
 10
5283.937812
 20
1146.601206
 40
38.407009
 50
211.090867
 51
235.351953
  0
ARC
  8
APS_GEOMETR�
 10
5280.869362
 20
1142.042606
 40
32.912383
 50
235.234572
 51
262.126353
  0
ARC
  8
APS_GEOMETR�
 10
5280.600028
 20
1140.807801
 40
31.652474
 50
262.303098
 51
289.859914
  0
ARC
  8
APS_GEOMETR�
 10
5282.256769
 20
1135.913511
 40
26.486642
 50
290.085943
 51
327.32729
  0
ARC
  8
APS_GEOMETR�
 10
5322.081962
 20
1110.144031
 40
20.9492
 50
119.198482
 51
146.800214
  0
ARC
  8
APS_GEOMETR�
 10
5320.682227
 20
1112.682702
 40
18.050271
 50
88.811378
 51
119.251106
  0
ARC
  8
APS_GEOMETR�
 10
5320.601806
 20
1112.556616
 40
18.178165
 50
58.258111
 51
88.566195
  0
ARC
  8
APS_GEOMETR�
 10
5318.988431
 20
1109.881414
 40
21.302044
 50
31.063522
 51
58.35319
  0
ARC
  8
APS_GEOMETR�
 10
5319.393885
 20
1109.921252
 40
20.93491
 50
17.440095
 51
31.542707
  0
ARC
  8
APS_GEOMETR�
 10
5359.338984
 20
1109.921252
 40
20.93491
 50
148.457293
 51
162.559905
  0
ARC
  8
APS_GEOMETR�
 10
5359.744437
 20
1109.881414
 40
21.302044
 50
121.64681
 51
148.936478
  0
ARC
  8
APS_GEOMETR�
 10
5358.131063
 20
1112.556616
 40
18.178165
 50
91.433805
 51
121.741889
  0
ARC
  8
APS_GEOMETR�
 10
5358.050641
 20
1112.682702
 40
18.050271
 50
60.748894
 51
91.188622
  0
ARC
  8
APS_GEOMETR�
 10
5356.650906
 20
1110.144031
 40
20.9492
 50
33.199786
 51
60.801518
  0
ARC
  8
APS_GEOMETR�
 10
5396.4761
 20
1135.913511
 40
26.486642
 50
212.67271
 51
249.914057
  0
ARC
  8
APS_GEOMETR�
 10
5398.132841
 20
1140.807801
 40
31.652474
 50
250.140086
 51
277.696902
  0
ARC
  8
APS_GEOMETR�
 10
5397.863507
 20
1142.042606
 40
32.912383
 50
277.873647
 51
304.765428
  0
ARC
  8
APS_GEOMETR�
 10
5394.795056
 20
1146.601206
 40
38.407009
 50
304.648047
 51
328.909133
  0
ARC
  8
APS_GEOMETR�
 10
5426.916357
 20
1127.235636
 40
0.899641
 50
328.677109
 51
350.983619
  0
ARC
  8
APS_GEOMETR�
 10
5426.863348
 20
1127.247545
 40
0.953867
 50
350.776104
 51
12.203025
  0
ARC
  8
APS_GEOMETR�
 10
5426.93132
 20
1127.265619
 40
0.883616
 50
11.989159
 51
34.57268
  0
ARC
  8
APS_GEOMETR�
 10
5427.042526
 20
1127.346355
 40
0.746242
 50
34.31358
 51
59.661322
  0
ARC
  8
APS_GEOMETR�
 10
5427.092346
 20
1127.432962
 40
0.646332
 50
59.594991
 51
87.467034
  0
ARC
  8
APS_GEOMETR�
 10
5426.728704
 20
1129.931248
 40
1.893648
 50
248.737079
 51
281.953438
  0
ARC
  8
APS_GEOMETR�
 10
5428.586915
 20
1134.69559
 40
7.00754
 50
222.986186
 51
248.704904
  0
ARC
  8
APS_GEOMETR�
 10
5429.529484
 20
1135.617651
 40
8.325788
 50
200.324712
 51
223.205303
  0
ARC
  8
APS_GEOMETR�
 10
5430.495789
 20
1136.013679
 40
9.369555
 50
179.442193
 51
200.54323
  0
ARC
  8
APS_GEOMETR�
 10
5430.46826
 20
1136.043814
 40
9.341782
 50
158.48128
 51
179.625367
  0
ARC
  8
APS_GEOMETR�
 10
5429.477532
 20
1136.468722
 40
8.264313
 50
135.705472
 51
158.702349
  0
ARC
  8
APS_GEOMETR�
 10
5428.560412
 20
1137.399752
 40
6.957741
 50
110.07771
 51
135.918966
  0
ARC
  8
APS_GEOMETR�
 10
5429.413694
 20
1135.036367
 40
9.47043
 50
79.862616
 51
110.017756
  0
ARC
  8
APS_GEOMETR�
 10
5429.286233
 20
1134.521343
 40
9.999909
 50
50.512342
 51
79.663097
  0
ARC
  8
APS_GEOMETR�
 10
5428.07621
 20
1132.985453
 40
11.954795
 50
24.867125
 51
50.71767
  0
ARC
  8
APS_GEOMETR�
 10
5426.340315
 20
1132.099934
 40
13.902315
 50
1.87008
 51
25.169829
  0
ARC
  8
APS_GEOMETR�
 10
5426.147193
 20
1132.033431
 40
14.097634
 50
339.038184
 51
2.114606
  0
ARC
  8
APS_GEOMETR�
 10
5445.1045
 20
1124.768645
 40
6.204007
 50
159.018785
 51
179.912068
  0
ARC
  8
APS_GEOMETR�
 10
5445.111332
 20
1124.749458
 40
6.210898
 50
179.73517
 51
200.612545
  0
ARC
  8
APS_GEOMETR�
 10
5444.476053
 20
1124.488734
 40
5.524539
 50
200.401122
 51
223.022567
  0
ARC
  8
APS_GEOMETR�
 10
5443.854361
 20
1123.884801
 40
4.658006
 50
222.809099
 51
248.205716
  0
ARC
  8
APS_GEOMETR�
 10
5443.678234
 20
1123.453323
 40
4.191978
 50
248.251382
 51
273.9385
  0
ARC
  8
APS_GEOMETR�
 10
5481.304071
 20
1125.687528
 40
3.917608
 50
25.247533
 51
51.289248
  0
ARC
  8
APS_GEOMETR�
 10
5481.053916
 20
1125.555199
 40
4.200329
 50
0.619345
 51
25.424731
  0
ARC
  8
APS_GEOMETR�
 10
5481.044584
 20
1125.544836
 40
4.209785
 50
335.993043
 51
0.759006
  0
ARC
  8
APS_GEOMETR�
 10
5481.289025
 20
1125.422829
 40
3.936869
 50
310.21388
 51
336.167724
  0
ARC
  8
APS_GEOMETR�
 10
5481.479232
 20
1125.183645
 40
3.631425
 50
282.959613
 51
310.358692
  0
ARC
  8
APS_GEOMETR�
 10
5481.505918
 20
1125.080073
 40
3.524508
 50
255.014035
 51
282.914432
  0
ARC
  8
APS_GEOMETR�
 10
6786.424103
 20
88.970587
 40
50.0
 50
28.386038
 51
90.0
  0
LINE
  8
APS_GEOMETR�
 10
6786.424103
 11
6670.588182
 20
138.970587
 21
138.970587
  0
LINE
  8
APS_GEOMETR�
 10
6670.588182
 11
6670.588182
 20
138.970587
 21
408.970587
  0
LINE
  8
APS_GEOMETR�
 10
6670.588182
 11
7170.588182
 20
408.970587
 21
408.970587
  0
LINE
  8
APS_GEOMETR�
 10
7170.588182
 11
7170.588182
 20
408.970587
 21
138.970587
  0
LINE
  8
APS_GEOMETR�
 10
7170.588182
 11
7054.75226
 20
138.970587
 21
138.970587
  0
ARC
  8
APS_GEOMETR�
 10
7054.75226
 20
88.970587
 40
50.0
 50
90.0
 51
151.613962
  0
ARC
  8
APS_GEOMETR�
 10
6920.588182
 20
161.470587
 40
102.5
 50
208.386038
 51
331.613962
  0
ARC
  8
APS_GEOMETR�
 10
6786.424103
 20
495.832821
 40
50.0
 50
28.386038
 51
90.0
  0
LINE
  8
APS_GEOMETR�
 10
6786.424103
 11
6670.588182
 20
545.832821
 21
545.832821
  0
LINE
  8
APS_GEOMETR�
 10
6670.588182
 11
6670.588182
 20
545.832821
 21
815.832821
  0
LINE
  8
APS_GEOMETR�
 10
6670.588182
 11
7170.588182
 20
815.832821
 21
815.832821
  0
LINE
  8
APS_GEOMETR�
 10
7170.588182
 11
7170.588182
 20
815.832821
 21
545.832821
  0
LINE
  8
APS_GEOMETR�
 10
7170.588182
 11
7054.75226
 20
545.832821
 21
545.832821
  0
ARC
  8
APS_GEOMETR�
 10
7054.75226
 20
495.832821
 40
50.0
 50
90.0
 51
151.613962
  0
ARC
  8
APS_GEOMETR�
 10
6920.588182
 20
568.332821
 40
102.5
 50
208.386038
 51
331.613962
  0
LINE
  8
APS_GEOMETR�
 10
2215.850384
 11
3012.715766
 20
2660.441706
 21
2660.441706
  0
ARC
  8
APS_GEOMETR�
 10
3819.17412
 20
2944.603375
 40
855.057268
 50
161.540808
 51
199.410293
  0
ARC
  8
APS_GEOMETR�
 10
3167.83809
 20
3162.000822
 40
168.398494
 50
157.877268
 51
161.534088
  0
ARC
  8
APS_GEOMETR�
 10
2994.514242
 20
3194.171097
 40
35.727779
 50
60.9967
 51
68.938623
  0
ARC
  8
APS_GEOMETR�
 10
2986.572749
 20
3174.881871
 40
56.584352
 50
68.453552
 51
86.235134
  0
ARC
  8
APS_GEOMETR�
 10
3001.123639
 20
3399.900328
 40
168.904132
 50
246.099445
 51
266.321866
  0
ARC
  8
APS_GEOMETR�
 10
2987.022994
 20
3369.680679
 40
135.564483
 50
221.686429
 51
246.373325
  0
ARC
  8
APS_GEOMETR�
 10
2817.264039
 20
3217.827278
 40
92.202795
 50
42.000047
 51
70.963882
  0
ARC
  8
APS_GEOMETR�
 10
2799.901469
 20
3173.868088
 40
139.436485
 50
70.11115
 51
93.709258
  0
ARC
  8
APS_GEOMETR�
 10
2799.824051
 20
3175.062256
 40
138.239811
 50
93.709258
 51
108.497914
  0
ARC
  8
APS_GEOMETR�
 10
2733.352755
 20
3373.748059
 40
71.270288
 50
222.225529
 51
288.497914
  0
ARC
  8
APS_GEOMETR�
 10
2614.283075
 20
3265.685555
 40
89.524903
 50
42.225529
 51
137.774471
  0
ARC
  8
APS_GEOMETR�
 10
2495.213395
 20
3373.748059
 40
71.270288
 50
251.502086
 51
317.774471
  0
ARC
  8
APS_GEOMETR�
 10
2428.742098
 20
3175.062256
 40
138.239811
 50
71.502086
 51
86.290742
  0
ARC
  8
APS_GEOMETR�
 10
2428.664681
 20
3173.868088
 40
139.436485
 50
86.290742
 51
109.88885
  0
ARC
  8
APS_GEOMETR�
 10
2411.302111
 20
3217.827278
 40
92.202795
 50
109.036118
 51
137.999953
  0
ARC
  8
APS_GEOMETR�
 10
2241.543156
 20
3369.680679
 40
135.564483
 50
293.626675
 51
318.313571
  0
ARC
  8
APS_GEOMETR�
 10
2227.442511
 20
3399.900328
 40
168.904132
 50
273.678134
 51
293.900555
  0
ARC
  8
APS_GEOMETR�
 10
2241.993401
 20
3174.881871
 40
56.584352
 50
93.764866
 51
111.546448
  0
ARC
  8
APS_GEOMETR�
 10
2234.051908
 20
3194.171097
 40
35.727779
 50
111.061377
 51
119.0033
  0
ARC
  8
APS_GEOMETR�
 10
2060.72806
 20
3162.000822
 40
168.398494
 50
18.465912
 51
22.122732
  0
ARC
  8
APS_GEOMETR�
 10
1409.39203
 20
2944.603375
 40
855.057268
 50
340.589707
 51
18.459192
  0
LINE
  8
APS_GEOMETR�
 10
1298.891536
 11
2311.710542
 20
4406.217168
 21
4396.088978
  0
ARC
  8
APS_GEOMETR�
 10
3776.125404
 20
1177.572792
 40
78.89411
 50
327.29109
 51
346.107743
  0
ARC
  8
APS_GEOMETR�
 10
3761.175293
 20
1181.685942
 40
94.39533
 50
345.862911
 51
2.548132
  0
ARC
  8
APS_GEOMETR�
 10
3767.171411
 20
1180.548243
 40
88.46685
 50
3.456926
 51
38.19309
  0
ARC
  8
APS_GEOMETR�
 10
3699.895782
 20
1128.60142
 40
173.462025
 50
37.93849
 51
55.242002
  0
ARC
  8
APS_GEOMETR�
 10
3784.770782
 20
1248.583851
 40
10.183011
 50
79.192624
 51
249.830374
  0
ARC
  8
APS_GEOMETR�
 10
3801.25601
 20
1366.618997
 40
8.421228
 50
345.926039
 51
143.147271
  0
ARC
  8
APS_GEOMETR�
 10
3776.125404
 20
916.978369
 40
78.89411
 50
13.892257
 51
32.70891
  0
ARC
  8
APS_GEOMETR�
 10
3761.175293
 20
912.865219
 40
94.39533
 50
357.451868
 51
14.137089
  0
ARC
  8
APS_GEOMETR�
 10
3767.171411
 20
914.002918
 40
88.46685
 50
321.80691
 51
356.543074
  0
ARC
  8
APS_GEOMETR�
 10
3699.895782
 20
965.949741
 40
173.462025
 50
304.757998
 51
322.06151
  0
ARC
  8
APS_GEOMETR�
 10
3784.770782
 20
845.96731
 40
10.183011
 50
110.169626
 51
280.807376
  0
ARC
  8
APS_GEOMETR�
 10
3801.25601
 20
727.932164
 40
8.421228
 50
216.852729
 51
14.073961
  0
ARC
  8
APS_GEOMETR�
 10
3838.552044
 20
1005.50098
 40
9.749689
 50
166.45669
 51
191.579992
  0
ARC
  8
APS_GEOMETR�
 10
3838.8694
 20
1005.581547
 40
10.076769
 50
191.666546
 51
216.256703
  0
ARC
  8
APS_GEOMETR�
 10
3839.596848
 20
1006.109781
 40
10.975766
 50
216.234458
 51
239.453487
  0
ARC
  8
APS_GEOMETR�
 10
3840.082762
 20
1006.898502
 40
11.901999
 50
239.368668
 51
261.347251
  0
ARC
  8
APS_GEOMETR�
 10
3840.153856
 20
1007.227929
 40
12.238389
 50
261.250229
 51
282.817534
  0
ARC
  8
APS_GEOMETR�
 10
3838.209045
 20
1015.968989
 40
21.193129
 50
282.701748
 51
306.270349
  0
ARC
  8
APS_GEOMETR�
 10
3839.346361
 20
1014.470716
 40
19.312363
 50
306.179652
 51
331.282112
  0
ARC
  8
APS_GEOMETR�
 10
3840.61416
 20
1013.769885
 40
17.863761
 50
331.299599
 51
357.739737
  0
ARC
  8
APS_GEOMETR�
 10
3840.730577
 20
1013.728002
 40
17.745822
 50
357.860036
 51
24.41307
  0
ARC
  8
APS_GEOMETR�
 10
3839.586661
 20
1013.193402
 40
19.008421
 50
24.455288
 51
49.827862
  0
ARC
  8
APS_GEOMETR�
 10
3838.333401
 20
1011.754376
 40
20.916476
 50
49.747514
 51
73.527462
  0
ARC
  8
APS_GEOMETR�
 10
3837.963268
 20
1010.657704
 40
22.073134
 50
73.413319
 51
96.339526
  0
ARC
  8
APS_GEOMETR�
 10
3837.867631
 20
1011.119609
 40
21.603538
 50
96.222702
 51
119.486195
  0
ARC
  8
APS_GEOMETR�
 10
3842.859159
 20
1002.089377
 40
31.921178
 50
119.307049
 51
147.47914
  0
ARC
  8
APS_GEOMETR�
 10
3840.426704
 20
1003.640665
 40
29.036159
 50
147.479802
 51
177.496937
  0
ARC
  8
APS_GEOMETR�
 10
3840.198294
 20
1003.733979
 40
28.804012
 50
177.662534
 51
207.834076
  0
ARC
  8
APS_GEOMETR�
 10
3842.443545
 20
1004.943815
 40
31.354391
 50
207.873412
 51
236.390834
  0
ARC
  8
APS_GEOMETR�
 10
3768.692951
 20
894.912649
 40
101.107266
 50
48.383845
 51
56.097898
  0
ARC
  8
APS_GEOMETR�
 10
3773.687614
 20
899.747679
 40
94.176856
 50
18.540939
 51
48.701996
  0
ARC
  8
APS_GEOMETR�
 10
3778.918939
 20
901.699346
 40
88.596656
 50
347.03309
 51
18.42007
  0
ARC
  8
APS_GEOMETR�
 10
3737.202267
 20
916.89583
 40
132.771289
 50
324.449263
 51
344.681311
  0
ARC
  8
APS_GEOMETR�
 10
3770.240712
 20
892.787506
 40
91.874922
 50
298.794824
 51
324.701971
  0
ARC
  8
APS_GEOMETR�
 10
3770.240712
 20
1201.763655
 40
91.874922
 50
35.298029
 51
61.205176
  0
ARC
  8
APS_GEOMETR�
 10
3737.202267
 20
1177.655331
 40
132.771289
 50
15.318689
 51
35.550737
  0
ARC
  8
APS_GEOMETR�
 10
3778.918939
 20
1192.851815
 40
88.596656
 50
341.57993
 51
12.96691
  0
ARC
  8
APS_GEOMETR�
 10
3773.687614
 20
1194.803482
 40
94.176856
 50
311.298004
 51
341.459061
  0
ARC
  8
APS_GEOMETR�
 10
3768.692951
 20
1199.638512
 40
101.107266
 50
303.902102
 51
311.616155
  0
ARC
  8
APS_GEOMETR�
 10
3842.443545
 20
1089.607346
 40
31.354391
 50
123.609166
 51
152.126588
  0
ARC
  8
APS_GEOMETR�
 10
3840.198294
 20
1090.817182
 40
28.804012
 50
152.165924
 51
182.337466
  0
ARC
  8
APS_GEOMETR�
 10
3840.426704
 20
1090.910496
 40
29.036159
 50
182.503063
 51
212.520198
  0
ARC
  8
APS_GEOMETR�
 10
3842.859159
 20
1092.461784
 40
31.921178
 50
212.52086
 51
240.692951
  0
ARC
  8
APS_GEOMETR�
 10
3837.867631
 20
1083.431553
 40
21.603538
 50
240.513805
 51
263.777298
  0
ARC
  8
APS_GEOMETR�
 10
3837.963268
 20
1083.893457
 40
22.073134
 50
263.660474
 51
286.586681
  0
ARC
  8
APS_GEOMETR�
 10
3838.333401
 20
1082.796785
 40
20.916476
 50
286.472538
 51
310.252486
  0
ARC
  8
APS_GEOMETR�
 10
3839.586661
 20
1081.357759
 40
19.008421
 50
310.172138
 51
335.544712
  0
ARC
  8
APS_GEOMETR�
 10
3840.730577
 20
1080.823159
 40
17.745822
 50
335.58693
 51
2.139964
  0
ARC
  8
APS_GEOMETR�
 10
3840.61416
 20
1080.781276
 40
17.863761
 50
2.260263
 51
28.700401
  0
ARC
  8
APS_GEOMETR�
 10
3839.346361
 20
1080.080445
 40
19.312363
 50
28.717888
 51
53.820348
  0
ARC
  8
APS_GEOMETR�
 10
3838.209045
 20
1078.582173
 40
21.193129
 50
53.729651
 51
77.298252
  0
ARC
  8
APS_GEOMETR�
 10
3840.153856
 20
1087.323233
 40
12.238389
 50
77.182466
 51
98.749771
  0
ARC
  8
APS_GEOMETR�
 10
3840.082762
 20
1087.652659
 40
11.901999
 50
98.652749
 51
120.631332
  0
ARC
  8
APS_GEOMETR�
 10
3839.596848
 20
1088.44138
 40
10.975766
 50
120.546513
 51
143.765542
  0
ARC
  8
APS_GEOMETR�
 10
3838.8694
 20
1088.969614
 40
10.076769
 50
143.743297
 51
168.333454
  0
ARC
  8
APS_GEOMETR�
 10
3838.552044
 20
1089.050181
 40
9.749689
 50
168.420008
 51
193.54331
  0
ARC
  8
APS_GEOMETR�
 10
4494.782861
 20
418.998529
 40
785.784295
 50
149.96783
 51
153.306367
  0
ARC
  8
APS_GEOMETR�
 10
4131.069298
 20
618.750901
 40
371.408234
 50
155.632683
 51
169.282684
  0
ARC
  8
APS_GEOMETR�
 10
4138.093777
 20
617.421413
 40
378.557419
 50
169.282684
 51
195.976261
  0
ARC
  8
APS_GEOMETR�
 10
3947.898602
 20
563.722924
 40
180.929907
 50
196.205758
 51
227.540395
  0
ARC
  8
APS_GEOMETR�
 10
3778.219052
 20
378.525806
 40
70.245706
 50
23.883859
 51
47.409391
  0
ARC
  8
APS_GEOMETR�
 10
3782.510004
 20
380.522438
 40
65.513852
 50
359.154214
 51
23.806619
  0
ARC
  8
APS_GEOMETR�
 10
3782.317131
 20
380.672304
 40
65.70908
 50
334.42278
 51
359.026034
  0
ARC
  8
APS_GEOMETR�
 10
4000.394058
 20
276.300482
 40
176.057384
 50
154.424702
 51
178.731838
  0
ARC
  8
APS_GEOMETR�
 10
3999.7164
 20
276.694269
 40
175.371585
 50
178.855561
 51
203.226402
  0
ARC
  8
APS_GEOMETR�
 10
4010.903497
 20
281.768394
 40
187.653237
 50
203.303064
 51
226.592067
  0
ARC
  8
APS_GEOMETR�
 10
3839.236206
 20
99.987464
 40
62.374945
 50
12.410898
 51
46.780301
  0
ARC
  8
APS_GEOMETR�
 10
3719.75108
 20
74.720473
 40
184.50101
 50
341.060086
 51
12.099316
  0
LINE
  8
APS_GEOMETR�
 10
3894.263109
 11
4002.775683
 20
14.835798
 21
14.835798
  0
ARC
  8
APS_GEOMETR�
 10
3831.308668
 20
93.897204
 40
188.816427
 50
335.246134
 51
10.712804
  0
ARC
  8
APS_GEOMETR�
 10
3823.405512
 20
91.582834
 40
197.013695
 50
10.9469
 51
41.506809
  0
ARC
  8
APS_GEOMETR�
 10
4057.180225
 20
298.285675
 40
115.03872
 50
195.243542
 51
221.442251
  0
ARC
  8
APS_GEOMETR�
 10
4051.692519
 20
296.517244
 40
109.279446
 50
167.987241
 51
195.105455
  0
ARC
  8
APS_GEOMETR�
 10
4056.168745
 20
295.263543
 40
113.918961
 50
141.467635
 51
167.839065
  0
ARC
  8
APS_GEOMETR�
 10
3912.851136
 20
409.349269
 40
69.262621
 50
321.497715
 51
345.505415
  0
ARC
  8
APS_GEOMETR�
 10
3915.789522
 20
408.461302
 40
66.195629
 50
345.612969
 51
10.361222
  0
ARC
  8
APS_GEOMETR�
 10
3913.608561
 20
407.920567
 40
68.438422
 50
10.478147
 51
34.679434
  0
ARC
  8
APS_GEOMETR�
 10
3908.415864
 20
404.276085
 40
74.782293
 50
34.711973
 51
57.515584
  0
ARC
  8
APS_GEOMETR�
 10
4035.552765
 20
606.09584
 40
163.745705
 50
196.519523
 51
237.916799
  0
ARC
  8
APS_GEOMETR�
 10
4112.836764
 20
626.864668
 40
243.75383
 50
161.645762
 51
196.03447
  0
ARC
  8
APS_GEOMETR�
 10
4035.525848
 20
652.230369
 40
162.38868
 50
137.141145
 51
161.550771
  0
ARC
  8
APS_GEOMETR�
 10
3518.428372
 20
1129.896859
 40
541.568582
 50
317.308549
 51
325.205247
  0
ARC
  8
APS_GEOMETR�
 10
3819.917819
 20
921.016092
 40
174.790363
 50
325.038643
 51
352.150243
  0
ARC
  8
APS_GEOMETR�
 10
3824.568378
 20
919.870764
 40
170.027691
 50
352.318545
 51
19.937985
  0
ARC
  8
APS_GEOMETR�
 10
3813.691716
 20
915.500407
 40
181.743174
 50
20.06391
 51
46.474053
  0
ARC
  8
APS_GEOMETR�
 10
3813.691716
 20
1179.050754
 40
181.743174
 50
313.525947
 51
339.93609
  0
ARC
  8
APS_GEOMETR�
 10
3824.568378
 20
1174.680397
 40
170.027691
 50
340.062015
 51
7.681455
  0
ARC
  8
APS_GEOMETR�
 10
3819.917819
 20
1173.535069
 40
174.790363
 50
7.849757
 51
34.961357
  0
ARC
  8
APS_GEOMETR�
 10
3518.428372
 20
964.654302
 40
541.568582
 50
34.794753
 51
42.691451
  0
ARC
  8
APS_GEOMETR�
 10
4035.525848
 20
1442.320792
 40
162.38868
 50
198.449229
 51
222.858855
  0
ARC
  8
APS_GEOMETR�
 10
4112.836764
 20
1467.686493
 40
243.75383
 50
163.96553
 51
198.354238
  0
ARC
  8
APS_GEOMETR�
 10
4035.552765
 20
1488.455321
 40
163.745705
 50
122.083201
 51
163.480477
  0
ARC
  8
APS_GEOMETR�
 10
3908.415864
 20
1690.275076
 40
74.782293
 50
302.484416
 51
325.288027
  0
ARC
  8
APS_GEOMETR�
 10
3913.608561
 20
1686.630594
 40
68.438422
 50
325.320566
 51
349.521853
  0
ARC
  8
APS_GEOMETR�
 10
3915.789522
 20
1686.089859
 40
66.195629
 50
349.638778
 51
14.387031
  0
ARC
  8
APS_GEOMETR�
 10
3912.851136
 20
1685.201892
 40
69.262621
 50
14.494585
 51
38.502285
  0
ARC
  8
APS_GEOMETR�
 10
4056.168745
 20
1799.287618
 40
113.918961
 50
192.160935
 51
218.532365
  0
ARC
  8
APS_GEOMETR�
 10
4051.692519
 20
1798.033917
 40
109.279446
 50
164.894545
 51
192.012759
  0
ARC
  8
APS_GEOMETR�
 10
4057.180225
 20
1796.265486
 40
115.03872
 50
138.557749
 51
164.756458
  0
ARC
  8
APS_GEOMETR�
 10
3823.405512
 20
2002.968327
 40
197.013695
 50
318.493191
 51
349.0531
  0
ARC
  8
APS_GEOMETR�
 10
3831.308668
 20
2000.653957
 40
188.816427
 50
349.287196
 51
29.920713
  0
LINE
  8
APS_GEOMETR�
 10
3994.958977
 11
3888.318147
 20
2094.835798
 21
2094.835798
  0
ARC
  8
APS_GEOMETR�
 10
3719.75108
 20
2019.830688
 40
184.50101
 50
347.900684
 51
23.987011
  0
ARC
  8
APS_GEOMETR�
 10
3839.236206
 20
1994.563697
 40
62.374945
 50
313.219699
 51
347.589102
  0
ARC
  8
APS_GEOMETR�
 10
4010.903497
 20
1812.782767
 40
187.653237
 50
133.407933
 51
156.696936
  0
ARC
  8
APS_GEOMETR�
 10
3999.7164
 20
1817.856892
 40
175.371585
 50
156.773598
 51
181.144439
  0
ARC
  8
APS_GEOMETR�
 10
4000.394058
 20
1818.250679
 40
176.057384
 50
181.268162
 51
205.575298
  0
ARC
  8
APS_GEOMETR�
 10
3782.317131
 20
1713.878858
 40
65.70908
 50
0.973966
 51
25.57722
  0
ARC
  8
APS_GEOMETR�
 10
3782.510004
 20
1714.028723
 40
65.513852
 50
336.193381
 51
0.845786
  0
ARC
  8
APS_GEOMETR�
 10
3778.219052
 20
1716.025356
 40
70.245706
 50
312.590609
 51
336.116141
  0
ARC
  8
APS_GEOMETR�
 10
3947.898602
 20
1530.828238
 40
180.929907
 50
132.459605
 51
163.794242
  0
ARC
  8
APS_GEOMETR�
 10
4138.093777
 20
1477.129748
 40
378.557419
 50
164.023739
 51
190.717316
  0
ARC
  8
APS_GEOMETR�
 10
4131.069298
 20
1475.80026
 40
371.408234
 50
190.717316
 51
204.367317
  0
ARC
  8
APS_GEOMETR�
 10
4494.782861
 20
1675.552632
 40
785.784295
 50
206.693633
 51
210.03217
  0
ARC
  8
APS_GEOMETR�
 10
3804.525262
 20
1281.63186
 40
9.990089
 50
339.553485
 51
3.711037
  0
ARC
  8
APS_GEOMETR�
 10
3803.978697
 20
1281.846723
 40
10.577283
 50
314.86615
 51
339.497182
  0
ARC
  8
APS_GEOMETR�
 10
3803.244608
 20
1282.567543
 40
11.60604
 50
291.790534
 51
314.924335
  0
ARC
  8
APS_GEOMETR�
 10
3802.933621
 20
1283.288123
 40
12.390594
 50
269.759172
 51
291.888918
  0
ARC
  8
APS_GEOMETR�
 10
3802.911172
 20
1283.280428
 40
12.382824
 50
247.723735
 51
269.862896
  0
ARC
  8
APS_GEOMETR�
 10
3787.568071
 20
1245.810111
 40
28.107117
 50
67.735932
 51
92.208393
  0
ARC
  8
APS_GEOMETR�
 10
3787.490878
 20
1246.026625
 40
27.887874
 50
92.06706
 51
116.670334
  0
ARC
  8
APS_GEOMETR�
 10
3786.437134
 20
1247.99656
 40
25.654617
 50
116.542112
 51
142.584109
  0
ARC
  8
APS_GEOMETR�
 10
3784.551389
 20
1249.421464
 40
23.29111
 50
142.549553
 51
170.342587
  0
ARC
  8
APS_GEOMETR�
 10
3783.879872
 20
1249.586584
 40
22.601465
 50
170.469667
 51
198.806866
  0
ARC
  8
APS_GEOMETR�
 10
3777.501414
 20
1247.43233
 40
15.869071
 50
198.868395
 51
223.856278
  0
ARC
  8
APS_GEOMETR�
 10
3778.634569
 20
1248.497733
 40
17.424341
 50
223.800813
 51
247.259593
  0
ARC
  8
APS_GEOMETR�
 10
3779.141383
 20
1249.621794
 40
18.656965
 50
247.158545
 51
269.554072
  0
ARC
  8
APS_GEOMETR�
 10
3779.176611
 20
1249.652785
 40
18.688262
 50
269.446809
 51
291.816885
  0
ARC
  8
APS_GEOMETR�
 10
3779.648676
 20
1248.557158
 40
17.495697
 50
291.715122
 51
315.108945
  0
ARC
  8
APS_GEOMETR�
 10
3780.76946
 20
1247.463903
 40
15.93011
 50
315.049641
 51
339.973413
  0
ARC
  8
APS_GEOMETR�
 10
3791.490121
 20
1243.552133
 40
4.518078
 50
340.022668
 51
11.237088
  0
ARC
  8
APS_GEOMETR�
 10
3797.447566
 20
1244.370341
 40
1.52725
 50
151.319022
 51
177.66487
  0
ARC
  8
APS_GEOMETR�
 10
3797.555583
 20
1244.310682
 40
1.650646
 50
126.284203
 51
151.301717
  0
ARC
  8
APS_GEOMETR�
 10
3797.652762
 20
1244.183094
 40
1.811006
 50
102.881242
 51
126.373739
  0
ARC
  8
APS_GEOMETR�
 10
3797.674155
 20
1244.106453
 40
1.890491
 50
80.178412
 51
102.995477
  0
ARC
  8
APS_GEOMETR�
 10
3797.688217
 20
1244.166153
 40
1.829271
 50
56.960532
 51
80.293432
  0
ARC
  8
APS_GEOMETR�
 10
3753.065411
 20
1175.331032
 40
83.862608
 50
32.884835
 51
57.044545
  0
ARC
  8
APS_GEOMETR�
 10
3758.703311
 20
1178.965247
 40
77.154901
 50
7.345581
 51
32.891688
  0
ARC
  8
APS_GEOMETR�
 10
3760.305582
 20
1179.311899
 40
75.521586
 50
341.338436
 51
7.240164
  0
ARC
  8
APS_GEOMETR�
 10
3775.281896
 20
1174.483541
 40
59.78808
 50
304.97312
 51
341.12993
  0
ARC
  8
APS_GEOMETR�
 10
3836.296405
 20
1087.582103
 40
46.394191
 50
125.202032
 51
152.410122
  0
ARC
  8
APS_GEOMETR�
 10
3833.113533
 20
1089.273857
 40
42.789747
 50
152.44395
 51
181.154186
  0
ARC
  8
APS_GEOMETR�
 10
3833.279551
 20
1089.387791
 40
42.958168
 50
181.301657
 51
209.939746
  0
ARC
  8
APS_GEOMETR�
 10
3836.615215
 20
1091.324632
 40
46.815349
 50
209.956364
 51
236.998283
  0
ARC
  8
APS_GEOMETR�
 10
3834.648646
 20
1087.993406
 40
42.9508
 50
236.778004
 51
251.443605
  0
ARC
  8
APS_GEOMETR�
 10
3834.648646
 20
1006.557755
 40
42.9508
 50
108.556395
 51
123.221996
  0
ARC
  8
APS_GEOMETR�
 10
3836.615215
 20
1003.226529
 40
46.815349
 50
123.001717
 51
150.043636
  0
ARC
  8
APS_GEOMETR�
 10
3833.279551
 20
1005.16337
 40
42.958168
 50
150.060254
 51
178.698343
  0
ARC
  8
APS_GEOMETR�
 10
3833.113533
 20
1005.277305
 40
42.789747
 50
178.845814
 51
207.55605
  0
ARC
  8
APS_GEOMETR�
 10
3836.296405
 20
1006.969058
 40
46.394191
 50
207.589878
 51
234.797968
  0
ARC
  8
APS_GEOMETR�
 10
3775.281896
 20
920.06762
 40
59.78808
 50
18.87007
 51
55.02688
  0
ARC
  8
APS_GEOMETR�
 10
3760.305582
 20
915.239262
 40
75.521586
 50
352.759836
 51
18.661564
  0
ARC
  8
APS_GEOMETR�
 10
3758.703311
 20
915.585914
 40
77.154901
 50
327.108312
 51
352.654419
  0
ARC
  8
APS_GEOMETR�
 10
3753.065411
 20
919.220129
 40
83.862608
 50
302.955455
 51
327.115165
  0
ARC
  8
APS_GEOMETR�
 10
3797.688217
 20
850.385008
 40
1.829271
 50
279.706568
 51
303.039468
  0
ARC
  8
APS_GEOMETR�
 10
3797.674155
 20
850.444708
 40
1.890491
 50
257.004523
 51
279.821588
  0
ARC
  8
APS_GEOMETR�
 10
3797.652762
 20
850.368067
 40
1.811006
 50
233.626261
 51
257.118758
  0
ARC
  8
APS_GEOMETR�
 10
3797.555583
 20
850.240479
 40
1.650646
 50
208.698283
 51
233.715797
  0
ARC
  8
APS_GEOMETR�
 10
3797.447566
 20
850.18082
 40
1.52725
 50
182.33513
 51
208.680978
  0
ARC
  8
APS_GEOMETR�
 10
3791.490121
 20
850.999028
 40
4.518078
 50
348.762912
 51
19.977332
  0
ARC
  8
APS_GEOMETR�
 10
3780.76946
 20
847.087258
 40
15.93011
 50
20.026587
 51
44.950359
  0
ARC
  8
APS_GEOMETR�
 10
3779.648676
 20
845.994003
 40
17.495697
 50
44.891055
 51
68.284878
  0
ARC
  8
APS_GEOMETR�
 10
3779.176611
 20
844.898376
 40
18.688262
 50
68.183115
 51
90.553191
  0
ARC
  8
APS_GEOMETR�
 10
3779.141383
 20
844.929367
 40
18.656965
 50
90.445928
 51
112.841455
  0
ARC
  8
APS_GEOMETR�
 10
3778.634569
 20
846.053428
 40
17.424341
 50
112.740407
 51
136.199187
  0
ARC
  8
APS_GEOMETR�
 10
3777.501414
 20
847.118831
 40
15.869071
 50
136.143722
 51
161.131605
  0
ARC
  8
APS_GEOMETR�
 10
3783.879872
 20
844.964577
 40
22.601465
 50
161.193134
 51
189.530333
  0
ARC
  8
APS_GEOMETR�
 10
3784.551389
 20
845.129697
 40
23.29111
 50
189.657413
 51
217.450447
  0
ARC
  8
APS_GEOMETR�
 10
3786.437134
 20
846.554601
 40
25.654617
 50
217.415891
 51
243.457888
  0
ARC
  8
APS_GEOMETR�
 10
3787.490878
 20
848.524536
 40
27.887874
 50
243.329666
 51
267.93294
  0
ARC
  8
APS_GEOMETR�
 10
3787.568071
 20
848.74105
 40
28.107117
 50
267.791607
 51
292.264068
  0
ARC
  8
APS_GEOMETR�
 10
3802.911172
 20
811.270734
 40
12.382824
 50
90.137104
 51
112.276265
  0
ARC
  8
APS_GEOMETR�
 10
3802.933621
 20
811.263038
 40
12.390594
 50
68.111082
 51
90.240828
  0
ARC
  8
APS_GEOMETR�
 10
3803.244608
 20
811.983618
 40
11.60604
 50
45.075665
 51
68.209466
  0
ARC
  8
APS_GEOMETR�
 10
3803.978697
 20
812.704438
 40
10.577283
 50
20.502818
 51
45.13385
  0
ARC
  8
APS_GEOMETR�
 10
3804.525262
 20
812.919301
 40
9.990089
 50
356.288963
 51
20.446515
  0
ARC
  8
APS_GEOMETR�
 10
4494.782861
 20
418.998529
 40
785.784295
 50
149.967813
 51
153.306367
  0
ARC
  8
APS_GEOMETR�
 10
3875.325489
 20
730.466881
 40
92.43015
 50
153.306367
 51
182.657389
  0
ARC
  8
APS_GEOMETR�
 10
3802.334847
 20
727.079132
 40
19.360931
 50
182.657389
 51
349.154888
  0
ARC
  8
APS_GEOMETR�
 10
3805.509149
 20
726.471011
 40
16.128903
 50
349.154888
 51
113.349509
  0
ARC
  8
APS_GEOMETR�
 10
3885.924702
 20
725.885427
 40
88.162369
 50
134.609364
 51
169.944322
  0
ARC
  8
APS_GEOMETR�
 10
3608.219892
 20
1004.452475
 40
305.183284
 50
314.998382
 51
326.243154
  0
ARC
  8
APS_GEOMETR�
 10
3779.881879
 20
892.5439
 40
100.306206
 50
324.902865
 51
344.585061
  0
ARC
  8
APS_GEOMETR�
 10
3758.390187
 20
899.063456
 40
122.75904
 50
344.317916
 51
1.507366
  0
ARC
  8
APS_GEOMETR�
 10
3756.821488
 20
893.296751
 40
124.610402
 50
4.139928
 51
23.70075
  0
ARC
  8
APS_GEOMETR�
 10
3787.071688
 20
907.209516
 40
91.321055
 50
23.336873
 51
47.437779
  0
ARC
  8
APS_GEOMETR�
 10
3836.029507
 20
1014.955048
 40
42.462247
 50
287.559755
 51
310.19369
  0
ARC
  8
APS_GEOMETR�
 10
3838.453899
 20
1012.158675
 40
38.76158
 50
310.123908
 51
334.1985
  0
ARC
  8
APS_GEOMETR�
 10
3840.766666
 20
1011.020573
 40
36.184019
 50
334.227001
 51
359.425948
  0
ARC
  8
APS_GEOMETR�
 10
3840.820605
 20
1010.95299
 40
36.129468
 50
359.532262
 51
24.75573
  0
ARC
  8
APS_GEOMETR�
 10
3838.569644
 20
1009.890065
 40
38.618675
 50
24.789337
 51
48.923842
  0
ARC
  8
APS_GEOMETR�
 10
3836.099529
 20
1007.131902
 40
42.320928
 50
48.856447
 51
71.54161
  0
ARC
  8
APS_GEOMETR�
 10
3836.099529
 20
1087.419259
 40
42.320928
 50
288.45839
 51
311.143553
  0
ARC
  8
APS_GEOMETR�
 10
3838.569644
 20
1084.661096
 40
38.618675
 50
311.076158
 51
335.210663
  0
ARC
  8
APS_GEOMETR�
 10
3840.820605
 20
1083.598171
 40
36.129468
 50
335.24427
 51
0.467738
  0
ARC
  8
APS_GEOMETR�
 10
3840.766666
 20
1083.530588
 40
36.184019
 50
0.574052
 51
25.772999
  0
ARC
  8
APS_GEOMETR�
 10
3838.453899
 20
1082.392486
 40
38.76158
 50
25.8015
 51
49.876092
  0
ARC
  8
APS_GEOMETR�
 10
3836.029507
 20
1079.596113
 40
42.462247
 50
49.80631
 51
72.440245
  0
ARC
  8
APS_GEOMETR�
 10
3787.071688
 20
1187.341645
 40
91.321055
 50
312.562221
 51
336.663127
  0
ARC
  8
APS_GEOMETR�
 10
3756.821488
 20
1201.25441
 40
124.610402
 50
336.29925
 51
355.860072
  0
ARC
  8
APS_GEOMETR�
 10
3758.390187
 20
1195.487706
 40
122.75904
 50
358.492634
 51
15.682084
  0
ARC
  8
APS_GEOMETR�
 10
3779.881879
 20
1202.007262
 40
100.306206
 50
15.414939
 51
35.097135
  0
ARC
  8
APS_GEOMETR�
 10
3608.219892
 20
1090.098686
 40
305.183284
 50
33.756846
 51
45.001618
  0
ARC
  8
APS_GEOMETR�
 10
3885.924702
 20
1368.665734
 40
88.162369
 50
190.055678
 51
225.390636
  0
ARC
  8
APS_GEOMETR�
 10
3805.509149
 20
1368.08015
 40
16.128903
 50
246.650491
 51
10.845112
  0
ARC
  8
APS_GEOMETR�
 10
3802.334847
 20
1367.472029
 40
19.360931
 50
10.845112
 51
177.342611
  0
ARC
  8
APS_GEOMETR�
 10
3875.325489
 20
1364.08428
 40
92.43015
 50
177.342611
 51
206.693633
  0
ARC
  8
APS_GEOMETR�
 10
4494.782861
 20
1675.552632
 40
785.784295
 50
206.693633
 51
210.03217
  0
ARC
  8
APS_GEOMETR�
 10
3804.525262
 20
1281.63186
 40
9.990089
 50
339.553485
 51
3.711037
  0
ARC
  8
APS_GEOMETR�
 10
3803.978697
 20
1281.846723
 40
10.577283
 50
314.86615
 51
339.497182
  0
ARC
  8
APS_GEOMETR�
 10
3803.244608
 20
1282.567543
 40
11.60604
 50
291.790534
 51
314.924335
  0
ARC
  8
APS_GEOMETR�
 10
3802.933621
 20
1283.288123
 40
12.390594
 50
269.759172
 51
291.888918
  0
ARC
  8
APS_GEOMETR�
 10
3802.911172
 20
1283.280428
 40
12.382824
 50
247.723735
 51
269.862896
  0
ARC
  8
APS_GEOMETR�
 10
3787.568071
 20
1245.810111
 40
28.107117
 50
67.735932
 51
92.208393
  0
ARC
  8
APS_GEOMETR�
 10
3787.490878
 20
1246.026625
 40
27.887874
 50
92.06706
 51
116.670334
  0
ARC
  8
APS_GEOMETR�
 10
3786.437134
 20
1247.99656
 40
25.654617
 50
116.542112
 51
142.584109
  0
ARC
  8
APS_GEOMETR�
 10
3784.551389
 20
1249.421464
 40
23.29111
 50
142.549553
 51
170.342587
  0
ARC
  8
APS_GEOMETR�
 10
3783.879872
 20
1249.586584
 40
22.601465
 50
170.469667
 51
198.806866
  0
ARC
  8
APS_GEOMETR�
 10
3777.501414
 20
1247.43233
 40
15.869071
 50
198.868395
 51
223.856278
  0
ARC
  8
APS_GEOMETR�
 10
3778.634569
 20
1248.497733
 40
17.424341
 50
223.800813
 51
247.259593
  0
ARC
  8
APS_GEOMETR�
 10
3779.141383
 20
1249.621794
 40
18.656965
 50
247.158545
 51
269.554072
  0
ARC
  8
APS_GEOMETR�
 10
3779.176611
 20
1249.652785
 40
18.688262
 50
269.446809
 51
291.816885
  0
ARC
  8
APS_GEOMETR�
 10
3779.648676
 20
1248.557158
 40
17.495697
 50
291.715122
 51
315.108945
  0
ARC
  8
APS_GEOMETR�
 10
3780.76946
 20
1247.463903
 40
15.93011
 50
315.049641
 51
339.973413
  0
ARC
  8
APS_GEOMETR�
 10
3791.490121
 20
1243.552133
 40
4.518078
 50
340.022668
 51
11.237088
  0
ARC
  8
APS_GEOMETR�
 10
3797.447566
 20
1244.370341
 40
1.52725
 50
151.319022
 51
177.66487
  0
ARC
  8
APS_GEOMETR�
 10
3797.555583
 20
1244.310682
 40
1.650646
 50
126.284203
 51
151.301717
  0
ARC
  8
APS_GEOMETR�
 10
3797.652762
 20
1244.183094
 40
1.811006
 50
102.881242
 51
126.373739
  0
ARC
  8
APS_GEOMETR�
 10
3797.674155
 20
1244.106453
 40
1.890491
 50
80.178412
 51
102.995477
  0
ARC
  8
APS_GEOMETR�
 10
3797.688217
 20
1244.166153
 40
1.829271
 50
56.960532
 51
80.293432
  0
ARC
  8
APS_GEOMETR�
 10
3753.065411
 20
1175.331032
 40
83.862608
 50
32.884835
 51
57.044545
  0
ARC
  8
APS_GEOMETR�
 10
3758.703311
 20
1178.965247
 40
77.154901
 50
7.345581
 51
32.891688
  0
ARC
  8
APS_GEOMETR�
 10
3760.305582
 20
1179.311899
 40
75.521586
 50
341.338436
 51
7.240164
  0
ARC
  8
APS_GEOMETR�
 10
3775.281896
 20
1174.483541
 40
59.78808
 50
304.97312
 51
341.12993
  0
ARC
  8
APS_GEOMETR�
 10
3836.296405
 20
1087.582103
 40
46.394191
 50
125.202032
 51
152.410122
  0
ARC
  8
APS_GEOMETR�
 10
3833.113533
 20
1089.273857
 40
42.789747
 50
152.44395
 51
181.154186
  0
ARC
  8
APS_GEOMETR�
 10
3833.279551
 20
1089.387791
 40
42.958168
 50
181.301657
 51
209.939746
  0
ARC
  8
APS_GEOMETR�
 10
3836.615215
 20
1091.324632
 40
46.815349
 50
209.956364
 51
236.998283
  0
ARC
  8
APS_GEOMETR�
 10
3834.648646
 20
1087.993406
 40
42.9508
 50
236.778004
 51
251.443605
  0
ARC
  8
APS_GEOMETR�
 10
3834.648646
 20
1006.557755
 40
42.9508
 50
108.556395
 51
123.221996
  0
ARC
  8
APS_GEOMETR�
 10
3836.615215
 20
1003.226529
 40
46.815349
 50
123.001717
 51
150.043636
  0
ARC
  8
APS_GEOMETR�
 10
3833.279551
 20
1005.16337
 40
42.958168
 50
150.060254
 51
178.698343
  0
ARC
  8
APS_GEOMETR�
 10
3833.113533
 20
1005.277305
 40
42.789747
 50
178.845814
 51
207.55605
  0
ARC
  8
APS_GEOMETR�
 10
3836.296405
 20
1006.969058
 40
46.394191
 50
207.589878
 51
234.797968
  0
ARC
  8
APS_GEOMETR�
 10
3775.281896
 20
920.06762
 40
59.78808
 50
18.87007
 51
55.02688
  0
ARC
  8
APS_GEOMETR�
 10
3760.305582
 20
915.239262
 40
75.521586
 50
352.759836
 51
18.661564
  0
ARC
  8
APS_GEOMETR�
 10
3758.703311
 20
915.585914
 40
77.154901
 50
327.108312
 51
352.654419
  0
ARC
  8
APS_GEOMETR�
 10
3753.065411
 20
919.220129
 40
83.862608
 50
302.955455
 51
327.115165
  0
ARC
  8
APS_GEOMETR�
 10
3797.688217
 20
850.385008
 40
1.829271
 50
279.706568
 51
303.039468
  0
ARC
  8
APS_GEOMETR�
 10
3797.674155
 20
850.444708
 40
1.890491
 50
257.004523
 51
279.821588
  0
ARC
  8
APS_GEOMETR�
 10
3797.652762
 20
850.368067
 40
1.811006
 50
233.626261
 51
257.118758
  0
ARC
  8
APS_GEOMETR�
 10
3797.555583
 20
850.240479
 40
1.650646
 50
208.698283
 51
233.715797
  0
ARC
  8
APS_GEOMETR�
 10
3797.447566
 20
850.18082
 40
1.52725
 50
182.33513
 51
208.680978
  0
ARC
  8
APS_GEOMETR�
 10
3791.490121
 20
850.999028
 40
4.518078
 50
348.762912
 51
19.977332
  0
ARC
  8
APS_GEOMETR�
 10
3780.76946
 20
847.087258
 40
15.93011
 50
20.026587
 51
44.950359
  0
ARC
  8
APS_GEOMETR�
 10
3779.648676
 20
845.994003
 40
17.495697
 50
44.891055
 51
68.284878
  0
ARC
  8
APS_GEOMETR�
 10
3779.176611
 20
844.898376
 40
18.688262
 50
68.183115
 51
90.553191
  0
ARC
  8
APS_GEOMETR�
 10
3779.141383
 20
844.929367
 40
18.656965
 50
90.445928
 51
112.841455
  0
ARC
  8
APS_GEOMETR�
 10
3778.634569
 20
846.053428
 40
17.424341
 50
112.740407
 51
136.199187
  0
ARC
  8
APS_GEOMETR�
 10
3777.501414
 20
847.118831
 40
15.869071
 50
136.143722
 51
161.131605
  0
ARC
  8
APS_GEOMETR�
 10
3783.879872
 20
844.964577
 40
22.601465
 50
161.193134
 51
189.530333
  0
ARC
  8
APS_GEOMETR�
 10
3784.551389
 20
845.129697
 40
23.29111
 50
189.657413
 51
217.450447
  0
ARC
  8
APS_GEOMETR�
 10
3786.437134
 20
846.554601
 40
25.654617
 50
217.415891
 51
243.457888
  0
ARC
  8
APS_GEOMETR�
 10
3787.490878
 20
848.524536
 40
27.887874
 50
243.329666
 51
267.93294
  0
ARC
  8
APS_GEOMETR�
 10
3787.568071
 20
848.74105
 40
28.107117
 50
267.791607
 51
292.264068
  0
ARC
  8
APS_GEOMETR�
 10
3802.911172
 20
811.270734
 40
12.382824
 50
90.137104
 51
112.276265
  0
ARC
  8
APS_GEOMETR�
 10
3802.933621
 20
811.263038
 40
12.390594
 50
68.111082
 51
90.240828
  0
ARC
  8
APS_GEOMETR�
 10
3803.244608
 20
811.983618
 40
11.60604
 50
45.075665
 51
68.209466
  0
ARC
  8
APS_GEOMETR�
 10
3803.978697
 20
812.704438
 40
10.577283
 50
20.502818
 51
45.13385
  0
ARC
  8
APS_GEOMETR�
 10
3804.525262
 20
812.919301
 40
9.990089
 50
356.288963
 51
20.446515
  0
CIRCLE
  8
TEXT
 10
1313.162441
 20
4420.502301
 40
14.372643
  0
LINE
  8
TEXT
 10
1360.007054
 11
1447.835485
 20
4449.016188
 21
4448.137904
  0
LINE
  8
TEXT
 10
1342.007309
 11
1399.335322
 20
4405.78601
 21
4548.946353
  0
LINE
  8
TEXT
 10
1399.335322
 11
1412.110366
 20
4548.946353
 21
4548.818602
  0
LINE
  8
TEXT
 10
1412.110366
 11
1463.370232
 20
4548.818602
 21
4404.572381
  0
LINE
  8
TEXT
 10
1478.492691
 11
1535.980391
 20
4479.482048
 21
4478.907171
  0
ARC
  8
TEXT
 10
1536.32372
 20
4513.240103
 40
34.334649
 50
269.427061
 51
89.427061
  0
LINE
  8
TEXT
 10
1536.66705
 11
1479.179349
 20
4547.573036
 21
4548.147913
  0
LINE
  8
TEXT
 10
1479.179349
 11
1477.742157
 20
4548.147913
 21
4404.428661
  0
LINE
  8
TEXT
 10
1477.742157
 11
1536.826738
 20
4404.428661
 21
4403.837816
  0
ARC
  8
TEXT
 10
1537.202005
 20
4441.364509
 40
37.52857
 50
269.427061
 51
89.427061
  0
LINE
  8
TEXT
 10
1604.534473
 11
1603.09728
 20
4546.894361
 21
4403.17511
  0
LINE
  8
TEXT
 10
1603.09728
 11
1698.910114
 20
4403.17511
 21
4402.216982
  0
ARC
  8
TEXT
 10
1766.044529
 20
4449.109073
 40
47.056035
 50
218.115761
 51
320.738361
  0
ARC
  8
TEXT
 10
1735.047955
 20
4475.102066
 40
87.507043
 50
320.405175
 51
38.4478
  0
ARC
  8
TEXT
 10
1766.558953
 20
4500.468968
 40
47.056035
 50
38.115218
 51
140.739969
  0
ARC
  8
TEXT
 10
1797.55553
 20
4474.475968
 40
87.507043
 50
140.406036
 51
218.448086
  0
LINE
  8
TEXT
 10
1835.840136
 11
1837.277329
 20
4400.847682
 21
4544.566933
  0
LINE
  8
TEXT
 10
1837.277329
 11
1845.261731
 20
4544.566933
 21
4544.487089
  0
LINE
  8
TEXT
 10
1845.261731
 11
1923.668567
 20
4544.487089
 21
4399.969397
  0
LINE
  8
TEXT
 10
1923.668567
 11
1931.65297
 20
4399.969397
 21
4399.889553
  0
LINE
  8
TEXT
 10
1931.65297
 11
1933.090163
 20
4399.889553
 21
4543.608804
  0
LINE
  8
TEXT
 10
1961.834011
 11
1960.396819
 20
4543.321366
 21
4399.602115
  0
LINE
  8
TEXT
 10
1960.396819
 11
2056.209653
 20
4399.602115
 21
4398.643987
  0
LINE
  8
TEXT
 10
2088.581322
 11
2176.409753
 20
4441.730446
 21
4440.852161
  0
LINE
  8
TEXT
 10
2070.581577
 11
2127.90959
 20
4398.500267
 21
4541.66061
  0
LINE
  8
TEXT
 10
2127.90959
 11
2140.684634
 20
4541.66061
 21
4541.53286
  0
LINE
  8
TEXT
 10
2140.684634
 11
2191.944501
 20
4541.53286
 21
4397.286638
  0
LINE
  8
TEXT
 10
2207.019052
 11
2275.684917
 20
4467.405664
 21
4466.719005
  0
ARC
  8
TEXT
 10
2276.052199
 20
4503.447258
 40
36.730089
 50
269.427061
 51
89.427061
  0
LINE
  8
TEXT
 10
2276.419482
 11
2207.753617
 20
4540.175511
 21
4540.86217
  0
LINE
  8
TEXT
 10
2207.753617
 11
2206.316425
 20
4540.86217
 21
4397.142919
  0
LINE
  8
TEXT
 10
2270.894275
 11
2302.129259
 20
4466.766912
 21
4396.18479
  0
ENDSEC
  0
EOF
