0
SECTION
2
HEADER
9
$EXTMIN
10
16.532835
20
23.247408
9
$EXTMAX
10
29.362230
20
31.351236
0
ENDSEC
0
SECTION
2
TABLES
0
TABLE
2
LTYPE
70
1
0
LTYPE
2
0
70
0
3
Solid Line
72
65
73
0
40
0.0
0
ENDTAB
0
TABLE
2
LAYER
70
1
0
LAYER
2
1
70
0
62
7
6
0
0
ENDTAB
0
ENDSEC
0
SECTION
2
BLOCKS
0
ENDSEC
0
SECTION
2
ENTITIES
0
POLYLINE
8
1
66
1
70
1
0
VERTEX
8
1
10
24.227779
20
26.975161
0
VERTEX
8
1
10
23.362066
20
26.975161
42
0.019146
0
VERTEX
8
1
10
23.334408
20
27.216501
0
VERTEX
8
1
10
23.508196
20
27.349199
42
0.623501
0
VERTEX
8
1
10
23.488625
20
27.447596
0
VERTEX
8
1
10
23.277302
20
27.503679
42
0.026915
0
VERTEX
8
1
10
23.176889
20
27.834681
0
VERTEX
8
1
10
23.236172
20
27.901957
0
VERTEX
8
1
10
23.867952
20
27.901957
0
VERTEX
8
1
10
23.867952
20
27.738558
42
1.000020
0
VERTEX
8
1
10
24.064032
20
27.738558
0
VERTEX
8
1
10
24.064032
20
27.901957
0
VERTEX
8
1
10
24.960152
20
27.901957
42
-0.046301
0
VERTEX
8
1
10
24.958050
20
27.744745
42
-0.018421
0
VERTEX
8
1
10
24.953547
20
27.527620
42
-0.198903
0
VERTEX
8
1
10
24.937782
20
27.489206
42
-0.010862
0
VERTEX
8
1
10
24.749184
20
27.453272
42
0.268059
0
VERTEX
8
1
10
24.691856
20
27.383654
42
0.163348
0
VERTEX
8
1
10
24.726395
20
27.326544
0
VERTEX
8
1
10
24.746157
20
27.306101
0
VERTEX
8
1
10
24.724518
20
27.287420
0
VERTEX
8
1
10
24.705048
20
27.271673
42
0.034225
0
VERTEX
8
1
10
24.458027
20
27.081575
42
-0.093771
0
VERTEX
8
1
10
24.298223
20
26.987436
42
-0.040045
0
SEQEND
0
POLYLINE
8
1
66
1
70
1
0
VERTEX
8
1
10
20.249886
20
28.853861
0
VERTEX
8
1
10
20.249887
20
27.812181
0
VERTEX
8
1
10
20.424055
20
27.812181
0
VERTEX
8
1
10
20.769485
20
28.646120
0
VERTEX
8
1
10
20.669874
20
28.753016
42
-0.445802
0
VERTEX
8
1
10
20.683046
20
28.901308
0
VERTEX
8
1
10
20.719385
20
28.928564
42
-0.382112
0
VERTEX
8
1
10
20.852360
20
28.917040
0
VERTEX
8
1
10
20.872726
20
28.895365
0
VERTEX
8
1
10
21.087183
20
29.413111
42
0.075203
0
VERTEX
8
1
10
20.249886
20
29.579706
0
VERTEX
8
1
10
20.249886
20
29.147627
42
-0.091922
0
VERTEX
8
1
10
20.431030
20
28.984003
42
-0.188205
0
VERTEX
8
1
10
20.468607
20
28.833086
42
-0.335653
0
VERTEX
8
1
10
20.380455
20
28.775789
42
-0.115854
0
VERTEX
8
1
10
20.309189
20
28.839731
42
0.325550
0
SEQEND
0
POLYLINE
8
1
66
1
70
1
0
VERTEX
8
1
10
19.914850
20
29.233919
0
VERTEX
8
1
10
19.985008
20
29.242456
0
VERTEX
8
1
10
19.985008
20
29.579645
42
0.075269
0
VERTEX
8
1
10
19.147709
20
29.413118
0
VERTEX
8
1
10
19.234293
20
29.181414
42
-0.231568
0
VERTEX
8
1
10
19.367874
20
29.227068
42
-0.005619
0
VERTEX
8
1
10
19.760283
20
29.222998
42
0.010862
0
SEQEND
0
POLYLINE
8
1
66
1
70
1
0
VERTEX
8
1
10
19.314022
20
29.011599
0
VERTEX
8
1
10
19.783670
20
27.877771
0
VERTEX
8
1
10
19.853424
20
27.877771
42
0.027477
0
VERTEX
8
1
10
19.849173
20
28.228045
42
0.005216
0
VERTEX
8
1
10
19.827831
20
28.681532
0
VERTEX
8
1
10
19.812687
20
28.703783
42
0.110565
0
VERTEX
8
1
10
19.644083
20
28.810106
42
-0.083111
0
SEQEND
0
POLYLINE
8
1
66
1
70
1
0
VERTEX
8
1
10
19.212538
20
26.957354
0
VERTEX
8
1
10
17.430170
20
27.695635
42
0.075192
0
VERTEX
8
1
10
17.263659
20
26.858316
0
VERTEX
8
1
10
19.251850
20
26.858316
42
0.022870
0
SEQEND
0
POLYLINE
8
1
66
1
70
1
0
VERTEX
8
1
10
27.146832
20
28.049326
0
VERTEX
8
1
10
27.215395
20
28.050783
42
0.109220
0
VERTEX
8
1
10
27.236008
20
28.093462
42
-0.290879
0
VERTEX
8
1
10
27.312756
20
28.141321
42
0.081649
0
VERTEX
8
1
10
27.343805
20
28.150644
42
0.009811
0
VERTEX
8
1
10
27.353384
20
28.578554
42
-0.238599
0
VERTEX
8
1
10
27.419731
20
28.789549
42
0.007379
0
VERTEX
8
1
10
27.703739
20
29.087236
42
0.138844
0
VERTEX
8
1
10
27.755470
20
29.154345
0
VERTEX
8
1
10
27.497919
20
29.154345
42
-0.157915
0
VERTEX
8
1
10
27.363962
20
28.958139
42
-0.001940
0
VERTEX
8
1
10
26.952179
20
28.612524
42
0.110529
0
VERTEX
8
1
10
26.861324
20
28.470812
0
VERTEX
8
1
10
26.939285
20
28.470812
42
-0.414222
0
VERTEX
8
1
10
27.146086
20
28.264009
0
VERTEX
8
1
10
27.146086
20
28.049311
0
SEQEND
0
POLYLINE
8
1
66
1
70
1
0
VERTEX
8
1
10
27.570362
20
25.892214
42
0.141433
0
VERTEX
8
1
10
27.147684
20
25.509188
0
VERTEX
8
1
10
27.631052
20
25.280535
0
VERTEX
8
1
10
27.713171
20
25.309916
0
VERTEX
8
1
10
27.750467
20
25.388754
0
SEQEND
0
POLYLINE
8
1
66
1
70
1
0
VERTEX
8
1
10
27.049562
20
25.301607
42
0.141609
0
VERTEX
8
1
10
27.021544
20
24.731936
0
VERTEX
8
1
10
27.524952
20
24.912020
0
VERTEX
8
1
10
27.562260
20
24.990885
0
VERTEX
8
1
10
27.532896
20
25.072969
0
SEQEND
0
POLYLINE
8
1
66
1
70
1
0
VERTEX
8
1
10
27.098858
20
24.515741
42
0.141530
0
VERTEX
8
1
10
27.481886
20
24.093119
0
VERTEX
8
1
10
27.710520
20
24.576448
0
VERTEX
8
1
10
27.681149
20
24.658556
0
VERTEX
8
1
10
27.602316
20
24.695841
0
SEQEND
0
POLYLINE
8
1
66
1
70
1
0
VERTEX
8
1
10
27.689438
20
23.994936
42
0.141510
0
VERTEX
8
1
10
28.259117
20
23.966890
0
VERTEX
8
1
10
28.079014
20
24.470346
0
VERTEX
8
1
10
28.000158
20
24.507647
0
VERTEX
8
1
10
27.918085
20
24.478289
0
SEQEND
0
POLYLINE
8
1
66
1
70
1
0
VERTEX
8
1
10
28.475288
20
24.044268
42
0.141619
0
VERTEX
8
1
10
28.897909
20
24.427263
0
VERTEX
8
1
10
28.414574
20
24.655901
0
VERTEX
8
1
10
28.332478
20
24.626528
0
VERTEX
8
1
10
28.295191
20
24.547709
0
SEQEND
0
POLYLINE
8
1
66
1
70
1
0
VERTEX
8
1
10
28.996153
20
24.634790
42
0.141446
0
VERTEX
8
1
10
29.024155
20
25.204485
0
VERTEX
8
1
10
28.520672
20
25.024370
0
VERTEX
8
1
10
28.483398
20
24.945574
0
VERTEX
8
1
10
28.512781
20
24.863443
0
SEQEND
0
POLYLINE
8
1
66
1
70
1
0
VERTEX
8
1
10
28.946795
20
25.420664
42
0.141571
0
VERTEX
8
1
10
28.563801
20
25.843317
0
VERTEX
8
1
10
28.335155
20
25.359964
0
VERTEX
8
1
10
28.364529
20
25.277857
0
VERTEX
8
1
10
28.443359
20
25.240568
0
SEQEND
0
POLYLINE
8
1
66
1
70
1
0
VERTEX
8
1
10
28.356245
20
25.941496
42
0.042726
0
VERTEX
8
1
10
28.187983
20
25.983709
0
VERTEX
8
1
10
28.187983
20
25.585794
0
SEQEND
0
POLYLINE
8
1
66
1
70
1
0
VERTEX
8
1
10
27.857683
20
25.770708
0
VERTEX
8
1
10
27.857683
20
25.983667
42
0.019474
0
VERTEX
8
1
10
27.786564
20
25.969511
0
SEQEND
0
POLYLINE
8
1
66
1
70
1
0
VERTEX
8
1
10
21.884808
20
29.558405
0
VERTEX
8
1
10
21.990900
20
29.619989
42
-0.331764
0
VERTEX
8
1
10
22.057062
20
29.612429
0
VERTEX
8
1
10
22.083511
20
29.649538
0
VERTEX
8
1
10
21.884808
20
29.928316
0
VERTEX
8
1
10
21.884808
20
29.823008
0
SEQEND
0
POLYLINE
8
1
66
1
70
1
0
VERTEX
8
1
10
22.052641
20
29.342096
0
VERTEX
8
1
10
22.211506
20
29.563868
0
VERTEX
8
1
10
22.324850
20
29.563868
0
VERTEX
8
1
10
22.324850
20
29.508375
0
VERTEX
8
1
10
22.372610
20
29.508375
0
VERTEX
8
1
10
22.372610
20
29.148634
0
VERTEX
8
1
10
22.312653
20
29.128122
42
0.026249
0
SEQEND
0
POLYLINE
8
1
66
1
70
1
0
VERTEX
8
1
10
19.380529
20
27.650095
0
VERTEX
8
1
10
19.377792
20
27.830675
0
VERTEX
8
1
10
19.424889
20
27.877771
0
VERTEX
8
1
10
19.496967
20
27.877771
0
VERTEX
8
1
10
18.902998
20
29.311739
42
0.075284
0
VERTEX
8
1
10
18.193178
20
28.837446
0
SEQEND
0
POLYLINE
8
1
66
1
70
1
0
VERTEX
8
1
10
19.266691
20
27.221624
0
VERTEX
8
1
10
19.382130
20
27.273897
0
VERTEX
8
1
10
18.005857
20
28.650167
42
0.075255
0
VERTEX
8
1
10
17.531591
20
27.940325
0
SEQEND
0
POLYLINE
8
1
66
1
70
1
0
VERTEX
8
1
10
18.473862
20
26.188433
0
VERTEX
8
1
10
18.954170
20
26.593439
0
VERTEX
8
1
10
17.263659
20
26.593439
42
0.075196
0
VERTEX
8
1
10
17.430170
20
25.756121
0
SEQEND
0
POLYLINE
8
1
66
1
70
1
0
VERTEX
8
1
10
18.601833
20
25.954737
0
VERTEX
8
1
10
18.247885
20
25.656282
0
VERTEX
8
1
10
18.860554
20
25.656282
0
VERTEX
8
1
10
19.514853
20
26.310579
42
-0.014081
0
VERTEX
8
1
10
19.503172
20
26.328085
0
SEQEND
0
POLYLINE
8
1
66
1
70
1
0
VERTEX
8
1
10
18.624201
20
25.419928
0
VERTEX
8
1
10
17.576532
20
25.419928
42
0.066250
0
VERTEX
8
1
10
18.005859
20
24.801584
0
SEQEND
0
POLYLINE
8
1
66
1
70
1
0
VERTEX
8
1
10
19.257076
20
25.678209
0
VERTEX
8
1
10
19.235155
20
25.656282
0
VERTEX
8
1
10
19.268278
20
25.656282
0
VERTEX
8
1
10
19.395939
20
25.656282
0
VERTEX
8
1
10
19.616978
20
25.863718
0
VERTEX
8
1
10
19.719667
20
26.111635
0
VERTEX
8
1
10
19.714275
20
26.115099
0
VERTEX
8
1
10
19.702175
20
26.123308
0
SEQEND
0
POLYLINE
8
1
66
1
70
1
0
VERTEX
8
1
10
19.433153
20
25.419928
0
VERTEX
8
1
10
18.998796
20
25.419928
0
VERTEX
8
1
10
18.193178
20
24.614309
42
0.075284
0
VERTEX
8
1
10
18.902998
20
24.140017
0
SEQEND
0
POLYLINE
8
1
66
1
70
1
0
VERTEX
8
1
10
19.985008
20
25.668802
0
VERTEX
8
1
10
19.821817
20
25.666082
0
VERTEX
8
1
10
19.147709
20
24.038637
42
0.075269
0
VERTEX
8
1
10
19.985008
20
23.872110
0
SEQEND
0
POLYLINE
8
1
66
1
70
1
0
VERTEX
8
1
10
20.377707
20
25.751478
0
VERTEX
8
1
10
20.249887
20
25.697252
0
VERTEX
8
1
10
20.249887
20
23.872049
42
0.075212
0
VERTEX
8
1
10
21.087183
20
24.038645
0
SEQEND
0
POLYLINE
8
1
66
1
70
1
0
VERTEX
8
1
10
20.867994
20
25.788034
0
VERTEX
8
1
10
20.651163
20
25.783453
0
VERTEX
8
1
10
21.331907
20
24.139994
42
0.075201
0
VERTEX
8
1
10
22.041750
20
24.614275
0
SEQEND
0
POLYLINE
8
1
66
1
70
1
0
VERTEX
8
1
10
21.978863
20
25.811502
0
VERTEX
8
1
10
21.234838
20
25.795786
0
VERTEX
8
1
10
22.229019
20
24.801607
42
0.075239
0
VERTEX
8
1
10
22.703342
20
25.511415
0
SEQEND
0
POLYLINE
8
1
66
1
70
1
0
VERTEX
8
1
10
22.891954
20
26.044733
0
VERTEX
8
1
10
22.619711
20
25.832758
0
VERTEX
8
1
10
22.804667
20
25.756151
42
0.026693
0
SEQEND
0
POLYLINE
8
1
66
1
70
1
0
VERTEX
8
1
10
22.587606
20
27.605700
0
VERTEX
8
1
10
22.595474
20
27.516531
42
-0.134237
0
VERTEX
8
1
10
22.905794
20
27.347689
42
0.032127
0
VERTEX
8
1
10
22.804665
20
27.695612
0
SEQEND
0
POLYLINE
8
1
66
1
70
1
0
VERTEX
8
1
10
20.989422
20
27.410555
0
VERTEX
8
1
10
21.136784
20
27.291452
0
VERTEX
8
1
10
21.782543
20
27.558935
0
VERTEX
8
1
10
21.471550
20
27.892683
0
SEQEND
0
POLYLINE
8
1
66
1
70
1
0
VERTEX
8
1
10
21.648651
20
28.069784
0
VERTEX
8
1
10
22.019562
20
27.675135
0
VERTEX
8
1
10
22.040028
20
28.246077
42
-0.445813
0
VERTEX
8
1
10
22.154251
20
28.341555
0
VERTEX
8
1
10
22.199217
20
28.335108
42
-0.382103
0
VERTEX
8
1
10
22.285038
20
28.232885
0
VERTEX
8
1
10
22.270142
20
27.760904
0
VERTEX
8
1
10
22.372610
20
27.803347
0
VERTEX
8
1
10
22.372610
20
28.479708
42
0.020005
0
VERTEX
8
1
10
22.229017
20
28.650152
0
SEQEND
0
POLYLINE
8
1
66
1
70
1
0
VERTEX
8
1
10
21.071726
20
28.683634
0
VERTEX
8
1
10
21.467161
20
28.262888
0
VERTEX
8
1
10
22.041750
20
28.837477
42
0.018143
0
VERTEX
8
1
10
21.884808
20
28.970503
0
VERTEX
8
1
10
21.884808
20
28.933687
42
-0.414157
0
VERTEX
8
1
10
21.825481
20
28.874361
0
VERTEX
8
1
10
21.751396
20
28.874361
42
-0.414157
0
VERTEX
8
1
10
21.692070
20
28.933687
0
VERTEX
8
1
10
21.692070
20
29.109644
42
0.036342
0
VERTEX
8
1
10
21.331907
20
29.311762
0
SEQEND
0
POLYLINE
8
1
66
1
70
1
0
VERTEX
8
1
10
20.967960
20
28.433123
0
VERTEX
8
1
10
20.656017
20
27.680017
0
VERTEX
8
1
10
20.782259
20
27.577990
0
VERTEX
8
1
10
21.290863
20
28.086592
0
SEQEND
0
POLYLINE
8
1
66
1
70
1
0
VERTEX
8
1
10
25.314037
20
29.154345
0
VERTEX
8
1
10
25.166977
20
29.154345
0
VERTEX
8
1
10
25.166977
20
28.218035
42
0.956800
0
VERTEX
8
1
10
25.314037
20
28.218035
0
SEQEND
0
POLYLINE
8
1
66
1
70
1
0
VERTEX
8
1
10
28.466537
20
29.507425
0
VERTEX
8
1
10
28.335211
20
29.507425
0
VERTEX
8
1
10
28.335211
20
29.563868
0
VERTEX
8
1
10
26.461014
20
29.563868
0
VERTEX
8
1
10
26.461014
20
29.421572
0
VERTEX
8
1
10
28.100126
20
29.421572
42
-0.454615
0
VERTEX
8
1
10
28.224604
20
29.276606
0
VERTEX
8
1
10
28.224604
20
27.236204
0
VERTEX
8
1
10
28.383215
20
27.236204
0
VERTEX
8
1
10
28.383215
20
28.085924
42
-0.298390
0
VERTEX
8
1
10
28.466537
20
28.190298
0
SEQEND
0
POLYLINE
8
1
66
1
70
1
0
VERTEX
8
1
10
22.706797
20
29.563868
0
VERTEX
8
1
10
26.229816
20
29.563868
0
VERTEX
8
1
10
26.229816
20
29.421572
0
VERTEX
8
1
10
25.157570
20
29.421572
42
0.871257
0
VERTEX
8
1
10
25.011747
20
29.408480
0
VERTEX
8
1
10
25.011747
20
29.339869
0
VERTEX
8
1
10
24.064032
20
29.339869
42
0.999981
0
VERTEX
8
1
10
23.867952
20
29.339869
0
VERTEX
8
1
10
22.920237
20
29.339869
0
VERTEX
8
1
10
22.920237
20
29.408480
42
0.956800
0
VERTEX
8
1
10
22.773176
20
29.408480
0
VERTEX
8
1
10
22.773176
20
29.233660
0
VERTEX
8
1
10
22.773176
20
28.658266
0
VERTEX
8
1
10
22.739161
20
28.653704
42
0.010251
0
VERTEX
8
1
10
22.660940
20
28.755785
0
VERTEX
8
1
10
22.660940
20
29.508375
0
VERTEX
8
1
10
22.706797
20
29.508375
0
SEQEND
0
POLYLINE
8
1
66
1
70
1
0
VERTEX
8
1
10
22.706797
20
29.741301
0
VERTEX
8
1
10
22.706797
20
29.802492
0
VERTEX
8
1
10
22.324850
20
29.802492
0
VERTEX
8
1
10
22.324850
20
29.741301
0
VERTEX
8
1
10
22.210016
20
29.741301
0
VERTEX
8
1
10
21.884808
20
30.197565
0
VERTEX
8
1
10
21.884808
20
30.371477
42
0.414289
0
VERTEX
8
1
10
21.825481
20
30.430803
0
VERTEX
8
1
10
21.751396
20
30.430803
42
0.414289
0
VERTEX
8
1
10
21.692070
20
30.371477
0
VERTEX
8
1
10
21.692070
20
29.807276
0
VERTEX
8
1
10
21.692070
20
29.573709
42
0.017473
0
VERTEX
8
1
10
21.496759
20
29.673265
0
VERTEX
8
1
10
21.482979
20
29.891481
42
0.623573
0
VERTEX
8
1
10
21.390289
20
29.929873
0
VERTEX
8
1
10
21.226236
20
29.785315
42
0.027004
0
VERTEX
8
1
10
20.895252
20
29.885717
0
VERTEX
8
1
10
20.839161
20
30.097055
42
0.623475
0
VERTEX
8
1
10
20.740763
20
30.116632
0
VERTEX
8
1
10
20.608072
20
29.942850
42
0.026962
0
VERTEX
8
1
10
20.263849
20
29.976751
0
VERTEX
8
1
10
20.167610
20
30.173082
42
0.623427
0
VERTEX
8
1
10
20.067284
20
30.173082
0
VERTEX
8
1
10
19.971058
20
29.976778
42
0.026830
0
VERTEX
8
1
10
19.626808
20
29.942869
0
VERTEX
8
1
10
19.494131
20
30.116632
42
0.623475
0
VERTEX
8
1
10
19.395733
20
30.097055
0
VERTEX
8
1
10
19.339663
20
29.885794
42
0.026637
0
VERTEX
8
1
10
19.008604
20
29.785360
0
VERTEX
8
1
10
18.844604
20
29.929873
42
0.623592
0
VERTEX
8
1
10
18.751917
20
29.891481
0
VERTEX
8
1
10
18.738136
20
29.673296
42
0.026808
0
VERTEX
8
1
10
18.433056
20
29.510237
0
VERTEX
8
1
10
18.243994
20
29.619989
42
0.623521
0
VERTEX
8
1
10
18.160576
20
29.564253
0
VERTEX
8
1
10
18.189631
20
29.347544
42
0.026968
0
VERTEX
8
1
10
17.922249
20
29.128119
0
VERTEX
8
1
10
17.715380
20
29.198889
42
0.623493
0
VERTEX
8
1
10
17.644438
20
29.127947
0
VERTEX
8
1
10
17.715216
20
28.921061
42
0.027023
0
VERTEX
8
1
10
17.495792
20
28.653696
0
VERTEX
8
1
10
17.279074
20
28.682749
42
0.623505
0
VERTEX
8
1
10
17.223335
20
28.599333
0
VERTEX
8
1
10
17.333111
20
28.410234
42
0.026981
0
VERTEX
8
1
10
17.170067
20
28.105196
0
VERTEX
8
1
10
16.951847
20
28.091410
42
0.623498
0
VERTEX
8
1
10
16.913454
20
27.998720
0
VERTEX
8
1
10
17.057997
20
27.834688
42
0.026882
0
VERTEX
8
1
10
16.957594
20
27.503679
0
VERTEX
8
1
10
16.746271
20
27.447596
42
0.623502
0
VERTEX
8
1
10
16.726698
20
27.349195
0
VERTEX
8
1
10
16.900438
20
27.216536
42
0.026718
0
VERTEX
8
1
10
16.866539
20
26.872263
0
VERTEX
8
1
10
16.670248
20
26.776041
42
0.623524
0
VERTEX
8
1
10
16.670248
20
26.675718
0
VERTEX
8
1
10
16.866539
20
26.579496
42
0.026719
0
VERTEX
8
1
10
16.900438
20
26.235224
0
VERTEX
8
1
10
16.726698
20
26.102564
42
0.623512
0
VERTEX
8
1
10
16.746271
20
26.004168
0
VERTEX
8
1
10
16.957596
20
25.948076
42
0.023713
0
VERTEX
8
1
10
17.044065
20
25.656282
0
VERTEX
8
1
10
16.612576
20
25.656282
42
0.414235
0
VERTEX
8
1
10
16.532835
20
25.576540
0
VERTEX
8
1
10
16.532835
20
25.499670
42
0.414235
0
VERTEX
8
1
10
16.612576
20
25.419928
0
VERTEX
8
1
10
16.899704
20
25.419928
42
0.416706
0
VERTEX
8
1
10
16.951847
20
25.360346
0
VERTEX
8
1
10
17.170071
20
25.346567
42
0.026993
0
VERTEX
8
1
10
17.333115
20
25.041529
0
VERTEX
8
1
10
17.223337
20
24.852427
42
0.623475
0
VERTEX
8
1
10
17.279076
20
24.769011
0
VERTEX
8
1
10
17.495796
20
24.798067
42
0.027008
0
VERTEX
8
1
10
17.715218
20
24.530703
0
VERTEX
8
1
10
17.644438
20
24.323809
42
0.623471
0
VERTEX
8
1
10
17.715380
20
24.252871
0
VERTEX
8
1
10
17.922256
20
24.323645
42
0.026922
0
VERTEX
8
1
10
18.189632
20
24.104219
0
VERTEX
8
1
10
18.160576
20
23.887506
42
0.623401
0
VERTEX
8
1
10
18.243996
20
23.831766
0
VERTEX
8
1
10
18.433062
20
23.941526
42
0.026790
0
VERTEX
8
1
10
18.738136
20
23.778471
0
VERTEX
8
1
10
18.751917
20
23.560282
42
0.623530
0
VERTEX
8
1
10
18.844606
20
23.521887
0
VERTEX
8
1
10
19.008612
20
23.666407
42
0.026622
0
VERTEX
8
1
10
19.339661
20
23.565973
0
VERTEX
8
1
10
19.395733
20
23.354704
42
0.623494
0
VERTEX
8
1
10
19.494131
20
23.335131
0
VERTEX
8
1
10
19.626816
20
23.508898
42
0.026841
0
VERTEX
8
1
10
19.971056
20
23.474989
0
VERTEX
8
1
10
20.067286
20
23.278681
42
0.623444
0
VERTEX
8
1
10
20.167610
20
23.278681
0
VERTEX
8
1
10
20.263855
20
23.475016
42
0.026951
0
VERTEX
8
1
10
20.608068
20
23.508913
0
VERTEX
8
1
10
20.740765
20
23.335131
42
0.623494
0
VERTEX
8
1
10
20.839163
20
23.354704
0
VERTEX
8
1
10
20.895256
20
23.566050
42
0.027021
0
VERTEX
8
1
10
21.226233
20
23.666452
0
VERTEX
8
1
10
21.390289
20
23.521887
42
0.623530
0
VERTEX
8
1
10
21.482979
20
23.560282
0
VERTEX
8
1
10
21.496761
20
23.778502
42
0.026981
0
VERTEX
8
1
10
21.801796
20
23.941545
0
VERTEX
8
1
10
21.990900
20
23.831766
42
0.623401
0
VERTEX
8
1
10
22.074320
20
23.887506
0
VERTEX
8
1
10
22.045267
20
24.104200
42
0.026843
0
VERTEX
8
1
10
22.312647
20
24.323641
0
VERTEX
8
1
10
22.519516
20
24.252871
42
0.623482
0
VERTEX
8
1
10
22.590456
20
24.323812
0
VERTEX
8
1
10
22.519701
20
24.530634
42
0.026657
0
VERTEX
8
1
10
22.739157
20
24.798059
0
VERTEX
8
1
10
22.955820
20
24.769014
42
0.623526
0
VERTEX
8
1
10
23.011559
20
24.852427
0
VERTEX
8
1
10
22.901800
20
25.041498
42
0.026765
0
VERTEX
8
1
10
23.064877
20
25.346571
0
VERTEX
8
1
10
23.283049
20
25.360353
42
0.623538
0
VERTEX
8
1
10
23.321442
20
25.453043
0
VERTEX
8
1
10
23.176888
20
25.617083
42
0.026924
0
VERTEX
8
1
10
23.277300
20
25.948080
0
VERTEX
8
1
10
23.488625
20
26.004168
42
0.623501
0
VERTEX
8
1
10
23.508196
20
26.102564
0
VERTEX
8
1
10
23.334406
20
26.235262
42
0.014087
0
VERTEX
8
1
10
23.355837
20
26.405924
0
VERTEX
8
1
10
23.398994
20
26.439531
0
VERTEX
8
1
10
27.857683
20
26.439531
0
VERTEX
8
1
10
27.857683
20
26.297312
42
16.158197
0
VERTEX
8
1
10
28.187983
20
26.297312
0
VERTEX
8
1
10
28.187983
20
26.439531
0
VERTEX
8
1
10
28.631273
20
26.439531
42
0.414203
0
VERTEX
8
1
10
28.786510
20
26.594767
0
VERTEX
8
1
10
28.786510
20
27.089144
0
VERTEX
8
1
10
28.829182
20
27.089144
42
0.956750
0
VERTEX
8
1
10
28.829182
20
27.236204
0
VERTEX
8
1
10
28.786509
20
27.236204
0
VERTEX
8
1
10
28.786509
20
28.085924
42
0.300004
0
VERTEX
8
1
10
28.702208
20
28.190741
0
VERTEX
8
1
10
28.702208
20
29.507425
0
VERTEX
8
1
10
28.833115
20
29.507425
0
VERTEX
8
1
10
28.833115
20
29.797869
0
VERTEX
8
1
10
28.702208
20
29.797869
0
VERTEX
8
1
10
28.702208
20
29.857363
0
VERTEX
8
1
10
28.701727
20
29.869982
42
0.416580
0
VERTEX
8
1
10
28.579166
20
29.994127
42
0.388989
0
VERTEX
8
1
10
28.467018
20
29.869982
0
VERTEX
8
1
10
28.466537
20
29.857363
0
VERTEX
8
1
10
28.466537
20
29.797869
0
VERTEX
8
1
10
28.335211
20
29.797869
0
VERTEX
8
1
10
28.335211
20
29.741301
0
VERTEX
8
1
10
26.461014
20
29.741301
0
VERTEX
8
1
10
26.461014
20
31.351236
0
VERTEX
8
1
10
26.229816
20
31.351236
0
VERTEX
8
1
10
26.229816
20
29.741301
0
SEQEND
0
POLYLINE
8
1
66
1
70
1
0
VERTEX
8
1
10
25.314037
20
27.629473
42
0.087125
0
VERTEX
8
1
10
25.166977
20
27.672899
0
VERTEX
8
1
10
25.166977
20
27.765162
42
-0.956800
0
VERTEX
8
1
10
25.314037
20
27.765162
0
VERTEX
8
1
10
25.314037
20
27.629671
0
SEQEND
0
POLYLINE
8
1
66
1
70
1
0
VERTEX
8
1
10
25.593937
20
28.141321
0
VERTEX
8
1
10
25.521368
20
28.141321
42
-0.405431
0
VERTEX
8
1
10
25.453392
20
28.211493
0
VERTEX
8
1
10
25.453392
20
29.154345
0
VERTEX
8
1
10
25.600451
20
29.154345
0
VERTEX
8
1
10
26.229816
20
29.154345
0
VERTEX
8
1
10
26.229816
20
28.470812
0
VERTEX
8
1
10
25.800737
20
28.470812
42
0.414222
0
VERTEX
8
1
10
25.593937
20
28.264009
0
SEQEND
0
POLYLINE
8
1
66
1
70
1
0
VERTEX
8
1
10
26.461014
20
28.470812
0
VERTEX
8
1
10
26.461014
20
29.154345
0
VERTEX
8
1
10
27.278841
20
29.154345
42
-0.119111
0
VERTEX
8
1
10
27.165794
20
29.013186
42
-0.001935
0
VERTEX
8
1
10
26.754011
20
28.667570
42
0.148325
0
VERTEX
8
1
10
26.647562
20
28.470812
0
SEQEND
0
POLYLINE
8
1
66
1
70
1
0
VERTEX
8
1
10
27.343718
20
27.751867
0
VERTEX
8
1
10
27.343718
20
27.443590
0
VERTEX
8
1
10
27.239050
20
27.443590
42
-0.389148
0
VERTEX
8
1
10
27.146832
20
27.538172
0
VERTEX
8
1
10
27.146832
20
27.851786
0
VERTEX
8
1
10
27.215395
20
27.850328
42
-0.109220
0
VERTEX
8
1
10
27.236008
20
27.807650
42
0.290879
0
VERTEX
8
1
10
27.312756
20
27.759790
0
VERTEX
8
1
10
27.328461
20
27.756456
0
SEQEND
0
ENDSEC
0
EOF
