  0
SECTION
  2
HEADER
  9
$ACADVER
  1
AC1021
  9
$ACADMAINTVER
 70
    25
  9
$DWGCODEPAGE
  3
ANSI_1251
  9
$INSBASE
 10
0.0
 20
0.0
 30
0.0
  9
$EXTMIN
 10
-8.26811
 20
-1.65361
 30
0.0
  9
$EXTMAX
 10
35.35645
 20
12.83305
 30
0.0
  9
$LIMMIN
 10
0.0
 20
0.0
  9
$LIMMAX
 10
12.0
 20
9.0
  9
$ORTHOMODE
 70
     0
  9
$REGENMODE
 70
     1
  9
$FILLMODE
 70
     1
  9
$QTEXTMODE
 70
     0
  9
$MIRRTEXT
 70
     1
  9
$LTSCALE
 40
1.0
  9
$ATTMODE
 70
     1
  9
$TEXTSIZE
 40
0.2
  9
$TRACEWID
 40
0.05
  9
$TEXTSTYLE
  7
Standard
  9
$CLAYER
  8
0
  9
$CELTYPE
  6
ByLayer
  9
$CECOLOR
 62
   256
  9
$CELTSCALE
 40
1.0
  9
$DISPSILH
 70
     0
  9
$DIMSCALE
 40
1.0
  9
$DIMASZ
 40
0.18
  9
$DIMEXO
 40
0.0625
  9
$DIMDLI
 40
0.38
  9
$DIMRND
 40
0.0
  9
$DIMDLE
 40
0.0
  9
$DIMEXE
 40
0.18
  9
$DIMTP
 40
0.0
  9
$DIMTM
 40
0.0
  9
$DIMTXT
 40
0.18
  9
$DIMCEN
 40
0.09
  9
$DIMTSZ
 40
0.0
  9
$DIMTOL
 70
     0
  9
$DIMLIM
 70
     0
  9
$DIMTIH
 70
     1
  9
$DIMTOH
 70
     1
  9
$DIMSE1
 70
     0
  9
$DIMSE2
 70
     0
  9
$DIMTAD
 70
     0
  9
$DIMZIN
 70
     0
  9
$DIMBLK
  1

  9
$DIMASO
 70
     1
  9
$DIMSHO
 70
     1
  9
$DIMPOST
  1

  9
$DIMAPOST
  1

  9
$DIMALT
 70
     0
  9
$DIMALTD
 70
     2
  9
$DIMALTF
 40
25.4
  9
$DIMLFAC
 40
1.0
  9
$DIMTOFL
 70
     0
  9
$DIMTVP
 40
0.0
  9
$DIMTIX
 70
     0
  9
$DIMSOXD
 70
     0
  9
$DIMSAH
 70
     0
  9
$DIMBLK1
  1

  9
$DIMBLK2
  1

  9
$DIMSTYLE
  2
Standard
  9
$DIMCLRD
 70
     0
  9
$DIMCLRE
 70
     0
  9
$DIMCLRT
 70
     0
  9
$DIMTFAC
 40
1.0
  9
$DIMGAP
 40
0.09
  9
$DIMJUST
 70
     0
  9
$DIMSD1
 70
     0
  9
$DIMSD2
 70
     0
  9
$DIMTOLJ
 70
     1
  9
$DIMTZIN
 70
     0
  9
$DIMALTZ
 70
     0
  9
$DIMALTTZ
 70
     0
  9
$DIMUPT
 70
     0
  9
$DIMDEC
 70
     4
  9
$DIMTDEC
 70
     4
  9
$DIMALTU
 70
     2
  9
$DIMALTTD
 70
     2
  9
$DIMTXSTY
  7
Standard
  9
$DIMAUNIT
 70
     0
  9
$DIMADEC
 70
     0
  9
$DIMALTRND
 40
0.0
  9
$DIMAZIN
 70
     0
  9
$DIMDSEP
 70
    46
  9
$DIMATFIT
 70
     3
  9
$DIMFRAC
 70
     0
  9
$DIMLDRBLK
  1

  9
$DIMLUNIT
 70
     2
  9
$DIMLWD
 70
    -2
  9
$DIMLWE
 70
    -2
  9
$DIMTMOVE
 70
     0
  9
$DIMFXL
 40
1.0
  9
$DIMFXLON
 70
     0
  9
$DIMJOGANG
 40
0.7853981633974483
  9
$DIMTFILL
 70
     0
  9
$DIMTFILLCLR
 70
     0
  9
$DIMARCSYM
 70
     0
  9
$DIMLTYPE
  6

  9
$DIMLTEX1
  6

  9
$DIMLTEX2
  6

  9
$LUNITS
 70
     2
  9
$LUPREC
 70
     4
  9
$SKETCHINC
 40
0.1
  9
$FILLETRAD
 40
0.5
  9
$AUNITS
 70
     0
  9
$AUPREC
 70
     0
  9
$MENU
  1
.
  9
$ELEVATION
 40
0.0
  9
$PELEVATION
 40
0.0
  9
$THICKNESS
 40
0.0
  9
$LIMCHECK
 70
     0
  9
$CHAMFERA
 40
0.0
  9
$CHAMFERB
 40
0.0
  9
$CHAMFERC
 40
0.0
  9
$CHAMFERD
 40
0.0
  9
$SKPOLY
 70
     0
  9
$TDCREATE
 40
2458016.430194572
  9
$TDUCREATE
 40
2458016.138527905
  9
$TDUPDATE
 40
2458016.430195301
  9
$TDUUPDATE
 40
2458016.138528634
  9
$TDINDWG
 40
0.0000000116
  9
$TDUSRTIMER
 40
0.0000000116
  9
$USRTIMER
 70
     1
  9
$ANGBASE
 50
0.0
  9
$ANGDIR
 70
     0
  9
$PDMODE
 70
     0
  9
$PDSIZE
 40
0.0
  9
$PLINEWID
 40
0.0
  9
$SPLFRAME
 70
     0
  9
$SPLINETYPE
 70
     6
  9
$SPLINESEGS
 70
     8
  9
$HANDSEED
  5
13F
  9
$SURFTAB1
 70
     6
  9
$SURFTAB2
 70
     6
  9
$SURFTYPE
 70
     6
  9
$SURFU
 70
     6
  9
$SURFV
 70
     6
  9
$UCSBASE
  2

  9
$UCSNAME
  2

  9
$UCSORG
 10
0.0
 20
0.0
 30
0.0
  9
$UCSXDIR
 10
1.0
 20
0.0
 30
0.0
  9
$UCSYDIR
 10
0.0
 20
1.0
 30
0.0
  9
$UCSORTHOREF
  2

  9
$UCSORTHOVIEW
 70
     0
  9
$UCSORGTOP
 10
0.0
 20
0.0
 30
0.0
  9
$UCSORGBOTTOM
 10
0.0
 20
0.0
 30
0.0
  9
$UCSORGLEFT
 10
0.0
 20
0.0
 30
0.0
  9
$UCSORGRIGHT
 10
0.0
 20
0.0
 30
0.0
  9
$UCSORGFRONT
 10
0.0
 20
0.0
 30
0.0
  9
$UCSORGBACK
 10
0.0
 20
0.0
 30
0.0
  9
$PUCSBASE
  2

  9
$PUCSNAME
  2

  9
$PUCSORG
 10
0.0
 20
0.0
 30
0.0
  9
$PUCSXDIR
 10
1.0
 20
0.0
 30
0.0
  9
$PUCSYDIR
 10
0.0
 20
1.0
 30
0.0
  9
$PUCSORTHOREF
  2

  9
$PUCSORTHOVIEW
 70
     0
  9
$PUCSORGTOP
 10
0.0
 20
0.0
 30
0.0
  9
$PUCSORGBOTTOM
 10
0.0
 20
0.0
 30
0.0
  9
$PUCSORGLEFT
 10
0.0
 20
0.0
 30
0.0
  9
$PUCSORGRIGHT
 10
0.0
 20
0.0
 30
0.0
  9
$PUCSORGFRONT
 10
0.0
 20
0.0
 30
0.0
  9
$PUCSORGBACK
 10
0.0
 20
0.0
 30
0.0
  9
$USERI1
 70
     0
  9
$USERI2
 70
     0
  9
$USERI3
 70
     0
  9
$USERI4
 70
     0
  9
$USERI5
 70
     0
  9
$USERR1
 40
0.0
  9
$USERR2
 40
0.0
  9
$USERR3
 40
0.0
  9
$USERR4
 40
0.0
  9
$USERR5
 40
0.0
  9
$WORLDVIEW
 70
     1
  9
$SHADEDGE
 70
     3
  9
$SHADEDIF
 70
    70
  9
$TILEMODE
 70
     1
  9
$MAXACTVP
 70
    64
  9
$PINSBASE
 10
0.0
 20
0.0
 30
0.0
  9
$PLIMCHECK
 70
     0
  9
$PEXTMIN
 10
1.000000000000000E+20
 20
1.000000000000000E+20
 30
1.000000000000000E+20
  9
$PEXTMAX
 10
-1.000000000000000E+20
 20
-1.000000000000000E+20
 30
-1.000000000000000E+20
  9
$PLIMMIN
 10
0.0
 20
0.0
  9
$PLIMMAX
 10
12.0
 20
9.0
  9
$UNITMODE
 70
     0
  9
$VISRETAIN
 70
     1
  9
$PLINEGEN
 70
     0
  9
$PSLTSCALE
 70
     1
  9
$TREEDEPTH
 70
  3020
  9
$CMLSTYLE
  2
Standard
  9
$CMLJUST
 70
     0
  9
$CMLSCALE
 40
1.0
  9
$PROXYGRAPHICS
 70
     1
  9
$MEASUREMENT
 70
     0
  9
$CELWEIGHT
370
    -1
  9
$ENDCAPS
280
     0
  9
$JOINSTYLE
280
     0
  9
$LWDISPLAY
290
     0
  9
$INSUNITS
 70
     5
  9
$HYPERLINKBASE
  1

  9
$STYLESHEET
  1

  9
$XEDIT
290
     1
  9
$CEPSNTYPE
380
     0
  9
$PSTYLEMODE
290
     1
  9
$FINGERPRINTGUID
  2
{B1062DAA-AB0B-412E-B5B7-CFA8612343C0}
  9
$VERSIONGUID
  2
{FAEB1C32-E019-11D5-929B-00C0DF256EC4}
  9
$EXTNAMES
290
     1
  9
$PSVPSCALE
 40
0.0
  9
$OLESTARTUP
290
     0
  9
$SORTENTS
280
   127
  9
$INDEXCTL
280
     0
  9
$HIDETEXT
280
     1
  9
$XCLIPFRAME
290
     0
  9
$HALOGAP
280
     0
  9
$OBSCOLOR
 70
   257
  9
$OBSLTYPE
280
     0
  9
$INTERSECTIONDISPLAY
280
     0
  9
$INTERSECTIONCOLOR
 70
   257
  9
$DIMASSOC
280
     2
  9
$PROJECTNAME
  1

  9
$CAMERADISPLAY
290
     0
  9
$LENSLENGTH
 40
50.0
  9
$CAMERAHEIGHT
 40
0.0
  9
$STEPSPERSEC
 40
2.0
  9
$STEPSIZE
 40
6.0
  9
$3DDWFPREC
 40
2.0
  9
$PSOLWIDTH
 40
0.25
  9
$PSOLHEIGHT
 40
4.0
  9
$LOFTANG1
 40
1.570796326794897
  9
$LOFTANG2
 40
1.570796326794897
  9
$LOFTMAG1
 40
0.0
  9
$LOFTMAG2
 40
0.0
  9
$LOFTPARAM
 70
     7
  9
$LOFTNORMALS
280
     1
  9
$LATITUDE
 40
37.795
  9
$LONGITUDE
 40
-122.394
  9
$NORTHDIRECTION
 40
0.0
  9
$TIMEZONE
 70
 -8000
  9
$LIGHTGLYPHDISPLAY
280
     1
  9
$TILEMODELIGHTSYNCH
280
     1
  9
$CMATERIAL
347
44
  9
$SOLIDHIST
280
     0
  9
$SHOWHIST
280
     1
  9
$DWFFRAME
280
     2
  9
$DGNFRAME
280
     2
  9
$REALWORLDSCALE
290
     1
  9
$INTERFERECOLOR
 62
   256
  9
$CSHADOW
280
     0
  9
$SHADOWPLANELOCATION
 40
0.0
  0
ENDSEC
  0
SECTION
  2
CLASSES
  0
CLASS
  1
ACDBDICTIONARYWDFLT
  2
AcDbDictionaryWithDefault
  3
ObjectDBX Classes
 90
        0
 91
        4
280
     0
281
     0
  0
CLASS
  1
VISUALSTYLE
  2
AcDbVisualStyle
  3
ObjectDBX Classes
 90
     4095
 91
        4
280
     0
281
     0
  0
CLASS
  1
MATERIAL
  2
AcDbMaterial
  3
ObjectDBX Classes
 90
     1153
 91
        4
280
     0
281
     0
  0
CLASS
  1
SCALE
  2
AcDbScale
  3
ObjectDBX Classes
 90
     1153
 91
        4
280
     0
281
     0
  0
CLASS
  1
TABLESTYLE
  2
AcDbTableStyle
  3
ObjectDBX Classes
 90
     4095
 91
        4
280
     0
281
     0
  0
CLASS
  1
MLEADERSTYLE
  2
AcDbMLeaderStyle
  3
ACDB_MLEADERSTYLE_CLASS
 90
     4095
 91
        4
280
     0
281
     0
  0
CLASS
  1
SUN
  2
AcDbSun
  3
SCENEOE
 90
     1153
 91
        4
280
     0
281
     0
  0
CLASS
  1
IMAGEDEF
  2
AcDbRasterImageDef
  3
ISM
 90
        0
 91
        4
280
     0
281
     0
  0
CLASS
  1
IMAGE
  2
AcDbRasterImage
  3
ISM
 90
      127
 91
        5
280
     0
281
     1
  0
CLASS
  1
IMAGEDEF_REACTOR
  2
AcDbRasterImageDefReactor
  3
ISM
 90
        1
 91
        4
280
     0
281
     0
  0
CLASS
  1
DICTIONARYVAR
  2
AcDbDictionaryVar
  3
ObjectDBX Classes
 90
        0
 91
        4
280
     0
281
     0
  0
CLASS
  1
CELLSTYLEMAP
  2
AcDbCellStyleMap
  3
ObjectDBX Classes
 90
     1152
 91
        4
280
     0
281
     0
  0
ENDSEC
  0
SECTION
  2
TABLES
  0
TABLE
  2
VPORT
  5
8
330
0
100
AcDbSymbolTable
 70
     1
  0
VPORT
  5
29
330
8
100
AcDbSymbolTableRecord
100
AcDbViewportTableRecord
  2
*Active
 70
     0
 10
0.0
 20
0.0
 11
1.0
 21
1.0
 12
10.42990654205607
 22
4.5
 13
0.0
 23
0.0
 14
0.5
 24
0.5
 15
0.5
 25
0.5
 16
0.0
 26
0.0
 36
1.0
 17
0.0
 27
0.0
 37
0.0
 40
9.0
 41
1.972972972850329
 42
50.0
 43
0.0
 44
0.0
 50
0.0
 51
0.0
 71
     0
 72
   100
 73
     1
 74
     3
 75
     0
 76
     0
 77
     0
 78
     0
281
     0
 65
     1
110
0.0
120
0.0
130
0.0
111
1.0
121
0.0
131
0.0
112
0.0
122
1.0
132
0.0
 79
     0
146
0.0
 60
     3
 61
     5
292
     1
282
     1
141
0.0
142
0.0
 63
   250
361
6D
  0
ENDTAB
  0
TABLE
  2
LTYPE
  5
5
330
0
100
AcDbSymbolTable
 70
     1
  0
LTYPE
  5
14
330
5
100
AcDbSymbolTableRecord
100
AcDbLinetypeTableRecord
  2
ByBlock
 70
     0
  3

 72
    65
 73
     0
 40
0.0
  0
LTYPE
  5
15
330
5
100
AcDbSymbolTableRecord
100
AcDbLinetypeTableRecord
  2
ByLayer
 70
     0
  3

 72
    65
 73
     0
 40
0.0
  0
LTYPE
  5
16
330
5
100
AcDbSymbolTableRecord
100
AcDbLinetypeTableRecord
  2
Continuous
 70
     0
  3
Solid line
 72
    65
 73
     0
 40
0.0
  0
ENDTAB
  0
TABLE
  2
LAYER
  5
2
330
0
100
AcDbSymbolTable
 70
     2
  0
LAYER
  5
10
330
2
100
AcDbSymbolTableRecord
100
AcDbLayerTableRecord
  2
0
 70
     0
 62
     7
  6
Continuous
370
    -3
390
F
347
46
  0
LAYER
  5
6F
330
2
100
AcDbSymbolTableRecord
100
AcDbLayerTableRecord
  2
layer 1
 70
     0
 62
     7
  6
Continuous
370
    -3
390
F
347
46
  0
ENDTAB
  0
TABLE
  2
STYLE
  5
3
330
0
100
AcDbSymbolTable
 70
     1
  0
STYLE
  5
11
330
3
100
AcDbSymbolTableRecord
100
AcDbTextStyleTableRecord
  2
Standard
 70
     0
 40
0.0
 41
1.0
 50
0.0
 71
     0
 42
0.2
  3
txt
  4

  0
ENDTAB
  0
TABLE
  2
VIEW
  5
6
330
0
100
AcDbSymbolTable
 70
     0
  0
ENDTAB
  0
TABLE
  2
UCS
  5
7
330
0
100
AcDbSymbolTable
 70
     0
  0
ENDTAB
  0
TABLE
  2
APPID
  5
9
330
0
100
AcDbSymbolTable
 70
     3
  0
APPID
  5
12
330
9
100
AcDbSymbolTableRecord
100
AcDbRegAppTableRecord
  2
ACAD
 70
     0
  0
APPID
  5
6E
330
9
100
AcDbSymbolTableRecord
100
AcDbRegAppTableRecord
  2
ODA
 70
     0
  0
APPID
  5
137
330
9
100
AcDbSymbolTableRecord
100
AcDbRegAppTableRecord
  2
ACAD_MLEADERVER
 70
     0
  0
ENDTAB
  0
TABLE
  2
DIMSTYLE
  5
A
330
0
100
AcDbSymbolTable
 70
     1
100
AcDbDimStyleTable
  0
DIMSTYLE
105
27
330
A
100
AcDbSymbolTableRecord
100
AcDbDimStyleTableRecord
  2
Standard
 70
     0
178
     0
340
11
  0
ENDTAB
  0
TABLE
  2
BLOCK_RECORD
  5
1
330
0
100
AcDbSymbolTable
 70
     1
  0
BLOCK_RECORD
  5
1F
330
1
100
AcDbSymbolTableRecord
100
AcDbBlockTableRecord
  2
*Model_Space
340
22
 70
     0
280
     1
281
     0
  0
BLOCK_RECORD
  5
1B
330
1
100
AcDbSymbolTableRecord
100
AcDbBlockTableRecord
  2
*Paper_Space
340
1E
 70
     0
280
     1
281
     0
  0
BLOCK_RECORD
  5
23
330
1
100
AcDbSymbolTableRecord
100
AcDbBlockTableRecord
  2
*Paper_Space0
340
26
 70
     0
280
     1
281
     0
  0
ENDTAB
  0
ENDSEC
  0
SECTION
  2
BLOCKS
  0
BLOCK
  5
20
330
1F
100
AcDbEntity
  8
0
100
AcDbBlockBegin
  2
*Model_Space
 70
     0
 10
0.0
 20
0.0
 30
0.0
  3
*Model_Space
  1
*Model_Space
  0
ENDBLK
  5
21
330
1F
100
AcDbEntity
  8
0
100
AcDbBlockEnd
  0
BLOCK
  5
1C
330
1B
100
AcDbEntity
 67
     1
  8
0
100
AcDbBlockBegin
  2
*Paper_Space
 70
     0
 10
0.0
 20
0.0
 30
0.0
  3
*Paper_Space
  1
*Paper_Space
  0
ENDBLK
  5
1D
330
1B
100
AcDbEntity
 67
     1
  8
0
100
AcDbBlockEnd
  0
BLOCK
  5
24
330
23
100
AcDbEntity
  8
0
100
AcDbBlockBegin
  2
*Paper_Space0
 70
     0
 10
0.0
 20
0.0
 30
0.0
  3
*Paper_Space0
  1
*Paper_Space0
  0
ENDBLK
  5
25
330
23
100
AcDbEntity
  8
0
100
AcDbBlockEnd
  0
ENDSEC
  0
SECTION
  2
ENTITIES
  0
IMAGE
  5
72
330
1F
100
AcDbEntity
  8
layer 1
 62
     0
 92
      140
310
8C000000010000008400000006000000050000007E1D3867448920C048A60A462575FABF000000000000000076E156ADAABC184048A60A462575FABF000000000000000076E156ADAABC184070392215F598294000000000000000007E1D3867448920C070392215F598294000000000000000007E1D3867448920C048A60A
310
462575FABF0000000000000000
100
AcDbRasterImage
 90
        0
 10
-8.2681
 20
-1.6536
 30
0.0
 11
0.04213511612680224
 21
0.0
 31
0.0
 12
0.0
 22
0.04213511612680224
 32
0.0
 13
343.0
 23
343.0
340
71
 70
     3
280
     1
281
    50
282
    50
283
     0
360
73
 71
     1
 91
        2
 14
-8.2681
 24
-1.6536
 14
-3.492900000000001
 24
3.1216
  0
SPLINE
  5
74
330
1F
100
AcDbEntity
  8
layer 1
 62
   242
370
    20
100
AcDbSpline
210
0.0
220
0.0
230
1.0
 70
     8
 71
     3
 72
    72
 73
    68
 74
     0
 42
0.000000001
 43
0.0000000001
 40
0.0
 40
0.0
 40
0.0
 40
0.0
 40
0.0555555555555556
 40
0.0555555555555556
 40
0.0555555555555556
 40
0.0555555555555556
 40
0.1111111111111111
 40
0.1111111111111111
 40
0.1111111111111111
 40
0.1111111111111111
 40
0.1666666666666667
 40
0.1666666666666667
 40
0.1666666666666667
 40
0.1666666666666667
 40
0.2222222222222222
 40
0.2222222222222222
 40
0.2222222222222222
 40
0.2222222222222222
 40
0.2777777777777778
 40
0.2777777777777778
 40
0.2777777777777778
 40
0.2777777777777778
 40
0.3333333333333333
 40
0.3333333333333333
 40
0.3333333333333333
 40
0.3333333333333333
 40
0.3888888888888889
 40
0.3888888888888889
 40
0.3888888888888889
 40
0.3888888888888889
 40
0.4444444444444444
 40
0.4444444444444444
 40
0.4444444444444444
 40
0.4444444444444444
 40
0.5
 40
0.5
 40
0.5
 40
0.5
 40
0.5555555555555556
 40
0.5555555555555556
 40
0.5555555555555556
 40
0.5555555555555556
 40
0.6111111111111112
 40
0.6111111111111112
 40
0.6111111111111112
 40
0.6111111111111112
 40
0.6666666666666666
 40
0.6666666666666666
 40
0.6666666666666666
 40
0.6666666666666666
 40
0.7222222222222222
 40
0.7222222222222222
 40
0.7222222222222222
 40
0.7222222222222222
 40
0.7777777777777778
 40
0.7777777777777778
 40
0.7777777777777778
 40
0.7777777777777778
 40
0.8333333333333334
 40
0.8333333333333334
 40
0.8333333333333334
 40
0.8333333333333334
 40
0.8888888888888888
 40
0.8888888888888888
 40
0.8888888888888888
 40
0.8888888888888888
 40
1.0
 40
1.0
 40
1.0
 40
1.0
 10
3.3659
 20
1.44951
 30
0.0
 10
3.36149
 20
1.42702
 30
0.0
 10
3.35708
 20
1.40453
 30
0.0
 10
3.36237
 20
1.38314
 30
0.0
 10
3.36237
 20
1.38314
 30
0.0
 10
3.36766
 20
1.36175
 30
0.0
 10
3.38266
 20
1.34147
 30
0.0
 10
3.4003
 20
1.32713
 30
0.0
 10
3.4003
 20
1.32713
 30
0.0
 10
3.41794
 20
1.3128
 30
0.0
 10
3.43822
 20
1.30443
 30
0.0
 10
3.46358
 20
1.302
 30
0.0
 10
3.46358
 20
1.302
 30
0.0
 10
3.48894
 20
1.29958
 30
0.0
 10
3.51936
 20
1.3031
 30
0.0
 10
3.54339
 20
1.31655
 30
0.0
 10
3.54339
 20
1.31655
 30
0.0
 10
3.56743
 20
1.33
 30
0.0
 10
3.58507
 20
1.35337
 30
0.0
 10
3.59301
 20
1.38446
 30
0.0
 10
3.59301
 20
1.38446
 30
0.0
 10
3.60095
 20
1.41555
 30
0.0
 10
3.59918
 20
1.45435
 30
0.0
 10
3.58749
 20
1.48941
 30
0.0
 10
3.58749
 20
1.48941
 30
0.0
 10
3.57581
 20
1.52447
 30
0.0
 10
3.5542
 20
1.55578
 30
0.0
 10
3.52553
 20
1.58158
 30
0.0
 10
3.52553
 20
1.58158
 30
0.0
 10
3.49687
 20
1.60738
 30
0.0
 10
3.46116
 20
1.62766
 30
0.0
 10
3.42279
 20
1.63648
 30
0.0
 10
3.42279
 20
1.63648
 30
0.0
 10
3.38443
 20
1.6453
 30
0.0
 10
3.34341
 20
1.64266
 30
0.0
 10
3.29887
 20
1.62634
 30
0.0
 10
3.29887
 20
1.62634
 30
0.0
 10
3.25433
 20
1.61002
 30
0.0
 10
3.20627
 20
1.58004
 30
0.0
 10
3.16856
 20
1.5452
 30
0.0
 10
3.16856
 20
1.5452
 30
0.0
 10
3.13086
 20
1.51036
 30
0.0
 10
3.10352
 20
1.47067
 30
0.0
 10
3.08698
 20
1.42194
 30
0.0
 10
3.08698
 20
1.42194
 30
0.0
 10
3.07045
 20
1.37321
 30
0.0
 10
3.06471
 20
1.31545
 30
0.0
 10
3.0711
 20
1.25239
 30
0.0
 10
3.0711
 20
1.25239
 30
0.0
 10
3.0775
 20
1.18933
 30
0.0
 10
3.09603
 20
1.12097
 30
0.0
 10
3.12425
 20
1.05769
 30
0.0
 10
3.12425
 20
1.05769
 30
0.0
 10
3.15247
 20
0.99441
 30
0.0
 10
3.1904
 20
0.93621
 30
0.0
 10
3.22193
 20
0.88505
 30
0.0
 10
3.22193
 20
0.88505
 30
0.0
 10
3.25346
 20
0.8339
 30
0.0
 10
3.27859
 20
0.7898
 30
0.0
 10
3.32203
 20
0.73115
 30
0.0
 10
3.32203
 20
0.73115
 30
0.0
 10
3.36547
 20
0.6725
 30
0.0
 10
3.4272
 20
0.5993
 30
0.0
 10
3.49202
 20
0.53093
 30
0.0
 10
3.49202
 20
0.53093
 30
0.0
 10
3.55684
 20
0.46257
 30
0.0
 10
3.62475
 20
0.39905
 30
0.0
 10
3.69265
 20
0.33552
 30
0.0
  0
SPLINE
  5
75
330
1F
100
AcDbEntity
  8
layer 1
 62
   242
370
    20
100
AcDbSpline
210
0.0
220
0.0
230
1.0
 70
     8
 71
     3
 72
    24
 73
    20
 74
     0
 42
0.000000001
 43
0.0000000001
 40
0.0
 40
0.0
 40
0.0
 40
0.0
 40
0.1666666666666667
 40
0.1666666666666667
 40
0.1666666666666667
 40
0.1666666666666667
 40
0.3333333333333333
 40
0.3333333333333333
 40
0.3333333333333333
 40
0.3333333333333333
 40
0.5
 40
0.5
 40
0.5
 40
0.5
 40
0.6666666666666666
 40
0.6666666666666666
 40
0.6666666666666666
 40
0.6666666666666666
 40
1.0
 40
1.0
 40
1.0
 40
1.0
 10
3.69265
 20
0.55744
 30
0.0
 10
3.64679
 20
0.61358
 30
0.0
 10
3.60094
 20
0.66972
 30
0.0
 10
3.56522
 20
0.71631
 30
0.0
 10
3.56522
 20
0.71631
 30
0.0
 10
3.5295
 20
0.7629
 30
0.0
 10
3.50393
 20
0.79995
 30
0.0
 10
3.49224
 20
0.83302
 30
0.0
 10
3.49224
 20
0.83302
 30
0.0
 10
3.48056
 20
0.86609
 30
0.0
 10
3.48276
 20
0.8952
 30
0.0
 10
3.49048
 20
0.92055
 30
0.0
 10
3.49048
 20
0.92055
 30
0.0
 10
3.4982
 20
0.94591
 30
0.0
 10
3.51143
 20
0.96751
 30
0.0
 10
3.52047
 20
0.98493
 30
0.0
 10
3.52047
 20
0.98493
 30
0.0
 10
3.52951
 20
1.00235
 30
0.0
 10
3.53436
 20
1.01558
 30
0.0
 10
3.53921
 20
1.02881
 30
0.0
  0
SPLINE
  5
76
330
1F
100
AcDbEntity
  8
layer 1
 62
   242
370
    20
100
AcDbSpline
210
0.0
220
0.0
230
1.0
 70
     8
 71
     3
 72
    20
 73
    16
 74
     0
 42
0.000000001
 43
0.0000000001
 40
0.0
 40
0.0
 40
0.0
 40
0.0
 40
0.2
 40
0.2
 40
0.2
 40
0.2
 40
0.4
 40
0.4
 40
0.4
 40
0.4
 40
0.6
 40
0.6
 40
0.6
 40
0.6
 40
1.0
 40
1.0
 40
1.0
 40
1.0
 10
3.53921
 20
1.02881
 30
0.0
 10
3.49246
 20
1.02573
 30
0.0
 10
3.44571
 20
1.02266
 30
0.0
 10
3.39676
 20
1.04184
 30
0.0
 10
3.39676
 20
1.04184
 30
0.0
 10
3.34781
 20
1.06103
 30
0.0
 10
3.29665
 20
1.10248
 30
0.0
 10
3.2724
 20
1.15539
 30
0.0
 10
3.2724
 20
1.15539
 30
0.0
 10
3.24815
 20
1.20831
 30
0.0
 10
3.25079
 20
1.2727
 30
0.0
 10
3.27035
 20
1.32095
 30
0.0
 10
3.27035
 20
1.32095
 30
0.0
 10
3.28992
 20
1.3692
 30
0.0
 10
3.3264
 20
1.40133
 30
0.0
 10
3.36288
 20
1.43345
 30
0.0
  0
SPLINE
  5
77
330
1F
100
AcDbEntity
  8
layer 1
 62
   242
370
    20
100
AcDbSpline
210
0.0
220
0.0
230
1.0
 70
     8
 71
     3
 72
    20
 73
    16
 74
     0
 42
0.000000001
 43
0.0000000001
 40
0.0
 40
0.0
 40
0.0
 40
0.0
 40
0.2
 40
0.2
 40
0.2
 40
0.2
 40
0.4
 40
0.4
 40
0.4
 40
0.4
 40
0.6
 40
0.6
 40
0.6
 40
0.6
 40
1.0
 40
1.0
 40
1.0
 40
1.0
 10
3.69265
 20
-0.01626
 30
0.0
 10
3.59872
 20
0.07811
 30
0.0
 10
3.5048
 20
0.17247
 30
0.0
 10
3.4274
 20
0.25008
 30
0.0
 10
3.4274
 20
0.25008
 30
0.0
 10
3.35001
 20
0.32769
 30
0.0
 10
3.28916
 20
0.38855
 30
0.0
 10
3.23359
 20
0.45182
 30
0.0
 10
3.23359
 20
0.45182
 30
0.0
 10
3.17803
 20
0.5151
 30
0.0
 10
3.12776
 20
0.58081
 30
0.0
 10
3.09469
 20
0.63196
 30
0.0
 10
3.09469
 20
0.63196
 30
0.0
 10
3.06162
 20
0.68311
 30
0.0
 10
3.04574
 20
0.71972
 30
0.0
 10
3.02987
 20
0.75632
 30
0.0
  0
SPLINE
  5
78
330
1F
100
AcDbEntity
  8
layer 1
 62
   242
370
    20
100
AcDbSpline
210
0.0
220
0.0
230
1.0
 70
     8
 71
     3
 72
    16
 73
    12
 74
     0
 42
0.000000001
 43
0.0000000001
 40
0.0
 40
0.0
 40
0.0
 40
0.0
 40
0.25
 40
0.25
 40
0.25
 40
0.25
 40
0.5
 40
0.5
 40
0.5
 40
0.5
 40
1.0
 40
1.0
 40
1.0
 40
1.0
 10
2.54303
 20
0.87141
 30
0.0
 10
2.57081
 20
0.84495
 30
0.0
 10
2.59859
 20
0.81849
 30
0.0
 10
2.62593
 20
0.8068
 30
0.0
 10
2.62593
 20
0.8068
 30
0.0
 10
2.65327
 20
0.79512
 30
0.0
 10
2.68017
 20
0.7982
 30
0.0
 10
2.70552
 20
0.80592
 30
0.0
 10
2.70552
 20
0.80592
 30
0.0
 10
2.73088
 20
0.81364
 30
0.0
 10
2.7547
 20
0.82599
 30
0.0
 10
2.77851
 20
0.83834
 30
0.0
  0
SPLINE
  5
79
330
1F
100
AcDbEntity
  8
layer 1
 62
   242
370
    20
100
AcDbSpline
210
0.0
220
0.0
230
1.0
 70
     8
 71
     3
 72
    16
 73
    12
 74
     0
 42
0.000000001
 43
0.0000000001
 40
0.0
 40
0.0
 40
0.0
 40
0.0
 40
0.25
 40
0.25
 40
0.25
 40
0.25
 40
0.5
 40
0.5
 40
0.5
 40
0.5
 40
1.0
 40
1.0
 40
1.0
 40
1.0
 10
3.02987
 20
0.75632
 30
0.0
 10
3.00076
 20
0.74133
 30
0.0
 10
2.97166
 20
0.72633
 30
0.0
 10
2.93748
 20
0.72479
 30
0.0
 10
2.93748
 20
0.72479
 30
0.0
 10
2.9033
 20
0.72325
 30
0.0
 10
2.86406
 20
0.73515
 30
0.0
 10
2.83672
 20
0.75632
 30
0.0
 10
2.83672
 20
0.75632
 30
0.0
 10
2.80938
 20
0.77749
 30
0.0
 10
2.79394
 20
0.80791
 30
0.0
 10
2.77851
 20
0.83834
 30
0.0
  0
SPLINE
  5
7A
330
1F
100
AcDbEntity
  8
layer 1
 62
   242
370
    20
100
AcDbSpline
210
0.0
220
0.0
230
1.0
 70
     8
 71
     3
 72
    20
 73
    16
 74
     0
 42
0.000000001
 43
0.0000000001
 40
0.0
 40
0.0
 40
0.0
 40
0.0
 40
0.2
 40
0.2
 40
0.2
 40
0.2
 40
0.4
 40
0.4
 40
0.4
 40
0.4
 40
0.6
 40
0.6
 40
0.6
 40
0.6
 40
1.0
 40
1.0
 40
1.0
 40
1.0
 10
2.54303
 20
0.87141
 30
0.0
 10
2.55095
 20
0.82732
 30
0.0
 10
2.55886
 20
0.78323
 30
0.0
 10
2.57384
 20
0.74002
 30
0.0
 10
2.57384
 20
0.74002
 30
0.0
 10
2.58883
 20
0.69681
 30
0.0
 10
2.61088
 20
0.65447
 30
0.0
 10
2.63337
 20
0.62051
 30
0.0
 10
2.63337
 20
0.62051
 30
0.0
 10
2.65586
 20
0.58656
 30
0.0
 10
2.67879
 20
0.56099
 30
0.0
 10
2.69587
 20
0.54208
 30
0.0
 10
2.69587
 20
0.54208
 30
0.0
 10
2.71296
 20
0.52317
 30
0.0
 10
2.72421
 20
0.51094
 30
0.0
 10
2.73545
 20
0.4987
 30
0.0
  0
SPLINE
  5
7B
330
1F
100
AcDbEntity
  8
layer 1
 62
   242
370
    20
100
AcDbSpline
210
0.0
220
0.0
230
1.0
 70
     8
 71
     3
 72
    16
 73
    12
 74
     0
 42
0.000000001
 43
0.0000000001
 40
0.0
 40
0.0
 40
0.0
 40
0.0
 40
0.25
 40
0.25
 40
0.25
 40
0.25
 40
0.5
 40
0.5
 40
0.5
 40
0.5
 40
1.0
 40
1.0
 40
1.0
 40
1.0
 10
2.55845
 20
0.45868
 30
0.0
 10
2.5816
 20
0.45537
 30
0.0
 10
2.60476
 20
0.45207
 30
0.0
 10
2.62736
 20
0.45262
 30
0.0
 10
2.62736
 20
0.45262
 30
0.0
 10
2.64996
 20
0.45317
 30
0.0
 10
2.672
 20
0.45758
 30
0.0
 10
2.68992
 20
0.4659
 30
0.0
 10
2.68992
 20
0.4659
 30
0.0
 10
2.70785
 20
0.47423
 30
0.0
 10
2.72165
 20
0.48646
 30
0.0
 10
2.73545
 20
0.4987
 30
0.0
  0
SPLINE
  5
7C
330
1F
100
AcDbEntity
  8
layer 1
 62
   242
370
    20
100
AcDbSpline
210
0.0
220
0.0
230
1.0
 70
     8
 71
     3
 72
    16
 73
    12
 74
     0
 42
0.000000001
 43
0.0000000001
 40
0.0
 40
0.0
 40
0.0
 40
0.0
 40
0.25
 40
0.25
 40
0.25
 40
0.25
 40
0.5
 40
0.5
 40
0.5
 40
0.5
 40
1.0
 40
1.0
 40
1.0
 40
1.0
 10
2.17477
 20
-0.14723
 30
0.0
 10
2.23077
 20
-0.11416
 30
0.0
 10
2.28678
 20
-0.08108
 30
0.0
 10
2.3258
 20
-0.01758
 30
0.0
 10
2.3258
 20
-0.01758
 30
0.0
 10
2.36483
 20
0.04592
 30
0.0
 10
2.38688
 20
0.13984
 30
0.0
 10
2.3979
 20
0.1868
 30
0.0
 10
2.3979
 20
0.1868
 30
0.0
 10
2.40893
 20
0.23377
 30
0.0
 10
2.40893
 20
0.23377
 30
0.0
 10
2.40893
 20
0.23377
 30
0.0
  0
SPLINE
  5
7D
330
1F
100
AcDbEntity
  8
layer 1
 62
   242
370
    20
100
AcDbSpline
210
0.0
220
0.0
230
1.0
 70
     8
 71
     3
 72
    16
 73
    12
 74
     0
 42
0.000000001
 43
0.0000000001
 40
0.0
 40
0.0
 40
0.0
 40
0.0
 40
0.25
 40
0.25
 40
0.25
 40
0.25
 40
0.5
 40
0.5
 40
0.5
 40
0.5
 40
1.0
 40
1.0
 40
1.0
 40
1.0
 10
2.55845
 20
0.45868
 30
0.0
 10
2.56614
 20
0.4148
 30
0.0
 10
2.57384
 20
0.37093
 30
0.0
 10
2.56776
 20
0.33333
 30
0.0
 10
2.56776
 20
0.33333
 30
0.0
 10
2.56169
 20
0.29574
 30
0.0
 10
2.54184
 20
0.26443
 30
0.0
 10
2.51307
 20
0.24888
 30
0.0
 10
2.51307
 20
0.24888
 30
0.0
 10
2.48431
 20
0.23334
 30
0.0
 10
2.44662
 20
0.23355
 30
0.0
 10
2.40893
 20
0.23377
 30
0.0
  0
SPLINE
  5
7E
330
1F
100
AcDbEntity
  8
layer 1
 62
   242
370
    20
100
AcDbSpline
210
0.0
220
0.0
230
1.0
 70
     8
 71
     3
 72
    40
 73
    36
 74
     0
 42
0.000000001
 43
0.0000000001
 40
0.0
 40
0.0
 40
0.0
 40
0.0
 40
0.1
 40
0.1
 40
0.1
 40
0.1
 40
0.2
 40
0.2
 40
0.2
 40
0.2
 40
0.3
 40
0.3
 40
0.3
 40
0.3
 40
0.4
 40
0.4
 40
0.4
 40
0.4
 40
0.5
 40
0.5
 40
0.5
 40
0.5
 40
0.6
 40
0.6
 40
0.6
 40
0.6
 40
0.7
 40
0.7
 40
0.7
 40
0.7
 40
0.8
 40
0.8
 40
0.8
 40
0.8
 40
1.0
 40
1.0
 40
1.0
 40
1.0
 10
3.69265
 20
1.70784
 30
0.0
 10
3.64992
 20
1.74806
 30
0.0
 10
3.6072
 20
1.78828
 30
0.0
 10
3.55452
 20
1.81588
 30
0.0
 10
3.55452
 20
1.81588
 30
0.0
 10
3.50185
 20
1.84349
 30
0.0
 10
3.43923
 20
1.85849
 30
0.0
 10
3.3647
 20
1.85849
 30
0.0
 10
3.3647
 20
1.85849
 30
0.0
 10
3.29018
 20
1.85849
 30
0.0
 10
3.20375
 20
1.84349
 30
0.0
 10
3.13275
 20
1.81218
 30
0.0
 10
3.13275
 20
1.81218
 30
0.0
 10
3.06176
 20
1.78087
 30
0.0
 10
3.00619
 20
1.73325
 30
0.0
 10
2.95283
 20
1.66137
 30
0.0
 10
2.95283
 20
1.66137
 30
0.0
 10
2.89948
 20
1.58949
 30
0.0
 10
2.84832
 20
1.49336
 30
0.0
 10
2.80775
 20
1.40472
 30
0.0
 10
2.80775
 20
1.40472
 30
0.0
 10
2.76718
 20
1.31609
 30
0.0
 10
2.7372
 20
1.23495
 30
0.0
 10
2.7125
 20
1.1763
 30
0.0
 10
2.7125
 20
1.1763
 30
0.0
 10
2.68781
 20
1.11765
 30
0.0
 10
2.66841
 20
1.08149
 30
0.0
 10
2.64989
 20
1.05371
 30
0.0
 10
2.64989
 20
1.05371
 30
0.0
 10
2.63137
 20
1.02593
 30
0.0
 10
2.61373
 20
1.00652
 30
0.0
 10
2.59344
 20
0.99549
 30
0.0
 10
2.59344
 20
0.99549
 30
0.0
 10
2.57316
 20
0.98447
 30
0.0
 10
2.55023
 20
0.98183
 30
0.0
 10
2.5273
 20
0.97918
 30
0.0
  0
SPLINE
  5
7F
330
1F
100
AcDbEntity
  8
layer 1
 62
   242
370
    20
100
AcDbSpline
210
0.0
220
0.0
230
1.0
 70
     8
 71
     3
 72
    40
 73
    36
 74
     0
 42
0.000000001
 43
0.0000000001
 40
0.0
 40
0.0
 40
0.0
 40
0.0
 40
0.1
 40
0.1
 40
0.1
 40
0.1
 40
0.2
 40
0.2
 40
0.2
 40
0.2
 40
0.3
 40
0.3
 40
0.3
 40
0.3
 40
0.4
 40
0.4
 40
0.4
 40
0.4
 40
0.5
 40
0.5
 40
0.5
 40
0.5
 40
0.6
 40
0.6
 40
0.6
 40
0.6
 40
0.7
 40
0.7
 40
0.7
 40
0.7
 40
0.8
 40
0.8
 40
0.8
 40
0.8
 40
1.0
 40
1.0
 40
1.0
 40
1.0
 10
3.69265
 20
2.00193
 30
0.0
 10
3.66668
 20
2.0279
 30
0.0
 10
3.64071
 20
2.05388
 30
0.0
 10
3.60215
 20
2.07304
 30
0.0
 10
3.60215
 20
2.07304
 30
0.0
 10
3.56359
 20
2.0922
 30
0.0
 10
3.51243
 20
2.10455
 30
0.0
 10
3.44805
 20
2.10278
 30
0.0
 10
3.44805
 20
2.10278
 30
0.0
 10
3.38367
 20
2.10102
 30
0.0
 10
3.30605
 20
2.08515
 30
0.0
 10
3.22535
 20
2.05604
 30
0.0
 10
3.22535
 20
2.05604
 30
0.0
 10
3.14466
 20
2.02694
 30
0.0
 10
3.06087
 20
1.9846
 30
0.0
 10
2.98635
 20
1.93433
 30
0.0
 10
2.98635
 20
1.93433
 30
0.0
 10
2.91183
 20
1.88406
 30
0.0
 10
2.84656
 20
1.82585
 30
0.0
 10
2.7835
 20
1.75
 30
0.0
 10
2.7835
 20
1.75
 30
0.0
 10
2.72044
 20
1.67415
 30
0.0
 10
2.65959
 20
1.58067
 30
0.0
 10
2.6199
 20
1.49776
 30
0.0
 10
2.6199
 20
1.49776
 30
0.0
 10
2.58021
 20
1.41486
 30
0.0
 10
2.56169
 20
1.34254
 30
0.0
 10
2.54978
 20
1.26934
 30
0.0
 10
2.54978
 20
1.26934
 30
0.0
 10
2.53788
 20
1.19614
 30
0.0
 10
2.53259
 20
1.12205
 30
0.0
 10
2.52994
 20
1.07354
 30
0.0
 10
2.52994
 20
1.07354
 30
0.0
 10
2.5273
 20
1.02504
 30
0.0
 10
2.5273
 20
1.00211
 30
0.0
 10
2.5273
 20
0.97918
 30
0.0
  0
SPLINE
  5
80
330
1F
100
AcDbEntity
  8
layer 1
 62
   242
370
    20
100
AcDbSpline
210
0.0
220
0.0
230
1.0
 70
    24
 71
     3
 72
     8
 73
     4
 74
     0
 42
0.000000001
 43
0.0000000001
 40
0.0
 40
0.0
 40
0.0
 40
0.0
 40
1.0
 40
1.0
 40
1.0
 40
1.0
 10
3.69265
 20
-0.01626
 30
0.0
 10
3.69265
 20
-0.01626
 30
0.0
 10
3.69265
 20
2.52165
 30
0.0
 10
3.69265
 20
2.52165
 30
0.0
  0
SPLINE
  5
81
330
1F
100
AcDbEntity
  8
layer 1
 62
   242
370
    20
100
AcDbSpline
210
0.0
220
0.0
230
1.0
 70
     8
 71
     3
 72
    12
 73
     8
 74
     0
 42
0.000000001
 43
0.0000000001
 40
0.0
 40
0.0
 40
0.0
 40
0.0
 40
0.3333333333333333
 40
0.3333333333333333
 40
0.3333333333333333
 40
0.3333333333333333
 40
1.0
 40
1.0
 40
1.0
 40
1.0
 10
3.69265
 20
2.39241
 30
0.0
 10
3.69265
 20
2.39241
 30
0.0
 10
2.18238
 20
2.39241
 30
0.0
 10
2.18238
 20
2.39241
 30
0.0
 10
2.18238
 20
2.39241
 30
0.0
 10
2.18238
 20
2.39241
 30
0.0
 10
2.18238
 20
2.13775
 30
0.0
 10
2.18238
 20
2.13775
 30
0.0
  0
SPLINE
  5
82
330
1F
100
AcDbEntity
  8
layer 1
 62
   242
370
    20
100
AcDbSpline
210
0.0
220
0.0
230
1.0
 70
     8
 71
     3
 72
    20
 73
    16
 74
     0
 42
0.000000001
 43
0.0000000001
 40
0.0
 40
0.0
 40
0.0
 40
0.0
 40
0.2
 40
0.2
 40
0.2
 40
0.2
 40
0.4
 40
0.4
 40
0.4
 40
0.4
 40
0.6
 40
0.6
 40
0.6
 40
0.6
 40
1.0
 40
1.0
 40
1.0
 40
1.0
 10
2.18238
 20
2.14295
 30
0.0
 10
2.18238
 20
2.14295
 30
0.0
 10
1.75031
 20
2.14295
 30
0.0
 10
1.75031
 20
2.14295
 30
0.0
 10
1.75031
 20
2.14295
 30
0.0
 10
1.75031
 20
2.14295
 30
0.0
 10
1.75031
 20
1.51135
 30
0.0
 10
1.75031
 20
1.51135
 30
0.0
 10
1.75031
 20
1.51135
 30
0.0
 10
1.75031
 20
1.51135
 30
0.0
 10
2.17444
 20
1.51135
 30
0.0
 10
2.17444
 20
1.51135
 30
0.0
 10
2.17444
 20
1.51135
 30
0.0
 10
2.17444
 20
1.51135
 30
0.0
 10
2.17444
 20
-0.14723
 30
0.0
 10
2.17444
 20
-0.14723
 30
0.0
  0
SPLINE
  5
83
330
1F
100
AcDbEntity
  8
layer 1
 62
   242
370
    20
100
AcDbSpline
210
0.0
220
0.0
230
1.0
 70
     8
 71
     3
 72
    72
 73
    68
 74
     0
 42
0.000000001
 43
0.0000000001
 40
0.0
 40
0.0
 40
0.0
 40
0.0
 40
0.0555555555555556
 40
0.0555555555555556
 40
0.0555555555555556
 40
0.0555555555555556
 40
0.1111111111111111
 40
0.1111111111111111
 40
0.1111111111111111
 40
0.1111111111111111
 40
0.1666666666666667
 40
0.1666666666666667
 40
0.1666666666666667
 40
0.1666666666666667
 40
0.2222222222222222
 40
0.2222222222222222
 40
0.2222222222222222
 40
0.2222222222222222
 40
0.2777777777777778
 40
0.2777777777777778
 40
0.2777777777777778
 40
0.2777777777777778
 40
0.3333333333333333
 40
0.3333333333333333
 40
0.3333333333333333
 40
0.3333333333333333
 40
0.3888888888888889
 40
0.3888888888888889
 40
0.3888888888888889
 40
0.3888888888888889
 40
0.4444444444444444
 40
0.4444444444444444
 40
0.4444444444444444
 40
0.4444444444444444
 40
0.5
 40
0.5
 40
0.5
 40
0.5
 40
0.5555555555555556
 40
0.5555555555555556
 40
0.5555555555555556
 40
0.5555555555555556
 40
0.6111111111111112
 40
0.6111111111111112
 40
0.6111111111111112
 40
0.6111111111111112
 40
0.6666666666666666
 40
0.6666666666666666
 40
0.6666666666666666
 40
0.6666666666666666
 40
0.7222222222222222
 40
0.7222222222222222
 40
0.7222222222222222
 40
0.7222222222222222
 40
0.7777777777777778
 40
0.7777777777777778
 40
0.7777777777777778
 40
0.7777777777777778
 40
0.8333333333333334
 40
0.8333333333333334
 40
0.8333333333333334
 40
0.8333333333333334
 40
0.8888888888888888
 40
0.8888888888888888
 40
0.8888888888888888
 40
0.8888888888888888
 40
1.0
 40
1.0
 40
1.0
 40
1.0
 10
27.08938
 20
10.38752
 30
0.0
 10
27.08497
 20
10.36503
 30
0.0
 10
27.08056
 20
10.34254
 30
0.0
 10
27.08585
 20
10.32115
 30
0.0
 10
27.08585
 20
10.32115
 30
0.0
 10
27.09114
 20
10.29976
 30
0.0
 10
27.10614
 20
10.27948
 30
0.0
 10
27.12378
 20
10.26514
 30
0.0
 10
27.12378
 20
10.26514
 30
0.0
 10
27.14142
 20
10.25081
 30
0.0
 10
27.1617
 20
10.24244
 30
0.0
 10
27.18706
 20
10.24001
 30
0.0
 10
27.18706
 20
10.24001
 30
0.0
 10
27.21242
 20
10.23759
 30
0.0
 10
27.24284
 20
10.24111
 30
0.0
 10
27.26687
 20
10.25456
 30
0.0
 10
27.26687
 20
10.25456
 30
0.0
 10
27.29091
 20
10.26801
 30
0.0
 10
27.30855
 20
10.29138
 30
0.0
 10
27.31649
 20
10.32247
 30
0.0
 10
27.31649
 20
10.32247
 30
0.0
 10
27.32443
 20
10.35356
 30
0.0
 10
27.32266
 20
10.39236
 30
0.0
 10
27.31097
 20
10.42742
 30
0.0
 10
27.31097
 20
10.42742
 30
0.0
 10
27.29929
 20
10.46248
 30
0.0
 10
27.27768
 20
10.49379
 30
0.0
 10
27.24901
 20
10.51959
 30
0.0
 10
27.24901
 20
10.51959
 30
0.0
 10
27.22035
 20
10.54539
 30
0.0
 10
27.18464
 20
10.56567
 30
0.0
 10
27.14627
 20
10.57449
 30
0.0
 10
27.14627
 20
10.57449
 30
0.0
 10
27.10791
 20
10.58331
 30
0.0
 10
27.06689
 20
10.58067
 30
0.0
 10
27.02235
 20
10.56435
 30
0.0
 10
27.02235
 20
10.56435
 30
0.0
 10
26.97781
 20
10.54803
 30
0.0
 10
26.92975
 20
10.51805
 30
0.0
 10
26.89204
 20
10.48321
 30
0.0
 10
26.89204
 20
10.48321
 30
0.0
 10
26.85434
 20
10.44837
 30
0.0
 10
26.827
 20
10.40868
 30
0.0
 10
26.81046
 20
10.35995
 30
0.0
 10
26.81046
 20
10.35995
 30
0.0
 10
26.79393
 20
10.31122
 30
0.0
 10
26.78819
 20
10.25346
 30
0.0
 10
26.79458
 20
10.1904
 30
0.0
 10
26.79458
 20
10.1904
 30
0.0
 10
26.80098
 20
10.12734
 30
0.0
 10
26.81951
 20
10.05898
 30
0.0
 10
26.84773
 20
9.9957
 30
0.0
 10
26.84773
 20
9.9957
 30
0.0
 10
26.87595
 20
9.93242
 30
0.0
 10
26.91388
 20
9.87422
 30
0.0
 10
26.94541
 20
9.82306
 30
0.0
 10
26.94541
 20
9.82306
 30
0.0
 10
26.97694
 20
9.77191
 30
0.0
 10
27.00207
 20
9.72781
 30
0.0
 10
27.04551
 20
9.66916
 30
0.0
 10
27.04551
 20
9.66916
 30
0.0
 10
27.08895
 20
9.61051
 30
0.0
 10
27.15068
 20
9.53731
 30
0.0
 10
27.2155
 20
9.46894
 30
0.0
 10
27.2155
 20
9.46894
 30
0.0
 10
27.28032
 20
9.40058
 30
0.0
 10
27.34823
 20
9.33706
 30
0.0
 10
27.41613
 20
9.27353
 30
0.0
  0
SPLINE
  5
84
330
1F
100
AcDbEntity
  8
layer 1
 62
   242
370
    20
100
AcDbSpline
210
0.0
220
0.0
230
1.0
 70
     8
 71
     3
 72
    24
 73
    20
 74
     0
 42
0.000000001
 43
0.0000000001
 40
0.0
 40
0.0
 40
0.0
 40
0.0
 40
0.1666666666666667
 40
0.1666666666666667
 40
0.1666666666666667
 40
0.1666666666666667
 40
0.3333333333333333
 40
0.3333333333333333
 40
0.3333333333333333
 40
0.3333333333333333
 40
0.5
 40
0.5
 40
0.5
 40
0.5
 40
0.6666666666666666
 40
0.6666666666666666
 40
0.6666666666666666
 40
0.6666666666666666
 40
1.0
 40
1.0
 40
1.0
 40
1.0
 10
27.41613
 20
9.49545
 30
0.0
 10
27.37027
 20
9.55159
 30
0.0
 10
27.32442
 20
9.60773
 30
0.0
 10
27.2887
 20
9.65432
 30
0.0
 10
27.2887
 20
9.65432
 30
0.0
 10
27.25298
 20
9.70091
 30
0.0
 10
27.22741
 20
9.73796
 30
0.0
 10
27.21572
 20
9.77103
 30
0.0
 10
27.21572
 20
9.77103
 30
0.0
 10
27.20404
 20
9.8041
 30
0.0
 10
27.20624
 20
9.83321
 30
0.0
 10
27.21396
 20
9.85856
 30
0.0
 10
27.21396
 20
9.85856
 30
0.0
 10
27.22168
 20
9.88392
 30
0.0
 10
27.23491
 20
9.90552
 30
0.0
 10
27.24395
 20
9.92294
 30
0.0
 10
27.24395
 20
9.92294
 30
0.0
 10
27.25299
 20
9.94036
 30
0.0
 10
27.25784
 20
9.95359
 30
0.0
 10
27.26269
 20
9.96682
 30
0.0
  0
SPLINE
  5
85
330
1F
100
AcDbEntity
  8
layer 1
 62
   242
370
    20
100
AcDbSpline
210
0.0
220
0.0
230
1.0
 70
     8
 71
     3
 72
    20
 73
    16
 74
     0
 42
0.000000001
 43
0.0000000001
 40
0.0
 40
0.0
 40
0.0
 40
0.0
 40
0.2
 40
0.2
 40
0.2
 40
0.2
 40
0.4
 40
0.4
 40
0.4
 40
0.4
 40
0.6
 40
0.6
 40
0.6
 40
0.6
 40
1.0
 40
1.0
 40
1.0
 40
1.0
 10
27.26269
 20
9.96682
 30
0.0
 10
27.21594
 20
9.96374
 30
0.0
 10
27.16919
 20
9.96067
 30
0.0
 10
27.12024
 20
9.97985
 30
0.0
 10
27.12024
 20
9.97985
 30
0.0
 10
27.07129
 20
9.99904
 30
0.0
 10
27.02013
 20
10.04049
 30
0.0
 10
26.99588
 20
10.0934
 30
0.0
 10
26.99588
 20
10.0934
 30
0.0
 10
26.97163
 20
10.14632
 30
0.0
 10
26.97427
 20
10.21071
 30
0.0
 10
26.99383
 20
10.25896
 30
0.0
 10
26.99383
 20
10.25896
 30
0.0
 10
27.0134
 20
10.30721
 30
0.0
 10
27.04988
 20
10.33934
 30
0.0
 10
27.08636
 20
10.37146
 30
0.0
  0
SPLINE
  5
86
330
1F
100
AcDbEntity
  8
layer 1
 62
   242
370
    20
100
AcDbSpline
210
0.0
220
0.0
230
1.0
 70
     8
 71
     3
 72
    20
 73
    16
 74
     0
 42
0.000000001
 43
0.0000000001
 40
0.0
 40
0.0
 40
0.0
 40
0.0
 40
0.2
 40
0.2
 40
0.2
 40
0.2
 40
0.4
 40
0.4
 40
0.4
 40
0.4
 40
0.6
 40
0.6
 40
0.6
 40
0.6
 40
1.0
 40
1.0
 40
1.0
 40
1.0
 10
27.41613
 20
8.92175
 30
0.0
 10
27.3222
 20
9.01612
 30
0.0
 10
27.22828
 20
9.11048
 30
0.0
 10
27.15088
 20
9.18809
 30
0.0
 10
27.15088
 20
9.18809
 30
0.0
 10
27.07349
 20
9.2657
 30
0.0
 10
27.01264
 20
9.32656
 30
0.0
 10
26.95707
 20
9.38983
 30
0.0
 10
26.95707
 20
9.38983
 30
0.0
 10
26.90151
 20
9.45311
 30
0.0
 10
26.85124
 20
9.51882
 30
0.0
 10
26.81817
 20
9.56997
 30
0.0
 10
26.81817
 20
9.56997
 30
0.0
 10
26.7851
 20
9.62112
 30
0.0
 10
26.76922
 20
9.65773
 30
0.0
 10
26.75335
 20
9.69433
 30
0.0
  0
SPLINE
  5
87
330
1F
100
AcDbEntity
  8
layer 1
 62
   242
370
    20
100
AcDbSpline
210
0.0
220
0.0
230
1.0
 70
     8
 71
     3
 72
    16
 73
    12
 74
     0
 42
0.000000001
 43
0.0000000001
 40
0.0
 40
0.0
 40
0.0
 40
0.0
 40
0.25
 40
0.25
 40
0.25
 40
0.25
 40
0.5
 40
0.5
 40
0.5
 40
0.5
 40
1.0
 40
1.0
 40
1.0
 40
1.0
 10
26.26651
 20
9.80942
 30
0.0
 10
26.29429
 20
9.78296
 30
0.0
 10
26.32207
 20
9.7565
 30
0.0
 10
26.34941
 20
9.74481
 30
0.0
 10
26.34941
 20
9.74481
 30
0.0
 10
26.37675
 20
9.73313
 30
0.0
 10
26.40365
 20
9.73621
 30
0.0
 10
26.429
 20
9.74393
 30
0.0
 10
26.429
 20
9.74393
 30
0.0
 10
26.45436
 20
9.75165
 30
0.0
 10
26.47818
 20
9.764
 30
0.0
 10
26.50199
 20
9.77635
 30
0.0
  0
SPLINE
  5
88
330
1F
100
AcDbEntity
  8
layer 1
 62
   242
370
    20
100
AcDbSpline
210
0.0
220
0.0
230
1.0
 70
     8
 71
     3
 72
    16
 73
    12
 74
     0
 42
0.000000001
 43
0.0000000001
 40
0.0
 40
0.0
 40
0.0
 40
0.0
 40
0.25
 40
0.25
 40
0.25
 40
0.25
 40
0.5
 40
0.5
 40
0.5
 40
0.5
 40
1.0
 40
1.0
 40
1.0
 40
1.0
 10
26.75335
 20
9.69433
 30
0.0
 10
26.72424
 20
9.67934
 30
0.0
 10
26.69514
 20
9.66434
 30
0.0
 10
26.66096
 20
9.6628
 30
0.0
 10
26.66096
 20
9.6628
 30
0.0
 10
26.62678
 20
9.66126
 30
0.0
 10
26.58754
 20
9.67316
 30
0.0
 10
26.5602
 20
9.69433
 30
0.0
 10
26.5602
 20
9.69433
 30
0.0
 10
26.53286
 20
9.7155
 30
0.0
 10
26.51742
 20
9.74592
 30
0.0
 10
26.50199
 20
9.77635
 30
0.0
  0
SPLINE
  5
89
330
1F
100
AcDbEntity
  8
layer 1
 62
   242
370
    20
100
AcDbSpline
210
0.0
220
0.0
230
1.0
 70
     8
 71
     3
 72
    20
 73
    16
 74
     0
 42
0.000000001
 43
0.0000000001
 40
0.0
 40
0.0
 40
0.0
 40
0.0
 40
0.2
 40
0.2
 40
0.2
 40
0.2
 40
0.4
 40
0.4
 40
0.4
 40
0.4
 40
0.6
 40
0.6
 40
0.6
 40
0.6
 40
1.0
 40
1.0
 40
1.0
 40
1.0
 10
26.26651
 20
9.80942
 30
0.0
 10
26.27443
 20
9.76533
 30
0.0
 10
26.28234
 20
9.72124
 30
0.0
 10
26.29732
 20
9.67803
 30
0.0
 10
26.29732
 20
9.67803
 30
0.0
 10
26.31231
 20
9.63482
 30
0.0
 10
26.33436
 20
9.59248
 30
0.0
 10
26.35685
 20
9.55852
 30
0.0
 10
26.35685
 20
9.55852
 30
0.0
 10
26.37934
 20
9.52457
 30
0.0
 10
26.40227
 20
9.499
 30
0.0
 10
26.41935
 20
9.48009
 30
0.0
 10
26.41935
 20
9.48009
 30
0.0
 10
26.43644
 20
9.46118
 30
0.0
 10
26.44769
 20
9.44895
 30
0.0
 10
26.45893
 20
9.43671
 30
0.0
  0
SPLINE
  5
8A
330
1F
100
AcDbEntity
  8
layer 1
 62
   242
370
    20
100
AcDbSpline
210
0.0
220
0.0
230
1.0
 70
     8
 71
     3
 72
    16
 73
    12
 74
     0
 42
0.000000001
 43
0.0000000001
 40
0.0
 40
0.0
 40
0.0
 40
0.0
 40
0.25
 40
0.25
 40
0.25
 40
0.25
 40
0.5
 40
0.5
 40
0.5
 40
0.5
 40
1.0
 40
1.0
 40
1.0
 40
1.0
 10
26.28193
 20
9.39669
 30
0.0
 10
26.30508
 20
9.39338
 30
0.0
 10
26.32824
 20
9.39008
 30
0.0
 10
26.35084
 20
9.39063
 30
0.0
 10
26.35084
 20
9.39063
 30
0.0
 10
26.37344
 20
9.39118
 30
0.0
 10
26.39548
 20
9.39559
 30
0.0
 10
26.4134
 20
9.40391
 30
0.0
 10
26.4134
 20
9.40391
 30
0.0
 10
26.43133
 20
9.41224
 30
0.0
 10
26.44513
 20
9.42447
 30
0.0
 10
26.45893
 20
9.43671
 30
0.0
  0
SPLINE
  5
8B
330
1F
100
AcDbEntity
  8
layer 1
 62
   242
370
    20
100
AcDbSpline
210
0.0
220
0.0
230
1.0
 70
     8
 71
     3
 72
    16
 73
    12
 74
     0
 42
0.000000001
 43
0.0000000001
 40
0.0
 40
0.0
 40
0.0
 40
0.0
 40
0.25
 40
0.25
 40
0.25
 40
0.25
 40
0.5
 40
0.5
 40
0.5
 40
0.5
 40
1.0
 40
1.0
 40
1.0
 40
1.0
 10
25.89825
 20
8.79078
 30
0.0
 10
25.95425
 20
8.82385
 30
0.0
 10
26.01026
 20
8.85693
 30
0.0
 10
26.04928
 20
8.92043
 30
0.0
 10
26.04928
 20
8.92043
 30
0.0
 10
26.08831
 20
8.98393
 30
0.0
 10
26.11036
 20
9.07785
 30
0.0
 10
26.12138
 20
9.12481
 30
0.0
 10
26.12138
 20
9.12481
 30
0.0
 10
26.13241
 20
9.17178
 30
0.0
 10
26.13241
 20
9.17178
 30
0.0
 10
26.13241
 20
9.17178
 30
0.0
  0
SPLINE
  5
8C
330
1F
100
AcDbEntity
  8
layer 1
 62
   242
370
    20
100
AcDbSpline
210
0.0
220
0.0
230
1.0
 70
     8
 71
     3
 72
    16
 73
    12
 74
     0
 42
0.000000001
 43
0.0000000001
 40
0.0
 40
0.0
 40
0.0
 40
0.0
 40
0.25
 40
0.25
 40
0.25
 40
0.25
 40
0.5
 40
0.5
 40
0.5
 40
0.5
 40
1.0
 40
1.0
 40
1.0
 40
1.0
 10
26.28193
 20
9.39669
 30
0.0
 10
26.28962
 20
9.35281
 30
0.0
 10
26.29732
 20
9.30894
 30
0.0
 10
26.29124
 20
9.27134
 30
0.0
 10
26.29124
 20
9.27134
 30
0.0
 10
26.28517
 20
9.23375
 30
0.0
 10
26.26532
 20
9.20244
 30
0.0
 10
26.23655
 20
9.18689
 30
0.0
 10
26.23655
 20
9.18689
 30
0.0
 10
26.20779
 20
9.17135
 30
0.0
 10
26.1701
 20
9.17156
 30
0.0
 10
26.13241
 20
9.17178
 30
0.0
  0
SPLINE
  5
8D
330
1F
100
AcDbEntity
  8
layer 1
 62
   242
370
    20
100
AcDbSpline
210
0.0
220
0.0
230
1.0
 70
     8
 71
     3
 72
    40
 73
    36
 74
     0
 42
0.000000001
 43
0.0000000001
 40
0.0
 40
0.0
 40
0.0
 40
0.0
 40
0.1
 40
0.1
 40
0.1
 40
0.1
 40
0.2
 40
0.2
 40
0.2
 40
0.2
 40
0.3
 40
0.3
 40
0.3
 40
0.3
 40
0.4
 40
0.4
 40
0.4
 40
0.4
 40
0.5
 40
0.5
 40
0.5
 40
0.5
 40
0.6
 40
0.6
 40
0.6
 40
0.6
 40
0.7
 40
0.7
 40
0.7
 40
0.7
 40
0.8
 40
0.8
 40
0.8
 40
0.8
 40
1.0
 40
1.0
 40
1.0
 40
1.0
 10
27.41613
 20
10.64585
 30
0.0
 10
27.3734
 20
10.68607
 30
0.0
 10
27.33068
 20
10.72629
 30
0.0
 10
27.278
 20
10.75389
 30
0.0
 10
27.278
 20
10.75389
 30
0.0
 10
27.22533
 20
10.7815
 30
0.0
 10
27.16271
 20
10.7965
 30
0.0
 10
27.08818
 20
10.7965
 30
0.0
 10
27.08818
 20
10.7965
 30
0.0
 10
27.01366
 20
10.7965
 30
0.0
 10
26.92723
 20
10.7815
 30
0.0
 10
26.85623
 20
10.75019
 30
0.0
 10
26.85623
 20
10.75019
 30
0.0
 10
26.78524
 20
10.71888
 30
0.0
 10
26.72967
 20
10.67126
 30
0.0
 10
26.67631
 20
10.59938
 30
0.0
 10
26.67631
 20
10.59938
 30
0.0
 10
26.62296
 20
10.5275
 30
0.0
 10
26.5718
 20
10.43137
 30
0.0
 10
26.53123
 20
10.34273
 30
0.0
 10
26.53123
 20
10.34273
 30
0.0
 10
26.49066
 20
10.2541
 30
0.0
 10
26.46068
 20
10.17296
 30
0.0
 10
26.43598
 20
10.11431
 30
0.0
 10
26.43598
 20
10.11431
 30
0.0
 10
26.41129
 20
10.05566
 30
0.0
 10
26.39189
 20
10.0195
 30
0.0
 10
26.37337
 20
9.99172
 30
0.0
 10
26.37337
 20
9.99172
 30
0.0
 10
26.35485
 20
9.96394
 30
0.0
 10
26.33721
 20
9.94453
 30
0.0
 10
26.31692
 20
9.9335
 30
0.0
 10
26.31692
 20
9.9335
 30
0.0
 10
26.29664
 20
9.92248
 30
0.0
 10
26.27371
 20
9.91984
 30
0.0
 10
26.25078
 20
9.91719
 30
0.0
  0
SPLINE
  5
8E
330
1F
100
AcDbEntity
  8
layer 1
 62
   242
370
    20
100
AcDbSpline
210
0.0
220
0.0
230
1.0
 70
     8
 71
     3
 72
    40
 73
    36
 74
     0
 42
0.000000001
 43
0.0000000001
 40
0.0
 40
0.0
 40
0.0
 40
0.0
 40
0.1
 40
0.1
 40
0.1
 40
0.1
 40
0.2
 40
0.2
 40
0.2
 40
0.2
 40
0.3
 40
0.3
 40
0.3
 40
0.3
 40
0.4
 40
0.4
 40
0.4
 40
0.4
 40
0.5
 40
0.5
 40
0.5
 40
0.5
 40
0.6
 40
0.6
 40
0.6
 40
0.6
 40
0.7
 40
0.7
 40
0.7
 40
0.7
 40
0.8
 40
0.8
 40
0.8
 40
0.8
 40
1.0
 40
1.0
 40
1.0
 40
1.0
 10
27.41613
 20
10.93994
 30
0.0
 10
27.39016
 20
10.96591
 30
0.0
 10
27.36419
 20
10.99189
 30
0.0
 10
27.32563
 20
11.01105
 30
0.0
 10
27.32563
 20
11.01105
 30
0.0
 10
27.28707
 20
11.03021
 30
0.0
 10
27.23591
 20
11.04256
 30
0.0
 10
27.17153
 20
11.04079
 30
0.0
 10
27.17153
 20
11.04079
 30
0.0
 10
27.10715
 20
11.03903
 30
0.0
 10
27.02953
 20
11.02316
 30
0.0
 10
26.94883
 20
10.99405
 30
0.0
 10
26.94883
 20
10.99405
 30
0.0
 10
26.86814
 20
10.96495
 30
0.0
 10
26.78435
 20
10.92261
 30
0.0
 10
26.70983
 20
10.87234
 30
0.0
 10
26.70983
 20
10.87234
 30
0.0
 10
26.63531
 20
10.82207
 30
0.0
 10
26.57004
 20
10.76386
 30
0.0
 10
26.50698
 20
10.68801
 30
0.0
 10
26.50698
 20
10.68801
 30
0.0
 10
26.44392
 20
10.61216
 30
0.0
 10
26.38307
 20
10.51868
 30
0.0
 10
26.34338
 20
10.43577
 30
0.0
 10
26.34338
 20
10.43577
 30
0.0
 10
26.30369
 20
10.35287
 30
0.0
 10
26.28517
 20
10.28055
 30
0.0
 10
26.27326
 20
10.20735
 30
0.0
 10
26.27326
 20
10.20735
 30
0.0
 10
26.26136
 20
10.13415
 30
0.0
 10
26.25607
 20
10.06006
 30
0.0
 10
26.25342
 20
10.01155
 30
0.0
 10
26.25342
 20
10.01155
 30
0.0
 10
26.25078
 20
9.96305
 30
0.0
 10
26.25078
 20
9.94012
 30
0.0
 10
26.25078
 20
9.91719
 30
0.0
  0
SPLINE
  5
8F
330
1F
100
AcDbEntity
  8
layer 1
 62
   242
370
    20
100
AcDbSpline
210
0.0
220
0.0
230
1.0
 70
     8
 71
     3
 72
    12
 73
     8
 74
     0
 42
0.000000001
 43
0.0000000001
 40
0.0
 40
0.0
 40
0.0
 40
0.0
 40
0.3333333333333333
 40
0.3333333333333333
 40
0.3333333333333333
 40
0.3333333333333333
 40
1.0
 40
1.0
 40
1.0
 40
1.0
 10
27.41613
 20
11.33042
 30
0.0
 10
27.41613
 20
11.33042
 30
0.0
 10
25.90586
 20
11.33042
 30
0.0
 10
25.90586
 20
11.33042
 30
0.0
 10
25.90586
 20
11.33042
 30
0.0
 10
25.90586
 20
11.33042
 30
0.0
 10
25.90586
 20
11.07576
 30
0.0
 10
25.90586
 20
11.07576
 30
0.0
  0
SPLINE
  5
90
330
1F
100
AcDbEntity
  8
layer 1
 62
   242
370
    20
100
AcDbSpline
210
0.0
220
0.0
230
1.0
 70
     8
 71
     3
 72
    20
 73
    16
 74
     0
 42
0.000000001
 43
0.0000000001
 40
0.0
 40
0.0
 40
0.0
 40
0.0
 40
0.2
 40
0.2
 40
0.2
 40
0.2
 40
0.4
 40
0.4
 40
0.4
 40
0.4
 40
0.6
 40
0.6
 40
0.6
 40
0.6
 40
1.0
 40
1.0
 40
1.0
 40
1.0
 10
25.90586
 20
11.08096
 30
0.0
 10
25.90586
 20
11.08096
 30
0.0
 10
25.47379
 20
11.08096
 30
0.0
 10
25.47379
 20
11.08096
 30
0.0
 10
25.47379
 20
11.08096
 30
0.0
 10
25.47379
 20
11.08096
 30
0.0
 10
25.47379
 20
10.44936
 30
0.0
 10
25.47379
 20
10.44936
 30
0.0
 10
25.47379
 20
10.44936
 30
0.0
 10
25.47379
 20
10.44936
 30
0.0
 10
25.89792
 20
10.44936
 30
0.0
 10
25.89792
 20
10.44936
 30
0.0
 10
25.89792
 20
10.44936
 30
0.0
 10
25.89792
 20
10.44936
 30
0.0
 10
25.89792
 20
8.79078
 30
0.0
 10
25.89792
 20
8.79078
 30
0.0
  0
SPLINE
  5
91
330
1F
100
AcDbEntity
  8
layer 1
 62
   242
370
    20
100
AcDbSpline
210
0.0
220
0.0
230
1.0
 70
     8
 71
     3
 72
    72
 73
    68
 74
     0
 42
0.000000001
 43
0.0000000001
 40
0.0
 40
0.0
 40
0.0
 40
0.0
 40
0.0555555555555556
 40
0.0555555555555556
 40
0.0555555555555556
 40
0.0555555555555556
 40
0.1111111111111111
 40
0.1111111111111111
 40
0.1111111111111111
 40
0.1111111111111111
 40
0.1666666666666667
 40
0.1666666666666667
 40
0.1666666666666667
 40
0.1666666666666667
 40
0.2222222222222222
 40
0.2222222222222222
 40
0.2222222222222222
 40
0.2222222222222222
 40
0.2777777777777778
 40
0.2777777777777778
 40
0.2777777777777778
 40
0.2777777777777778
 40
0.3333333333333333
 40
0.3333333333333333
 40
0.3333333333333333
 40
0.3333333333333333
 40
0.3888888888888889
 40
0.3888888888888889
 40
0.3888888888888889
 40
0.3888888888888889
 40
0.4444444444444444
 40
0.4444444444444444
 40
0.4444444444444444
 40
0.4444444444444444
 40
0.5
 40
0.5
 40
0.5
 40
0.5
 40
0.5555555555555556
 40
0.5555555555555556
 40
0.5555555555555556
 40
0.5555555555555556
 40
0.6111111111111112
 40
0.6111111111111112
 40
0.6111111111111112
 40
0.6111111111111112
 40
0.6666666666666666
 40
0.6666666666666666
 40
0.6666666666666666
 40
0.6666666666666666
 40
0.7222222222222222
 40
0.7222222222222222
 40
0.7222222222222222
 40
0.7222222222222222
 40
0.7777777777777778
 40
0.7777777777777778
 40
0.7777777777777778
 40
0.7777777777777778
 40
0.8333333333333334
 40
0.8333333333333334
 40
0.8333333333333334
 40
0.8333333333333334
 40
0.8888888888888888
 40
0.8888888888888888
 40
0.8888888888888888
 40
0.8888888888888888
 40
1.0
 40
1.0
 40
1.0
 40
1.0
 10
27.74288
 20
10.38752
 30
0.0
 10
27.74729
 20
10.36503
 30
0.0
 10
27.7517
 20
10.34254
 30
0.0
 10
27.74641
 20
10.32115
 30
0.0
 10
27.74641
 20
10.32115
 30
0.0
 10
27.74112
 20
10.29976
 30
0.0
 10
27.72612
 20
10.27948
 30
0.0
 10
27.70848
 20
10.26514
 30
0.0
 10
27.70848
 20
10.26514
 30
0.0
 10
27.69084
 20
10.25081
 30
0.0
 10
27.67056
 20
10.24244
 30
0.0
 10
27.6452
 20
10.24001
 30
0.0
 10
27.6452
 20
10.24001
 30
0.0
 10
27.61984
 20
10.23759
 30
0.0
 10
27.58942
 20
10.24111
 30
0.0
 10
27.56539
 20
10.25456
 30
0.0
 10
27.56539
 20
10.25456
 30
0.0
 10
27.54135
 20
10.26801
 30
0.0
 10
27.52371
 20
10.29138
 30
0.0
 10
27.51577
 20
10.32247
 30
0.0
 10
27.51577
 20
10.32247
 30
0.0
 10
27.50783
 20
10.35356
 30
0.0
 10
27.5096
 20
10.39236
 30
0.0
 10
27.52129
 20
10.42742
 30
0.0
 10
27.52129
 20
10.42742
 30
0.0
 10
27.53297
 20
10.46248
 30
0.0
 10
27.55458
 20
10.49379
 30
0.0
 10
27.58325
 20
10.51959
 30
0.0
 10
27.58325
 20
10.51959
 30
0.0
 10
27.61191
 20
10.54539
 30
0.0
 10
27.64762
 20
10.56567
 30
0.0
 10
27.68599
 20
10.57449
 30
0.0
 10
27.68599
 20
10.57449
 30
0.0
 10
27.72435
 20
10.58331
 30
0.0
 10
27.76537
 20
10.58067
 30
0.0
 10
27.80991
 20
10.56435
 30
0.0
 10
27.80991
 20
10.56435
 30
0.0
 10
27.85445
 20
10.54803
 30
0.0
 10
27.90251
 20
10.51805
 30
0.0
 10
27.94022
 20
10.48321
 30
0.0
 10
27.94022
 20
10.48321
 30
0.0
 10
27.97792
 20
10.44837
 30
0.0
 10
28.00526
 20
10.40868
 30
0.0
 10
28.0218
 20
10.35995
 30
0.0
 10
28.0218
 20
10.35995
 30
0.0
 10
28.03833
 20
10.31122
 30
0.0
 10
28.04407
 20
10.25346
 30
0.0
 10
28.03768
 20
10.1904
 30
0.0
 10
28.03768
 20
10.1904
 30
0.0
 10
28.03128
 20
10.12734
 30
0.0
 10
28.01275
 20
10.05898
 30
0.0
 10
27.98453
 20
9.9957
 30
0.0
 10
27.98453
 20
9.9957
 30
0.0
 10
27.95631
 20
9.93242
 30
0.0
 10
27.91838
 20
9.87422
 30
0.0
 10
27.88685
 20
9.82306
 30
0.0
 10
27.88685
 20
9.82306
 30
0.0
 10
27.85532
 20
9.77191
 30
0.0
 10
27.83019
 20
9.72781
 30
0.0
 10
27.78675
 20
9.66916
 30
0.0
 10
27.78675
 20
9.66916
 30
0.0
 10
27.74331
 20
9.61051
 30
0.0
 10
27.68158
 20
9.53731
 30
0.0
 10
27.61676
 20
9.46894
 30
0.0
 10
27.61676
 20
9.46894
 30
0.0
 10
27.55194
 20
9.40058
 30
0.0
 10
27.48403
 20
9.33706
 30
0.0
 10
27.41613
 20
9.27353
 30
0.0
  0
SPLINE
  5
92
330
1F
100
AcDbEntity
  8
layer 1
 62
   242
370
    20
100
AcDbSpline
210
0.0
220
0.0
230
1.0
 70
     8
 71
     3
 72
    24
 73
    20
 74
     0
 42
0.000000001
 43
0.0000000001
 40
0.0
 40
0.0
 40
0.0
 40
0.0
 40
0.1666666666666667
 40
0.1666666666666667
 40
0.1666666666666667
 40
0.1666666666666667
 40
0.3333333333333333
 40
0.3333333333333333
 40
0.3333333333333333
 40
0.3333333333333333
 40
0.5
 40
0.5
 40
0.5
 40
0.5
 40
0.6666666666666666
 40
0.6666666666666666
 40
0.6666666666666666
 40
0.6666666666666666
 40
1.0
 40
1.0
 40
1.0
 40
1.0
 10
27.41613
 20
9.49545
 30
0.0
 10
27.46199
 20
9.55159
 30
0.0
 10
27.50784
 20
9.60773
 30
0.0
 10
27.54356
 20
9.65432
 30
0.0
 10
27.54356
 20
9.65432
 30
0.0
 10
27.57928
 20
9.70091
 30
0.0
 10
27.60485
 20
9.73796
 30
0.0
 10
27.61654
 20
9.77103
 30
0.0
 10
27.61654
 20
9.77103
 30
0.0
 10
27.62822
 20
9.8041
 30
0.0
 10
27.62602
 20
9.83321
 30
0.0
 10
27.6183
 20
9.85856
 30
0.0
 10
27.6183
 20
9.85856
 30
0.0
 10
27.61058
 20
9.88392
 30
0.0
 10
27.59735
 20
9.90552
 30
0.0
 10
27.58831
 20
9.92294
 30
0.0
 10
27.58831
 20
9.92294
 30
0.0
 10
27.57927
 20
9.94036
 30
0.0
 10
27.57442
 20
9.95359
 30
0.0
 10
27.56957
 20
9.96682
 30
0.0
  0
SPLINE
  5
93
330
1F
100
AcDbEntity
  8
layer 1
 62
   242
370
    20
100
AcDbSpline
210
0.0
220
0.0
230
1.0
 70
     8
 71
     3
 72
    20
 73
    16
 74
     0
 42
0.000000001
 43
0.0000000001
 40
0.0
 40
0.0
 40
0.0
 40
0.0
 40
0.2
 40
0.2
 40
0.2
 40
0.2
 40
0.4
 40
0.4
 40
0.4
 40
0.4
 40
0.6
 40
0.6
 40
0.6
 40
0.6
 40
1.0
 40
1.0
 40
1.0
 40
1.0
 10
27.56957
 20
9.96682
 30
0.0
 10
27.61632
 20
9.96374
 30
0.0
 10
27.66307
 20
9.96067
 30
0.0
 10
27.71202
 20
9.97985
 30
0.0
 10
27.71202
 20
9.97985
 30
0.0
 10
27.76097
 20
9.99904
 30
0.0
 10
27.81213
 20
10.04049
 30
0.0
 10
27.83638
 20
10.0934
 30
0.0
 10
27.83638
 20
10.0934
 30
0.0
 10
27.86063
 20
10.14632
 30
0.0
 10
27.85799
 20
10.21071
 30
0.0
 10
27.83843
 20
10.25896
 30
0.0
 10
27.83843
 20
10.25896
 30
0.0
 10
27.81886
 20
10.30721
 30
0.0
 10
27.78238
 20
10.33934
 30
0.0
 10
27.7459
 20
10.37146
 30
0.0
  0
SPLINE
  5
94
330
1F
100
AcDbEntity
  8
layer 1
 62
   242
370
    20
100
AcDbSpline
210
0.0
220
0.0
230
1.0
 70
     8
 71
     3
 72
    20
 73
    16
 74
     0
 42
0.000000001
 43
0.0000000001
 40
0.0
 40
0.0
 40
0.0
 40
0.0
 40
0.2
 40
0.2
 40
0.2
 40
0.2
 40
0.4
 40
0.4
 40
0.4
 40
0.4
 40
0.6
 40
0.6
 40
0.6
 40
0.6
 40
1.0
 40
1.0
 40
1.0
 40
1.0
 10
27.41613
 20
8.92175
 30
0.0
 10
27.51006
 20
9.01612
 30
0.0
 10
27.60398
 20
9.11048
 30
0.0
 10
27.68138
 20
9.18809
 30
0.0
 10
27.68138
 20
9.18809
 30
0.0
 10
27.75877
 20
9.2657
 30
0.0
 10
27.81962
 20
9.32656
 30
0.0
 10
27.87519
 20
9.38983
 30
0.0
 10
27.87519
 20
9.38983
 30
0.0
 10
27.93075
 20
9.45311
 30
0.0
 10
27.98102
 20
9.51882
 30
0.0
 10
28.01409
 20
9.56997
 30
0.0
 10
28.01409
 20
9.56997
 30
0.0
 10
28.04716
 20
9.62112
 30
0.0
 10
28.06304
 20
9.65773
 30
0.0
 10
28.07891
 20
9.69433
 30
0.0
  0
SPLINE
  5
95
330
1F
100
AcDbEntity
  8
layer 1
 62
   242
370
    20
100
AcDbSpline
210
0.0
220
0.0
230
1.0
 70
     8
 71
     3
 72
    16
 73
    12
 74
     0
 42
0.000000001
 43
0.0000000001
 40
0.0
 40
0.0
 40
0.0
 40
0.0
 40
0.25
 40
0.25
 40
0.25
 40
0.25
 40
0.5
 40
0.5
 40
0.5
 40
0.5
 40
1.0
 40
1.0
 40
1.0
 40
1.0
 10
28.56575
 20
9.80942
 30
0.0
 10
28.53797
 20
9.78296
 30
0.0
 10
28.51019
 20
9.7565
 30
0.0
 10
28.48285
 20
9.74481
 30
0.0
 10
28.48285
 20
9.74481
 30
0.0
 10
28.45551
 20
9.73313
 30
0.0
 10
28.42861
 20
9.73621
 30
0.0
 10
28.40326
 20
9.74393
 30
0.0
 10
28.40326
 20
9.74393
 30
0.0
 10
28.3779
 20
9.75165
 30
0.0
 10
28.35408
 20
9.764
 30
0.0
 10
28.33027
 20
9.77635
 30
0.0
  0
SPLINE
  5
96
330
1F
100
AcDbEntity
  8
layer 1
 62
   242
370
    20
100
AcDbSpline
210
0.0
220
0.0
230
1.0
 70
     8
 71
     3
 72
    16
 73
    12
 74
     0
 42
0.000000001
 43
0.0000000001
 40
0.0
 40
0.0
 40
0.0
 40
0.0
 40
0.25
 40
0.25
 40
0.25
 40
0.25
 40
0.5
 40
0.5
 40
0.5
 40
0.5
 40
1.0
 40
1.0
 40
1.0
 40
1.0
 10
28.07891
 20
9.69433
 30
0.0
 10
28.10802
 20
9.67934
 30
0.0
 10
28.13712
 20
9.66434
 30
0.0
 10
28.1713
 20
9.6628
 30
0.0
 10
28.1713
 20
9.6628
 30
0.0
 10
28.20548
 20
9.66126
 30
0.0
 10
28.24472
 20
9.67316
 30
0.0
 10
28.27206
 20
9.69433
 30
0.0
 10
28.27206
 20
9.69433
 30
0.0
 10
28.2994
 20
9.7155
 30
0.0
 10
28.31484
 20
9.74592
 30
0.0
 10
28.33027
 20
9.77635
 30
0.0
  0
SPLINE
  5
97
330
1F
100
AcDbEntity
  8
layer 1
 62
   242
370
    20
100
AcDbSpline
210
0.0
220
0.0
230
1.0
 70
     8
 71
     3
 72
    20
 73
    16
 74
     0
 42
0.000000001
 43
0.0000000001
 40
0.0
 40
0.0
 40
0.0
 40
0.0
 40
0.2
 40
0.2
 40
0.2
 40
0.2
 40
0.4
 40
0.4
 40
0.4
 40
0.4
 40
0.6
 40
0.6
 40
0.6
 40
0.6
 40
1.0
 40
1.0
 40
1.0
 40
1.0
 10
28.56575
 20
9.80942
 30
0.0
 10
28.55783
 20
9.76533
 30
0.0
 10
28.54992
 20
9.72124
 30
0.0
 10
28.53494
 20
9.67803
 30
0.0
 10
28.53494
 20
9.67803
 30
0.0
 10
28.51995
 20
9.63482
 30
0.0
 10
28.4979
 20
9.59248
 30
0.0
 10
28.47541
 20
9.55852
 30
0.0
 10
28.47541
 20
9.55852
 30
0.0
 10
28.45292
 20
9.52457
 30
0.0
 10
28.42999
 20
9.499
 30
0.0
 10
28.41291
 20
9.48009
 30
0.0
 10
28.41291
 20
9.48009
 30
0.0
 10
28.39582
 20
9.46118
 30
0.0
 10
28.38457
 20
9.44895
 30
0.0
 10
28.37333
 20
9.43671
 30
0.0
  0
SPLINE
  5
98
330
1F
100
AcDbEntity
  8
layer 1
 62
   242
370
    20
100
AcDbSpline
210
0.0
220
0.0
230
1.0
 70
     8
 71
     3
 72
    16
 73
    12
 74
     0
 42
0.000000001
 43
0.0000000001
 40
0.0
 40
0.0
 40
0.0
 40
0.0
 40
0.25
 40
0.25
 40
0.25
 40
0.25
 40
0.5
 40
0.5
 40
0.5
 40
0.5
 40
1.0
 40
1.0
 40
1.0
 40
1.0
 10
28.55033
 20
9.39669
 30
0.0
 10
28.52718
 20
9.39338
 30
0.0
 10
28.50402
 20
9.39008
 30
0.0
 10
28.48142
 20
9.39063
 30
0.0
 10
28.48142
 20
9.39063
 30
0.0
 10
28.45882
 20
9.39118
 30
0.0
 10
28.43678
 20
9.39559
 30
0.0
 10
28.41886
 20
9.40391
 30
0.0
 10
28.41886
 20
9.40391
 30
0.0
 10
28.40093
 20
9.41224
 30
0.0
 10
28.38713
 20
9.42447
 30
0.0
 10
28.37333
 20
9.43671
 30
0.0
  0
SPLINE
  5
99
330
1F
100
AcDbEntity
  8
layer 1
 62
   242
370
    20
100
AcDbSpline
210
0.0
220
0.0
230
1.0
 70
     8
 71
     3
 72
    16
 73
    12
 74
     0
 42
0.000000001
 43
0.0000000001
 40
0.0
 40
0.0
 40
0.0
 40
0.0
 40
0.25
 40
0.25
 40
0.25
 40
0.25
 40
0.5
 40
0.5
 40
0.5
 40
0.5
 40
1.0
 40
1.0
 40
1.0
 40
1.0
 10
28.93401
 20
8.79078
 30
0.0
 10
28.87801
 20
8.82385
 30
0.0
 10
28.822
 20
8.85693
 30
0.0
 10
28.78298
 20
8.92043
 30
0.0
 10
28.78298
 20
8.92043
 30
0.0
 10
28.74395
 20
8.98393
 30
0.0
 10
28.7219
 20
9.07785
 30
0.0
 10
28.71088
 20
9.12481
 30
0.0
 10
28.71088
 20
9.12481
 30
0.0
 10
28.69985
 20
9.17178
 30
0.0
 10
28.69985
 20
9.17178
 30
0.0
 10
28.69985
 20
9.17178
 30
0.0
  0
SPLINE
  5
9A
330
1F
100
AcDbEntity
  8
layer 1
 62
   242
370
    20
100
AcDbSpline
210
0.0
220
0.0
230
1.0
 70
     8
 71
     3
 72
    16
 73
    12
 74
     0
 42
0.000000001
 43
0.0000000001
 40
0.0
 40
0.0
 40
0.0
 40
0.0
 40
0.25
 40
0.25
 40
0.25
 40
0.25
 40
0.5
 40
0.5
 40
0.5
 40
0.5
 40
1.0
 40
1.0
 40
1.0
 40
1.0
 10
28.55033
 20
9.39669
 30
0.0
 10
28.54264
 20
9.35281
 30
0.0
 10
28.53494
 20
9.30894
 30
0.0
 10
28.54102
 20
9.27134
 30
0.0
 10
28.54102
 20
9.27134
 30
0.0
 10
28.54709
 20
9.23375
 30
0.0
 10
28.56694
 20
9.20244
 30
0.0
 10
28.59571
 20
9.18689
 30
0.0
 10
28.59571
 20
9.18689
 30
0.0
 10
28.62447
 20
9.17135
 30
0.0
 10
28.66216
 20
9.17156
 30
0.0
 10
28.69985
 20
9.17178
 30
0.0
  0
SPLINE
  5
9B
330
1F
100
AcDbEntity
  8
layer 1
 62
   242
370
    20
100
AcDbSpline
210
0.0
220
0.0
230
1.0
 70
     8
 71
     3
 72
    40
 73
    36
 74
     0
 42
0.000000001
 43
0.0000000001
 40
0.0
 40
0.0
 40
0.0
 40
0.0
 40
0.1
 40
0.1
 40
0.1
 40
0.1
 40
0.2
 40
0.2
 40
0.2
 40
0.2
 40
0.3
 40
0.3
 40
0.3
 40
0.3
 40
0.4
 40
0.4
 40
0.4
 40
0.4
 40
0.5
 40
0.5
 40
0.5
 40
0.5
 40
0.6
 40
0.6
 40
0.6
 40
0.6
 40
0.7
 40
0.7
 40
0.7
 40
0.7
 40
0.8
 40
0.8
 40
0.8
 40
0.8
 40
1.0
 40
1.0
 40
1.0
 40
1.0
 10
27.41613
 20
10.64585
 30
0.0
 10
27.45886
 20
10.68607
 30
0.0
 10
27.50158
 20
10.72629
 30
0.0
 10
27.55426
 20
10.75389
 30
0.0
 10
27.55426
 20
10.75389
 30
0.0
 10
27.60693
 20
10.7815
 30
0.0
 10
27.66955
 20
10.7965
 30
0.0
 10
27.74408
 20
10.7965
 30
0.0
 10
27.74408
 20
10.7965
 30
0.0
 10
27.8186
 20
10.7965
 30
0.0
 10
27.90503
 20
10.7815
 30
0.0
 10
27.97603
 20
10.75019
 30
0.0
 10
27.97603
 20
10.75019
 30
0.0
 10
28.04702
 20
10.71888
 30
0.0
 10
28.10259
 20
10.67126
 30
0.0
 10
28.15595
 20
10.59938
 30
0.0
 10
28.15595
 20
10.59938
 30
0.0
 10
28.2093
 20
10.5275
 30
0.0
 10
28.26046
 20
10.43137
 30
0.0
 10
28.30103
 20
10.34273
 30
0.0
 10
28.30103
 20
10.34273
 30
0.0
 10
28.3416
 20
10.2541
 30
0.0
 10
28.37158
 20
10.17296
 30
0.0
 10
28.39628
 20
10.11431
 30
0.0
 10
28.39628
 20
10.11431
 30
0.0
 10
28.42097
 20
10.05566
 30
0.0
 10
28.44037
 20
10.0195
 30
0.0
 10
28.45889
 20
9.99172
 30
0.0
 10
28.45889
 20
9.99172
 30
0.0
 10
28.47741
 20
9.96394
 30
0.0
 10
28.49505
 20
9.94453
 30
0.0
 10
28.51534
 20
9.9335
 30
0.0
 10
28.51534
 20
9.9335
 30
0.0
 10
28.53562
 20
9.92248
 30
0.0
 10
28.55855
 20
9.91984
 30
0.0
 10
28.58148
 20
9.91719
 30
0.0
  0
SPLINE
  5
9C
330
1F
100
AcDbEntity
  8
layer 1
 62
   242
370
    20
100
AcDbSpline
210
0.0
220
0.0
230
1.0
 70
     8
 71
     3
 72
    40
 73
    36
 74
     0
 42
0.000000001
 43
0.0000000001
 40
0.0
 40
0.0
 40
0.0
 40
0.0
 40
0.1
 40
0.1
 40
0.1
 40
0.1
 40
0.2
 40
0.2
 40
0.2
 40
0.2
 40
0.3
 40
0.3
 40
0.3
 40
0.3
 40
0.4
 40
0.4
 40
0.4
 40
0.4
 40
0.5
 40
0.5
 40
0.5
 40
0.5
 40
0.6
 40
0.6
 40
0.6
 40
0.6
 40
0.7
 40
0.7
 40
0.7
 40
0.7
 40
0.8
 40
0.8
 40
0.8
 40
0.8
 40
1.0
 40
1.0
 40
1.0
 40
1.0
 10
27.41613
 20
10.93994
 30
0.0
 10
27.4421
 20
10.96591
 30
0.0
 10
27.46807
 20
10.99189
 30
0.0
 10
27.50663
 20
11.01105
 30
0.0
 10
27.50663
 20
11.01105
 30
0.0
 10
27.54519
 20
11.03021
 30
0.0
 10
27.59635
 20
11.04256
 30
0.0
 10
27.66073
 20
11.04079
 30
0.0
 10
27.66073
 20
11.04079
 30
0.0
 10
27.72511
 20
11.03903
 30
0.0
 10
27.80273
 20
11.02316
 30
0.0
 10
27.88343
 20
10.99405
 30
0.0
 10
27.88343
 20
10.99405
 30
0.0
 10
27.96412
 20
10.96495
 30
0.0
 10
28.04791
 20
10.92261
 30
0.0
 10
28.12243
 20
10.87234
 30
0.0
 10
28.12243
 20
10.87234
 30
0.0
 10
28.19695
 20
10.82207
 30
0.0
 10
28.26222
 20
10.76386
 30
0.0
 10
28.32528
 20
10.68801
 30
0.0
 10
28.32528
 20
10.68801
 30
0.0
 10
28.38834
 20
10.61216
 30
0.0
 10
28.44919
 20
10.51868
 30
0.0
 10
28.48888
 20
10.43577
 30
0.0
 10
28.48888
 20
10.43577
 30
0.0
 10
28.52857
 20
10.35287
 30
0.0
 10
28.54709
 20
10.28055
 30
0.0
 10
28.559
 20
10.20735
 30
0.0
 10
28.559
 20
10.20735
 30
0.0
 10
28.5709
 20
10.13415
 30
0.0
 10
28.57619
 20
10.06006
 30
0.0
 10
28.57884
 20
10.01155
 30
0.0
 10
28.57884
 20
10.01155
 30
0.0
 10
28.58148
 20
9.96305
 30
0.0
 10
28.58148
 20
9.94012
 30
0.0
 10
28.58148
 20
9.91719
 30
0.0
  0
SPLINE
  5
9D
330
1F
100
AcDbEntity
  8
layer 1
 62
   242
370
    20
100
AcDbSpline
210
0.0
220
0.0
230
1.0
 70
     8
 71
     3
 72
    12
 73
     8
 74
     0
 42
0.000000001
 43
0.0000000001
 40
0.0
 40
0.0
 40
0.0
 40
0.0
 40
0.3333333333333333
 40
0.3333333333333333
 40
0.3333333333333333
 40
0.3333333333333333
 40
1.0
 40
1.0
 40
1.0
 40
1.0
 10
27.41613
 20
11.33042
 30
0.0
 10
27.41613
 20
11.33042
 30
0.0
 10
28.9264
 20
11.33042
 30
0.0
 10
28.9264
 20
11.33042
 30
0.0
 10
28.9264
 20
11.33042
 30
0.0
 10
28.9264
 20
11.33042
 30
0.0
 10
28.9264
 20
11.07576
 30
0.0
 10
28.9264
 20
11.07576
 30
0.0
  0
SPLINE
  5
9E
330
1F
100
AcDbEntity
  8
layer 1
 62
   242
370
    20
100
AcDbSpline
210
0.0
220
0.0
230
1.0
 70
     8
 71
     3
 72
    20
 73
    16
 74
     0
 42
0.000000001
 43
0.0000000001
 40
0.0
 40
0.0
 40
0.0
 40
0.0
 40
0.2
 40
0.2
 40
0.2
 40
0.2
 40
0.4
 40
0.4
 40
0.4
 40
0.4
 40
0.6
 40
0.6
 40
0.6
 40
0.6
 40
1.0
 40
1.0
 40
1.0
 40
1.0
 10
28.9264
 20
11.08096
 30
0.0
 10
28.9264
 20
11.08096
 30
0.0
 10
29.35847
 20
11.08096
 30
0.0
 10
29.35847
 20
11.08096
 30
0.0
 10
29.35847
 20
11.08096
 30
0.0
 10
29.35847
 20
11.08096
 30
0.0
 10
29.35847
 20
10.44936
 30
0.0
 10
29.35847
 20
10.44936
 30
0.0
 10
29.35847
 20
10.44936
 30
0.0
 10
29.35847
 20
10.44936
 30
0.0
 10
28.93434
 20
10.44936
 30
0.0
 10
28.93434
 20
10.44936
 30
0.0
 10
28.93434
 20
10.44936
 30
0.0
 10
28.93434
 20
10.44936
 30
0.0
 10
28.93434
 20
8.79078
 30
0.0
 10
28.93434
 20
8.79078
 30
0.0
  0
SPLINE
  5
9F
330
1F
100
AcDbEntity
  8
layer 1
 62
   242
370
    20
100
AcDbSpline
210
0.0
220
0.0
230
1.0
 70
    24
 71
     3
 72
     8
 73
     4
 74
     0
 42
0.000000001
 43
0.0000000001
 40
0.0
 40
0.0
 40
0.0
 40
0.0
 40
1.0
 40
1.0
 40
1.0
 40
1.0
 10
1.49716
 20
12.10617
 30
0.0
 10
1.49716
 20
12.10617
 30
0.0
 10
5.31775
 20
12.10617
 30
0.0
 10
5.31775
 20
12.10617
 30
0.0
  0
SPLINE
  5
A0
330
1F
100
AcDbEntity
  8
layer 1
 62
   242
370
    20
100
AcDbSpline
210
0.0
220
0.0
230
1.0
 70
    24
 71
     3
 72
     8
 73
     4
 74
     0
 42
0.000000001
 43
0.0000000001
 40
0.0
 40
0.0
 40
0.0
 40
0.0
 40
1.0
 40
1.0
 40
1.0
 40
1.0
 10
1.49716
 20
12.10617
 30
0.0
 10
1.49716
 20
12.10617
 30
0.0
 10
1.2749
 20
11.61405
 30
0.0
 10
1.2749
 20
11.61405
 30
0.0
  0
SPLINE
  5
A1
330
1F
100
AcDbEntity
  8
layer 1
 62
   242
370
    20
100
AcDbSpline
210
0.0
220
0.0
230
1.0
 70
     8
 71
     3
 72
   112
 73
   108
 74
     0
 42
0.000000001
 43
0.0000000001
 40
0.0
 40
0.0
 40
0.0
 40
0.0
 40
0.0357142857142857
 40
0.0357142857142857
 40
0.0357142857142857
 40
0.0357142857142857
 40
0.0714285714285714
 40
0.0714285714285714
 40
0.0714285714285714
 40
0.0714285714285714
 40
0.1071428571428571
 40
0.1071428571428571
 40
0.1071428571428571
 40
0.1071428571428571
 40
0.1428571428571428
 40
0.1428571428571428
 40
0.1428571428571428
 40
0.1428571428571428
 40
0.1785714285714286
 40
0.1785714285714286
 40
0.1785714285714286
 40
0.1785714285714286
 40
0.2142857142857143
 40
0.2142857142857143
 40
0.2142857142857143
 40
0.2142857142857143
 40
0.25
 40
0.25
 40
0.25
 40
0.25
 40
0.2857142857142857
 40
0.2857142857142857
 40
0.2857142857142857
 40
0.2857142857142857
 40
0.3214285714285715
 40
0.3214285714285715
 40
0.3214285714285715
 40
0.3214285714285715
 40
0.3571428571428572
 40
0.3571428571428572
 40
0.3571428571428572
 40
0.3571428571428572
 40
0.3928571428571428
 40
0.3928571428571428
 40
0.3928571428571428
 40
0.3928571428571428
 40
0.4285714285714285
 40
0.4285714285714285
 40
0.4285714285714285
 40
0.4285714285714285
 40
0.4642857142857143
 40
0.4642857142857143
 40
0.4642857142857143
 40
0.4642857142857143
 40
0.5
 40
0.5
 40
0.5
 40
0.5
 40
0.5357142857142857
 40
0.5357142857142857
 40
0.5357142857142857
 40
0.5357142857142857
 40
0.5714285714285714
 40
0.5714285714285714
 40
0.5714285714285714
 40
0.5714285714285714
 40
0.6071428571428571
 40
0.6071428571428571
 40
0.6071428571428571
 40
0.6071428571428571
 40
0.6428571428571429
 40
0.6428571428571429
 40
0.6428571428571429
 40
0.6428571428571429
 40
0.6785714285714286
 40
0.6785714285714286
 40
0.6785714285714286
 40
0.6785714285714286
 40
0.7142857142857143
 40
0.7142857142857143
 40
0.7142857142857143
 40
0.7142857142857143
 40
0.75
 40
0.75
 40
0.75
 40
0.75
 40
0.7857142857142857
 40
0.7857142857142857
 40
0.7857142857142857
 40
0.7857142857142857
 40
0.8214285714285714
 40
0.8214285714285714
 40
0.8214285714285714
 40
0.8214285714285714
 40
0.8571428571428571
 40
0.8571428571428571
 40
0.8571428571428571
 40
0.8571428571428571
 40
0.8928571428571429
 40
0.8928571428571429
 40
0.8928571428571429
 40
0.8928571428571429
 40
0.9285714285714286
 40
0.9285714285714286
 40
0.9285714285714286
 40
0.9285714285714286
 40
1.0
 40
1.0
 40
1.0
 40
1.0
 10
1.2749
 20
11.61405
 30
0.0
 10
1.27667
 20
11.48176
 30
0.0
 10
1.27843
 20
11.34946
 30
0.0
 10
1.27843
 20
11.19953
 30
0.0
 10
1.27843
 20
11.19953
 30
0.0
 10
1.27843
 20
11.0496
 30
0.0
 10
1.27667
 20
10.88204
 30
0.0
 10
1.26432
 20
10.73211
 30
0.0
 10
1.26432
 20
10.73211
 30
0.0
 10
1.25197
 20
10.58218
 30
0.0
 10
1.22904
 20
10.44988
 30
0.0
 10
1.19023
 20
10.29113
 30
0.0
 10
1.19023
 20
10.29113
 30
0.0
 10
1.15143
 20
10.13238
 30
0.0
 10
1.09675
 20
9.94718
 30
0.0
 10
1.05882
 20
9.82106
 30
0.0
 10
1.05882
 20
9.82106
 30
0.0
 10
1.0209
 20
9.69494
 30
0.0
 10
0.99974
 20
9.62791
 30
0.0
 10
0.98651
 20
9.57499
 30
0.0
 10
0.98651
 20
9.57499
 30
0.0
 10
0.97328
 20
9.52208
 30
0.0
 10
0.96799
 20
9.48327
 30
0.0
 10
0.96446
 20
9.41712
 30
0.0
 10
0.96446
 20
9.41712
 30
0.0
 10
0.96093
 20
9.35098
 30
0.0
 10
0.95917
 20
9.2575
 30
0.0
 10
0.96446
 20
9.17195
 30
0.0
 10
0.96446
 20
9.17195
 30
0.0
 10
0.96975
 20
9.0864
 30
0.0
 10
0.9821
 20
9.00878
 30
0.0
 10
1.01738
 20
8.91529
 30
0.0
 10
1.01738
 20
8.91529
 30
0.0
 10
1.05266
 20
8.82181
 30
0.0
 10
1.11086
 20
8.71245
 30
0.0
 10
1.192
 20
8.60309
 30
0.0
 10
1.192
 20
8.60309
 30
0.0
 10
1.27314
 20
8.49373
 30
0.0
 10
1.37721
 20
8.38437
 30
0.0
 10
1.50156
 20
8.2803
 30
0.0
 10
1.50156
 20
8.2803
 30
0.0
 10
1.62592
 20
8.17623
 30
0.0
 10
1.77056
 20
8.07745
 30
0.0
 10
1.91872
 20
7.99454
 30
0.0
 10
1.91872
 20
7.99454
 30
0.0
 10
2.06689
 20
7.91164
 30
0.0
 10
2.21859
 20
7.84462
 30
0.0
 10
2.38086
 20
7.7917
 30
0.0
 10
2.38086
 20
7.7917
 30
0.0
 10
2.54314
 20
7.73878
 30
0.0
 10
2.71601
 20
7.69998
 30
0.0
 10
2.90386
 20
7.67616
 30
0.0
 10
2.90386
 20
7.67616
 30
0.0
 10
3.09172
 20
7.65235
 30
0.0
 10
3.29456
 20
7.64353
 30
0.0
 10
3.47359
 20
7.64529
 30
0.0
 10
3.47359
 20
7.64529
 30
0.0
 10
3.65263
 20
7.64706
 30
0.0
 10
3.80786
 20
7.65941
 30
0.0
 10
3.97719
 20
7.68675
 30
0.0
 10
3.97719
 20
7.68675
 30
0.0
 10
4.14653
 20
7.71409
 30
0.0
 10
4.32997
 20
7.75643
 30
0.0
 10
4.51341
 20
7.82081
 30
0.0
 10
4.51341
 20
7.82081
 30
0.0
 10
4.69686
 20
7.88519
 30
0.0
 10
4.88031
 20
7.97162
 30
0.0
 10
5.04699
 20
8.07569
 30
0.0
 10
5.04699
 20
8.07569
 30
0.0
 10
5.21368
 20
8.17976
 30
0.0
 10
5.36361
 20
8.30146
 30
0.0
 10
5.47385
 20
8.40817
 30
0.0
 10
5.47385
 20
8.40817
 30
0.0
 10
5.5841
 20
8.51489
 30
0.0
 10
5.65465
 20
8.60662
 30
0.0
 10
5.70845
 20
8.70451
 30
0.0
 10
5.70845
 20
8.70451
 30
0.0
 10
5.76225
 20
8.80241
 30
0.0
 10
5.7993
 20
8.90648
 30
0.0
 10
5.82223
 20
9.02289
 30
0.0
 10
5.82223
 20
9.02289
 30
0.0
 10
5.84516
 20
9.13931
 30
0.0
 10
5.85398
 20
9.26808
 30
0.0
 10
5.8531
 20
9.36597
 30
0.0
 10
5.8531
 20
9.36597
 30
0.0
 10
5.85222
 20
9.46387
 30
0.0
 10
5.84163
 20
9.53089
 30
0.0
 10
5.809
 20
9.6429
 30
0.0
 10
5.809
 20
9.6429
 30
0.0
 10
5.77637
 20
9.75491
 30
0.0
 10
5.72168
 20
9.91189
 30
0.0
 10
5.68287
 20
10.04595
 30
0.0
 10
5.68287
 20
10.04595
 30
0.0
 10
5.64407
 20
10.18001
 30
0.0
 10
5.62114
 20
10.29113
 30
0.0
 10
5.60085
 20
10.40049
 30
0.0
 10
5.60085
 20
10.40049
 30
0.0
 10
5.58057
 20
10.50986
 30
0.0
 10
5.56293
 20
10.61745
 30
0.0
 10
5.55146
 20
10.74004
 30
0.0
 10
5.55146
 20
10.74004
 30
0.0
 10
5.54
 20
10.86263
 30
0.0
 10
5.53471
 20
11.00022
 30
0.0
 10
5.53548
 20
11.14838
 30
0.0
 10
5.53548
 20
11.14838
 30
0.0
 10
5.53625
 20
11.29655
 30
0.0
 10
5.54307
 20
11.4553
 30
0.0
 10
5.5499
 20
11.61405
 30
0.0
  0
SPLINE
  5
A2
330
1F
100
AcDbEntity
  8
layer 1
 62
   242
370
    20
100
AcDbSpline
210
0.0
220
0.0
230
1.0
 70
    24
 71
     3
 72
     8
 73
     4
 74
     0
 42
0.000000001
 43
0.0000000001
 40
0.0
 40
0.0
 40
0.0
 40
0.0
 40
1.0
 40
1.0
 40
1.0
 40
1.0
 10
5.5499
 20
11.61405
 30
0.0
 10
5.5499
 20
11.61405
 30
0.0
 10
5.31775
 20
12.10617
 30
0.0
 10
5.31775
 20
12.10617
 30
0.0
  0
SPLINE
  5
A3
330
1F
100
AcDbEntity
  8
layer 1
 62
   242
370
    20
100
AcDbSpline
210
0.0
220
0.0
230
1.0
 70
    24
 71
     3
 72
     8
 73
     4
 74
     0
 42
0.000000001
 43
0.0000000001
 40
0.0
 40
0.0
 40
0.0
 40
0.0
 40
1.0
 40
1.0
 40
1.0
 40
1.0
 10
30.99046
 20
12.79155
 30
0.0
 10
30.99046
 20
12.79155
 30
0.0
 10
34.81105
 20
12.79155
 30
0.0
 10
34.81105
 20
12.79155
 30
0.0
  0
SPLINE
  5
A4
330
1F
100
AcDbEntity
  8
layer 1
 62
   242
370
    20
100
AcDbSpline
210
0.0
220
0.0
230
1.0
 70
    24
 71
     3
 72
     8
 73
     4
 74
     0
 42
0.000000001
 43
0.0000000001
 40
0.0
 40
0.0
 40
0.0
 40
0.0
 40
1.0
 40
1.0
 40
1.0
 40
1.0
 10
35.0432
 20
12.29943
 30
0.0
 10
35.0432
 20
12.29943
 30
0.0
 10
34.81105
 20
12.79155
 30
0.0
 10
34.81105
 20
12.79155
 30
0.0
  0
SPLINE
  5
A5
330
1F
100
AcDbEntity
  8
layer 1
 62
   242
370
    20
100
AcDbSpline
210
0.0
220
0.0
230
1.0
 70
     8
 71
     3
 72
   112
 73
   108
 74
     0
 42
0.000000001
 43
0.0000000001
 40
0.0
 40
0.0
 40
0.0
 40
0.0
 40
0.0357142857142857
 40
0.0357142857142857
 40
0.0357142857142857
 40
0.0357142857142857
 40
0.0714285714285714
 40
0.0714285714285714
 40
0.0714285714285714
 40
0.0714285714285714
 40
0.1071428571428571
 40
0.1071428571428571
 40
0.1071428571428571
 40
0.1071428571428571
 40
0.1428571428571428
 40
0.1428571428571428
 40
0.1428571428571428
 40
0.1428571428571428
 40
0.1785714285714286
 40
0.1785714285714286
 40
0.1785714285714286
 40
0.1785714285714286
 40
0.2142857142857143
 40
0.2142857142857143
 40
0.2142857142857143
 40
0.2142857142857143
 40
0.25
 40
0.25
 40
0.25
 40
0.25
 40
0.2857142857142857
 40
0.2857142857142857
 40
0.2857142857142857
 40
0.2857142857142857
 40
0.3214285714285715
 40
0.3214285714285715
 40
0.3214285714285715
 40
0.3214285714285715
 40
0.3571428571428572
 40
0.3571428571428572
 40
0.3571428571428572
 40
0.3571428571428572
 40
0.3928571428571428
 40
0.3928571428571428
 40
0.3928571428571428
 40
0.3928571428571428
 40
0.4285714285714285
 40
0.4285714285714285
 40
0.4285714285714285
 40
0.4285714285714285
 40
0.4642857142857143
 40
0.4642857142857143
 40
0.4642857142857143
 40
0.4642857142857143
 40
0.5
 40
0.5
 40
0.5
 40
0.5
 40
0.5357142857142857
 40
0.5357142857142857
 40
0.5357142857142857
 40
0.5357142857142857
 40
0.5714285714285714
 40
0.5714285714285714
 40
0.5714285714285714
 40
0.5714285714285714
 40
0.6071428571428571
 40
0.6071428571428571
 40
0.6071428571428571
 40
0.6071428571428571
 40
0.6428571428571429
 40
0.6428571428571429
 40
0.6428571428571429
 40
0.6428571428571429
 40
0.6785714285714286
 40
0.6785714285714286
 40
0.6785714285714286
 40
0.6785714285714286
 40
0.7142857142857143
 40
0.7142857142857143
 40
0.7142857142857143
 40
0.7142857142857143
 40
0.75
 40
0.75
 40
0.75
 40
0.75
 40
0.7857142857142857
 40
0.7857142857142857
 40
0.7857142857142857
 40
0.7857142857142857
 40
0.8214285714285714
 40
0.8214285714285714
 40
0.8214285714285714
 40
0.8214285714285714
 40
0.8571428571428571
 40
0.8571428571428571
 40
0.8571428571428571
 40
0.8571428571428571
 40
0.8928571428571429
 40
0.8928571428571429
 40
0.8928571428571429
 40
0.8928571428571429
 40
0.9285714285714286
 40
0.9285714285714286
 40
0.9285714285714286
 40
0.9285714285714286
 40
1.0
 40
1.0
 40
1.0
 40
1.0
 10
30.7682
 20
12.29943
 30
0.0
 10
30.76997
 20
12.16714
 30
0.0
 10
30.77173
 20
12.03484
 30
0.0
 10
30.77173
 20
11.88491
 30
0.0
 10
30.77173
 20
11.88491
 30
0.0
 10
30.77173
 20
11.73498
 30
0.0
 10
30.76997
 20
11.56742
 30
0.0
 10
30.75762
 20
11.41749
 30
0.0
 10
30.75762
 20
11.41749
 30
0.0
 10
30.74527
 20
11.26756
 30
0.0
 10
30.72234
 20
11.13526
 30
0.0
 10
30.68353
 20
10.97651
 30
0.0
 10
30.68353
 20
10.97651
 30
0.0
 10
30.64473
 20
10.81776
 30
0.0
 10
30.59005
 20
10.63256
 30
0.0
 10
30.55212
 20
10.50644
 30
0.0
 10
30.55212
 20
10.50644
 30
0.0
 10
30.5142
 20
10.38032
 30
0.0
 10
30.49304
 20
10.31329
 30
0.0
 10
30.47981
 20
10.26037
 30
0.0
 10
30.47981
 20
10.26037
 30
0.0
 10
30.46658
 20
10.20746
 30
0.0
 10
30.46129
 20
10.16865
 30
0.0
 10
30.45776
 20
10.1025
 30
0.0
 10
30.45776
 20
10.1025
 30
0.0
 10
30.45423
 20
10.03636
 30
0.0
 10
30.45247
 20
9.94288
 30
0.0
 10
30.45776
 20
9.85733
 30
0.0
 10
30.45776
 20
9.85733
 30
0.0
 10
30.46305
 20
9.77178
 30
0.0
 10
30.4754
 20
9.69416
 30
0.0
 10
30.51068
 20
9.60067
 30
0.0
 10
30.51068
 20
9.60067
 30
0.0
 10
30.54596
 20
9.50719
 30
0.0
 10
30.60416
 20
9.39783
 30
0.0
 10
30.6853
 20
9.28847
 30
0.0
 10
30.6853
 20
9.28847
 30
0.0
 10
30.76644
 20
9.17911
 30
0.0
 10
30.87051
 20
9.06975
 30
0.0
 10
30.99486
 20
8.96568
 30
0.0
 10
30.99486
 20
8.96568
 30
0.0
 10
31.11922
 20
8.86161
 30
0.0
 10
31.26386
 20
8.76283
 30
0.0
 10
31.41202
 20
8.67992
 30
0.0
 10
31.41202
 20
8.67992
 30
0.0
 10
31.56019
 20
8.59702
 30
0.0
 10
31.71189
 20
8.53
 30
0.0
 10
31.87416
 20
8.47708
 30
0.0
 10
31.87416
 20
8.47708
 30
0.0
 10
32.03644
 20
8.42416
 30
0.0
 10
32.20931
 20
8.38536
 30
0.0
 10
32.39716
 20
8.36154
 30
0.0
 10
32.39716
 20
8.36154
 30
0.0
 10
32.58502
 20
8.33773
 30
0.0
 10
32.78786
 20
8.32891
 30
0.0
 10
32.96689
 20
8.33067
 30
0.0
 10
32.96689
 20
8.33067
 30
0.0
 10
33.14593
 20
8.33244
 30
0.0
 10
33.30116
 20
8.34479
 30
0.0
 10
33.47049
 20
8.37213
 30
0.0
 10
33.47049
 20
8.37213
 30
0.0
 10
33.63983
 20
8.39947
 30
0.0
 10
33.82327
 20
8.44181
 30
0.0
 10
34.00671
 20
8.50619
 30
0.0
 10
34.00671
 20
8.50619
 30
0.0
 10
34.19016
 20
8.57057
 30
0.0
 10
34.37361
 20
8.657
 30
0.0
 10
34.54029
 20
8.76107
 30
0.0
 10
34.54029
 20
8.76107
 30
0.0
 10
34.70698
 20
8.86514
 30
0.0
 10
34.85691
 20
8.98684
 30
0.0
 10
34.96715
 20
9.09355
 30
0.0
 10
34.96715
 20
9.09355
 30
0.0
 10
35.0774
 20
9.20027
 30
0.0
 10
35.14795
 20
9.292
 30
0.0
 10
35.20175
 20
9.38989
 30
0.0
 10
35.20175
 20
9.38989
 30
0.0
 10
35.25555
 20
9.48779
 30
0.0
 10
35.2926
 20
9.59186
 30
0.0
 10
35.31553
 20
9.70827
 30
0.0
 10
35.31553
 20
9.70827
 30
0.0
 10
35.33846
 20
9.82469
 30
0.0
 10
35.34728
 20
9.95346
 30
0.0
 10
35.3464
 20
10.05135
 30
0.0
 10
35.3464
 20
10.05135
 30
0.0
 10
35.34552
 20
10.14925
 30
0.0
 10
35.33493
 20
10.21627
 30
0.0
 10
35.3023
 20
10.32828
 30
0.0
 10
35.3023
 20
10.32828
 30
0.0
 10
35.26967
 20
10.44029
 30
0.0
 10
35.21498
 20
10.59727
 30
0.0
 10
35.17617
 20
10.73133
 30
0.0
 10
35.17617
 20
10.73133
 30
0.0
 10
35.13737
 20
10.86539
 30
0.0
 10
35.11444
 20
10.97651
 30
0.0
 10
35.09415
 20
11.08587
 30
0.0
 10
35.09415
 20
11.08587
 30
0.0
 10
35.07387
 20
11.19524
 30
0.0
 10
35.05623
 20
11.30283
 30
0.0
 10
35.04476
 20
11.42542
 30
0.0
 10
35.04476
 20
11.42542
 30
0.0
 10
35.0333
 20
11.54801
 30
0.0
 10
35.02801
 20
11.6856
 30
0.0
 10
35.02878
 20
11.83376
 30
0.0
 10
35.02878
 20
11.83376
 30
0.0
 10
35.02955
 20
11.98193
 30
0.0
 10
35.03637
 20
12.14068
 30
0.0
 10
35.0432
 20
12.29943
 30
0.0
  0
SPLINE
  5
A6
330
1F
100
AcDbEntity
  8
layer 1
 62
   242
370
    20
100
AcDbSpline
210
0.0
220
0.0
230
1.0
 70
    24
 71
     3
 72
     8
 73
     4
 74
     0
 42
0.000000001
 43
0.0000000001
 40
0.0
 40
0.0
 40
0.0
 40
0.0
 40
1.0
 40
1.0
 40
1.0
 40
1.0
 10
30.99046
 20
12.79155
 30
0.0
 10
30.99046
 20
12.79155
 30
0.0
 10
30.7682
 20
12.29943
 30
0.0
 10
30.7682
 20
12.29943
 30
0.0
  0
SPLINE
  5
A7
330
1F
100
AcDbEntity
  8
layer 1
 62
   242
370
    20
100
AcDbSpline
210
0.0
220
0.0
230
1.0
 70
     8
 71
     3
 72
    96
 73
    92
 74
     0
 42
0.000000001
 43
0.0000000001
 40
0.0
 40
0.0
 40
0.0
 40
0.0
 40
0.0416666666666667
 40
0.0416666666666667
 40
0.0416666666666667
 40
0.0416666666666667
 40
0.0833333333333333
 40
0.0833333333333333
 40
0.0833333333333333
 40
0.0833333333333333
 40
0.125
 40
0.125
 40
0.125
 40
0.125
 40
0.1666666666666667
 40
0.1666666666666667
 40
0.1666666666666667
 40
0.1666666666666667
 40
0.2083333333333333
 40
0.2083333333333333
 40
0.2083333333333333
 40
0.2083333333333333
 40
0.25
 40
0.25
 40
0.25
 40
0.25
 40
0.2916666666666667
 40
0.2916666666666667
 40
0.2916666666666667
 40
0.2916666666666667
 40
0.3333333333333333
 40
0.3333333333333333
 40
0.3333333333333333
 40
0.3333333333333333
 40
0.375
 40
0.375
 40
0.375
 40
0.375
 40
0.4166666666666667
 40
0.4166666666666667
 40
0.4166666666666667
 40
0.4166666666666667
 40
0.4583333333333333
 40
0.4583333333333333
 40
0.4583333333333333
 40
0.4583333333333333
 40
0.5
 40
0.5
 40
0.5
 40
0.5
 40
0.5416666666666666
 40
0.5416666666666666
 40
0.5416666666666666
 40
0.5416666666666666
 40
0.5833333333333334
 40
0.5833333333333334
 40
0.5833333333333334
 40
0.5833333333333334
 40
0.625
 40
0.625
 40
0.625
 40
0.625
 40
0.6666666666666666
 40
0.6666666666666666
 40
0.6666666666666666
 40
0.6666666666666666
 40
0.7083333333333334
 40
0.7083333333333334
 40
0.7083333333333334
 40
0.7083333333333334
 40
0.75
 40
0.75
 40
0.75
 40
0.75
 40
0.7916666666666666
 40
0.7916666666666666
 40
0.7916666666666666
 40
0.7916666666666666
 40
0.8333333333333334
 40
0.8333333333333334
 40
0.8333333333333334
 40
0.8333333333333334
 40
0.875
 40
0.875
 40
0.875
 40
0.875
 40
0.9166666666666666
 40
0.9166666666666666
 40
0.9166666666666666
 40
0.9166666666666666
 40
1.0
 40
1.0
 40
1.0
 40
1.0
 10
0.1683
 20
-0.12557
 30
0.0
 10
0.13126
 20
0.00408
 30
0.0
 10
0.09422
 20
0.13372
 30
0.0
 10
0.07217
 20
0.29644
 30
0.0
 10
0.07217
 20
0.29644
 30
0.0
 10
0.05012
 20
0.45916
 30
0.0
 10
0.04307
 20
0.65495
 30
0.0
 10
0.051
 20
0.8062
 30
0.0
 10
0.051
 20
0.8062
 30
0.0
 10
0.05894
 20
0.95746
 30
0.0
 10
0.08187
 20
1.06417
 30
0.0
 10
0.11141
 20
1.1678
 30
0.0
 10
0.11141
 20
1.1678
 30
0.0
 10
0.14096
 20
1.27143
 30
0.0
 10
0.17712
 20
1.37198
 30
0.0
 10
0.20137
 20
1.48707
 30
0.0
 10
0.20137
 20
1.48707
 30
0.0
 10
0.22563
 20
1.60217
 30
0.0
 10
0.23797
 20
1.73181
 30
0.0
 10
0.24238
 20
1.92319
 30
0.0
 10
0.24238
 20
1.92319
 30
0.0
 10
0.24679
 20
2.11458
 30
0.0
 10
0.24327
 20
2.3677
 30
0.0
 10
0.23665
 20
2.51542
 30
0.0
 10
0.23665
 20
2.51542
 30
0.0
 10
0.23004
 20
2.66315
 30
0.0
 10
0.22034
 20
2.70549
 30
0.0
 10
0.19608
 20
2.78045
 30
0.0
 10
0.19608
 20
2.78045
 30
0.0
 10
0.17183
 20
2.85542
 30
0.0
 10
0.13303
 20
2.96301
 30
0.0
 10
0.10128
 20
3.04415
 30
0.0
 10
0.10128
 20
3.04415
 30
0.0
 10
0.06953
 20
3.12529
 30
0.0
 10
0.04483
 20
3.17997
 30
0.0
 10
0.03116
 20
3.2148
 30
0.0
 10
0.03116
 20
3.2148
 30
0.0
 10
0.01749
 20
3.24964
 30
0.0
 10
0.01485
 20
3.26464
 30
0.0
 10
0.02014
 20
3.28713
 30
0.0
 10
0.02014
 20
3.28713
 30
0.0
 10
0.02543
 20
3.30962
 30
0.0
 10
0.03866
 20
3.3396
 30
0.0
 10
0.06026
 20
3.3859
 30
0.0
 10
0.06026
 20
3.3859
 30
0.0
 10
0.08187
 20
3.43221
 30
0.0
 10
0.11186
 20
3.49482
 30
0.0
 10
0.14228
 20
3.56714
 30
0.0
 10
0.14228
 20
3.56714
 30
0.0
 10
0.17271
 20
3.63946
 30
0.0
 10
0.20358
 20
3.72149
 30
0.0
 10
0.22122
 20
3.81894
 30
0.0
 10
0.22122
 20
3.81894
 30
0.0
 10
0.23886
 20
3.9164
 30
0.0
 10
0.24327
 20
4.02929
 30
0.0
 10
0.24415
 20
4.15276
 30
0.0
 10
0.24415
 20
4.15276
 30
0.0
 10
0.24503
 20
4.27624
 30
0.0
 10
0.24239
 20
4.41029
 30
0.0
 10
0.22254
 20
4.53773
 30
0.0
 10
0.22254
 20
4.53773
 30
0.0
 10
0.2027
 20
4.66518
 30
0.0
 10
0.16565
 20
4.786
 30
0.0
 10
0.12508
 20
4.88742
 30
0.0
 10
0.12508
 20
4.88742
 30
0.0
 10
0.08451
 20
4.98885
 30
0.0
 10
0.04042
 20
5.07087
 30
0.0
 10
0.00823
 20
5.15509
 30
0.0
 10
0.00823
 20
5.15509
 30
0.0
 10
-0.02396
 20
5.23932
 30
0.0
 10
-0.04425
 20
5.32575
 30
0.0
 10
-0.05174
 20
5.45936
 30
0.0
 10
-0.05174
 20
5.45936
 30
0.0
 10
-0.05924
 20
5.59298
 30
0.0
 10
-0.05395
 20
5.77378
 30
0.0
 10
-0.05483
 20
5.94576
 30
0.0
 10
-0.05483
 20
5.94576
 30
0.0
 10
-0.05571
 20
6.11774
 30
0.0
 10
-0.06277
 20
6.2809
 30
0.0
 10
-0.04557
 20
6.42598
 30
0.0
 10
-0.04557
 20
6.42598
 30
0.0
 10
-0.02837
 20
6.57106
 30
0.0
 10
0.01308
 20
6.69807
 30
0.0
 10
0.04968
 20
6.82595
 30
0.0
 10
0.04968
 20
6.82595
 30
0.0
 10
0.08628
 20
6.95383
 30
0.0
 10
0.11803
 20
7.0826
 30
0.0
 10
0.13346
 20
7.18622
 30
0.0
 10
0.13346
 20
7.18622
 30
0.0
 10
0.1489
 20
7.28985
 30
0.0
 10
0.14802
 20
7.36835
 30
0.0
 10
0.14714
 20
7.44684
 30
0.0
  0
SPLINE
  5
A8
330
1F
100
AcDbEntity
  8
layer 1
 62
   242
370
    20
100
AcDbSpline
210
0.0
220
0.0
230
1.0
 70
     8
 71
     3
 72
    20
 73
    16
 74
     0
 42
0.000000001
 43
0.0000000001
 40
0.0
 40
0.0
 40
0.0
 40
0.0
 40
0.2
 40
0.2
 40
0.2
 40
0.2
 40
0.4
 40
0.4
 40
0.4
 40
0.4
 40
0.6
 40
0.6
 40
0.6
 40
0.6
 40
1.0
 40
1.0
 40
1.0
 40
1.0
 10
0.20005
 20
8.44168
 30
0.0
 10
0.25297
 20
8.34996
 30
0.0
 10
0.30588
 20
8.25823
 30
0.0
 10
0.33542
 20
8.16254
 30
0.0
 10
0.33542
 20
8.16254
 30
0.0
 10
0.36497
 20
8.06685
 30
0.0
 10
0.37115
 20
7.96719
 30
0.0
 10
0.35792
 20
7.87546
 30
0.0
 10
0.35792
 20
7.87546
 30
0.0
 10
0.34469
 20
7.78374
 30
0.0
 10
0.31206
 20
7.69996
 30
0.0
 10
0.27369
 20
7.62984
 30
0.0
 10
0.27369
 20
7.62984
 30
0.0
 10
0.23533
 20
7.55973
 30
0.0
 10
0.19124
 20
7.50328
 30
0.0
 10
0.14714
 20
7.44684
 30
0.0
  0
SPLINE
  5
A9
330
1F
100
AcDbEntity
  8
layer 1
 62
   242
370
    20
100
AcDbSpline
210
0.0
220
0.0
230
1.0
 70
     8
 71
     3
 72
    12
 73
     8
 74
     0
 42
0.000000001
 43
0.0000000001
 40
0.0
 40
0.0
 40
0.0
 40
0.0
 40
0.3333333333333333
 40
0.3333333333333333
 40
0.3333333333333333
 40
0.3333333333333333
 40
1.0
 40
1.0
 40
1.0
 40
1.0
 10
-1.91664
 20
11.47643
 30
0.0
 10
-1.7817
 20
11.4535
 30
0.0
 10
-1.64677
 20
11.43057
 30
0.0
 10
-1.53079
 20
11.37633
 30
0.0
 10
-1.53079
 20
11.37633
 30
0.0
 10
-1.41481
 20
11.32209
 30
0.0
 10
-1.3178
 20
11.23654
 30
0.0
 10
-1.22078
 20
11.15099
 30
0.0
  0
SPLINE
  5
AA
330
1F
100
AcDbEntity
  8
layer 1
 62
   242
370
    20
100
AcDbSpline
210
0.0
220
0.0
230
1.0
 70
     8
 71
     3
 72
    12
 73
     8
 74
     0
 42
0.000000001
 43
0.0000000001
 40
0.0
 40
0.0
 40
0.0
 40
0.0
 40
0.3333333333333333
 40
0.3333333333333333
 40
0.3333333333333333
 40
0.3333333333333333
 40
1.0
 40
1.0
 40
1.0
 40
1.0
 10
-0.39793
 20
10.7012
 30
0.0
 10
-0.5214
 20
10.79557
 30
0.0
 10
-0.64487
 20
10.88994
 30
0.0
 10
-0.78201
 20
10.9649
 30
0.0
 10
-0.78201
 20
10.9649
 30
0.0
 10
-0.91915
 20
11.03987
 30
0.0
 10
-1.06997
 20
11.09543
 30
0.0
 10
-1.22078
 20
11.15099
 30
0.0
  0
SPLINE
  5
AB
330
1F
100
AcDbEntity
  8
layer 1
 62
   242
370
    20
100
AcDbSpline
210
0.0
220
0.0
230
1.0
 70
     8
 71
     3
 72
    48
 73
    44
 74
     0
 42
0.000000001
 43
0.0000000001
 40
0.0
 40
0.0
 40
0.0
 40
0.0
 40
0.0833333333333333
 40
0.0833333333333333
 40
0.0833333333333333
 40
0.0833333333333333
 40
0.1666666666666667
 40
0.1666666666666667
 40
0.1666666666666667
 40
0.1666666666666667
 40
0.25
 40
0.25
 40
0.25
 40
0.25
 40
0.3333333333333333
 40
0.3333333333333333
 40
0.3333333333333333
 40
0.3333333333333333
 40
0.4166666666666667
 40
0.4166666666666667
 40
0.4166666666666667
 40
0.4166666666666667
 40
0.5
 40
0.5
 40
0.5
 40
0.5
 40
0.5833333333333334
 40
0.5833333333333334
 40
0.5833333333333334
 40
0.5833333333333334
 40
0.6666666666666666
 40
0.6666666666666666
 40
0.6666666666666666
 40
0.6666666666666666
 40
0.75
 40
0.75
 40
0.75
 40
0.75
 40
0.8333333333333334
 40
0.8333333333333334
 40
0.8333333333333334
 40
0.8333333333333334
 40
1.0
 40
1.0
 40
1.0
 40
1.0
 10
0.20005
 20
8.44168
 30
0.0
 10
0.29728
 20
8.57043
 30
0.0
 10
0.39452
 20
8.69919
 30
0.0
 10
0.4643
 20
8.82706
 30
0.0
 10
0.4643
 20
8.82706
 30
0.0
 10
0.53409
 20
8.95494
 30
0.0
 10
0.57642
 20
9.08194
 30
0.0
 10
0.602
 20
9.19394
 30
0.0
 10
0.602
 20
9.19394
 30
0.0
 10
0.62758
 20
9.30595
 30
0.0
 10
0.63639
 20
9.40297
 30
0.0
 10
0.64036
 20
9.50792
 30
0.0
 10
0.64036
 20
9.50792
 30
0.0
 10
0.64433
 20
9.61287
 30
0.0
 10
0.64345
 20
9.72576
 30
0.0
 10
0.63066
 20
9.83468
 30
0.0
 10
0.63066
 20
9.83468
 30
0.0
 10
0.61787
 20
9.9436
 30
0.0
 10
0.59318
 20
10.04856
 30
0.0
 10
0.55481
 20
10.14248
 30
0.0
 10
0.55481
 20
10.14248
 30
0.0
 10
0.51645
 20
10.23641
 30
0.0
 10
0.46441
 20
10.31932
 30
0.0
 10
0.40356
 20
10.39472
 30
0.0
 10
0.40356
 20
10.39472
 30
0.0
 10
0.34271
 20
10.47013
 30
0.0
 10
0.27303
 20
10.53804
 30
0.0
 10
0.21614
 20
10.58258
 30
0.0
 10
0.21614
 20
10.58258
 30
0.0
 10
0.15926
 20
10.62712
 30
0.0
 10
0.11517
 20
10.64828
 30
0.0
 10
0.06445
 20
10.66371
 30
0.0
 10
0.06445
 20
10.66371
 30
0.0
 10
0.01374
 20
10.67915
 30
0.0
 10
-0.04358
 20
10.68885
 30
0.0
 10
-0.10223
 20
10.69458
 30
0.0
 10
-0.10223
 20
10.69458
 30
0.0
 10
-0.16088
 20
10.70031
 30
0.0
 10
-0.22086
 20
10.70208
 30
0.0
 10
-0.27036
 20
10.70252
 30
0.0
 10
-0.27036
 20
10.70252
 30
0.0
 10
-0.31986
 20
10.70296
 30
0.0
 10
-0.3589
 20
10.70208
 30
0.0
 10
-0.39793
 20
10.7012
 30
0.0
  0
SPLINE
  5
AC
330
1F
100
AcDbEntity
  8
layer 1
 62
   242
370
    20
100
AcDbSpline
210
0.0
220
0.0
230
1.0
 70
     8
 71
     3
 72
    28
 73
    24
 74
     0
 42
0.000000001
 43
0.0000000001
 40
0.0
 40
0.0
 40
0.0
 40
0.0
 40
0.1428571428571428
 40
0.1428571428571428
 40
0.1428571428571428
 40
0.1428571428571428
 40
0.2857142857142857
 40
0.2857142857142857
 40
0.2857142857142857
 40
0.2857142857142857
 40
0.4285714285714285
 40
0.4285714285714285
 40
0.4285714285714285
 40
0.4285714285714285
 40
0.5714285714285714
 40
0.5714285714285714
 40
0.5714285714285714
 40
0.5714285714285714
 40
0.7142857142857143
 40
0.7142857142857143
 40
0.7142857142857143
 40
0.7142857142857143
 40
1.0
 40
1.0
 40
1.0
 40
1.0
 10
-0.56396
 20
5.5709
 30
0.0
 10
-0.57807
 20
5.65733
 30
0.0
 10
-0.59218
 20
5.74376
 30
0.0
 10
-0.58777
 20
5.86767
 30
0.0
 10
-0.58777
 20
5.86767
 30
0.0
 10
-0.58336
 20
5.99159
 30
0.0
 10
-0.56043
 20
6.15299
 30
0.0
 10
-0.51236
 20
6.32894
 30
0.0
 10
-0.51236
 20
6.32894
 30
0.0
 10
-0.4643
 20
6.50489
 30
0.0
 10
-0.39109
 20
6.69539
 30
0.0
 10
-0.35052
 20
6.80519
 30
0.0
 10
-0.35052
 20
6.80519
 30
0.0
 10
-0.30995
 20
6.91499
 30
0.0
 10
-0.30202
 20
6.9441
 30
0.0
 10
-0.2954
 20
6.9829
 30
0.0
 10
-0.2954
 20
6.9829
 30
0.0
 10
-0.28879
 20
7.02171
 30
0.0
 10
-0.2835
 20
7.07021
 30
0.0
 10
-0.28747
 20
7.12445
 30
0.0
 10
-0.28747
 20
7.12445
 30
0.0
 10
-0.29144
 20
7.17869
 30
0.0
 10
-0.30466
 20
7.23867
 30
0.0
 10
-0.31789
 20
7.29864
 30
0.0
  0
SPLINE
  5
AD
330
1F
100
AcDbEntity
  8
layer 1
 62
   242
370
    20
100
AcDbSpline
210
0.0
220
0.0
230
1.0
 70
     8
 71
     3
 72
    32
 73
    28
 74
     0
 42
0.000000001
 43
0.0000000001
 40
0.0
 40
0.0
 40
0.0
 40
0.0
 40
0.125
 40
0.125
 40
0.125
 40
0.125
 40
0.25
 40
0.25
 40
0.25
 40
0.25
 40
0.375
 40
0.375
 40
0.375
 40
0.375
 40
0.5
 40
0.5
 40
0.5
 40
0.5
 40
0.625
 40
0.625
 40
0.625
 40
0.625
 40
0.75
 40
0.75
 40
0.75
 40
0.75
 40
1.0
 40
1.0
 40
1.0
 40
1.0
 10
-0.32848
 20
8.52367
 30
0.0
 10
-0.28615
 20
8.47693
 30
0.0
 10
-0.24381
 20
8.43018
 30
0.0
 10
-0.20677
 20
8.37462
 30
0.0
 10
-0.20677
 20
8.37462
 30
0.0
 10
-0.16973
 20
8.31906
 30
0.0
 10
-0.13798
 20
8.25467
 30
0.0
 10
-0.11593
 20
8.19205
 30
0.0
 10
-0.11593
 20
8.19205
 30
0.0
 10
-0.09388
 20
8.12944
 30
0.0
 10
-0.08153
 20
8.06858
 30
0.0
 10
-0.07491
 20
8.00199
 30
0.0
 10
-0.07491
 20
8.00199
 30
0.0
 10
-0.0683
 20
7.93541
 30
0.0
 10
-0.06742
 20
7.86309
 30
0.0
 10
-0.07712
 20
7.79782
 30
0.0
 10
-0.07712
 20
7.79782
 30
0.0
 10
-0.08682
 20
7.73256
 30
0.0
 10
-0.10711
 20
7.67435
 30
0.0
 10
-0.1393
 20
7.60644
 30
0.0
 10
-0.1393
 20
7.60644
 30
0.0
 10
-0.17149
 20
7.53853
 30
0.0
 10
-0.21558
 20
7.46092
 30
0.0
 10
-0.24733
 20
7.408
 30
0.0
 10
-0.24733
 20
7.408
 30
0.0
 10
-0.27908
 20
7.35509
 30
0.0
 10
-0.29849
 20
7.32686
 30
0.0
 10
-0.31789
 20
7.29864
 30
0.0
  0
SPLINE
  5
AE
330
1F
100
AcDbEntity
  8
layer 1
 62
   242
370
    20
100
AcDbSpline
210
0.0
220
0.0
230
1.0
 70
     8
 71
     3
 72
    12
 73
     8
 74
     0
 42
0.000000001
 43
0.0000000001
 40
0.0
 40
0.0
 40
0.0
 40
0.0
 40
0.3333333333333333
 40
0.3333333333333333
 40
0.3333333333333333
 40
0.3333333333333333
 40
1.0
 40
1.0
 40
1.0
 40
1.0
 10
0.05517
 20
8.88086
 30
0.0
 10
0.0146
 20
8.82
 30
0.0
 10
-0.02597
 20
8.75915
 30
0.0
 10
-0.08991
 20
8.69961
 30
0.0
 10
-0.08991
 20
8.69961
 30
0.0
 10
-0.15385
 20
8.64008
 30
0.0
 10
-0.24117
 20
8.58188
 30
0.0
 10
-0.32848
 20
8.52367
 30
0.0
  0
SPLINE
  5
AF
330
1F
100
AcDbEntity
  8
layer 1
 62
   242
370
    20
100
AcDbSpline
210
0.0
220
0.0
230
1.0
 70
     8
 71
     3
 72
    12
 73
     8
 74
     0
 42
0.000000001
 43
0.0000000001
 40
0.0
 40
0.0
 40
0.0
 40
0.0
 40
0.3333333333333333
 40
0.3333333333333333
 40
0.3333333333333333
 40
0.3333333333333333
 40
1.0
 40
1.0
 40
1.0
 40
1.0
 10
-0.31525
 20
8.87027
 30
0.0
 10
-0.2588
 20
8.85881
 30
0.0
 10
-0.20236
 20
8.84734
 30
0.0
 10
-0.14062
 20
8.8491
 30
0.0
 10
-0.14062
 20
8.8491
 30
0.0
 10
-0.07888
 20
8.85087
 30
0.0
 10
-0.01186
 20
8.86587
 30
0.0
 10
0.05517
 20
8.88086
 30
0.0
  0
SPLINE
  5
B0
330
1F
100
AcDbEntity
  8
layer 1
 62
   242
370
    20
100
AcDbSpline
210
0.0
220
0.0
230
1.0
 70
     8
 71
     3
 72
    20
 73
    16
 74
     0
 42
0.000000001
 43
0.0000000001
 40
0.0
 40
0.0
 40
0.0
 40
0.0
 40
0.2
 40
0.2
 40
0.2
 40
0.2
 40
0.4
 40
0.4
 40
0.4
 40
0.4
 40
0.6
 40
0.6
 40
0.6
 40
0.6
 40
1.0
 40
1.0
 40
1.0
 40
1.0
 10
-0.82325
 20
8.82794
 30
0.0
 10
-0.78621
 20
8.79531
 30
0.0
 10
-0.74916
 20
8.76267
 30
0.0
 10
-0.70594
 20
8.7415
 30
0.0
 10
-0.70594
 20
8.7415
 30
0.0
 10
-0.66273
 20
8.72034
 30
0.0
 10
-0.61335
 20
8.71064
 30
0.0
 10
-0.56793
 20
8.7102
 30
0.0
 10
-0.56793
 20
8.7102
 30
0.0
 10
-0.52251
 20
8.70976
 30
0.0
 10
-0.48105
 20
8.71858
 30
0.0
 10
-0.4396
 20
8.7468
 30
0.0
 10
-0.4396
 20
8.7468
 30
0.0
 10
-0.39815
 20
8.77502
 30
0.0
 10
-0.3567
 20
8.82265
 30
0.0
 10
-0.31525
 20
8.87027
 30
0.0
  0
SPLINE
  5
B1
330
1F
100
AcDbEntity
  8
layer 1
 62
   242
370
    20
100
AcDbSpline
210
0.0
220
0.0
230
1.0
 70
     8
 71
     3
 72
    52
 73
    48
 74
     0
 42
0.000000001
 43
0.0000000001
 40
0.0
 40
0.0
 40
0.0
 40
0.0
 40
0.0769230769230769
 40
0.0769230769230769
 40
0.0769230769230769
 40
0.0769230769230769
 40
0.1538461538461539
 40
0.1538461538461539
 40
0.1538461538461539
 40
0.1538461538461539
 40
0.2307692307692308
 40
0.2307692307692308
 40
0.2307692307692308
 40
0.2307692307692308
 40
0.3076923076923077
 40
0.3076923076923077
 40
0.3076923076923077
 40
0.3076923076923077
 40
0.3846153846153846
 40
0.3846153846153846
 40
0.3846153846153846
 40
0.3846153846153846
 40
0.4615384615384616
 40
0.4615384615384616
 40
0.4615384615384616
 40
0.4615384615384616
 40
0.5384615384615384
 40
0.5384615384615384
 40
0.5384615384615384
 40
0.5384615384615384
 40
0.6153846153846154
 40
0.6153846153846154
 40
0.6153846153846154
 40
0.6153846153846154
 40
0.6923076923076923
 40
0.6923076923076923
 40
0.6923076923076923
 40
0.6923076923076923
 40
0.7692307692307693
 40
0.7692307692307693
 40
0.7692307692307693
 40
0.7692307692307693
 40
0.8461538461538461
 40
0.8461538461538461
 40
0.8461538461538461
 40
0.8461538461538461
 40
1.0
 40
1.0
 40
1.0
 40
1.0
 10
-1.20425
 20
7.97862
 30
0.0
 10
-1.18661
 20
7.94775
 30
0.0
 10
-1.16897
 20
7.91689
 30
0.0
 10
-1.15883
 20
7.88293
 30
0.0
 10
-1.15883
 20
7.88293
 30
0.0
 10
-1.14869
 20
7.84898
 30
0.0
 10
-1.14604
 20
7.81193
 30
0.0
 10
-1.15398
 20
7.77709
 30
0.0
 10
-1.15398
 20
7.77709
 30
0.0
 10
-1.16192
 20
7.74226
 30
0.0
 10
-1.18044
 20
7.70963
 30
0.0
 10
-1.20645
 20
7.6867
 30
0.0
 10
-1.20645
 20
7.6867
 30
0.0
 10
-1.23247
 20
7.66377
 30
0.0
 10
-1.26599
 20
7.65054
 30
0.0
 10
-1.30832
 20
7.64348
 30
0.0
 10
-1.30832
 20
7.64348
 30
0.0
 10
-1.35065
 20
7.63643
 30
0.0
 10
-1.40181
 20
7.63554
 30
0.0
 10
-1.44105
 20
7.65318
 30
0.0
 10
-1.44105
 20
7.65318
 30
0.0
 10
-1.4803
 20
7.67082
 30
0.0
 10
-1.50764
 20
7.70698
 30
0.0
 10
-1.52175
 20
7.75857
 30
0.0
 10
-1.52175
 20
7.75857
 30
0.0
 10
-1.53586
 20
7.81017
 30
0.0
 10
-1.53675
 20
7.8772
 30
0.0
 10
-1.52484
 20
7.93452
 30
0.0
 10
-1.52484
 20
7.93452
 30
0.0
 10
-1.51293
 20
7.99185
 30
0.0
 10
-1.48824
 20
8.03948
 30
0.0
 10
-1.44017
 20
8.11047
 30
0.0
 10
-1.44017
 20
8.11047
 30
0.0
 10
-1.3921
 20
8.18147
 30
0.0
 10
-1.32067
 20
8.27584
 30
0.0
 10
-1.23776
 20
8.37638
 30
0.0
 10
-1.23776
 20
8.37638
 30
0.0
 10
-1.15486
 20
8.47693
 30
0.0
 10
-1.06049
 20
8.58364
 30
0.0
 10
-0.98949
 20
8.65993
 30
0.0
 10
-0.98949
 20
8.65993
 30
0.0
 10
-0.9185
 20
8.73622
 30
0.0
 10
-0.87087
 20
8.78208
 30
0.0
 10
-0.84706
 20
8.80501
 30
0.0
 10
-0.84706
 20
8.80501
 30
0.0
 10
-0.82325
 20
8.82794
 30
0.0
 10
-0.82325
 20
8.82794
 30
0.0
 10
-0.82325
 20
8.82794
 30
0.0
  0
SPLINE
  5
B2
330
1F
100
AcDbEntity
  8
layer 1
 62
   242
370
    20
100
AcDbSpline
210
0.0
220
0.0
230
1.0
 70
     8
 71
     3
 72
    12
 73
     8
 74
     0
 42
0.000000001
 43
0.0000000001
 40
0.0
 40
0.0
 40
0.0
 40
0.0
 40
0.3333333333333333
 40
0.3333333333333333
 40
0.3333333333333333
 40
0.3333333333333333
 40
1.0
 40
1.0
 40
1.0
 40
1.0
 10
-1.90012
 20
5.95189
 30
0.0
 10
-1.85691
 20
6.01451
 30
0.0
 10
-1.81369
 20
6.07713
 30
0.0
 10
-1.75592
 20
6.14327
 30
0.0
 10
-1.75592
 20
6.14327
 30
0.0
 10
-1.69816
 20
6.20942
 30
0.0
 10
-1.62584
 20
6.2791
 30
0.0
 10
-1.55352
 20
6.34877
 30
0.0
  0
SPLINE
  5
B3
330
1F
100
AcDbEntity
  8
layer 1
 62
   242
370
    20
100
AcDbSpline
210
0.0
220
0.0
230
1.0
 70
     8
 71
     3
 72
    20
 73
    16
 74
     0
 42
0.000000001
 43
0.0000000001
 40
0.0
 40
0.0
 40
0.0
 40
0.0
 40
0.2
 40
0.2
 40
0.2
 40
0.2
 40
0.4
 40
0.4
 40
0.4
 40
0.4
 40
0.6
 40
0.6
 40
0.6
 40
0.6
 40
1.0
 40
1.0
 40
1.0
 40
1.0
 10
-1.47548
 20
7.18618
 30
0.0
 10
-1.4327
 20
7.10901
 30
0.0
 10
-1.38992
 20
7.03184
 30
0.0
 10
-1.36103
 20
6.95136
 30
0.0
 10
-1.36103
 20
6.95136
 30
0.0
 10
-1.33215
 20
6.87088
 30
0.0
 10
-1.31715
 20
6.7871
 30
0.0
 10
-1.32024
 20
6.72227
 30
0.0
 10
-1.32024
 20
6.72227
 30
0.0
 10
-1.32333
 20
6.65745
 30
0.0
 10
-1.34449
 20
6.61159
 30
0.0
 10
-1.38638
 20
6.5525
 30
0.0
 10
-1.38638
 20
6.5525
 30
0.0
 10
-1.42828
 20
6.49341
 30
0.0
 10
-1.4909
 20
6.42109
 30
0.0
 10
-1.55352
 20
6.34877
 30
0.0
  0
SPLINE
  5
B4
330
1F
100
AcDbEntity
  8
layer 1
 62
   242
370
    20
100
AcDbSpline
210
0.0
220
0.0
230
1.0
 70
     8
 71
     3
 72
    32
 73
    28
 74
     0
 42
0.000000001
 43
0.0000000001
 40
0.0
 40
0.0
 40
0.0
 40
0.0
 40
0.125
 40
0.125
 40
0.125
 40
0.125
 40
0.25
 40
0.25
 40
0.25
 40
0.25
 40
0.375
 40
0.375
 40
0.375
 40
0.375
 40
0.5
 40
0.5
 40
0.5
 40
0.5
 40
0.625
 40
0.625
 40
0.625
 40
0.625
 40
0.75
 40
0.75
 40
0.75
 40
0.75
 40
1.0
 40
1.0
 40
1.0
 40
1.0
 10
-1.20425
 20
7.97862
 30
0.0
 10
-1.12135
 20
7.96186
 30
0.0
 10
-1.03846
 20
7.9451
 30
0.0
 10
-0.96261
 20
7.89306
 30
0.0
 10
-0.96261
 20
7.89306
 30
0.0
 10
-0.88677
 20
7.84103
 30
0.0
 10
-0.81797
 20
7.75371
 30
0.0
 10
-0.78622
 20
7.66507
 30
0.0
 10
-0.78622
 20
7.66507
 30
0.0
 10
-0.75447
 20
7.57644
 30
0.0
 10
-0.75977
 20
7.48649
 30
0.0
 10
-0.78667
 20
7.40138
 30
0.0
 10
-0.78667
 20
7.40138
 30
0.0
 10
-0.81357
 20
7.31627
 30
0.0
 10
-0.86207
 20
7.23601
 30
0.0
 10
-0.92116
 20
7.18574
 30
0.0
 10
-0.92116
 20
7.18574
 30
0.0
 10
-0.98025
 20
7.13547
 30
0.0
 10
-1.04993
 20
7.11518
 30
0.0
 10
-1.12357
 20
7.10724
 30
0.0
 10
-1.12357
 20
7.10724
 30
0.0
 10
-1.19721
 20
7.09931
 30
0.0
 10
-1.27482
 20
7.10372
 30
0.0
 10
-1.33413
 20
7.11893
 30
0.0
 10
-1.33413
 20
7.11893
 30
0.0
 10
-1.39345
 20
7.13415
 30
0.0
 10
-1.43446
 20
7.16016
 30
0.0
 10
-1.47548
 20
7.18618
 30
0.0
  0
SPLINE
  5
B5
330
1F
100
AcDbEntity
  8
layer 1
 62
   242
370
    20
100
AcDbSpline
210
0.0
220
0.0
230
1.0
 70
     8
 71
     3
 72
    24
 73
    20
 74
     0
 42
0.000000001
 43
0.0000000001
 40
0.0
 40
0.0
 40
0.0
 40
0.0
 40
0.1666666666666667
 40
0.1666666666666667
 40
0.1666666666666667
 40
0.1666666666666667
 40
0.3333333333333333
 40
0.3333333333333333
 40
0.3333333333333333
 40
0.3333333333333333
 40
0.5
 40
0.5
 40
0.5
 40
0.5
 40
0.6666666666666666
 40
0.6666666666666666
 40
0.6666666666666666
 40
0.6666666666666666
 40
1.0
 40
1.0
 40
1.0
 40
1.0
 10
-0.61425
 20
10.17595
 30
0.0
 10
-0.52253
 20
10.15743
 30
0.0
 10
-0.4308
 20
10.1389
 30
0.0
 10
-0.33775
 20
10.08995
 30
0.0
 10
-0.33775
 20
10.08995
 30
0.0
 10
-0.24471
 20
10.04101
 30
0.0
 10
-0.15035
 20
9.96163
 30
0.0
 10
-0.07346
 20
9.87026
 30
0.0
 10
-0.07346
 20
9.87026
 30
0.0
 10
0.00343
 20
9.77889
 30
0.0
 10
0.06285
 20
9.67553
 30
0.0
 10
0.09812
 20
9.5816
 30
0.0
 10
0.09812
 20
9.5816
 30
0.0
 10
0.1334
 20
9.48767
 30
0.0
 10
0.14455
 20
9.40318
 30
0.0
 10
0.14747
 20
9.32345
 30
0.0
 10
0.14747
 20
9.32345
 30
0.0
 10
0.1504
 20
9.24372
 30
0.0
 10
0.14511
 20
9.16876
 30
0.0
 10
0.13982
 20
9.09379
 30
0.0
  0
SPLINE
  5
B6
330
1F
100
AcDbEntity
  8
layer 1
 62
   242
370
    20
100
AcDbSpline
210
0.0
220
0.0
230
1.0
 70
     8
 71
     3
 72
    28
 73
    24
 74
     0
 42
0.000000001
 43
0.0000000001
 40
0.0
 40
0.0
 40
0.0
 40
0.0
 40
0.1428571428571428
 40
0.1428571428571428
 40
0.1428571428571428
 40
0.1428571428571428
 40
0.2857142857142857
 40
0.2857142857142857
 40
0.2857142857142857
 40
0.2857142857142857
 40
0.4285714285714285
 40
0.4285714285714285
 40
0.4285714285714285
 40
0.4285714285714285
 40
0.5714285714285714
 40
0.5714285714285714
 40
0.5714285714285714
 40
0.5714285714285714
 40
0.7142857142857143
 40
0.7142857142857143
 40
0.7142857142857143
 40
0.7142857142857143
 40
1.0
 40
1.0
 40
1.0
 40
1.0
 10
0.13982
 20
9.09379
 30
0.0
 10
0.08602
 20
9.10878
 30
0.0
 10
0.03222
 20
9.12378
 30
0.0
 10
-0.02202
 20
9.16876
 30
0.0
 10
-0.02202
 20
9.16876
 30
0.0
 10
-0.07626
 20
9.21374
 30
0.0
 10
-0.13094
 20
9.2887
 30
0.0
 10
-0.18474
 20
9.39056
 30
0.0
 10
-0.18474
 20
9.39056
 30
0.0
 10
-0.23854
 20
9.49243
 30
0.0
 10
-0.29145
 20
9.6212
 30
0.0
 10
-0.33819
 20
9.72086
 30
0.0
 10
-0.33819
 20
9.72086
 30
0.0
 10
-0.38494
 20
9.82052
 30
0.0
 10
-0.42551
 20
9.89107
 30
0.0
 10
-0.46784
 20
9.95501
 30
0.0
 10
-0.46784
 20
9.95501
 30
0.0
 10
-0.51018
 20
10.01896
 30
0.0
 10
-0.55427
 20
10.07628
 30
0.0
 10
-0.57896
 20
10.112
 30
0.0
 10
-0.57896
 20
10.112
 30
0.0
 10
-0.60366
 20
10.14772
 30
0.0
 10
-0.60896
 20
10.16184
 30
0.0
 10
-0.61425
 20
10.17595
 30
0.0
  0
SPLINE
  5
B7
330
1F
100
AcDbEntity
  8
layer 1
 62
   242
370
    20
100
AcDbSpline
210
0.0
220
0.0
230
1.0
 70
     8
 71
     3
 72
    24
 73
    20
 74
     0
 42
0.000000001
 43
0.0000000001
 40
0.0
 40
0.0
 40
0.0
 40
0.0
 40
0.1666666666666667
 40
0.1666666666666667
 40
0.1666666666666667
 40
0.1666666666666667
 40
0.3333333333333333
 40
0.3333333333333333
 40
0.3333333333333333
 40
0.3333333333333333
 40
0.5
 40
0.5
 40
0.5
 40
0.5
 40
0.6666666666666666
 40
0.6666666666666666
 40
0.6666666666666666
 40
0.6666666666666666
 40
1.0
 40
1.0
 40
1.0
 40
1.0
 10
-1.92923
 20
10.20769
 30
0.0
 10
-1.84721
 20
10.27295
 30
0.0
 10
-1.76518
 20
10.33822
 30
0.0
 10
-1.69462
 20
10.38275
 30
0.0
 10
-1.69462
 20
10.38275
 30
0.0
 10
-1.62407
 20
10.42729
 30
0.0
 10
-1.56498
 20
10.45111
 30
0.0
 10
-1.48075
 20
10.46257
 30
0.0
 10
-1.48075
 20
10.46257
 30
0.0
 10
-1.39653
 20
10.47404
 30
0.0
 10
-1.28717
 20
10.47315
 30
0.0
 10
-1.19456
 20
10.46257
 30
0.0
 10
-1.19456
 20
10.46257
 30
0.0
 10
-1.10196
 20
10.45199
 30
0.0
 10
-1.02612
 20
10.4317
 30
0.0
 10
-0.94983
 20
10.39686
 30
0.0
 10
-0.94983
 20
10.39686
 30
0.0
 10
-0.87354
 20
10.36203
 30
0.0
 10
-0.79681
 20
10.31264
 30
0.0
 10
-0.72008
 20
10.26325
 30
0.0
  0
SPLINE
  5
B8
330
1F
100
AcDbEntity
  8
layer 1
 62
   242
370
    20
100
AcDbSpline
210
0.0
220
0.0
230
1.0
 70
     8
 71
     3
 72
    24
 73
    20
 74
     0
 42
0.000000001
 43
0.0000000001
 40
0.0
 40
0.0
 40
0.0
 40
0.0
 40
0.1666666666666667
 40
0.1666666666666667
 40
0.1666666666666667
 40
0.1666666666666667
 40
0.3333333333333333
 40
0.3333333333333333
 40
0.3333333333333333
 40
0.3333333333333333
 40
0.5
 40
0.5
 40
0.5
 40
0.5
 40
0.6666666666666666
 40
0.6666666666666666
 40
0.6666666666666666
 40
0.6666666666666666
 40
1.0
 40
1.0
 40
1.0
 40
1.0
 10
-1.74137
 20
10.7739
 30
0.0
 10
-1.61437
 20
10.77125
 30
0.0
 10
-1.48737
 20
10.76861
 30
0.0
 10
-1.38903
 20
10.75758
 30
0.0
 10
-1.38903
 20
10.75758
 30
0.0
 10
-1.2907
 20
10.74656
 30
0.0
 10
-1.22102
 20
10.72715
 30
0.0
 10
-1.1509
 20
10.6976
 30
0.0
 10
-1.1509
 20
10.6976
 30
0.0
 10
-1.08079
 20
10.66806
 30
0.0
 10
-1.01024
 20
10.62838
 30
0.0
 10
-0.9485
 20
10.58384
 30
0.0
 10
-0.9485
 20
10.58384
 30
0.0
 10
-0.88676
 20
10.5393
 30
0.0
 10
-0.83385
 20
10.48991
 30
0.0
 10
-0.79725
 20
10.43567
 30
0.0
 10
-0.79725
 20
10.43567
 30
0.0
 10
-0.76065
 20
10.38143
 30
0.0
 10
-0.74036
 20
10.32234
 30
0.0
 10
-0.72008
 20
10.26325
 30
0.0
  0
SPLINE
  5
B9
330
1F
100
AcDbEntity
  8
layer 1
 62
   242
370
    20
100
AcDbSpline
210
0.0
220
0.0
230
1.0
 70
     8
 71
     3
 72
    12
 73
     8
 74
     0
 42
0.000000001
 43
0.0000000001
 40
0.0
 40
0.0
 40
0.0
 40
0.0
 40
0.3333333333333333
 40
0.3333333333333333
 40
0.3333333333333333
 40
0.3333333333333333
 40
1.0
 40
1.0
 40
1.0
 40
1.0
 10
-1.92923
 20
10.95117
 30
0.0
 10
-1.89924
 20
10.92207
 30
0.0
 10
-1.86926
 20
10.89296
 30
0.0
 10
-1.83527
 20
10.86336
 30
0.0
 10
-1.83527
 20
10.86336
 30
0.0
 10
-1.80129
 20
10.83376
 30
0.0
 10
-1.76332
 20
10.80366
 30
0.0
 10
-1.72534
 20
10.77356
 30
0.0
  0
SPLINE
  5
BA
330
1F
100
AcDbEntity
  8
layer 1
 62
   242
370
    20
100
AcDbSpline
210
0.0
220
0.0
230
1.0
 70
     8
 71
     3
 72
    80
 73
    76
 74
     0
 42
0.000000001
 43
0.0000000001
 40
0.0
 40
0.0
 40
0.0
 40
0.0
 40
0.05
 40
0.05
 40
0.05
 40
0.05
 40
0.1
 40
0.1
 40
0.1
 40
0.1
 40
0.15
 40
0.15
 40
0.15
 40
0.15
 40
0.2
 40
0.2
 40
0.2
 40
0.2
 40
0.25
 40
0.25
 40
0.25
 40
0.25
 40
0.3
 40
0.3
 40
0.3
 40
0.3
 40
0.35
 40
0.35
 40
0.35
 40
0.35
 40
0.4
 40
0.4
 40
0.4
 40
0.4
 40
0.45
 40
0.45
 40
0.45
 40
0.45
 40
0.5
 40
0.5
 40
0.5
 40
0.5
 40
0.55
 40
0.55
 40
0.55
 40
0.55
 40
0.6
 40
0.6
 40
0.6
 40
0.6
 40
0.65
 40
0.65
 40
0.65
 40
0.65
 40
0.7
 40
0.7
 40
0.7
 40
0.7
 40
0.75
 40
0.75
 40
0.75
 40
0.75
 40
0.8
 40
0.8
 40
0.8
 40
0.8
 40
0.85
 40
0.85
 40
0.85
 40
0.85
 40
0.9
 40
0.9
 40
0.9
 40
0.9
 40
1.0
 40
1.0
 40
1.0
 40
1.0
 10
-1.9213
 20
7.85026
 30
0.0
 10
-1.88602
 20
7.94727
 30
0.0
 10
-1.85075
 20
8.04429
 30
0.0
 10
-1.79342
 20
8.15276
 30
0.0
 10
-1.79342
 20
8.15276
 30
0.0
 10
-1.73609
 20
8.26124
 30
0.0
 10
-1.65672
 20
8.38119
 30
0.0
 10
-1.56764
 20
8.49937
 30
0.0
 10
-1.56764
 20
8.49937
 30
0.0
 10
-1.47856
 20
8.61755
 30
0.0
 10
-1.37979
 20
8.73396
 30
0.0
 10
-1.29159
 20
8.84156
 30
0.0
 10
-1.29159
 20
8.84156
 30
0.0
 10
-1.2034
 20
8.94916
 30
0.0
 10
-1.12579
 20
9.04794
 30
0.0
 10
-1.06317
 20
9.1379
 30
0.0
 10
-1.06317
 20
9.1379
 30
0.0
 10
-1.00055
 20
9.22786
 30
0.0
 10
-0.95293
 20
9.30899
 30
0.0
 10
-0.92029
 20
9.3866
 30
0.0
 10
-0.92029
 20
9.3866
 30
0.0
 10
-0.88766
 20
9.46421
 30
0.0
 10
-0.87002
 20
9.5383
 30
0.0
 10
-0.8612
 20
9.60797
 30
0.0
 10
-0.8612
 20
9.60797
 30
0.0
 10
-0.85238
 20
9.67765
 30
0.0
 10
-0.85238
 20
9.74291
 30
0.0
 10
-0.87443
 20
9.81435
 30
0.0
 10
-0.87443
 20
9.81435
 30
0.0
 10
-0.89648
 20
9.88579
 30
0.0
 10
-0.94058
 20
9.9634
 30
0.0
 10
-0.99261
 20
10.02161
 30
0.0
 10
-0.99261
 20
10.02161
 30
0.0
 10
-1.04465
 20
10.07982
 30
0.0
 10
-1.10462
 20
10.11862
 30
0.0
 10
-1.17782
 20
10.1442
 30
0.0
 10
-1.17782
 20
10.1442
 30
0.0
 10
-1.25102
 20
10.16978
 30
0.0
 10
-1.33746
 20
10.18212
 30
0.0
 10
-1.40272
 20
10.18035
 30
0.0
 10
-1.40272
 20
10.18035
 30
0.0
 10
-1.46799
 20
10.17859
 30
0.0
 10
-1.51208
 20
10.16272
 30
0.0
 10
-1.55882
 20
10.14067
 30
0.0
 10
-1.55882
 20
10.14067
 30
0.0
 10
-1.60557
 20
10.11862
 30
0.0
 10
-1.65496
 20
10.0904
 30
0.0
 10
-1.69024
 20
10.0463
 30
0.0
 10
-1.69024
 20
10.0463
 30
0.0
 10
-1.72552
 20
10.00221
 30
0.0
 10
-1.74668
 20
9.94223
 30
0.0
 10
-1.75638
 20
9.88402
 30
0.0
 10
-1.75638
 20
9.88402
 30
0.0
 10
-1.76608
 20
9.82582
 30
0.0
 10
-1.76432
 20
9.76937
 30
0.0
 10
-1.74756
 20
9.73145
 30
0.0
 10
-1.74756
 20
9.73145
 30
0.0
 10
-1.7308
 20
9.69353
 30
0.0
 10
-1.69905
 20
9.67412
 30
0.0
 10
-1.66201
 20
9.66089
 30
0.0
 10
-1.66201
 20
9.66089
 30
0.0
 10
-1.62497
 20
9.64766
 30
0.0
 10
-1.58263
 20
9.64061
 30
0.0
 10
-1.54206
 20
9.63796
 30
0.0
 10
-1.54206
 20
9.63796
 30
0.0
 10
-1.5015
 20
9.63531
 30
0.0
 10
-1.46269
 20
9.63708
 30
0.0
 10
-1.4327
 20
9.65031
 30
0.0
 10
-1.4327
 20
9.65031
 30
0.0
 10
-1.40272
 20
9.66354
 30
0.0
 10
-1.38156
 20
9.68823
 30
0.0
 10
-1.37185
 20
9.72527
 30
0.0
 10
-1.37185
 20
9.72527
 30
0.0
 10
-1.36215
 20
9.76232
 30
0.0
 10
-1.36392
 20
9.8117
 30
0.0
 10
-1.36568
 20
9.86109
 30
0.0
  0
SPLINE
  5
BB
330
1F
100
AcDbEntity
  8
layer 1
 62
   242
370
    20
100
AcDbSpline
210
0.0
220
0.0
230
1.0
 70
     8
 71
     3
 72
    24
 73
    20
 74
     0
 42
0.000000001
 43
0.0000000001
 40
0.0
 40
0.0
 40
0.0
 40
0.0
 40
0.1666666666666667
 40
0.1666666666666667
 40
0.1666666666666667
 40
0.1666666666666667
 40
0.3333333333333333
 40
0.3333333333333333
 40
0.3333333333333333
 40
0.3333333333333333
 40
0.5
 40
0.5
 40
0.5
 40
0.5
 40
0.6666666666666666
 40
0.6666666666666666
 40
0.6666666666666666
 40
0.6666666666666666
 40
1.0
 40
1.0
 40
1.0
 40
1.0
 10
-1.9266
 20
8.40588
 30
0.0
 10
-1.88603
 20
8.45703
 30
0.0
 10
-1.84546
 20
8.50819
 30
0.0
 10
-1.80665
 20
8.5514
 30
0.0
 10
-1.80665
 20
8.5514
 30
0.0
 10
-1.76785
 20
8.59462
 30
0.0
 10
-1.7308
 20
8.6299
 30
0.0
 10
-1.69023
 20
8.674
 30
0.0
 10
-1.69023
 20
8.674
 30
0.0
 10
-1.64966
 20
8.7181
 30
0.0
 10
-1.60557
 20
8.77101
 30
0.0
 10
-1.57999
 20
8.8301
 30
0.0
 10
-1.57999
 20
8.8301
 30
0.0
 10
-1.55441
 20
8.88919
 30
0.0
 10
-1.54736
 20
8.95446
 30
0.0
 10
-1.55706
 20
9.01884
 30
0.0
 10
-1.55706
 20
9.01884
 30
0.0
 10
-1.56676
 20
9.08322
 30
0.0
 10
-1.59322
 20
9.14672
 30
0.0
 10
-1.61968
 20
9.21022
 30
0.0
  0
SPLINE
  5
BC
330
1F
100
AcDbEntity
  8
layer 1
 62
   242
370
    20
100
AcDbSpline
210
0.0
220
0.0
230
1.0
 70
     8
 71
     3
 72
    28
 73
    24
 74
     0
 42
0.000000001
 43
0.0000000001
 40
0.0
 40
0.0
 40
0.0
 40
0.0
 40
0.1428571428571428
 40
0.1428571428571428
 40
0.1428571428571428
 40
0.1428571428571428
 40
0.2857142857142857
 40
0.2857142857142857
 40
0.2857142857142857
 40
0.2857142857142857
 40
0.4285714285714285
 40
0.4285714285714285
 40
0.4285714285714285
 40
0.4285714285714285
 40
0.5714285714285714
 40
0.5714285714285714
 40
0.5714285714285714
 40
0.5714285714285714
 40
0.7142857142857143
 40
0.7142857142857143
 40
0.7142857142857143
 40
0.7142857142857143
 40
1.0
 40
1.0
 40
1.0
 40
1.0
 10
-1.36568
 20
9.86109
 30
0.0
 10
-1.30923
 20
9.82934
 30
0.0
 10
-1.25279
 20
9.79759
 30
0.0
 10
-1.21133
 20
9.74644
 30
0.0
 10
-1.21133
 20
9.74644
 30
0.0
 10
-1.16988
 20
9.69529
 30
0.0
 10
-1.14343
 20
9.62473
 30
0.0
 10
-1.13813
 20
9.55329
 30
0.0
 10
-1.13813
 20
9.55329
 30
0.0
 10
-1.13284
 20
9.48186
 30
0.0
 10
-1.14872
 20
9.40954
 30
0.0
 10
-1.17341
 20
9.34956
 30
0.0
 10
-1.17341
 20
9.34956
 30
0.0
 10
-1.19811
 20
9.28959
 30
0.0
 10
-1.23162
 20
9.24197
 30
0.0
 10
-1.28365
 20
9.21727
 30
0.0
 10
-1.28365
 20
9.21727
 30
0.0
 10
-1.33569
 20
9.19258
 30
0.0
 10
-1.40625
 20
9.19081
 30
0.0
 10
-1.46534
 20
9.19346
 30
0.0
 10
-1.46534
 20
9.19346
 30
0.0
 10
-1.52443
 20
9.19611
 30
0.0
 10
-1.57205
 20
9.20316
 30
0.0
 10
-1.61968
 20
9.21022
 30
0.0
  0
SPLINE
  5
BD
330
1F
100
AcDbEntity
  8
layer 1
 62
   242
370
    20
100
AcDbSpline
210
0.0
220
0.0
230
1.0
 70
     8
 71
     3
 72
    20
 73
    16
 74
     0
 42
0.000000001
 43
0.0000000001
 40
0.0
 40
0.0
 40
0.0
 40
0.0
 40
0.2
 40
0.2
 40
0.2
 40
0.2
 40
0.4
 40
0.4
 40
0.4
 40
0.4
 40
0.6
 40
0.6
 40
0.6
 40
0.6
 40
1.0
 40
1.0
 40
1.0
 40
1.0
 10
-3.17539
 20
2.4977
 30
0.0
 10
-3.13129
 20
2.55062
 30
0.0
 10
-3.0872
 20
2.60353
 30
0.0
 10
-3.03384
 20
2.64189
 30
0.0
 10
-3.03384
 20
2.64189
 30
0.0
 10
-2.98048
 20
2.68026
 30
0.0
 10
-2.91786
 20
2.70408
 30
0.0
 10
-2.85171
 20
2.71686
 30
0.0
 10
-2.85171
 20
2.71686
 30
0.0
 10
-2.78557
 20
2.72965
 30
0.0
 10
-2.71589
 20
2.73142
 30
0.0
 10
-2.65548
 20
2.71466
 30
0.0
 10
-2.65548
 20
2.71466
 30
0.0
 10
-2.59507
 20
2.6979
 30
0.0
 10
-2.54391
 20
2.66263
 30
0.0
 10
-2.49276
 20
2.62735
 30
0.0
  0
SPLINE
  5
BE
330
1F
100
AcDbEntity
  8
layer 1
 62
   242
370
    20
100
AcDbSpline
210
0.0
220
0.0
230
1.0
 70
     8
 71
     3
 72
    36
 73
    32
 74
     0
 42
0.000000001
 43
0.0000000001
 40
0.0
 40
0.0
 40
0.0
 40
0.0
 40
0.1111111111111111
 40
0.1111111111111111
 40
0.1111111111111111
 40
0.1111111111111111
 40
0.2222222222222222
 40
0.2222222222222222
 40
0.2222222222222222
 40
0.2222222222222222
 40
0.3333333333333333
 40
0.3333333333333333
 40
0.3333333333333333
 40
0.3333333333333333
 40
0.4444444444444444
 40
0.4444444444444444
 40
0.4444444444444444
 40
0.4444444444444444
 40
0.5555555555555556
 40
0.5555555555555556
 40
0.5555555555555556
 40
0.5555555555555556
 40
0.6666666666666666
 40
0.6666666666666666
 40
0.6666666666666666
 40
0.6666666666666666
 40
0.7777777777777778
 40
0.7777777777777778
 40
0.7777777777777778
 40
0.7777777777777778
 40
1.0
 40
1.0
 40
1.0
 40
1.0
 10
-1.94507
 20
1.74629
 30
0.0
 10
-1.90979
 20
1.80274
 30
0.0
 10
-1.87452
 20
1.85918
 30
0.0
 10
-1.84629
 20
1.93238
 30
0.0
 10
-1.84629
 20
1.93238
 30
0.0
 10
-1.81807
 20
2.00559
 30
0.0
 10
-1.79691
 20
2.09554
 30
0.0
 10
-1.79161
 20
2.17932
 30
0.0
 10
-1.79161
 20
2.17932
 30
0.0
 10
-1.78632
 20
2.26311
 30
0.0
 10
-1.79691
 20
2.34073
 30
0.0
 10
-1.82601
 20
2.4104
 30
0.0
 10
-1.82601
 20
2.4104
 30
0.0
 10
-1.85511
 20
2.48007
 30
0.0
 10
-1.90274
 20
2.54181
 30
0.0
 10
-1.95565
 20
2.59031
 30
0.0
 10
-1.95565
 20
2.59031
 30
0.0
 10
-2.00857
 20
2.63882
 30
0.0
 10
-2.06678
 20
2.6741
 30
0.0
 10
-2.13116
 20
2.69791
 30
0.0
 10
-2.13116
 20
2.69791
 30
0.0
 10
-2.19554
 20
2.72173
 30
0.0
 10
-2.2661
 20
2.73407
 30
0.0
 10
-2.31801
 20
2.73316
 30
0.0
 10
-2.31801
 20
2.73316
 30
0.0
 10
-2.36992
 20
2.73226
 30
0.0
 10
-2.40319
 20
2.71809
 30
0.0
 10
-2.42921
 20
2.69824
 30
0.0
 10
-2.42921
 20
2.69824
 30
0.0
 10
-2.45523
 20
2.6784
 30
0.0
 10
-2.47399
 20
2.65288
 30
0.0
 10
-2.49276
 20
2.62735
 30
0.0
  0
SPLINE
  5
BF
330
1F
100
AcDbEntity
  8
layer 1
 62
   242
370
    20
100
AcDbSpline
210
0.0
220
0.0
230
1.0
 70
     8
 71
     3
 72
    40
 73
    36
 74
     0
 42
0.000000001
 43
0.0000000001
 40
0.0
 40
0.0
 40
0.0
 40
0.0
 40
0.1
 40
0.1
 40
0.1
 40
0.1
 40
0.2
 40
0.2
 40
0.2
 40
0.2
 40
0.3
 40
0.3
 40
0.3
 40
0.3
 40
0.4
 40
0.4
 40
0.4
 40
0.4
 40
0.5
 40
0.5
 40
0.5
 40
0.5
 40
0.6
 40
0.6
 40
0.6
 40
0.6
 40
0.7
 40
0.7
 40
0.7
 40
0.7
 40
0.8
 40
0.8
 40
0.8
 40
0.8
 40
1.0
 40
1.0
 40
1.0
 40
1.0
 10
-1.49791
 20
-1.28191
 30
0.0
 10
-1.55435
 20
-1.10199
 30
0.0
 10
-1.6108
 20
-0.92208
 30
0.0
 10
-1.64431
 20
-0.75098
 30
0.0
 10
-1.64431
 20
-0.75098
 30
0.0
 10
-1.67782
 20
-0.57988
 30
0.0
 10
-1.68841
 20
-0.41761
 30
0.0
 10
-1.67253
 20
-0.28884
 30
0.0
 10
-1.67253
 20
-0.28884
 30
0.0
 10
-1.65666
 20
-0.16008
 30
0.0
 10
-1.61432
 20
-0.06483
 30
0.0
 10
-1.5861
 20
0.08333
 30
0.0
 10
-1.5861
 20
0.08333
 30
0.0
 10
-1.55788
 20
0.2315
 30
0.0
 10
-1.54377
 20
0.43259
 30
0.0
 10
-1.55082
 20
0.61603
 30
0.0
 10
-1.55082
 20
0.61603
 30
0.0
 10
-1.55788
 20
0.79948
 30
0.0
 10
-1.58611
 20
0.96528
 30
0.0
 10
-1.62491
 20
1.11874
 30
0.0
 10
-1.62491
 20
1.11874
 30
0.0
 10
-1.66372
 20
1.2722
 30
0.0
 10
-1.7131
 20
1.41332
 30
0.0
 10
-1.76822
 20
1.51585
 30
0.0
 10
-1.76822
 20
1.51585
 30
0.0
 10
-1.82335
 20
1.61838
 30
0.0
 10
-1.88421
 20
1.68234
 30
0.0
 10
-1.91464
 20
1.71431
 30
0.0
 10
-1.91464
 20
1.71431
 30
0.0
 10
-1.94507
 20
1.74629
 30
0.0
 10
-1.94507
 20
1.74629
 30
0.0
 10
-1.94507
 20
1.74629
 30
0.0
 10
-1.94507
 20
1.74629
 30
0.0
 10
-1.94507
 20
1.74629
 30
0.0
 10
-1.94507
 20
1.74629
 30
0.0
 10
-1.94507
 20
1.74629
 30
0.0
  0
SPLINE
  5
C0
330
1F
100
AcDbEntity
  8
layer 1
 62
   242
370
    20
100
AcDbSpline
210
0.0
220
0.0
230
1.0
 70
     8
 71
     3
 72
    40
 73
    36
 74
     0
 42
0.000000001
 43
0.0000000001
 40
0.0
 40
0.0
 40
0.0
 40
0.0
 40
0.1
 40
0.1
 40
0.1
 40
0.1
 40
0.2
 40
0.2
 40
0.2
 40
0.2
 40
0.3
 40
0.3
 40
0.3
 40
0.3
 40
0.4
 40
0.4
 40
0.4
 40
0.4
 40
0.5
 40
0.5
 40
0.5
 40
0.5
 40
0.6
 40
0.6
 40
0.6
 40
0.6
 40
0.7
 40
0.7
 40
0.7
 40
0.7
 40
0.8
 40
0.8
 40
0.8
 40
0.8
 40
1.0
 40
1.0
 40
1.0
 40
1.0
 10
-1.08116
 20
-1.24759
 30
0.0
 10
-1.10497
 20
-1.1691
 30
0.0
 10
-1.12879
 20
-1.0906
 30
0.0
 10
-1.15216
 20
-0.98212
 30
0.0
 10
-1.15216
 20
-0.98212
 30
0.0
 10
-1.17553
 20
-0.87364
 30
0.0
 10
-1.19846
 20
-0.73518
 30
0.0
 10
-1.20595
 20
-0.58833
 30
0.0
 10
-1.20595
 20
-0.58833
 30
0.0
 10
-1.21345
 20
-0.44149
 30
0.0
 10
-1.20552
 20
-0.28626
 30
0.0
 10
-1.17377
 20
-0.12751
 30
0.0
 10
-1.17377
 20
-0.12751
 30
0.0
 10
-1.14202
 20
0.03124
 30
0.0
 10
-1.08645
 20
0.19352
 30
0.0
 10
-1.05117
 20
0.34301
 30
0.0
 10
-1.05117
 20
0.34301
 30
0.0
 10
-1.0159
 20
0.4925
 30
0.0
 10
-1.0009
 20
0.6292
 30
0.0
 10
-0.99384
 20
0.78927
 30
0.0
 10
-0.99384
 20
0.78927
 30
0.0
 10
-0.98679
 20
0.94935
 30
0.0
 10
-0.98768
 20
1.13279
 30
0.0
 10
-0.9987
 20
1.27699
 30
0.0
 10
-0.9987
 20
1.27699
 30
0.0
 10
-1.00973
 20
1.42119
 30
0.0
 10
-1.03089
 20
1.52614
 30
0.0
 10
-1.04368
 20
1.60463
 30
0.0
 10
-1.04368
 20
1.60463
 30
0.0
 10
-1.05647
 20
1.68313
 30
0.0
 10
-1.06088
 20
1.73516
 30
0.0
 10
-1.09483
 20
1.82027
 30
0.0
 10
-1.09483
 20
1.82027
 30
0.0
 10
-1.12879
 20
1.90538
 30
0.0
 10
-1.19229
 20
2.02356
 30
0.0
 10
-1.25579
 20
2.14174
 30
0.0
  0
SPLINE
  5
C1
330
1F
100
AcDbEntity
  8
layer 1
 62
   242
370
    20
100
AcDbSpline
210
0.0
220
0.0
230
1.0
 70
     8
 71
     3
 72
    20
 73
    16
 74
     0
 42
0.000000001
 43
0.0000000001
 40
0.0
 40
0.0
 40
0.0
 40
0.0
 40
0.2
 40
0.2
 40
0.2
 40
0.2
 40
0.4
 40
0.4
 40
0.4
 40
0.4
 40
0.6
 40
0.6
 40
0.6
 40
0.6
 40
1.0
 40
1.0
 40
1.0
 40
1.0
 10
-1.15524
 20
3.81655
 30
0.0
 10
-1.11643
 20
3.70013
 30
0.0
 10
-1.07763
 20
3.58372
 30
0.0
 10
-1.05381
 20
3.43114
 30
0.0
 10
-1.05381
 20
3.43114
 30
0.0
 10
-1.03
 20
3.27856
 30
0.0
 10
-1.02118
 20
3.08983
 30
0.0
 10
-1.03
 20
2.91696
 30
0.0
 10
-1.03
 20
2.91696
 30
0.0
 10
-1.03882
 20
2.7441
 30
0.0
 10
-1.06528
 20
2.58712
 30
0.0
 10
-1.10585
 20
2.46056
 30
0.0
 10
-1.10585
 20
2.46056
 30
0.0
 10
-1.14642
 20
2.334
 30
0.0
 10
-1.20111
 20
2.23787
 30
0.0
 10
-1.25579
 20
2.14174
 30
0.0
  0
SPLINE
  5
C2
330
1F
100
AcDbEntity
  8
layer 1
 62
   242
370
    20
100
AcDbSpline
210
0.0
220
0.0
230
1.0
 70
     8
 71
     3
 72
    96
 73
    92
 74
     0
 42
0.000000001
 43
0.0000000001
 40
0.0
 40
0.0
 40
0.0
 40
0.0
 40
0.0416666666666667
 40
0.0416666666666667
 40
0.0416666666666667
 40
0.0416666666666667
 40
0.0833333333333333
 40
0.0833333333333333
 40
0.0833333333333333
 40
0.0833333333333333
 40
0.125
 40
0.125
 40
0.125
 40
0.125
 40
0.1666666666666667
 40
0.1666666666666667
 40
0.1666666666666667
 40
0.1666666666666667
 40
0.2083333333333333
 40
0.2083333333333333
 40
0.2083333333333333
 40
0.2083333333333333
 40
0.25
 40
0.25
 40
0.25
 40
0.25
 40
0.2916666666666667
 40
0.2916666666666667
 40
0.2916666666666667
 40
0.2916666666666667
 40
0.3333333333333333
 40
0.3333333333333333
 40
0.3333333333333333
 40
0.3333333333333333
 40
0.375
 40
0.375
 40
0.375
 40
0.375
 40
0.4166666666666667
 40
0.4166666666666667
 40
0.4166666666666667
 40
0.4166666666666667
 40
0.4583333333333333
 40
0.4583333333333333
 40
0.4583333333333333
 40
0.4583333333333333
 40
0.5
 40
0.5
 40
0.5
 40
0.5
 40
0.5416666666666666
 40
0.5416666666666666
 40
0.5416666666666666
 40
0.5416666666666666
 40
0.5833333333333334
 40
0.5833333333333334
 40
0.5833333333333334
 40
0.5833333333333334
 40
0.625
 40
0.625
 40
0.625
 40
0.625
 40
0.6666666666666666
 40
0.6666666666666666
 40
0.6666666666666666
 40
0.6666666666666666
 40
0.7083333333333334
 40
0.7083333333333334
 40
0.7083333333333334
 40
0.7083333333333334
 40
0.75
 40
0.75
 40
0.75
 40
0.75
 40
0.7916666666666666
 40
0.7916666666666666
 40
0.7916666666666666
 40
0.7916666666666666
 40
0.8333333333333334
 40
0.8333333333333334
 40
0.8333333333333334
 40
0.8333333333333334
 40
0.875
 40
0.875
 40
0.875
 40
0.875
 40
0.9166666666666666
 40
0.9166666666666666
 40
0.9166666666666666
 40
0.9166666666666666
 40
1.0
 40
1.0
 40
1.0
 40
1.0
 10
21.59699
 20
1.14406
 30
0.0
 10
21.55846
 20
1.2778
 30
0.0
 10
21.51994
 20
1.41154
 30
0.0
 10
21.49714
 20
1.5763
 30
0.0
 10
21.49714
 20
1.5763
 30
0.0
 10
21.47435
 20
1.74107
 30
0.0
 10
21.4673
 20
1.93686
 30
0.0
 10
21.47523
 20
2.08811
 30
0.0
 10
21.47523
 20
2.08811
 30
0.0
 10
21.48317
 20
2.23937
 30
0.0
 10
21.5061
 20
2.34608
 30
0.0
 10
21.53564
 20
2.44971
 30
0.0
 10
21.53564
 20
2.44971
 30
0.0
 10
21.56519
 20
2.55334
 30
0.0
 10
21.60135
 20
2.65389
 30
0.0
 10
21.6256
 20
2.76898
 30
0.0
 10
21.6256
 20
2.76898
 30
0.0
 10
21.64986
 20
2.88408
 30
0.0
 10
21.6622
 20
3.01372
 30
0.0
 10
21.66661
 20
3.2051
 30
0.0
 10
21.66661
 20
3.2051
 30
0.0
 10
21.67102
 20
3.39649
 30
0.0
 10
21.6675
 20
3.64961
 30
0.0
 10
21.66088
 20
3.79733
 30
0.0
 10
21.66088
 20
3.79733
 30
0.0
 10
21.65427
 20
3.94506
 30
0.0
 10
21.64457
 20
3.9874
 30
0.0
 10
21.62031
 20
4.06236
 30
0.0
 10
21.62031
 20
4.06236
 30
0.0
 10
21.59606
 20
4.13733
 30
0.0
 10
21.55726
 20
4.24492
 30
0.0
 10
21.52551
 20
4.32606
 30
0.0
 10
21.52551
 20
4.32606
 30
0.0
 10
21.49376
 20
4.4072
 30
0.0
 10
21.46906
 20
4.46188
 30
0.0
 10
21.45539
 20
4.49671
 30
0.0
 10
21.45539
 20
4.49671
 30
0.0
 10
21.44172
 20
4.53155
 30
0.0
 10
21.43908
 20
4.54655
 30
0.0
 10
21.44437
 20
4.56904
 30
0.0
 10
21.44437
 20
4.56904
 30
0.0
 10
21.44966
 20
4.59153
 30
0.0
 10
21.46289
 20
4.62151
 30
0.0
 10
21.48449
 20
4.66781
 30
0.0
 10
21.48449
 20
4.66781
 30
0.0
 10
21.5061
 20
4.71412
 30
0.0
 10
21.53609
 20
4.77673
 30
0.0
 10
21.56651
 20
4.84905
 30
0.0
 10
21.56651
 20
4.84905
 30
0.0
 10
21.59694
 20
4.92137
 30
0.0
 10
21.62781
 20
5.0034
 30
0.0
 10
21.64545
 20
5.10085
 30
0.0
 10
21.64545
 20
5.10085
 30
0.0
 10
21.66309
 20
5.19831
 30
0.0
 10
21.6675
 20
5.3112
 30
0.0
 10
21.66838
 20
5.43467
 30
0.0
 10
21.66838
 20
5.43467
 30
0.0
 10
21.66926
 20
5.55815
 30
0.0
 10
21.66662
 20
5.6922
 30
0.0
 10
21.64677
 20
5.81964
 30
0.0
 10
21.64677
 20
5.81964
 30
0.0
 10
21.62693
 20
5.94709
 30
0.0
 10
21.58988
 20
6.06791
 30
0.0
 10
21.54931
 20
6.16933
 30
0.0
 10
21.54931
 20
6.16933
 30
0.0
 10
21.50874
 20
6.27076
 30
0.0
 10
21.46465
 20
6.35278
 30
0.0
 10
21.43246
 20
6.437
 30
0.0
 10
21.43246
 20
6.437
 30
0.0
 10
21.40027
 20
6.52123
 30
0.0
 10
21.37998
 20
6.60766
 30
0.0
 10
21.37249
 20
6.74127
 30
0.0
 10
21.37249
 20
6.74127
 30
0.0
 10
21.36499
 20
6.87489
 30
0.0
 10
21.37028
 20
7.05569
 30
0.0
 10
21.3694
 20
7.22767
 30
0.0
 10
21.3694
 20
7.22767
 30
0.0
 10
21.36852
 20
7.39965
 30
0.0
 10
21.36146
 20
7.56281
 30
0.0
 10
21.37866
 20
7.70789
 30
0.0
 10
21.37866
 20
7.70789
 30
0.0
 10
21.39586
 20
7.85297
 30
0.0
 10
21.43731
 20
7.97998
 30
0.0
 10
21.47391
 20
8.10786
 30
0.0
 10
21.47391
 20
8.10786
 30
0.0
 10
21.51051
 20
8.23574
 30
0.0
 10
21.54226
 20
8.36451
 30
0.0
 10
21.55769
 20
8.46813
 30
0.0
 10
21.55769
 20
8.46813
 30
0.0
 10
21.57313
 20
8.57176
 30
0.0
 10
21.57225
 20
8.65026
 30
0.0
 10
21.57137
 20
8.72875
 30
0.0
  0
SPLINE
  5
C3
330
1F
100
AcDbEntity
  8
layer 1
 62
   242
370
    20
100
AcDbSpline
210
0.0
220
0.0
230
1.0
 70
     8
 71
     3
 72
    20
 73
    16
 74
     0
 42
0.000000001
 43
0.0000000001
 40
0.0
 40
0.0
 40
0.0
 40
0.0
 40
0.2
 40
0.2
 40
0.2
 40
0.2
 40
0.4
 40
0.4
 40
0.4
 40
0.4
 40
0.6
 40
0.6
 40
0.6
 40
0.6
 40
1.0
 40
1.0
 40
1.0
 40
1.0
 10
21.62428
 20
9.72359
 30
0.0
 10
21.6772
 20
9.63187
 30
0.0
 10
21.73011
 20
9.54014
 30
0.0
 10
21.75965
 20
9.44445
 30
0.0
 10
21.75965
 20
9.44445
 30
0.0
 10
21.7892
 20
9.34876
 30
0.0
 10
21.79538
 20
9.2491
 30
0.0
 10
21.78215
 20
9.15737
 30
0.0
 10
21.78215
 20
9.15737
 30
0.0
 10
21.76892
 20
9.06565
 30
0.0
 10
21.73629
 20
8.98187
 30
0.0
 10
21.69792
 20
8.91175
 30
0.0
 10
21.69792
 20
8.91175
 30
0.0
 10
21.65956
 20
8.84164
 30
0.0
 10
21.61547
 20
8.78519
 30
0.0
 10
21.57137
 20
8.72875
 30
0.0
  0
SPLINE
  5
C4
330
1F
100
AcDbEntity
  8
layer 1
 62
   242
370
    20
100
AcDbSpline
210
0.0
220
0.0
230
1.0
 70
     8
 71
     3
 72
    12
 73
     8
 74
     0
 42
0.000000001
 43
0.0000000001
 40
0.0
 40
0.0
 40
0.0
 40
0.0
 40
0.3333333333333333
 40
0.3333333333333333
 40
0.3333333333333333
 40
0.3333333333333333
 40
1.0
 40
1.0
 40
1.0
 40
1.0
 10
19.50138
 20
12.7601
 30
0.0
 10
19.63839
 20
12.73658
 30
0.0
 10
19.77539
 20
12.71307
 30
0.0
 10
19.89241
 20
12.65853
 30
0.0
 10
19.89241
 20
12.65853
 30
0.0
 10
20.00942
 20
12.604
 30
0.0
 10
20.10643
 20
12.51845
 30
0.0
 10
20.20345
 20
12.4329
 30
0.0
  0
SPLINE
  5
C5
330
1F
100
AcDbEntity
  8
layer 1
 62
   242
370
    20
100
AcDbSpline
210
0.0
220
0.0
230
1.0
 70
     8
 71
     3
 72
    12
 73
     8
 74
     0
 42
0.000000001
 43
0.0000000001
 40
0.0
 40
0.0
 40
0.0
 40
0.0
 40
0.3333333333333333
 40
0.3333333333333333
 40
0.3333333333333333
 40
0.3333333333333333
 40
1.0
 40
1.0
 40
1.0
 40
1.0
 10
21.0263
 20
11.98311
 30
0.0
 10
20.90283
 20
12.07748
 30
0.0
 10
20.77936
 20
12.17185
 30
0.0
 10
20.64222
 20
12.24681
 30
0.0
 10
20.64222
 20
12.24681
 30
0.0
 10
20.50508
 20
12.32178
 30
0.0
 10
20.35426
 20
12.37734
 30
0.0
 10
20.20345
 20
12.4329
 30
0.0
  0
SPLINE
  5
C6
330
1F
100
AcDbEntity
  8
layer 1
 62
   242
370
    20
100
AcDbSpline
210
0.0
220
0.0
230
1.0
 70
     8
 71
     3
 72
    48
 73
    44
 74
     0
 42
0.000000001
 43
0.0000000001
 40
0.0
 40
0.0
 40
0.0
 40
0.0
 40
0.0833333333333333
 40
0.0833333333333333
 40
0.0833333333333333
 40
0.0833333333333333
 40
0.1666666666666667
 40
0.1666666666666667
 40
0.1666666666666667
 40
0.1666666666666667
 40
0.25
 40
0.25
 40
0.25
 40
0.25
 40
0.3333333333333333
 40
0.3333333333333333
 40
0.3333333333333333
 40
0.3333333333333333
 40
0.4166666666666667
 40
0.4166666666666667
 40
0.4166666666666667
 40
0.4166666666666667
 40
0.5
 40
0.5
 40
0.5
 40
0.5
 40
0.5833333333333334
 40
0.5833333333333334
 40
0.5833333333333334
 40
0.5833333333333334
 40
0.6666666666666666
 40
0.6666666666666666
 40
0.6666666666666666
 40
0.6666666666666666
 40
0.75
 40
0.75
 40
0.75
 40
0.75
 40
0.8333333333333334
 40
0.8333333333333334
 40
0.8333333333333334
 40
0.8333333333333334
 40
1.0
 40
1.0
 40
1.0
 40
1.0
 10
21.62428
 20
9.72359
 30
0.0
 10
21.72151
 20
9.85234
 30
0.0
 10
21.81875
 20
9.9811
 30
0.0
 10
21.88853
 20
10.10897
 30
0.0
 10
21.88853
 20
10.10897
 30
0.0
 10
21.95832
 20
10.23685
 30
0.0
 10
22.00065
 20
10.36385
 30
0.0
 10
22.02623
 20
10.47585
 30
0.0
 10
22.02623
 20
10.47585
 30
0.0
 10
22.05181
 20
10.58786
 30
0.0
 10
22.06062
 20
10.68488
 30
0.0
 10
22.06459
 20
10.78983
 30
0.0
 10
22.06459
 20
10.78983
 30
0.0
 10
22.06856
 20
10.89478
 30
0.0
 10
22.06768
 20
11.00767
 30
0.0
 10
22.05489
 20
11.11659
 30
0.0
 10
22.05489
 20
11.11659
 30
0.0
 10
22.0421
 20
11.22551
 30
0.0
 10
22.01741
 20
11.33047
 30
0.0
 10
21.97904
 20
11.42439
 30
0.0
 10
21.97904
 20
11.42439
 30
0.0
 10
21.94068
 20
11.51832
 30
0.0
 10
21.88864
 20
11.60123
 30
0.0
 10
21.82779
 20
11.67663
 30
0.0
 10
21.82779
 20
11.67663
 30
0.0
 10
21.76694
 20
11.75204
 30
0.0
 10
21.69726
 20
11.81995
 30
0.0
 10
21.64037
 20
11.86449
 30
0.0
 10
21.64037
 20
11.86449
 30
0.0
 10
21.58349
 20
11.90903
 30
0.0
 10
21.5394
 20
11.93019
 30
0.0
 10
21.48868
 20
11.94562
 30
0.0
 10
21.48868
 20
11.94562
 30
0.0
 10
21.43797
 20
11.96106
 30
0.0
 10
21.38065
 20
11.97076
 30
0.0
 10
21.322
 20
11.97649
 30
0.0
 10
21.322
 20
11.97649
 30
0.0
 10
21.26335
 20
11.98222
 30
0.0
 10
21.20337
 20
11.98399
 30
0.0
 10
21.15387
 20
11.98443
 30
0.0
 10
21.15387
 20
11.98443
 30
0.0
 10
21.10437
 20
11.98487
 30
0.0
 10
21.06533
 20
11.98399
 30
0.0
 10
21.0263
 20
11.98311
 30
0.0
  0
SPLINE
  5
C7
330
1F
100
AcDbEntity
  8
layer 1
 62
   242
370
    20
100
AcDbSpline
210
0.0
220
0.0
230
1.0
 70
     8
 71
     3
 72
    28
 73
    24
 74
     0
 42
0.000000001
 43
0.0000000001
 40
0.0
 40
0.0
 40
0.0
 40
0.0
 40
0.1428571428571428
 40
0.1428571428571428
 40
0.1428571428571428
 40
0.1428571428571428
 40
0.2857142857142857
 40
0.2857142857142857
 40
0.2857142857142857
 40
0.2857142857142857
 40
0.4285714285714285
 40
0.4285714285714285
 40
0.4285714285714285
 40
0.4285714285714285
 40
0.5714285714285714
 40
0.5714285714285714
 40
0.5714285714285714
 40
0.5714285714285714
 40
0.7142857142857143
 40
0.7142857142857143
 40
0.7142857142857143
 40
0.7142857142857143
 40
1.0
 40
1.0
 40
1.0
 40
1.0
 10
20.86027
 20
6.85281
 30
0.0
 10
20.84616
 20
6.93924
 30
0.0
 10
20.83205
 20
7.02567
 30
0.0
 10
20.83646
 20
7.14958
 30
0.0
 10
20.83646
 20
7.14958
 30
0.0
 10
20.84087
 20
7.2735
 30
0.0
 10
20.8638
 20
7.4349
 30
0.0
 10
20.91187
 20
7.61085
 30
0.0
 10
20.91187
 20
7.61085
 30
0.0
 10
20.95993
 20
7.7868
 30
0.0
 10
21.03314
 20
7.9773
 30
0.0
 10
21.07371
 20
8.0871
 30
0.0
 10
21.07371
 20
8.0871
 30
0.0
 10
21.11428
 20
8.1969
 30
0.0
 10
21.12221
 20
8.22601
 30
0.0
 10
21.12883
 20
8.26481
 30
0.0
 10
21.12883
 20
8.26481
 30
0.0
 10
21.13544
 20
8.30362
 30
0.0
 10
21.14073
 20
8.35212
 30
0.0
 10
21.13676
 20
8.40636
 30
0.0
 10
21.13676
 20
8.40636
 30
0.0
 10
21.13279
 20
8.4606
 30
0.0
 10
21.11957
 20
8.52058
 30
0.0
 10
21.10634
 20
8.58055
 30
0.0
  0
SPLINE
  5
C8
330
1F
100
AcDbEntity
  8
layer 1
 62
   242
370
    20
100
AcDbSpline
210
0.0
220
0.0
230
1.0
 70
     8
 71
     3
 72
    32
 73
    28
 74
     0
 42
0.000000001
 43
0.0000000001
 40
0.0
 40
0.0
 40
0.0
 40
0.0
 40
0.125
 40
0.125
 40
0.125
 40
0.125
 40
0.25
 40
0.25
 40
0.25
 40
0.25
 40
0.375
 40
0.375
 40
0.375
 40
0.375
 40
0.5
 40
0.5
 40
0.5
 40
0.5
 40
0.625
 40
0.625
 40
0.625
 40
0.625
 40
0.75
 40
0.75
 40
0.75
 40
0.75
 40
1.0
 40
1.0
 40
1.0
 40
1.0
 10
21.09575
 20
9.80558
 30
0.0
 10
21.13808
 20
9.75884
 30
0.0
 10
21.18042
 20
9.71209
 30
0.0
 10
21.21746
 20
9.65653
 30
0.0
 10
21.21746
 20
9.65653
 30
0.0
 10
21.2545
 20
9.60097
 30
0.0
 10
21.28625
 20
9.53658
 30
0.0
 10
21.3083
 20
9.47396
 30
0.0
 10
21.3083
 20
9.47396
 30
0.0
 10
21.33035
 20
9.41135
 30
0.0
 10
21.3427
 20
9.35049
 30
0.0
 10
21.34932
 20
9.2839
 30
0.0
 10
21.34932
 20
9.2839
 30
0.0
 10
21.35593
 20
9.21732
 30
0.0
 10
21.35681
 20
9.145
 30
0.0
 10
21.34711
 20
9.07973
 30
0.0
 10
21.34711
 20
9.07973
 30
0.0
 10
21.33741
 20
9.01447
 30
0.0
 10
21.31712
 20
8.95626
 30
0.0
 10
21.28493
 20
8.88835
 30
0.0
 10
21.28493
 20
8.88835
 30
0.0
 10
21.25274
 20
8.82044
 30
0.0
 10
21.20865
 20
8.74283
 30
0.0
 10
21.1769
 20
8.68991
 30
0.0
 10
21.1769
 20
8.68991
 30
0.0
 10
21.14515
 20
8.637
 30
0.0
 10
21.12574
 20
8.60877
 30
0.0
 10
21.10634
 20
8.58055
 30
0.0
  0
SPLINE
  5
C9
330
1F
100
AcDbEntity
  8
layer 1
 62
   242
370
    20
100
AcDbSpline
210
0.0
220
0.0
230
1.0
 70
     8
 71
     3
 72
    12
 73
     8
 74
     0
 42
0.000000001
 43
0.0000000001
 40
0.0
 40
0.0
 40
0.0
 40
0.0
 40
0.3333333333333333
 40
0.3333333333333333
 40
0.3333333333333333
 40
0.3333333333333333
 40
1.0
 40
1.0
 40
1.0
 40
1.0
 10
21.4794
 20
10.16277
 30
0.0
 10
21.43883
 20
10.10191
 30
0.0
 10
21.39826
 20
10.04106
 30
0.0
 10
21.33432
 20
9.98152
 30
0.0
 10
21.33432
 20
9.98152
 30
0.0
 10
21.27038
 20
9.92199
 30
0.0
 10
21.18306
 20
9.86379
 30
0.0
 10
21.09575
 20
9.80558
 30
0.0
  0
SPLINE
  5
CA
330
1F
100
AcDbEntity
  8
layer 1
 62
   242
370
    20
100
AcDbSpline
210
0.0
220
0.0
230
1.0
 70
     8
 71
     3
 72
    12
 73
     8
 74
     0
 42
0.000000001
 43
0.0000000001
 40
0.0
 40
0.0
 40
0.0
 40
0.0
 40
0.3333333333333333
 40
0.3333333333333333
 40
0.3333333333333333
 40
0.3333333333333333
 40
1.0
 40
1.0
 40
1.0
 40
1.0
 10
21.10898
 20
10.15218
 30
0.0
 10
21.16543
 20
10.14072
 30
0.0
 10
21.22187
 20
10.12925
 30
0.0
 10
21.28361
 20
10.13101
 30
0.0
 10
21.28361
 20
10.13101
 30
0.0
 10
21.34535
 20
10.13278
 30
0.0
 10
21.41237
 20
10.14778
 30
0.0
 10
21.4794
 20
10.16277
 30
0.0
  0
SPLINE
  5
CB
330
1F
100
AcDbEntity
  8
layer 1
 62
   242
370
    20
100
AcDbSpline
210
0.0
220
0.0
230
1.0
 70
     8
 71
     3
 72
    20
 73
    16
 74
     0
 42
0.000000001
 43
0.0000000001
 40
0.0
 40
0.0
 40
0.0
 40
0.0
 40
0.2
 40
0.2
 40
0.2
 40
0.2
 40
0.4
 40
0.4
 40
0.4
 40
0.4
 40
0.6
 40
0.6
 40
0.6
 40
0.6
 40
1.0
 40
1.0
 40
1.0
 40
1.0
 10
20.60098
 20
10.10985
 30
0.0
 10
20.63802
 20
10.07722
 30
0.0
 10
20.67507
 20
10.04458
 30
0.0
 10
20.71829
 20
10.02341
 30
0.0
 10
20.71829
 20
10.02341
 30
0.0
 10
20.7615
 20
10.00225
 30
0.0
 10
20.81088
 20
9.99255
 30
0.0
 10
20.8563
 20
9.99211
 30
0.0
 10
20.8563
 20
9.99211
 30
0.0
 10
20.90172
 20
9.99167
 30
0.0
 10
20.94318
 20
10.00049
 30
0.0
 10
20.98463
 20
10.02871
 30
0.0
 10
20.98463
 20
10.02871
 30
0.0
 10
21.02608
 20
10.05693
 30
0.0
 10
21.06753
 20
10.10456
 30
0.0
 10
21.10898
 20
10.15218
 30
0.0
  0
SPLINE
  5
CC
330
1F
100
AcDbEntity
  8
layer 1
 62
   242
370
    20
100
AcDbSpline
210
0.0
220
0.0
230
1.0
 70
     8
 71
     3
 72
    52
 73
    48
 74
     0
 42
0.000000001
 43
0.0000000001
 40
0.0
 40
0.0
 40
0.0
 40
0.0
 40
0.0769230769230769
 40
0.0769230769230769
 40
0.0769230769230769
 40
0.0769230769230769
 40
0.1538461538461539
 40
0.1538461538461539
 40
0.1538461538461539
 40
0.1538461538461539
 40
0.2307692307692308
 40
0.2307692307692308
 40
0.2307692307692308
 40
0.2307692307692308
 40
0.3076923076923077
 40
0.3076923076923077
 40
0.3076923076923077
 40
0.3076923076923077
 40
0.3846153846153846
 40
0.3846153846153846
 40
0.3846153846153846
 40
0.3846153846153846
 40
0.4615384615384616
 40
0.4615384615384616
 40
0.4615384615384616
 40
0.4615384615384616
 40
0.5384615384615384
 40
0.5384615384615384
 40
0.5384615384615384
 40
0.5384615384615384
 40
0.6153846153846154
 40
0.6153846153846154
 40
0.6153846153846154
 40
0.6153846153846154
 40
0.6923076923076923
 40
0.6923076923076923
 40
0.6923076923076923
 40
0.6923076923076923
 40
0.7692307692307693
 40
0.7692307692307693
 40
0.7692307692307693
 40
0.7692307692307693
 40
0.8461538461538461
 40
0.8461538461538461
 40
0.8461538461538461
 40
0.8461538461538461
 40
1.0
 40
1.0
 40
1.0
 40
1.0
 10
20.21998
 20
9.26053
 30
0.0
 10
20.23762
 20
9.22966
 30
0.0
 10
20.25526
 20
9.1988
 30
0.0
 10
20.2654
 20
9.16484
 30
0.0
 10
20.2654
 20
9.16484
 30
0.0
 10
20.27554
 20
9.13089
 30
0.0
 10
20.27819
 20
9.09384
 30
0.0
 10
20.27025
 20
9.059
 30
0.0
 10
20.27025
 20
9.059
 30
0.0
 10
20.26231
 20
9.02417
 30
0.0
 10
20.24379
 20
8.99154
 30
0.0
 10
20.21778
 20
8.96861
 30
0.0
 10
20.21778
 20
8.96861
 30
0.0
 10
20.19176
 20
8.94568
 30
0.0
 10
20.15824
 20
8.93245
 30
0.0
 10
20.11591
 20
8.92539
 30
0.0
 10
20.11591
 20
8.92539
 30
0.0
 10
20.07358
 20
8.91834
 30
0.0
 10
20.02242
 20
8.91745
 30
0.0
 10
19.98318
 20
8.93509
 30
0.0
 10
19.98318
 20
8.93509
 30
0.0
 10
19.94393
 20
8.95273
 30
0.0
 10
19.91659
 20
8.98889
 30
0.0
 10
19.90248
 20
9.04048
 30
0.0
 10
19.90248
 20
9.04048
 30
0.0
 10
19.88837
 20
9.09208
 30
0.0
 10
19.88748
 20
9.15911
 30
0.0
 10
19.89939
 20
9.21643
 30
0.0
 10
19.89939
 20
9.21643
 30
0.0
 10
19.9113
 20
9.27376
 30
0.0
 10
19.93599
 20
9.32139
 30
0.0
 10
19.98406
 20
9.39238
 30
0.0
 10
19.98406
 20
9.39238
 30
0.0
 10
20.03213
 20
9.46338
 30
0.0
 10
20.10356
 20
9.55775
 30
0.0
 10
20.18647
 20
9.65829
 30
0.0
 10
20.18647
 20
9.65829
 30
0.0
 10
20.26937
 20
9.75884
 30
0.0
 10
20.36374
 20
9.86555
 30
0.0
 10
20.43474
 20
9.94184
 30
0.0
 10
20.43474
 20
9.94184
 30
0.0
 10
20.50573
 20
10.01813
 30
0.0
 10
20.55336
 20
10.06399
 30
0.0
 10
20.57717
 20
10.08692
 30
0.0
 10
20.57717
 20
10.08692
 30
0.0
 10
20.60098
 20
10.10985
 30
0.0
 10
20.60098
 20
10.10985
 30
0.0
 10
20.60098
 20
10.10985
 30
0.0
  0
SPLINE
  5
CD
330
1F
100
AcDbEntity
  8
layer 1
 62
   242
370
    20
100
AcDbSpline
210
0.0
220
0.0
230
1.0
 70
     8
 71
     3
 72
    12
 73
     8
 74
     0
 42
0.000000001
 43
0.0000000001
 40
0.0
 40
0.0
 40
0.0
 40
0.0
 40
0.3333333333333333
 40
0.3333333333333333
 40
0.3333333333333333
 40
0.3333333333333333
 40
1.0
 40
1.0
 40
1.0
 40
1.0
 10
19.50138
 20
7.22765
 30
0.0
 10
19.55217
 20
7.29232
 30
0.0
 10
19.60296
 20
7.35699
 30
0.0
 10
19.66452
 20
7.42416
 30
0.0
 10
19.66452
 20
7.42416
 30
0.0
 10
19.72607
 20
7.49133
 30
0.0
 10
19.79839
 20
7.56101
 30
0.0
 10
19.87071
 20
7.63068
 30
0.0
  0
SPLINE
  5
CE
330
1F
100
AcDbEntity
  8
layer 1
 62
   242
370
    20
100
AcDbSpline
210
0.0
220
0.0
230
1.0
 70
     8
 71
     3
 72
    20
 73
    16
 74
     0
 42
0.000000001
 43
0.0000000001
 40
0.0
 40
0.0
 40
0.0
 40
0.0
 40
0.2
 40
0.2
 40
0.2
 40
0.2
 40
0.4
 40
0.4
 40
0.4
 40
0.4
 40
0.6
 40
0.6
 40
0.6
 40
0.6
 40
1.0
 40
1.0
 40
1.0
 40
1.0
 10
19.94875
 20
8.46809
 30
0.0
 10
19.99153
 20
8.39092
 30
0.0
 10
20.03431
 20
8.31375
 30
0.0
 10
20.0632
 20
8.23327
 30
0.0
 10
20.0632
 20
8.23327
 30
0.0
 10
20.09208
 20
8.15279
 30
0.0
 10
20.10708
 20
8.06901
 30
0.0
 10
20.10399
 20
8.00418
 30
0.0
 10
20.10399
 20
8.00418
 30
0.0
 10
20.1009
 20
7.93936
 30
0.0
 10
20.07974
 20
7.8935
 30
0.0
 10
20.03785
 20
7.83441
 30
0.0
 10
20.03785
 20
7.83441
 30
0.0
 10
19.99595
 20
7.77532
 30
0.0
 10
19.93333
 20
7.703
 30
0.0
 10
19.87071
 20
7.63068
 30
0.0
  0
SPLINE
  5
CF
330
1F
100
AcDbEntity
  8
layer 1
 62
   242
370
    20
100
AcDbSpline
210
0.0
220
0.0
230
1.0
 70
     8
 71
     3
 72
    32
 73
    28
 74
     0
 42
0.000000001
 43
0.0000000001
 40
0.0
 40
0.0
 40
0.0
 40
0.0
 40
0.125
 40
0.125
 40
0.125
 40
0.125
 40
0.25
 40
0.25
 40
0.25
 40
0.25
 40
0.375
 40
0.375
 40
0.375
 40
0.375
 40
0.5
 40
0.5
 40
0.5
 40
0.5
 40
0.625
 40
0.625
 40
0.625
 40
0.625
 40
0.75
 40
0.75
 40
0.75
 40
0.75
 40
1.0
 40
1.0
 40
1.0
 40
1.0
 10
20.21998
 20
9.26053
 30
0.0
 10
20.30288
 20
9.24377
 30
0.0
 10
20.38577
 20
9.22701
 30
0.0
 10
20.46162
 20
9.17497
 30
0.0
 10
20.46162
 20
9.17497
 30
0.0
 10
20.53746
 20
9.12294
 30
0.0
 10
20.60626
 20
9.03562
 30
0.0
 10
20.63801
 20
8.94698
 30
0.0
 10
20.63801
 20
8.94698
 30
0.0
 10
20.66976
 20
8.85835
 30
0.0
 10
20.66446
 20
8.7684
 30
0.0
 10
20.63756
 20
8.68329
 30
0.0
 10
20.63756
 20
8.68329
 30
0.0
 10
20.61066
 20
8.59818
 30
0.0
 10
20.56216
 20
8.51792
 30
0.0
 10
20.50307
 20
8.46765
 30
0.0
 10
20.50307
 20
8.46765
 30
0.0
 10
20.44398
 20
8.41738
 30
0.0
 10
20.3743
 20
8.39709
 30
0.0
 10
20.30066
 20
8.38915
 30
0.0
 10
20.30066
 20
8.38915
 30
0.0
 10
20.22702
 20
8.38122
 30
0.0
 10
20.14941
 20
8.38563
 30
0.0
 10
20.0901
 20
8.40084
 30
0.0
 10
20.0901
 20
8.40084
 30
0.0
 10
20.03078
 20
8.41606
 30
0.0
 10
19.98977
 20
8.44207
 30
0.0
 10
19.94875
 20
8.46809
 30
0.0
  0
SPLINE
  5
D0
330
1F
100
AcDbEntity
  8
layer 1
 62
   242
370
    20
100
AcDbSpline
210
0.0
220
0.0
230
1.0
 70
     8
 71
     3
 72
    24
 73
    20
 74
     0
 42
0.000000001
 43
0.0000000001
 40
0.0
 40
0.0
 40
0.0
 40
0.0
 40
0.1666666666666667
 40
0.1666666666666667
 40
0.1666666666666667
 40
0.1666666666666667
 40
0.3333333333333333
 40
0.3333333333333333
 40
0.3333333333333333
 40
0.3333333333333333
 40
0.5
 40
0.5
 40
0.5
 40
0.5
 40
0.6666666666666666
 40
0.6666666666666666
 40
0.6666666666666666
 40
0.6666666666666666
 40
1.0
 40
1.0
 40
1.0
 40
1.0
 10
20.80998
 20
11.45786
 30
0.0
 10
20.9017
 20
11.43934
 30
0.0
 10
20.99343
 20
11.42081
 30
0.0
 10
21.08648
 20
11.37186
 30
0.0
 10
21.08648
 20
11.37186
 30
0.0
 10
21.17952
 20
11.32292
 30
0.0
 10
21.27388
 20
11.24354
 30
0.0
 10
21.35077
 20
11.15217
 30
0.0
 10
21.35077
 20
11.15217
 30
0.0
 10
21.42766
 20
11.0608
 30
0.0
 10
21.48708
 20
10.95744
 30
0.0
 10
21.52235
 20
10.86351
 30
0.0
 10
21.52235
 20
10.86351
 30
0.0
 10
21.55763
 20
10.76958
 30
0.0
 10
21.56878
 20
10.68509
 30
0.0
 10
21.5717
 20
10.60536
 30
0.0
 10
21.5717
 20
10.60536
 30
0.0
 10
21.57463
 20
10.52563
 30
0.0
 10
21.56934
 20
10.45067
 30
0.0
 10
21.56405
 20
10.3757
 30
0.0
  0
SPLINE
  5
D1
330
1F
100
AcDbEntity
  8
layer 1
 62
   242
370
    20
100
AcDbSpline
210
0.0
220
0.0
230
1.0
 70
     8
 71
     3
 72
    28
 73
    24
 74
     0
 42
0.000000001
 43
0.0000000001
 40
0.0
 40
0.0
 40
0.0
 40
0.0
 40
0.1428571428571428
 40
0.1428571428571428
 40
0.1428571428571428
 40
0.1428571428571428
 40
0.2857142857142857
 40
0.2857142857142857
 40
0.2857142857142857
 40
0.2857142857142857
 40
0.4285714285714285
 40
0.4285714285714285
 40
0.4285714285714285
 40
0.4285714285714285
 40
0.5714285714285714
 40
0.5714285714285714
 40
0.5714285714285714
 40
0.5714285714285714
 40
0.7142857142857143
 40
0.7142857142857143
 40
0.7142857142857143
 40
0.7142857142857143
 40
1.0
 40
1.0
 40
1.0
 40
1.0
 10
21.56405
 20
10.3757
 30
0.0
 10
21.51025
 20
10.39069
 30
0.0
 10
21.45645
 20
10.40569
 30
0.0
 10
21.40221
 20
10.45067
 30
0.0
 10
21.40221
 20
10.45067
 30
0.0
 10
21.34797
 20
10.49565
 30
0.0
 10
21.29329
 20
10.57061
 30
0.0
 10
21.23949
 20
10.67247
 30
0.0
 10
21.23949
 20
10.67247
 30
0.0
 10
21.18569
 20
10.77434
 30
0.0
 10
21.13278
 20
10.90311
 30
0.0
 10
21.08604
 20
11.00277
 30
0.0
 10
21.08604
 20
11.00277
 30
0.0
 10
21.03929
 20
11.10243
 30
0.0
 10
20.99872
 20
11.17298
 30
0.0
 10
20.95639
 20
11.23692
 30
0.0
 10
20.95639
 20
11.23692
 30
0.0
 10
20.91405
 20
11.30087
 30
0.0
 10
20.86996
 20
11.35819
 30
0.0
 10
20.84527
 20
11.39391
 30
0.0
 10
20.84527
 20
11.39391
 30
0.0
 10
20.82057
 20
11.42963
 30
0.0
 10
20.81527
 20
11.44375
 30
0.0
 10
20.80998
 20
11.45786
 30
0.0
  0
SPLINE
  5
D2
330
1F
100
AcDbEntity
  8
layer 1
 62
   242
370
    20
100
AcDbSpline
210
0.0
220
0.0
230
1.0
 70
     8
 71
     3
 72
    24
 73
    20
 74
     0
 42
0.000000001
 43
0.0000000001
 40
0.0
 40
0.0
 40
0.0
 40
0.0
 40
0.1666666666666667
 40
0.1666666666666667
 40
0.1666666666666667
 40
0.1666666666666667
 40
0.3333333333333333
 40
0.3333333333333333
 40
0.3333333333333333
 40
0.3333333333333333
 40
0.5
 40
0.5
 40
0.5
 40
0.5
 40
0.6666666666666666
 40
0.6666666666666666
 40
0.6666666666666666
 40
0.6666666666666666
 40
1.0
 40
1.0
 40
1.0
 40
1.0
 10
19.50138
 20
11.49467
 30
0.0
 10
19.58128
 20
11.55824
 30
0.0
 10
19.66117
 20
11.62182
 30
0.0
 10
19.73067
 20
11.66551
 30
0.0
 10
19.73067
 20
11.66551
 30
0.0
 10
19.80016
 20
11.7092
 30
0.0
 10
19.85925
 20
11.73302
 30
0.0
 10
19.94348
 20
11.74448
 30
0.0
 10
19.94348
 20
11.74448
 30
0.0
 10
20.0277
 20
11.75595
 30
0.0
 10
20.13706
 20
11.75506
 30
0.0
 10
20.22967
 20
11.74448
 30
0.0
 10
20.22967
 20
11.74448
 30
0.0
 10
20.32227
 20
11.7339
 30
0.0
 10
20.39811
 20
11.71361
 30
0.0
 10
20.4744
 20
11.67877
 30
0.0
 10
20.4744
 20
11.67877
 30
0.0
 10
20.55069
 20
11.64394
 30
0.0
 10
20.62742
 20
11.59455
 30
0.0
 10
20.70415
 20
11.54516
 30
0.0
  0
SPLINE
  5
D3
330
1F
100
AcDbEntity
  8
layer 1
 62
   242
370
    20
100
AcDbSpline
210
0.0
220
0.0
230
1.0
 70
     8
 71
     3
 72
    24
 73
    20
 74
     0
 42
0.000000001
 43
0.0000000001
 40
0.0
 40
0.0
 40
0.0
 40
0.0
 40
0.1666666666666667
 40
0.1666666666666667
 40
0.1666666666666667
 40
0.1666666666666667
 40
0.3333333333333333
 40
0.3333333333333333
 40
0.3333333333333333
 40
0.3333333333333333
 40
0.5
 40
0.5
 40
0.5
 40
0.5
 40
0.6666666666666666
 40
0.6666666666666666
 40
0.6666666666666666
 40
0.6666666666666666
 40
1.0
 40
1.0
 40
1.0
 40
1.0
 10
19.68286
 20
12.05581
 30
0.0
 10
19.80986
 20
12.05316
 30
0.0
 10
19.93686
 20
12.05052
 30
0.0
 10
20.0352
 20
12.03949
 30
0.0
 10
20.0352
 20
12.03949
 30
0.0
 10
20.13353
 20
12.02847
 30
0.0
 10
20.20321
 20
12.00906
 30
0.0
 10
20.27333
 20
11.97951
 30
0.0
 10
20.27333
 20
11.97951
 30
0.0
 10
20.34344
 20
11.94997
 30
0.0
 10
20.41399
 20
11.91029
 30
0.0
 10
20.47573
 20
11.86575
 30
0.0
 10
20.47573
 20
11.86575
 30
0.0
 10
20.53747
 20
11.82121
 30
0.0
 10
20.59038
 20
11.77182
 30
0.0
 10
20.62698
 20
11.71758
 30
0.0
 10
20.62698
 20
11.71758
 30
0.0
 10
20.66358
 20
11.66334
 30
0.0
 10
20.68387
 20
11.60425
 30
0.0
 10
20.70415
 20
11.54516
 30
0.0
  0
SPLINE
  5
D4
330
1F
100
AcDbEntity
  8
layer 1
 62
   242
370
    20
100
AcDbSpline
210
0.0
220
0.0
230
1.0
 70
     8
 71
     3
 72
    12
 73
     8
 74
     0
 42
0.000000001
 43
0.0000000001
 40
0.0
 40
0.0
 40
0.0
 40
0.0
 40
0.3333333333333333
 40
0.3333333333333333
 40
0.3333333333333333
 40
0.3333333333333333
 40
1.0
 40
1.0
 40
1.0
 40
1.0
 10
19.50138
 20
12.22689
 30
0.0
 10
19.52924
 20
12.19985
 30
0.0
 10
19.5571
 20
12.17281
 30
0.0
 10
19.59002
 20
12.14424
 30
0.0
 10
19.59002
 20
12.14424
 30
0.0
 10
19.62294
 20
12.11567
 30
0.0
 10
19.66091
 20
12.08557
 30
0.0
 10
19.69889
 20
12.05547
 30
0.0
  0
SPLINE
  5
D5
330
1F
100
AcDbEntity
  8
layer 1
 62
   242
370
    20
100
AcDbSpline
210
0.0
220
0.0
230
1.0
 70
     8
 71
     3
 72
    80
 73
    76
 74
     0
 42
0.000000001
 43
0.0000000001
 40
0.0
 40
0.0
 40
0.0
 40
0.0
 40
0.05
 40
0.05
 40
0.05
 40
0.05
 40
0.1
 40
0.1
 40
0.1
 40
0.1
 40
0.15
 40
0.15
 40
0.15
 40
0.15
 40
0.2
 40
0.2
 40
0.2
 40
0.2
 40
0.25
 40
0.25
 40
0.25
 40
0.25
 40
0.3
 40
0.3
 40
0.3
 40
0.3
 40
0.35
 40
0.35
 40
0.35
 40
0.35
 40
0.4
 40
0.4
 40
0.4
 40
0.4
 40
0.45
 40
0.45
 40
0.45
 40
0.45
 40
0.5
 40
0.5
 40
0.5
 40
0.5
 40
0.55
 40
0.55
 40
0.55
 40
0.55
 40
0.6
 40
0.6
 40
0.6
 40
0.6
 40
0.65
 40
0.65
 40
0.65
 40
0.65
 40
0.7
 40
0.7
 40
0.7
 40
0.7
 40
0.75
 40
0.75
 40
0.75
 40
0.75
 40
0.8
 40
0.8
 40
0.8
 40
0.8
 40
0.85
 40
0.85
 40
0.85
 40
0.85
 40
0.9
 40
0.9
 40
0.9
 40
0.9
 40
1.0
 40
1.0
 40
1.0
 40
1.0
 10
19.50293
 20
9.13217
 30
0.0
 10
19.53821
 20
9.22918
 30
0.0
 10
19.57348
 20
9.3262
 30
0.0
 10
19.63081
 20
9.43467
 30
0.0
 10
19.63081
 20
9.43467
 30
0.0
 10
19.68814
 20
9.54315
 30
0.0
 10
19.76751
 20
9.6631
 30
0.0
 10
19.85659
 20
9.78128
 30
0.0
 10
19.85659
 20
9.78128
 30
0.0
 10
19.94567
 20
9.89946
 30
0.0
 10
20.04444
 20
10.01587
 30
0.0
 10
20.13264
 20
10.12347
 30
0.0
 10
20.13264
 20
10.12347
 30
0.0
 10
20.22083
 20
10.23107
 30
0.0
 10
20.29844
 20
10.32985
 30
0.0
 10
20.36106
 20
10.41981
 30
0.0
 10
20.36106
 20
10.41981
 30
0.0
 10
20.42368
 20
10.50977
 30
0.0
 10
20.4713
 20
10.5909
 30
0.0
 10
20.50394
 20
10.66851
 30
0.0
 10
20.50394
 20
10.66851
 30
0.0
 10
20.53657
 20
10.74612
 30
0.0
 10
20.55421
 20
10.82021
 30
0.0
 10
20.56303
 20
10.88988
 30
0.0
 10
20.56303
 20
10.88988
 30
0.0
 10
20.57185
 20
10.95956
 30
0.0
 10
20.57185
 20
11.02482
 30
0.0
 10
20.5498
 20
11.09626
 30
0.0
 10
20.5498
 20
11.09626
 30
0.0
 10
20.52775
 20
11.1677
 30
0.0
 10
20.48365
 20
11.24531
 30
0.0
 10
20.43162
 20
11.30352
 30
0.0
 10
20.43162
 20
11.30352
 30
0.0
 10
20.37958
 20
11.36173
 30
0.0
 10
20.31961
 20
11.40053
 30
0.0
 10
20.24641
 20
11.42611
 30
0.0
 10
20.24641
 20
11.42611
 30
0.0
 10
20.17321
 20
11.45169
 30
0.0
 10
20.08677
 20
11.46403
 30
0.0
 10
20.02151
 20
11.46226
 30
0.0
 10
20.02151
 20
11.46226
 30
0.0
 10
19.95624
 20
11.4605
 30
0.0
 10
19.91215
 20
11.44463
 30
0.0
 10
19.86541
 20
11.42258
 30
0.0
 10
19.86541
 20
11.42258
 30
0.0
 10
19.81866
 20
11.40053
 30
0.0
 10
19.76927
 20
11.37231
 30
0.0
 10
19.73399
 20
11.32821
 30
0.0
 10
19.73399
 20
11.32821
 30
0.0
 10
19.69871
 20
11.28412
 30
0.0
 10
19.67755
 20
11.22414
 30
0.0
 10
19.66785
 20
11.16593
 30
0.0
 10
19.66785
 20
11.16593
 30
0.0
 10
19.65815
 20
11.10773
 30
0.0
 10
19.65991
 20
11.05128
 30
0.0
 10
19.67667
 20
11.01336
 30
0.0
 10
19.67667
 20
11.01336
 30
0.0
 10
19.69343
 20
10.97544
 30
0.0
 10
19.72518
 20
10.95603
 30
0.0
 10
19.76222
 20
10.9428
 30
0.0
 10
19.76222
 20
10.9428
 30
0.0
 10
19.79926
 20
10.92957
 30
0.0
 10
19.8416
 20
10.92252
 30
0.0
 10
19.88217
 20
10.91987
 30
0.0
 10
19.88217
 20
10.91987
 30
0.0
 10
19.92273
 20
10.91722
 30
0.0
 10
19.96154
 20
10.91899
 30
0.0
 10
19.99153
 20
10.93222
 30
0.0
 10
19.99153
 20
10.93222
 30
0.0
 10
20.02151
 20
10.94545
 30
0.0
 10
20.04267
 20
10.97014
 30
0.0
 10
20.05238
 20
11.00718
 30
0.0
 10
20.05238
 20
11.00718
 30
0.0
 10
20.06208
 20
11.04423
 30
0.0
 10
20.06031
 20
11.09361
 30
0.0
 10
20.05855
 20
11.143
 30
0.0
  0
SPLINE
  5
D6
330
1F
100
AcDbEntity
  8
layer 1
 62
   242
370
    20
100
AcDbSpline
210
0.0
220
0.0
230
1.0
 70
     8
 71
     3
 72
    24
 73
    20
 74
     0
 42
0.000000001
 43
0.0000000001
 40
0.0
 40
0.0
 40
0.0
 40
0.0
 40
0.1666666666666667
 40
0.1666666666666667
 40
0.1666666666666667
 40
0.1666666666666667
 40
0.3333333333333333
 40
0.3333333333333333
 40
0.3333333333333333
 40
0.3333333333333333
 40
0.5
 40
0.5
 40
0.5
 40
0.5
 40
0.6666666666666666
 40
0.6666666666666666
 40
0.6666666666666666
 40
0.6666666666666666
 40
1.0
 40
1.0
 40
1.0
 40
1.0
 10
19.50138
 20
9.69251
 30
0.0
 10
19.5407
 20
9.74209
 30
0.0
 10
19.58002
 20
9.79167
 30
0.0
 10
19.6182
 20
9.8341
 30
0.0
 10
19.6182
 20
9.8341
 30
0.0
 10
19.65638
 20
9.87653
 30
0.0
 10
19.69343
 20
9.91181
 30
0.0
 10
19.734
 20
9.95591
 30
0.0
 10
19.734
 20
9.95591
 30
0.0
 10
19.77457
 20
10.00001
 30
0.0
 10
19.81866
 20
10.05292
 30
0.0
 10
19.84424
 20
10.11201
 30
0.0
 10
19.84424
 20
10.11201
 30
0.0
 10
19.86982
 20
10.1711
 30
0.0
 10
19.87687
 20
10.23637
 30
0.0
 10
19.86717
 20
10.30075
 30
0.0
 10
19.86717
 20
10.30075
 30
0.0
 10
19.85747
 20
10.36513
 30
0.0
 10
19.83101
 20
10.42863
 30
0.0
 10
19.80455
 20
10.49213
 30
0.0
  0
SPLINE
  5
D7
330
1F
100
AcDbEntity
  8
layer 1
 62
   242
370
    20
100
AcDbSpline
210
0.0
220
0.0
230
1.0
 70
     8
 71
     3
 72
    28
 73
    24
 74
     0
 42
0.000000001
 43
0.0000000001
 40
0.0
 40
0.0
 40
0.0
 40
0.0
 40
0.1428571428571428
 40
0.1428571428571428
 40
0.1428571428571428
 40
0.1428571428571428
 40
0.2857142857142857
 40
0.2857142857142857
 40
0.2857142857142857
 40
0.2857142857142857
 40
0.4285714285714285
 40
0.4285714285714285
 40
0.4285714285714285
 40
0.4285714285714285
 40
0.5714285714285714
 40
0.5714285714285714
 40
0.5714285714285714
 40
0.5714285714285714
 40
0.7142857142857143
 40
0.7142857142857143
 40
0.7142857142857143
 40
0.7142857142857143
 40
1.0
 40
1.0
 40
1.0
 40
1.0
 10
20.05855
 20
11.143
 30
0.0
 10
20.115
 20
11.11125
 30
0.0
 10
20.17144
 20
11.0795
 30
0.0
 10
20.2129
 20
11.02835
 30
0.0
 10
20.2129
 20
11.02835
 30
0.0
 10
20.25435
 20
10.9772
 30
0.0
 10
20.2808
 20
10.90664
 30
0.0
 10
20.2861
 20
10.8352
 30
0.0
 10
20.2861
 20
10.8352
 30
0.0
 10
20.29139
 20
10.76377
 30
0.0
 10
20.27551
 20
10.69145
 30
0.0
 10
20.25082
 20
10.63147
 30
0.0
 10
20.25082
 20
10.63147
 30
0.0
 10
20.22612
 20
10.5715
 30
0.0
 10
20.19261
 20
10.52388
 30
0.0
 10
20.14058
 20
10.49918
 30
0.0
 10
20.14058
 20
10.49918
 30
0.0
 10
20.08854
 20
10.47449
 30
0.0
 10
20.01798
 20
10.47272
 30
0.0
 10
19.95889
 20
10.47537
 30
0.0
 10
19.95889
 20
10.47537
 30
0.0
 10
19.8998
 20
10.47802
 30
0.0
 10
19.85218
 20
10.48507
 30
0.0
 10
19.80455
 20
10.49213
 30
0.0
  0
SPLINE
  5
D8
330
1F
100
AcDbEntity
  8
layer 1
 62
   242
370
    20
100
AcDbSpline
210
0.0
220
0.0
230
1.0
 70
     8
 71
     3
 72
    20
 73
    16
 74
     0
 42
0.000000001
 43
0.0000000001
 40
0.0
 40
0.0
 40
0.0
 40
0.0
 40
0.2
 40
0.2
 40
0.2
 40
0.2
 40
0.4
 40
0.4
 40
0.4
 40
0.4
 40
0.6
 40
0.6
 40
0.6
 40
0.6
 40
1.0
 40
1.0
 40
1.0
 40
1.0
 10
19.50138
 20
4.92367
 30
0.0
 10
19.54548
 20
4.97659
 30
0.0
 10
19.58957
 20
5.0295
 30
0.0
 10
19.64293
 20
5.06786
 30
0.0
 10
19.64293
 20
5.06786
 30
0.0
 10
19.69629
 20
5.10623
 30
0.0
 10
19.75891
 20
5.13005
 30
0.0
 10
19.82506
 20
5.14283
 30
0.0
 10
19.82506
 20
5.14283
 30
0.0
 10
19.8912
 20
5.15562
 30
0.0
 10
19.96088
 20
5.15739
 30
0.0
 10
20.02129
 20
5.14063
 30
0.0
 10
20.02129
 20
5.14063
 30
0.0
 10
20.0817
 20
5.12387
 30
0.0
 10
20.13286
 20
5.0886
 30
0.0
 10
20.18401
 20
5.05332
 30
0.0
  0
SPLINE
  5
D9
330
1F
100
AcDbEntity
  8
layer 1
 62
   242
370
    20
100
AcDbSpline
210
0.0
220
0.0
230
1.0
 70
     8
 71
     3
 72
    36
 73
    32
 74
     0
 42
0.000000001
 43
0.0000000001
 40
0.0
 40
0.0
 40
0.0
 40
0.0
 40
0.1111111111111111
 40
0.1111111111111111
 40
0.1111111111111111
 40
0.1111111111111111
 40
0.2222222222222222
 40
0.2222222222222222
 40
0.2222222222222222
 40
0.2222222222222222
 40
0.3333333333333333
 40
0.3333333333333333
 40
0.3333333333333333
 40
0.3333333333333333
 40
0.4444444444444444
 40
0.4444444444444444
 40
0.4444444444444444
 40
0.4444444444444444
 40
0.5555555555555556
 40
0.5555555555555556
 40
0.5555555555555556
 40
0.5555555555555556
 40
0.6666666666666666
 40
0.6666666666666666
 40
0.6666666666666666
 40
0.6666666666666666
 40
0.7777777777777778
 40
0.7777777777777778
 40
0.7777777777777778
 40
0.7777777777777778
 40
1.0
 40
1.0
 40
1.0
 40
1.0
 10
20.7317
 20
4.17226
 30
0.0
 10
20.76698
 20
4.22871
 30
0.0
 10
20.80225
 20
4.28515
 30
0.0
 10
20.83048
 20
4.35835
 30
0.0
 10
20.83048
 20
4.35835
 30
0.0
 10
20.8587
 20
4.43156
 30
0.0
 10
20.87986
 20
4.52151
 30
0.0
 10
20.88516
 20
4.60529
 30
0.0
 10
20.88516
 20
4.60529
 30
0.0
 10
20.89045
 20
4.68908
 30
0.0
 10
20.87986
 20
4.7667
 30
0.0
 10
20.85076
 20
4.83637
 30
0.0
 10
20.85076
 20
4.83637
 30
0.0
 10
20.82166
 20
4.90604
 30
0.0
 10
20.77403
 20
4.96778
 30
0.0
 10
20.72112
 20
5.01628
 30
0.0
 10
20.72112
 20
5.01628
 30
0.0
 10
20.6682
 20
5.06479
 30
0.0
 10
20.60999
 20
5.10007
 30
0.0
 10
20.54561
 20
5.12388
 30
0.0
 10
20.54561
 20
5.12388
 30
0.0
 10
20.48123
 20
5.1477
 30
0.0
 10
20.41067
 20
5.16004
 30
0.0
 10
20.35876
 20
5.15913
 30
0.0
 10
20.35876
 20
5.15913
 30
0.0
 10
20.30685
 20
5.15823
 30
0.0
 10
20.27358
 20
5.14406
 30
0.0
 10
20.24756
 20
5.12421
 30
0.0
 10
20.24756
 20
5.12421
 30
0.0
 10
20.22154
 20
5.10437
 30
0.0
 10
20.20278
 20
5.07885
 30
0.0
 10
20.18401
 20
5.05332
 30
0.0
  0
SPLINE
  5
DA
330
1F
100
AcDbEntity
  8
layer 1
 62
   242
370
    20
100
AcDbSpline
210
0.0
220
0.0
230
1.0
 70
     8
 71
     3
 72
    40
 73
    36
 74
     0
 42
0.000000001
 43
0.0000000001
 40
0.0
 40
0.0
 40
0.0
 40
0.0
 40
0.1
 40
0.1
 40
0.1
 40
0.1
 40
0.2
 40
0.2
 40
0.2
 40
0.2
 40
0.3
 40
0.3
 40
0.3
 40
0.3
 40
0.4
 40
0.4
 40
0.4
 40
0.4
 40
0.5
 40
0.5
 40
0.5
 40
0.5
 40
0.6
 40
0.6
 40
0.6
 40
0.6
 40
0.7
 40
0.7
 40
0.7
 40
0.7
 40
0.8
 40
0.8
 40
0.8
 40
0.8
 40
1.0
 40
1.0
 40
1.0
 40
1.0
 10
21.17886
 20
1.14406
 30
0.0
 10
21.12242
 20
1.32398
 30
0.0
 10
21.06597
 20
1.50389
 30
0.0
 10
21.03246
 20
1.67499
 30
0.0
 10
21.03246
 20
1.67499
 30
0.0
 10
20.99895
 20
1.84609
 30
0.0
 10
20.98836
 20
2.00836
 30
0.0
 10
21.00424
 20
2.13713
 30
0.0
 10
21.00424
 20
2.13713
 30
0.0
 10
21.02011
 20
2.26589
 30
0.0
 10
21.06245
 20
2.36114
 30
0.0
 10
21.09067
 20
2.5093
 30
0.0
 10
21.09067
 20
2.5093
 30
0.0
 10
21.11889
 20
2.65747
 30
0.0
 10
21.133
 20
2.85856
 30
0.0
 10
21.12595
 20
3.042
 30
0.0
 10
21.12595
 20
3.042
 30
0.0
 10
21.11889
 20
3.22545
 30
0.0
 10
21.09066
 20
3.39125
 30
0.0
 10
21.05186
 20
3.54471
 30
0.0
 10
21.05186
 20
3.54471
 30
0.0
 10
21.01305
 20
3.69817
 30
0.0
 10
20.96367
 20
3.83929
 30
0.0
 10
20.90855
 20
3.94182
 30
0.0
 10
20.90855
 20
3.94182
 30
0.0
 10
20.85342
 20
4.04435
 30
0.0
 10
20.79256
 20
4.10831
 30
0.0
 10
20.76213
 20
4.14028
 30
0.0
 10
20.76213
 20
4.14028
 30
0.0
 10
20.7317
 20
4.17226
 30
0.0
 10
20.7317
 20
4.17226
 30
0.0
 10
20.7317
 20
4.17226
 30
0.0
 10
20.7317
 20
4.17226
 30
0.0
 10
20.7317
 20
4.17226
 30
0.0
 10
20.7317
 20
4.17226
 30
0.0
 10
20.7317
 20
4.17226
 30
0.0
  0
SPLINE
  5
DB
330
1F
100
AcDbEntity
  8
layer 1
 62
   242
370
    20
100
AcDbSpline
210
0.0
220
0.0
230
1.0
 70
     8
 71
     3
 72
    96
 73
    92
 74
     0
 42
0.000000001
 43
0.0000000001
 40
0.0
 40
0.0
 40
0.0
 40
0.0
 40
0.0416666666666667
 40
0.0416666666666667
 40
0.0416666666666667
 40
0.0416666666666667
 40
0.0833333333333333
 40
0.0833333333333333
 40
0.0833333333333333
 40
0.0833333333333333
 40
0.125
 40
0.125
 40
0.125
 40
0.125
 40
0.1666666666666667
 40
0.1666666666666667
 40
0.1666666666666667
 40
0.1666666666666667
 40
0.2083333333333333
 40
0.2083333333333333
 40
0.2083333333333333
 40
0.2083333333333333
 40
0.25
 40
0.25
 40
0.25
 40
0.25
 40
0.2916666666666667
 40
0.2916666666666667
 40
0.2916666666666667
 40
0.2916666666666667
 40
0.3333333333333333
 40
0.3333333333333333
 40
0.3333333333333333
 40
0.3333333333333333
 40
0.375
 40
0.375
 40
0.375
 40
0.375
 40
0.4166666666666667
 40
0.4166666666666667
 40
0.4166666666666667
 40
0.4166666666666667
 40
0.4583333333333333
 40
0.4583333333333333
 40
0.4583333333333333
 40
0.4583333333333333
 40
0.5
 40
0.5
 40
0.5
 40
0.5
 40
0.5416666666666666
 40
0.5416666666666666
 40
0.5416666666666666
 40
0.5416666666666666
 40
0.5833333333333334
 40
0.5833333333333334
 40
0.5833333333333334
 40
0.5833333333333334
 40
0.625
 40
0.625
 40
0.625
 40
0.625
 40
0.6666666666666666
 40
0.6666666666666666
 40
0.6666666666666666
 40
0.6666666666666666
 40
0.7083333333333334
 40
0.7083333333333334
 40
0.7083333333333334
 40
0.7083333333333334
 40
0.75
 40
0.75
 40
0.75
 40
0.75
 40
0.7916666666666666
 40
0.7916666666666666
 40
0.7916666666666666
 40
0.7916666666666666
 40
0.8333333333333334
 40
0.8333333333333334
 40
0.8333333333333334
 40
0.8333333333333334
 40
0.875
 40
0.875
 40
0.875
 40
0.875
 40
0.9166666666666666
 40
0.9166666666666666
 40
0.9166666666666666
 40
0.9166666666666666
 40
1.0
 40
1.0
 40
1.0
 40
1.0
 10
17.40689
 20
1.14386
 30
0.0
 10
17.44504
 20
1.27767
 30
0.0
 10
17.4832
 20
1.41147
 30
0.0
 10
17.50581
 20
1.57627
 30
0.0
 10
17.50581
 20
1.57627
 30
0.0
 10
17.52841
 20
1.74107
 30
0.0
 10
17.53546
 20
1.93686
 30
0.0
 10
17.52753
 20
2.08811
 30
0.0
 10
17.52753
 20
2.08811
 30
0.0
 10
17.51959
 20
2.23937
 30
0.0
 10
17.49666
 20
2.34608
 30
0.0
 10
17.46712
 20
2.44971
 30
0.0
 10
17.46712
 20
2.44971
 30
0.0
 10
17.43757
 20
2.55334
 30
0.0
 10
17.40141
 20
2.65389
 30
0.0
 10
17.37716
 20
2.76898
 30
0.0
 10
17.37716
 20
2.76898
 30
0.0
 10
17.3529
 20
2.88408
 30
0.0
 10
17.34056
 20
3.01372
 30
0.0
 10
17.33615
 20
3.2051
 30
0.0
 10
17.33615
 20
3.2051
 30
0.0
 10
17.33174
 20
3.39649
 30
0.0
 10
17.33526
 20
3.64961
 30
0.0
 10
17.34188
 20
3.79733
 30
0.0
 10
17.34188
 20
3.79733
 30
0.0
 10
17.34849
 20
3.94506
 30
0.0
 10
17.35819
 20
3.9874
 30
0.0
 10
17.38245
 20
4.06236
 30
0.0
 10
17.38245
 20
4.06236
 30
0.0
 10
17.4067
 20
4.13733
 30
0.0
 10
17.4455
 20
4.24492
 30
0.0
 10
17.47725
 20
4.32606
 30
0.0
 10
17.47725
 20
4.32606
 30
0.0
 10
17.509
 20
4.4072
 30
0.0
 10
17.5337
 20
4.46188
 30
0.0
 10
17.54737
 20
4.49671
 30
0.0
 10
17.54737
 20
4.49671
 30
0.0
 10
17.56104
 20
4.53155
 30
0.0
 10
17.56368
 20
4.54655
 30
0.0
 10
17.55839
 20
4.56904
 30
0.0
 10
17.55839
 20
4.56904
 30
0.0
 10
17.5531
 20
4.59153
 30
0.0
 10
17.53987
 20
4.62151
 30
0.0
 10
17.51827
 20
4.66781
 30
0.0
 10
17.51827
 20
4.66781
 30
0.0
 10
17.49666
 20
4.71412
 30
0.0
 10
17.46667
 20
4.77673
 30
0.0
 10
17.43625
 20
4.84905
 30
0.0
 10
17.43625
 20
4.84905
 30
0.0
 10
17.40582
 20
4.92137
 30
0.0
 10
17.37495
 20
5.0034
 30
0.0
 10
17.35731
 20
5.10085
 30
0.0
 10
17.35731
 20
5.10085
 30
0.0
 10
17.33967
 20
5.19831
 30
0.0
 10
17.33526
 20
5.3112
 30
0.0
 10
17.33438
 20
5.43467
 30
0.0
 10
17.33438
 20
5.43467
 30
0.0
 10
17.3335
 20
5.55815
 30
0.0
 10
17.33614
 20
5.6922
 30
0.0
 10
17.35599
 20
5.81964
 30
0.0
 10
17.35599
 20
5.81964
 30
0.0
 10
17.37583
 20
5.94709
 30
0.0
 10
17.41288
 20
6.06791
 30
0.0
 10
17.45345
 20
6.16933
 30
0.0
 10
17.45345
 20
6.16933
 30
0.0
 10
17.49402
 20
6.27076
 30
0.0
 10
17.53811
 20
6.35278
 30
0.0
 10
17.5703
 20
6.437
 30
0.0
 10
17.5703
 20
6.437
 30
0.0
 10
17.60249
 20
6.52123
 30
0.0
 10
17.62278
 20
6.60766
 30
0.0
 10
17.63027
 20
6.74127
 30
0.0
 10
17.63027
 20
6.74127
 30
0.0
 10
17.63777
 20
6.87489
 30
0.0
 10
17.63248
 20
7.05569
 30
0.0
 10
17.63336
 20
7.22767
 30
0.0
 10
17.63336
 20
7.22767
 30
0.0
 10
17.63424
 20
7.39965
 30
0.0
 10
17.6413
 20
7.56281
 30
0.0
 10
17.6241
 20
7.70789
 30
0.0
 10
17.6241
 20
7.70789
 30
0.0
 10
17.6069
 20
7.85297
 30
0.0
 10
17.56545
 20
7.97998
 30
0.0
 10
17.52885
 20
8.10786
 30
0.0
 10
17.52885
 20
8.10786
 30
0.0
 10
17.49225
 20
8.23574
 30
0.0
 10
17.4605
 20
8.36451
 30
0.0
 10
17.44507
 20
8.46813
 30
0.0
 10
17.44507
 20
8.46813
 30
0.0
 10
17.42963
 20
8.57176
 30
0.0
 10
17.43051
 20
8.65026
 30
0.0
 10
17.43139
 20
8.72875
 30
0.0
  0
SPLINE
  5
DC
330
1F
100
AcDbEntity
  8
layer 1
 62
   242
370
    20
100
AcDbSpline
210
0.0
220
0.0
230
1.0
 70
     8
 71
     3
 72
    20
 73
    16
 74
     0
 42
0.000000001
 43
0.0000000001
 40
0.0
 40
0.0
 40
0.0
 40
0.0
 40
0.2
 40
0.2
 40
0.2
 40
0.2
 40
0.4
 40
0.4
 40
0.4
 40
0.4
 40
0.6
 40
0.6
 40
0.6
 40
0.6
 40
1.0
 40
1.0
 40
1.0
 40
1.0
 10
17.37848
 20
9.72359
 30
0.0
 10
17.32556
 20
9.63187
 30
0.0
 10
17.27265
 20
9.54014
 30
0.0
 10
17.24311
 20
9.44445
 30
0.0
 10
17.24311
 20
9.44445
 30
0.0
 10
17.21356
 20
9.34876
 30
0.0
 10
17.20738
 20
9.2491
 30
0.0
 10
17.22061
 20
9.15737
 30
0.0
 10
17.22061
 20
9.15737
 30
0.0
 10
17.23384
 20
9.06565
 30
0.0
 10
17.26647
 20
8.98187
 30
0.0
 10
17.30484
 20
8.91175
 30
0.0
 10
17.30484
 20
8.91175
 30
0.0
 10
17.3432
 20
8.84164
 30
0.0
 10
17.38729
 20
8.78519
 30
0.0
 10
17.43139
 20
8.72875
 30
0.0
  0
SPLINE
  5
DD
330
1F
100
AcDbEntity
  8
layer 1
 62
   242
370
    20
100
AcDbSpline
210
0.0
220
0.0
230
1.0
 70
     8
 71
     3
 72
    12
 73
     8
 74
     0
 42
0.000000001
 43
0.0000000001
 40
0.0
 40
0.0
 40
0.0
 40
0.0
 40
0.3333333333333333
 40
0.3333333333333333
 40
0.3333333333333333
 40
0.3333333333333333
 40
1.0
 40
1.0
 40
1.0
 40
1.0
 10
19.50138
 20
12.7601
 30
0.0
 10
19.36437
 20
12.73658
 30
0.0
 10
19.22737
 20
12.71307
 30
0.0
 10
19.11035
 20
12.65853
 30
0.0
 10
19.11035
 20
12.65853
 30
0.0
 10
18.99334
 20
12.604
 30
0.0
 10
18.89633
 20
12.51845
 30
0.0
 10
18.79931
 20
12.4329
 30
0.0
  0
SPLINE
  5
DE
330
1F
100
AcDbEntity
  8
layer 1
 62
   242
370
    20
100
AcDbSpline
210
0.0
220
0.0
230
1.0
 70
     8
 71
     3
 72
    12
 73
     8
 74
     0
 42
0.000000001
 43
0.0000000001
 40
0.0
 40
0.0
 40
0.0
 40
0.0
 40
0.3333333333333333
 40
0.3333333333333333
 40
0.3333333333333333
 40
0.3333333333333333
 40
1.0
 40
1.0
 40
1.0
 40
1.0
 10
17.97646
 20
11.98311
 30
0.0
 10
18.09993
 20
12.07748
 30
0.0
 10
18.2234
 20
12.17185
 30
0.0
 10
18.36054
 20
12.24681
 30
0.0
 10
18.36054
 20
12.24681
 30
0.0
 10
18.49768
 20
12.32178
 30
0.0
 10
18.6485
 20
12.37734
 30
0.0
 10
18.79931
 20
12.4329
 30
0.0
  0
SPLINE
  5
DF
330
1F
100
AcDbEntity
  8
layer 1
 62
   242
370
    20
100
AcDbSpline
210
0.0
220
0.0
230
1.0
 70
     8
 71
     3
 72
    48
 73
    44
 74
     0
 42
0.000000001
 43
0.0000000001
 40
0.0
 40
0.0
 40
0.0
 40
0.0
 40
0.0833333333333333
 40
0.0833333333333333
 40
0.0833333333333333
 40
0.0833333333333333
 40
0.1666666666666667
 40
0.1666666666666667
 40
0.1666666666666667
 40
0.1666666666666667
 40
0.25
 40
0.25
 40
0.25
 40
0.25
 40
0.3333333333333333
 40
0.3333333333333333
 40
0.3333333333333333
 40
0.3333333333333333
 40
0.4166666666666667
 40
0.4166666666666667
 40
0.4166666666666667
 40
0.4166666666666667
 40
0.5
 40
0.5
 40
0.5
 40
0.5
 40
0.5833333333333334
 40
0.5833333333333334
 40
0.5833333333333334
 40
0.5833333333333334
 40
0.6666666666666666
 40
0.6666666666666666
 40
0.6666666666666666
 40
0.6666666666666666
 40
0.75
 40
0.75
 40
0.75
 40
0.75
 40
0.8333333333333334
 40
0.8333333333333334
 40
0.8333333333333334
 40
0.8333333333333334
 40
1.0
 40
1.0
 40
1.0
 40
1.0
 10
17.37848
 20
9.72359
 30
0.0
 10
17.28125
 20
9.85234
 30
0.0
 10
17.18401
 20
9.9811
 30
0.0
 10
17.11423
 20
10.10897
 30
0.0
 10
17.11423
 20
10.10897
 30
0.0
 10
17.04444
 20
10.23685
 30
0.0
 10
17.00211
 20
10.36385
 30
0.0
 10
16.97653
 20
10.47585
 30
0.0
 10
16.97653
 20
10.47585
 30
0.0
 10
16.95095
 20
10.58786
 30
0.0
 10
16.94214
 20
10.68488
 30
0.0
 10
16.93817
 20
10.78983
 30
0.0
 10
16.93817
 20
10.78983
 30
0.0
 10
16.9342
 20
10.89478
 30
0.0
 10
16.93508
 20
11.00767
 30
0.0
 10
16.94787
 20
11.11659
 30
0.0
 10
16.94787
 20
11.11659
 30
0.0
 10
16.96066
 20
11.22551
 30
0.0
 10
16.98535
 20
11.33047
 30
0.0
 10
17.02372
 20
11.42439
 30
0.0
 10
17.02372
 20
11.42439
 30
0.0
 10
17.06208
 20
11.51832
 30
0.0
 10
17.11412
 20
11.60123
 30
0.0
 10
17.17497
 20
11.67663
 30
0.0
 10
17.17497
 20
11.67663
 30
0.0
 10
17.23582
 20
11.75204
 30
0.0
 10
17.3055
 20
11.81995
 30
0.0
 10
17.36239
 20
11.86449
 30
0.0
 10
17.36239
 20
11.86449
 30
0.0
 10
17.41927
 20
11.90903
 30
0.0
 10
17.46336
 20
11.93019
 30
0.0
 10
17.51408
 20
11.94562
 30
0.0
 10
17.51408
 20
11.94562
 30
0.0
 10
17.56479
 20
11.96106
 30
0.0
 10
17.62211
 20
11.97076
 30
0.0
 10
17.68076
 20
11.97649
 30
0.0
 10
17.68076
 20
11.97649
 30
0.0
 10
17.73941
 20
11.98222
 30
0.0
 10
17.79939
 20
11.98399
 30
0.0
 10
17.84889
 20
11.98443
 30
0.0
 10
17.84889
 20
11.98443
 30
0.0
 10
17.89839
 20
11.98487
 30
0.0
 10
17.93743
 20
11.98399
 30
0.0
 10
17.97646
 20
11.98311
 30
0.0
  0
SPLINE
  5
E0
330
1F
100
AcDbEntity
  8
layer 1
 62
   242
370
    20
100
AcDbSpline
210
0.0
220
0.0
230
1.0
 70
     8
 71
     3
 72
    28
 73
    24
 74
     0
 42
0.000000001
 43
0.0000000001
 40
0.0
 40
0.0
 40
0.0
 40
0.0
 40
0.1428571428571428
 40
0.1428571428571428
 40
0.1428571428571428
 40
0.1428571428571428
 40
0.2857142857142857
 40
0.2857142857142857
 40
0.2857142857142857
 40
0.2857142857142857
 40
0.4285714285714285
 40
0.4285714285714285
 40
0.4285714285714285
 40
0.4285714285714285
 40
0.5714285714285714
 40
0.5714285714285714
 40
0.5714285714285714
 40
0.5714285714285714
 40
0.7142857142857143
 40
0.7142857142857143
 40
0.7142857142857143
 40
0.7142857142857143
 40
1.0
 40
1.0
 40
1.0
 40
1.0
 10
18.14249
 20
6.85281
 30
0.0
 10
18.1566
 20
6.93924
 30
0.0
 10
18.17071
 20
7.02567
 30
0.0
 10
18.1663
 20
7.14958
 30
0.0
 10
18.1663
 20
7.14958
 30
0.0
 10
18.16189
 20
7.2735
 30
0.0
 10
18.13896
 20
7.4349
 30
0.0
 10
18.09089
 20
7.61085
 30
0.0
 10
18.09089
 20
7.61085
 30
0.0
 10
18.04283
 20
7.7868
 30
0.0
 10
17.96962
 20
7.9773
 30
0.0
 10
17.92905
 20
8.0871
 30
0.0
 10
17.92905
 20
8.0871
 30
0.0
 10
17.88848
 20
8.1969
 30
0.0
 10
17.88055
 20
8.22601
 30
0.0
 10
17.87393
 20
8.26481
 30
0.0
 10
17.87393
 20
8.26481
 30
0.0
 10
17.86732
 20
8.30362
 30
0.0
 10
17.86203
 20
8.35212
 30
0.0
 10
17.866
 20
8.40636
 30
0.0
 10
17.866
 20
8.40636
 30
0.0
 10
17.86997
 20
8.4606
 30
0.0
 10
17.88319
 20
8.52058
 30
0.0
 10
17.89642
 20
8.58055
 30
0.0
  0
SPLINE
  5
E1
330
1F
100
AcDbEntity
  8
layer 1
 62
   242
370
    20
100
AcDbSpline
210
0.0
220
0.0
230
1.0
 70
     8
 71
     3
 72
    32
 73
    28
 74
     0
 42
0.000000001
 43
0.0000000001
 40
0.0
 40
0.0
 40
0.0
 40
0.0
 40
0.125
 40
0.125
 40
0.125
 40
0.125
 40
0.25
 40
0.25
 40
0.25
 40
0.25
 40
0.375
 40
0.375
 40
0.375
 40
0.375
 40
0.5
 40
0.5
 40
0.5
 40
0.5
 40
0.625
 40
0.625
 40
0.625
 40
0.625
 40
0.75
 40
0.75
 40
0.75
 40
0.75
 40
1.0
 40
1.0
 40
1.0
 40
1.0
 10
17.90701
 20
9.80558
 30
0.0
 10
17.86468
 20
9.75884
 30
0.0
 10
17.82234
 20
9.71209
 30
0.0
 10
17.7853
 20
9.65653
 30
0.0
 10
17.7853
 20
9.65653
 30
0.0
 10
17.74826
 20
9.60097
 30
0.0
 10
17.71651
 20
9.53658
 30
0.0
 10
17.69446
 20
9.47396
 30
0.0
 10
17.69446
 20
9.47396
 30
0.0
 10
17.67241
 20
9.41135
 30
0.0
 10
17.66006
 20
9.35049
 30
0.0
 10
17.65344
 20
9.2839
 30
0.0
 10
17.65344
 20
9.2839
 30
0.0
 10
17.64683
 20
9.21732
 30
0.0
 10
17.64595
 20
9.145
 30
0.0
 10
17.65565
 20
9.07973
 30
0.0
 10
17.65565
 20
9.07973
 30
0.0
 10
17.66535
 20
9.01447
 30
0.0
 10
17.68564
 20
8.95626
 30
0.0
 10
17.71783
 20
8.88835
 30
0.0
 10
17.71783
 20
8.88835
 30
0.0
 10
17.75002
 20
8.82044
 30
0.0
 10
17.79411
 20
8.74283
 30
0.0
 10
17.82586
 20
8.68991
 30
0.0
 10
17.82586
 20
8.68991
 30
0.0
 10
17.85761
 20
8.637
 30
0.0
 10
17.87702
 20
8.60877
 30
0.0
 10
17.89642
 20
8.58055
 30
0.0
  0
SPLINE
  5
E2
330
1F
100
AcDbEntity
  8
layer 1
 62
   242
370
    20
100
AcDbSpline
210
0.0
220
0.0
230
1.0
 70
     8
 71
     3
 72
    12
 73
     8
 74
     0
 42
0.000000001
 43
0.0000000001
 40
0.0
 40
0.0
 40
0.0
 40
0.0
 40
0.3333333333333333
 40
0.3333333333333333
 40
0.3333333333333333
 40
0.3333333333333333
 40
1.0
 40
1.0
 40
1.0
 40
1.0
 10
17.52336
 20
10.16277
 30
0.0
 10
17.56393
 20
10.10191
 30
0.0
 10
17.6045
 20
10.04106
 30
0.0
 10
17.66844
 20
9.98152
 30
0.0
 10
17.66844
 20
9.98152
 30
0.0
 10
17.73238
 20
9.92199
 30
0.0
 10
17.8197
 20
9.86379
 30
0.0
 10
17.90701
 20
9.80558
 30
0.0
  0
SPLINE
  5
E3
330
1F
100
AcDbEntity
  8
layer 1
 62
   242
370
    20
100
AcDbSpline
210
0.0
220
0.0
230
1.0
 70
     8
 71
     3
 72
    12
 73
     8
 74
     0
 42
0.000000001
 43
0.0000000001
 40
0.0
 40
0.0
 40
0.0
 40
0.0
 40
0.3333333333333333
 40
0.3333333333333333
 40
0.3333333333333333
 40
0.3333333333333333
 40
1.0
 40
1.0
 40
1.0
 40
1.0
 10
17.89378
 20
10.15218
 30
0.0
 10
17.83733
 20
10.14072
 30
0.0
 10
17.78089
 20
10.12925
 30
0.0
 10
17.71915
 20
10.13101
 30
0.0
 10
17.71915
 20
10.13101
 30
0.0
 10
17.65741
 20
10.13278
 30
0.0
 10
17.59039
 20
10.14778
 30
0.0
 10
17.52336
 20
10.16277
 30
0.0
  0
SPLINE
  5
E4
330
1F
100
AcDbEntity
  8
layer 1
 62
   242
370
    20
100
AcDbSpline
210
0.0
220
0.0
230
1.0
 70
     8
 71
     3
 72
    20
 73
    16
 74
     0
 42
0.000000001
 43
0.0000000001
 40
0.0
 40
0.0
 40
0.0
 40
0.0
 40
0.2
 40
0.2
 40
0.2
 40
0.2
 40
0.4
 40
0.4
 40
0.4
 40
0.4
 40
0.6
 40
0.6
 40
0.6
 40
0.6
 40
1.0
 40
1.0
 40
1.0
 40
1.0
 10
18.40178
 20
10.10985
 30
0.0
 10
18.36474
 20
10.07722
 30
0.0
 10
18.32769
 20
10.04458
 30
0.0
 10
18.28447
 20
10.02341
 30
0.0
 10
18.28447
 20
10.02341
 30
0.0
 10
18.24126
 20
10.00225
 30
0.0
 10
18.19188
 20
9.99255
 30
0.0
 10
18.14646
 20
9.99211
 30
0.0
 10
18.14646
 20
9.99211
 30
0.0
 10
18.10104
 20
9.99167
 30
0.0
 10
18.05958
 20
10.00049
 30
0.0
 10
18.01813
 20
10.02871
 30
0.0
 10
18.01813
 20
10.02871
 30
0.0
 10
17.97668
 20
10.05693
 30
0.0
 10
17.93523
 20
10.10456
 30
0.0
 10
17.89378
 20
10.15218
 30
0.0
  0
SPLINE
  5
E5
330
1F
100
AcDbEntity
  8
layer 1
 62
   242
370
    20
100
AcDbSpline
210
0.0
220
0.0
230
1.0
 70
     8
 71
     3
 72
    52
 73
    48
 74
     0
 42
0.000000001
 43
0.0000000001
 40
0.0
 40
0.0
 40
0.0
 40
0.0
 40
0.0769230769230769
 40
0.0769230769230769
 40
0.0769230769230769
 40
0.0769230769230769
 40
0.1538461538461539
 40
0.1538461538461539
 40
0.1538461538461539
 40
0.1538461538461539
 40
0.2307692307692308
 40
0.2307692307692308
 40
0.2307692307692308
 40
0.2307692307692308
 40
0.3076923076923077
 40
0.3076923076923077
 40
0.3076923076923077
 40
0.3076923076923077
 40
0.3846153846153846
 40
0.3846153846153846
 40
0.3846153846153846
 40
0.3846153846153846
 40
0.4615384615384616
 40
0.4615384615384616
 40
0.4615384615384616
 40
0.4615384615384616
 40
0.5384615384615384
 40
0.5384615384615384
 40
0.5384615384615384
 40
0.5384615384615384
 40
0.6153846153846154
 40
0.6153846153846154
 40
0.6153846153846154
 40
0.6153846153846154
 40
0.6923076923076923
 40
0.6923076923076923
 40
0.6923076923076923
 40
0.6923076923076923
 40
0.7692307692307693
 40
0.7692307692307693
 40
0.7692307692307693
 40
0.7692307692307693
 40
0.8461538461538461
 40
0.8461538461538461
 40
0.8461538461538461
 40
0.8461538461538461
 40
1.0
 40
1.0
 40
1.0
 40
1.0
 10
18.78278
 20
9.26053
 30
0.0
 10
18.76514
 20
9.22966
 30
0.0
 10
18.7475
 20
9.1988
 30
0.0
 10
18.73736
 20
9.16484
 30
0.0
 10
18.73736
 20
9.16484
 30
0.0
 10
18.72722
 20
9.13089
 30
0.0
 10
18.72457
 20
9.09384
 30
0.0
 10
18.73251
 20
9.059
 30
0.0
 10
18.73251
 20
9.059
 30
0.0
 10
18.74045
 20
9.02417
 30
0.0
 10
18.75897
 20
8.99154
 30
0.0
 10
18.78498
 20
8.96861
 30
0.0
 10
18.78498
 20
8.96861
 30
0.0
 10
18.811
 20
8.94568
 30
0.0
 10
18.84452
 20
8.93245
 30
0.0
 10
18.88685
 20
8.92539
 30
0.0
 10
18.88685
 20
8.92539
 30
0.0
 10
18.92918
 20
8.91834
 30
0.0
 10
18.98034
 20
8.91745
 30
0.0
 10
19.01958
 20
8.93509
 30
0.0
 10
19.01958
 20
8.93509
 30
0.0
 10
19.05883
 20
8.95273
 30
0.0
 10
19.08617
 20
8.98889
 30
0.0
 10
19.10028
 20
9.04048
 30
0.0
 10
19.10028
 20
9.04048
 30
0.0
 10
19.11439
 20
9.09208
 30
0.0
 10
19.11528
 20
9.15911
 30
0.0
 10
19.10337
 20
9.21643
 30
0.0
 10
19.10337
 20
9.21643
 30
0.0
 10
19.09146
 20
9.27376
 30
0.0
 10
19.06677
 20
9.32139
 30
0.0
 10
19.0187
 20
9.39238
 30
0.0
 10
19.0187
 20
9.39238
 30
0.0
 10
18.97063
 20
9.46338
 30
0.0
 10
18.8992
 20
9.55775
 30
0.0
 10
18.81629
 20
9.65829
 30
0.0
 10
18.81629
 20
9.65829
 30
0.0
 10
18.73339
 20
9.75884
 30
0.0
 10
18.63902
 20
9.86555
 30
0.0
 10
18.56802
 20
9.94184
 30
0.0
 10
18.56802
 20
9.94184
 30
0.0
 10
18.49703
 20
10.01813
 30
0.0
 10
18.4494
 20
10.06399
 30
0.0
 10
18.42559
 20
10.08692
 30
0.0
 10
18.42559
 20
10.08692
 30
0.0
 10
18.40178
 20
10.10985
 30
0.0
 10
18.40178
 20
10.10985
 30
0.0
 10
18.40178
 20
10.10985
 30
0.0
  0
SPLINE
  5
E6
330
1F
100
AcDbEntity
  8
layer 1
 62
   242
370
    20
100
AcDbSpline
210
0.0
220
0.0
230
1.0
 70
     8
 71
     3
 72
    12
 73
     8
 74
     0
 42
0.000000001
 43
0.0000000001
 40
0.0
 40
0.0
 40
0.0
 40
0.0
 40
0.3333333333333333
 40
0.3333333333333333
 40
0.3333333333333333
 40
0.3333333333333333
 40
1.0
 40
1.0
 40
1.0
 40
1.0
 10
19.50138
 20
7.22765
 30
0.0
 10
19.45059
 20
7.29232
 30
0.0
 10
19.3998
 20
7.35699
 30
0.0
 10
19.33824
 20
7.42416
 30
0.0
 10
19.33824
 20
7.42416
 30
0.0
 10
19.27669
 20
7.49133
 30
0.0
 10
19.20437
 20
7.56101
 30
0.0
 10
19.13205
 20
7.63068
 30
0.0
  0
SPLINE
  5
E7
330
1F
100
AcDbEntity
  8
layer 1
 62
   242
370
    20
100
AcDbSpline
210
0.0
220
0.0
230
1.0
 70
     8
 71
     3
 72
    20
 73
    16
 74
     0
 42
0.000000001
 43
0.0000000001
 40
0.0
 40
0.0
 40
0.0
 40
0.0
 40
0.2
 40
0.2
 40
0.2
 40
0.2
 40
0.4
 40
0.4
 40
0.4
 40
0.4
 40
0.6
 40
0.6
 40
0.6
 40
0.6
 40
1.0
 40
1.0
 40
1.0
 40
1.0
 10
19.05401
 20
8.46809
 30
0.0
 10
19.01123
 20
8.39092
 30
0.0
 10
18.96845
 20
8.31375
 30
0.0
 10
18.93956
 20
8.23327
 30
0.0
 10
18.93956
 20
8.23327
 30
0.0
 10
18.91068
 20
8.15279
 30
0.0
 10
18.89568
 20
8.06901
 30
0.0
 10
18.89877
 20
8.00418
 30
0.0
 10
18.89877
 20
8.00418
 30
0.0
 10
18.90186
 20
7.93936
 30
0.0
 10
18.92302
 20
7.8935
 30
0.0
 10
18.96491
 20
7.83441
 30
0.0
 10
18.96491
 20
7.83441
 30
0.0
 10
19.00681
 20
7.77532
 30
0.0
 10
19.06943
 20
7.703
 30
0.0
 10
19.13205
 20
7.63068
 30
0.0
  0
SPLINE
  5
E8
330
1F
100
AcDbEntity
  8
layer 1
 62
   242
370
    20
100
AcDbSpline
210
0.0
220
0.0
230
1.0
 70
     8
 71
     3
 72
    32
 73
    28
 74
     0
 42
0.000000001
 43
0.0000000001
 40
0.0
 40
0.0
 40
0.0
 40
0.0
 40
0.125
 40
0.125
 40
0.125
 40
0.125
 40
0.25
 40
0.25
 40
0.25
 40
0.25
 40
0.375
 40
0.375
 40
0.375
 40
0.375
 40
0.5
 40
0.5
 40
0.5
 40
0.5
 40
0.625
 40
0.625
 40
0.625
 40
0.625
 40
0.75
 40
0.75
 40
0.75
 40
0.75
 40
1.0
 40
1.0
 40
1.0
 40
1.0
 10
18.78278
 20
9.26053
 30
0.0
 10
18.69988
 20
9.24377
 30
0.0
 10
18.61699
 20
9.22701
 30
0.0
 10
18.54114
 20
9.17497
 30
0.0
 10
18.54114
 20
9.17497
 30
0.0
 10
18.4653
 20
9.12294
 30
0.0
 10
18.3965
 20
9.03562
 30
0.0
 10
18.36475
 20
8.94698
 30
0.0
 10
18.36475
 20
8.94698
 30
0.0
 10
18.333
 20
8.85835
 30
0.0
 10
18.3383
 20
8.7684
 30
0.0
 10
18.3652
 20
8.68329
 30
0.0
 10
18.3652
 20
8.68329
 30
0.0
 10
18.3921
 20
8.59818
 30
0.0
 10
18.4406
 20
8.51792
 30
0.0
 10
18.49969
 20
8.46765
 30
0.0
 10
18.49969
 20
8.46765
 30
0.0
 10
18.55878
 20
8.41738
 30
0.0
 10
18.62846
 20
8.39709
 30
0.0
 10
18.7021
 20
8.38915
 30
0.0
 10
18.7021
 20
8.38915
 30
0.0
 10
18.77574
 20
8.38122
 30
0.0
 10
18.85335
 20
8.38563
 30
0.0
 10
18.91266
 20
8.40084
 30
0.0
 10
18.91266
 20
8.40084
 30
0.0
 10
18.97198
 20
8.41606
 30
0.0
 10
19.01299
 20
8.44207
 30
0.0
 10
19.05401
 20
8.46809
 30
0.0
  0
SPLINE
  5
E9
330
1F
100
AcDbEntity
  8
layer 1
 62
   242
370
    20
100
AcDbSpline
210
0.0
220
0.0
230
1.0
 70
     8
 71
     3
 72
    24
 73
    20
 74
     0
 42
0.000000001
 43
0.0000000001
 40
0.0
 40
0.0
 40
0.0
 40
0.0
 40
0.1666666666666667
 40
0.1666666666666667
 40
0.1666666666666667
 40
0.1666666666666667
 40
0.3333333333333333
 40
0.3333333333333333
 40
0.3333333333333333
 40
0.3333333333333333
 40
0.5
 40
0.5
 40
0.5
 40
0.5
 40
0.6666666666666666
 40
0.6666666666666666
 40
0.6666666666666666
 40
0.6666666666666666
 40
1.0
 40
1.0
 40
1.0
 40
1.0
 10
18.19278
 20
11.45786
 30
0.0
 10
18.10106
 20
11.43934
 30
0.0
 10
18.00933
 20
11.42081
 30
0.0
 10
17.91628
 20
11.37186
 30
0.0
 10
17.91628
 20
11.37186
 30
0.0
 10
17.82324
 20
11.32292
 30
0.0
 10
17.72888
 20
11.24354
 30
0.0
 10
17.65199
 20
11.15217
 30
0.0
 10
17.65199
 20
11.15217
 30
0.0
 10
17.5751
 20
11.0608
 30
0.0
 10
17.51568
 20
10.95744
 30
0.0
 10
17.48041
 20
10.86351
 30
0.0
 10
17.48041
 20
10.86351
 30
0.0
 10
17.44513
 20
10.76958
 30
0.0
 10
17.43398
 20
10.68509
 30
0.0
 10
17.43106
 20
10.60536
 30
0.0
 10
17.43106
 20
10.60536
 30
0.0
 10
17.42813
 20
10.52563
 30
0.0
 10
17.43342
 20
10.45067
 30
0.0
 10
17.43871
 20
10.3757
 30
0.0
  0
SPLINE
  5
EA
330
1F
100
AcDbEntity
  8
layer 1
 62
   242
370
    20
100
AcDbSpline
210
0.0
220
0.0
230
1.0
 70
     8
 71
     3
 72
    28
 73
    24
 74
     0
 42
0.000000001
 43
0.0000000001
 40
0.0
 40
0.0
 40
0.0
 40
0.0
 40
0.1428571428571428
 40
0.1428571428571428
 40
0.1428571428571428
 40
0.1428571428571428
 40
0.2857142857142857
 40
0.2857142857142857
 40
0.2857142857142857
 40
0.2857142857142857
 40
0.4285714285714285
 40
0.4285714285714285
 40
0.4285714285714285
 40
0.4285714285714285
 40
0.5714285714285714
 40
0.5714285714285714
 40
0.5714285714285714
 40
0.5714285714285714
 40
0.7142857142857143
 40
0.7142857142857143
 40
0.7142857142857143
 40
0.7142857142857143
 40
1.0
 40
1.0
 40
1.0
 40
1.0
 10
17.43871
 20
10.3757
 30
0.0
 10
17.49251
 20
10.39069
 30
0.0
 10
17.54631
 20
10.40569
 30
0.0
 10
17.60055
 20
10.45067
 30
0.0
 10
17.60055
 20
10.45067
 30
0.0
 10
17.65479
 20
10.49565
 30
0.0
 10
17.70947
 20
10.57061
 30
0.0
 10
17.76327
 20
10.67247
 30
0.0
 10
17.76327
 20
10.67247
 30
0.0
 10
17.81707
 20
10.77434
 30
0.0
 10
17.86998
 20
10.90311
 30
0.0
 10
17.91672
 20
11.00277
 30
0.0
 10
17.91672
 20
11.00277
 30
0.0
 10
17.96347
 20
11.10243
 30
0.0
 10
18.00404
 20
11.17298
 30
0.0
 10
18.04637
 20
11.23692
 30
0.0
 10
18.04637
 20
11.23692
 30
0.0
 10
18.08871
 20
11.30087
 30
0.0
 10
18.1328
 20
11.35819
 30
0.0
 10
18.15749
 20
11.39391
 30
0.0
 10
18.15749
 20
11.39391
 30
0.0
 10
18.18219
 20
11.42963
 30
0.0
 10
18.18749
 20
11.44375
 30
0.0
 10
18.19278
 20
11.45786
 30
0.0
  0
SPLINE
  5
EB
330
1F
100
AcDbEntity
  8
layer 1
 62
   242
370
    20
100
AcDbSpline
210
0.0
220
0.0
230
1.0
 70
     8
 71
     3
 72
    24
 73
    20
 74
     0
 42
0.000000001
 43
0.0000000001
 40
0.0
 40
0.0
 40
0.0
 40
0.0
 40
0.1666666666666667
 40
0.1666666666666667
 40
0.1666666666666667
 40
0.1666666666666667
 40
0.3333333333333333
 40
0.3333333333333333
 40
0.3333333333333333
 40
0.3333333333333333
 40
0.5
 40
0.5
 40
0.5
 40
0.5
 40
0.6666666666666666
 40
0.6666666666666666
 40
0.6666666666666666
 40
0.6666666666666666
 40
1.0
 40
1.0
 40
1.0
 40
1.0
 10
19.50138
 20
11.49467
 30
0.0
 10
19.42148
 20
11.55824
 30
0.0
 10
19.34159
 20
11.62182
 30
0.0
 10
19.27209
 20
11.66551
 30
0.0
 10
19.27209
 20
11.66551
 30
0.0
 10
19.2026
 20
11.7092
 30
0.0
 10
19.14351
 20
11.73302
 30
0.0
 10
19.05928
 20
11.74448
 30
0.0
 10
19.05928
 20
11.74448
 30
0.0
 10
18.97506
 20
11.75595
 30
0.0
 10
18.8657
 20
11.75506
 30
0.0
 10
18.77309
 20
11.74448
 30
0.0
 10
18.77309
 20
11.74448
 30
0.0
 10
18.68049
 20
11.7339
 30
0.0
 10
18.60465
 20
11.71361
 30
0.0
 10
18.52836
 20
11.67877
 30
0.0
 10
18.52836
 20
11.67877
 30
0.0
 10
18.45207
 20
11.64394
 30
0.0
 10
18.37534
 20
11.59455
 30
0.0
 10
18.29861
 20
11.54516
 30
0.0
  0
SPLINE
  5
EC
330
1F
100
AcDbEntity
  8
layer 1
 62
   242
370
    20
100
AcDbSpline
210
0.0
220
0.0
230
1.0
 70
     8
 71
     3
 72
    24
 73
    20
 74
     0
 42
0.000000001
 43
0.0000000001
 40
0.0
 40
0.0
 40
0.0
 40
0.0
 40
0.1666666666666667
 40
0.1666666666666667
 40
0.1666666666666667
 40
0.1666666666666667
 40
0.3333333333333333
 40
0.3333333333333333
 40
0.3333333333333333
 40
0.3333333333333333
 40
0.5
 40
0.5
 40
0.5
 40
0.5
 40
0.6666666666666666
 40
0.6666666666666666
 40
0.6666666666666666
 40
0.6666666666666666
 40
1.0
 40
1.0
 40
1.0
 40
1.0
 10
19.3199
 20
12.05581
 30
0.0
 10
19.1929
 20
12.05316
 30
0.0
 10
19.0659
 20
12.05052
 30
0.0
 10
18.96756
 20
12.03949
 30
0.0
 10
18.96756
 20
12.03949
 30
0.0
 10
18.86923
 20
12.02847
 30
0.0
 10
18.79955
 20
12.00906
 30
0.0
 10
18.72943
 20
11.97951
 30
0.0
 10
18.72943
 20
11.97951
 30
0.0
 10
18.65932
 20
11.94997
 30
0.0
 10
18.58877
 20
11.91029
 30
0.0
 10
18.52703
 20
11.86575
 30
0.0
 10
18.52703
 20
11.86575
 30
0.0
 10
18.46529
 20
11.82121
 30
0.0
 10
18.41238
 20
11.77182
 30
0.0
 10
18.37578
 20
11.71758
 30
0.0
 10
18.37578
 20
11.71758
 30
0.0
 10
18.33918
 20
11.66334
 30
0.0
 10
18.31889
 20
11.60425
 30
0.0
 10
18.29861
 20
11.54516
 30
0.0
  0
SPLINE
  5
ED
330
1F
100
AcDbEntity
  8
layer 1
 62
   242
370
    20
100
AcDbSpline
210
0.0
220
0.0
230
1.0
 70
     8
 71
     3
 72
    12
 73
     8
 74
     0
 42
0.000000001
 43
0.0000000001
 40
0.0
 40
0.0
 40
0.0
 40
0.0
 40
0.3333333333333333
 40
0.3333333333333333
 40
0.3333333333333333
 40
0.3333333333333333
 40
1.0
 40
1.0
 40
1.0
 40
1.0
 10
19.50138
 20
12.22689
 30
0.0
 10
19.47352
 20
12.19985
 30
0.0
 10
19.44566
 20
12.17281
 30
0.0
 10
19.41274
 20
12.14424
 30
0.0
 10
19.41274
 20
12.14424
 30
0.0
 10
19.37982
 20
12.11567
 30
0.0
 10
19.34185
 20
12.08557
 30
0.0
 10
19.30387
 20
12.05547
 30
0.0
  0
SPLINE
  5
EE
330
1F
100
AcDbEntity
  8
layer 1
 62
   242
370
    20
100
AcDbSpline
210
0.0
220
0.0
230
1.0
 70
     8
 71
     3
 72
    80
 73
    76
 74
     0
 42
0.000000001
 43
0.0000000001
 40
0.0
 40
0.0
 40
0.0
 40
0.0
 40
0.05
 40
0.05
 40
0.05
 40
0.05
 40
0.1
 40
0.1
 40
0.1
 40
0.1
 40
0.15
 40
0.15
 40
0.15
 40
0.15
 40
0.2
 40
0.2
 40
0.2
 40
0.2
 40
0.25
 40
0.25
 40
0.25
 40
0.25
 40
0.3
 40
0.3
 40
0.3
 40
0.3
 40
0.35
 40
0.35
 40
0.35
 40
0.35
 40
0.4
 40
0.4
 40
0.4
 40
0.4
 40
0.45
 40
0.45
 40
0.45
 40
0.45
 40
0.5
 40
0.5
 40
0.5
 40
0.5
 40
0.55
 40
0.55
 40
0.55
 40
0.55
 40
0.6
 40
0.6
 40
0.6
 40
0.6
 40
0.65
 40
0.65
 40
0.65
 40
0.65
 40
0.7
 40
0.7
 40
0.7
 40
0.7
 40
0.75
 40
0.75
 40
0.75
 40
0.75
 40
0.8
 40
0.8
 40
0.8
 40
0.8
 40
0.85
 40
0.85
 40
0.85
 40
0.85
 40
0.9
 40
0.9
 40
0.9
 40
0.9
 40
1.0
 40
1.0
 40
1.0
 40
1.0
 10
19.49983
 20
9.13217
 30
0.0
 10
19.46455
 20
9.22918
 30
0.0
 10
19.42928
 20
9.3262
 30
0.0
 10
19.37195
 20
9.43467
 30
0.0
 10
19.37195
 20
9.43467
 30
0.0
 10
19.31462
 20
9.54315
 30
0.0
 10
19.23525
 20
9.6631
 30
0.0
 10
19.14617
 20
9.78128
 30
0.0
 10
19.14617
 20
9.78128
 30
0.0
 10
19.05709
 20
9.89946
 30
0.0
 10
18.95832
 20
10.01587
 30
0.0
 10
18.87012
 20
10.12347
 30
0.0
 10
18.87012
 20
10.12347
 30
0.0
 10
18.78193
 20
10.23107
 30
0.0
 10
18.70432
 20
10.32985
 30
0.0
 10
18.6417
 20
10.41981
 30
0.0
 10
18.6417
 20
10.41981
 30
0.0
 10
18.57908
 20
10.50977
 30
0.0
 10
18.53146
 20
10.5909
 30
0.0
 10
18.49882
 20
10.66851
 30
0.0
 10
18.49882
 20
10.66851
 30
0.0
 10
18.46619
 20
10.74612
 30
0.0
 10
18.44855
 20
10.82021
 30
0.0
 10
18.43973
 20
10.88988
 30
0.0
 10
18.43973
 20
10.88988
 30
0.0
 10
18.43091
 20
10.95956
 30
0.0
 10
18.43091
 20
11.02482
 30
0.0
 10
18.45296
 20
11.09626
 30
0.0
 10
18.45296
 20
11.09626
 30
0.0
 10
18.47501
 20
11.1677
 30
0.0
 10
18.51911
 20
11.24531
 30
0.0
 10
18.57114
 20
11.30352
 30
0.0
 10
18.57114
 20
11.30352
 30
0.0
 10
18.62318
 20
11.36173
 30
0.0
 10
18.68315
 20
11.40053
 30
0.0
 10
18.75635
 20
11.42611
 30
0.0
 10
18.75635
 20
11.42611
 30
0.0
 10
18.82955
 20
11.45169
 30
0.0
 10
18.91599
 20
11.46403
 30
0.0
 10
18.98125
 20
11.46226
 30
0.0
 10
18.98125
 20
11.46226
 30
0.0
 10
19.04652
 20
11.4605
 30
0.0
 10
19.09061
 20
11.44463
 30
0.0
 10
19.13735
 20
11.42258
 30
0.0
 10
19.13735
 20
11.42258
 30
0.0
 10
19.1841
 20
11.40053
 30
0.0
 10
19.23349
 20
11.37231
 30
0.0
 10
19.26877
 20
11.32821
 30
0.0
 10
19.26877
 20
11.32821
 30
0.0
 10
19.30405
 20
11.28412
 30
0.0
 10
19.32521
 20
11.22414
 30
0.0
 10
19.33491
 20
11.16593
 30
0.0
 10
19.33491
 20
11.16593
 30
0.0
 10
19.34461
 20
11.10773
 30
0.0
 10
19.34285
 20
11.05128
 30
0.0
 10
19.32609
 20
11.01336
 30
0.0
 10
19.32609
 20
11.01336
 30
0.0
 10
19.30933
 20
10.97544
 30
0.0
 10
19.27758
 20
10.95603
 30
0.0
 10
19.24054
 20
10.9428
 30
0.0
 10
19.24054
 20
10.9428
 30
0.0
 10
19.2035
 20
10.92957
 30
0.0
 10
19.16116
 20
10.92252
 30
0.0
 10
19.12059
 20
10.91987
 30
0.0
 10
19.12059
 20
10.91987
 30
0.0
 10
19.08003
 20
10.91722
 30
0.0
 10
19.04122
 20
10.91899
 30
0.0
 10
19.01123
 20
10.93222
 30
0.0
 10
19.01123
 20
10.93222
 30
0.0
 10
18.98125
 20
10.94545
 30
0.0
 10
18.96009
 20
10.97014
 30
0.0
 10
18.95038
 20
11.00718
 30
0.0
 10
18.95038
 20
11.00718
 30
0.0
 10
18.94068
 20
11.04423
 30
0.0
 10
18.94245
 20
11.09361
 30
0.0
 10
18.94421
 20
11.143
 30
0.0
  0
SPLINE
  5
EF
330
1F
100
AcDbEntity
  8
layer 1
 62
   242
370
    20
100
AcDbSpline
210
0.0
220
0.0
230
1.0
 70
     8
 71
     3
 72
    24
 73
    20
 74
     0
 42
0.000000001
 43
0.0000000001
 40
0.0
 40
0.0
 40
0.0
 40
0.0
 40
0.1666666666666667
 40
0.1666666666666667
 40
0.1666666666666667
 40
0.1666666666666667
 40
0.3333333333333333
 40
0.3333333333333333
 40
0.3333333333333333
 40
0.3333333333333333
 40
0.5
 40
0.5
 40
0.5
 40
0.5
 40
0.6666666666666666
 40
0.6666666666666666
 40
0.6666666666666666
 40
0.6666666666666666
 40
1.0
 40
1.0
 40
1.0
 40
1.0
 10
19.50138
 20
9.69251
 30
0.0
 10
19.46206
 20
9.74209
 30
0.0
 10
19.42274
 20
9.79167
 30
0.0
 10
19.38456
 20
9.8341
 30
0.0
 10
19.38456
 20
9.8341
 30
0.0
 10
19.34638
 20
9.87653
 30
0.0
 10
19.30933
 20
9.91181
 30
0.0
 10
19.26876
 20
9.95591
 30
0.0
 10
19.26876
 20
9.95591
 30
0.0
 10
19.22819
 20
10.00001
 30
0.0
 10
19.1841
 20
10.05292
 30
0.0
 10
19.15852
 20
10.11201
 30
0.0
 10
19.15852
 20
10.11201
 30
0.0
 10
19.13294
 20
10.1711
 30
0.0
 10
19.12589
 20
10.23637
 30
0.0
 10
19.13559
 20
10.30075
 30
0.0
 10
19.13559
 20
10.30075
 30
0.0
 10
19.14529
 20
10.36513
 30
0.0
 10
19.17175
 20
10.42863
 30
0.0
 10
19.19821
 20
10.49213
 30
0.0
  0
SPLINE
  5
F0
330
1F
100
AcDbEntity
  8
layer 1
 62
   242
370
    20
100
AcDbSpline
210
0.0
220
0.0
230
1.0
 70
     8
 71
     3
 72
    28
 73
    24
 74
     0
 42
0.000000001
 43
0.0000000001
 40
0.0
 40
0.0
 40
0.0
 40
0.0
 40
0.1428571428571428
 40
0.1428571428571428
 40
0.1428571428571428
 40
0.1428571428571428
 40
0.2857142857142857
 40
0.2857142857142857
 40
0.2857142857142857
 40
0.2857142857142857
 40
0.4285714285714285
 40
0.4285714285714285
 40
0.4285714285714285
 40
0.4285714285714285
 40
0.5714285714285714
 40
0.5714285714285714
 40
0.5714285714285714
 40
0.5714285714285714
 40
0.7142857142857143
 40
0.7142857142857143
 40
0.7142857142857143
 40
0.7142857142857143
 40
1.0
 40
1.0
 40
1.0
 40
1.0
 10
18.94421
 20
11.143
 30
0.0
 10
18.88776
 20
11.11125
 30
0.0
 10
18.83132
 20
11.0795
 30
0.0
 10
18.78986
 20
11.02835
 30
0.0
 10
18.78986
 20
11.02835
 30
0.0
 10
18.74841
 20
10.9772
 30
0.0
 10
18.72196
 20
10.90664
 30
0.0
 10
18.71666
 20
10.8352
 30
0.0
 10
18.71666
 20
10.8352
 30
0.0
 10
18.71137
 20
10.76377
 30
0.0
 10
18.72725
 20
10.69145
 30
0.0
 10
18.75194
 20
10.63147
 30
0.0
 10
18.75194
 20
10.63147
 30
0.0
 10
18.77664
 20
10.5715
 30
0.0
 10
18.81015
 20
10.52388
 30
0.0
 10
18.86218
 20
10.49918
 30
0.0
 10
18.86218
 20
10.49918
 30
0.0
 10
18.91422
 20
10.47449
 30
0.0
 10
18.98478
 20
10.47272
 30
0.0
 10
19.04387
 20
10.47537
 30
0.0
 10
19.04387
 20
10.47537
 30
0.0
 10
19.10296
 20
10.47802
 30
0.0
 10
19.15058
 20
10.48507
 30
0.0
 10
19.19821
 20
10.49213
 30
0.0
  0
SPLINE
  5
F1
330
1F
100
AcDbEntity
  8
layer 1
 62
   242
370
    20
100
AcDbSpline
210
0.0
220
0.0
230
1.0
 70
     8
 71
     3
 72
    20
 73
    16
 74
     0
 42
0.000000001
 43
0.0000000001
 40
0.0
 40
0.0
 40
0.0
 40
0.0
 40
0.2
 40
0.2
 40
0.2
 40
0.2
 40
0.4
 40
0.4
 40
0.4
 40
0.4
 40
0.6
 40
0.6
 40
0.6
 40
0.6
 40
1.0
 40
1.0
 40
1.0
 40
1.0
 10
19.50138
 20
4.92367
 30
0.0
 10
19.45728
 20
4.97659
 30
0.0
 10
19.41319
 20
5.0295
 30
0.0
 10
19.35983
 20
5.06786
 30
0.0
 10
19.35983
 20
5.06786
 30
0.0
 10
19.30647
 20
5.10623
 30
0.0
 10
19.24385
 20
5.13005
 30
0.0
 10
19.1777
 20
5.14283
 30
0.0
 10
19.1777
 20
5.14283
 30
0.0
 10
19.11156
 20
5.15562
 30
0.0
 10
19.04188
 20
5.15739
 30
0.0
 10
18.98147
 20
5.14063
 30
0.0
 10
18.98147
 20
5.14063
 30
0.0
 10
18.92106
 20
5.12387
 30
0.0
 10
18.8699
 20
5.0886
 30
0.0
 10
18.81875
 20
5.05332
 30
0.0
  0
SPLINE
  5
F2
330
1F
100
AcDbEntity
  8
layer 1
 62
   242
370
    20
100
AcDbSpline
210
0.0
220
0.0
230
1.0
 70
     8
 71
     3
 72
    36
 73
    32
 74
     0
 42
0.000000001
 43
0.0000000001
 40
0.0
 40
0.0
 40
0.0
 40
0.0
 40
0.1111111111111111
 40
0.1111111111111111
 40
0.1111111111111111
 40
0.1111111111111111
 40
0.2222222222222222
 40
0.2222222222222222
 40
0.2222222222222222
 40
0.2222222222222222
 40
0.3333333333333333
 40
0.3333333333333333
 40
0.3333333333333333
 40
0.3333333333333333
 40
0.4444444444444444
 40
0.4444444444444444
 40
0.4444444444444444
 40
0.4444444444444444
 40
0.5555555555555556
 40
0.5555555555555556
 40
0.5555555555555556
 40
0.5555555555555556
 40
0.6666666666666666
 40
0.6666666666666666
 40
0.6666666666666666
 40
0.6666666666666666
 40
0.7777777777777778
 40
0.7777777777777778
 40
0.7777777777777778
 40
0.7777777777777778
 40
1.0
 40
1.0
 40
1.0
 40
1.0
 10
18.27106
 20
4.17226
 30
0.0
 10
18.23578
 20
4.22871
 30
0.0
 10
18.20051
 20
4.28515
 30
0.0
 10
18.17228
 20
4.35835
 30
0.0
 10
18.17228
 20
4.35835
 30
0.0
 10
18.14406
 20
4.43156
 30
0.0
 10
18.1229
 20
4.52151
 30
0.0
 10
18.1176
 20
4.60529
 30
0.0
 10
18.1176
 20
4.60529
 30
0.0
 10
18.11231
 20
4.68908
 30
0.0
 10
18.1229
 20
4.7667
 30
0.0
 10
18.152
 20
4.83637
 30
0.0
 10
18.152
 20
4.83637
 30
0.0
 10
18.1811
 20
4.90604
 30
0.0
 10
18.22873
 20
4.96778
 30
0.0
 10
18.28164
 20
5.01628
 30
0.0
 10
18.28164
 20
5.01628
 30
0.0
 10
18.33456
 20
5.06479
 30
0.0
 10
18.39277
 20
5.10007
 30
0.0
 10
18.45715
 20
5.12388
 30
0.0
 10
18.45715
 20
5.12388
 30
0.0
 10
18.52153
 20
5.1477
 30
0.0
 10
18.59209
 20
5.16004
 30
0.0
 10
18.644
 20
5.15913
 30
0.0
 10
18.644
 20
5.15913
 30
0.0
 10
18.69591
 20
5.15823
 30
0.0
 10
18.72918
 20
5.14406
 30
0.0
 10
18.7552
 20
5.12421
 30
0.0
 10
18.7552
 20
5.12421
 30
0.0
 10
18.78122
 20
5.10437
 30
0.0
 10
18.79998
 20
5.07885
 30
0.0
 10
18.81875
 20
5.05332
 30
0.0
  0
SPLINE
  5
F3
330
1F
100
AcDbEntity
  8
layer 1
 62
   242
370
    20
100
AcDbSpline
210
0.0
220
0.0
230
1.0
 70
     8
 71
     3
 72
    40
 73
    36
 74
     0
 42
0.000000001
 43
0.0000000001
 40
0.0
 40
0.0
 40
0.0
 40
0.0
 40
0.1
 40
0.1
 40
0.1
 40
0.1
 40
0.2
 40
0.2
 40
0.2
 40
0.2
 40
0.3
 40
0.3
 40
0.3
 40
0.3
 40
0.4
 40
0.4
 40
0.4
 40
0.4
 40
0.5
 40
0.5
 40
0.5
 40
0.5
 40
0.6
 40
0.6
 40
0.6
 40
0.6
 40
0.7
 40
0.7
 40
0.7
 40
0.7
 40
0.8
 40
0.8
 40
0.8
 40
0.8
 40
1.0
 40
1.0
 40
1.0
 40
1.0
 10
17.8239
 20
1.14406
 30
0.0
 10
17.88034
 20
1.32398
 30
0.0
 10
17.93679
 20
1.50389
 30
0.0
 10
17.9703
 20
1.67499
 30
0.0
 10
17.9703
 20
1.67499
 30
0.0
 10
18.00381
 20
1.84609
 30
0.0
 10
18.0144
 20
2.00836
 30
0.0
 10
17.99852
 20
2.13713
 30
0.0
 10
17.99852
 20
2.13713
 30
0.0
 10
17.98265
 20
2.26589
 30
0.0
 10
17.94031
 20
2.36114
 30
0.0
 10
17.91209
 20
2.5093
 30
0.0
 10
17.91209
 20
2.5093
 30
0.0
 10
17.88387
 20
2.65747
 30
0.0
 10
17.86976
 20
2.85856
 30
0.0
 10
17.87681
 20
3.042
 30
0.0
 10
17.87681
 20
3.042
 30
0.0
 10
17.88387
 20
3.22545
 30
0.0
 10
17.9121
 20
3.39125
 30
0.0
 10
17.9509
 20
3.54471
 30
0.0
 10
17.9509
 20
3.54471
 30
0.0
 10
17.98971
 20
3.69817
 30
0.0
 10
18.03909
 20
3.83929
 30
0.0
 10
18.09421
 20
3.94182
 30
0.0
 10
18.09421
 20
3.94182
 30
0.0
 10
18.14934
 20
4.04435
 30
0.0
 10
18.2102
 20
4.10831
 30
0.0
 10
18.24063
 20
4.14028
 30
0.0
 10
18.24063
 20
4.14028
 30
0.0
 10
18.27106
 20
4.17226
 30
0.0
 10
18.27106
 20
4.17226
 30
0.0
 10
18.27106
 20
4.17226
 30
0.0
 10
18.27106
 20
4.17226
 30
0.0
 10
18.27106
 20
4.17226
 30
0.0
 10
18.27106
 20
4.17226
 30
0.0
 10
18.27106
 20
4.17226
 30
0.0
  0
SPLINE
  5
F4
330
1F
100
AcDbEntity
  8
layer 1
 62
   242
370
    20
100
AcDbSpline
210
0.0
220
0.0
230
1.0
 70
    24
 71
     3
 72
     8
 73
     4
 74
     0
 42
0.000000001
 43
0.0000000001
 40
0.0
 40
0.0
 40
0.0
 40
0.0
 40
1.0
 40
1.0
 40
1.0
 40
1.0
 10
18.14249
 20
6.85281
 30
0.0
 10
18.14249
 20
6.85281
 30
0.0
 10
20.86027
 20
6.85281
 30
0.0
 10
20.86027
 20
6.85281
 30
0.0
  0
SPLINE
  5
F5
330
1F
100
AcDbEntity
  8
layer 1
 62
   242
370
    20
100
AcDbSpline
210
0.0
220
0.0
230
1.0
 70
    24
 71
     3
 72
     8
 73
     4
 74
     0
 42
0.000000001
 43
0.0000000001
 40
0.0
 40
0.0
 40
0.0
 40
0.0
 40
1.0
 40
1.0
 40
1.0
 40
1.0
 10
21.17886
 20
1.14406
 30
0.0
 10
21.17886
 20
1.14406
 30
0.0
 10
21.59699
 20
1.14406
 30
0.0
 10
21.59699
 20
1.14406
 30
0.0
  0
SPLINE
  5
F6
330
1F
100
AcDbEntity
  8
layer 1
 62
   242
370
    20
100
AcDbSpline
210
0.0
220
0.0
230
1.0
 70
    24
 71
     3
 72
     8
 73
     4
 74
     0
 42
0.000000001
 43
0.0000000001
 40
0.0
 40
0.0
 40
0.0
 40
0.0
 40
1.0
 40
1.0
 40
1.0
 40
1.0
 10
17.8239
 20
1.14406
 30
0.0
 10
17.8239
 20
1.14406
 30
0.0
 10
17.40689
 20
1.14406
 30
0.0
 10
17.40689
 20
1.14406
 30
0.0
  0
SPLINE
  5
F7
330
1F
100
AcDbEntity
  8
layer 1
 62
   242
370
    20
100
AcDbSpline
210
0.0
220
0.0
230
1.0
 70
     8
 71
     3
 72
    68
 73
    64
 74
     0
 42
0.000000001
 43
0.0000000001
 40
0.0
 40
0.0
 40
0.0
 40
0.0
 40
0.0588235294117647
 40
0.0588235294117647
 40
0.0588235294117647
 40
0.0588235294117647
 40
0.1176470588235294
 40
0.1176470588235294
 40
0.1176470588235294
 40
0.1176470588235294
 40
0.1764705882352941
 40
0.1764705882352941
 40
0.1764705882352941
 40
0.1764705882352941
 40
0.2352941176470588
 40
0.2352941176470588
 40
0.2352941176470588
 40
0.2352941176470588
 40
0.2941176470588235
 40
0.2941176470588235
 40
0.2941176470588235
 40
0.2941176470588235
 40
0.3529411764705883
 40
0.3529411764705883
 40
0.3529411764705883
 40
0.3529411764705883
 40
0.4117647058823529
 40
0.4117647058823529
 40
0.4117647058823529
 40
0.4117647058823529
 40
0.4705882352941176
 40
0.4705882352941176
 40
0.4705882352941176
 40
0.4705882352941176
 40
0.5294117647058824
 40
0.5294117647058824
 40
0.5294117647058824
 40
0.5294117647058824
 40
0.5882352941176471
 40
0.5882352941176471
 40
0.5882352941176471
 40
0.5882352941176471
 40
0.6470588235294118
 40
0.6470588235294118
 40
0.6470588235294118
 40
0.6470588235294118
 40
0.7058823529411765
 40
0.7058823529411765
 40
0.7058823529411765
 40
0.7058823529411765
 40
0.7647058823529411
 40
0.7647058823529411
 40
0.7647058823529411
 40
0.7647058823529411
 40
0.8235294117647058
 40
0.8235294117647058
 40
0.8235294117647058
 40
0.8235294117647058
 40
0.8823529411764706
 40
0.8823529411764706
 40
0.8823529411764706
 40
0.8823529411764706
 40
1.0
 40
1.0
 40
1.0
 40
1.0
 10
30.35727
 20
1.14406
 30
0.0
 10
30.31874
 20
1.2778
 30
0.0
 10
30.28022
 20
1.41154
 30
0.0
 10
30.25742
 20
1.5763
 30
0.0
 10
30.25742
 20
1.5763
 30
0.0
 10
30.23463
 20
1.74107
 30
0.0
 10
30.22758
 20
1.93686
 30
0.0
 10
30.23551
 20
2.08811
 30
0.0
 10
30.23551
 20
2.08811
 30
0.0
 10
30.24345
 20
2.23937
 30
0.0
 10
30.26638
 20
2.34608
 30
0.0
 10
30.29592
 20
2.44971
 30
0.0
 10
30.29592
 20
2.44971
 30
0.0
 10
30.32547
 20
2.55334
 30
0.0
 10
30.36163
 20
2.65389
 30
0.0
 10
30.38588
 20
2.76898
 30
0.0
 10
30.38588
 20
2.76898
 30
0.0
 10
30.41014
 20
2.88408
 30
0.0
 10
30.42248
 20
3.01372
 30
0.0
 10
30.42689
 20
3.2051
 30
0.0
 10
30.42689
 20
3.2051
 30
0.0
 10
30.4313
 20
3.39649
 30
0.0
 10
30.42778
 20
3.64961
 30
0.0
 10
30.42116
 20
3.79733
 30
0.0
 10
30.42116
 20
3.79733
 30
0.0
 10
30.41455
 20
3.94506
 30
0.0
 10
30.40485
 20
3.9874
 30
0.0
 10
30.38059
 20
4.06236
 30
0.0
 10
30.38059
 20
4.06236
 30
0.0
 10
30.35634
 20
4.13733
 30
0.0
 10
30.31754
 20
4.24492
 30
0.0
 10
30.28579
 20
4.32606
 30
0.0
 10
30.28579
 20
4.32606
 30
0.0
 10
30.25404
 20
4.4072
 30
0.0
 10
30.22934
 20
4.46188
 30
0.0
 10
30.21567
 20
4.49671
 30
0.0
 10
30.21567
 20
4.49671
 30
0.0
 10
30.202
 20
4.53155
 30
0.0
 10
30.19936
 20
4.54655
 30
0.0
 10
30.20465
 20
4.56904
 30
0.0
 10
30.20465
 20
4.56904
 30
0.0
 10
30.20994
 20
4.59153
 30
0.0
 10
30.22317
 20
4.62151
 30
0.0
 10
30.24477
 20
4.66781
 30
0.0
 10
30.24477
 20
4.66781
 30
0.0
 10
30.26638
 20
4.71412
 30
0.0
 10
30.29637
 20
4.77673
 30
0.0
 10
30.32679
 20
4.84905
 30
0.0
 10
30.32679
 20
4.84905
 30
0.0
 10
30.35722
 20
4.92137
 30
0.0
 10
30.38809
 20
5.0034
 30
0.0
 10
30.40573
 20
5.10085
 30
0.0
 10
30.40573
 20
5.10085
 30
0.0
 10
30.42337
 20
5.19831
 30
0.0
 10
30.42778
 20
5.3112
 30
0.0
 10
30.42866
 20
5.43467
 30
0.0
 10
30.42866
 20
5.43467
 30
0.0
 10
30.42954
 20
5.55815
 30
0.0
 10
30.4269
 20
5.6922
 30
0.0
 10
30.41404
 20
5.79623
 30
0.0
 10
30.41404
 20
5.79623
 30
0.0
 10
30.40119
 20
5.90026
 30
0.0
 10
30.37814
 20
5.97425
 30
0.0
 10
30.35508
 20
6.04825
 30
0.0
  0
SPLINE
  5
F8
330
1F
100
AcDbEntity
  8
layer 1
 62
   242
370
    20
100
AcDbSpline
210
0.0
220
0.0
230
1.0
 70
     8
 71
     3
 72
    20
 73
    16
 74
     0
 42
0.000000001
 43
0.0000000001
 40
0.0
 40
0.0
 40
0.0
 40
0.0
 40
0.2
 40
0.2
 40
0.2
 40
0.2
 40
0.4
 40
0.4
 40
0.4
 40
0.4
 40
0.6
 40
0.6
 40
0.6
 40
0.6
 40
1.0
 40
1.0
 40
1.0
 40
1.0
 10
28.26166
 20
4.92367
 30
0.0
 10
28.30576
 20
4.97659
 30
0.0
 10
28.34985
 20
5.0295
 30
0.0
 10
28.40321
 20
5.06786
 30
0.0
 10
28.40321
 20
5.06786
 30
0.0
 10
28.45657
 20
5.10623
 30
0.0
 10
28.51919
 20
5.13005
 30
0.0
 10
28.58534
 20
5.14283
 30
0.0
 10
28.58534
 20
5.14283
 30
0.0
 10
28.65148
 20
5.15562
 30
0.0
 10
28.72116
 20
5.15739
 30
0.0
 10
28.78157
 20
5.14063
 30
0.0
 10
28.78157
 20
5.14063
 30
0.0
 10
28.84198
 20
5.12387
 30
0.0
 10
28.89314
 20
5.0886
 30
0.0
 10
28.94429
 20
5.05332
 30
0.0
  0
SPLINE
  5
F9
330
1F
100
AcDbEntity
  8
layer 1
 62
   242
370
    20
100
AcDbSpline
210
0.0
220
0.0
230
1.0
 70
     8
 71
     3
 72
    36
 73
    32
 74
     0
 42
0.000000001
 43
0.0000000001
 40
0.0
 40
0.0
 40
0.0
 40
0.0
 40
0.1111111111111111
 40
0.1111111111111111
 40
0.1111111111111111
 40
0.1111111111111111
 40
0.2222222222222222
 40
0.2222222222222222
 40
0.2222222222222222
 40
0.2222222222222222
 40
0.3333333333333333
 40
0.3333333333333333
 40
0.3333333333333333
 40
0.3333333333333333
 40
0.4444444444444444
 40
0.4444444444444444
 40
0.4444444444444444
 40
0.4444444444444444
 40
0.5555555555555556
 40
0.5555555555555556
 40
0.5555555555555556
 40
0.5555555555555556
 40
0.6666666666666666
 40
0.6666666666666666
 40
0.6666666666666666
 40
0.6666666666666666
 40
0.7777777777777778
 40
0.7777777777777778
 40
0.7777777777777778
 40
0.7777777777777778
 40
1.0
 40
1.0
 40
1.0
 40
1.0
 10
29.49198
 20
4.17226
 30
0.0
 10
29.52726
 20
4.22871
 30
0.0
 10
29.56253
 20
4.28515
 30
0.0
 10
29.59076
 20
4.35835
 30
0.0
 10
29.59076
 20
4.35835
 30
0.0
 10
29.61898
 20
4.43156
 30
0.0
 10
29.64014
 20
4.52151
 30
0.0
 10
29.64544
 20
4.60529
 30
0.0
 10
29.64544
 20
4.60529
 30
0.0
 10
29.65073
 20
4.68908
 30
0.0
 10
29.64014
 20
4.7667
 30
0.0
 10
29.61104
 20
4.83637
 30
0.0
 10
29.61104
 20
4.83637
 30
0.0
 10
29.58194
 20
4.90604
 30
0.0
 10
29.53431
 20
4.96778
 30
0.0
 10
29.4814
 20
5.01628
 30
0.0
 10
29.4814
 20
5.01628
 30
0.0
 10
29.42848
 20
5.06479
 30
0.0
 10
29.37027
 20
5.10007
 30
0.0
 10
29.30589
 20
5.12388
 30
0.0
 10
29.30589
 20
5.12388
 30
0.0
 10
29.24151
 20
5.1477
 30
0.0
 10
29.17095
 20
5.16004
 30
0.0
 10
29.11904
 20
5.15913
 30
0.0
 10
29.11904
 20
5.15913
 30
0.0
 10
29.06713
 20
5.15823
 30
0.0
 10
29.03386
 20
5.14406
 30
0.0
 10
29.00784
 20
5.12421
 30
0.0
 10
29.00784
 20
5.12421
 30
0.0
 10
28.98182
 20
5.10437
 30
0.0
 10
28.96306
 20
5.07885
 30
0.0
 10
28.94429
 20
5.05332
 30
0.0
  0
SPLINE
  5
FA
330
1F
100
AcDbEntity
  8
layer 1
 62
   242
370
    20
100
AcDbSpline
210
0.0
220
0.0
230
1.0
 70
     8
 71
     3
 72
    40
 73
    36
 74
     0
 42
0.000000001
 43
0.0000000001
 40
0.0
 40
0.0
 40
0.0
 40
0.0
 40
0.1
 40
0.1
 40
0.1
 40
0.1
 40
0.2
 40
0.2
 40
0.2
 40
0.2
 40
0.3
 40
0.3
 40
0.3
 40
0.3
 40
0.4
 40
0.4
 40
0.4
 40
0.4
 40
0.5
 40
0.5
 40
0.5
 40
0.5
 40
0.6
 40
0.6
 40
0.6
 40
0.6
 40
0.7
 40
0.7
 40
0.7
 40
0.7
 40
0.8
 40
0.8
 40
0.8
 40
0.8
 40
1.0
 40
1.0
 40
1.0
 40
1.0
 10
29.93914
 20
1.14406
 30
0.0
 10
29.8827
 20
1.32398
 30
0.0
 10
29.82625
 20
1.50389
 30
0.0
 10
29.79274
 20
1.67499
 30
0.0
 10
29.79274
 20
1.67499
 30
0.0
 10
29.75923
 20
1.84609
 30
0.0
 10
29.74864
 20
2.00836
 30
0.0
 10
29.76452
 20
2.13713
 30
0.0
 10
29.76452
 20
2.13713
 30
0.0
 10
29.78039
 20
2.26589
 30
0.0
 10
29.82273
 20
2.36114
 30
0.0
 10
29.85095
 20
2.5093
 30
0.0
 10
29.85095
 20
2.5093
 30
0.0
 10
29.87917
 20
2.65747
 30
0.0
 10
29.89328
 20
2.85856
 30
0.0
 10
29.88623
 20
3.042
 30
0.0
 10
29.88623
 20
3.042
 30
0.0
 10
29.87917
 20
3.22545
 30
0.0
 10
29.85094
 20
3.39125
 30
0.0
 10
29.81214
 20
3.54471
 30
0.0
 10
29.81214
 20
3.54471
 30
0.0
 10
29.77333
 20
3.69817
 30
0.0
 10
29.72395
 20
3.83929
 30
0.0
 10
29.66883
 20
3.94182
 30
0.0
 10
29.66883
 20
3.94182
 30
0.0
 10
29.6137
 20
4.04435
 30
0.0
 10
29.55284
 20
4.10831
 30
0.0
 10
29.52241
 20
4.14028
 30
0.0
 10
29.52241
 20
4.14028
 30
0.0
 10
29.49198
 20
4.17226
 30
0.0
 10
29.49198
 20
4.17226
 30
0.0
 10
29.49198
 20
4.17226
 30
0.0
 10
29.49198
 20
4.17226
 30
0.0
 10
29.49198
 20
4.17226
 30
0.0
 10
29.49198
 20
4.17226
 30
0.0
 10
29.49198
 20
4.17226
 30
0.0
  0
SPLINE
  5
FB
330
1F
100
AcDbEntity
  8
layer 1
 62
   242
370
    20
100
AcDbSpline
210
0.0
220
0.0
230
1.0
 70
     8
 71
     3
 72
    68
 73
    64
 74
     0
 42
0.000000001
 43
0.0000000001
 40
0.0
 40
0.0
 40
0.0
 40
0.0
 40
0.0588235294117647
 40
0.0588235294117647
 40
0.0588235294117647
 40
0.0588235294117647
 40
0.1176470588235294
 40
0.1176470588235294
 40
0.1176470588235294
 40
0.1176470588235294
 40
0.1764705882352941
 40
0.1764705882352941
 40
0.1764705882352941
 40
0.1764705882352941
 40
0.2352941176470588
 40
0.2352941176470588
 40
0.2352941176470588
 40
0.2352941176470588
 40
0.2941176470588235
 40
0.2941176470588235
 40
0.2941176470588235
 40
0.2941176470588235
 40
0.3529411764705883
 40
0.3529411764705883
 40
0.3529411764705883
 40
0.3529411764705883
 40
0.4117647058823529
 40
0.4117647058823529
 40
0.4117647058823529
 40
0.4117647058823529
 40
0.4705882352941176
 40
0.4705882352941176
 40
0.4705882352941176
 40
0.4705882352941176
 40
0.5294117647058824
 40
0.5294117647058824
 40
0.5294117647058824
 40
0.5294117647058824
 40
0.5882352941176471
 40
0.5882352941176471
 40
0.5882352941176471
 40
0.5882352941176471
 40
0.6470588235294118
 40
0.6470588235294118
 40
0.6470588235294118
 40
0.6470588235294118
 40
0.7058823529411765
 40
0.7058823529411765
 40
0.7058823529411765
 40
0.7058823529411765
 40
0.7647058823529411
 40
0.7647058823529411
 40
0.7647058823529411
 40
0.7647058823529411
 40
0.8235294117647058
 40
0.8235294117647058
 40
0.8235294117647058
 40
0.8235294117647058
 40
0.8823529411764706
 40
0.8823529411764706
 40
0.8823529411764706
 40
0.8823529411764706
 40
1.0
 40
1.0
 40
1.0
 40
1.0
 10
26.16717
 20
1.14386
 30
0.0
 10
26.20532
 20
1.27767
 30
0.0
 10
26.24348
 20
1.41147
 30
0.0
 10
26.26609
 20
1.57627
 30
0.0
 10
26.26609
 20
1.57627
 30
0.0
 10
26.28869
 20
1.74107
 30
0.0
 10
26.29574
 20
1.93686
 30
0.0
 10
26.28781
 20
2.08811
 30
0.0
 10
26.28781
 20
2.08811
 30
0.0
 10
26.27987
 20
2.23937
 30
0.0
 10
26.25694
 20
2.34608
 30
0.0
 10
26.2274
 20
2.44971
 30
0.0
 10
26.2274
 20
2.44971
 30
0.0
 10
26.19785
 20
2.55334
 30
0.0
 10
26.16169
 20
2.65389
 30
0.0
 10
26.13744
 20
2.76898
 30
0.0
 10
26.13744
 20
2.76898
 30
0.0
 10
26.11318
 20
2.88408
 30
0.0
 10
26.10084
 20
3.01372
 30
0.0
 10
26.09643
 20
3.2051
 30
0.0
 10
26.09643
 20
3.2051
 30
0.0
 10
26.09202
 20
3.39649
 30
0.0
 10
26.09554
 20
3.64961
 30
0.0
 10
26.10216
 20
3.79733
 30
0.0
 10
26.10216
 20
3.79733
 30
0.0
 10
26.10877
 20
3.94506
 30
0.0
 10
26.11847
 20
3.9874
 30
0.0
 10
26.14273
 20
4.06236
 30
0.0
 10
26.14273
 20
4.06236
 30
0.0
 10
26.16698
 20
4.13733
 30
0.0
 10
26.20578
 20
4.24492
 30
0.0
 10
26.23753
 20
4.32606
 30
0.0
 10
26.23753
 20
4.32606
 30
0.0
 10
26.26928
 20
4.4072
 30
0.0
 10
26.29398
 20
4.46188
 30
0.0
 10
26.30765
 20
4.49671
 30
0.0
 10
26.30765
 20
4.49671
 30
0.0
 10
26.32132
 20
4.53155
 30
0.0
 10
26.32396
 20
4.54655
 30
0.0
 10
26.31867
 20
4.56904
 30
0.0
 10
26.31867
 20
4.56904
 30
0.0
 10
26.31338
 20
4.59153
 30
0.0
 10
26.30015
 20
4.62151
 30
0.0
 10
26.27855
 20
4.66781
 30
0.0
 10
26.27855
 20
4.66781
 30
0.0
 10
26.25694
 20
4.71412
 30
0.0
 10
26.22695
 20
4.77673
 30
0.0
 10
26.19653
 20
4.84905
 30
0.0
 10
26.19653
 20
4.84905
 30
0.0
 10
26.1661
 20
4.92137
 30
0.0
 10
26.13523
 20
5.0034
 30
0.0
 10
26.11759
 20
5.10085
 30
0.0
 10
26.11759
 20
5.10085
 30
0.0
 10
26.09995
 20
5.19831
 30
0.0
 10
26.09554
 20
5.3112
 30
0.0
 10
26.09466
 20
5.43467
 30
0.0
 10
26.09466
 20
5.43467
 30
0.0
 10
26.09378
 20
5.55815
 30
0.0
 10
26.09642
 20
5.6922
 30
0.0
 10
26.10927
 20
5.79623
 30
0.0
 10
26.10927
 20
5.79623
 30
0.0
 10
26.12212
 20
5.90026
 30
0.0
 10
26.14518
 20
5.97425
 30
0.0
 10
26.16823
 20
6.04825
 30
0.0
  0
SPLINE
  5
FC
330
1F
100
AcDbEntity
  8
layer 1
 62
   242
370
    20
100
AcDbSpline
210
0.0
220
0.0
230
1.0
 70
     8
 71
     3
 72
    20
 73
    16
 74
     0
 42
0.000000001
 43
0.0000000001
 40
0.0
 40
0.0
 40
0.0
 40
0.0
 40
0.2
 40
0.2
 40
0.2
 40
0.2
 40
0.4
 40
0.4
 40
0.4
 40
0.4
 40
0.6
 40
0.6
 40
0.6
 40
0.6
 40
1.0
 40
1.0
 40
1.0
 40
1.0
 10
28.26166
 20
4.92367
 30
0.0
 10
28.21756
 20
4.97659
 30
0.0
 10
28.17347
 20
5.0295
 30
0.0
 10
28.12011
 20
5.06786
 30
0.0
 10
28.12011
 20
5.06786
 30
0.0
 10
28.06675
 20
5.10623
 30
0.0
 10
28.00413
 20
5.13005
 30
0.0
 10
27.93798
 20
5.14283
 30
0.0
 10
27.93798
 20
5.14283
 30
0.0
 10
27.87184
 20
5.15562
 30
0.0
 10
27.80216
 20
5.15739
 30
0.0
 10
27.74175
 20
5.14063
 30
0.0
 10
27.74175
 20
5.14063
 30
0.0
 10
27.68134
 20
5.12387
 30
0.0
 10
27.63018
 20
5.0886
 30
0.0
 10
27.57903
 20
5.05332
 30
0.0
  0
SPLINE
  5
FD
330
1F
100
AcDbEntity
  8
layer 1
 62
   242
370
    20
100
AcDbSpline
210
0.0
220
0.0
230
1.0
 70
     8
 71
     3
 72
    36
 73
    32
 74
     0
 42
0.000000001
 43
0.0000000001
 40
0.0
 40
0.0
 40
0.0
 40
0.0
 40
0.1111111111111111
 40
0.1111111111111111
 40
0.1111111111111111
 40
0.1111111111111111
 40
0.2222222222222222
 40
0.2222222222222222
 40
0.2222222222222222
 40
0.2222222222222222
 40
0.3333333333333333
 40
0.3333333333333333
 40
0.3333333333333333
 40
0.3333333333333333
 40
0.4444444444444444
 40
0.4444444444444444
 40
0.4444444444444444
 40
0.4444444444444444
 40
0.5555555555555556
 40
0.5555555555555556
 40
0.5555555555555556
 40
0.5555555555555556
 40
0.6666666666666666
 40
0.6666666666666666
 40
0.6666666666666666
 40
0.6666666666666666
 40
0.7777777777777778
 40
0.7777777777777778
 40
0.7777777777777778
 40
0.7777777777777778
 40
1.0
 40
1.0
 40
1.0
 40
1.0
 10
27.03134
 20
4.17226
 30
0.0
 10
26.99606
 20
4.22871
 30
0.0
 10
26.96079
 20
4.28515
 30
0.0
 10
26.93256
 20
4.35835
 30
0.0
 10
26.93256
 20
4.35835
 30
0.0
 10
26.90434
 20
4.43156
 30
0.0
 10
26.88318
 20
4.52151
 30
0.0
 10
26.87788
 20
4.60529
 30
0.0
 10
26.87788
 20
4.60529
 30
0.0
 10
26.87259
 20
4.68908
 30
0.0
 10
26.88318
 20
4.7667
 30
0.0
 10
26.91228
 20
4.83637
 30
0.0
 10
26.91228
 20
4.83637
 30
0.0
 10
26.94138
 20
4.90604
 30
0.0
 10
26.98901
 20
4.96778
 30
0.0
 10
27.04192
 20
5.01628
 30
0.0
 10
27.04192
 20
5.01628
 30
0.0
 10
27.09484
 20
5.06479
 30
0.0
 10
27.15305
 20
5.10007
 30
0.0
 10
27.21743
 20
5.12388
 30
0.0
 10
27.21743
 20
5.12388
 30
0.0
 10
27.28181
 20
5.1477
 30
0.0
 10
27.35237
 20
5.16004
 30
0.0
 10
27.40428
 20
5.15913
 30
0.0
 10
27.40428
 20
5.15913
 30
0.0
 10
27.45619
 20
5.15823
 30
0.0
 10
27.48946
 20
5.14406
 30
0.0
 10
27.51548
 20
5.12421
 30
0.0
 10
27.51548
 20
5.12421
 30
0.0
 10
27.5415
 20
5.10437
 30
0.0
 10
27.56026
 20
5.07885
 30
0.0
 10
27.57903
 20
5.05332
 30
0.0
  0
SPLINE
  5
FE
330
1F
100
AcDbEntity
  8
layer 1
 62
   242
370
    20
100
AcDbSpline
210
0.0
220
0.0
230
1.0
 70
     8
 71
     3
 72
    40
 73
    36
 74
     0
 42
0.000000001
 43
0.0000000001
 40
0.0
 40
0.0
 40
0.0
 40
0.0
 40
0.1
 40
0.1
 40
0.1
 40
0.1
 40
0.2
 40
0.2
 40
0.2
 40
0.2
 40
0.3
 40
0.3
 40
0.3
 40
0.3
 40
0.4
 40
0.4
 40
0.4
 40
0.4
 40
0.5
 40
0.5
 40
0.5
 40
0.5
 40
0.6
 40
0.6
 40
0.6
 40
0.6
 40
0.7
 40
0.7
 40
0.7
 40
0.7
 40
0.8
 40
0.8
 40
0.8
 40
0.8
 40
1.0
 40
1.0
 40
1.0
 40
1.0
 10
26.58418
 20
1.14406
 30
0.0
 10
26.64062
 20
1.32398
 30
0.0
 10
26.69707
 20
1.50389
 30
0.0
 10
26.73058
 20
1.67499
 30
0.0
 10
26.73058
 20
1.67499
 30
0.0
 10
26.76409
 20
1.84609
 30
0.0
 10
26.77468
 20
2.00836
 30
0.0
 10
26.7588
 20
2.13713
 30
0.0
 10
26.7588
 20
2.13713
 30
0.0
 10
26.74293
 20
2.26589
 30
0.0
 10
26.70059
 20
2.36114
 30
0.0
 10
26.67237
 20
2.5093
 30
0.0
 10
26.67237
 20
2.5093
 30
0.0
 10
26.64415
 20
2.65747
 30
0.0
 10
26.63004
 20
2.85856
 30
0.0
 10
26.63709
 20
3.042
 30
0.0
 10
26.63709
 20
3.042
 30
0.0
 10
26.64415
 20
3.22545
 30
0.0
 10
26.67238
 20
3.39125
 30
0.0
 10
26.71118
 20
3.54471
 30
0.0
 10
26.71118
 20
3.54471
 30
0.0
 10
26.74999
 20
3.69817
 30
0.0
 10
26.79937
 20
3.83929
 30
0.0
 10
26.85449
 20
3.94182
 30
0.0
 10
26.85449
 20
3.94182
 30
0.0
 10
26.90962
 20
4.04435
 30
0.0
 10
26.97048
 20
4.10831
 30
0.0
 10
27.00091
 20
4.14028
 30
0.0
 10
27.00091
 20
4.14028
 30
0.0
 10
27.03134
 20
4.17226
 30
0.0
 10
27.03134
 20
4.17226
 30
0.0
 10
27.03134
 20
4.17226
 30
0.0
 10
27.03134
 20
4.17226
 30
0.0
 10
27.03134
 20
4.17226
 30
0.0
 10
27.03134
 20
4.17226
 30
0.0
 10
27.03134
 20
4.17226
 30
0.0
  0
SPLINE
  5
FF
330
1F
100
AcDbEntity
  8
layer 1
 62
   242
370
    20
100
AcDbSpline
210
0.0
220
0.0
230
1.0
 70
    24
 71
     3
 72
     8
 73
     4
 74
     0
 42
0.000000001
 43
0.0000000001
 40
0.0
 40
0.0
 40
0.0
 40
0.0
 40
1.0
 40
1.0
 40
1.0
 40
1.0
 10
29.93914
 20
1.14406
 30
0.0
 10
29.93914
 20
1.14406
 30
0.0
 10
30.35727
 20
1.14406
 30
0.0
 10
30.35727
 20
1.14406
 30
0.0
  0
SPLINE
  5
100
330
1F
100
AcDbEntity
  8
layer 1
 62
   242
370
    20
100
AcDbSpline
210
0.0
220
0.0
230
1.0
 70
    24
 71
     3
 72
     8
 73
     4
 74
     0
 42
0.000000001
 43
0.0000000001
 40
0.0
 40
0.0
 40
0.0
 40
0.0
 40
1.0
 40
1.0
 40
1.0
 40
1.0
 10
26.58418
 20
1.14406
 30
0.0
 10
26.58418
 20
1.14406
 30
0.0
 10
26.16717
 20
1.14406
 30
0.0
 10
26.16717
 20
1.14406
 30
0.0
  0
SPLINE
  5
101
330
1F
100
AcDbEntity
  8
layer 1
 62
   242
370
    20
100
AcDbSpline
210
0.0
220
0.0
230
1.0
 70
    24
 71
     3
 72
     8
 73
     4
 74
     0
 42
0.000000001
 43
0.0000000001
 40
0.0
 40
0.0
 40
0.0
 40
0.0
 40
1.0
 40
1.0
 40
1.0
 40
1.0
 10
26.16823
 20
6.04825
 30
0.0
 10
26.16823
 20
6.04825
 30
0.0
 10
30.35508
 20
6.04825
 30
0.0
 10
30.35508
 20
6.04825
 30
0.0
  0
ENDSEC
  0
SECTION
  2
OBJECTS
  0
DICTIONARY
  5
C
330
0
100
AcDbDictionary
281
     1
  3
ACAD_DETAILVIEWSTYLE
350
13D
  3
ACAD_GROUP
350
D
  3
ACAD_IMAGE_DICT
350
70
  3
ACAD_LAYOUT
350
1A
  3
ACAD_MATERIAL
350
43
  3
ACAD_MLEADERSTYLE
350
6B
  3
ACAD_MLINESTYLE
350
17
  3
ACAD_PLOTSETTINGS
350
19
  3
ACAD_PLOTSTYLENAME
350
E
  3
ACAD_SCALELIST
350
47
  3
ACAD_SECTIONVIEWSTYLE
350
13E
  3
ACAD_TABLESTYLE
350
69
  3
ACAD_VISUALSTYLE
350
2A
  3
ACDB_RECOMPOSE_DATA
350
13A
  3
AcDbVariableDictionary
350
102
  0
SUN
  5
6D
330
29
100
AcDbSun
 90
        1
290
     0
 63
     7
421
 16777215
 40
1.0
291
     1
 91
  2455826
 92
 54000000
292
     0
 70
     2
 71
   256
280
     1
  0
IMAGEDEF_REACTOR
  5
73
330
72
100
AcDbRasterImageDefReactor
 90
        2
330
72
  0
DICTIONARY
  5
13D
102
{ACAD_REACTORS
330
C
102
}
330
C
100
AcDbDictionary
281
     1
  0
DICTIONARY
  5
D
102
{ACAD_REACTORS
330
C
102
}
330
C
100
AcDbDictionary
281
     1
  0
DICTIONARY
  5
70
102
{ACAD_REACTORS
330
C
102
}
330
C
100
AcDbDictionary
281
     1
  3
Image #1
350
71
  0
DICTIONARY
  5
1A
102
{ACAD_REACTORS
330
C
102
}
330
C
100
AcDbDictionary
281
     1
  3
Layout1
350
1E
  3
Layout2
350
26
  3
Model
350
22
  0
DICTIONARY
  5
43
102
{ACAD_REACTORS
330
C
102
}
330
C
100
AcDbDictionary
281
     1
  3
ByBlock
350
45
  3
ByLayer
350
44
  3
Global
350
46
  0
DICTIONARY
  5
6B
102
{ACAD_REACTORS
330
C
102
}
330
C
100
AcDbDictionary
281
     1
  3
Standard
350
6C
  0
DICTIONARY
  5
17
102
{ACAD_REACTORS
330
C
102
}
330
C
100
AcDbDictionary
281
     1
  3
Standard
350
18
  0
DICTIONARY
  5
19
102
{ACAD_REACTORS
330
C
102
}
330
C
100
AcDbDictionary
281
     1
  0
ACDBDICTIONARYWDFLT
  5
E
102
{ACAD_REACTORS
330
C
102
}
330
C
100
AcDbDictionary
281
     1
  3
Normal
350
F
100
AcDbDictionaryWithDefault
340
F
  0
DICTIONARY
  5
47
102
{ACAD_REACTORS
330
C
102
}
330
C
100
AcDbDictionary
281
     1
  3
A0
350
48
  3
A1
350
49
  3
A2
350
4A
  3
A3
350
4B
  3
A4
350
4C
  3
A5
350
4D
  3
A6
350
4E
  3
A7
350
4F
  3
A8
350
50
  3
A9
350
51
  3
B0
350
52
  3
B1
350
53
  3
B2
350
54
  3
B3
350
55
  3
B4
350
56
  3
B5
350
57
  3
B6
350
58
  3
B7
350
59
  3
B8
350
5A
  3
B9
350
5B
  3
C0
350
5C
  3
C1
350
5D
  3
C2
350
5E
  3
C3
350
5F
  3
C4
350
60
  3
C5
350
61
  3
C6
350
62
  3
C7
350
63
  3
C8
350
64
  3
C9
350
65
  3
D0
350
66
  3
D1
350
67
  3
D2
350
68
  0
DICTIONARY
  5
13E
102
{ACAD_REACTORS
330
C
102
}
330
C
100
AcDbDictionary
281
     1
  0
DICTIONARY
  5
69
102
{ACAD_REACTORS
330
C
102
}
330
C
100
AcDbDictionary
281
     1
  3
Standard
350
6A
  0
DICTIONARY
  5
2A
102
{ACAD_REACTORS
330
C
102
}
330
C
100
AcDbDictionary
281
     1
  3
2dWireframe
350
2F
  3
Basic
350
32
  3
Brighten
350
36
  3
ColorChange
350
3A
  3
Conceptual
350
34
  3
Dim
350
35
  3
EdgeColorOff
350
3D
  3
Facepattern
350
39
  3
Flat
350
2B
  3
FlatWithEdges
350
2C
  3
Gouraud
350
2D
  3
GouraudWithEdges
350
2E
  3
Hidden
350
31
  3
JitterOff
350
3B
  3
Linepattern
350
38
  3
OverhangOff
350
3C
  3
Realistic
350
33
  3
Shaded
350
42
  3
Shaded with edges
350
41
  3
Shades of Gray
350
3E
  3
Sketchy
350
3F
  3
Thicken
350
37
  3
Wireframe
350
30
  3
X-Ray
350
40
  0
XRECORD
  5
13A
102
{ACAD_REACTORS
330
C
102
}
330
C
100
AcDbXrecord
280
     1
 90
        1
330
6A
  0
DICTIONARY
  5
102
102
{ACAD_REACTORS
330
C
102
}
330
C
100
AcDbDictionary
281
     1
  3
CANNOSCALE
350
103
  3
CMLEADERSTYLE
350
13C
  3
CTABLESTYLE
350
13B
  3
XCLIPFRAME
350
104
  0
IMAGEDEF
  5
71
102
{ACAD_REACTORS
330
70
330
73
102
}
330
70
100
AcDbRasterImageDef
 90
        0
  1
C:\\Users\\srn\\Google Drive\\Заказы\\Стульчик\\Стульчик_ACD_0.jpg
 10
343.0
 20
343.0
 11
0.002915451895043732
 21
0.002915451895043732
280
     1
281
     5
  0
LAYOUT
  5
1E
102
{ACAD_REACTORS
330
1A
102
}
330
1A
100
AcDbPlotSettings
  1

  2
none_device
  4

  6

 40
0.0
 41
0.0
 42
0.0
 43
0.0
 44
0.0
 45
0.0
 46
0.0
 47
0.0
 48
0.0
 49
0.0
140
0.0
141
0.0
142
1.0
143
1.0
 70
   688
 72
     0
 73
     0
 74
     5
  7

 75
    16
 76
     0
 77
     2
 78
   300
147
1.0
148
0.0
149
0.0
100
AcDbLayout
  1
Layout1
 70
     1
 71
     1
 10
0.0
 20
0.0
 11
12.0
 21
9.0
 12
0.0
 22
0.0
 32
0.0
 14
1.000000000000000E+20
 24
1.000000000000000E+20
 34
1.000000000000000E+20
 15
-1.000000000000000E+20
 25
-1.000000000000000E+20
 35
-1.000000000000000E+20
146
0.0
 13
0.0
 23
0.0
 33
0.0
 16
1.0
 26
0.0
 36
0.0
 17
0.0
 27
1.0
 37
0.0
 76
     0
330
1B
  0
LAYOUT
  5
26
102
{ACAD_REACTORS
330
1A
102
}
330
1A
100
AcDbPlotSettings
  1

  2
none_device
  4

  6

 40
0.0
 41
0.0
 42
0.0
 43
0.0
 44
0.0
 45
0.0
 46
0.0
 47
0.0
 48
0.0
 49
0.0
140
0.0
141
0.0
142
1.0
143
1.0
 70
   688
 72
     0
 73
     0
 74
     5
  7

 75
    16
 76
     0
 77
     2
 78
   300
147
1.0
148
0.0
149
0.0
100
AcDbLayout
  1
Layout2
 70
     1
 71
     2
 10
0.0
 20
0.0
 11
0.0
 21
0.0
 12
0.0
 22
0.0
 32
0.0
 14
0.0
 24
0.0
 34
0.0
 15
0.0
 25
0.0
 35
0.0
146
0.0
 13
0.0
 23
0.0
 33
0.0
 16
1.0
 26
0.0
 36
0.0
 17
0.0
 27
1.0
 37
0.0
 76
     0
330
23
  0
LAYOUT
  5
22
102
{ACAD_REACTORS
330
1A
102
}
330
1A
100
AcDbPlotSettings
  1

  2
none_device
  4
Letter_(8.50_x_11.00_Inches)
  6

 40
6.35
 41
6.35
 42
6.35000508
 43
6.35000508
 44
215.9
 45
279.4
 46
0.0
 47
0.0
 48
0.0
 49
0.0
140
0.0
141
0.0
142
1.0
143
1.0
 70
  1712
 72
     0
 73
     0
 74
     0
  7

 75
     0
 76
     0
 77
     2
 78
   300
147
1.0
148
0.0
149
0.0
100
AcDbLayout
  1
Model
 70
     1
 71
     0
 10
0.0
 20
0.0
 11
12.0
 21
9.0
 12
0.0
 22
0.0
 32
0.0
 14
-8.26811
 24
-1.65361
 34
0.0
 15
35.35645
 25
12.83305
 35
0.0
146
0.0
 13
0.0
 23
0.0
 33
0.0
 16
1.0
 26
0.0
 36
0.0
 17
0.0
 27
1.0
 37
0.0
 76
     0
330
1F
331
29
  0
MATERIAL
  5
45
102
{ACAD_REACTORS
330
43
102
}
330
43
100
AcDbMaterial
  1
ByBlock
 72
     1
 94
      127
  0
MATERIAL
  5
44
102
{ACAD_REACTORS
330
43
102
}
330
43
100
AcDbMaterial
  1
ByLayer
 72
     1
 94
      127
  0
MATERIAL
  5
46
102
{ACAD_REACTORS
330
43
102
}
330
43
100
AcDbMaterial
  1
Global
 72
     1
 94
      127
  0
MLEADERSTYLE
  5
6C
102
{ACAD_REACTORS
330
6B
102
}
102
{ACAD_XDICTIONARY
360
138
102
}
330
6B
100
AcDbMLeaderStyle
170
     2
171
     1
172
     0
 90
        2
 40
0.0
 41
0.0
173
     1
 91
-1056964608
340
14
 92
       -2
290
     1
 42
0.09
291
     1
 43
0.36
  3
Standard
341
0
 44
0.18
300

342
11
174
     1
178
     6
175
     1
176
     0
 93
-1056964608
 45
0.18
292
     0
297
     0
 46
0.18
343
0
 94
-1056964608
 47
1.0
 49
1.0
140
1.0
293
     1
141
0.0
294
     1
177
     0
142
1.0
295
     0
296
     0
143
0.125
1001
ACAD_MLEADERVER
1070
     2
  0
MLINESTYLE
  5
18
102
{ACAD_REACTORS
330
17
102
}
330
17
100
AcDbMlineStyle
  2
Standard
 70
     0
  3

 62
   256
 51
90.0
 52
90.0
 71
     2
 49
0.5
 62
   256
  6
BYLAYER
 49
-0.5
 62
   256
  6
BYLAYER
  0
ACDBPLACEHOLDER
  5
F
102
{ACAD_REACTORS
330
E
102
}
330
E
  0
SCALE
  5
48
102
{ACAD_REACTORS
330
47
102
}
330
47
100
AcDbScale
 70
     0
300
1:1
140
1.0
141
1.0
290
     1
  0
SCALE
  5
49
102
{ACAD_REACTORS
330
47
102
}
330
47
100
AcDbScale
 70
     0
300
1:2
140
1.0
141
2.0
290
     0
  0
SCALE
  5
4A
102
{ACAD_REACTORS
330
47
102
}
330
47
100
AcDbScale
 70
     0
300
1:4
140
1.0
141
4.0
290
     0
  0
SCALE
  5
4B
102
{ACAD_REACTORS
330
47
102
}
330
47
100
AcDbScale
 70
     0
300
1:5
140
1.0
141
5.0
290
     0
  0
SCALE
  5
4C
102
{ACAD_REACTORS
330
47
102
}
330
47
100
AcDbScale
 70
     0
300
1:8
140
1.0
141
8.0
290
     0
  0
SCALE
  5
4D
102
{ACAD_REACTORS
330
47
102
}
330
47
100
AcDbScale
 70
     0
300
1:10
140
1.0
141
10.0
290
     0
  0
SCALE
  5
4E
102
{ACAD_REACTORS
330
47
102
}
330
47
100
AcDbScale
 70
     0
300
1:16
140
1.0
141
16.0
290
     0
  0
SCALE
  5
4F
102
{ACAD_REACTORS
330
47
102
}
330
47
100
AcDbScale
 70
     0
300
1:20
140
1.0
141
20.0
290
     0
  0
SCALE
  5
50
102
{ACAD_REACTORS
330
47
102
}
330
47
100
AcDbScale
 70
     0
300
1:30
140
1.0
141
30.0
290
     0
  0
SCALE
  5
51
102
{ACAD_REACTORS
330
47
102
}
330
47
100
AcDbScale
 70
     0
300
1:40
140
1.0
141
40.0
290
     0
  0
SCALE
  5
52
102
{ACAD_REACTORS
330
47
102
}
330
47
100
AcDbScale
 70
     0
300
1:50
140
1.0
141
50.0
290
     0
  0
SCALE
  5
53
102
{ACAD_REACTORS
330
47
102
}
330
47
100
AcDbScale
 70
     0
300
1:100
140
1.0
141
100.0
290
     0
  0
SCALE
  5
54
102
{ACAD_REACTORS
330
47
102
}
330
47
100
AcDbScale
 70
     0
300
2:1
140
2.0
141
1.0
290
     0
  0
SCALE
  5
55
102
{ACAD_REACTORS
330
47
102
}
330
47
100
AcDbScale
 70
     0
300
4:1
140
4.0
141
1.0
290
     0
  0
SCALE
  5
56
102
{ACAD_REACTORS
330
47
102
}
330
47
100
AcDbScale
 70
     0
300
8:1
140
8.0
141
1.0
290
     0
  0
SCALE
  5
57
102
{ACAD_REACTORS
330
47
102
}
330
47
100
AcDbScale
 70
     0
300
10:1
140
10.0
141
1.0
290
     0
  0
SCALE
  5
58
102
{ACAD_REACTORS
330
47
102
}
330
47
100
AcDbScale
 70
     0
300
100:1
140
100.0
141
1.0
290
     0
  0
SCALE
  5
59
102
{ACAD_REACTORS
330
47
102
}
330
47
100
AcDbScale
 70
     0
300
1/128\" = 1\'-0\"
140
0.0078125
141
12.0
290
     0
  0
SCALE
  5
5A
102
{ACAD_REACTORS
330
47
102
}
330
47
100
AcDbScale
 70
     0
300
1/64\" = 1\'-0\"
140
0.015625
141
12.0
290
     0
  0
SCALE
  5
5B
102
{ACAD_REACTORS
330
47
102
}
330
47
100
AcDbScale
 70
     0
300
1/32\" = 1\'-0\"
140
0.03125
141
12.0
290
     0
  0
SCALE
  5
5C
102
{ACAD_REACTORS
330
47
102
}
330
47
100
AcDbScale
 70
     0
300
1/16\" = 1\'-0\"
140
0.0625
141
12.0
290
     0
  0
SCALE
  5
5D
102
{ACAD_REACTORS
330
47
102
}
330
47
100
AcDbScale
 70
     0
300
3/32\" = 1\'-0\"
140
0.09375
141
12.0
290
     0
  0
SCALE
  5
5E
102
{ACAD_REACTORS
330
47
102
}
330
47
100
AcDbScale
 70
     0
300
1/8\" = 1\'-0\"
140
0.125
141
12.0
290
     0
  0
SCALE
  5
5F
102
{ACAD_REACTORS
330
47
102
}
330
47
100
AcDbScale
 70
     0
300
3/16\" = 1\'-0\"
140
0.1875
141
12.0
290
     0
  0
SCALE
  5
60
102
{ACAD_REACTORS
330
47
102
}
330
47
100
AcDbScale
 70
     0
300
1/4\" = 1\'-0\"
140
0.25
141
12.0
290
     0
  0
SCALE
  5
61
102
{ACAD_REACTORS
330
47
102
}
330
47
100
AcDbScale
 70
     0
300
3/8\" = 1\'-0\"
140
0.375
141
12.0
290
     0
  0
SCALE
  5
62
102
{ACAD_REACTORS
330
47
102
}
330
47
100
AcDbScale
 70
     0
300
1/2\" = 1\'-0\"
140
0.5
141
12.0
290
     0
  0
SCALE
  5
63
102
{ACAD_REACTORS
330
47
102
}
330
47
100
AcDbScale
 70
     0
300
3/4\" = 1\'-0\"
140
0.75
141
12.0
290
     0
  0
SCALE
  5
64
102
{ACAD_REACTORS
330
47
102
}
330
47
100
AcDbScale
 70
     0
300
1\" = 1\'-0\"
140
1.0
141
12.0
290
     0
  0
SCALE
  5
65
102
{ACAD_REACTORS
330
47
102
}
330
47
100
AcDbScale
 70
     0
300
1-1/2\" = 1\'-0\"
140
1.5
141
12.0
290
     0
  0
SCALE
  5
66
102
{ACAD_REACTORS
330
47
102
}
330
47
100
AcDbScale
 70
     0
300
3\" = 1\'-0\"
140
3.0
141
12.0
290
     0
  0
SCALE
  5
67
102
{ACAD_REACTORS
330
47
102
}
330
47
100
AcDbScale
 70
     0
300
6\" = 1\'-0\"
140
6.0
141
12.0
290
     0
  0
SCALE
  5
68
102
{ACAD_REACTORS
330
47
102
}
330
47
100
AcDbScale
 70
     0
300
1\'-0\" = 1\'-0\"
140
12.0
141
12.0
290
     0
  0
TABLESTYLE
  5
6A
102
{ACAD_REACTORS
330
69
102
}
102
{ACAD_XDICTIONARY
360
135
102
}
330
69
100
AcDbTableStyle
  3
Standard
 70
     0
 71
     0
 40
0.06
 41
0.06
280
     0
281
     0
  7
Standard
140
0.18
170
     2
 62
     0
 63
   257
283
     0
 90
        4
 91
        0
  1

274
    -2
284
     1
 64
     0
275
    -2
285
     1
 65
     0
276
    -2
286
     1
 66
     0
277
    -2
287
     1
 67
     0
278
    -2
288
     1
 68
     0
279
    -2
289
     1
 69
     0
  7
Standard
140
0.25
170
     5
 62
     0
 63
   257
283
     0
 90
        4
 91
        0
  1

274
    -2
284
     1
 64
     0
275
    -2
285
     1
 65
     0
276
    -2
286
     1
 66
     0
277
    -2
287
     1
 67
     0
278
    -2
288
     1
 68
     0
279
    -2
289
     1
 69
     0
  7
Standard
140
0.18
170
     5
 62
     0
 63
   257
283
     0
 90
        4
 91
        0
  1

274
    -2
284
     1
 64
     0
275
    -2
285
     1
 65
     0
276
    -2
286
     1
 66
     0
277
    -2
287
     1
 67
     0
278
    -2
288
     1
 68
     0
279
    -2
289
     1
 69
     0
  0
VISUALSTYLE
  5
2F
102
{ACAD_REACTORS
330
2A
102
}
102
{ACAD_XDICTIONARY
360
10D
102
}
330
2A
100
AcDbVisualStyle
  2
2dWireframe
 70
     4
 71
     0
 72
     2
 73
     0
 90
        0
 40
0.6
 41
30.0
 62
     5
 63
     7
421
 16777215
 74
     1
 91
        4
 64
     7
 65
   257
 75
     1
175
     1
 42
1.0
 92
        0
 66
   257
 43
1.0
 76
     1
 77
     6
 78
     2
 67
     7
 79
     5
170
     0
171
     0
290
     0
174
     0
 93
        1
 44
0.0
173
     0
291
     0
 45
0.0
  0
VISUALSTYLE
  5
32
102
{ACAD_REACTORS
330
2A
102
}
102
{ACAD_XDICTIONARY
360
113
102
}
330
2A
100
AcDbVisualStyle
  2
Basic
 70
     7
 71
     1
 72
     0
 73
     1
 90
        0
 40
0.6
 41
30.0
 62
     5
 63
     7
421
 16777215
 74
     0
 91
        4
 64
     7
 65
   257
 75
     1
175
     1
 42
1.0
 92
        8
 66
     7
 43
1.0
 76
     1
 77
     6
 78
     2
 67
     7
 79
     5
170
     0
171
     0
290
     0
174
     0
 93
        1
 44
0.0
173
     0
291
     1
 45
0.0
  0
VISUALSTYLE
  5
36
102
{ACAD_REACTORS
330
2A
102
}
102
{ACAD_XDICTIONARY
360
11B
102
}
330
2A
100
AcDbVisualStyle
  2
Brighten
 70
    12
 71
     2
 72
     2
 73
     0
 90
        0
 40
0.6
 41
30.0
 62
     5
 63
     7
421
 16777215
 74
     1
 91
        4
 64
     7
 65
   257
 75
     1
175
     1
 42
1.0
 92
        8
 66
     7
 43
1.0
 76
     1
 77
     6
 78
     2
 67
     7
 79
     5
170
     0
171
     0
290
     0
174
     0
 93
        1
 44
50.0
173
     0
291
     1
 45
0.0
  0
VISUALSTYLE
  5
3A
102
{ACAD_REACTORS
330
2A
102
}
102
{ACAD_XDICTIONARY
360
123
102
}
330
2A
100
AcDbVisualStyle
  2
ColorChange
 70
    16
 71
     2
 72
     2
 73
     3
 90
        0
 40
0.6
 41
30.0
 62
     5
 63
     8
421
  8421504
 74
     1
 91
        4
 64
     7
 65
   257
 75
     1
175
     1
 42
1.0
 92
        8
 66
     8
424
  8421504
 43
1.0
 76
     1
 77
     6
 78
     2
 67
     7
 79
     5
170
     0
171
     0
290
     0
174
     0
 93
        1
 44
0.0
173
     0
291
     1
 45
0.0
  0
VISUALSTYLE
  5
34
102
{ACAD_REACTORS
330
2A
102
}
102
{ACAD_XDICTIONARY
360
117
102
}
330
2A
100
AcDbVisualStyle
  2
Conceptual
 70
     9
 71
     3
 72
     2
 73
     0
 90
        0
 40
0.6
 41
30.0
 62
     5
 63
     7
421
 16777215
 74
     2
 91
        2
 64
     7
 65
   257
 75
     1
175
     1
 42
179.0
 92
        8
 66
     7
 43
1.0
 76
     1
 77
     6
 78
     2
 67
     7
 79
     3
170
     0
171
     0
290
     0
174
     0
 93
        1
 44
0.0
173
     0
291
     0
 45
0.0
  0
VISUALSTYLE
  5
35
102
{ACAD_REACTORS
330
2A
102
}
102
{ACAD_XDICTIONARY
360
119
102
}
330
2A
100
AcDbVisualStyle
  2
Dim
 70
    11
 71
     2
 72
     2
 73
     0
 90
        0
 40
0.6
 41
30.0
 62
     5
 63
     7
421
 16777215
 74
     1
 91
        4
 64
     7
 65
   257
 75
     1
175
     1
 42
1.0
 92
        8
 66
     7
 43
1.0
 76
     1
 77
     6
 78
     2
 67
     7
 79
     5
170
     0
171
     0
290
     0
174
     0
 93
        1
 44
-50.0
173
     0
291
     1
 45
0.0
  0
VISUALSTYLE
  5
3D
102
{ACAD_REACTORS
330
2A
102
}
102
{ACAD_XDICTIONARY
360
129
102
}
330
2A
100
AcDbVisualStyle
  2
EdgeColorOff
 70
    22
 71
     2
 72
     2
 73
     0
 90
        0
 40
0.6
 41
30.0
 62
     5
 63
     7
421
 16777215
 74
     1
 91
        4
 64
     7
 65
   257
 75
     1
175
     1
 42
1.0
 92
        8
 66
     7
 43
1.0
 76
     1
 77
     6
 78
     2
 67
     7
 79
     5
170
     0
171
     0
290
     0
174
     0
 93
        1
 44
0.0
173
     0
291
     1
 45
0.0
  0
VISUALSTYLE
  5
39
102
{ACAD_REACTORS
330
2A
102
}
102
{ACAD_XDICTIONARY
360
121
102
}
330
2A
100
AcDbVisualStyle
  2
Facepattern
 70
    15
 71
     2
 72
     2
 73
     0
 90
        0
 40
0.6
 41
30.0
 62
     5
 63
     7
421
 16777215
 74
     1
 91
        4
 64
     7
 65
   257
 75
     1
175
     1
 42
1.0
 92
        8
 66
     7
 43
1.0
 76
     1
 77
     6
 78
     2
 67
     7
 79
     5
170
     0
171
     0
290
     0
174
     0
 93
        1
 44
0.0
173
     0
291
     1
 45
0.0
  0
VISUALSTYLE
  5
2B
102
{ACAD_REACTORS
330
2A
102
}
102
{ACAD_XDICTIONARY
360
105
102
}
330
2A
100
AcDbVisualStyle
  2
Flat
 70
     0
 71
     2
 72
     1
 73
     1
 90
        2
 40
0.6
 41
30.0
 62
     5
 63
     7
421
 16777215
 74
     0
 91
        0
 64
     7
 65
   257
 75
     1
175
     1
 42
1.0
 92
        8
 66
     7
 43
1.0
 76
     1
 77
     6
 78
     2
 67
     7
 79
     5
170
     0
171
     0
290
     0
174
     0
 93
       13
 44
0.0
173
     0
291
     1
 45
0.0
  0
VISUALSTYLE
  5
2C
102
{ACAD_REACTORS
330
2A
102
}
102
{ACAD_XDICTIONARY
360
107
102
}
330
2A
100
AcDbVisualStyle
  2
FlatWithEdges
 70
     1
 71
     2
 72
     1
 73
     1
 90
        2
 40
0.6
 41
30.0
 62
     5
 63
     7
421
 16777215
 74
     1
 91
        0
 64
     7
 65
   257
 75
     1
175
     1
 42
1.0
 92
        0
 66
   257
 43
1.0
 76
     1
 77
     6
 78
     2
 67
     7
 79
     5
170
     0
171
     0
290
     0
174
     0
 93
       13
 44
0.0
173
     0
291
     1
 45
0.0
  0
VISUALSTYLE
  5
2D
102
{ACAD_REACTORS
330
2A
102
}
102
{ACAD_XDICTIONARY
360
109
102
}
330
2A
100
AcDbVisualStyle
  2
Gouraud
 70
     2
 71
     2
 72
     2
 73
     1
 90
        2
 40
0.6
 41
30.0
 62
     5
 63
     7
421
 16777215
 74
     0
 91
        0
 64
     7
 65
   257
 75
     1
175
     1
 42
1.0
 92
        0
 66
     7
 43
1.0
 76
     1
 77
     6
 78
     2
 67
     7
 79
     5
170
     0
171
     0
290
     0
174
     0
 93
       13
 44
0.0
173
     0
291
     1
 45
0.0
  0
VISUALSTYLE
  5
2E
102
{ACAD_REACTORS
330
2A
102
}
102
{ACAD_XDICTIONARY
360
10B
102
}
330
2A
100
AcDbVisualStyle
  2
GouraudWithEdges
 70
     3
 71
     2
 72
     2
 73
     1
 90
        2
 40
0.6
 41
30.0
 62
     5
 63
     7
421
 16777215
 74
     1
 91
        0
 64
     7
 65
   257
 75
     1
175
     1
 42
1.0
 92
        0
 66
   257
 43
1.0
 76
     1
 77
     6
 78
     2
 67
     7
 79
     5
170
     0
171
     0
290
     0
174
     0
 93
       13
 44
0.0
173
     0
291
     1
 45
0.0
  0
VISUALSTYLE
  5
31
102
{ACAD_REACTORS
330
2A
102
}
102
{ACAD_XDICTIONARY
360
111
102
}
330
2A
100
AcDbVisualStyle
  2
Hidden
 70
     6
 71
     1
 72
     2
 73
     2
 90
        0
 40
0.6
 41
30.0
 62
     5
 63
     7
421
 16777215
 74
     2
 91
        2
 64
     7
 65
   257
 75
     2
175
     1
 42
40.0
 92
        0
 66
   257
 43
1.0
 76
     1
 77
     6
 78
     2
 67
     7
 79
     3
170
     0
171
     0
290
     0
174
     0
 93
        1
 44
0.0
173
     0
291
     0
 45
0.0
  0
VISUALSTYLE
  5
3B
102
{ACAD_REACTORS
330
2A
102
}
102
{ACAD_XDICTIONARY
360
125
102
}
330
2A
100
AcDbVisualStyle
  2
JitterOff
 70
    20
 71
     2
 72
     2
 73
     0
 90
        0
 40
0.6
 41
30.0
 62
     5
 63
     7
421
 16777215
 74
     1
 91
        4
 64
     7
 65
   257
 75
     1
175
     1
 42
1.0
 92
       10
 66
     7
 43
1.0
 76
     1
 77
     6
 78
     2
 67
     7
 79
     5
170
     0
171
     0
290
     0
174
     0
 93
        1
 44
0.0
173
     0
291
     1
 45
0.0
  0
VISUALSTYLE
  5
38
102
{ACAD_REACTORS
330
2A
102
}
102
{ACAD_XDICTIONARY
360
11F
102
}
330
2A
100
AcDbVisualStyle
  2
Linepattern
 70
    14
 71
     2
 72
     2
 73
     0
 90
        0
 40
0.6
 41
30.0
 62
     5
 63
     7
421
 16777215
 74
     1
 91
        4
 64
     7
 65
   257
 75
     7
175
     7
 42
1.0
 92
        8
 66
     7
 43
1.0
 76
     1
 77
     6
 78
     2
 67
     7
 79
     5
170
     0
171
     0
290
     0
174
     0
 93
        1
 44
0.0
173
     0
291
     1
 45
0.0
  0
VISUALSTYLE
  5
3C
102
{ACAD_REACTORS
330
2A
102
}
102
{ACAD_XDICTIONARY
360
127
102
}
330
2A
100
AcDbVisualStyle
  2
OverhangOff
 70
    21
 71
     2
 72
     2
 73
     0
 90
        0
 40
0.6
 41
30.0
 62
     5
 63
     7
421
 16777215
 74
     1
 91
        4
 64
     7
 65
   257
 75
     1
175
     1
 42
1.0
 92
        9
 66
     7
 43
1.0
 76
     1
 77
     6
 78
     2
 67
     7
 79
     5
170
     0
171
     0
290
     0
174
     0
 93
        1
 44
0.0
173
     0
291
     1
 45
0.0
  0
VISUALSTYLE
  5
33
102
{ACAD_REACTORS
330
2A
102
}
102
{ACAD_XDICTIONARY
360
115
102
}
330
2A
100
AcDbVisualStyle
  2
Realistic
 70
     8
 71
     2
 72
     3
 73
     0
 90
        2
 40
0.6
 41
30.0
 62
     5
 63
     7
421
 16777215
 74
     0
 91
        0
 64
     7
 65
   257
 75
     1
175
     1
 42
1.0
 92
        8
 66
   257
 43
1.0
 76
     1
 77
     6
 78
     2
 67
     7
 79
     3
170
     0
171
     0
290
     0
174
     0
 93
       13
 44
0.0
173
     0
291
     0
 45
0.0
  0
VISUALSTYLE
  5
42
102
{ACAD_REACTORS
330
2A
102
}
102
{ACAD_XDICTIONARY
360
133
102
}
330
2A
100
AcDbVisualStyle
  2
Shaded
 70
    27
 71
     2
 72
     2
 73
     1
 90
        2
 40
0.6
 41
30.0
 62
     5
 63
     7
421
 16777215
 74
     0
 91
        4
 64
     7
 65
   257
 75
     1
175
     1
 42
1.0
 92
        8
 66
   257
 43
1.0
 76
     1
 77
     6
 78
     2
 67
     8
425
  7895160
 79
     3
170
     0
171
     0
290
     0
174
     0
 93
        5
 44
0.0
173
     0
291
     0
 45
0.0
  0
VISUALSTYLE
  5
41
102
{ACAD_REACTORS
330
2A
102
}
102
{ACAD_XDICTIONARY
360
131
102
}
330
2A
100
AcDbVisualStyle
  2
Shaded with edges
 70
    26
 71
     2
 72
     2
 73
     1
 90
        2
 40
0.6
 41
30.0
 62
     5
 63
     7
421
 16777215
 74
     1
 91
       10
 64
     7
 65
   257
 75
     2
175
     1
 42
1.0
 92
        8
 66
   257
 43
1.0
 76
     1
 77
     6
 78
     2
 67
     7
 79
     3
170
     0
171
     0
290
     0
174
     0
 93
        5
 44
0.0
173
     0
291
     0
 45
0.0
  0
VISUALSTYLE
  5
3E
102
{ACAD_REACTORS
330
2A
102
}
102
{ACAD_XDICTIONARY
360
12B
102
}
330
2A
100
AcDbVisualStyle
  2
Shades of Gray
 70
    23
 71
     2
 72
     2
 73
     3
 90
        0
 40
0.6
 41
30.0
 62
     5
 63
     7
421
 16777215
 74
     2
 91
        2
 64
     7
 65
     7
 75
     1
175
     1
 42
40.0
 92
        8
 66
     7
 43
1.0
 76
     1
 77
     6
 78
     2
 67
     7
 79
     3
170
     0
171
     0
290
     0
174
     0
 93
        1
 44
0.0
173
     0
291
     0
 45
0.0
  0
VISUALSTYLE
  5
3F
102
{ACAD_REACTORS
330
2A
102
}
102
{ACAD_XDICTIONARY
360
12D
102
}
330
2A
100
AcDbVisualStyle
  2
Sketchy
 70
    24
 71
     1
 72
     2
 73
     2
 90
        0
 40
0.6
 41
30.0
 62
     5
 63
     7
421
 16777215
 74
     2
 91
        2
 64
     7
 65
     7
 75
     1
175
     1
 42
40.0
 92
       11
 66
     7
 43
1.0
 76
     1
 77
     6
 78
     2
 67
     7
 79
     6
170
     0
171
     0
290
     0
174
     0
 93
        1
 44
0.0
173
     0
291
     0
 45
0.0
  0
VISUALSTYLE
  5
37
102
{ACAD_REACTORS
330
2A
102
}
102
{ACAD_XDICTIONARY
360
11D
102
}
330
2A
100
AcDbVisualStyle
  2
Thicken
 70
    13
 71
     2
 72
     2
 73
     0
 90
        0
 40
0.6
 41
30.0
 62
     5
 63
     7
421
 16777215
 74
     1
 91
        4
 64
     7
 65
   257
 75
     1
175
     1
 42
1.0
 92
       12
 66
     7
 43
1.0
 76
     1
 77
     6
 78
     2
 67
     7
 79
     5
170
     0
171
     0
290
     0
174
     0
 93
        1
 44
0.0
173
     0
291
     1
 45
0.0
  0
VISUALSTYLE
  5
30
102
{ACAD_REACTORS
330
2A
102
}
102
{ACAD_XDICTIONARY
360
10F
102
}
330
2A
100
AcDbVisualStyle
  2
Wireframe
 70
     5
 71
     0
 72
     2
 73
     0
 90
        0
 40
0.6
 41
30.0
 62
     5
 63
     7
421
 16777215
 74
     1
 91
        4
 64
     7
 65
   257
 75
     1
175
     1
 42
1.0
 92
        0
 66
   257
 43
1.0
 76
     1
 77
     6
 78
     2
 67
     7
 79
     3
170
     0
171
     0
290
     0
174
     0
 93
        1
 44
0.0
173
     0
291
     0
 45
0.0
  0
VISUALSTYLE
  5
40
102
{ACAD_REACTORS
330
2A
102
}
102
{ACAD_XDICTIONARY
360
12F
102
}
330
2A
100
AcDbVisualStyle
  2
X-Ray
 70
    25
 71
     2
 72
     2
 73
     1
 90
        1
 40
0.5
 41
30.0
 62
     5
 63
     7
421
 16777215
 74
     1
 91
        0
 64
     7
 65
   257
 75
     1
175
     1
 42
1.0
 92
        8
 66
     7
 43
1.0
 76
     1
 77
     6
 78
     2
 67
     7
 79
     3
170
     0
171
     0
290
     0
174
     0
 93
       13
 44
0.0
173
     0
291
     0
 45
0.0
  0
DICTIONARYVAR
  5
103
102
{ACAD_REACTORS
330
102
102
}
330
102
100
DictionaryVariables
280
     0
  1
1:1
  0
DICTIONARYVAR
  5
13C
102
{ACAD_REACTORS
330
102
102
}
330
102
100
DictionaryVariables
280
     0
  1
Standard
  0
DICTIONARYVAR
  5
13B
102
{ACAD_REACTORS
330
102
102
}
330
102
100
DictionaryVariables
280
     0
  1
Standard
  0
DICTIONARYVAR
  5
104
102
{ACAD_REACTORS
330
102
102
}
330
102
100
DictionaryVariables
280
     0
  1
2
  0
DICTIONARY
  5
138
330
6C
100
AcDbDictionary
280
     1
281
     1
  3
ACAD_XREC_ROUNDTRIP
360
139
  0
DICTIONARY
  5
135
330
6A
100
AcDbDictionary
280
     1
281
     1
  3
ACAD_ROUNDTRIP_2008_TABLESTYLE_CELLSTYLEMAP
360
136
  0
DICTIONARY
  5
10D
330
2F
100
AcDbDictionary
280
     1
281
     1
  3
ACAD_XREC_ROUNDTRIP
360
10E
  0
DICTIONARY
  5
113
330
32
100
AcDbDictionary
280
     1
281
     1
  3
ACAD_XREC_ROUNDTRIP
360
114
  0
DICTIONARY
  5
11B
330
36
100
AcDbDictionary
280
     1
281
     1
  3
ACAD_XREC_ROUNDTRIP
360
11C
  0
DICTIONARY
  5
123
330
3A
100
AcDbDictionary
280
     1
281
     1
  3
ACAD_XREC_ROUNDTRIP
360
124
  0
DICTIONARY
  5
117
330
34
100
AcDbDictionary
280
     1
281
     1
  3
ACAD_XREC_ROUNDTRIP
360
118
  0
DICTIONARY
  5
119
330
35
100
AcDbDictionary
280
     1
281
     1
  3
ACAD_XREC_ROUNDTRIP
360
11A
  0
DICTIONARY
  5
129
330
3D
100
AcDbDictionary
280
     1
281
     1
  3
ACAD_XREC_ROUNDTRIP
360
12A
  0
DICTIONARY
  5
121
330
39
100
AcDbDictionary
280
     1
281
     1
  3
ACAD_XREC_ROUNDTRIP
360
122
  0
DICTIONARY
  5
105
330
2B
100
AcDbDictionary
280
     1
281
     1
  3
ACAD_XREC_ROUNDTRIP
360
106
  0
DICTIONARY
  5
107
330
2C
100
AcDbDictionary
280
     1
281
     1
  3
ACAD_XREC_ROUNDTRIP
360
108
  0
DICTIONARY
  5
109
330
2D
100
AcDbDictionary
280
     1
281
     1
  3
ACAD_XREC_ROUNDTRIP
360
10A
  0
DICTIONARY
  5
10B
330
2E
100
AcDbDictionary
280
     1
281
     1
  3
ACAD_XREC_ROUNDTRIP
360
10C
  0
DICTIONARY
  5
111
330
31
100
AcDbDictionary
280
     1
281
     1
  3
ACAD_XREC_ROUNDTRIP
360
112
  0
DICTIONARY
  5
125
330
3B
100
AcDbDictionary
280
     1
281
     1
  3
ACAD_XREC_ROUNDTRIP
360
126
  0
DICTIONARY
  5
11F
330
38
100
AcDbDictionary
280
     1
281
     1
  3
ACAD_XREC_ROUNDTRIP
360
120
  0
DICTIONARY
  5
127
330
3C
100
AcDbDictionary
280
     1
281
     1
  3
ACAD_XREC_ROUNDTRIP
360
128
  0
DICTIONARY
  5
115
330
33
100
AcDbDictionary
280
     1
281
     1
  3
ACAD_XREC_ROUNDTRIP
360
116
  0
DICTIONARY
  5
133
330
42
100
AcDbDictionary
280
     1
281
     1
  3
ACAD_XREC_ROUNDTRIP
360
134
  0
DICTIONARY
  5
131
330
41
100
AcDbDictionary
280
     1
281
     1
  3
ACAD_XREC_ROUNDTRIP
360
132
  0
DICTIONARY
  5
12B
330
3E
100
AcDbDictionary
280
     1
281
     1
  3
ACAD_XREC_ROUNDTRIP
360
12C
  0
DICTIONARY
  5
12D
330
3F
100
AcDbDictionary
280
     1
281
     1
  3
ACAD_XREC_ROUNDTRIP
360
12E
  0
DICTIONARY
  5
11D
330
37
100
AcDbDictionary
280
     1
281
     1
  3
ACAD_XREC_ROUNDTRIP
360
11E
  0
DICTIONARY
  5
10F
330
30
100
AcDbDictionary
280
     1
281
     1
  3
ACAD_XREC_ROUNDTRIP
360
110
  0
DICTIONARY
  5
12F
330
40
100
AcDbDictionary
280
     1
281
     1
  3
ACAD_XREC_ROUNDTRIP
360
130
  0
XRECORD
  5
139
102
{ACAD_REACTORS
330
138
102
}
330
138
100
AcDbXrecord
280
     1
102
ACAD_ROUNDTRIP_2010_MLEADER_STYLE
  0
CELLSTYLEMAP
  5
136
102
{ACAD_REACTORS
330
135
102
}
330
135
100
AcDbCellStyleMap
 90
        3
300
CELLSTYLE
  1
TABLEFORMAT_BEGIN
 90
        5
170
     1
 91
        0
 92
    32768
 62
   257
 93
        1
300
CONTENTFORMAT
  1
CONTENTFORMAT_BEGIN
 90
        0
 91
        0
 92
        4
 93
        0
300

 40
0.0
140
1.0
 94
        5
 62
     0
340
11
144
0.25
309
CONTENTFORMAT_END
171
     1
301
MARGIN
  1
CELLMARGIN_BEGIN
 40
0.06
 40
0.06
 40
0.06
 40
0.06
 40
0.06
 40
0.06
309
CELLMARGIN_END
 94
        6
 95
        1
302
GRIDFORMAT
  1
GRIDFORMAT_BEGIN
 90
        0
 91
        1
 62
     0
 92
       -2
340
14
 93
        0
 40
0.045
309
GRIDFORMAT_END
 95
        2
302
GRIDFORMAT
  1
GRIDFORMAT_BEGIN
 90
        0
 91
        1
 62
     0
 92
       -2
340
14
 93
        0
 40
0.045
309
GRIDFORMAT_END
 95
        4
302
GRIDFORMAT
  1
GRIDFORMAT_BEGIN
 90
        0
 91
        1
 62
     0
 92
       -2
340
14
 93
        0
 40
0.045
309
GRIDFORMAT_END
 95
        8
302
GRIDFORMAT
  1
GRIDFORMAT_BEGIN
 90
        0
 91
        1
 62
     0
 92
       -2
340
14
 93
        0
 40
0.045
309
GRIDFORMAT_END
 95
       16
302
GRIDFORMAT
  1
GRIDFORMAT_BEGIN
 90
        0
 91
        1
 62
     0
 92
       -2
340
14
 93
        0
 40
0.045
309
GRIDFORMAT_END
 95
       32
302
GRIDFORMAT
  1
GRIDFORMAT_BEGIN
 90
        0
 91
        1
 62
     0
 92
       -2
340
14
 93
        0
 40
0.045
309
GRIDFORMAT_END
309
TABLEFORMAT_END
  1
CELLSTYLE_BEGIN
 90
        1
 91
        1
300
_TITLE
309
CELLSTYLE_END
300
CELLSTYLE
  1
TABLEFORMAT_BEGIN
 90
        5
170
     1
 91
        0
 92
        0
 62
   257
 93
        1
300
CONTENTFORMAT
  1
CONTENTFORMAT_BEGIN
 90
        0
 91
        0
 92
        4
 93
        0
300

 40
0.0
140
1.0
 94
        5
 62
     0
340
11
144
0.18
309
CONTENTFORMAT_END
171
     1
301
MARGIN
  1
CELLMARGIN_BEGIN
 40
0.06
 40
0.06
 40
0.06
 40
0.06
 40
0.06
 40
0.06
309
CELLMARGIN_END
 94
        6
 95
        1
302
GRIDFORMAT
  1
GRIDFORMAT_BEGIN
 90
        0
 91
        1
 62
     0
 92
       -2
340
14
 93
        0
 40
0.045
309
GRIDFORMAT_END
 95
        2
302
GRIDFORMAT
  1
GRIDFORMAT_BEGIN
 90
        0
 91
        1
 62
     0
 92
       -2
340
14
 93
        0
 40
0.045
309
GRIDFORMAT_END
 95
        4
302
GRIDFORMAT
  1
GRIDFORMAT_BEGIN
 90
        0
 91
        1
 62
     0
 92
       -2
340
14
 93
        0
 40
0.045
309
GRIDFORMAT_END
 95
        8
302
GRIDFORMAT
  1
GRIDFORMAT_BEGIN
 90
        0
 91
        1
 62
     0
 92
       -2
340
14
 93
        0
 40
0.045
309
GRIDFORMAT_END
 95
       16
302
GRIDFORMAT
  1
GRIDFORMAT_BEGIN
 90
        0
 91
        1
 62
     0
 92
       -2
340
14
 93
        0
 40
0.045
309
GRIDFORMAT_END
 95
       32
302
GRIDFORMAT
  1
GRIDFORMAT_BEGIN
 90
        0
 91
        1
 62
     0
 92
       -2
340
14
 93
        0
 40
0.045
309
GRIDFORMAT_END
309
TABLEFORMAT_END
  1
CELLSTYLE_BEGIN
 90
        2
 91
        1
300
_HEADER
309
CELLSTYLE_END
300
CELLSTYLE
  1
TABLEFORMAT_BEGIN
 90
        5
170
     1
 91
        0
 92
        0
 62
   257
 93
        1
300
CONTENTFORMAT
  1
CONTENTFORMAT_BEGIN
 90
        0
 91
        0
 92
        4
 93
        0
300

 40
0.0
140
1.0
 94
        2
 62
     0
340
11
144
0.18
309
CONTENTFORMAT_END
171
     1
301
MARGIN
  1
CELLMARGIN_BEGIN
 40
0.06
 40
0.06
 40
0.06
 40
0.06
 40
0.06
 40
0.06
309
CELLMARGIN_END
 94
        6
 95
        1
302
GRIDFORMAT
  1
GRIDFORMAT_BEGIN
 90
        0
 91
        1
 62
     0
 92
       -2
340
14
 93
        0
 40
0.045
309
GRIDFORMAT_END
 95
        2
302
GRIDFORMAT
  1
GRIDFORMAT_BEGIN
 90
        0
 91
        1
 62
     0
 92
       -2
340
14
 93
        0
 40
0.045
309
GRIDFORMAT_END
 95
        4
302
GRIDFORMAT
  1
GRIDFORMAT_BEGIN
 90
        0
 91
        1
 62
     0
 92
       -2
340
14
 93
        0
 40
0.045
309
GRIDFORMAT_END
 95
        8
302
GRIDFORMAT
  1
GRIDFORMAT_BEGIN
 90
        0
 91
        1
 62
     0
 92
       -2
340
14
 93
        0
 40
0.045
309
GRIDFORMAT_END
 95
       16
302
GRIDFORMAT
  1
GRIDFORMAT_BEGIN
 90
        0
 91
        1
 62
     0
 92
       -2
340
14
 93
        0
 40
0.045
309
GRIDFORMAT_END
 95
       32
302
GRIDFORMAT
  1
GRIDFORMAT_BEGIN
 90
        0
 91
        1
 62
     0
 92
       -2
340
14
 93
        0
 40
0.045
309
GRIDFORMAT_END
309
TABLEFORMAT_END
  1
CELLSTYLE_BEGIN
 90
        3
 91
        2
300
_DATA
309
CELLSTYLE_END
  0
XRECORD
  5
10E
102
{ACAD_REACTORS
330
10D
102
}
330
10D
100
AcDbXrecord
280
     1
102
RTVSPropertyOp0
 70
     1
102
RTVSPropertyOp1
 70
     1
102
RTVSPropertyOp2
 70
     1
102
RTVSPropertyOp3
 70
     1
102
RTVSPropertyOp4
 70
     1
102
RTVSPropertyOp5
 70
     1
102
RTVSPropertyOp6
 70
     1
102
RTVSPropertyOp7
 70
     1
102
RTVSPropertyOp8
 70
     1
102
RTVSPropertyOp9
 70
     1
102
RTVSPropertyOp10
 70
     1
102
RTVSPropertyOp11
 70
     1
102
RTVSPropertyOp12
 70
     1
102
RTVSPropertyOp13
 70
     1
102
RTVSPropertyOp14
 70
     1
102
RTVSPropertyOp15
 70
     1
102
RTVSPropertyOp16
 70
     1
102
RTVSPropertyOp17
 70
     1
102
RTVSPropertyOp18
 70
     1
102
RTVSPropertyOp19
 70
     1
102
RTVSPropertyOp20
 70
     1
102
RTVSPropertyOp21
 70
     1
102
RTVSPropertyOp22
 70
     1
102
RTVSPropertyOp23
 70
     1
102
RTVSPropertyOp24
 70
     1
102
RTVSPropertyOp25
 70
     1
102
RTVSPropertyOp26
 70
     1
102
RTVSPropertyOp27
 70
     1
102
RTVSPropertyOp28
 70
     1
102
RTVSPropertyOp29
 70
     1
102
RTVSPropertyOp30
 70
     1
102
RTVSPropertyOp31
 70
     1
102
RTVSPropertyOp32
 70
     1
102
RTVSPropertyOp33
 70
     1
102
RTVSPropertyOp34
 70
     1
102
RTVSPropertyOp35
 70
     1
102
RTVSPropertyOp36
 70
     1
102
RTVSPropertyOp37
 70
     1
102
RTVSPropertyOp38
 70
     1
102
RTVSPropertyOp39
 70
     1
102
RTVSPropertyOp40
 70
     1
102
RTVSPropertyOp41
 70
     1
102
RTVSPropertyOp42
 70
     1
102
RTVSPropertyOp43
 70
     1
102
RTVSPropertyOp44
 70
     1
102
RTVSPropertyOp45
 70
     1
102
RTVSPropertyOp46
 70
     1
102
RTVSPropertyOp47
 70
     1
102
RTVSPropertyOp48
 70
     1
102
RTVSPropertyOp49
 70
     1
102
RTVSPropertyOp50
 70
     1
102
RTVSPropertyOp51
 70
     0
102
RTVSPropertyOp52
 70
     0
102
RTVSPropertyOp53
 70
     1
102
RTVSPropertyOp54
 70
     1
102
RTVSPropertyOp55
 70
     1
102
RTVSPropertyOp56
 70
     1
102
RTVSPropertyOp57
 70
     1
102
RTVSPost2010Prop28
280
     1
102
RTVSPost2010PropOp28
 70
     1
102
RTVSPost2010Prop29
280
     1
102
RTVSPost2010PropOp29
 70
     1
102
RTVSPost2010Prop30
280
     0
102
RTVSPost2010PropOp30
 70
     1
102
RTVSPost2010Prop31
280
     0
102
RTVSPost2010PropOp31
 70
     1
102
RTVSPost2010Prop32
280
     0
102
RTVSPost2010PropOp32
 70
     1
102
RTVSPost2010Prop33
280
     0
102
RTVSPost2010PropOp33
 70
     1
102
RTVSPost2010Prop34
280
     0
102
RTVSPost2010PropOp34
 70
     1
102
RTVSPost2010Prop35
280
     0
102
RTVSPost2010PropOp35
 70
     1
102
RTVSPost2010Prop36
280
     0
102
RTVSPost2010PropOp36
 70
     1
102
RTVSPost2010Prop37
 90
       50
102
RTVSPost2010PropOp37
 70
     1
102
RTVSPost2010Prop38
140
0.0
102
RTVSPost2010PropOp38
 70
     1
102
RTVSPost2010Prop39
140
1.0
102
RTVSPost2010PropOp39
 70
     1
102
RTVSPost2010Prop40
 90
        0
102
RTVSPost2010PropOp40
 70
     1
102
RTVSPost2010Prop41ColorIndex
 90
       18
102
RTVSPost2010Prop41ColorRGB
 90
        0
102
RTVSPost2010PropOp41
 70
     1
102
RTVSPost2010Prop42
 90
       50
102
RTVSPost2010PropOp42
 70
     1
102
RTVSPost2010Prop43
 90
        3
102
RTVSPost2010PropOp43
 70
     1
102
RTVSPost2010Prop44ColorIndex
 90
        5
102
RTVSPost2010Prop44ColorRGB
 90
      255
102
RTVSPost2010PropOp44
 70
     1
102
RTVSPost2010Prop45
280
     0
102
RTVSPost2010PropOp45
 70
     1
102
RTVSPost2010Prop46
 90
       50
102
RTVSPost2010PropOp46
 70
     1
102
RTVSPost2010Prop47
 90
       50
102
RTVSPost2010PropOp47
 70
     1
102
RTVSPost2010Prop48
 90
       50
102
RTVSPost2010PropOp48
 70
     1
102
RTVSPost2010Prop49
280
     0
102
RTVSPost2010PropOp49
 70
     1
102
RTVSPost2010Prop50
 90
       50
102
RTVSPost2010PropOp50
 70
     1
102
RTVSPost2010Prop51ColorIndex
 90
      256
102
RTVSPost2010Prop51ColorRGB
 90
-16777216
102
RTVSPost2010PropOp51
 70
     0
102
RTVSPost2010Prop52
140
1.0
102
RTVSPost2010PropOp52
 70
     0
102
RTVSPost2010Prop53
 90
        2
102
RTVSPost2010PropOp53
 70
     1
102
RTVSPost2010Prop54
  1
strokes_ogs.tif
102
RTVSPost2010PropOp54
 70
     1
102
RTVSPost2010Prop55
280
     0
102
RTVSPost2010PropOp55
 70
     1
102
RTVSPost2010Prop56
140
1.0
102
RTVSPost2010PropOp56
 70
     1
102
RTVSPost2010Prop57
140
1.0
102
RTVSPost2010PropOp57
 70
     1
  0
XRECORD
  5
114
102
{ACAD_REACTORS
330
113
102
}
330
113
100
AcDbXrecord
280
     1
102
RTVSPropertyOp0
 70
     1
102
RTVSPropertyOp1
 70
     1
102
RTVSPropertyOp2
 70
     1
102
RTVSPropertyOp3
 70
     1
102
RTVSPropertyOp4
 70
     1
102
RTVSPropertyOp5
 70
     1
102
RTVSPropertyOp6
 70
     1
102
RTVSPropertyOp7
 70
     1
102
RTVSPropertyOp8
 70
     1
102
RTVSPropertyOp9
 70
     1
102
RTVSPropertyOp10
 70
     1
102
RTVSPropertyOp11
 70
     1
102
RTVSPropertyOp12
 70
     1
102
RTVSPropertyOp13
 70
     1
102
RTVSPropertyOp14
 70
     1
102
RTVSPropertyOp15
 70
     1
102
RTVSPropertyOp16
 70
     1
102
RTVSPropertyOp17
 70
     1
102
RTVSPropertyOp18
 70
     1
102
RTVSPropertyOp19
 70
     1
102
RTVSPropertyOp20
 70
     1
102
RTVSPropertyOp21
 70
     1
102
RTVSPropertyOp22
 70
     1
102
RTVSPropertyOp23
 70
     1
102
RTVSPropertyOp24
 70
     1
102
RTVSPropertyOp25
 70
     1
102
RTVSPropertyOp26
 70
     1
102
RTVSPropertyOp27
 70
     1
102
RTVSPropertyOp28
 70
     1
102
RTVSPropertyOp29
 70
     1
102
RTVSPropertyOp30
 70
     1
102
RTVSPropertyOp31
 70
     1
102
RTVSPropertyOp32
 70
     1
102
RTVSPropertyOp33
 70
     1
102
RTVSPropertyOp34
 70
     1
102
RTVSPropertyOp35
 70
     1
102
RTVSPropertyOp36
 70
     1
102
RTVSPropertyOp37
 70
     1
102
RTVSPropertyOp38
 70
     1
102
RTVSPropertyOp39
 70
     1
102
RTVSPropertyOp40
 70
     1
102
RTVSPropertyOp41
 70
     1
102
RTVSPropertyOp42
 70
     1
102
RTVSPropertyOp43
 70
     1
102
RTVSPropertyOp44
 70
     1
102
RTVSPropertyOp45
 70
     1
102
RTVSPropertyOp46
 70
     1
102
RTVSPropertyOp47
 70
     1
102
RTVSPropertyOp48
 70
     1
102
RTVSPropertyOp49
 70
     1
102
RTVSPropertyOp50
 70
     1
102
RTVSPropertyOp51
 70
     0
102
RTVSPropertyOp52
 70
     0
102
RTVSPropertyOp53
 70
     1
102
RTVSPropertyOp54
 70
     1
102
RTVSPropertyOp55
 70
     1
102
RTVSPropertyOp56
 70
     1
102
RTVSPropertyOp57
 70
     1
102
RTVSPost2010Prop28
280
     0
102
RTVSPost2010PropOp28
 70
     1
102
RTVSPost2010Prop29
280
     1
102
RTVSPost2010PropOp29
 70
     1
102
RTVSPost2010Prop30
280
     1
102
RTVSPost2010PropOp30
 70
     1
102
RTVSPost2010Prop31
280
     0
102
RTVSPost2010PropOp31
 70
     1
102
RTVSPost2010Prop32
280
     0
102
RTVSPost2010PropOp32
 70
     1
102
RTVSPost2010Prop33
280
     0
102
RTVSPost2010PropOp33
 70
     1
102
RTVSPost2010Prop34
280
     0
102
RTVSPost2010PropOp34
 70
     1
102
RTVSPost2010Prop35
280
     0
102
RTVSPost2010PropOp35
 70
     1
102
RTVSPost2010Prop36
280
     0
102
RTVSPost2010PropOp36
 70
     1
102
RTVSPost2010Prop37
 90
       50
102
RTVSPost2010PropOp37
 70
     1
102
RTVSPost2010Prop38
140
0.0
102
RTVSPost2010PropOp38
 70
     1
102
RTVSPost2010Prop39
140
1.0
102
RTVSPost2010PropOp39
 70
     1
102
RTVSPost2010Prop40
 90
        0
102
RTVSPost2010PropOp40
 70
     1
102
RTVSPost2010Prop41ColorIndex
 90
       18
102
RTVSPost2010Prop41ColorRGB
 90
        0
102
RTVSPost2010PropOp41
 70
     1
102
RTVSPost2010Prop42
 90
       50
102
RTVSPost2010PropOp42
 70
     1
102
RTVSPost2010Prop43
 90
        3
102
RTVSPost2010PropOp43
 70
     1
102
RTVSPost2010Prop44ColorIndex
 90
        5
102
RTVSPost2010Prop44ColorRGB
 90
      255
102
RTVSPost2010PropOp44
 70
     1
102
RTVSPost2010Prop45
280
     0
102
RTVSPost2010PropOp45
 70
     1
102
RTVSPost2010Prop46
 90
       50
102
RTVSPost2010PropOp46
 70
     1
102
RTVSPost2010Prop47
 90
       50
102
RTVSPost2010PropOp47
 70
     1
102
RTVSPost2010Prop48
 90
       50
102
RTVSPost2010PropOp48
 70
     1
102
RTVSPost2010Prop49
280
     0
102
RTVSPost2010PropOp49
 70
     1
102
RTVSPost2010Prop50
 90
       50
102
RTVSPost2010PropOp50
 70
     1
102
RTVSPost2010Prop51ColorIndex
 90
      256
102
RTVSPost2010Prop51ColorRGB
 90
-16777216
102
RTVSPost2010PropOp51
 70
     0
102
RTVSPost2010Prop52
140
1.0
102
RTVSPost2010PropOp52
 70
     0
102
RTVSPost2010Prop53
 90
        2
102
RTVSPost2010PropOp53
 70
     1
102
RTVSPost2010Prop54
  1
strokes_ogs.tif
102
RTVSPost2010PropOp54
 70
     1
102
RTVSPost2010Prop55
280
     0
102
RTVSPost2010PropOp55
 70
     1
102
RTVSPost2010Prop56
140
1.0
102
RTVSPost2010PropOp56
 70
     1
102
RTVSPost2010Prop57
140
1.0
102
RTVSPost2010PropOp57
 70
     1
  0
XRECORD
  5
11C
102
{ACAD_REACTORS
330
11B
102
}
330
11B
100
AcDbXrecord
280
     1
102
RTVSPropertyOp0
 70
     1
102
RTVSPropertyOp1
 70
     1
102
RTVSPropertyOp2
 70
     1
102
RTVSPropertyOp3
 70
     1
102
RTVSPropertyOp4
 70
     1
102
RTVSPropertyOp5
 70
     1
102
RTVSPropertyOp6
 70
     1
102
RTVSPropertyOp7
 70
     1
102
RTVSPropertyOp8
 70
     1
102
RTVSPropertyOp9
 70
     1
102
RTVSPropertyOp10
 70
     1
102
RTVSPropertyOp11
 70
     1
102
RTVSPropertyOp12
 70
     1
102
RTVSPropertyOp13
 70
     1
102
RTVSPropertyOp14
 70
     1
102
RTVSPropertyOp15
 70
     1
102
RTVSPropertyOp16
 70
     1
102
RTVSPropertyOp17
 70
     1
102
RTVSPropertyOp18
 70
     1
102
RTVSPropertyOp19
 70
     1
102
RTVSPropertyOp20
 70
     1
102
RTVSPropertyOp21
 70
     1
102
RTVSPropertyOp22
 70
     1
102
RTVSPropertyOp23
 70
     1
102
RTVSPropertyOp24
 70
     1
102
RTVSPropertyOp25
 70
     1
102
RTVSPropertyOp26
 70
     1
102
RTVSPropertyOp27
 70
     1
102
RTVSPropertyOp28
 70
     1
102
RTVSPropertyOp29
 70
     1
102
RTVSPropertyOp30
 70
     1
102
RTVSPropertyOp31
 70
     1
102
RTVSPropertyOp32
 70
     1
102
RTVSPropertyOp33
 70
     1
102
RTVSPropertyOp34
 70
     1
102
RTVSPropertyOp35
 70
     1
102
RTVSPropertyOp36
 70
     1
102
RTVSPropertyOp37
 70
     1
102
RTVSPropertyOp38
 70
     1
102
RTVSPropertyOp39
 70
     1
102
RTVSPropertyOp40
 70
     1
102
RTVSPropertyOp41
 70
     1
102
RTVSPropertyOp42
 70
     1
102
RTVSPropertyOp43
 70
     1
102
RTVSPropertyOp44
 70
     1
102
RTVSPropertyOp45
 70
     1
102
RTVSPropertyOp46
 70
     1
102
RTVSPropertyOp47
 70
     1
102
RTVSPropertyOp48
 70
     1
102
RTVSPropertyOp49
 70
     1
102
RTVSPropertyOp50
 70
     1
102
RTVSPropertyOp51
 70
     0
102
RTVSPropertyOp52
 70
     0
102
RTVSPropertyOp53
 70
     1
102
RTVSPropertyOp54
 70
     1
102
RTVSPropertyOp55
 70
     1
102
RTVSPropertyOp56
 70
     1
102
RTVSPropertyOp57
 70
     1
102
RTVSPost2010Prop28
280
     0
102
RTVSPost2010PropOp28
 70
     1
102
RTVSPost2010Prop29
280
     1
102
RTVSPost2010PropOp29
 70
     1
102
RTVSPost2010Prop30
280
     1
102
RTVSPost2010PropOp30
 70
     1
102
RTVSPost2010Prop31
280
     0
102
RTVSPost2010PropOp31
 70
     1
102
RTVSPost2010Prop32
280
     0
102
RTVSPost2010PropOp32
 70
     1
102
RTVSPost2010Prop33
280
     0
102
RTVSPost2010PropOp33
 70
     1
102
RTVSPost2010Prop34
280
     0
102
RTVSPost2010PropOp34
 70
     1
102
RTVSPost2010Prop35
280
     0
102
RTVSPost2010PropOp35
 70
     1
102
RTVSPost2010Prop36
280
     0
102
RTVSPost2010PropOp36
 70
     1
102
RTVSPost2010Prop37
 90
       50
102
RTVSPost2010PropOp37
 70
     1
102
RTVSPost2010Prop38
140
0.0
102
RTVSPost2010PropOp38
 70
     1
102
RTVSPost2010Prop39
140
1.0
102
RTVSPost2010PropOp39
 70
     1
102
RTVSPost2010Prop40
 90
        0
102
RTVSPost2010PropOp40
 70
     1
102
RTVSPost2010Prop41ColorIndex
 90
       18
102
RTVSPost2010Prop41ColorRGB
 90
        0
102
RTVSPost2010PropOp41
 70
     1
102
RTVSPost2010Prop42
 90
       50
102
RTVSPost2010PropOp42
 70
     1
102
RTVSPost2010Prop43
 90
        3
102
RTVSPost2010PropOp43
 70
     1
102
RTVSPost2010Prop44ColorIndex
 90
        5
102
RTVSPost2010Prop44ColorRGB
 90
      255
102
RTVSPost2010PropOp44
 70
     1
102
RTVSPost2010Prop45
280
     0
102
RTVSPost2010PropOp45
 70
     1
102
RTVSPost2010Prop46
 90
       50
102
RTVSPost2010PropOp46
 70
     1
102
RTVSPost2010Prop47
 90
       50
102
RTVSPost2010PropOp47
 70
     1
102
RTVSPost2010Prop48
 90
       50
102
RTVSPost2010PropOp48
 70
     1
102
RTVSPost2010Prop49
280
     0
102
RTVSPost2010PropOp49
 70
     1
102
RTVSPost2010Prop50
 90
       50
102
RTVSPost2010PropOp50
 70
     1
102
RTVSPost2010Prop51ColorIndex
 90
      256
102
RTVSPost2010Prop51ColorRGB
 90
-16777216
102
RTVSPost2010PropOp51
 70
     0
102
RTVSPost2010Prop52
140
1.0
102
RTVSPost2010PropOp52
 70
     0
102
RTVSPost2010Prop53
 90
        2
102
RTVSPost2010PropOp53
 70
     1
102
RTVSPost2010Prop54
  1
strokes_ogs.tif
102
RTVSPost2010PropOp54
 70
     1
102
RTVSPost2010Prop55
280
     0
102
RTVSPost2010PropOp55
 70
     1
102
RTVSPost2010Prop56
140
1.0
102
RTVSPost2010PropOp56
 70
     1
102
RTVSPost2010Prop57
140
1.0
102
RTVSPost2010PropOp57
 70
     1
  0
XRECORD
  5
124
102
{ACAD_REACTORS
330
123
102
}
330
123
100
AcDbXrecord
280
     1
102
RTVSPropertyOp0
 70
     1
102
RTVSPropertyOp1
 70
     1
102
RTVSPropertyOp2
 70
     1
102
RTVSPropertyOp3
 70
     1
102
RTVSPropertyOp4
 70
     1
102
RTVSPropertyOp5
 70
     1
102
RTVSPropertyOp6
 70
     1
102
RTVSPropertyOp7
 70
     1
102
RTVSPropertyOp8
 70
     1
102
RTVSPropertyOp9
 70
     1
102
RTVSPropertyOp10
 70
     1
102
RTVSPropertyOp11
 70
     1
102
RTVSPropertyOp12
 70
     1
102
RTVSPropertyOp13
 70
     1
102
RTVSPropertyOp14
 70
     1
102
RTVSPropertyOp15
 70
     1
102
RTVSPropertyOp16
 70
     1
102
RTVSPropertyOp17
 70
     1
102
RTVSPropertyOp18
 70
     1
102
RTVSPropertyOp19
 70
     1
102
RTVSPropertyOp20
 70
     1
102
RTVSPropertyOp21
 70
     1
102
RTVSPropertyOp22
 70
     1
102
RTVSPropertyOp23
 70
     1
102
RTVSPropertyOp24
 70
     1
102
RTVSPropertyOp25
 70
     1
102
RTVSPropertyOp26
 70
     1
102
RTVSPropertyOp27
 70
     1
102
RTVSPropertyOp28
 70
     1
102
RTVSPropertyOp29
 70
     1
102
RTVSPropertyOp30
 70
     1
102
RTVSPropertyOp31
 70
     1
102
RTVSPropertyOp32
 70
     1
102
RTVSPropertyOp33
 70
     1
102
RTVSPropertyOp34
 70
     1
102
RTVSPropertyOp35
 70
     1
102
RTVSPropertyOp36
 70
     1
102
RTVSPropertyOp37
 70
     1
102
RTVSPropertyOp38
 70
     1
102
RTVSPropertyOp39
 70
     1
102
RTVSPropertyOp40
 70
     1
102
RTVSPropertyOp41
 70
     1
102
RTVSPropertyOp42
 70
     1
102
RTVSPropertyOp43
 70
     1
102
RTVSPropertyOp44
 70
     1
102
RTVSPropertyOp45
 70
     1
102
RTVSPropertyOp46
 70
     1
102
RTVSPropertyOp47
 70
     1
102
RTVSPropertyOp48
 70
     1
102
RTVSPropertyOp49
 70
     1
102
RTVSPropertyOp50
 70
     1
102
RTVSPropertyOp51
 70
     0
102
RTVSPropertyOp52
 70
     0
102
RTVSPropertyOp53
 70
     1
102
RTVSPropertyOp54
 70
     1
102
RTVSPropertyOp55
 70
     1
102
RTVSPropertyOp56
 70
     1
102
RTVSPropertyOp57
 70
     1
102
RTVSPost2010Prop28
280
     0
102
RTVSPost2010PropOp28
 70
     1
102
RTVSPost2010Prop29
280
     1
102
RTVSPost2010PropOp29
 70
     1
102
RTVSPost2010Prop30
280
     1
102
RTVSPost2010PropOp30
 70
     1
102
RTVSPost2010Prop31
280
     0
102
RTVSPost2010PropOp31
 70
     1
102
RTVSPost2010Prop32
280
     0
102
RTVSPost2010PropOp32
 70
     1
102
RTVSPost2010Prop33
280
     0
102
RTVSPost2010PropOp33
 70
     1
102
RTVSPost2010Prop34
280
     0
102
RTVSPost2010PropOp34
 70
     1
102
RTVSPost2010Prop35
280
     0
102
RTVSPost2010PropOp35
 70
     1
102
RTVSPost2010Prop36
280
     0
102
RTVSPost2010PropOp36
 70
     1
102
RTVSPost2010Prop37
 90
       50
102
RTVSPost2010PropOp37
 70
     1
102
RTVSPost2010Prop38
140
0.0
102
RTVSPost2010PropOp38
 70
     1
102
RTVSPost2010Prop39
140
1.0
102
RTVSPost2010PropOp39
 70
     1
102
RTVSPost2010Prop40
 90
        0
102
RTVSPost2010PropOp40
 70
     1
102
RTVSPost2010Prop41ColorIndex
 90
       18
102
RTVSPost2010Prop41ColorRGB
 90
        0
102
RTVSPost2010PropOp41
 70
     1
102
RTVSPost2010Prop42
 90
       50
102
RTVSPost2010PropOp42
 70
     1
102
RTVSPost2010Prop43
 90
        3
102
RTVSPost2010PropOp43
 70
     1
102
RTVSPost2010Prop44ColorIndex
 90
        5
102
RTVSPost2010Prop44ColorRGB
 90
      255
102
RTVSPost2010PropOp44
 70
     1
102
RTVSPost2010Prop45
280
     0
102
RTVSPost2010PropOp45
 70
     1
102
RTVSPost2010Prop46
 90
       50
102
RTVSPost2010PropOp46
 70
     1
102
RTVSPost2010Prop47
 90
       50
102
RTVSPost2010PropOp47
 70
     1
102
RTVSPost2010Prop48
 90
       50
102
RTVSPost2010PropOp48
 70
     1
102
RTVSPost2010Prop49
280
     0
102
RTVSPost2010PropOp49
 70
     1
102
RTVSPost2010Prop50
 90
       50
102
RTVSPost2010PropOp50
 70
     1
102
RTVSPost2010Prop51ColorIndex
 90
      256
102
RTVSPost2010Prop51ColorRGB
 90
-16777216
102
RTVSPost2010PropOp51
 70
     0
102
RTVSPost2010Prop52
140
1.0
102
RTVSPost2010PropOp52
 70
     0
102
RTVSPost2010Prop53
 90
        2
102
RTVSPost2010PropOp53
 70
     1
102
RTVSPost2010Prop54
  1
strokes_ogs.tif
102
RTVSPost2010PropOp54
 70
     1
102
RTVSPost2010Prop55
280
     0
102
RTVSPost2010PropOp55
 70
     1
102
RTVSPost2010Prop56
140
1.0
102
RTVSPost2010PropOp56
 70
     1
102
RTVSPost2010Prop57
140
1.0
102
RTVSPost2010PropOp57
 70
     1
  0
XRECORD
  5
118
102
{ACAD_REACTORS
330
117
102
}
330
117
100
AcDbXrecord
280
     1
102
RTVSPropertyOp0
 70
     1
102
RTVSPropertyOp1
 70
     1
102
RTVSPropertyOp2
 70
     1
102
RTVSPropertyOp3
 70
     1
102
RTVSPropertyOp4
 70
     1
102
RTVSPropertyOp5
 70
     1
102
RTVSPropertyOp6
 70
     1
102
RTVSPropertyOp7
 70
     1
102
RTVSPropertyOp8
 70
     1
102
RTVSPropertyOp9
 70
     1
102
RTVSPropertyOp10
 70
     1
102
RTVSPropertyOp11
 70
     1
102
RTVSPropertyOp12
 70
     1
102
RTVSPropertyOp13
 70
     1
102
RTVSPropertyOp14
 70
     1
102
RTVSPropertyOp15
 70
     1
102
RTVSPropertyOp16
 70
     1
102
RTVSPropertyOp17
 70
     1
102
RTVSPropertyOp18
 70
     1
102
RTVSPropertyOp19
 70
     1
102
RTVSPropertyOp20
 70
     1
102
RTVSPropertyOp21
 70
     1
102
RTVSPropertyOp22
 70
     1
102
RTVSPropertyOp23
 70
     1
102
RTVSPropertyOp24
 70
     1
102
RTVSPropertyOp25
 70
     1
102
RTVSPropertyOp26
 70
     1
102
RTVSPropertyOp27
 70
     1
102
RTVSPropertyOp28
 70
     1
102
RTVSPropertyOp29
 70
     1
102
RTVSPropertyOp30
 70
     1
102
RTVSPropertyOp31
 70
     1
102
RTVSPropertyOp32
 70
     1
102
RTVSPropertyOp33
 70
     1
102
RTVSPropertyOp34
 70
     1
102
RTVSPropertyOp35
 70
     1
102
RTVSPropertyOp36
 70
     1
102
RTVSPropertyOp37
 70
     1
102
RTVSPropertyOp38
 70
     1
102
RTVSPropertyOp39
 70
     1
102
RTVSPropertyOp40
 70
     1
102
RTVSPropertyOp41
 70
     1
102
RTVSPropertyOp42
 70
     1
102
RTVSPropertyOp43
 70
     1
102
RTVSPropertyOp44
 70
     1
102
RTVSPropertyOp45
 70
     1
102
RTVSPropertyOp46
 70
     1
102
RTVSPropertyOp47
 70
     1
102
RTVSPropertyOp48
 70
     1
102
RTVSPropertyOp49
 70
     1
102
RTVSPropertyOp50
 70
     1
102
RTVSPropertyOp51
 70
     0
102
RTVSPropertyOp52
 70
     0
102
RTVSPropertyOp53
 70
     1
102
RTVSPropertyOp54
 70
     1
102
RTVSPropertyOp55
 70
     1
102
RTVSPropertyOp56
 70
     1
102
RTVSPropertyOp57
 70
     1
102
RTVSPost2010Prop28
280
     0
102
RTVSPost2010PropOp28
 70
     1
102
RTVSPost2010Prop29
280
     1
102
RTVSPost2010PropOp29
 70
     1
102
RTVSPost2010Prop30
280
     1
102
RTVSPost2010PropOp30
 70
     1
102
RTVSPost2010Prop31
280
     0
102
RTVSPost2010PropOp31
 70
     1
102
RTVSPost2010Prop32
280
     0
102
RTVSPost2010PropOp32
 70
     1
102
RTVSPost2010Prop33
280
     0
102
RTVSPost2010PropOp33
 70
     1
102
RTVSPost2010Prop34
280
     0
102
RTVSPost2010PropOp34
 70
     1
102
RTVSPost2010Prop35
280
     0
102
RTVSPost2010PropOp35
 70
     1
102
RTVSPost2010Prop36
280
     0
102
RTVSPost2010PropOp36
 70
     1
102
RTVSPost2010Prop37
 90
       50
102
RTVSPost2010PropOp37
 70
     1
102
RTVSPost2010Prop38
140
0.0
102
RTVSPost2010PropOp38
 70
     1
102
RTVSPost2010Prop39
140
1.0
102
RTVSPost2010PropOp39
 70
     1
102
RTVSPost2010Prop40
 90
        0
102
RTVSPost2010PropOp40
 70
     1
102
RTVSPost2010Prop41ColorIndex
 90
       18
102
RTVSPost2010Prop41ColorRGB
 90
        0
102
RTVSPost2010PropOp41
 70
     1
102
RTVSPost2010Prop42
 90
       50
102
RTVSPost2010PropOp42
 70
     1
102
RTVSPost2010Prop43
 90
        3
102
RTVSPost2010PropOp43
 70
     1
102
RTVSPost2010Prop44ColorIndex
 90
        5
102
RTVSPost2010Prop44ColorRGB
 90
      255
102
RTVSPost2010PropOp44
 70
     1
102
RTVSPost2010Prop45
280
     0
102
RTVSPost2010PropOp45
 70
     1
102
RTVSPost2010Prop46
 90
       50
102
RTVSPost2010PropOp46
 70
     1
102
RTVSPost2010Prop47
 90
       50
102
RTVSPost2010PropOp47
 70
     1
102
RTVSPost2010Prop48
 90
       50
102
RTVSPost2010PropOp48
 70
     1
102
RTVSPost2010Prop49
280
     0
102
RTVSPost2010PropOp49
 70
     1
102
RTVSPost2010Prop50
 90
       50
102
RTVSPost2010PropOp50
 70
     1
102
RTVSPost2010Prop51ColorIndex
 90
      256
102
RTVSPost2010Prop51ColorRGB
 90
-16777216
102
RTVSPost2010PropOp51
 70
     0
102
RTVSPost2010Prop52
140
1.0
102
RTVSPost2010PropOp52
 70
     0
102
RTVSPost2010Prop53
 90
        2
102
RTVSPost2010PropOp53
 70
     1
102
RTVSPost2010Prop54
  1
strokes_ogs.tif
102
RTVSPost2010PropOp54
 70
     1
102
RTVSPost2010Prop55
280
     0
102
RTVSPost2010PropOp55
 70
     1
102
RTVSPost2010Prop56
140
1.0
102
RTVSPost2010PropOp56
 70
     1
102
RTVSPost2010Prop57
140
1.0
102
RTVSPost2010PropOp57
 70
     1
  0
XRECORD
  5
11A
102
{ACAD_REACTORS
330
119
102
}
330
119
100
AcDbXrecord
280
     1
102
RTVSPropertyOp0
 70
     1
102
RTVSPropertyOp1
 70
     1
102
RTVSPropertyOp2
 70
     1
102
RTVSPropertyOp3
 70
     1
102
RTVSPropertyOp4
 70
     1
102
RTVSPropertyOp5
 70
     1
102
RTVSPropertyOp6
 70
     1
102
RTVSPropertyOp7
 70
     1
102
RTVSPropertyOp8
 70
     1
102
RTVSPropertyOp9
 70
     1
102
RTVSPropertyOp10
 70
     1
102
RTVSPropertyOp11
 70
     1
102
RTVSPropertyOp12
 70
     1
102
RTVSPropertyOp13
 70
     1
102
RTVSPropertyOp14
 70
     1
102
RTVSPropertyOp15
 70
     1
102
RTVSPropertyOp16
 70
     1
102
RTVSPropertyOp17
 70
     1
102
RTVSPropertyOp18
 70
     1
102
RTVSPropertyOp19
 70
     1
102
RTVSPropertyOp20
 70
     1
102
RTVSPropertyOp21
 70
     1
102
RTVSPropertyOp22
 70
     1
102
RTVSPropertyOp23
 70
     1
102
RTVSPropertyOp24
 70
     1
102
RTVSPropertyOp25
 70
     1
102
RTVSPropertyOp26
 70
     1
102
RTVSPropertyOp27
 70
     1
102
RTVSPropertyOp28
 70
     1
102
RTVSPropertyOp29
 70
     1
102
RTVSPropertyOp30
 70
     1
102
RTVSPropertyOp31
 70
     1
102
RTVSPropertyOp32
 70
     1
102
RTVSPropertyOp33
 70
     1
102
RTVSPropertyOp34
 70
     1
102
RTVSPropertyOp35
 70
     1
102
RTVSPropertyOp36
 70
     1
102
RTVSPropertyOp37
 70
     1
102
RTVSPropertyOp38
 70
     1
102
RTVSPropertyOp39
 70
     1
102
RTVSPropertyOp40
 70
     1
102
RTVSPropertyOp41
 70
     1
102
RTVSPropertyOp42
 70
     1
102
RTVSPropertyOp43
 70
     1
102
RTVSPropertyOp44
 70
     1
102
RTVSPropertyOp45
 70
     1
102
RTVSPropertyOp46
 70
     1
102
RTVSPropertyOp47
 70
     1
102
RTVSPropertyOp48
 70
     1
102
RTVSPropertyOp49
 70
     1
102
RTVSPropertyOp50
 70
     1
102
RTVSPropertyOp51
 70
     0
102
RTVSPropertyOp52
 70
     0
102
RTVSPropertyOp53
 70
     1
102
RTVSPropertyOp54
 70
     1
102
RTVSPropertyOp55
 70
     1
102
RTVSPropertyOp56
 70
     1
102
RTVSPropertyOp57
 70
     1
102
RTVSPost2010Prop28
280
     0
102
RTVSPost2010PropOp28
 70
     1
102
RTVSPost2010Prop29
280
     1
102
RTVSPost2010PropOp29
 70
     1
102
RTVSPost2010Prop30
280
     1
102
RTVSPost2010PropOp30
 70
     1
102
RTVSPost2010Prop31
280
     0
102
RTVSPost2010PropOp31
 70
     1
102
RTVSPost2010Prop32
280
     0
102
RTVSPost2010PropOp32
 70
     1
102
RTVSPost2010Prop33
280
     0
102
RTVSPost2010PropOp33
 70
     1
102
RTVSPost2010Prop34
280
     0
102
RTVSPost2010PropOp34
 70
     1
102
RTVSPost2010Prop35
280
     0
102
RTVSPost2010PropOp35
 70
     1
102
RTVSPost2010Prop36
280
     0
102
RTVSPost2010PropOp36
 70
     1
102
RTVSPost2010Prop37
 90
       50
102
RTVSPost2010PropOp37
 70
     1
102
RTVSPost2010Prop38
140
0.0
102
RTVSPost2010PropOp38
 70
     1
102
RTVSPost2010Prop39
140
1.0
102
RTVSPost2010PropOp39
 70
     1
102
RTVSPost2010Prop40
 90
        0
102
RTVSPost2010PropOp40
 70
     1
102
RTVSPost2010Prop41ColorIndex
 90
       18
102
RTVSPost2010Prop41ColorRGB
 90
        0
102
RTVSPost2010PropOp41
 70
     1
102
RTVSPost2010Prop42
 90
       50
102
RTVSPost2010PropOp42
 70
     1
102
RTVSPost2010Prop43
 90
        3
102
RTVSPost2010PropOp43
 70
     1
102
RTVSPost2010Prop44ColorIndex
 90
        5
102
RTVSPost2010Prop44ColorRGB
 90
      255
102
RTVSPost2010PropOp44
 70
     1
102
RTVSPost2010Prop45
280
     0
102
RTVSPost2010PropOp45
 70
     1
102
RTVSPost2010Prop46
 90
       50
102
RTVSPost2010PropOp46
 70
     1
102
RTVSPost2010Prop47
 90
       50
102
RTVSPost2010PropOp47
 70
     1
102
RTVSPost2010Prop48
 90
       50
102
RTVSPost2010PropOp48
 70
     1
102
RTVSPost2010Prop49
280
     0
102
RTVSPost2010PropOp49
 70
     1
102
RTVSPost2010Prop50
 90
       50
102
RTVSPost2010PropOp50
 70
     1
102
RTVSPost2010Prop51ColorIndex
 90
      256
102
RTVSPost2010Prop51ColorRGB
 90
-16777216
102
RTVSPost2010PropOp51
 70
     0
102
RTVSPost2010Prop52
140
1.0
102
RTVSPost2010PropOp52
 70
     0
102
RTVSPost2010Prop53
 90
        2
102
RTVSPost2010PropOp53
 70
     1
102
RTVSPost2010Prop54
  1
strokes_ogs.tif
102
RTVSPost2010PropOp54
 70
     1
102
RTVSPost2010Prop55
280
     0
102
RTVSPost2010PropOp55
 70
     1
102
RTVSPost2010Prop56
140
1.0
102
RTVSPost2010PropOp56
 70
     1
102
RTVSPost2010Prop57
140
1.0
102
RTVSPost2010PropOp57
 70
     1
  0
XRECORD
  5
12A
102
{ACAD_REACTORS
330
129
102
}
330
129
100
AcDbXrecord
280
     1
102
RTVSPropertyOp0
 70
     0
102
RTVSPropertyOp1
 70
     0
102
RTVSPropertyOp2
 70
     0
102
RTVSPropertyOp3
 70
     0
102
RTVSPropertyOp4
 70
     0
102
RTVSPropertyOp5
 70
     0
102
RTVSPropertyOp6
 70
     0
102
RTVSPropertyOp7
 70
     0
102
RTVSPropertyOp8
 70
     0
102
RTVSPropertyOp9
 70
     0
102
RTVSPropertyOp10
 70
     0
102
RTVSPropertyOp11
 70
     0
102
RTVSPropertyOp12
 70
     0
102
RTVSPropertyOp13
 70
     0
102
RTVSPropertyOp14
 70
     2
102
RTVSPropertyOp15
 70
     0
102
RTVSPropertyOp16
 70
     0
102
RTVSPropertyOp17
 70
     0
102
RTVSPropertyOp18
 70
     0
102
RTVSPropertyOp19
 70
     0
102
RTVSPropertyOp20
 70
     0
102
RTVSPropertyOp21
 70
     0
102
RTVSPropertyOp22
 70
     0
102
RTVSPropertyOp23
 70
     0
102
RTVSPropertyOp24
 70
     0
102
RTVSPropertyOp25
 70
     0
102
RTVSPropertyOp26
 70
     0
102
RTVSPropertyOp27
 70
     0
102
RTVSPropertyOp28
 70
     0
102
RTVSPropertyOp29
 70
     0
102
RTVSPropertyOp30
 70
     0
102
RTVSPropertyOp31
 70
     0
102
RTVSPropertyOp32
 70
     0
102
RTVSPropertyOp33
 70
     0
102
RTVSPropertyOp34
 70
     0
102
RTVSPropertyOp35
 70
     0
102
RTVSPropertyOp36
 70
     0
102
RTVSPropertyOp37
 70
     0
102
RTVSPropertyOp38
 70
     0
102
RTVSPropertyOp39
 70
     0
102
RTVSPropertyOp40
 70
     0
102
RTVSPropertyOp41
 70
     0
102
RTVSPropertyOp42
 70
     0
102
RTVSPropertyOp43
 70
     0
102
RTVSPropertyOp44
 70
     0
102
RTVSPropertyOp45
 70
     0
102
RTVSPropertyOp46
 70
     0
102
RTVSPropertyOp47
 70
     0
102
RTVSPropertyOp48
 70
     0
102
RTVSPropertyOp49
 70
     0
102
RTVSPropertyOp50
 70
     0
102
RTVSPropertyOp51
 70
     0
102
RTVSPropertyOp52
 70
     0
102
RTVSPropertyOp53
 70
     0
102
RTVSPropertyOp54
 70
     0
102
RTVSPropertyOp55
 70
     0
102
RTVSPropertyOp56
 70
     0
102
RTVSPropertyOp57
 70
     0
102
RTVSPost2010Prop28
280
     0
102
RTVSPost2010PropOp28
 70
     0
102
RTVSPost2010Prop29
280
     1
102
RTVSPost2010PropOp29
 70
     0
102
RTVSPost2010Prop30
280
     1
102
RTVSPost2010PropOp30
 70
     0
102
RTVSPost2010Prop31
280
     0
102
RTVSPost2010PropOp31
 70
     0
102
RTVSPost2010Prop32
280
     0
102
RTVSPost2010PropOp32
 70
     0
102
RTVSPost2010Prop33
280
     0
102
RTVSPost2010PropOp33
 70
     0
102
RTVSPost2010Prop34
280
     0
102
RTVSPost2010PropOp34
 70
     0
102
RTVSPost2010Prop35
280
     0
102
RTVSPost2010PropOp35
 70
     0
102
RTVSPost2010Prop36
280
     0
102
RTVSPost2010PropOp36
 70
     0
102
RTVSPost2010Prop37
 90
       50
102
RTVSPost2010PropOp37
 70
     0
102
RTVSPost2010Prop38
140
0.0
102
RTVSPost2010PropOp38
 70
     0
102
RTVSPost2010Prop39
140
1.0
102
RTVSPost2010PropOp39
 70
     0
102
RTVSPost2010Prop40
 90
        0
102
RTVSPost2010PropOp40
 70
     0
102
RTVSPost2010Prop41ColorIndex
 90
       18
102
RTVSPost2010Prop41ColorRGB
 90
        0
102
RTVSPost2010PropOp41
 70
     0
102
RTVSPost2010Prop42
 90
       50
102
RTVSPost2010PropOp42
 70
     0
102
RTVSPost2010Prop43
 90
        3
102
RTVSPost2010PropOp43
 70
     0
102
RTVSPost2010Prop44ColorIndex
 90
        5
102
RTVSPost2010Prop44ColorRGB
 90
      255
102
RTVSPost2010PropOp44
 70
     0
102
RTVSPost2010Prop45
280
     0
102
RTVSPost2010PropOp45
 70
     0
102
RTVSPost2010Prop46
 90
       50
102
RTVSPost2010PropOp46
 70
     0
102
RTVSPost2010Prop47
 90
       50
102
RTVSPost2010PropOp47
 70
     0
102
RTVSPost2010Prop48
 90
       50
102
RTVSPost2010PropOp48
 70
     0
102
RTVSPost2010Prop49
280
     0
102
RTVSPost2010PropOp49
 70
     0
102
RTVSPost2010Prop50
 90
       50
102
RTVSPost2010PropOp50
 70
     0
102
RTVSPost2010Prop51ColorIndex
 90
      256
102
RTVSPost2010Prop51ColorRGB
 90
-16777216
102
RTVSPost2010PropOp51
 70
     0
102
RTVSPost2010Prop52
140
1.0
102
RTVSPost2010PropOp52
 70
     0
102
RTVSPost2010Prop53
 90
        2
102
RTVSPost2010PropOp53
 70
     0
102
RTVSPost2010Prop54
  1
strokes_ogs.tif
102
RTVSPost2010PropOp54
 70
     0
102
RTVSPost2010Prop55
280
     0
102
RTVSPost2010PropOp55
 70
     0
102
RTVSPost2010Prop56
140
1.0
102
RTVSPost2010PropOp56
 70
     0
102
RTVSPost2010Prop57
140
1.0
102
RTVSPost2010PropOp57
 70
     0
  0
XRECORD
  5
122
102
{ACAD_REACTORS
330
121
102
}
330
121
100
AcDbXrecord
280
     1
102
RTVSPropertyOp0
 70
     1
102
RTVSPropertyOp1
 70
     1
102
RTVSPropertyOp2
 70
     1
102
RTVSPropertyOp3
 70
     1
102
RTVSPropertyOp4
 70
     1
102
RTVSPropertyOp5
 70
     1
102
RTVSPropertyOp6
 70
     1
102
RTVSPropertyOp7
 70
     1
102
RTVSPropertyOp8
 70
     1
102
RTVSPropertyOp9
 70
     1
102
RTVSPropertyOp10
 70
     1
102
RTVSPropertyOp11
 70
     1
102
RTVSPropertyOp12
 70
     1
102
RTVSPropertyOp13
 70
     1
102
RTVSPropertyOp14
 70
     1
102
RTVSPropertyOp15
 70
     1
102
RTVSPropertyOp16
 70
     1
102
RTVSPropertyOp17
 70
     1
102
RTVSPropertyOp18
 70
     1
102
RTVSPropertyOp19
 70
     1
102
RTVSPropertyOp20
 70
     1
102
RTVSPropertyOp21
 70
     1
102
RTVSPropertyOp22
 70
     1
102
RTVSPropertyOp23
 70
     1
102
RTVSPropertyOp24
 70
     1
102
RTVSPropertyOp25
 70
     1
102
RTVSPropertyOp26
 70
     1
102
RTVSPropertyOp27
 70
     1
102
RTVSPropertyOp28
 70
     1
102
RTVSPropertyOp29
 70
     1
102
RTVSPropertyOp30
 70
     1
102
RTVSPropertyOp31
 70
     1
102
RTVSPropertyOp32
 70
     1
102
RTVSPropertyOp33
 70
     1
102
RTVSPropertyOp34
 70
     1
102
RTVSPropertyOp35
 70
     1
102
RTVSPropertyOp36
 70
     1
102
RTVSPropertyOp37
 70
     1
102
RTVSPropertyOp38
 70
     1
102
RTVSPropertyOp39
 70
     1
102
RTVSPropertyOp40
 70
     1
102
RTVSPropertyOp41
 70
     1
102
RTVSPropertyOp42
 70
     1
102
RTVSPropertyOp43
 70
     1
102
RTVSPropertyOp44
 70
     1
102
RTVSPropertyOp45
 70
     1
102
RTVSPropertyOp46
 70
     1
102
RTVSPropertyOp47
 70
     1
102
RTVSPropertyOp48
 70
     1
102
RTVSPropertyOp49
 70
     1
102
RTVSPropertyOp50
 70
     1
102
RTVSPropertyOp51
 70
     0
102
RTVSPropertyOp52
 70
     0
102
RTVSPropertyOp53
 70
     1
102
RTVSPropertyOp54
 70
     1
102
RTVSPropertyOp55
 70
     1
102
RTVSPropertyOp56
 70
     1
102
RTVSPropertyOp57
 70
     1
102
RTVSPost2010Prop28
280
     0
102
RTVSPost2010PropOp28
 70
     1
102
RTVSPost2010Prop29
280
     1
102
RTVSPost2010PropOp29
 70
     1
102
RTVSPost2010Prop30
280
     1
102
RTVSPost2010PropOp30
 70
     1
102
RTVSPost2010Prop31
280
     0
102
RTVSPost2010PropOp31
 70
     1
102
RTVSPost2010Prop32
280
     0
102
RTVSPost2010PropOp32
 70
     1
102
RTVSPost2010Prop33
280
     0
102
RTVSPost2010PropOp33
 70
     1
102
RTVSPost2010Prop34
280
     0
102
RTVSPost2010PropOp34
 70
     1
102
RTVSPost2010Prop35
280
     0
102
RTVSPost2010PropOp35
 70
     1
102
RTVSPost2010Prop36
280
     0
102
RTVSPost2010PropOp36
 70
     1
102
RTVSPost2010Prop37
 90
       50
102
RTVSPost2010PropOp37
 70
     1
102
RTVSPost2010Prop38
140
0.0
102
RTVSPost2010PropOp38
 70
     1
102
RTVSPost2010Prop39
140
1.0
102
RTVSPost2010PropOp39
 70
     1
102
RTVSPost2010Prop40
 90
        0
102
RTVSPost2010PropOp40
 70
     1
102
RTVSPost2010Prop41ColorIndex
 90
       18
102
RTVSPost2010Prop41ColorRGB
 90
        0
102
RTVSPost2010PropOp41
 70
     1
102
RTVSPost2010Prop42
 90
       50
102
RTVSPost2010PropOp42
 70
     1
102
RTVSPost2010Prop43
 90
        3
102
RTVSPost2010PropOp43
 70
     1
102
RTVSPost2010Prop44ColorIndex
 90
        5
102
RTVSPost2010Prop44ColorRGB
 90
      255
102
RTVSPost2010PropOp44
 70
     1
102
RTVSPost2010Prop45
280
     0
102
RTVSPost2010PropOp45
 70
     1
102
RTVSPost2010Prop46
 90
       50
102
RTVSPost2010PropOp46
 70
     1
102
RTVSPost2010Prop47
 90
       50
102
RTVSPost2010PropOp47
 70
     1
102
RTVSPost2010Prop48
 90
       50
102
RTVSPost2010PropOp48
 70
     1
102
RTVSPost2010Prop49
280
     0
102
RTVSPost2010PropOp49
 70
     1
102
RTVSPost2010Prop50
 90
       50
102
RTVSPost2010PropOp50
 70
     1
102
RTVSPost2010Prop51ColorIndex
 90
      256
102
RTVSPost2010Prop51ColorRGB
 90
-16777216
102
RTVSPost2010PropOp51
 70
     0
102
RTVSPost2010Prop52
140
1.0
102
RTVSPost2010PropOp52
 70
     0
102
RTVSPost2010Prop53
 90
        2
102
RTVSPost2010PropOp53
 70
     1
102
RTVSPost2010Prop54
  1
strokes_ogs.tif
102
RTVSPost2010PropOp54
 70
     1
102
RTVSPost2010Prop55
280
     0
102
RTVSPost2010PropOp55
 70
     1
102
RTVSPost2010Prop56
140
1.0
102
RTVSPost2010PropOp56
 70
     1
102
RTVSPost2010Prop57
140
1.0
102
RTVSPost2010PropOp57
 70
     1
  0
XRECORD
  5
106
102
{ACAD_REACTORS
330
105
102
}
330
105
100
AcDbXrecord
280
     1
102
RTVSPropertyOp0
 70
     1
102
RTVSPropertyOp1
 70
     1
102
RTVSPropertyOp2
 70
     1
102
RTVSPropertyOp3
 70
     1
102
RTVSPropertyOp4
 70
     1
102
RTVSPropertyOp5
 70
     1
102
RTVSPropertyOp6
 70
     1
102
RTVSPropertyOp7
 70
     1
102
RTVSPropertyOp8
 70
     1
102
RTVSPropertyOp9
 70
     1
102
RTVSPropertyOp10
 70
     1
102
RTVSPropertyOp11
 70
     1
102
RTVSPropertyOp12
 70
     1
102
RTVSPropertyOp13
 70
     1
102
RTVSPropertyOp14
 70
     1
102
RTVSPropertyOp15
 70
     1
102
RTVSPropertyOp16
 70
     1
102
RTVSPropertyOp17
 70
     1
102
RTVSPropertyOp18
 70
     1
102
RTVSPropertyOp19
 70
     1
102
RTVSPropertyOp20
 70
     1
102
RTVSPropertyOp21
 70
     1
102
RTVSPropertyOp22
 70
     1
102
RTVSPropertyOp23
 70
     1
102
RTVSPropertyOp24
 70
     1
102
RTVSPropertyOp25
 70
     1
102
RTVSPropertyOp26
 70
     1
102
RTVSPropertyOp27
 70
     1
102
RTVSPropertyOp28
 70
     1
102
RTVSPropertyOp29
 70
     1
102
RTVSPropertyOp30
 70
     1
102
RTVSPropertyOp31
 70
     1
102
RTVSPropertyOp32
 70
     1
102
RTVSPropertyOp33
 70
     1
102
RTVSPropertyOp34
 70
     1
102
RTVSPropertyOp35
 70
     1
102
RTVSPropertyOp36
 70
     1
102
RTVSPropertyOp37
 70
     1
102
RTVSPropertyOp38
 70
     1
102
RTVSPropertyOp39
 70
     1
102
RTVSPropertyOp40
 70
     1
102
RTVSPropertyOp41
 70
     1
102
RTVSPropertyOp42
 70
     1
102
RTVSPropertyOp43
 70
     1
102
RTVSPropertyOp44
 70
     1
102
RTVSPropertyOp45
 70
     1
102
RTVSPropertyOp46
 70
     1
102
RTVSPropertyOp47
 70
     1
102
RTVSPropertyOp48
 70
     1
102
RTVSPropertyOp49
 70
     1
102
RTVSPropertyOp50
 70
     1
102
RTVSPropertyOp51
 70
     0
102
RTVSPropertyOp52
 70
     0
102
RTVSPropertyOp53
 70
     1
102
RTVSPropertyOp54
 70
     1
102
RTVSPropertyOp55
 70
     1
102
RTVSPropertyOp56
 70
     1
102
RTVSPropertyOp57
 70
     1
102
RTVSPost2010Prop28
280
     0
102
RTVSPost2010PropOp28
 70
     1
102
RTVSPost2010Prop29
280
     1
102
RTVSPost2010PropOp29
 70
     1
102
RTVSPost2010Prop30
280
     1
102
RTVSPost2010PropOp30
 70
     1
102
RTVSPost2010Prop31
280
     0
102
RTVSPost2010PropOp31
 70
     1
102
RTVSPost2010Prop32
280
     0
102
RTVSPost2010PropOp32
 70
     1
102
RTVSPost2010Prop33
280
     0
102
RTVSPost2010PropOp33
 70
     1
102
RTVSPost2010Prop34
280
     0
102
RTVSPost2010PropOp34
 70
     1
102
RTVSPost2010Prop35
280
     0
102
RTVSPost2010PropOp35
 70
     1
102
RTVSPost2010Prop36
280
     0
102
RTVSPost2010PropOp36
 70
     1
102
RTVSPost2010Prop37
 90
       50
102
RTVSPost2010PropOp37
 70
     1
102
RTVSPost2010Prop38
140
0.0
102
RTVSPost2010PropOp38
 70
     1
102
RTVSPost2010Prop39
140
1.0
102
RTVSPost2010PropOp39
 70
     1
102
RTVSPost2010Prop40
 90
        0
102
RTVSPost2010PropOp40
 70
     1
102
RTVSPost2010Prop41ColorIndex
 90
       18
102
RTVSPost2010Prop41ColorRGB
 90
        0
102
RTVSPost2010PropOp41
 70
     1
102
RTVSPost2010Prop42
 90
       50
102
RTVSPost2010PropOp42
 70
     1
102
RTVSPost2010Prop43
 90
        3
102
RTVSPost2010PropOp43
 70
     1
102
RTVSPost2010Prop44ColorIndex
 90
        5
102
RTVSPost2010Prop44ColorRGB
 90
      255
102
RTVSPost2010PropOp44
 70
     1
102
RTVSPost2010Prop45
280
     0
102
RTVSPost2010PropOp45
 70
     1
102
RTVSPost2010Prop46
 90
       50
102
RTVSPost2010PropOp46
 70
     1
102
RTVSPost2010Prop47
 90
       50
102
RTVSPost2010PropOp47
 70
     1
102
RTVSPost2010Prop48
 90
       50
102
RTVSPost2010PropOp48
 70
     1
102
RTVSPost2010Prop49
280
     0
102
RTVSPost2010PropOp49
 70
     1
102
RTVSPost2010Prop50
 90
       50
102
RTVSPost2010PropOp50
 70
     1
102
RTVSPost2010Prop51ColorIndex
 90
      256
102
RTVSPost2010Prop51ColorRGB
 90
-16777216
102
RTVSPost2010PropOp51
 70
     0
102
RTVSPost2010Prop52
140
1.0
102
RTVSPost2010PropOp52
 70
     0
102
RTVSPost2010Prop53
 90
        2
102
RTVSPost2010PropOp53
 70
     1
102
RTVSPost2010Prop54
  1
strokes_ogs.tif
102
RTVSPost2010PropOp54
 70
     1
102
RTVSPost2010Prop55
280
     0
102
RTVSPost2010PropOp55
 70
     1
102
RTVSPost2010Prop56
140
1.0
102
RTVSPost2010PropOp56
 70
     1
102
RTVSPost2010Prop57
140
1.0
102
RTVSPost2010PropOp57
 70
     1
  0
XRECORD
  5
108
102
{ACAD_REACTORS
330
107
102
}
330
107
100
AcDbXrecord
280
     1
102
RTVSPropertyOp0
 70
     1
102
RTVSPropertyOp1
 70
     1
102
RTVSPropertyOp2
 70
     1
102
RTVSPropertyOp3
 70
     1
102
RTVSPropertyOp4
 70
     1
102
RTVSPropertyOp5
 70
     1
102
RTVSPropertyOp6
 70
     1
102
RTVSPropertyOp7
 70
     1
102
RTVSPropertyOp8
 70
     1
102
RTVSPropertyOp9
 70
     1
102
RTVSPropertyOp10
 70
     1
102
RTVSPropertyOp11
 70
     1
102
RTVSPropertyOp12
 70
     1
102
RTVSPropertyOp13
 70
     1
102
RTVSPropertyOp14
 70
     1
102
RTVSPropertyOp15
 70
     1
102
RTVSPropertyOp16
 70
     1
102
RTVSPropertyOp17
 70
     1
102
RTVSPropertyOp18
 70
     1
102
RTVSPropertyOp19
 70
     1
102
RTVSPropertyOp20
 70
     1
102
RTVSPropertyOp21
 70
     1
102
RTVSPropertyOp22
 70
     1
102
RTVSPropertyOp23
 70
     1
102
RTVSPropertyOp24
 70
     1
102
RTVSPropertyOp25
 70
     1
102
RTVSPropertyOp26
 70
     1
102
RTVSPropertyOp27
 70
     1
102
RTVSPropertyOp28
 70
     1
102
RTVSPropertyOp29
 70
     1
102
RTVSPropertyOp30
 70
     1
102
RTVSPropertyOp31
 70
     1
102
RTVSPropertyOp32
 70
     1
102
RTVSPropertyOp33
 70
     1
102
RTVSPropertyOp34
 70
     1
102
RTVSPropertyOp35
 70
     1
102
RTVSPropertyOp36
 70
     1
102
RTVSPropertyOp37
 70
     1
102
RTVSPropertyOp38
 70
     1
102
RTVSPropertyOp39
 70
     1
102
RTVSPropertyOp40
 70
     1
102
RTVSPropertyOp41
 70
     1
102
RTVSPropertyOp42
 70
     1
102
RTVSPropertyOp43
 70
     1
102
RTVSPropertyOp44
 70
     1
102
RTVSPropertyOp45
 70
     1
102
RTVSPropertyOp46
 70
     1
102
RTVSPropertyOp47
 70
     1
102
RTVSPropertyOp48
 70
     1
102
RTVSPropertyOp49
 70
     1
102
RTVSPropertyOp50
 70
     1
102
RTVSPropertyOp51
 70
     0
102
RTVSPropertyOp52
 70
     0
102
RTVSPropertyOp53
 70
     1
102
RTVSPropertyOp54
 70
     1
102
RTVSPropertyOp55
 70
     1
102
RTVSPropertyOp56
 70
     1
102
RTVSPropertyOp57
 70
     1
102
RTVSPost2010Prop28
280
     0
102
RTVSPost2010PropOp28
 70
     1
102
RTVSPost2010Prop29
280
     1
102
RTVSPost2010PropOp29
 70
     1
102
RTVSPost2010Prop30
280
     1
102
RTVSPost2010PropOp30
 70
     1
102
RTVSPost2010Prop31
280
     0
102
RTVSPost2010PropOp31
 70
     1
102
RTVSPost2010Prop32
280
     0
102
RTVSPost2010PropOp32
 70
     1
102
RTVSPost2010Prop33
280
     0
102
RTVSPost2010PropOp33
 70
     1
102
RTVSPost2010Prop34
280
     0
102
RTVSPost2010PropOp34
 70
     1
102
RTVSPost2010Prop35
280
     0
102
RTVSPost2010PropOp35
 70
     1
102
RTVSPost2010Prop36
280
     0
102
RTVSPost2010PropOp36
 70
     1
102
RTVSPost2010Prop37
 90
       50
102
RTVSPost2010PropOp37
 70
     1
102
RTVSPost2010Prop38
140
0.0
102
RTVSPost2010PropOp38
 70
     1
102
RTVSPost2010Prop39
140
1.0
102
RTVSPost2010PropOp39
 70
     1
102
RTVSPost2010Prop40
 90
        0
102
RTVSPost2010PropOp40
 70
     1
102
RTVSPost2010Prop41ColorIndex
 90
       18
102
RTVSPost2010Prop41ColorRGB
 90
        0
102
RTVSPost2010PropOp41
 70
     1
102
RTVSPost2010Prop42
 90
       50
102
RTVSPost2010PropOp42
 70
     1
102
RTVSPost2010Prop43
 90
        3
102
RTVSPost2010PropOp43
 70
     1
102
RTVSPost2010Prop44ColorIndex
 90
        5
102
RTVSPost2010Prop44ColorRGB
 90
      255
102
RTVSPost2010PropOp44
 70
     1
102
RTVSPost2010Prop45
280
     0
102
RTVSPost2010PropOp45
 70
     1
102
RTVSPost2010Prop46
 90
       50
102
RTVSPost2010PropOp46
 70
     1
102
RTVSPost2010Prop47
 90
       50
102
RTVSPost2010PropOp47
 70
     1
102
RTVSPost2010Prop48
 90
       50
102
RTVSPost2010PropOp48
 70
     1
102
RTVSPost2010Prop49
280
     0
102
RTVSPost2010PropOp49
 70
     1
102
RTVSPost2010Prop50
 90
       50
102
RTVSPost2010PropOp50
 70
     1
102
RTVSPost2010Prop51ColorIndex
 90
      256
102
RTVSPost2010Prop51ColorRGB
 90
-16777216
102
RTVSPost2010PropOp51
 70
     0
102
RTVSPost2010Prop52
140
1.0
102
RTVSPost2010PropOp52
 70
     0
102
RTVSPost2010Prop53
 90
        2
102
RTVSPost2010PropOp53
 70
     1
102
RTVSPost2010Prop54
  1
strokes_ogs.tif
102
RTVSPost2010PropOp54
 70
     1
102
RTVSPost2010Prop55
280
     0
102
RTVSPost2010PropOp55
 70
     1
102
RTVSPost2010Prop56
140
1.0
102
RTVSPost2010PropOp56
 70
     1
102
RTVSPost2010Prop57
140
1.0
102
RTVSPost2010PropOp57
 70
     1
  0
XRECORD
  5
10A
102
{ACAD_REACTORS
330
109
102
}
330
109
100
AcDbXrecord
280
     1
102
RTVSPropertyOp0
 70
     1
102
RTVSPropertyOp1
 70
     1
102
RTVSPropertyOp2
 70
     1
102
RTVSPropertyOp3
 70
     1
102
RTVSPropertyOp4
 70
     1
102
RTVSPropertyOp5
 70
     1
102
RTVSPropertyOp6
 70
     1
102
RTVSPropertyOp7
 70
     1
102
RTVSPropertyOp8
 70
     1
102
RTVSPropertyOp9
 70
     1
102
RTVSPropertyOp10
 70
     1
102
RTVSPropertyOp11
 70
     1
102
RTVSPropertyOp12
 70
     1
102
RTVSPropertyOp13
 70
     1
102
RTVSPropertyOp14
 70
     1
102
RTVSPropertyOp15
 70
     1
102
RTVSPropertyOp16
 70
     1
102
RTVSPropertyOp17
 70
     1
102
RTVSPropertyOp18
 70
     1
102
RTVSPropertyOp19
 70
     1
102
RTVSPropertyOp20
 70
     1
102
RTVSPropertyOp21
 70
     1
102
RTVSPropertyOp22
 70
     1
102
RTVSPropertyOp23
 70
     1
102
RTVSPropertyOp24
 70
     1
102
RTVSPropertyOp25
 70
     1
102
RTVSPropertyOp26
 70
     1
102
RTVSPropertyOp27
 70
     1
102
RTVSPropertyOp28
 70
     1
102
RTVSPropertyOp29
 70
     1
102
RTVSPropertyOp30
 70
     1
102
RTVSPropertyOp31
 70
     1
102
RTVSPropertyOp32
 70
     1
102
RTVSPropertyOp33
 70
     1
102
RTVSPropertyOp34
 70
     1
102
RTVSPropertyOp35
 70
     1
102
RTVSPropertyOp36
 70
     1
102
RTVSPropertyOp37
 70
     1
102
RTVSPropertyOp38
 70
     1
102
RTVSPropertyOp39
 70
     1
102
RTVSPropertyOp40
 70
     1
102
RTVSPropertyOp41
 70
     1
102
RTVSPropertyOp42
 70
     1
102
RTVSPropertyOp43
 70
     1
102
RTVSPropertyOp44
 70
     1
102
RTVSPropertyOp45
 70
     1
102
RTVSPropertyOp46
 70
     1
102
RTVSPropertyOp47
 70
     1
102
RTVSPropertyOp48
 70
     1
102
RTVSPropertyOp49
 70
     1
102
RTVSPropertyOp50
 70
     1
102
RTVSPropertyOp51
 70
     0
102
RTVSPropertyOp52
 70
     0
102
RTVSPropertyOp53
 70
     1
102
RTVSPropertyOp54
 70
     1
102
RTVSPropertyOp55
 70
     1
102
RTVSPropertyOp56
 70
     1
102
RTVSPropertyOp57
 70
     1
102
RTVSPost2010Prop28
280
     0
102
RTVSPost2010PropOp28
 70
     1
102
RTVSPost2010Prop29
280
     1
102
RTVSPost2010PropOp29
 70
     1
102
RTVSPost2010Prop30
280
     1
102
RTVSPost2010PropOp30
 70
     1
102
RTVSPost2010Prop31
280
     0
102
RTVSPost2010PropOp31
 70
     1
102
RTVSPost2010Prop32
280
     0
102
RTVSPost2010PropOp32
 70
     1
102
RTVSPost2010Prop33
280
     0
102
RTVSPost2010PropOp33
 70
     1
102
RTVSPost2010Prop34
280
     0
102
RTVSPost2010PropOp34
 70
     1
102
RTVSPost2010Prop35
280
     0
102
RTVSPost2010PropOp35
 70
     1
102
RTVSPost2010Prop36
280
     0
102
RTVSPost2010PropOp36
 70
     1
102
RTVSPost2010Prop37
 90
       50
102
RTVSPost2010PropOp37
 70
     1
102
RTVSPost2010Prop38
140
0.0
102
RTVSPost2010PropOp38
 70
     1
102
RTVSPost2010Prop39
140
1.0
102
RTVSPost2010PropOp39
 70
     1
102
RTVSPost2010Prop40
 90
        0
102
RTVSPost2010PropOp40
 70
     1
102
RTVSPost2010Prop41ColorIndex
 90
       18
102
RTVSPost2010Prop41ColorRGB
 90
        0
102
RTVSPost2010PropOp41
 70
     1
102
RTVSPost2010Prop42
 90
       50
102
RTVSPost2010PropOp42
 70
     1
102
RTVSPost2010Prop43
 90
        3
102
RTVSPost2010PropOp43
 70
     1
102
RTVSPost2010Prop44ColorIndex
 90
        5
102
RTVSPost2010Prop44ColorRGB
 90
      255
102
RTVSPost2010PropOp44
 70
     1
102
RTVSPost2010Prop45
280
     0
102
RTVSPost2010PropOp45
 70
     1
102
RTVSPost2010Prop46
 90
       50
102
RTVSPost2010PropOp46
 70
     1
102
RTVSPost2010Prop47
 90
       50
102
RTVSPost2010PropOp47
 70
     1
102
RTVSPost2010Prop48
 90
       50
102
RTVSPost2010PropOp48
 70
     1
102
RTVSPost2010Prop49
280
     0
102
RTVSPost2010PropOp49
 70
     1
102
RTVSPost2010Prop50
 90
       50
102
RTVSPost2010PropOp50
 70
     1
102
RTVSPost2010Prop51ColorIndex
 90
      256
102
RTVSPost2010Prop51ColorRGB
 90
-16777216
102
RTVSPost2010PropOp51
 70
     0
102
RTVSPost2010Prop52
140
1.0
102
RTVSPost2010PropOp52
 70
     0
102
RTVSPost2010Prop53
 90
        2
102
RTVSPost2010PropOp53
 70
     1
102
RTVSPost2010Prop54
  1
strokes_ogs.tif
102
RTVSPost2010PropOp54
 70
     1
102
RTVSPost2010Prop55
280
     0
102
RTVSPost2010PropOp55
 70
     1
102
RTVSPost2010Prop56
140
1.0
102
RTVSPost2010PropOp56
 70
     1
102
RTVSPost2010Prop57
140
1.0
102
RTVSPost2010PropOp57
 70
     1
  0
XRECORD
  5
10C
102
{ACAD_REACTORS
330
10B
102
}
330
10B
100
AcDbXrecord
280
     1
102
RTVSPropertyOp0
 70
     1
102
RTVSPropertyOp1
 70
     1
102
RTVSPropertyOp2
 70
     1
102
RTVSPropertyOp3
 70
     1
102
RTVSPropertyOp4
 70
     1
102
RTVSPropertyOp5
 70
     1
102
RTVSPropertyOp6
 70
     1
102
RTVSPropertyOp7
 70
     1
102
RTVSPropertyOp8
 70
     1
102
RTVSPropertyOp9
 70
     1
102
RTVSPropertyOp10
 70
     1
102
RTVSPropertyOp11
 70
     1
102
RTVSPropertyOp12
 70
     1
102
RTVSPropertyOp13
 70
     1
102
RTVSPropertyOp14
 70
     1
102
RTVSPropertyOp15
 70
     1
102
RTVSPropertyOp16
 70
     1
102
RTVSPropertyOp17
 70
     1
102
RTVSPropertyOp18
 70
     1
102
RTVSPropertyOp19
 70
     1
102
RTVSPropertyOp20
 70
     1
102
RTVSPropertyOp21
 70
     1
102
RTVSPropertyOp22
 70
     1
102
RTVSPropertyOp23
 70
     1
102
RTVSPropertyOp24
 70
     1
102
RTVSPropertyOp25
 70
     1
102
RTVSPropertyOp26
 70
     1
102
RTVSPropertyOp27
 70
     1
102
RTVSPropertyOp28
 70
     1
102
RTVSPropertyOp29
 70
     1
102
RTVSPropertyOp30
 70
     1
102
RTVSPropertyOp31
 70
     1
102
RTVSPropertyOp32
 70
     1
102
RTVSPropertyOp33
 70
     1
102
RTVSPropertyOp34
 70
     1
102
RTVSPropertyOp35
 70
     1
102
RTVSPropertyOp36
 70
     1
102
RTVSPropertyOp37
 70
     1
102
RTVSPropertyOp38
 70
     1
102
RTVSPropertyOp39
 70
     1
102
RTVSPropertyOp40
 70
     1
102
RTVSPropertyOp41
 70
     1
102
RTVSPropertyOp42
 70
     1
102
RTVSPropertyOp43
 70
     1
102
RTVSPropertyOp44
 70
     1
102
RTVSPropertyOp45
 70
     1
102
RTVSPropertyOp46
 70
     1
102
RTVSPropertyOp47
 70
     1
102
RTVSPropertyOp48
 70
     1
102
RTVSPropertyOp49
 70
     1
102
RTVSPropertyOp50
 70
     1
102
RTVSPropertyOp51
 70
     0
102
RTVSPropertyOp52
 70
     0
102
RTVSPropertyOp53
 70
     1
102
RTVSPropertyOp54
 70
     1
102
RTVSPropertyOp55
 70
     1
102
RTVSPropertyOp56
 70
     1
102
RTVSPropertyOp57
 70
     1
102
RTVSPost2010Prop28
280
     0
102
RTVSPost2010PropOp28
 70
     1
102
RTVSPost2010Prop29
280
     1
102
RTVSPost2010PropOp29
 70
     1
102
RTVSPost2010Prop30
280
     1
102
RTVSPost2010PropOp30
 70
     1
102
RTVSPost2010Prop31
280
     0
102
RTVSPost2010PropOp31
 70
     1
102
RTVSPost2010Prop32
280
     0
102
RTVSPost2010PropOp32
 70
     1
102
RTVSPost2010Prop33
280
     0
102
RTVSPost2010PropOp33
 70
     1
102
RTVSPost2010Prop34
280
     0
102
RTVSPost2010PropOp34
 70
     1
102
RTVSPost2010Prop35
280
     0
102
RTVSPost2010PropOp35
 70
     1
102
RTVSPost2010Prop36
280
     0
102
RTVSPost2010PropOp36
 70
     1
102
RTVSPost2010Prop37
 90
       50
102
RTVSPost2010PropOp37
 70
     1
102
RTVSPost2010Prop38
140
0.0
102
RTVSPost2010PropOp38
 70
     1
102
RTVSPost2010Prop39
140
1.0
102
RTVSPost2010PropOp39
 70
     1
102
RTVSPost2010Prop40
 90
        0
102
RTVSPost2010PropOp40
 70
     1
102
RTVSPost2010Prop41ColorIndex
 90
       18
102
RTVSPost2010Prop41ColorRGB
 90
        0
102
RTVSPost2010PropOp41
 70
     1
102
RTVSPost2010Prop42
 90
       50
102
RTVSPost2010PropOp42
 70
     1
102
RTVSPost2010Prop43
 90
        3
102
RTVSPost2010PropOp43
 70
     1
102
RTVSPost2010Prop44ColorIndex
 90
        5
102
RTVSPost2010Prop44ColorRGB
 90
      255
102
RTVSPost2010PropOp44
 70
     1
102
RTVSPost2010Prop45
280
     0
102
RTVSPost2010PropOp45
 70
     1
102
RTVSPost2010Prop46
 90
       50
102
RTVSPost2010PropOp46
 70
     1
102
RTVSPost2010Prop47
 90
       50
102
RTVSPost2010PropOp47
 70
     1
102
RTVSPost2010Prop48
 90
       50
102
RTVSPost2010PropOp48
 70
     1
102
RTVSPost2010Prop49
280
     0
102
RTVSPost2010PropOp49
 70
     1
102
RTVSPost2010Prop50
 90
       50
102
RTVSPost2010PropOp50
 70
     1
102
RTVSPost2010Prop51ColorIndex
 90
      256
102
RTVSPost2010Prop51ColorRGB
 90
-16777216
102
RTVSPost2010PropOp51
 70
     0
102
RTVSPost2010Prop52
140
1.0
102
RTVSPost2010PropOp52
 70
     0
102
RTVSPost2010Prop53
 90
        2
102
RTVSPost2010PropOp53
 70
     1
102
RTVSPost2010Prop54
  1
strokes_ogs.tif
102
RTVSPost2010PropOp54
 70
     1
102
RTVSPost2010Prop55
280
     0
102
RTVSPost2010PropOp55
 70
     1
102
RTVSPost2010Prop56
140
1.0
102
RTVSPost2010PropOp56
 70
     1
102
RTVSPost2010Prop57
140
1.0
102
RTVSPost2010PropOp57
 70
     1
  0
XRECORD
  5
112
102
{ACAD_REACTORS
330
111
102
}
330
111
100
AcDbXrecord
280
     1
102
RTVSPropertyOp0
 70
     1
102
RTVSPropertyOp1
 70
     1
102
RTVSPropertyOp2
 70
     1
102
RTVSPropertyOp3
 70
     1
102
RTVSPropertyOp4
 70
     1
102
RTVSPropertyOp5
 70
     1
102
RTVSPropertyOp6
 70
     1
102
RTVSPropertyOp7
 70
     1
102
RTVSPropertyOp8
 70
     1
102
RTVSPropertyOp9
 70
     1
102
RTVSPropertyOp10
 70
     1
102
RTVSPropertyOp11
 70
     1
102
RTVSPropertyOp12
 70
     1
102
RTVSPropertyOp13
 70
     1
102
RTVSPropertyOp14
 70
     1
102
RTVSPropertyOp15
 70
     1
102
RTVSPropertyOp16
 70
     1
102
RTVSPropertyOp17
 70
     1
102
RTVSPropertyOp18
 70
     1
102
RTVSPropertyOp19
 70
     1
102
RTVSPropertyOp20
 70
     1
102
RTVSPropertyOp21
 70
     1
102
RTVSPropertyOp22
 70
     1
102
RTVSPropertyOp23
 70
     1
102
RTVSPropertyOp24
 70
     1
102
RTVSPropertyOp25
 70
     1
102
RTVSPropertyOp26
 70
     1
102
RTVSPropertyOp27
 70
     1
102
RTVSPropertyOp28
 70
     1
102
RTVSPropertyOp29
 70
     1
102
RTVSPropertyOp30
 70
     1
102
RTVSPropertyOp31
 70
     1
102
RTVSPropertyOp32
 70
     1
102
RTVSPropertyOp33
 70
     1
102
RTVSPropertyOp34
 70
     1
102
RTVSPropertyOp35
 70
     1
102
RTVSPropertyOp36
 70
     1
102
RTVSPropertyOp37
 70
     1
102
RTVSPropertyOp38
 70
     1
102
RTVSPropertyOp39
 70
     1
102
RTVSPropertyOp40
 70
     1
102
RTVSPropertyOp41
 70
     1
102
RTVSPropertyOp42
 70
     1
102
RTVSPropertyOp43
 70
     1
102
RTVSPropertyOp44
 70
     1
102
RTVSPropertyOp45
 70
     1
102
RTVSPropertyOp46
 70
     1
102
RTVSPropertyOp47
 70
     1
102
RTVSPropertyOp48
 70
     1
102
RTVSPropertyOp49
 70
     1
102
RTVSPropertyOp50
 70
     1
102
RTVSPropertyOp51
 70
     0
102
RTVSPropertyOp52
 70
     0
102
RTVSPropertyOp53
 70
     1
102
RTVSPropertyOp54
 70
     1
102
RTVSPropertyOp55
 70
     1
102
RTVSPropertyOp56
 70
     1
102
RTVSPropertyOp57
 70
     1
102
RTVSPost2010Prop28
280
     0
102
RTVSPost2010PropOp28
 70
     1
102
RTVSPost2010Prop29
280
     1
102
RTVSPost2010PropOp29
 70
     1
102
RTVSPost2010Prop30
280
     1
102
RTVSPost2010PropOp30
 70
     1
102
RTVSPost2010Prop31
280
     0
102
RTVSPost2010PropOp31
 70
     1
102
RTVSPost2010Prop32
280
     0
102
RTVSPost2010PropOp32
 70
     1
102
RTVSPost2010Prop33
280
     0
102
RTVSPost2010PropOp33
 70
     1
102
RTVSPost2010Prop34
280
     0
102
RTVSPost2010PropOp34
 70
     1
102
RTVSPost2010Prop35
280
     0
102
RTVSPost2010PropOp35
 70
     1
102
RTVSPost2010Prop36
280
     0
102
RTVSPost2010PropOp36
 70
     1
102
RTVSPost2010Prop37
 90
       50
102
RTVSPost2010PropOp37
 70
     1
102
RTVSPost2010Prop38
140
0.0
102
RTVSPost2010PropOp38
 70
     1
102
RTVSPost2010Prop39
140
1.0
102
RTVSPost2010PropOp39
 70
     1
102
RTVSPost2010Prop40
 90
        0
102
RTVSPost2010PropOp40
 70
     1
102
RTVSPost2010Prop41ColorIndex
 90
       18
102
RTVSPost2010Prop41ColorRGB
 90
        0
102
RTVSPost2010PropOp41
 70
     1
102
RTVSPost2010Prop42
 90
       50
102
RTVSPost2010PropOp42
 70
     1
102
RTVSPost2010Prop43
 90
        3
102
RTVSPost2010PropOp43
 70
     1
102
RTVSPost2010Prop44ColorIndex
 90
        5
102
RTVSPost2010Prop44ColorRGB
 90
      255
102
RTVSPost2010PropOp44
 70
     1
102
RTVSPost2010Prop45
280
     0
102
RTVSPost2010PropOp45
 70
     1
102
RTVSPost2010Prop46
 90
       50
102
RTVSPost2010PropOp46
 70
     1
102
RTVSPost2010Prop47
 90
       50
102
RTVSPost2010PropOp47
 70
     1
102
RTVSPost2010Prop48
 90
       50
102
RTVSPost2010PropOp48
 70
     1
102
RTVSPost2010Prop49
280
     0
102
RTVSPost2010PropOp49
 70
     1
102
RTVSPost2010Prop50
 90
       50
102
RTVSPost2010PropOp50
 70
     1
102
RTVSPost2010Prop51ColorIndex
 90
      256
102
RTVSPost2010Prop51ColorRGB
 90
-16777216
102
RTVSPost2010PropOp51
 70
     0
102
RTVSPost2010Prop52
140
1.0
102
RTVSPost2010PropOp52
 70
     0
102
RTVSPost2010Prop53
 90
        2
102
RTVSPost2010PropOp53
 70
     1
102
RTVSPost2010Prop54
  1
strokes_ogs.tif
102
RTVSPost2010PropOp54
 70
     1
102
RTVSPost2010Prop55
280
     0
102
RTVSPost2010PropOp55
 70
     1
102
RTVSPost2010Prop56
140
1.0
102
RTVSPost2010PropOp56
 70
     1
102
RTVSPost2010Prop57
140
1.0
102
RTVSPost2010PropOp57
 70
     1
  0
XRECORD
  5
126
102
{ACAD_REACTORS
330
125
102
}
330
125
100
AcDbXrecord
280
     1
102
RTVSPropertyOp0
 70
     0
102
RTVSPropertyOp1
 70
     0
102
RTVSPropertyOp2
 70
     0
102
RTVSPropertyOp3
 70
     0
102
RTVSPropertyOp4
 70
     0
102
RTVSPropertyOp5
 70
     0
102
RTVSPropertyOp6
 70
     0
102
RTVSPropertyOp7
 70
     0
102
RTVSPropertyOp8
 70
     0
102
RTVSPropertyOp9
 70
     0
102
RTVSPropertyOp10
 70
     0
102
RTVSPropertyOp11
 70
     0
102
RTVSPropertyOp12
 70
     0
102
RTVSPropertyOp13
 70
     0
102
RTVSPropertyOp14
 70
     2
102
RTVSPropertyOp15
 70
     0
102
RTVSPropertyOp16
 70
     0
102
RTVSPropertyOp17
 70
     0
102
RTVSPropertyOp18
 70
     0
102
RTVSPropertyOp19
 70
     0
102
RTVSPropertyOp20
 70
     0
102
RTVSPropertyOp21
 70
     0
102
RTVSPropertyOp22
 70
     0
102
RTVSPropertyOp23
 70
     0
102
RTVSPropertyOp24
 70
     0
102
RTVSPropertyOp25
 70
     0
102
RTVSPropertyOp26
 70
     0
102
RTVSPropertyOp27
 70
     0
102
RTVSPropertyOp28
 70
     0
102
RTVSPropertyOp29
 70
     0
102
RTVSPropertyOp30
 70
     0
102
RTVSPropertyOp31
 70
     0
102
RTVSPropertyOp32
 70
     0
102
RTVSPropertyOp33
 70
     0
102
RTVSPropertyOp34
 70
     0
102
RTVSPropertyOp35
 70
     0
102
RTVSPropertyOp36
 70
     0
102
RTVSPropertyOp37
 70
     0
102
RTVSPropertyOp38
 70
     0
102
RTVSPropertyOp39
 70
     0
102
RTVSPropertyOp40
 70
     0
102
RTVSPropertyOp41
 70
     0
102
RTVSPropertyOp42
 70
     0
102
RTVSPropertyOp43
 70
     0
102
RTVSPropertyOp44
 70
     0
102
RTVSPropertyOp45
 70
     0
102
RTVSPropertyOp46
 70
     0
102
RTVSPropertyOp47
 70
     0
102
RTVSPropertyOp48
 70
     0
102
RTVSPropertyOp49
 70
     0
102
RTVSPropertyOp50
 70
     0
102
RTVSPropertyOp51
 70
     0
102
RTVSPropertyOp52
 70
     0
102
RTVSPropertyOp53
 70
     0
102
RTVSPropertyOp54
 70
     0
102
RTVSPropertyOp55
 70
     0
102
RTVSPropertyOp56
 70
     0
102
RTVSPropertyOp57
 70
     0
102
RTVSPost2010Prop28
280
     0
102
RTVSPost2010PropOp28
 70
     0
102
RTVSPost2010Prop29
280
     1
102
RTVSPost2010PropOp29
 70
     0
102
RTVSPost2010Prop30
280
     1
102
RTVSPost2010PropOp30
 70
     0
102
RTVSPost2010Prop31
280
     0
102
RTVSPost2010PropOp31
 70
     0
102
RTVSPost2010Prop32
280
     0
102
RTVSPost2010PropOp32
 70
     0
102
RTVSPost2010Prop33
280
     0
102
RTVSPost2010PropOp33
 70
     0
102
RTVSPost2010Prop34
280
     0
102
RTVSPost2010PropOp34
 70
     0
102
RTVSPost2010Prop35
280
     0
102
RTVSPost2010PropOp35
 70
     0
102
RTVSPost2010Prop36
280
     0
102
RTVSPost2010PropOp36
 70
     0
102
RTVSPost2010Prop37
 90
       50
102
RTVSPost2010PropOp37
 70
     0
102
RTVSPost2010Prop38
140
0.0
102
RTVSPost2010PropOp38
 70
     0
102
RTVSPost2010Prop39
140
1.0
102
RTVSPost2010PropOp39
 70
     0
102
RTVSPost2010Prop40
 90
        0
102
RTVSPost2010PropOp40
 70
     0
102
RTVSPost2010Prop41ColorIndex
 90
       18
102
RTVSPost2010Prop41ColorRGB
 90
        0
102
RTVSPost2010PropOp41
 70
     0
102
RTVSPost2010Prop42
 90
       50
102
RTVSPost2010PropOp42
 70
     0
102
RTVSPost2010Prop43
 90
        3
102
RTVSPost2010PropOp43
 70
     0
102
RTVSPost2010Prop44ColorIndex
 90
        5
102
RTVSPost2010Prop44ColorRGB
 90
      255
102
RTVSPost2010PropOp44
 70
     0
102
RTVSPost2010Prop45
280
     0
102
RTVSPost2010PropOp45
 70
     0
102
RTVSPost2010Prop46
 90
       50
102
RTVSPost2010PropOp46
 70
     0
102
RTVSPost2010Prop47
 90
       50
102
RTVSPost2010PropOp47
 70
     0
102
RTVSPost2010Prop48
 90
       50
102
RTVSPost2010PropOp48
 70
     0
102
RTVSPost2010Prop49
280
     0
102
RTVSPost2010PropOp49
 70
     0
102
RTVSPost2010Prop50
 90
       50
102
RTVSPost2010PropOp50
 70
     0
102
RTVSPost2010Prop51ColorIndex
 90
      256
102
RTVSPost2010Prop51ColorRGB
 90
-16777216
102
RTVSPost2010PropOp51
 70
     0
102
RTVSPost2010Prop52
140
1.0
102
RTVSPost2010PropOp52
 70
     0
102
RTVSPost2010Prop53
 90
        2
102
RTVSPost2010PropOp53
 70
     0
102
RTVSPost2010Prop54
  1
strokes_ogs.tif
102
RTVSPost2010PropOp54
 70
     0
102
RTVSPost2010Prop55
280
     0
102
RTVSPost2010PropOp55
 70
     0
102
RTVSPost2010Prop56
140
1.0
102
RTVSPost2010PropOp56
 70
     0
102
RTVSPost2010Prop57
140
1.0
102
RTVSPost2010PropOp57
 70
     0
  0
XRECORD
  5
120
102
{ACAD_REACTORS
330
11F
102
}
330
11F
100
AcDbXrecord
280
     1
102
RTVSPropertyOp0
 70
     1
102
RTVSPropertyOp1
 70
     1
102
RTVSPropertyOp2
 70
     1
102
RTVSPropertyOp3
 70
     1
102
RTVSPropertyOp4
 70
     1
102
RTVSPropertyOp5
 70
     1
102
RTVSPropertyOp6
 70
     1
102
RTVSPropertyOp7
 70
     1
102
RTVSPropertyOp8
 70
     1
102
RTVSPropertyOp9
 70
     1
102
RTVSPropertyOp10
 70
     1
102
RTVSPropertyOp11
 70
     1
102
RTVSPropertyOp12
 70
     1
102
RTVSPropertyOp13
 70
     1
102
RTVSPropertyOp14
 70
     1
102
RTVSPropertyOp15
 70
     1
102
RTVSPropertyOp16
 70
     1
102
RTVSPropertyOp17
 70
     1
102
RTVSPropertyOp18
 70
     1
102
RTVSPropertyOp19
 70
     1
102
RTVSPropertyOp20
 70
     1
102
RTVSPropertyOp21
 70
     1
102
RTVSPropertyOp22
 70
     1
102
RTVSPropertyOp23
 70
     1
102
RTVSPropertyOp24
 70
     1
102
RTVSPropertyOp25
 70
     1
102
RTVSPropertyOp26
 70
     1
102
RTVSPropertyOp27
 70
     1
102
RTVSPropertyOp28
 70
     1
102
RTVSPropertyOp29
 70
     1
102
RTVSPropertyOp30
 70
     1
102
RTVSPropertyOp31
 70
     1
102
RTVSPropertyOp32
 70
     1
102
RTVSPropertyOp33
 70
     1
102
RTVSPropertyOp34
 70
     1
102
RTVSPropertyOp35
 70
     1
102
RTVSPropertyOp36
 70
     1
102
RTVSPropertyOp37
 70
     1
102
RTVSPropertyOp38
 70
     1
102
RTVSPropertyOp39
 70
     1
102
RTVSPropertyOp40
 70
     1
102
RTVSPropertyOp41
 70
     1
102
RTVSPropertyOp42
 70
     1
102
RTVSPropertyOp43
 70
     1
102
RTVSPropertyOp44
 70
     1
102
RTVSPropertyOp45
 70
     1
102
RTVSPropertyOp46
 70
     1
102
RTVSPropertyOp47
 70
     1
102
RTVSPropertyOp48
 70
     1
102
RTVSPropertyOp49
 70
     1
102
RTVSPropertyOp50
 70
     1
102
RTVSPropertyOp51
 70
     0
102
RTVSPropertyOp52
 70
     0
102
RTVSPropertyOp53
 70
     1
102
RTVSPropertyOp54
 70
     1
102
RTVSPropertyOp55
 70
     1
102
RTVSPropertyOp56
 70
     1
102
RTVSPropertyOp57
 70
     1
102
RTVSPost2010Prop28
280
     0
102
RTVSPost2010PropOp28
 70
     1
102
RTVSPost2010Prop29
280
     1
102
RTVSPost2010PropOp29
 70
     1
102
RTVSPost2010Prop30
280
     1
102
RTVSPost2010PropOp30
 70
     1
102
RTVSPost2010Prop31
280
     0
102
RTVSPost2010PropOp31
 70
     1
102
RTVSPost2010Prop32
280
     0
102
RTVSPost2010PropOp32
 70
     1
102
RTVSPost2010Prop33
280
     0
102
RTVSPost2010PropOp33
 70
     1
102
RTVSPost2010Prop34
280
     0
102
RTVSPost2010PropOp34
 70
     1
102
RTVSPost2010Prop35
280
     0
102
RTVSPost2010PropOp35
 70
     1
102
RTVSPost2010Prop36
280
     0
102
RTVSPost2010PropOp36
 70
     1
102
RTVSPost2010Prop37
 90
       50
102
RTVSPost2010PropOp37
 70
     1
102
RTVSPost2010Prop38
140
0.0
102
RTVSPost2010PropOp38
 70
     1
102
RTVSPost2010Prop39
140
1.0
102
RTVSPost2010PropOp39
 70
     1
102
RTVSPost2010Prop40
 90
        0
102
RTVSPost2010PropOp40
 70
     1
102
RTVSPost2010Prop41ColorIndex
 90
       18
102
RTVSPost2010Prop41ColorRGB
 90
        0
102
RTVSPost2010PropOp41
 70
     1
102
RTVSPost2010Prop42
 90
       50
102
RTVSPost2010PropOp42
 70
     1
102
RTVSPost2010Prop43
 90
        3
102
RTVSPost2010PropOp43
 70
     1
102
RTVSPost2010Prop44ColorIndex
 90
        5
102
RTVSPost2010Prop44ColorRGB
 90
      255
102
RTVSPost2010PropOp44
 70
     1
102
RTVSPost2010Prop45
280
     0
102
RTVSPost2010PropOp45
 70
     1
102
RTVSPost2010Prop46
 90
       50
102
RTVSPost2010PropOp46
 70
     1
102
RTVSPost2010Prop47
 90
       50
102
RTVSPost2010PropOp47
 70
     1
102
RTVSPost2010Prop48
 90
       50
102
RTVSPost2010PropOp48
 70
     1
102
RTVSPost2010Prop49
280
     0
102
RTVSPost2010PropOp49
 70
     1
102
RTVSPost2010Prop50
 90
       50
102
RTVSPost2010PropOp50
 70
     1
102
RTVSPost2010Prop51ColorIndex
 90
      256
102
RTVSPost2010Prop51ColorRGB
 90
-16777216
102
RTVSPost2010PropOp51
 70
     0
102
RTVSPost2010Prop52
140
1.0
102
RTVSPost2010PropOp52
 70
     0
102
RTVSPost2010Prop53
 90
        2
102
RTVSPost2010PropOp53
 70
     1
102
RTVSPost2010Prop54
  1
strokes_ogs.tif
102
RTVSPost2010PropOp54
 70
     1
102
RTVSPost2010Prop55
280
     0
102
RTVSPost2010PropOp55
 70
     1
102
RTVSPost2010Prop56
140
1.0
102
RTVSPost2010PropOp56
 70
     1
102
RTVSPost2010Prop57
140
1.0
102
RTVSPost2010PropOp57
 70
     1
  0
XRECORD
  5
128
102
{ACAD_REACTORS
330
127
102
}
330
127
100
AcDbXrecord
280
     1
102
RTVSPropertyOp0
 70
     0
102
RTVSPropertyOp1
 70
     0
102
RTVSPropertyOp2
 70
     0
102
RTVSPropertyOp3
 70
     0
102
RTVSPropertyOp4
 70
     0
102
RTVSPropertyOp5
 70
     0
102
RTVSPropertyOp6
 70
     0
102
RTVSPropertyOp7
 70
     0
102
RTVSPropertyOp8
 70
     0
102
RTVSPropertyOp9
 70
     0
102
RTVSPropertyOp10
 70
     0
102
RTVSPropertyOp11
 70
     0
102
RTVSPropertyOp12
 70
     0
102
RTVSPropertyOp13
 70
     0
102
RTVSPropertyOp14
 70
     2
102
RTVSPropertyOp15
 70
     0
102
RTVSPropertyOp16
 70
     0
102
RTVSPropertyOp17
 70
     0
102
RTVSPropertyOp18
 70
     0
102
RTVSPropertyOp19
 70
     0
102
RTVSPropertyOp20
 70
     0
102
RTVSPropertyOp21
 70
     0
102
RTVSPropertyOp22
 70
     0
102
RTVSPropertyOp23
 70
     0
102
RTVSPropertyOp24
 70
     0
102
RTVSPropertyOp25
 70
     0
102
RTVSPropertyOp26
 70
     0
102
RTVSPropertyOp27
 70
     0
102
RTVSPropertyOp28
 70
     0
102
RTVSPropertyOp29
 70
     0
102
RTVSPropertyOp30
 70
     0
102
RTVSPropertyOp31
 70
     0
102
RTVSPropertyOp32
 70
     0
102
RTVSPropertyOp33
 70
     0
102
RTVSPropertyOp34
 70
     0
102
RTVSPropertyOp35
 70
     0
102
RTVSPropertyOp36
 70
     0
102
RTVSPropertyOp37
 70
     0
102
RTVSPropertyOp38
 70
     0
102
RTVSPropertyOp39
 70
     0
102
RTVSPropertyOp40
 70
     0
102
RTVSPropertyOp41
 70
     0
102
RTVSPropertyOp42
 70
     0
102
RTVSPropertyOp43
 70
     0
102
RTVSPropertyOp44
 70
     0
102
RTVSPropertyOp45
 70
     0
102
RTVSPropertyOp46
 70
     0
102
RTVSPropertyOp47
 70
     0
102
RTVSPropertyOp48
 70
     0
102
RTVSPropertyOp49
 70
     0
102
RTVSPropertyOp50
 70
     0
102
RTVSPropertyOp51
 70
     0
102
RTVSPropertyOp52
 70
     0
102
RTVSPropertyOp53
 70
     0
102
RTVSPropertyOp54
 70
     0
102
RTVSPropertyOp55
 70
     0
102
RTVSPropertyOp56
 70
     0
102
RTVSPropertyOp57
 70
     0
102
RTVSPost2010Prop28
280
     0
102
RTVSPost2010PropOp28
 70
     0
102
RTVSPost2010Prop29
280
     1
102
RTVSPost2010PropOp29
 70
     0
102
RTVSPost2010Prop30
280
     1
102
RTVSPost2010PropOp30
 70
     0
102
RTVSPost2010Prop31
280
     0
102
RTVSPost2010PropOp31
 70
     0
102
RTVSPost2010Prop32
280
     0
102
RTVSPost2010PropOp32
 70
     0
102
RTVSPost2010Prop33
280
     0
102
RTVSPost2010PropOp33
 70
     0
102
RTVSPost2010Prop34
280
     0
102
RTVSPost2010PropOp34
 70
     0
102
RTVSPost2010Prop35
280
     0
102
RTVSPost2010PropOp35
 70
     0
102
RTVSPost2010Prop36
280
     0
102
RTVSPost2010PropOp36
 70
     0
102
RTVSPost2010Prop37
 90
       50
102
RTVSPost2010PropOp37
 70
     0
102
RTVSPost2010Prop38
140
0.0
102
RTVSPost2010PropOp38
 70
     0
102
RTVSPost2010Prop39
140
1.0
102
RTVSPost2010PropOp39
 70
     0
102
RTVSPost2010Prop40
 90
        0
102
RTVSPost2010PropOp40
 70
     0
102
RTVSPost2010Prop41ColorIndex
 90
       18
102
RTVSPost2010Prop41ColorRGB
 90
        0
102
RTVSPost2010PropOp41
 70
     0
102
RTVSPost2010Prop42
 90
       50
102
RTVSPost2010PropOp42
 70
     0
102
RTVSPost2010Prop43
 90
        3
102
RTVSPost2010PropOp43
 70
     0
102
RTVSPost2010Prop44ColorIndex
 90
        5
102
RTVSPost2010Prop44ColorRGB
 90
      255
102
RTVSPost2010PropOp44
 70
     0
102
RTVSPost2010Prop45
280
     0
102
RTVSPost2010PropOp45
 70
     0
102
RTVSPost2010Prop46
 90
       50
102
RTVSPost2010PropOp46
 70
     0
102
RTVSPost2010Prop47
 90
       50
102
RTVSPost2010PropOp47
 70
     0
102
RTVSPost2010Prop48
 90
       50
102
RTVSPost2010PropOp48
 70
     0
102
RTVSPost2010Prop49
280
     0
102
RTVSPost2010PropOp49
 70
     0
102
RTVSPost2010Prop50
 90
       50
102
RTVSPost2010PropOp50
 70
     0
102
RTVSPost2010Prop51ColorIndex
 90
      256
102
RTVSPost2010Prop51ColorRGB
 90
-16777216
102
RTVSPost2010PropOp51
 70
     0
102
RTVSPost2010Prop52
140
1.0
102
RTVSPost2010PropOp52
 70
     0
102
RTVSPost2010Prop53
 90
        2
102
RTVSPost2010PropOp53
 70
     0
102
RTVSPost2010Prop54
  1
strokes_ogs.tif
102
RTVSPost2010PropOp54
 70
     0
102
RTVSPost2010Prop55
280
     0
102
RTVSPost2010PropOp55
 70
     0
102
RTVSPost2010Prop56
140
1.0
102
RTVSPost2010PropOp56
 70
     0
102
RTVSPost2010Prop57
140
1.0
102
RTVSPost2010PropOp57
 70
     0
  0
XRECORD
  5
116
102
{ACAD_REACTORS
330
115
102
}
330
115
100
AcDbXrecord
280
     1
102
RTVSPropertyOp0
 70
     1
102
RTVSPropertyOp1
 70
     1
102
RTVSPropertyOp2
 70
     1
102
RTVSPropertyOp3
 70
     1
102
RTVSPropertyOp4
 70
     1
102
RTVSPropertyOp5
 70
     1
102
RTVSPropertyOp6
 70
     1
102
RTVSPropertyOp7
 70
     1
102
RTVSPropertyOp8
 70
     1
102
RTVSPropertyOp9
 70
     1
102
RTVSPropertyOp10
 70
     1
102
RTVSPropertyOp11
 70
     1
102
RTVSPropertyOp12
 70
     1
102
RTVSPropertyOp13
 70
     1
102
RTVSPropertyOp14
 70
     1
102
RTVSPropertyOp15
 70
     1
102
RTVSPropertyOp16
 70
     1
102
RTVSPropertyOp17
 70
     1
102
RTVSPropertyOp18
 70
     1
102
RTVSPropertyOp19
 70
     1
102
RTVSPropertyOp20
 70
     1
102
RTVSPropertyOp21
 70
     1
102
RTVSPropertyOp22
 70
     1
102
RTVSPropertyOp23
 70
     1
102
RTVSPropertyOp24
 70
     1
102
RTVSPropertyOp25
 70
     1
102
RTVSPropertyOp26
 70
     1
102
RTVSPropertyOp27
 70
     1
102
RTVSPropertyOp28
 70
     1
102
RTVSPropertyOp29
 70
     1
102
RTVSPropertyOp30
 70
     1
102
RTVSPropertyOp31
 70
     1
102
RTVSPropertyOp32
 70
     1
102
RTVSPropertyOp33
 70
     1
102
RTVSPropertyOp34
 70
     1
102
RTVSPropertyOp35
 70
     1
102
RTVSPropertyOp36
 70
     1
102
RTVSPropertyOp37
 70
     1
102
RTVSPropertyOp38
 70
     1
102
RTVSPropertyOp39
 70
     1
102
RTVSPropertyOp40
 70
     1
102
RTVSPropertyOp41
 70
     1
102
RTVSPropertyOp42
 70
     1
102
RTVSPropertyOp43
 70
     1
102
RTVSPropertyOp44
 70
     1
102
RTVSPropertyOp45
 70
     1
102
RTVSPropertyOp46
 70
     1
102
RTVSPropertyOp47
 70
     1
102
RTVSPropertyOp48
 70
     1
102
RTVSPropertyOp49
 70
     1
102
RTVSPropertyOp50
 70
     1
102
RTVSPropertyOp51
 70
     0
102
RTVSPropertyOp52
 70
     0
102
RTVSPropertyOp53
 70
     1
102
RTVSPropertyOp54
 70
     1
102
RTVSPropertyOp55
 70
     1
102
RTVSPropertyOp56
 70
     1
102
RTVSPropertyOp57
 70
     1
102
RTVSPost2010Prop28
280
     0
102
RTVSPost2010PropOp28
 70
     1
102
RTVSPost2010Prop29
280
     1
102
RTVSPost2010PropOp29
 70
     1
102
RTVSPost2010Prop30
280
     1
102
RTVSPost2010PropOp30
 70
     1
102
RTVSPost2010Prop31
280
     0
102
RTVSPost2010PropOp31
 70
     1
102
RTVSPost2010Prop32
280
     0
102
RTVSPost2010PropOp32
 70
     1
102
RTVSPost2010Prop33
280
     0
102
RTVSPost2010PropOp33
 70
     1
102
RTVSPost2010Prop34
280
     0
102
RTVSPost2010PropOp34
 70
     1
102
RTVSPost2010Prop35
280
     0
102
RTVSPost2010PropOp35
 70
     1
102
RTVSPost2010Prop36
280
     0
102
RTVSPost2010PropOp36
 70
     1
102
RTVSPost2010Prop37
 90
       50
102
RTVSPost2010PropOp37
 70
     1
102
RTVSPost2010Prop38
140
0.0
102
RTVSPost2010PropOp38
 70
     1
102
RTVSPost2010Prop39
140
1.0
102
RTVSPost2010PropOp39
 70
     1
102
RTVSPost2010Prop40
 90
        0
102
RTVSPost2010PropOp40
 70
     1
102
RTVSPost2010Prop41ColorIndex
 90
       18
102
RTVSPost2010Prop41ColorRGB
 90
        0
102
RTVSPost2010PropOp41
 70
     1
102
RTVSPost2010Prop42
 90
       50
102
RTVSPost2010PropOp42
 70
     1
102
RTVSPost2010Prop43
 90
        3
102
RTVSPost2010PropOp43
 70
     1
102
RTVSPost2010Prop44ColorIndex
 90
        5
102
RTVSPost2010Prop44ColorRGB
 90
      255
102
RTVSPost2010PropOp44
 70
     1
102
RTVSPost2010Prop45
280
     0
102
RTVSPost2010PropOp45
 70
     1
102
RTVSPost2010Prop46
 90
       50
102
RTVSPost2010PropOp46
 70
     1
102
RTVSPost2010Prop47
 90
       50
102
RTVSPost2010PropOp47
 70
     1
102
RTVSPost2010Prop48
 90
       50
102
RTVSPost2010PropOp48
 70
     1
102
RTVSPost2010Prop49
280
     0
102
RTVSPost2010PropOp49
 70
     1
102
RTVSPost2010Prop50
 90
       50
102
RTVSPost2010PropOp50
 70
     1
102
RTVSPost2010Prop51ColorIndex
 90
      256
102
RTVSPost2010Prop51ColorRGB
 90
-16777216
102
RTVSPost2010PropOp51
 70
     0
102
RTVSPost2010Prop52
140
1.0
102
RTVSPost2010PropOp52
 70
     0
102
RTVSPost2010Prop53
 90
        2
102
RTVSPost2010PropOp53
 70
     1
102
RTVSPost2010Prop54
  1
strokes_ogs.tif
102
RTVSPost2010PropOp54
 70
     1
102
RTVSPost2010Prop55
280
     0
102
RTVSPost2010PropOp55
 70
     1
102
RTVSPost2010Prop56
140
1.0
102
RTVSPost2010PropOp56
 70
     1
102
RTVSPost2010Prop57
140
1.0
102
RTVSPost2010PropOp57
 70
     1
  0
XRECORD
  5
134
102
{ACAD_REACTORS
330
133
102
}
330
133
100
AcDbXrecord
280
     1
102
RTVSPropertyOp0
 70
     1
102
RTVSPropertyOp1
 70
     1
102
RTVSPropertyOp2
 70
     1
102
RTVSPropertyOp3
 70
     1
102
RTVSPropertyOp4
 70
     1
102
RTVSPropertyOp5
 70
     1
102
RTVSPropertyOp6
 70
     1
102
RTVSPropertyOp7
 70
     1
102
RTVSPropertyOp8
 70
     1
102
RTVSPropertyOp9
 70
     1
102
RTVSPropertyOp10
 70
     1
102
RTVSPropertyOp11
 70
     1
102
RTVSPropertyOp12
 70
     1
102
RTVSPropertyOp13
 70
     1
102
RTVSPropertyOp14
 70
     1
102
RTVSPropertyOp15
 70
     1
102
RTVSPropertyOp16
 70
     1
102
RTVSPropertyOp17
 70
     1
102
RTVSPropertyOp18
 70
     1
102
RTVSPropertyOp19
 70
     1
102
RTVSPropertyOp20
 70
     1
102
RTVSPropertyOp21
 70
     1
102
RTVSPropertyOp22
 70
     1
102
RTVSPropertyOp23
 70
     1
102
RTVSPropertyOp24
 70
     1
102
RTVSPropertyOp25
 70
     1
102
RTVSPropertyOp26
 70
     1
102
RTVSPropertyOp27
 70
     1
102
RTVSPropertyOp28
 70
     1
102
RTVSPropertyOp29
 70
     1
102
RTVSPropertyOp30
 70
     1
102
RTVSPropertyOp31
 70
     1
102
RTVSPropertyOp32
 70
     1
102
RTVSPropertyOp33
 70
     1
102
RTVSPropertyOp34
 70
     1
102
RTVSPropertyOp35
 70
     1
102
RTVSPropertyOp36
 70
     1
102
RTVSPropertyOp37
 70
     1
102
RTVSPropertyOp38
 70
     1
102
RTVSPropertyOp39
 70
     1
102
RTVSPropertyOp40
 70
     1
102
RTVSPropertyOp41
 70
     1
102
RTVSPropertyOp42
 70
     1
102
RTVSPropertyOp43
 70
     1
102
RTVSPropertyOp44
 70
     1
102
RTVSPropertyOp45
 70
     1
102
RTVSPropertyOp46
 70
     1
102
RTVSPropertyOp47
 70
     1
102
RTVSPropertyOp48
 70
     1
102
RTVSPropertyOp49
 70
     1
102
RTVSPropertyOp50
 70
     1
102
RTVSPropertyOp51
 70
     0
102
RTVSPropertyOp52
 70
     0
102
RTVSPropertyOp53
 70
     1
102
RTVSPropertyOp54
 70
     1
102
RTVSPropertyOp55
 70
     1
102
RTVSPropertyOp56
 70
     1
102
RTVSPropertyOp57
 70
     1
102
RTVSPost2010Prop28
280
     0
102
RTVSPost2010PropOp28
 70
     1
102
RTVSPost2010Prop29
280
     1
102
RTVSPost2010PropOp29
 70
     1
102
RTVSPost2010Prop30
280
     1
102
RTVSPost2010PropOp30
 70
     1
102
RTVSPost2010Prop31
280
     0
102
RTVSPost2010PropOp31
 70
     1
102
RTVSPost2010Prop32
280
     0
102
RTVSPost2010PropOp32
 70
     1
102
RTVSPost2010Prop33
280
     0
102
RTVSPost2010PropOp33
 70
     1
102
RTVSPost2010Prop34
280
     0
102
RTVSPost2010PropOp34
 70
     1
102
RTVSPost2010Prop35
280
     0
102
RTVSPost2010PropOp35
 70
     1
102
RTVSPost2010Prop36
280
     0
102
RTVSPost2010PropOp36
 70
     1
102
RTVSPost2010Prop37
 90
       50
102
RTVSPost2010PropOp37
 70
     1
102
RTVSPost2010Prop38
140
0.0
102
RTVSPost2010PropOp38
 70
     1
102
RTVSPost2010Prop39
140
1.0
102
RTVSPost2010PropOp39
 70
     1
102
RTVSPost2010Prop40
 90
        0
102
RTVSPost2010PropOp40
 70
     1
102
RTVSPost2010Prop41ColorIndex
 90
       18
102
RTVSPost2010Prop41ColorRGB
 90
        0
102
RTVSPost2010PropOp41
 70
     1
102
RTVSPost2010Prop42
 90
       50
102
RTVSPost2010PropOp42
 70
     1
102
RTVSPost2010Prop43
 90
        3
102
RTVSPost2010PropOp43
 70
     1
102
RTVSPost2010Prop44ColorIndex
 90
        5
102
RTVSPost2010Prop44ColorRGB
 90
      255
102
RTVSPost2010PropOp44
 70
     1
102
RTVSPost2010Prop45
280
     0
102
RTVSPost2010PropOp45
 70
     1
102
RTVSPost2010Prop46
 90
       50
102
RTVSPost2010PropOp46
 70
     1
102
RTVSPost2010Prop47
 90
       50
102
RTVSPost2010PropOp47
 70
     1
102
RTVSPost2010Prop48
 90
       50
102
RTVSPost2010PropOp48
 70
     1
102
RTVSPost2010Prop49
280
     0
102
RTVSPost2010PropOp49
 70
     1
102
RTVSPost2010Prop50
 90
       50
102
RTVSPost2010PropOp50
 70
     1
102
RTVSPost2010Prop51ColorIndex
 90
      256
102
RTVSPost2010Prop51ColorRGB
 90
-16777216
102
RTVSPost2010PropOp51
 70
     0
102
RTVSPost2010Prop52
140
1.0
102
RTVSPost2010PropOp52
 70
     0
102
RTVSPost2010Prop53
 90
        2
102
RTVSPost2010PropOp53
 70
     1
102
RTVSPost2010Prop54
  1
strokes_ogs.tif
102
RTVSPost2010PropOp54
 70
     1
102
RTVSPost2010Prop55
280
     0
102
RTVSPost2010PropOp55
 70
     1
102
RTVSPost2010Prop56
140
1.0
102
RTVSPost2010PropOp56
 70
     1
102
RTVSPost2010Prop57
140
1.0
102
RTVSPost2010PropOp57
 70
     1
  0
XRECORD
  5
132
102
{ACAD_REACTORS
330
131
102
}
330
131
100
AcDbXrecord
280
     1
102
RTVSPropertyOp0
 70
     1
102
RTVSPropertyOp1
 70
     1
102
RTVSPropertyOp2
 70
     1
102
RTVSPropertyOp3
 70
     1
102
RTVSPropertyOp4
 70
     1
102
RTVSPropertyOp5
 70
     1
102
RTVSPropertyOp6
 70
     1
102
RTVSPropertyOp7
 70
     1
102
RTVSPropertyOp8
 70
     1
102
RTVSPropertyOp9
 70
     1
102
RTVSPropertyOp10
 70
     1
102
RTVSPropertyOp11
 70
     1
102
RTVSPropertyOp12
 70
     1
102
RTVSPropertyOp13
 70
     1
102
RTVSPropertyOp14
 70
     1
102
RTVSPropertyOp15
 70
     1
102
RTVSPropertyOp16
 70
     1
102
RTVSPropertyOp17
 70
     1
102
RTVSPropertyOp18
 70
     1
102
RTVSPropertyOp19
 70
     1
102
RTVSPropertyOp20
 70
     1
102
RTVSPropertyOp21
 70
     1
102
RTVSPropertyOp22
 70
     1
102
RTVSPropertyOp23
 70
     1
102
RTVSPropertyOp24
 70
     1
102
RTVSPropertyOp25
 70
     1
102
RTVSPropertyOp26
 70
     1
102
RTVSPropertyOp27
 70
     1
102
RTVSPropertyOp28
 70
     1
102
RTVSPropertyOp29
 70
     1
102
RTVSPropertyOp30
 70
     1
102
RTVSPropertyOp31
 70
     1
102
RTVSPropertyOp32
 70
     1
102
RTVSPropertyOp33
 70
     1
102
RTVSPropertyOp34
 70
     1
102
RTVSPropertyOp35
 70
     1
102
RTVSPropertyOp36
 70
     1
102
RTVSPropertyOp37
 70
     1
102
RTVSPropertyOp38
 70
     1
102
RTVSPropertyOp39
 70
     1
102
RTVSPropertyOp40
 70
     1
102
RTVSPropertyOp41
 70
     1
102
RTVSPropertyOp42
 70
     1
102
RTVSPropertyOp43
 70
     1
102
RTVSPropertyOp44
 70
     1
102
RTVSPropertyOp45
 70
     1
102
RTVSPropertyOp46
 70
     1
102
RTVSPropertyOp47
 70
     1
102
RTVSPropertyOp48
 70
     1
102
RTVSPropertyOp49
 70
     1
102
RTVSPropertyOp50
 70
     1
102
RTVSPropertyOp51
 70
     0
102
RTVSPropertyOp52
 70
     0
102
RTVSPropertyOp53
 70
     1
102
RTVSPropertyOp54
 70
     1
102
RTVSPropertyOp55
 70
     1
102
RTVSPropertyOp56
 70
     1
102
RTVSPropertyOp57
 70
     1
102
RTVSPost2010Prop28
280
     0
102
RTVSPost2010PropOp28
 70
     1
102
RTVSPost2010Prop29
280
     1
102
RTVSPost2010PropOp29
 70
     1
102
RTVSPost2010Prop30
280
     1
102
RTVSPost2010PropOp30
 70
     1
102
RTVSPost2010Prop31
280
     0
102
RTVSPost2010PropOp31
 70
     1
102
RTVSPost2010Prop32
280
     0
102
RTVSPost2010PropOp32
 70
     1
102
RTVSPost2010Prop33
280
     0
102
RTVSPost2010PropOp33
 70
     1
102
RTVSPost2010Prop34
280
     0
102
RTVSPost2010PropOp34
 70
     1
102
RTVSPost2010Prop35
280
     0
102
RTVSPost2010PropOp35
 70
     1
102
RTVSPost2010Prop36
280
     0
102
RTVSPost2010PropOp36
 70
     1
102
RTVSPost2010Prop37
 90
       50
102
RTVSPost2010PropOp37
 70
     1
102
RTVSPost2010Prop38
140
0.0
102
RTVSPost2010PropOp38
 70
     1
102
RTVSPost2010Prop39
140
1.0
102
RTVSPost2010PropOp39
 70
     1
102
RTVSPost2010Prop40
 90
        0
102
RTVSPost2010PropOp40
 70
     1
102
RTVSPost2010Prop41ColorIndex
 90
       18
102
RTVSPost2010Prop41ColorRGB
 90
        0
102
RTVSPost2010PropOp41
 70
     1
102
RTVSPost2010Prop42
 90
       50
102
RTVSPost2010PropOp42
 70
     1
102
RTVSPost2010Prop43
 90
        3
102
RTVSPost2010PropOp43
 70
     1
102
RTVSPost2010Prop44ColorIndex
 90
        5
102
RTVSPost2010Prop44ColorRGB
 90
      255
102
RTVSPost2010PropOp44
 70
     1
102
RTVSPost2010Prop45
280
     0
102
RTVSPost2010PropOp45
 70
     1
102
RTVSPost2010Prop46
 90
       50
102
RTVSPost2010PropOp46
 70
     1
102
RTVSPost2010Prop47
 90
       50
102
RTVSPost2010PropOp47
 70
     1
102
RTVSPost2010Prop48
 90
       50
102
RTVSPost2010PropOp48
 70
     1
102
RTVSPost2010Prop49
280
     0
102
RTVSPost2010PropOp49
 70
     1
102
RTVSPost2010Prop50
 90
       50
102
RTVSPost2010PropOp50
 70
     1
102
RTVSPost2010Prop51ColorIndex
 90
      256
102
RTVSPost2010Prop51ColorRGB
 90
-16777216
102
RTVSPost2010PropOp51
 70
     0
102
RTVSPost2010Prop52
140
1.0
102
RTVSPost2010PropOp52
 70
     0
102
RTVSPost2010Prop53
 90
        2
102
RTVSPost2010PropOp53
 70
     1
102
RTVSPost2010Prop54
  1
strokes_ogs.tif
102
RTVSPost2010PropOp54
 70
     1
102
RTVSPost2010Prop55
280
     0
102
RTVSPost2010PropOp55
 70
     1
102
RTVSPost2010Prop56
140
1.0
102
RTVSPost2010PropOp56
 70
     1
102
RTVSPost2010Prop57
140
1.0
102
RTVSPost2010PropOp57
 70
     1
  0
XRECORD
  5
12C
102
{ACAD_REACTORS
330
12B
102
}
330
12B
100
AcDbXrecord
280
     1
102
RTVSPropertyOp0
 70
     1
102
RTVSPropertyOp1
 70
     1
102
RTVSPropertyOp2
 70
     1
102
RTVSPropertyOp3
 70
     1
102
RTVSPropertyOp4
 70
     1
102
RTVSPropertyOp5
 70
     1
102
RTVSPropertyOp6
 70
     1
102
RTVSPropertyOp7
 70
     1
102
RTVSPropertyOp8
 70
     1
102
RTVSPropertyOp9
 70
     1
102
RTVSPropertyOp10
 70
     1
102
RTVSPropertyOp11
 70
     1
102
RTVSPropertyOp12
 70
     1
102
RTVSPropertyOp13
 70
     1
102
RTVSPropertyOp14
 70
     1
102
RTVSPropertyOp15
 70
     1
102
RTVSPropertyOp16
 70
     1
102
RTVSPropertyOp17
 70
     1
102
RTVSPropertyOp18
 70
     1
102
RTVSPropertyOp19
 70
     1
102
RTVSPropertyOp20
 70
     1
102
RTVSPropertyOp21
 70
     1
102
RTVSPropertyOp22
 70
     1
102
RTVSPropertyOp23
 70
     1
102
RTVSPropertyOp24
 70
     1
102
RTVSPropertyOp25
 70
     1
102
RTVSPropertyOp26
 70
     1
102
RTVSPropertyOp27
 70
     1
102
RTVSPropertyOp28
 70
     1
102
RTVSPropertyOp29
 70
     1
102
RTVSPropertyOp30
 70
     1
102
RTVSPropertyOp31
 70
     1
102
RTVSPropertyOp32
 70
     1
102
RTVSPropertyOp33
 70
     1
102
RTVSPropertyOp34
 70
     1
102
RTVSPropertyOp35
 70
     1
102
RTVSPropertyOp36
 70
     1
102
RTVSPropertyOp37
 70
     1
102
RTVSPropertyOp38
 70
     1
102
RTVSPropertyOp39
 70
     1
102
RTVSPropertyOp40
 70
     1
102
RTVSPropertyOp41
 70
     1
102
RTVSPropertyOp42
 70
     1
102
RTVSPropertyOp43
 70
     1
102
RTVSPropertyOp44
 70
     1
102
RTVSPropertyOp45
 70
     1
102
RTVSPropertyOp46
 70
     1
102
RTVSPropertyOp47
 70
     1
102
RTVSPropertyOp48
 70
     1
102
RTVSPropertyOp49
 70
     1
102
RTVSPropertyOp50
 70
     1
102
RTVSPropertyOp51
 70
     0
102
RTVSPropertyOp52
 70
     0
102
RTVSPropertyOp53
 70
     1
102
RTVSPropertyOp54
 70
     1
102
RTVSPropertyOp55
 70
     1
102
RTVSPropertyOp56
 70
     1
102
RTVSPropertyOp57
 70
     1
102
RTVSPost2010Prop28
280
     0
102
RTVSPost2010PropOp28
 70
     1
102
RTVSPost2010Prop29
280
     1
102
RTVSPost2010PropOp29
 70
     1
102
RTVSPost2010Prop30
280
     1
102
RTVSPost2010PropOp30
 70
     1
102
RTVSPost2010Prop31
280
     0
102
RTVSPost2010PropOp31
 70
     1
102
RTVSPost2010Prop32
280
     0
102
RTVSPost2010PropOp32
 70
     1
102
RTVSPost2010Prop33
280
     0
102
RTVSPost2010PropOp33
 70
     1
102
RTVSPost2010Prop34
280
     0
102
RTVSPost2010PropOp34
 70
     1
102
RTVSPost2010Prop35
280
     0
102
RTVSPost2010PropOp35
 70
     1
102
RTVSPost2010Prop36
280
     0
102
RTVSPost2010PropOp36
 70
     1
102
RTVSPost2010Prop37
 90
       50
102
RTVSPost2010PropOp37
 70
     1
102
RTVSPost2010Prop38
140
0.0
102
RTVSPost2010PropOp38
 70
     1
102
RTVSPost2010Prop39
140
1.0
102
RTVSPost2010PropOp39
 70
     1
102
RTVSPost2010Prop40
 90
        0
102
RTVSPost2010PropOp40
 70
     1
102
RTVSPost2010Prop41ColorIndex
 90
       18
102
RTVSPost2010Prop41ColorRGB
 90
        0
102
RTVSPost2010PropOp41
 70
     1
102
RTVSPost2010Prop42
 90
       50
102
RTVSPost2010PropOp42
 70
     1
102
RTVSPost2010Prop43
 90
        3
102
RTVSPost2010PropOp43
 70
     1
102
RTVSPost2010Prop44ColorIndex
 90
        5
102
RTVSPost2010Prop44ColorRGB
 90
      255
102
RTVSPost2010PropOp44
 70
     1
102
RTVSPost2010Prop45
280
     0
102
RTVSPost2010PropOp45
 70
     1
102
RTVSPost2010Prop46
 90
       50
102
RTVSPost2010PropOp46
 70
     1
102
RTVSPost2010Prop47
 90
       50
102
RTVSPost2010PropOp47
 70
     1
102
RTVSPost2010Prop48
 90
       50
102
RTVSPost2010PropOp48
 70
     1
102
RTVSPost2010Prop49
280
     0
102
RTVSPost2010PropOp49
 70
     1
102
RTVSPost2010Prop50
 90
       50
102
RTVSPost2010PropOp50
 70
     1
102
RTVSPost2010Prop51ColorIndex
 90
      256
102
RTVSPost2010Prop51ColorRGB
 90
-16777216
102
RTVSPost2010PropOp51
 70
     0
102
RTVSPost2010Prop52
140
1.0
102
RTVSPost2010PropOp52
 70
     0
102
RTVSPost2010Prop53
 90
        2
102
RTVSPost2010PropOp53
 70
     1
102
RTVSPost2010Prop54
  1
strokes_ogs.tif
102
RTVSPost2010PropOp54
 70
     1
102
RTVSPost2010Prop55
280
     0
102
RTVSPost2010PropOp55
 70
     1
102
RTVSPost2010Prop56
140
1.0
102
RTVSPost2010PropOp56
 70
     1
102
RTVSPost2010Prop57
140
1.0
102
RTVSPost2010PropOp57
 70
     1
  0
XRECORD
  5
12E
102
{ACAD_REACTORS
330
12D
102
}
330
12D
100
AcDbXrecord
280
     1
102
RTVSPropertyOp0
 70
     1
102
RTVSPropertyOp1
 70
     1
102
RTVSPropertyOp2
 70
     1
102
RTVSPropertyOp3
 70
     1
102
RTVSPropertyOp4
 70
     1
102
RTVSPropertyOp5
 70
     1
102
RTVSPropertyOp6
 70
     1
102
RTVSPropertyOp7
 70
     1
102
RTVSPropertyOp8
 70
     1
102
RTVSPropertyOp9
 70
     1
102
RTVSPropertyOp10
 70
     1
102
RTVSPropertyOp11
 70
     1
102
RTVSPropertyOp12
 70
     1
102
RTVSPropertyOp13
 70
     1
102
RTVSPropertyOp14
 70
     1
102
RTVSPropertyOp15
 70
     1
102
RTVSPropertyOp16
 70
     1
102
RTVSPropertyOp17
 70
     1
102
RTVSPropertyOp18
 70
     1
102
RTVSPropertyOp19
 70
     1
102
RTVSPropertyOp20
 70
     1
102
RTVSPropertyOp21
 70
     1
102
RTVSPropertyOp22
 70
     1
102
RTVSPropertyOp23
 70
     1
102
RTVSPropertyOp24
 70
     1
102
RTVSPropertyOp25
 70
     1
102
RTVSPropertyOp26
 70
     1
102
RTVSPropertyOp27
 70
     1
102
RTVSPropertyOp28
 70
     1
102
RTVSPropertyOp29
 70
     1
102
RTVSPropertyOp30
 70
     1
102
RTVSPropertyOp31
 70
     1
102
RTVSPropertyOp32
 70
     1
102
RTVSPropertyOp33
 70
     1
102
RTVSPropertyOp34
 70
     1
102
RTVSPropertyOp35
 70
     1
102
RTVSPropertyOp36
 70
     1
102
RTVSPropertyOp37
 70
     1
102
RTVSPropertyOp38
 70
     1
102
RTVSPropertyOp39
 70
     1
102
RTVSPropertyOp40
 70
     1
102
RTVSPropertyOp41
 70
     1
102
RTVSPropertyOp42
 70
     1
102
RTVSPropertyOp43
 70
     1
102
RTVSPropertyOp44
 70
     1
102
RTVSPropertyOp45
 70
     1
102
RTVSPropertyOp46
 70
     1
102
RTVSPropertyOp47
 70
     1
102
RTVSPropertyOp48
 70
     1
102
RTVSPropertyOp49
 70
     1
102
RTVSPropertyOp50
 70
     1
102
RTVSPropertyOp51
 70
     0
102
RTVSPropertyOp52
 70
     0
102
RTVSPropertyOp53
 70
     1
102
RTVSPropertyOp54
 70
     1
102
RTVSPropertyOp55
 70
     1
102
RTVSPropertyOp56
 70
     1
102
RTVSPropertyOp57
 70
     1
102
RTVSPost2010Prop28
280
     0
102
RTVSPost2010PropOp28
 70
     1
102
RTVSPost2010Prop29
280
     1
102
RTVSPost2010PropOp29
 70
     1
102
RTVSPost2010Prop30
280
     1
102
RTVSPost2010PropOp30
 70
     1
102
RTVSPost2010Prop31
280
     0
102
RTVSPost2010PropOp31
 70
     1
102
RTVSPost2010Prop32
280
     0
102
RTVSPost2010PropOp32
 70
     1
102
RTVSPost2010Prop33
280
     0
102
RTVSPost2010PropOp33
 70
     1
102
RTVSPost2010Prop34
280
     0
102
RTVSPost2010PropOp34
 70
     1
102
RTVSPost2010Prop35
280
     0
102
RTVSPost2010PropOp35
 70
     1
102
RTVSPost2010Prop36
280
     0
102
RTVSPost2010PropOp36
 70
     1
102
RTVSPost2010Prop37
 90
       50
102
RTVSPost2010PropOp37
 70
     1
102
RTVSPost2010Prop38
140
0.0
102
RTVSPost2010PropOp38
 70
     1
102
RTVSPost2010Prop39
140
1.0
102
RTVSPost2010PropOp39
 70
     1
102
RTVSPost2010Prop40
 90
        0
102
RTVSPost2010PropOp40
 70
     1
102
RTVSPost2010Prop41ColorIndex
 90
       18
102
RTVSPost2010Prop41ColorRGB
 90
        0
102
RTVSPost2010PropOp41
 70
     1
102
RTVSPost2010Prop42
 90
       50
102
RTVSPost2010PropOp42
 70
     1
102
RTVSPost2010Prop43
 90
        3
102
RTVSPost2010PropOp43
 70
     1
102
RTVSPost2010Prop44ColorIndex
 90
        5
102
RTVSPost2010Prop44ColorRGB
 90
      255
102
RTVSPost2010PropOp44
 70
     1
102
RTVSPost2010Prop45
280
     0
102
RTVSPost2010PropOp45
 70
     1
102
RTVSPost2010Prop46
 90
       50
102
RTVSPost2010PropOp46
 70
     1
102
RTVSPost2010Prop47
 90
       50
102
RTVSPost2010PropOp47
 70
     1
102
RTVSPost2010Prop48
 90
       50
102
RTVSPost2010PropOp48
 70
     1
102
RTVSPost2010Prop49
280
     0
102
RTVSPost2010PropOp49
 70
     1
102
RTVSPost2010Prop50
 90
       50
102
RTVSPost2010PropOp50
 70
     1
102
RTVSPost2010Prop51ColorIndex
 90
      256
102
RTVSPost2010Prop51ColorRGB
 90
-16777216
102
RTVSPost2010PropOp51
 70
     0
102
RTVSPost2010Prop52
140
1.0
102
RTVSPost2010PropOp52
 70
     0
102
RTVSPost2010Prop53
 90
        2
102
RTVSPost2010PropOp53
 70
     1
102
RTVSPost2010Prop54
  1
strokes_ogs.tif
102
RTVSPost2010PropOp54
 70
     1
102
RTVSPost2010Prop55
280
     0
102
RTVSPost2010PropOp55
 70
     1
102
RTVSPost2010Prop56
140
1.0
102
RTVSPost2010PropOp56
 70
     1
102
RTVSPost2010Prop57
140
1.0
102
RTVSPost2010PropOp57
 70
     1
  0
XRECORD
  5
11E
102
{ACAD_REACTORS
330
11D
102
}
330
11D
100
AcDbXrecord
280
     1
102
RTVSPropertyOp0
 70
     1
102
RTVSPropertyOp1
 70
     1
102
RTVSPropertyOp2
 70
     1
102
RTVSPropertyOp3
 70
     1
102
RTVSPropertyOp4
 70
     1
102
RTVSPropertyOp5
 70
     1
102
RTVSPropertyOp6
 70
     1
102
RTVSPropertyOp7
 70
     1
102
RTVSPropertyOp8
 70
     1
102
RTVSPropertyOp9
 70
     1
102
RTVSPropertyOp10
 70
     1
102
RTVSPropertyOp11
 70
     1
102
RTVSPropertyOp12
 70
     1
102
RTVSPropertyOp13
 70
     1
102
RTVSPropertyOp14
 70
     1
102
RTVSPropertyOp15
 70
     1
102
RTVSPropertyOp16
 70
     1
102
RTVSPropertyOp17
 70
     1
102
RTVSPropertyOp18
 70
     1
102
RTVSPropertyOp19
 70
     1
102
RTVSPropertyOp20
 70
     1
102
RTVSPropertyOp21
 70
     1
102
RTVSPropertyOp22
 70
     1
102
RTVSPropertyOp23
 70
     1
102
RTVSPropertyOp24
 70
     1
102
RTVSPropertyOp25
 70
     1
102
RTVSPropertyOp26
 70
     1
102
RTVSPropertyOp27
 70
     1
102
RTVSPropertyOp28
 70
     1
102
RTVSPropertyOp29
 70
     1
102
RTVSPropertyOp30
 70
     1
102
RTVSPropertyOp31
 70
     1
102
RTVSPropertyOp32
 70
     1
102
RTVSPropertyOp33
 70
     1
102
RTVSPropertyOp34
 70
     1
102
RTVSPropertyOp35
 70
     1
102
RTVSPropertyOp36
 70
     1
102
RTVSPropertyOp37
 70
     1
102
RTVSPropertyOp38
 70
     1
102
RTVSPropertyOp39
 70
     1
102
RTVSPropertyOp40
 70
     1
102
RTVSPropertyOp41
 70
     1
102
RTVSPropertyOp42
 70
     1
102
RTVSPropertyOp43
 70
     1
102
RTVSPropertyOp44
 70
     1
102
RTVSPropertyOp45
 70
     1
102
RTVSPropertyOp46
 70
     1
102
RTVSPropertyOp47
 70
     1
102
RTVSPropertyOp48
 70
     1
102
RTVSPropertyOp49
 70
     1
102
RTVSPropertyOp50
 70
     1
102
RTVSPropertyOp51
 70
     0
102
RTVSPropertyOp52
 70
     0
102
RTVSPropertyOp53
 70
     1
102
RTVSPropertyOp54
 70
     1
102
RTVSPropertyOp55
 70
     1
102
RTVSPropertyOp56
 70
     1
102
RTVSPropertyOp57
 70
     1
102
RTVSPost2010Prop28
280
     0
102
RTVSPost2010PropOp28
 70
     1
102
RTVSPost2010Prop29
280
     1
102
RTVSPost2010PropOp29
 70
     1
102
RTVSPost2010Prop30
280
     1
102
RTVSPost2010PropOp30
 70
     1
102
RTVSPost2010Prop31
280
     0
102
RTVSPost2010PropOp31
 70
     1
102
RTVSPost2010Prop32
280
     0
102
RTVSPost2010PropOp32
 70
     1
102
RTVSPost2010Prop33
280
     0
102
RTVSPost2010PropOp33
 70
     1
102
RTVSPost2010Prop34
280
     0
102
RTVSPost2010PropOp34
 70
     1
102
RTVSPost2010Prop35
280
     0
102
RTVSPost2010PropOp35
 70
     1
102
RTVSPost2010Prop36
280
     0
102
RTVSPost2010PropOp36
 70
     1
102
RTVSPost2010Prop37
 90
       50
102
RTVSPost2010PropOp37
 70
     1
102
RTVSPost2010Prop38
140
0.0
102
RTVSPost2010PropOp38
 70
     1
102
RTVSPost2010Prop39
140
1.0
102
RTVSPost2010PropOp39
 70
     1
102
RTVSPost2010Prop40
 90
        0
102
RTVSPost2010PropOp40
 70
     1
102
RTVSPost2010Prop41ColorIndex
 90
       18
102
RTVSPost2010Prop41ColorRGB
 90
        0
102
RTVSPost2010PropOp41
 70
     1
102
RTVSPost2010Prop42
 90
       50
102
RTVSPost2010PropOp42
 70
     1
102
RTVSPost2010Prop43
 90
        3
102
RTVSPost2010PropOp43
 70
     1
102
RTVSPost2010Prop44ColorIndex
 90
        5
102
RTVSPost2010Prop44ColorRGB
 90
      255
102
RTVSPost2010PropOp44
 70
     1
102
RTVSPost2010Prop45
280
     0
102
RTVSPost2010PropOp45
 70
     1
102
RTVSPost2010Prop46
 90
       50
102
RTVSPost2010PropOp46
 70
     1
102
RTVSPost2010Prop47
 90
       50
102
RTVSPost2010PropOp47
 70
     1
102
RTVSPost2010Prop48
 90
       50
102
RTVSPost2010PropOp48
 70
     1
102
RTVSPost2010Prop49
280
     0
102
RTVSPost2010PropOp49
 70
     1
102
RTVSPost2010Prop50
 90
       50
102
RTVSPost2010PropOp50
 70
     1
102
RTVSPost2010Prop51ColorIndex
 90
      256
102
RTVSPost2010Prop51ColorRGB
 90
-16777216
102
RTVSPost2010PropOp51
 70
     0
102
RTVSPost2010Prop52
140
1.0
102
RTVSPost2010PropOp52
 70
     0
102
RTVSPost2010Prop53
 90
        2
102
RTVSPost2010PropOp53
 70
     1
102
RTVSPost2010Prop54
  1
strokes_ogs.tif
102
RTVSPost2010PropOp54
 70
     1
102
RTVSPost2010Prop55
280
     0
102
RTVSPost2010PropOp55
 70
     1
102
RTVSPost2010Prop56
140
1.0
102
RTVSPost2010PropOp56
 70
     1
102
RTVSPost2010Prop57
140
1.0
102
RTVSPost2010PropOp57
 70
     1
  0
XRECORD
  5
110
102
{ACAD_REACTORS
330
10F
102
}
330
10F
100
AcDbXrecord
280
     1
102
RTVSPropertyOp0
 70
     1
102
RTVSPropertyOp1
 70
     1
102
RTVSPropertyOp2
 70
     1
102
RTVSPropertyOp3
 70
     1
102
RTVSPropertyOp4
 70
     1
102
RTVSPropertyOp5
 70
     1
102
RTVSPropertyOp6
 70
     1
102
RTVSPropertyOp7
 70
     1
102
RTVSPropertyOp8
 70
     1
102
RTVSPropertyOp9
 70
     1
102
RTVSPropertyOp10
 70
     1
102
RTVSPropertyOp11
 70
     1
102
RTVSPropertyOp12
 70
     1
102
RTVSPropertyOp13
 70
     1
102
RTVSPropertyOp14
 70
     1
102
RTVSPropertyOp15
 70
     1
102
RTVSPropertyOp16
 70
     1
102
RTVSPropertyOp17
 70
     1
102
RTVSPropertyOp18
 70
     1
102
RTVSPropertyOp19
 70
     1
102
RTVSPropertyOp20
 70
     1
102
RTVSPropertyOp21
 70
     1
102
RTVSPropertyOp22
 70
     1
102
RTVSPropertyOp23
 70
     1
102
RTVSPropertyOp24
 70
     1
102
RTVSPropertyOp25
 70
     1
102
RTVSPropertyOp26
 70
     1
102
RTVSPropertyOp27
 70
     1
102
RTVSPropertyOp28
 70
     1
102
RTVSPropertyOp29
 70
     1
102
RTVSPropertyOp30
 70
     1
102
RTVSPropertyOp31
 70
     1
102
RTVSPropertyOp32
 70
     1
102
RTVSPropertyOp33
 70
     1
102
RTVSPropertyOp34
 70
     1
102
RTVSPropertyOp35
 70
     1
102
RTVSPropertyOp36
 70
     1
102
RTVSPropertyOp37
 70
     1
102
RTVSPropertyOp38
 70
     1
102
RTVSPropertyOp39
 70
     1
102
RTVSPropertyOp40
 70
     1
102
RTVSPropertyOp41
 70
     1
102
RTVSPropertyOp42
 70
     1
102
RTVSPropertyOp43
 70
     1
102
RTVSPropertyOp44
 70
     1
102
RTVSPropertyOp45
 70
     1
102
RTVSPropertyOp46
 70
     1
102
RTVSPropertyOp47
 70
     1
102
RTVSPropertyOp48
 70
     1
102
RTVSPropertyOp49
 70
     1
102
RTVSPropertyOp50
 70
     1
102
RTVSPropertyOp51
 70
     0
102
RTVSPropertyOp52
 70
     0
102
RTVSPropertyOp53
 70
     1
102
RTVSPropertyOp54
 70
     1
102
RTVSPropertyOp55
 70
     1
102
RTVSPropertyOp56
 70
     1
102
RTVSPropertyOp57
 70
     1
102
RTVSPost2010Prop28
280
     0
102
RTVSPost2010PropOp28
 70
     1
102
RTVSPost2010Prop29
280
     1
102
RTVSPost2010PropOp29
 70
     1
102
RTVSPost2010Prop30
280
     1
102
RTVSPost2010PropOp30
 70
     1
102
RTVSPost2010Prop31
280
     0
102
RTVSPost2010PropOp31
 70
     1
102
RTVSPost2010Prop32
280
     0
102
RTVSPost2010PropOp32
 70
     1
102
RTVSPost2010Prop33
280
     0
102
RTVSPost2010PropOp33
 70
     1
102
RTVSPost2010Prop34
280
     0
102
RTVSPost2010PropOp34
 70
     1
102
RTVSPost2010Prop35
280
     0
102
RTVSPost2010PropOp35
 70
     1
102
RTVSPost2010Prop36
280
     0
102
RTVSPost2010PropOp36
 70
     1
102
RTVSPost2010Prop37
 90
       50
102
RTVSPost2010PropOp37
 70
     1
102
RTVSPost2010Prop38
140
0.0
102
RTVSPost2010PropOp38
 70
     1
102
RTVSPost2010Prop39
140
1.0
102
RTVSPost2010PropOp39
 70
     1
102
RTVSPost2010Prop40
 90
        0
102
RTVSPost2010PropOp40
 70
     1
102
RTVSPost2010Prop41ColorIndex
 90
       18
102
RTVSPost2010Prop41ColorRGB
 90
        0
102
RTVSPost2010PropOp41
 70
     1
102
RTVSPost2010Prop42
 90
       50
102
RTVSPost2010PropOp42
 70
     1
102
RTVSPost2010Prop43
 90
        3
102
RTVSPost2010PropOp43
 70
     1
102
RTVSPost2010Prop44ColorIndex
 90
        5
102
RTVSPost2010Prop44ColorRGB
 90
      255
102
RTVSPost2010PropOp44
 70
     1
102
RTVSPost2010Prop45
280
     0
102
RTVSPost2010PropOp45
 70
     1
102
RTVSPost2010Prop46
 90
       50
102
RTVSPost2010PropOp46
 70
     1
102
RTVSPost2010Prop47
 90
       50
102
RTVSPost2010PropOp47
 70
     1
102
RTVSPost2010Prop48
 90
       50
102
RTVSPost2010PropOp48
 70
     1
102
RTVSPost2010Prop49
280
     0
102
RTVSPost2010PropOp49
 70
     1
102
RTVSPost2010Prop50
 90
       50
102
RTVSPost2010PropOp50
 70
     1
102
RTVSPost2010Prop51ColorIndex
 90
      256
102
RTVSPost2010Prop51ColorRGB
 90
-16777216
102
RTVSPost2010PropOp51
 70
     0
102
RTVSPost2010Prop52
140
1.0
102
RTVSPost2010PropOp52
 70
     0
102
RTVSPost2010Prop53
 90
        2
102
RTVSPost2010PropOp53
 70
     1
102
RTVSPost2010Prop54
  1
strokes_ogs.tif
102
RTVSPost2010PropOp54
 70
     1
102
RTVSPost2010Prop55
280
     0
102
RTVSPost2010PropOp55
 70
     1
102
RTVSPost2010Prop56
140
1.0
102
RTVSPost2010PropOp56
 70
     1
102
RTVSPost2010Prop57
140
1.0
102
RTVSPost2010PropOp57
 70
     1
  0
XRECORD
  5
130
102
{ACAD_REACTORS
330
12F
102
}
330
12F
100
AcDbXrecord
280
     1
102
RTVSPropertyOp0
 70
     1
102
RTVSPropertyOp1
 70
     1
102
RTVSPropertyOp2
 70
     1
102
RTVSPropertyOp3
 70
     1
102
RTVSPropertyOp4
 70
     1
102
RTVSPropertyOp5
 70
     1
102
RTVSPropertyOp6
 70
     1
102
RTVSPropertyOp7
 70
     1
102
RTVSPropertyOp8
 70
     1
102
RTVSPropertyOp9
 70
     1
102
RTVSPropertyOp10
 70
     1
102
RTVSPropertyOp11
 70
     1
102
RTVSPropertyOp12
 70
     1
102
RTVSPropertyOp13
 70
     1
102
RTVSPropertyOp14
 70
     1
102
RTVSPropertyOp15
 70
     1
102
RTVSPropertyOp16
 70
     1
102
RTVSPropertyOp17
 70
     1
102
RTVSPropertyOp18
 70
     1
102
RTVSPropertyOp19
 70
     1
102
RTVSPropertyOp20
 70
     1
102
RTVSPropertyOp21
 70
     1
102
RTVSPropertyOp22
 70
     1
102
RTVSPropertyOp23
 70
     1
102
RTVSPropertyOp24
 70
     1
102
RTVSPropertyOp25
 70
     1
102
RTVSPropertyOp26
 70
     1
102
RTVSPropertyOp27
 70
     1
102
RTVSPropertyOp28
 70
     1
102
RTVSPropertyOp29
 70
     1
102
RTVSPropertyOp30
 70
     1
102
RTVSPropertyOp31
 70
     1
102
RTVSPropertyOp32
 70
     1
102
RTVSPropertyOp33
 70
     1
102
RTVSPropertyOp34
 70
     1
102
RTVSPropertyOp35
 70
     1
102
RTVSPropertyOp36
 70
     1
102
RTVSPropertyOp37
 70
     1
102
RTVSPropertyOp38
 70
     1
102
RTVSPropertyOp39
 70
     1
102
RTVSPropertyOp40
 70
     1
102
RTVSPropertyOp41
 70
     1
102
RTVSPropertyOp42
 70
     1
102
RTVSPropertyOp43
 70
     1
102
RTVSPropertyOp44
 70
     1
102
RTVSPropertyOp45
 70
     1
102
RTVSPropertyOp46
 70
     1
102
RTVSPropertyOp47
 70
     1
102
RTVSPropertyOp48
 70
     1
102
RTVSPropertyOp49
 70
     1
102
RTVSPropertyOp50
 70
     1
102
RTVSPropertyOp51
 70
     0
102
RTVSPropertyOp52
 70
     0
102
RTVSPropertyOp53
 70
     1
102
RTVSPropertyOp54
 70
     1
102
RTVSPropertyOp55
 70
     1
102
RTVSPropertyOp56
 70
     1
102
RTVSPropertyOp57
 70
     1
102
RTVSPost2010Prop28
280
     0
102
RTVSPost2010PropOp28
 70
     1
102
RTVSPost2010Prop29
280
     1
102
RTVSPost2010PropOp29
 70
     1
102
RTVSPost2010Prop30
280
     1
102
RTVSPost2010PropOp30
 70
     1
102
RTVSPost2010Prop31
280
     0
102
RTVSPost2010PropOp31
 70
     1
102
RTVSPost2010Prop32
280
     0
102
RTVSPost2010PropOp32
 70
     1
102
RTVSPost2010Prop33
280
     0
102
RTVSPost2010PropOp33
 70
     1
102
RTVSPost2010Prop34
280
     0
102
RTVSPost2010PropOp34
 70
     1
102
RTVSPost2010Prop35
280
     0
102
RTVSPost2010PropOp35
 70
     1
102
RTVSPost2010Prop36
280
     0
102
RTVSPost2010PropOp36
 70
     1
102
RTVSPost2010Prop37
 90
       50
102
RTVSPost2010PropOp37
 70
     1
102
RTVSPost2010Prop38
140
0.0
102
RTVSPost2010PropOp38
 70
     1
102
RTVSPost2010Prop39
140
1.0
102
RTVSPost2010PropOp39
 70
     1
102
RTVSPost2010Prop40
 90
        0
102
RTVSPost2010PropOp40
 70
     1
102
RTVSPost2010Prop41ColorIndex
 90
       18
102
RTVSPost2010Prop41ColorRGB
 90
        0
102
RTVSPost2010PropOp41
 70
     1
102
RTVSPost2010Prop42
 90
       50
102
RTVSPost2010PropOp42
 70
     1
102
RTVSPost2010Prop43
 90
        3
102
RTVSPost2010PropOp43
 70
     1
102
RTVSPost2010Prop44ColorIndex
 90
        5
102
RTVSPost2010Prop44ColorRGB
 90
      255
102
RTVSPost2010PropOp44
 70
     1
102
RTVSPost2010Prop45
280
     0
102
RTVSPost2010PropOp45
 70
     1
102
RTVSPost2010Prop46
 90
       50
102
RTVSPost2010PropOp46
 70
     1
102
RTVSPost2010Prop47
 90
       50
102
RTVSPost2010PropOp47
 70
     1
102
RTVSPost2010Prop48
 90
       50
102
RTVSPost2010PropOp48
 70
     1
102
RTVSPost2010Prop49
280
     0
102
RTVSPost2010PropOp49
 70
     1
102
RTVSPost2010Prop50
 90
       50
102
RTVSPost2010PropOp50
 70
     1
102
RTVSPost2010Prop51ColorIndex
 90
      256
102
RTVSPost2010Prop51ColorRGB
 90
-16777216
102
RTVSPost2010PropOp51
 70
     0
102
RTVSPost2010Prop52
140
1.0
102
RTVSPost2010PropOp52
 70
     0
102
RTVSPost2010Prop53
 90
        2
102
RTVSPost2010PropOp53
 70
     1
102
RTVSPost2010Prop54
  1
strokes_ogs.tif
102
RTVSPost2010PropOp54
 70
     1
102
RTVSPost2010Prop55
280
     0
102
RTVSPost2010PropOp55
 70
     1
102
RTVSPost2010Prop56
140
1.0
102
RTVSPost2010PropOp56
 70
     1
102
RTVSPost2010Prop57
140
1.0
102
RTVSPost2010PropOp57
 70
     1
  0
ENDSEC
  0
EOF
