  0
SECTION
  2
HEADER
  9
$ACADVER
  1
AC1024
  9
$ACADMAINTVER
 70
     6
  9
$DWGCODEPAGE
  3
UNDEFINED
  9
$INSBASE
 10
0.0
 20
0.0
 30
0.0
  9
$EXTMIN
 10
1.000000000000000E+20
 20
1.000000000000000E+20
 30
1.000000000000000E+20
  9
$EXTMAX
 10
-1.000000000000000E+20
 20
-1.000000000000000E+20
 30
-1.000000000000000E+20
  9
$LIMMIN
 10
0.0
 20
0.0
  9
$LIMMAX
 10
12.0
 20
9.0
  9
$ORTHOMODE
 70
     0
  9
$REGENMODE
 70
     1
  9
$FILLMODE
 70
     1
  9
$QTEXTMODE
 70
     0
  9
$MIRRTEXT
 70
     1
  9
$LTSCALE
 40
1.0
  9
$ATTMODE
 70
     1
  9
$TEXTSIZE
 40
0.2
  9
$TRACEWID
 40
0.05
  9
$TEXTSTYLE
  7
Standard
  9
$CLAYER
  8
0
  9
$CELTYPE
  6
ByLayer
  9
$CECOLOR
 62
   256
  9
$CELTSCALE
 40
1.0
  9
$DISPSILH
 70
     0
  9
$DIMSCALE
 40
1.0
  9
$DIMASZ
 40
0.18
  9
$DIMEXO
 40
0.0625
  9
$DIMDLI
 40
0.38
  9
$DIMRND
 40
0.0
  9
$DIMDLE
 40
0.0
  9
$DIMEXE
 40
0.18
  9
$DIMTP
 40
0.0
  9
$DIMTM
 40
0.0
  9
$DIMTXT
 40
0.18
  9
$DIMCEN
 40
0.09
  9
$DIMTSZ
 40
0.0
  9
$DIMTOL
 70
     0
  9
$DIMLIM
 70
     0
  9
$DIMTIH
 70
     1
  9
$DIMTOH
 70
     1
  9
$DIMSE1
 70
     0
  9
$DIMSE2
 70
     0
  9
$DIMTAD
 70
     0
  9
$DIMZIN
 70
     0
  9
$DIMBLK
  1

  9
$DIMASO
 70
     1
  9
$DIMSHO
 70
     1
  9
$DIMPOST
  1

  9
$DIMAPOST
  1

  9
$DIMALT
 70
     0
  9
$DIMALTD
 70
     2
  9
$DIMALTF
 40
25.4
  9
$DIMLFAC
 40
1.0
  9
$DIMTOFL
 70
     0
  9
$DIMTVP
 40
0.0
  9
$DIMTIX
 70
     0
  9
$DIMSOXD
 70
     0
  9
$DIMSAH
 70
     0
  9
$DIMBLK1
  1

  9
$DIMBLK2
  1

  9
$DIMSTYLE
  2
Standard
  9
$DIMCLRD
 70
     0
  9
$DIMCLRE
 70
     0
  9
$DIMCLRT
 70
     0
  9
$DIMTFAC
 40
1.0
  9
$DIMGAP
 40
0.09
  9
$DIMJUST
 70
     0
  9
$DIMSD1
 70
     0
  9
$DIMSD2
 70
     0
  9
$DIMTOLJ
 70
     1
  9
$DIMTZIN
 70
     0
  9
$DIMALTZ
 70
     0
  9
$DIMALTTZ
 70
     0
  9
$DIMUPT
 70
     0
  9
$DIMDEC
 70
     4
  9
$DIMTDEC
 70
     4
  9
$DIMALTU
 70
     2
  9
$DIMALTTD
 70
     2
  9
$DIMTXSTY
  7
Standard
  9
$DIMAUNIT
 70
     0
  9
$DIMADEC
 70
     0
  9
$DIMALTRND
 40
0.0
  9
$DIMAZIN
 70
     0
  9
$DIMDSEP
 70
    46
  9
$DIMATFIT
 70
     3
  9
$DIMFRAC
 70
     0
  9
$DIMLDRBLK
  1

  9
$DIMLUNIT
 70
     2
  9
$DIMLWD
 70
    -2
  9
$DIMLWE
 70
    -2
  9
$DIMTMOVE
 70
     0
  9
$DIMFXL
 40
1.0
  9
$DIMFXLON
 70
     0
  9
$DIMJOGANG
 40
0.7853981633974483
  9
$DIMTFILL
 70
     0
  9
$DIMTFILLCLR
 70
     0
  9
$DIMARCSYM
 70
     0
  9
$DIMLTYPE
  6

  9
$DIMLTEX1
  6

  9
$DIMLTEX2
  6

  9
$DIMTXTDIRECTION
 70
     0
  9
$LUNITS
 70
     2
  9
$LUPREC
 70
     4
  9
$SKETCHINC
 40
0.1
  9
$FILLETRAD
 40
0.5
  9
$AUNITS
 70
     0
  9
$AUPREC
 70
     0
  9
$MENU
  1
.
  9
$ELEVATION
 40
0.0
  9
$PELEVATION
 40
0.0
  9
$THICKNESS
 40
0.0
  9
$LIMCHECK
 70
     0
  9
$CHAMFERA
 40
0.5
  9
$CHAMFERB
 40
0.5
  9
$CHAMFERC
 40
1.0
  9
$CHAMFERD
 40
0.0
  9
$SKPOLY
 70
     0
  9
$TDCREATE
 40
2455746.820555544
  9
$TDUCREATE
 40
2455747.153888889
  9
$TDUPDATE
 40
2455746.820555556
  9
$TDUUPDATE
 40
2455747.1538889
  9
$TDINDWG
 40
0.0000000116
  9
$TDUSRTIMER
 40
0.0000000116
  9
$USRTIMER
 70
     1
  9
$ANGBASE
 50
0.0
  9
$ANGDIR
 70
     0
  9
$PDMODE
 70
     0
  9
$PDSIZE
 40
0.0
  9
$PLINEWID
 40
0.0
  9
$SPLFRAME
 70
     0
  9
$SPLINETYPE
 70
     6
  9
$SPLINESEGS
 70
     8
  9
$HANDSEED
  5
1E3
  9
$SURFTAB1
 70
     6
  9
$SURFTAB2
 70
     6
  9
$SURFTYPE
 70
     6
  9
$SURFU
 70
     6
  9
$SURFV
 70
     6
  9
$UCSBASE
  2

  9
$UCSNAME
  2

  9
$UCSORG
 10
0.0
 20
0.0
 30
0.0
  9
$UCSXDIR
 10
1.0
 20
0.0
 30
0.0
  9
$UCSYDIR
 10
0.0
 20
1.0
 30
0.0
  9
$UCSORTHOREF
  2

  9
$UCSORTHOVIEW
 70
     0
  9
$UCSORGTOP
 10
0.0
 20
0.0
 30
0.0
  9
$UCSORGBOTTOM
 10
0.0
 20
0.0
 30
0.0
  9
$UCSORGLEFT
 10
0.0
 20
0.0
 30
0.0
  9
$UCSORGRIGHT
 10
0.0
 20
0.0
 30
0.0
  9
$UCSORGFRONT
 10
0.0
 20
0.0
 30
0.0
  9
$UCSORGBACK
 10
0.0
 20
0.0
 30
0.0
  9
$PUCSBASE
  2

  9
$PUCSNAME
  2

  9
$PUCSORG
 10
0.0
 20
0.0
 30
0.0
  9
$PUCSXDIR
 10
1.0
 20
0.0
 30
0.0
  9
$PUCSYDIR
 10
0.0
 20
1.0
 30
0.0
  9
$PUCSORTHOREF
  2

  9
$PUCSORTHOVIEW
 70
     0
  9
$PUCSORGTOP
 10
0.0
 20
0.0
 30
0.0
  9
$PUCSORGBOTTOM
 10
0.0
 20
0.0
 30
0.0
  9
$PUCSORGLEFT
 10
0.0
 20
0.0
 30
0.0
  9
$PUCSORGRIGHT
 10
0.0
 20
0.0
 30
0.0
  9
$PUCSORGFRONT
 10
0.0
 20
0.0
 30
0.0
  9
$PUCSORGBACK
 10
0.0
 20
0.0
 30
0.0
  9
$USERI1
 70
     0
  9
$USERI2
 70
     0
  9
$USERI3
 70
     0
  9
$USERI4
 70
     0
  9
$USERI5
 70
     0
  9
$USERR1
 40
0.0
  9
$USERR2
 40
0.0
  9
$USERR3
 40
0.0
  9
$USERR4
 40
0.0
  9
$USERR5
 40
0.0
  9
$WORLDVIEW
 70
     1
  9
$SHADEDGE
 70
     3
  9
$SHADEDIF
 70
    70
  9
$TILEMODE
 70
     1
  9
$MAXACTVP
 70
    64
  9
$PINSBASE
 10
0.0
 20
0.0
 30
0.0
  9
$PLIMCHECK
 70
     0
  9
$PEXTMIN
 10
1.000000000000000E+20
 20
1.000000000000000E+20
 30
1.000000000000000E+20
  9
$PEXTMAX
 10
-1.000000000000000E+20
 20
-1.000000000000000E+20
 30
-1.000000000000000E+20
  9
$PLIMMIN
 10
0.0
 20
0.0
  9
$PLIMMAX
 10
12.0
 20
9.0
  9
$UNITMODE
 70
     0
  9
$VISRETAIN
 70
     1
  9
$PLINEGEN
 70
     0
  9
$PSLTSCALE
 70
     1
  9
$TREEDEPTH
 70
  3020
  9
$CMLSTYLE
  2
Standard
  9
$CMLJUST
 70
     0
  9
$CMLSCALE
 40
1.0
  9
$PROXYGRAPHICS
 70
     1
  9
$MEASUREMENT
 70
     0
  9
$CELWEIGHT
370
    -1
  9
$ENDCAPS
280
     0
  9
$JOINSTYLE
280
     0
  9
$LWDISPLAY
290
     0
  9
$INSUNITS
 70
     1
  9
$HYPERLINKBASE
  1

  9
$STYLESHEET
  1

  9
$XEDIT
290
     1
  9
$CEPSNTYPE
380
     0
  9
$PSTYLEMODE
290
     1
  9
$FINGERPRINTGUID
  2
{71A13A02-1941-4AF8-1003-8590816216CB}
  9
$VERSIONGUID
  2
{FAEB1C32-E019-11D5-929B-00C0DF256EC4}
  9
$EXTNAMES
290
     1
  9
$PSVPSCALE
 40
0.0
  9
$OLESTARTUP
290
     0
  9
$SORTENTS
280
   127
  9
$INDEXCTL
280
     0
  9
$HIDETEXT
280
     1
  9
$XCLIPFRAME
280
     2
  9
$HALOGAP
280
     0
  9
$OBSCOLOR
 70
   257
  9
$OBSLTYPE
280
     0
  9
$INTERSECTIONDISPLAY
280
     0
  9
$INTERSECTIONCOLOR
 70
   257
  9
$DIMASSOC
280
     2
  9
$PROJECTNAME
  1

  9
$CAMERADISPLAY
290
     0
  9
$LENSLENGTH
 40
50.0
  9
$CAMERAHEIGHT
 40
0.0
  9
$STEPSPERSEC
 40
2.0
  9
$STEPSIZE
 40
6.0
  9
$3DDWFPREC
 40
2.0
  9
$PSOLWIDTH
 40
0.25
  9
$PSOLHEIGHT
 40
4.0
  9
$LOFTANG1
 40
1.570796326794897
  9
$LOFTANG2
 40
1.570796326794897
  9
$LOFTMAG1
 40
0.0
  9
$LOFTMAG2
 40
0.0
  9
$LOFTPARAM
 70
     7
  9
$LOFTNORMALS
280
     1
  9
$LATITUDE
 40
37.795
  9
$LONGITUDE
 40
-122.394
  9
$NORTHDIRECTION
 40
0.0
  9
$TIMEZONE
 70
 -8000
  9
$LIGHTGLYPHDISPLAY
280
     1
  9
$TILEMODELIGHTSYNCH
280
     1
  9
$SOLIDHIST
280
     1
  9
$SHOWHIST
280
     1
  9
$DWFFRAME
280
     2
  9
$DGNFRAME
280
     2
  9
$REALWORLDSCALE
290
     1
  9
$INTERFERECOLOR
 62
   256
  9
$CSHADOW
280
     0
  9
$SHADOWPLANELOCATION
 40
0.0
  0
ENDSEC
  0
SECTION
  2
CLASSES
  0
CLASS
  1
ACDBDICTIONARYWDFLT
  2
AcDbDictionaryWithDefault
  3
ObjectDBX Classes
 90
        0
 91
        4
280
     0
281
     0
  0
CLASS
  1
VISUALSTYLE
  2
AcDbVisualStyle
  3
ObjectDBX Classes
 90
     4095
 91
        4
280
     0
281
     0
  0
CLASS
  1
MATERIAL
  2
AcDbMaterial
  3
ObjectDBX Classes
 90
     1153
 91
        4
280
     0
281
     0
  0
ENDSEC
  0
SECTION
  2
TABLES
  0
TABLE
  2
VPORT
  5
8
330
0
100
AcDbSymbolTable
 70
     1
  0
VPORT
  5
29
330
8
100
AcDbSymbolTableRecord
100
AcDbViewportTableRecord
  2
*Active
 70
     0
 10
0.0
 20
0.0
 11
1.0
 21
1.0
 12
0.0
 22
0.0
 13
0.0
 23
0.0
 14
0.5
 24
0.5
 15
0.5
 25
0.5
 16
0.0
 26
0.0
 36
1.0
 17
0.0
 27
0.0
 37
-1000.0
 40
31.57894736842108
 41
1.654465592972182
 42
50.0
 43
44.62003140200358
 44
56.18559393578215
 50
0.0
 51
0.0
 71
     0
 72
   100
 73
     1
 74
     3
 75
     0
 76
     0
 77
     0
 78
     0
281
     0
 65
     1
110
0.0
120
0.0
130
0.0
111
1.0
121
0.0
131
0.0
112
0.0
122
1.0
132
0.0
 79
     0
146
0.0
 60
     3
 61
     5
292
     1
282
     1
141
0.0
142
0.0
 63
   250
  0
ENDTAB
  0
TABLE
  2
LTYPE
  5
5
330
0
100
AcDbSymbolTable
 70
     1
  0
LTYPE
  5
14
330
5
100
AcDbSymbolTableRecord
100
AcDbLinetypeTableRecord
  2
ByBlock
 70
     0
  3

 72
    65
 73
     0
 40
0.0
  0
LTYPE
  5
15
330
5
100
AcDbSymbolTableRecord
100
AcDbLinetypeTableRecord
  2
ByLayer
 70
     0
  3

 72
    65
 73
     0
 40
0.0
  0
LTYPE
  5
16
330
5
100
AcDbSymbolTableRecord
100
AcDbLinetypeTableRecord
  2
Continuous
 70
     0
  3
Solid line
 72
    65
 73
     0
 40
0.0
  0
ENDTAB
  0
TABLE
  2
LAYER
  5
2
330
0
100
AcDbSymbolTable
 70
     3
  0
LAYER
  5
10
330
2
100
AcDbSymbolTableRecord
100
AcDbLayerTableRecord
  2
0
 70
     0
 62
     7
  6
Continuous
370
    -3
390
F
347
3E
  0
LAYER
  5
3F
330
2
100
AcDbSymbolTableRecord
100
AcDbLayerTableRecord
  2
ProfileEdges
 70
     0
 62
     7
  6
Continuous
370
    -3
390
F
347
3E
  0
LAYER
  5
40
330
2
100
AcDbSymbolTableRecord
100
AcDbLayerTableRecord
  2
SectionCutEdges
 70
     0
 62
     7
  6
Continuous
370
    -3
390
F
347
3E
  0
ENDTAB
  0
TABLE
  2
STYLE
  5
3
330
0
100
AcDbSymbolTable
 70
     1
  0
STYLE
  5
11
330
3
100
AcDbSymbolTableRecord
100
AcDbTextStyleTableRecord
  2
Standard
 70
     0
 40
0.0
 41
1.0
 50
0.0
 71
     0
 42
0.2
  3
txt
  4

  0
ENDTAB
  0
TABLE
  2
VIEW
  5
6
330
0
100
AcDbSymbolTable
 70
     0
  0
ENDTAB
  0
TABLE
  2
UCS
  5
7
330
0
100
AcDbSymbolTable
 70
     0
  0
ENDTAB
  0
TABLE
  2
APPID
  5
9
330
0
100
AcDbSymbolTable
 70
     1
  0
APPID
  5
12
330
9
100
AcDbSymbolTableRecord
100
AcDbRegAppTableRecord
  2
ACAD
 70
     0
  0
ENDTAB
  0
TABLE
  2
DIMSTYLE
  5
A
330
0
100
AcDbSymbolTable
 70
     1
100
AcDbDimStyleTable
  0
DIMSTYLE
105
27
330
A
100
AcDbSymbolTableRecord
100
AcDbDimStyleTableRecord
  2
Standard
 70
     0
340
11
  0
ENDTAB
  0
TABLE
  2
BLOCK_RECORD
  5
1
330
0
100
AcDbSymbolTable
 70
     1
  0
BLOCK_RECORD
  5
1F
330
1
100
AcDbSymbolTableRecord
100
AcDbBlockTableRecord
  2
*Model_Space
340
22
 70
     0
280
     1
281
     0
  0
BLOCK_RECORD
  5
1B
330
1
100
AcDbSymbolTableRecord
100
AcDbBlockTableRecord
  2
*Paper_Space
340
1E
 70
     0
280
     1
281
     0
  0
BLOCK_RECORD
  5
23
330
1
100
AcDbSymbolTableRecord
100
AcDbBlockTableRecord
  2
*Paper_Space0
340
26
 70
     0
280
     1
281
     0
  0
ENDTAB
  0
ENDSEC
  0
SECTION
  2
BLOCKS
  0
BLOCK
  5
20
330
1F
100
AcDbEntity
  8
0
100
AcDbBlockBegin
  2
*Model_Space
 70
     0
 10
0.0
 20
0.0
 30
0.0
  3
*Model_Space
  1

  0
ENDBLK
  5
21
330
1F
100
AcDbEntity
  8
0
100
AcDbBlockEnd
  0
BLOCK
  5
1C
330
1B
100
AcDbEntity
 67
     1
  8
0
100
AcDbBlockBegin
  2
*Paper_Space
 70
     0
 10
0.0
 20
0.0
 30
0.0
  3
*Paper_Space
  1

  0
ENDBLK
  5
1D
330
1B
100
AcDbEntity
 67
     1
  8
0
100
AcDbBlockEnd
  0
BLOCK
  5
24
330
23
100
AcDbEntity
  8
0
100
AcDbBlockBegin
  2
*Paper_Space0
 70
     0
 10
0.0
 20
0.0
 30
0.0
  3
*Paper_Space0
  1

  0
ENDBLK
  5
25
330
23
100
AcDbEntity
  8
0
100
AcDbBlockEnd
  0
ENDSEC
  0
SECTION
  2
ENTITIES
  0
LINE
  5
41
330
1F
100
AcDbEntity
  8
0
 62
   178
420
        0
100
AcDbLine
 10
5.004259271713728
 20
14.4676476193622
 30
0.0
 11
4.999999999999861
 21
14.50000000000001
 31
0.0
  0
LINE
  5
42
330
1F
100
AcDbEntity
  8
0
 62
   178
420
        0
100
AcDbLine
 10
12.24999999999986
 20
-9.999999999999984
 30
0.0
 11
9.749999999999861
 21
-9.999999999999984
 31
0.0
  0
LINE
  5
43
330
1F
100
AcDbEntity
  8
0
 62
   178
420
        0
100
AcDbLine
 10
5.124999999999861
 20
14.37500000000001
 30
0.0
 11
5.092647619362046
 21
14.37925927171388
 31
0.0
  0
LINE
  5
44
330
1F
100
AcDbEntity
  8
0
 62
   178
420
        0
100
AcDbLine
 10
5.187499999999861
 20
14.39174682452696
 30
0.0
 11
5.157352380637677
 21
14.37925927171388
 31
0.0
  0
LINE
  5
45
330
1F
100
AcDbEntity
  8
0
 62
   178
420
        0
100
AcDbLine
 10
6.249999999999861
 20
14.00000000000001
 30
0.0
 11
8.749999999999861
 21
10.50000000000001
 31
0.0
  0
LINE
  5
46
330
1F
100
AcDbEntity
  8
0
 62
   178
420
        0
100
AcDbLine
 10
-9.750000000000139
 20
-9.999999999999984
 30
0.0
 11
-7.250000000000139
 21
-9.999999999999984
 31
0.0
  0
LINE
  5
47
330
1F
100
AcDbEntity
  8
0
 62
   178
420
        0
100
AcDbLine
 10
6.249999999999861
 20
15.00000000000001
 30
0.0
 11
6.249999999999861
 21
14.00000000000001
 31
0.0
  0
LINE
  5
48
330
1F
100
AcDbEntity
  8
0
 62
   178
420
        0
100
AcDbLine
 10
0.9999999999998614
 20
14.50000000000001
 30
0.0
 11
0.9999999999998614
 21
12.37500000000001
 31
0.0
  0
LINE
  5
49
330
1F
100
AcDbEntity
  8
0
 62
   178
420
        0
100
AcDbLine
 10
8.749999999999861
 20
10.50000000000001
 30
0.0
 11
12.24999999999986
 21
-9.999999999999984
 31
0.0
  0
LINE
  5
4A
330
1F
100
AcDbEntity
  8
0
 62
   178
420
        0
100
AcDbLine
 10
1.499999999999861
 20
14.50000000000001
 30
0.0
 11
4.999999999999861
 21
14.50000000000001
 31
0.0
  0
LINE
  5
4B
330
1F
100
AcDbEntity
  8
0
 62
   178
420
        0
100
AcDbLine
 10
5.092647619362046
 20
14.37925927171388
 30
0.0
 11
5.062499999999861
 21
14.39174682452696
 31
0.0
  0
LINE
  5
4C
330
1F
100
AcDbEntity
  8
0
 62
   178
420
        0
100
AcDbLine
 10
-3.750000000000139
 20
10.50000000000001
 30
0.0
 11
6.249999999999861
 21
10.50000000000001
 31
0.0
  0
LINE
  5
4D
330
1F
100
AcDbEntity
  8
0
 62
   178
420
        0
100
AcDbLine
 10
-6.250000000000139
 20
10.50000000000001
 30
0.0
 11
-9.750000000000139
 21
-9.999999999999984
 31
0.0
  0
LINE
  5
4E
330
1F
100
AcDbEntity
  8
0
 62
   178
420
        0
100
AcDbLine
 10
-2.504259271714005
 20
14.4676476193622
 30
0.0
 11
-2.516746824527083
 21
14.43750000000001
 31
0.0
  0
LINE
  5
4F
330
1F
100
AcDbEntity
  8
0
 62
   178
420
        0
100
AcDbLine
 10
5.249999999999861
 20
14.50000000000001
 30
0.0
 11
5.249999999999861
 21
15.00000000000001
 31
0.0
  0
LINE
  5
50
330
1F
100
AcDbEntity
  8
0
 62
   178
420
        0
100
AcDbLine
 10
1.499999999999861
 20
12.37500000000001
 30
0.0
 11
1.499999999999861
 21
14.50000000000001
 31
0.0
  0
LINE
  5
51
330
1F
100
AcDbEntity
  8
0
 62
   178
420
        0
100
AcDbLine
 10
-3.750000000000139
 20
15.00000000000001
 30
0.0
 11
-2.750000000000139
 21
15.00000000000001
 31
0.0
  0
LINE
  5
52
330
1F
100
AcDbEntity
  8
0
 62
   178
420
        0
100
AcDbLine
 10
0.9999999999998614
 20
12.37500000000001
 30
0.0
 11
1.499999999999861
 21
12.37500000000001
 31
0.0
  0
LINE
  5
53
330
1F
100
AcDbEntity
  8
0
 62
   178
420
        0
100
AcDbLine
 10
-2.500000000000139
 20
14.50000000000001
 30
0.0
 11
-2.504259271714005
 21
14.4676476193622
 31
0.0
  0
LINE
  5
54
330
1F
100
AcDbEntity
  8
0
 62
   178
420
        0
100
AcDbLine
 10
-2.516746824527083
 20
14.43750000000001
 30
0.0
 11
-2.53661165235182
 21
14.41161165235169
 31
0.0
  0
LINE
  5
55
330
1F
100
AcDbEntity
  8
0
 62
   178
420
        0
100
AcDbLine
 10
-2.53661165235182
 20
14.41161165235169
 30
0.0
 11
-2.562500000000139
 21
14.39174682452696
 31
0.0
  0
LINE
  5
56
330
1F
100
AcDbEntity
  8
0
 62
   178
420
        0
100
AcDbLine
 10
-2.562500000000139
 20
14.39174682452696
 30
0.0
 11
-2.592647619362324
 21
14.37925927171388
 31
0.0
  0
LINE
  5
57
330
1F
100
AcDbEntity
  8
0
 62
   178
420
        0
100
AcDbLine
 10
-2.592647619362324
 20
14.37925927171388
 30
0.0
 11
-2.625000000000139
 21
14.37500000000001
 31
0.0
  0
LINE
  5
58
330
1F
100
AcDbEntity
  8
0
 62
   178
420
        0
100
AcDbLine
 10
5.062499999999861
 20
14.39174682452696
 30
0.0
 11
5.036611652351542
 21
14.41161165235169
 31
0.0
  0
LINE
  5
59
330
1F
100
AcDbEntity
  8
0
 62
   178
420
        0
100
AcDbLine
 10
5.233253175472916
 20
14.43750000000001
 30
0.0
 11
5.213388347648181
 21
14.41161165235169
 31
0.0
  0
LINE
  5
5A
330
1F
100
AcDbEntity
  8
0
 62
   178
420
        0
100
AcDbLine
 10
-2.733253175473194
 20
14.43750000000001
 30
0.0
 11
-2.745740728286272
 21
14.4676476193622
 31
0.0
  0
LINE
  5
5B
330
1F
100
AcDbEntity
  8
0
 62
   178
420
        0
100
AcDbLine
 10
-3.750000000000139
 20
14.00000000000001
 30
0.0
 11
-3.750000000000139
 21
15.00000000000001
 31
0.0
  0
LINE
  5
5C
330
1F
100
AcDbEntity
  8
0
 62
   178
420
        0
100
AcDbLine
 10
9.749999999999861
 20
-9.999999999999984
 30
0.0
 11
6.249999999999861
 21
10.50000000000001
 31
0.0
  0
LINE
  5
5D
330
1F
100
AcDbEntity
  8
0
 62
   178
420
        0
100
AcDbLine
 10
-2.750000000000139
 20
15.00000000000001
 30
0.0
 11
-2.750000000000139
 21
14.50000000000001
 31
0.0
  0
LINE
  5
5E
330
1F
100
AcDbEntity
  8
0
 62
   178
420
        0
100
AcDbLine
 10
-2.500000000000139
 20
14.50000000000001
 30
0.0
 11
0.9999999999998614
 21
14.50000000000001
 31
0.0
  0
LINE
  5
5F
330
1F
100
AcDbEntity
  8
0
 62
   178
420
        0
100
AcDbLine
 10
5.249999999999861
 20
15.00000000000001
 30
0.0
 11
6.249999999999861
 21
15.00000000000001
 31
0.0
  0
LINE
  5
60
330
1F
100
AcDbEntity
  8
0
 62
   178
420
        0
100
AcDbLine
 10
5.249999999999861
 20
14.50000000000001
 30
0.0
 11
5.245740728285995
 21
14.4676476193622
 31
0.0
  0
LINE
  5
61
330
1F
100
AcDbEntity
  8
0
 62
   178
420
        0
100
AcDbLine
 10
5.157352380637677
 20
14.37925927171388
 30
0.0
 11
5.124999999999861
 21
14.37500000000001
 31
0.0
  0
LINE
  5
62
330
1F
100
AcDbEntity
  8
0
 62
   178
420
        0
100
AcDbLine
 10
5.016746824526807
 20
14.43750000000001
 30
0.0
 11
5.004259271713728
 21
14.4676476193622
 31
0.0
  0
LINE
  5
63
330
1F
100
AcDbEntity
  8
0
 62
   178
420
        0
100
AcDbLine
 10
-3.750000000000139
 20
14.00000000000001
 30
0.0
 11
-6.250000000000139
 21
10.50000000000001
 31
0.0
  0
LINE
  5
64
330
1F
100
AcDbEntity
  8
0
 62
   178
420
        0
100
AcDbLine
 10
5.036611652351542
 20
14.41161165235169
 30
0.0
 11
5.016746824526807
 21
14.43750000000001
 31
0.0
  0
LINE
  5
65
330
1F
100
AcDbEntity
  8
0
 62
   178
420
        0
100
AcDbLine
 10
5.245740728285995
 20
14.4676476193622
 30
0.0
 11
5.233253175472916
 21
14.43750000000001
 31
0.0
  0
LINE
  5
66
330
1F
100
AcDbEntity
  8
0
 62
   178
420
        0
100
AcDbLine
 10
5.213388347648181
 20
14.41161165235169
 30
0.0
 11
5.187499999999861
 21
14.39174682452696
 31
0.0
  0
LINE
  5
67
330
1F
100
AcDbEntity
  8
0
 62
   178
420
        0
100
AcDbLine
 10
-2.625000000000139
 20
14.37500000000001
 30
0.0
 11
-2.657352380637954
 21
14.37925927171388
 31
0.0
  0
LINE
  5
68
330
1F
100
AcDbEntity
  8
0
 62
   178
420
        0
100
AcDbLine
 10
-2.657352380637954
 20
14.37925927171388
 30
0.0
 11
-2.687500000000139
 21
14.39174682452696
 31
0.0
  0
LINE
  5
69
330
1F
100
AcDbEntity
  8
0
 62
   178
420
        0
100
AcDbLine
 10
-2.687500000000139
 20
14.39174682452696
 30
0.0
 11
-2.713388347648457
 21
14.41161165235169
 31
0.0
  0
LINE
  5
6A
330
1F
100
AcDbEntity
  8
0
 62
   178
420
        0
100
AcDbLine
 10
-2.713388347648457
 20
14.41161165235169
 30
0.0
 11
-2.733253175473194
 21
14.43750000000001
 31
0.0
  0
LINE
  5
6B
330
1F
100
AcDbEntity
  8
0
 62
   178
420
        0
100
AcDbLine
 10
-2.745740728286272
 20
14.4676476193622
 30
0.0
 11
-2.750000000000139
 21
14.50000000000001
 31
0.0
  0
LINE
  5
6C
330
1F
100
AcDbEntity
  8
0
 62
   178
420
        0
100
AcDbLine
 10
-7.250000000000139
 20
-9.999999999999984
 30
0.0
 11
-3.750000000000139
 21
10.50000000000001
 31
0.0
  0
LINE
  5
6D
330
1F
100
AcDbEntity
  8
0
 62
   178
420
        0
100
AcDbLine
 10
12.62499999999969
 20
-14.37499999999999
 30
0.0
 11
12.65735238063751
 21
-14.37925927171386
 31
0.0
  0
LINE
  5
6E
330
1F
100
AcDbEntity
  8
0
 62
   178
420
        0
100
AcDbLine
 10
4.995740728285826
 20
-14.46764761936204
 30
0.0
 11
4.999999999999691
 21
-14.49999999999985
 31
0.0
  0
LINE
  5
6F
330
1F
100
AcDbEntity
  8
0
 62
   178
420
        0
100
AcDbLine
 10
12.49999999999969
 20
-14.49999999999999
 30
0.0
 11
4.999999999999691
 21
-14.49999999999985
 31
0.0
  0
LINE
  5
70
330
1F
100
AcDbEntity
  8
0
 62
   178
420
        0
100
AcDbLine
 10
12.51674682452664
 20
-14.43749999999999
 30
0.0
 11
12.53661165235138
 21
-14.41161165235167
 31
0.0
  0
LINE
  5
71
330
1F
100
AcDbEntity
  8
0
 62
   178
420
        0
100
AcDbLine
 10
17.25000000000014
 20
9.999999999999924
 30
0.0
 11
13.74999999999976
 21
-10.50000000000001
 31
0.0
  0
LINE
  5
72
330
1F
100
AcDbEntity
  8
0
 62
   178
420
        0
100
AcDbLine
 10
12.74574072828582
 20
-14.46764761936218
 30
0.0
 11
12.74999999999969
 21
-14.49999999999999
 31
0.0
  0
LINE
  5
73
330
1F
100
AcDbEntity
  8
0
 62
   178
420
        0
100
AcDbLine
 10
0.2500000000001386
 20
10.00000000000023
 30
0.0
 11
3.749999999999769
 21
-10.49999999999983
 31
0.0
  0
LINE
  5
74
330
1F
100
AcDbEntity
  8
0
 62
   178
420
        0
100
AcDbLine
 10
3.749999999999698
 20
-13.99999999999983
 30
0.0
 11
1.249999999999769
 21
-10.49999999999979
 31
0.0
  0
LINE
  5
75
330
1F
100
AcDbEntity
  8
0
 62
   178
420
        0
100
AcDbLine
 10
12.71338834764801
 20
-14.41161165235168
 30
0.0
 11
12.73325317547275
 21
-14.43749999999999
 31
0.0
  0
LINE
  5
76
330
1F
100
AcDbEntity
  8
0
 62
   178
420
        0
100
AcDbLine
 10
12.53661165235138
 20
-14.41161165235167
 30
0.0
 11
12.56249999999969
 21
-14.39174682452694
 31
0.0
  0
LINE
  5
77
330
1F
100
AcDbEntity
  8
0
 62
   178
420
        0
100
AcDbLine
 10
4.754259271713558
 20
-14.46764761936203
 30
0.0
 11
4.766746824526637
 21
-14.43749999999985
 31
0.0
  0
LINE
  5
78
330
1F
100
AcDbEntity
  8
0
 62
   178
420
        0
100
AcDbLine
 10
12.49999999999969
 20
-14.49999999999999
 30
0.0
 11
12.50425927171356
 21
-14.46764761936218
 31
0.0
  0
LINE
  5
79
330
1F
100
AcDbEntity
  8
0
 62
   178
420
        0
100
AcDbLine
 10
12.50425927171356
 20
-14.46764761936218
 30
0.0
 11
12.51674682452664
 21
-14.43749999999999
 31
0.0
  0
LINE
  5
7A
330
1F
100
AcDbEntity
  8
0
 62
   178
420
        0
100
AcDbLine
 10
13.7499999999997
 20
-14.00000000000001
 30
0.0
 11
13.74999999999968
 21
-15.00000000000001
 31
0.0
  0
LINE
  5
7B
330
1F
100
AcDbEntity
  8
0
 62
   178
420
        0
100
AcDbLine
 10
4.983253175472747
 20
-14.43749999999985
 30
0.0
 11
4.995740728285826
 21
-14.46764761936204
 31
0.0
  0
LINE
  5
7C
330
1F
100
AcDbEntity
  8
0
 62
   178
420
        0
100
AcDbLine
 10
4.937499999999693
 20
-14.3917468245268
 30
0.0
 11
4.963388347648012
 21
-14.41161165235154
 31
0.0
  0
LINE
  5
7D
330
1F
100
AcDbEntity
  8
0
 62
   178
420
        0
100
AcDbLine
 10
4.749999999999684
 20
-14.99999999999985
 30
0.0
 11
3.749999999999684
 21
-14.99999999999983
 31
0.0
  0
LINE
  5
7E
330
1F
100
AcDbEntity
  8
0
 62
   178
420
        0
100
AcDbLine
 10
4.749999999999691
 20
-14.49999999999985
 30
0.0
 11
4.749999999999684
 21
-14.99999999999985
 31
0.0
  0
LINE
  5
7F
330
1F
100
AcDbEntity
  8
0
 62
   178
420
        0
100
AcDbLine
 10
12.56249999999969
 20
-14.39174682452694
 30
0.0
 11
12.59264761936188
 21
-14.37925927171386
 31
0.0
  0
LINE
  5
80
330
1F
100
AcDbEntity
  8
0
 62
   178
420
        0
100
AcDbLine
 10
12.74999999999968
 20
-14.99999999999999
 30
0.0
 11
12.74999999999969
 21
-14.49999999999999
 31
0.0
  0
LINE
  5
81
330
1F
100
AcDbEntity
  8
0
 62
   178
420
        0
100
AcDbLine
 10
3.749999999999684
 20
-14.99999999999983
 30
0.0
 11
3.749999999999698
 21
-13.99999999999983
 31
0.0
  0
LINE
  5
82
330
1F
100
AcDbEntity
  8
0
 62
   178
420
        0
100
AcDbLine
 10
1.249999999999769
 20
-10.49999999999979
 30
0.0
 11
-2.249999999999861
 21
10.00000000000028
 31
0.0
  0
LINE
  5
83
330
1F
100
AcDbEntity
  8
0
 62
   178
420
        0
100
AcDbLine
 10
-2.249999999999861
 20
10.00000000000028
 30
0.0
 11
0.2500000000001386
 21
10.00000000000023
 31
0.0
  0
LINE
  5
84
330
1F
100
AcDbEntity
  8
0
 62
   178
420
        0
100
AcDbLine
 10
8.499999999999726
 20
-10.49999999999992
 30
0.0
 11
8.49999999999968
 21
-12.62499999999992
 31
0.0
  0
LINE
  5
85
330
1F
100
AcDbEntity
  8
0
 62
   178
420
        0
100
AcDbLine
 10
13.74999999999968
 20
-15.00000000000001
 30
0.0
 11
12.74999999999968
 21
-14.99999999999999
 31
0.0
  0
LINE
  5
86
330
1F
100
AcDbEntity
  8
0
 62
   178
420
        0
100
AcDbLine
 10
4.766746824526637
 20
-14.43749999999985
 30
0.0
 11
4.786611652351374
 21
-14.41161165235153
 31
0.0
  0
LINE
  5
87
330
1F
100
AcDbEntity
  8
0
 62
   178
420
        0
100
AcDbLine
 10
4.786611652351374
 20
-14.41161165235153
 30
0.0
 11
4.812499999999693
 21
-14.39174682452679
 31
0.0
  0
LINE
  5
88
330
1F
100
AcDbEntity
  8
0
 62
   178
420
        0
100
AcDbLine
 10
4.963388347648012
 20
-14.41161165235154
 30
0.0
 11
4.983253175472747
 21
-14.43749999999985
 31
0.0
  0
LINE
  5
89
330
1F
100
AcDbEntity
  8
0
 62
   178
420
        0
100
AcDbLine
 10
4.812499999999693
 20
-14.39174682452679
 30
0.0
 11
4.842647619361879
 21
-14.37925927171372
 31
0.0
  0
LINE
  5
8A
330
1F
100
AcDbEntity
  8
0
 62
   178
420
        0
100
AcDbLine
 10
4.749999999999691
 20
-14.49999999999985
 30
0.0
 11
4.754259271713558
 21
-14.46764761936203
 31
0.0
  0
LINE
  5
8B
330
1F
100
AcDbEntity
  8
0
 62
   178
420
        0
100
AcDbLine
 10
4.842647619361879
 20
-14.37925927171372
 30
0.0
 11
4.874999999999693
 21
-14.37499999999985
 31
0.0
  0
LINE
  5
8C
330
1F
100
AcDbEntity
  8
0
 62
   178
420
        0
100
AcDbLine
 10
4.907352380637509
 20
-14.37925927171372
 30
0.0
 11
4.937499999999693
 21
-14.3917468245268
 31
0.0
  0
LINE
  5
8D
330
1F
100
AcDbEntity
  8
0
 62
   178
420
        0
100
AcDbLine
 10
4.874999999999693
 20
-14.37499999999985
 30
0.0
 11
4.907352380637509
 21
-14.37925927171372
 31
0.0
  0
LINE
  5
8E
330
1F
100
AcDbEntity
  8
0
 62
   178
420
        0
100
AcDbLine
 10
12.73325317547275
 20
-14.43749999999999
 30
0.0
 11
12.74574072828582
 21
-14.46764761936218
 31
0.0
  0
LINE
  5
8F
330
1F
100
AcDbEntity
  8
0
 62
   178
420
        0
100
AcDbLine
 10
12.59264761936188
 20
-14.37925927171386
 30
0.0
 11
12.62499999999969
 21
-14.37499999999999
 31
0.0
  0
LINE
  5
90
330
1F
100
AcDbEntity
  8
0
 62
   178
420
        0
100
AcDbLine
 10
16.24999999999976
 20
-10.50000000000006
 30
0.0
 11
19.75000000000014
 21
9.999999999999877
 31
0.0
  0
LINE
  5
91
330
1F
100
AcDbEntity
  8
0
 62
   178
420
        0
100
AcDbLine
 10
13.74999999999976
 20
-10.50000000000001
 30
0.0
 11
8.999999999999726
 21
-10.49999999999993
 31
0.0
  0
LINE
  5
92
330
1F
100
AcDbEntity
  8
0
 62
   178
420
        0
100
AcDbLine
 10
8.99999999999968
 20
-12.62499999999993
 30
0.0
 11
8.49999999999968
 21
-12.62499999999992
 31
0.0
  0
LINE
  5
93
330
1F
100
AcDbEntity
  8
0
 62
   178
420
        0
100
AcDbLine
 10
8.999999999999726
 20
-10.49999999999993
 30
0.0
 11
8.99999999999968
 21
-12.62499999999993
 31
0.0
  0
LINE
  5
94
330
1F
100
AcDbEntity
  8
0
 62
   178
420
        0
100
AcDbLine
 10
12.65735238063751
 20
-14.37925927171386
 30
0.0
 11
12.68749999999969
 21
-14.39174682452694
 31
0.0
  0
LINE
  5
95
330
1F
100
AcDbEntity
  8
0
 62
   178
420
        0
100
AcDbLine
 10
19.75000000000014
 20
9.999999999999877
 30
0.0
 11
17.25000000000014
 21
9.999999999999924
 31
0.0
  0
LINE
  5
96
330
1F
100
AcDbEntity
  8
0
 62
   178
420
        0
100
AcDbLine
 10
8.499999999999726
 20
-10.49999999999992
 30
0.0
 11
3.749999999999769
 21
-10.49999999999983
 31
0.0
  0
LINE
  5
97
330
1F
100
AcDbEntity
  8
0
 62
   178
420
        0
100
AcDbLine
 10
13.7499999999997
 20
-14.00000000000001
 30
0.0
 11
16.24999999999976
 21
-10.50000000000006
 31
0.0
  0
LINE
  5
98
330
1F
100
AcDbEntity
  8
0
 62
   178
420
        0
100
AcDbLine
 10
12.68749999999969
 20
-14.39174682452694
 30
0.0
 11
12.71338834764801
 21
-14.41161165235168
 31
0.0
  0
LINE
  5
99
330
1F
100
AcDbEntity
  8
0
 62
   178
420
        0
100
AcDbLine
 10
-7.823869956429316
 20
7.061393209758629
 30
0.0
 11
-7.782868627790503
 21
7.372829220394097
 31
0.0
  0
LINE
  5
9A
330
1F
100
AcDbEntity
  8
0
 62
   178
420
        0
100
AcDbLine
 10
-17.76478363815327
 20
12.45886895286439
 30
0.0
 11
-17.9926406871194
 21
12.24264068711932
 31
0.0
  0
LINE
  5
9B
330
1F
100
AcDbEntity
  8
0
 62
   178
420
        0
100
AcDbLine
 10
-14.68860679024149
 20
2.073869956429181
 30
0.0
 11
-14.37717077960602
 21
2.03286862779037
 31
0.0
  0
LINE
  5
9C
330
1F
100
AcDbEntity
  8
0
 62
   178
420
        0
100
AcDbLine
 10
-18.65735238063795
 20
7.629259271713957
 30
0.0
 11
-18.68750000000014
 21
7.641746824527038
 31
0.0
  0
LINE
  5
9D
330
1F
100
AcDbEntity
  8
0
 62
   178
420
        0
100
AcDbLine
 10
-19.54555495773455
 20
6.447085729384886
 30
0.0
 11
-19.45633909777106
 21
6.145898033750326
 31
0.0
  0
LINE
  5
9E
330
1F
100
AcDbEntity
  8
0
 62
   178
420
        0
100
AcDbLine
 10
-11.59979230272833
 20
13.60148255898322
 30
0.0
 11
-11.89589803375045
 21
13.70633909777093
 31
0.0
  0
LINE
  5
9F
330
1F
100
AcDbEntity
  8
0
 62
   178
420
        0
100
AcDbLine
 10
-19.35148255898335
 20
5.849792302728206
 30
0.0
 11
-19.23127274585574
 21
5.559580141545206
 31
0.0
  0
LINE
  5
A0
330
1F
100
AcDbEntity
  8
0
 62
   178
420
        0
100
AcDbLine
 10
-18.53661165235182
 20
8.33838834764842
 30
0.0
 11
-18.51674682452708
 21
8.312500000000101
 31
0.0
  0
LINE
  5
A1
330
1F
100
AcDbEntity
  8
0
 62
   178
420
        0
100
AcDbLine
 10
-13.43750000000014
 20
3.23325317547307
 30
0.0
 11
-13.41161165235182
 21
3.213388347648335
 31
0.0
  0
LINE
  5
A2
330
1F
100
AcDbEntity
  8
0
 62
   178
420
        0
100
AcDbLine
 10
-17.9926406871194
 20
12.24264068711932
 30
0.0
 11
-18.20886895286449
 21
12.01478363815318
 31
0.0
  0
LINE
  5
A3
330
1F
100
AcDbEntity
  8
0
 62
   178
420
        0
100
AcDbLine
 10
-12.19708572938501
 20
13.79555495773442
 30
0.0
 11
-12.50252985509358
 21
13.86888560440284
 31
0.0
  0
LINE
  5
A4
330
1F
100
AcDbEntity
  8
0
 62
   178
420
        0
100
AcDbLine
 10
-7.758222791472699
 20
8.314015737457682
 30
0.0
 11
-7.782868627790503
 21
8.627170779605938
 31
0.0
  0
LINE
  5
A5
330
1F
100
AcDbEntity
  8
0
 62
   178
420
        0
100
AcDbLine
 10
-12.81139320975876
 20
2.073869956429187
 30
0.0
 11
-12.50252985509359
 21
2.13111439559718
 31
0.0
  0
LINE
  5
A6
330
1F
100
AcDbEntity
  8
0
 62
   178
420
        0
100
AcDbLine
 10
-19.61888560440298
 20
6.752529855093458
 30
0.0
 11
-19.54555495773455
 21
6.447085729384886
 31
0.0
  0
LINE
  5
A7
330
1F
100
AcDbEntity
  8
0
 62
   178
420
        0
100
AcDbLine
 10
-14.37717077960605
 20
13.96713137220966
 30
0.0
 11
-14.68860679024151
 21
13.92613004357085
 31
0.0
  0
LINE
  5
A8
330
1F
100
AcDbEntity
  8
0
 62
   178
420
        0
100
AcDbLine
 10
-8.04366090222922
 20
6.14589803375033
 30
0.0
 11
-7.954445042265732
 21
6.44708572938489
 31
0.0
  0
LINE
  5
A9
330
1F
100
AcDbEntity
  8
0
 62
   178
420
        0
100
AcDbLine
 10
-7.758222791472699
 20
7.685984262542354
 30
0.0
 11
-7.750000000000142
 21
8.000000000000016
 31
0.0
  0
LINE
  5
AA
330
1F
100
AcDbEntity
  8
0
 62
   178
420
        0
100
AcDbLine
 10
-8.268727254144537
 20
5.559580141545212
 30
0.0
 11
-8.148517441016931
 21
5.849792302728213
 31
0.0
  0
LINE
  5
AB
330
1F
100
AcDbEntity
  8
0
 62
   178
420
        0
100
AcDbLine
 10
-7.954445042265732
 20
6.44708572938489
 30
0.0
 11
-7.881114395597308
 21
6.752529855093458
 31
0.0
  0
LINE
  5
AC
330
1F
100
AcDbEntity
  8
0
 62
   178
420
        0
100
AcDbLine
 10
-19.61888560440297
 20
9.247470144906584
 30
0.0
 11
-19.67613004357096
 21
8.93860679024141
 31
0.0
  0
LINE
  5
AD
330
1F
100
AcDbEntity
  8
0
 62
   178
420
        0
100
AcDbLine
 10
-12.81139320975875
 20
13.92613004357084
 30
0.0
 11
-13.12282922039421
 21
13.96713137220965
 31
0.0
  0
LINE
  5
AE
330
1F
100
AcDbEntity
  8
0
 62
   178
420
        0
100
AcDbLine
 10
-19.54555495773455
 20
9.552914270615153
 30
0.0
 11
-19.61888560440297
 21
9.247470144906584
 31
0.0
  0
LINE
  5
AF
330
1F
100
AcDbEntity
  8
0
 62
   178
420
        0
100
AcDbLine
 10
-18.2088689528645
 20
3.985216361846851
 30
0.0
 11
-17.99264068711941
 21
3.757359312880714
 31
0.0
  0
LINE
  5
B0
330
1F
100
AcDbEntity
  8
0
 62
   178
420
        0
100
AcDbLine
 10
-8.717976592327599
 20
4.73216578990985
 30
0.0
 11
-8.55384757729351
 21
5.000000000000012
 31
0.0
  0
LINE
  5
B1
330
1F
100
AcDbEntity
  8
0
 62
   178
420
        0
100
AcDbLine
 10
-8.148517441016933
 20
10.15020769727182
 30
0.0
 11
-8.268727254144538
 21
10.44041985845482
 31
0.0
  0
LINE
  5
B2
330
1F
100
AcDbEntity
  8
0
 62
   178
420
        0
100
AcDbLine
 10
-13.12282922039421
 20
13.96713137220965
 30
0.0
 11
-13.43598426254247
 21
13.99177720852745
 31
0.0
  0
LINE
  5
B3
330
1F
100
AcDbEntity
  8
0
 62
   178
420
        0
100
AcDbLine
 10
-14.06250000000014
 20
3.766746824526962
 30
0.0
 11
-14.08838834764846
 21
3.786611652351697
 31
0.0
  0
LINE
  5
B4
330
1F
100
AcDbEntity
  8
0
 62
   178
420
        0
100
AcDbLine
 10
-19.35148255898335
 20
10.15020769727183
 30
0.0
 11
-19.45633909777106
 21
9.854101966249717
 31
0.0
  0
LINE
  5
B5
330
1F
100
AcDbEntity
  8
0
 62
   178
420
        0
100
AcDbLine
 10
-19.67613004357096
 20
8.93860679024141
 30
0.0
 11
-19.71713137220978
 21
8.627170779605946
 31
0.0
  0
LINE
  5
B6
330
1F
100
AcDbEntity
  8
0
 62
   178
420
        0
100
AcDbLine
 10
-14.00000000000014
 20
12.75000000000002
 30
0.0
 11
-14.00000000000014
 21
12.25000000000002
 31
0.0
  0
LINE
  5
B7
330
1F
100
AcDbEntity
  8
0
 62
   178
420
        0
100
AcDbLine
 10
-15.90020769727191
 20
2.398517441016791
 30
0.0
 11
-15.60410196624979
 21
2.293660902229082
 31
0.0
  0
LINE
  5
B8
330
1F
100
AcDbEntity
  8
0
 62
   178
420
        0
100
AcDbLine
 10
-14.03235238063796
 20
3.754259271713883
 30
0.0
 11
-14.06250000000014
 21
3.766746824526962
 31
0.0
  0
LINE
  5
B9
330
1F
100
AcDbEntity
  8
0
 62
   178
420
        0
100
AcDbLine
 10
-11.30958014154534
 20
2.518727254144409
 30
0.0
 11
-11.02605700156286
 21
2.653960854869807
 31
0.0
  0
LINE
  5
BA
330
1F
100
AcDbEntity
  8
0
 62
   178
420
        0
100
AcDbLine
 10
-18.94615242270677
 20
5.000000000000005
 30
0.0
 11
-18.78202340767268
 21
4.732165789909841
 31
0.0
  0
LINE
  5
BB
330
1F
100
AcDbEntity
  8
0
 62
   178
420
        0
100
AcDbLine
 10
-12.50252985509358
 20
13.86888560440284
 30
0.0
 11
-12.81139320975875
 21
13.92613004357084
 31
0.0
  0
LINE
  5
BC
330
1F
100
AcDbEntity
  8
0
 62
   178
420
        0
100
AcDbLine
 10
-9.087124231258318
 20
4.224077653700988
 30
0.0
 11
-8.89589803375046
 21
4.473288486245174
 31
0.0
  0
LINE
  5
BD
330
1F
100
AcDbEntity
  8
0
 62
   178
420
        0
100
AcDbLine
 10
-8.148517441016931
 20
5.849792302728213
 30
0.0
 11
-8.04366090222922
 21
6.14589803375033
 31
0.0
  0
LINE
  5
BE
330
1F
100
AcDbEntity
  8
0
 62
   178
420
        0
100
AcDbLine
 10
-7.88111439559731
 20
9.247470144906574
 30
0.0
 11
-7.954445042265734
 21
9.552914270615142
 31
0.0
  0
LINE
  5
BF
330
1F
100
AcDbEntity
  8
0
 62
   178
420
        0
100
AcDbLine
 10
-13.37925927171401
 20
3.0926476193622
 30
0.0
 11
-13.39174682452709
 21
3.062500000000016
 31
0.0
  0
LINE
  5
C0
330
1F
100
AcDbEntity
  8
0
 62
   178
420
        0
100
AcDbLine
 10
-16.75000000000012
 20
13.19615242270666
 30
0.0
 11
-17.01783421009029
 21
13.03202340767257
 31
0.0
  0
LINE
  5
C1
330
1F
100
AcDbEntity
  8
0
 62
   178
420
        0
100
AcDbLine
 10
-18.59264761936232
 20
8.370740728286234
 30
0.0
 11
-18.56250000000014
 21
8.358253175473157
 31
0.0
  0
LINE
  5
C2
330
1F
100
AcDbEntity
  8
0
 62
   178
420
        0
100
AcDbLine
 10
-18.71338834764845
 20
8.33838834764842
 30
0.0
 11
-18.68750000000014
 21
8.358253175473157
 31
0.0
  0
LINE
  5
C3
330
1F
100
AcDbEntity
  8
0
 62
   178
420
        0
100
AcDbLine
 10
-13.46764761936232
 20
3.004259271713883
 30
0.0
 11
-13.50000000000014
 21
3.000000000000016
 31
0.0
  0
LINE
  5
C4
330
1F
100
AcDbEntity
  8
0
 62
   178
420
        0
100
AcDbLine
 10
-7.954445042265734
 20
9.552914270615142
 30
0.0
 11
-8.043660902229222
 21
9.854101966249702
 31
0.0
  0
LINE
  5
C5
330
1F
100
AcDbEntity
  8
0
 62
   178
420
        0
100
AcDbLine
 10
-10.75000000000014
 20
13.19615242270664
 30
0.0
 11
-11.02605700156286
 21
13.34603914513022
 31
0.0
  0
LINE
  5
C6
330
1F
100
AcDbEntity
  8
0
 62
   178
420
        0
100
AcDbLine
 10
-16.47394299843739
 20
2.653960854869792
 30
0.0
 11
-16.19041985845491
 21
2.518727254144396
 31
0.0
  0
LINE
  5
C7
330
1F
100
AcDbEntity
  8
0
 62
   178
420
        0
100
AcDbLine
 10
-16.4739429984374
 20
13.34603914513023
 30
0.0
 11
-16.75000000000012
 21
13.19615242270666
 31
0.0
  0
LINE
  5
C8
330
1F
100
AcDbEntity
  8
0
 62
   178
420
        0
100
AcDbLine
 10
-13.75000000000014
 20
2.000000000000014
 30
0.0
 11
-13.43598426254248
 21
2.008222791472571
 31
0.0
  0
LINE
  5
C9
330
1F
100
AcDbEntity
  8
0
 62
   178
420
        0
100
AcDbLine
 10
-11.02605700156286
 20
2.653960854869807
 30
0.0
 11
-10.75000000000014
 21
2.803847577293382
 31
0.0
  0
LINE
  5
CA
330
1F
100
AcDbEntity
  8
0
 62
   178
420
        0
100
AcDbLine
 10
-18.50000000000014
 20
8.250000000000101
 30
0.0
 11
-18.00000000000015
 21
8.25000000000009
 31
0.0
  0
LINE
  5
CB
330
1F
100
AcDbEntity
  8
0
 62
   178
420
        0
100
AcDbLine
 10
-7.823869956429316
 20
8.938606790241403
 30
0.0
 11
-7.88111439559731
 21
9.247470144906574
 31
0.0
  0
LINE
  5
CC
330
1F
100
AcDbEntity
  8
0
 62
   178
420
        0
100
AcDbLine
 10
-17.01783421009029
 20
13.03202340767257
 30
0.0
 11
-17.27671151375496
 21
12.85410196624971
 31
0.0
  0
LINE
  5
CD
330
1F
100
AcDbEntity
  8
0
 62
   178
420
        0
100
AcDbLine
 10
-19.74177720852759
 20
7.685984262542357
 30
0.0
 11
-19.71713137220978
 21
7.372829220394097
 31
0.0
  0
LINE
  5
CE
330
1F
100
AcDbEntity
  8
0
 62
   178
420
        0
100
AcDbLine
 10
-19.67613004357097
 20
7.061393209758629
 30
0.0
 11
-19.61888560440298
 21
6.752529855093458
 31
0.0
  0
LINE
  5
CF
330
1F
100
AcDbEntity
  8
0
 62
   178
420
        0
100
AcDbLine
 10
-14.37717077960602
 20
2.03286862779037
 30
0.0
 11
-14.06401573745776
 21
2.008222791472567
 31
0.0
  0
LINE
  5
D0
330
1F
100
AcDbEntity
  8
0
 62
   178
420
        0
100
AcDbLine
 10
-18.60410196624981
 20
11.52671151375488
 30
0.0
 11
-18.78202340767267
 21
11.2678342100902
 31
0.0
  0
LINE
  5
D1
330
1F
100
AcDbEntity
  8
0
 62
   178
420
        0
100
AcDbLine
 10
-8.55384757729351
 20
5.000000000000012
 30
0.0
 11
-8.403960854869936
 21
5.276057001562732
 31
0.0
  0
LINE
  5
D2
330
1F
100
AcDbEntity
  8
0
 62
   178
420
        0
100
AcDbLine
 10
-17.52592234629915
 20
12.66287576874186
 30
0.0
 11
-17.76478363815327
 21
12.45886895286439
 31
0.0
  0
LINE
  5
D3
330
1F
100
AcDbEntity
  8
0
 62
   178
420
        0
100
AcDbLine
 10
-9.735216361846991
 20
12.45886895286438
 30
0.0
 11
-9.974077653701116
 21
12.66287576874184
 31
0.0
  0
LINE
  5
D4
330
1F
100
AcDbEntity
  8
0
 62
   178
420
        0
100
AcDbLine
 10
-7.782868627790503
 20
7.372829220394097
 30
0.0
 11
-7.758222791472699
 21
7.685984262542354
 31
0.0
  0
LINE
  5
D5
330
1F
100
AcDbEntity
  8
0
 62
   178
420
        0
100
AcDbLine
 10
-7.750000000000142
 20
8.000000000000016
 30
0.0
 11
-7.758222791472699
 21
8.314015737457682
 31
0.0
  0
LINE
  5
D6
330
1F
100
AcDbEntity
  8
0
 62
   178
420
        0
100
AcDbLine
 10
-19.23127274585574
 20
5.559580141545206
 30
0.0
 11
-19.09603914513034
 21
5.276057001562725
 31
0.0
  0
LINE
  5
D7
330
1F
100
AcDbEntity
  8
0
 62
   178
420
        0
100
AcDbLine
 10
-19.71713137220978
 20
8.627170779605946
 30
0.0
 11
-19.74177720852759
 21
8.314015737457686
 31
0.0
  0
LINE
  5
D8
330
1F
100
AcDbEntity
  8
0
 62
   178
420
        0
100
AcDbLine
 10
-17.76478363815328
 20
3.541131047135634
 30
0.0
 11
-17.52592234629915
 21
3.337124231258175
 31
0.0
  0
LINE
  5
D9
330
1F
100
AcDbEntity
  8
0
 62
   178
420
        0
100
AcDbLine
 10
-9.087124231258318
 20
11.77592234629904
 30
0.0
 11
-9.291131047135776
 21
12.01478363815316
 31
0.0
  0
LINE
  5
DA
330
1F
100
AcDbEntity
  8
0
 62
   178
420
        0
100
AcDbLine
 10
-14.00000000000014
 20
4.000000000000016
 30
0.0
 11
-13.50000000000014
 21
4.000000000000016
 31
0.0
  0
LINE
  5
DB
330
1F
100
AcDbEntity
  8
0
 62
   178
420
        0
100
AcDbLine
 10
-19.09603914513034
 20
10.72394299843731
 30
0.0
 11
-19.23127274585574
 21
10.44041985845483
 31
0.0
  0
LINE
  5
DC
330
1F
100
AcDbEntity
  8
0
 62
   178
420
        0
100
AcDbLine
 10
-19.75000000000014
 20
8.00000000000002
 30
0.0
 11
-19.74177720852759
 21
7.685984262542357
 31
0.0
  0
LINE
  5
DD
330
1F
100
AcDbEntity
  8
0
 62
   178
420
        0
100
AcDbLine
 10
-17.99574072828628
 20
8.282352380637908
 30
0.0
 11
-17.9832531754732
 21
8.312500000000094
 31
0.0
  0
LINE
  5
DE
330
1F
100
AcDbEntity
  8
0
 62
   178
420
        0
100
AcDbLine
 10
-11.59979230272834
 20
2.398517441016804
 30
0.0
 11
-11.30958014154534
 21
2.518727254144409
 31
0.0
  0
LINE
  5
DF
330
1F
100
AcDbEntity
  8
0
 62
   178
420
        0
100
AcDbLine
 10
-9.507359312880856
 20
12.2426406871193
 30
0.0
 11
-9.735216361846991
 21
12.45886895286438
 31
0.0
  0
LINE
  5
E0
330
1F
100
AcDbEntity
  8
0
 62
   178
420
        0
100
AcDbLine
 10
-14.00000000000014
 20
3.000000000000016
 30
0.0
 11
-13.50000000000014
 21
3.000000000000016
 31
0.0
  0
LINE
  5
E1
330
1F
100
AcDbEntity
  8
0
 62
   178
420
        0
100
AcDbLine
 10
-13.50000000000014
 20
3.250000000000016
 30
0.0
 11
-13.50000000000014
 21
3.750000000000016
 31
0.0
  0
LINE
  5
E2
330
1F
100
AcDbEntity
  8
0
 62
   178
420
        0
100
AcDbLine
 10
-18.94615242270676
 20
11.00000000000004
 30
0.0
 11
-19.09603914513034
 21
10.72394299843731
 31
0.0
  0
LINE
  5
E3
330
1F
100
AcDbEntity
  8
0
 62
   178
420
        0
100
AcDbLine
 10
-18.74574072828626
 20
8.282352380637915
 30
0.0
 11
-18.73325317547319
 21
8.312500000000101
 31
0.0
  0
LINE
  5
E4
330
1F
100
AcDbEntity
  8
0
 62
   178
420
        0
100
AcDbLine
 10
-13.50000000000014
 20
3.250000000000016
 30
0.0
 11
-13.46764761936232
 21
3.245740728286149
 31
0.0
  0
LINE
  5
E5
330
1F
100
AcDbEntity
  8
0
 62
   178
420
        0
100
AcDbLine
 10
-18.504259271714
 20
8.282352380637915
 30
0.0
 11
-18.50000000000014
 21
8.250000000000101
 31
0.0
  0
LINE
  5
E6
330
1F
100
AcDbEntity
  8
0
 62
   178
420
        0
100
AcDbLine
 10
-8.89589803375046
 20
11.52671151375486
 30
0.0
 11
-9.087124231258318
 21
11.77592234629904
 31
0.0
  0
LINE
  5
E7
330
1F
100
AcDbEntity
  8
0
 62
   178
420
        0
100
AcDbLine
 10
-9.291131047135776
 20
12.01478363815316
 30
0.0
 11
-9.507359312880856
 21
12.2426406871193
 31
0.0
  0
LINE
  5
E8
330
1F
100
AcDbEntity
  8
0
 62
   178
420
        0
100
AcDbLine
 10
-18.65735238063795
 20
8.370740728286234
 30
0.0
 11
-18.62500000000014
 21
8.375000000000101
 31
0.0
  0
LINE
  5
E9
330
1F
100
AcDbEntity
  8
0
 62
   178
420
        0
100
AcDbLine
 10
-13.41161165235182
 20
3.036611652351697
 30
0.0
 11
-13.43750000000014
 21
3.016746824526962
 31
0.0
  0
LINE
  5
EA
330
1F
100
AcDbEntity
  8
0
 62
   178
420
        0
100
AcDbLine
 10
-17.84264761936232
 20
8.370740728286227
 30
0.0
 11
-17.81250000000014
 21
8.358253175473147
 31
0.0
  0
LINE
  5
EB
330
1F
100
AcDbEntity
  8
0
 62
   178
420
        0
100
AcDbLine
 10
-17.81250000000014
 20
8.358253175473147
 30
0.0
 11
-17.78661165235182
 21
8.33838834764841
 31
0.0
  0
LINE
  5
EC
330
1F
100
AcDbEntity
  8
0
 62
   178
420
        0
100
AcDbLine
 10
-13.46764761936232
 20
3.245740728286149
 30
0.0
 11
-13.43750000000014
 21
3.23325317547307
 31
0.0
  0
LINE
  5
ED
330
1F
100
AcDbEntity
  8
0
 62
   178
420
        0
100
AcDbLine
 10
-17.52592234629915
 20
3.337124231258175
 30
0.0
 11
-17.27671151375496
 21
3.145898033750315
 31
0.0
  0
LINE
  5
EE
330
1F
100
AcDbEntity
  8
0
 62
   178
420
        0
100
AcDbLine
 10
-8.983253175473182
 20
7.687499999999931
 30
0.0
 11
-8.99574072828626
 21
7.717647619362113
 31
0.0
  0
LINE
  5
EF
330
1F
100
AcDbEntity
  8
0
 62
   178
420
        0
100
AcDbLine
 10
-13.50000000000014
 20
4.000000000000016
 30
0.0
 11
-13.46764761936232
 21
3.995740728286149
 31
0.0
  0
LINE
  5
F0
330
1F
100
AcDbEntity
  8
0
 62
   178
420
        0
100
AcDbLine
 10
-13.41161165235182
 20
3.786611652351697
 30
0.0
 11
-13.43750000000014
 21
3.766746824526962
 31
0.0
  0
LINE
  5
F1
330
1F
100
AcDbEntity
  8
0
 62
   178
420
        0
100
AcDbLine
 10
-11.89589803375046
 20
2.293660902229094
 30
0.0
 11
-11.59979230272834
 21
2.398517441016804
 31
0.0
  0
LINE
  5
F2
330
1F
100
AcDbEntity
  8
0
 62
   178
420
        0
100
AcDbLine
 10
-14.06401573745779
 20
13.99177720852746
 30
0.0
 11
-14.37717077960605
 21
13.96713137220966
 31
0.0
  0
LINE
  5
F3
330
1F
100
AcDbEntity
  8
0
 62
   178
420
        0
100
AcDbLine
 10
-9.750000000000142
 20
7.749999999999938
 30
0.0
 11
-9.750000000000131
 21
8.249999999999938
 31
0.0
  0
LINE
  5
F4
330
1F
100
AcDbEntity
  8
0
 62
   178
420
        0
100
AcDbLine
 10
-8.268727254144538
 20
10.44041985845482
 30
0.0
 11
-8.403960854869936
 21
10.7239429984373
 31
0.0
  0
LINE
  5
F5
330
1F
100
AcDbEntity
  8
0
 62
   178
420
        0
100
AcDbLine
 10
-11.89589803375045
 20
13.70633909777093
 30
0.0
 11
-12.19708572938501
 21
13.79555495773442
 31
0.0
  0
LINE
  5
F6
330
1F
100
AcDbEntity
  8
0
 62
   178
420
        0
100
AcDbLine
 10
-19.74177720852759
 20
8.314015737457686
 30
0.0
 11
-19.75000000000014
 21
8.00000000000002
 31
0.0
  0
LINE
  5
F7
330
1F
100
AcDbEntity
  8
0
 62
   178
420
        0
100
AcDbLine
 10
-18.78202340767268
 20
4.732165789909841
 30
0.0
 11
-18.60410196624982
 21
4.473288486245163
 31
0.0
  0
LINE
  5
F8
330
1F
100
AcDbEntity
  8
0
 62
   178
420
        0
100
AcDbLine
 10
-14.00000000000014
 20
13.00000000000002
 30
0.0
 11
-13.50000000000014
 21
13.00000000000002
 31
0.0
  0
LINE
  5
F9
330
1F
100
AcDbEntity
  8
0
 62
   178
420
        0
100
AcDbLine
 10
-18.41287576874195
 20
11.77592234629906
 30
0.0
 11
-18.60410196624981
 21
11.52671151375488
 31
0.0
  0
LINE
  5
FA
330
1F
100
AcDbEntity
  8
0
 62
   178
420
        0
100
AcDbLine
 10
-17.27671151375496
 20
3.145898033750315
 30
0.0
 11
-17.01783421009028
 21
2.967976592327455
 31
0.0
  0
LINE
  5
FB
330
1F
100
AcDbEntity
  8
0
 62
   178
420
        0
100
AcDbLine
 10
-13.41161165235182
 20
3.213388347648335
 30
0.0
 11
-13.39174682452709
 21
3.187500000000016
 31
0.0
  0
LINE
  5
FC
330
1F
100
AcDbEntity
  8
0
 62
   178
420
        0
100
AcDbLine
 10
-14.00000000000014
 20
12.00000000000002
 30
0.0
 11
-13.50000000000014
 21
12.00000000000002
 31
0.0
  0
LINE
  5
FD
330
1F
100
AcDbEntity
  8
0
 62
   178
420
        0
100
AcDbLine
 10
-15.60410196624981
 20
13.70633909777094
 30
0.0
 11
-15.90020769727192
 21
13.60148255898323
 31
0.0
  0
LINE
  5
FE
330
1F
100
AcDbEntity
  8
0
 62
   178
420
        0
100
AcDbLine
 10
-8.750000000000133
 20
8.24999999999992
 30
0.0
 11
-8.750000000000142
 21
7.74999999999992
 31
0.0
  0
LINE
  5
FF
330
1F
100
AcDbEntity
  8
0
 62
   178
420
        0
100
AcDbLine
 10
-13.43750000000014
 20
3.016746824526962
 30
0.0
 11
-13.46764761936232
 21
3.004259271713883
 31
0.0
  0
LINE
  5
100
330
1F
100
AcDbEntity
  8
0
 62
   178
420
        0
100
AcDbLine
 10
-10.2232884862453
 20
3.14589803375033
 30
0.0
 11
-9.974077653701118
 21
3.337124231258189
 31
0.0
  0
LINE
  5
101
330
1F
100
AcDbEntity
  8
0
 62
   178
420
        0
100
AcDbLine
 10
-10.48216578990998
 20
13.03202340767256
 30
0.0
 11
-10.75000000000014
 21
13.19615242270664
 31
0.0
  0
LINE
  5
102
330
1F
100
AcDbEntity
  8
0
 62
   178
420
        0
100
AcDbLine
 10
-7.881114395597308
 20
6.752529855093458
 30
0.0
 11
-7.823869956429316
 21
7.061393209758629
 31
0.0
  0
LINE
  5
103
330
1F
100
AcDbEntity
  8
0
 62
   178
420
        0
100
AcDbLine
 10
-14.99747014490666
 20
2.131114395597171
 30
0.0
 11
-14.68860679024149
 21
2.073869956429181
 31
0.0
  0
LINE
  5
104
330
1F
100
AcDbEntity
  8
0
 62
   178
420
        0
100
AcDbLine
 10
-17.9832531754732
 20
8.312500000000094
 30
0.0
 11
-17.96338834764846
 21
8.338388347648413
 31
0.0
  0
LINE
  5
105
330
1F
100
AcDbEntity
  8
0
 62
   178
420
        0
100
AcDbLine
 10
-17.96338834764846
 20
8.338388347648413
 30
0.0
 11
-17.93750000000014
 21
8.35825317547315
 31
0.0
  0
LINE
  5
106
330
1F
100
AcDbEntity
  8
0
 62
   178
420
        0
100
AcDbLine
 10
-19.45633909777106
 20
9.854101966249717
 30
0.0
 11
-19.54555495773455
 21
9.552914270615153
 31
0.0
  0
LINE
  5
107
330
1F
100
AcDbEntity
  8
0
 62
   178
420
        0
100
AcDbLine
 10
-8.89589803375046
 20
4.473288486245174
 30
0.0
 11
-8.717976592327599
 21
4.73216578990985
 31
0.0
  0
LINE
  5
108
330
1F
100
AcDbEntity
  8
0
 62
   178
420
        0
100
AcDbLine
 10
-14.03235238063796
 20
3.995740728286149
 30
0.0
 11
-14.00000000000014
 21
4.000000000000016
 31
0.0
  0
LINE
  5
109
330
1F
100
AcDbEntity
  8
0
 62
   178
420
        0
100
AcDbLine
 10
-13.43598426254247
 20
13.99177720852745
 30
0.0
 11
-13.75000000000013
 21
14.00000000000002
 31
0.0
  0
LINE
  5
10A
330
1F
100
AcDbEntity
  8
0
 62
   178
420
        0
100
AcDbLine
 10
-7.782868627790503
 20
8.627170779605938
 30
0.0
 11
-7.823869956429316
 21
8.938606790241403
 31
0.0
  0
LINE
  5
10B
330
1F
100
AcDbEntity
  8
0
 62
   178
420
        0
100
AcDbLine
 10
-19.09603914513034
 20
5.276057001562725
 30
0.0
 11
-18.94615242270677
 21
5.000000000000005
 31
0.0
  0
LINE
  5
10C
330
1F
100
AcDbEntity
  8
0
 62
   178
420
        0
100
AcDbLine
 10
-15.60410196624979
 20
2.293660902229082
 30
0.0
 11
-15.30291427061523
 21
2.204445042265595
 31
0.0
  0
LINE
  5
10D
330
1F
100
AcDbEntity
  8
0
 62
   178
420
        0
100
AcDbLine
 10
-19.71713137220978
 20
7.372829220394097
 30
0.0
 11
-19.67613004357097
 21
7.061393209758629
 31
0.0
  0
LINE
  5
10E
330
1F
100
AcDbEntity
  8
0
 62
   178
420
        0
100
AcDbLine
 10
-19.23127274585574
 20
10.44041985845483
 30
0.0
 11
-19.35148255898335
 21
10.15020769727183
 31
0.0
  0
LINE
  5
10F
330
1F
100
AcDbEntity
  8
0
 62
   178
420
        0
100
AcDbLine
 10
-18.78202340767267
 20
11.2678342100902
 30
0.0
 11
-18.94615242270676
 21
11.00000000000004
 31
0.0
  0
LINE
  5
110
330
1F
100
AcDbEntity
  8
0
 62
   178
420
        0
100
AcDbLine
 10
-18.62500000000014
 20
8.375000000000101
 30
0.0
 11
-18.59264761936232
 21
8.370740728286234
 31
0.0
  0
LINE
  5
111
330
1F
100
AcDbEntity
  8
0
 62
   178
420
        0
100
AcDbLine
 10
-17.99264068711941
 20
3.757359312880714
 30
0.0
 11
-17.76478363815328
 21
3.541131047135634
 31
0.0
  0
LINE
  5
112
330
1F
100
AcDbEntity
  8
0
 62
   178
420
        0
100
AcDbLine
 10
-12.19708572938502
 20
2.204445042265604
 30
0.0
 11
-11.89589803375046
 21
2.293660902229094
 31
0.0
  0
LINE
  5
113
330
1F
100
AcDbEntity
  8
0
 62
   178
420
        0
100
AcDbLine
 10
-18.50000000000013
 20
7.750000000000094
 30
0.0
 11
-18.00000000000014
 21
7.750000000000083
 31
0.0
  0
LINE
  5
114
330
1F
100
AcDbEntity
  8
0
 62
   178
420
        0
100
AcDbLine
 10
-8.553847577293512
 20
11.00000000000002
 30
0.0
 11
-8.717976592327599
 21
11.26783421009018
 31
0.0
  0
LINE
  5
115
330
1F
100
AcDbEntity
  8
0
 62
   178
420
        0
100
AcDbLine
 10
-10.75000000000014
 20
2.803847577293382
 30
0.0
 11
-10.48216578990998
 21
2.967976592327469
 31
0.0
  0
LINE
  5
116
330
1F
100
AcDbEntity
  8
0
 62
   178
420
        0
100
AcDbLine
 10
-19.45633909777106
 20
6.145898033750326
 30
0.0
 11
-19.35148255898335
 21
5.849792302728206
 31
0.0
  0
LINE
  5
117
330
1F
100
AcDbEntity
  8
0
 62
   178
420
        0
100
AcDbLine
 10
-18.75000000000014
 20
8.250000000000101
 30
0.0
 11
-18.75000000000014
 21
7.750000000000101
 31
0.0
  0
LINE
  5
118
330
1F
100
AcDbEntity
  8
0
 62
   178
420
        0
100
AcDbLine
 10
-11.02605700156286
 20
13.34603914513022
 30
0.0
 11
-11.30958014154533
 21
13.48127274585561
 31
0.0
  0
LINE
  5
119
330
1F
100
AcDbEntity
  8
0
 62
   178
420
        0
100
AcDbLine
 10
-9.291131047135778
 20
3.985216361846865
 30
0.0
 11
-9.087124231258318
 21
4.224077653700988
 31
0.0
  0
LINE
  5
11A
330
1F
100
AcDbEntity
  8
0
 62
   178
420
        0
100
AcDbLine
 10
-14.68860679024151
 20
13.92613004357085
 30
0.0
 11
-14.99747014490668
 21
13.86888560440285
 31
0.0
  0
LINE
  5
11B
330
1F
100
AcDbEntity
  8
0
 62
   178
420
        0
100
AcDbLine
 10
-18.60410196624982
 20
4.473288486245163
 30
0.0
 11
-18.41287576874196
 21
4.224077653700977
 31
0.0
  0
LINE
  5
11C
330
1F
100
AcDbEntity
  8
0
 62
   178
420
        0
100
AcDbLine
 10
-15.90020769727192
 20
13.60148255898323
 30
0.0
 11
-16.19041985845492
 21
13.48127274585563
 31
0.0
  0
LINE
  5
11D
330
1F
100
AcDbEntity
  8
0
 62
   178
420
        0
100
AcDbLine
 10
-14.06401573745776
 20
2.008222791472567
 30
0.0
 11
-13.75000000000014
 21
2.000000000000014
 31
0.0
  0
LINE
  5
11E
330
1F
100
AcDbEntity
  8
0
 62
   178
420
        0
100
AcDbLine
 10
-17.27671151375496
 20
12.85410196624971
 30
0.0
 11
-17.52592234629915
 21
12.66287576874186
 31
0.0
  0
LINE
  5
11F
330
1F
100
AcDbEntity
  8
0
 62
   178
420
        0
100
AcDbLine
 10
-11.30958014154533
 20
13.48127274585561
 30
0.0
 11
-11.59979230272833
 21
13.60148255898322
 31
0.0
  0
LINE
  5
120
330
1F
100
AcDbEntity
  8
0
 62
   178
420
        0
100
AcDbLine
 10
-13.75000000000013
 20
14.00000000000002
 30
0.0
 11
-14.06401573745779
 21
13.99177720852746
 31
0.0
  0
LINE
  5
121
330
1F
100
AcDbEntity
  8
0
 62
   178
420
        0
100
AcDbLine
 10
-13.43750000000014
 20
12.76674682452696
 30
0.0
 11
-13.46764761936232
 21
12.75425927171388
 31
0.0
  0
LINE
  5
122
330
1F
100
AcDbEntity
  8
0
 62
   178
420
        0
100
AcDbLine
 10
-9.974077653701118
 20
3.337124231258189
 30
0.0
 11
-9.735216361846994
 21
3.541131047135648
 31
0.0
  0
LINE
  5
123
330
1F
100
AcDbEntity
  8
0
 62
   178
420
        0
100
AcDbLine
 10
-9.507359312880858
 20
3.757359312880729
 30
0.0
 11
-9.291131047135778
 21
3.985216361846865
 31
0.0
  0
LINE
  5
124
330
1F
100
AcDbEntity
  8
0
 62
   178
420
        0
100
AcDbLine
 10
-18.73325317547319
 20
8.312500000000101
 30
0.0
 11
-18.71338834764845
 21
8.33838834764842
 31
0.0
  0
LINE
  5
125
330
1F
100
AcDbEntity
  8
0
 62
   178
420
        0
100
AcDbLine
 10
-10.48216578990998
 20
2.967976592327469
 30
0.0
 11
-10.2232884862453
 21
3.14589803375033
 31
0.0
  0
LINE
  5
126
330
1F
100
AcDbEntity
  8
0
 62
   178
420
        0
100
AcDbLine
 10
-17.75000000000014
 20
7.750000000000083
 30
0.0
 11
-17.75000000000013
 21
8.250000000000083
 31
0.0
  0
LINE
  5
127
330
1F
100
AcDbEntity
  8
0
 62
   178
420
        0
100
AcDbLine
 10
-10.2232884862453
 20
12.8541019662497
 30
0.0
 11
-10.48216578990998
 21
13.03202340767256
 31
0.0
  0
LINE
  5
128
330
1F
100
AcDbEntity
  8
0
 62
   178
420
        0
100
AcDbLine
 10
-18.20886895286449
 20
12.01478363815318
 30
0.0
 11
-18.41287576874195
 21
11.77592234629906
 31
0.0
  0
LINE
  5
129
330
1F
100
AcDbEntity
  8
0
 62
   178
420
        0
100
AcDbLine
 10
-12.50252985509359
 20
2.13111439559718
 30
0.0
 11
-12.19708572938502
 21
2.204445042265604
 31
0.0
  0
LINE
  5
12A
330
1F
100
AcDbEntity
  8
0
 62
   178
420
        0
100
AcDbLine
 10
-16.75000000000012
 20
2.803847577293368
 30
0.0
 11
-16.47394299843739
 21
2.653960854869792
 31
0.0
  0
LINE
  5
12B
330
1F
100
AcDbEntity
  8
0
 62
   178
420
        0
100
AcDbLine
 10
-13.43598426254248
 20
2.008222791472571
 30
0.0
 11
-13.12282922039422
 21
2.032868627790375
 31
0.0
  0
LINE
  5
12C
330
1F
100
AcDbEntity
  8
0
 62
   178
420
        0
100
AcDbLine
 10
-13.12282922039422
 20
2.032868627790375
 30
0.0
 11
-12.81139320975876
 21
2.073869956429187
 31
0.0
  0
LINE
  5
12D
330
1F
100
AcDbEntity
  8
0
 62
   178
420
        0
100
AcDbLine
 10
-9.735216361846994
 20
3.541131047135648
 30
0.0
 11
-9.507359312880858
 21
3.757359312880729
 31
0.0
  0
LINE
  5
12E
330
1F
100
AcDbEntity
  8
0
 62
   178
420
        0
100
AcDbLine
 10
-8.403960854869936
 20
5.276057001562732
 30
0.0
 11
-8.268727254144537
 21
5.559580141545212
 31
0.0
  0
LINE
  5
12F
330
1F
100
AcDbEntity
  8
0
 62
   178
420
        0
100
AcDbLine
 10
-8.043660902229222
 20
9.854101966249702
 30
0.0
 11
-8.148517441016933
 21
10.15020769727182
 31
0.0
  0
LINE
  5
130
330
1F
100
AcDbEntity
  8
0
 62
   178
420
        0
100
AcDbLine
 10
-8.403960854869936
 20
10.7239429984373
 30
0.0
 11
-8.553847577293512
 21
11.00000000000002
 31
0.0
  0
LINE
  5
131
330
1F
100
AcDbEntity
  8
0
 62
   178
420
        0
100
AcDbLine
 10
-8.717976592327599
 20
11.26783421009018
 30
0.0
 11
-8.89589803375046
 21
11.52671151375486
 31
0.0
  0
LINE
  5
132
330
1F
100
AcDbEntity
  8
0
 62
   178
420
        0
100
AcDbLine
 10
-9.974077653701116
 20
12.66287576874184
 30
0.0
 11
-10.2232884862453
 21
12.8541019662497
 31
0.0
  0
LINE
  5
133
330
1F
100
AcDbEntity
  8
0
 62
   178
420
        0
100
AcDbLine
 10
-14.99747014490668
 20
13.86888560440285
 30
0.0
 11
-15.30291427061525
 21
13.79555495773443
 31
0.0
  0
LINE
  5
134
330
1F
100
AcDbEntity
  8
0
 62
   178
420
        0
100
AcDbLine
 10
-15.30291427061525
 20
13.79555495773443
 30
0.0
 11
-15.60410196624981
 21
13.70633909777094
 31
0.0
  0
LINE
  5
135
330
1F
100
AcDbEntity
  8
0
 62
   178
420
        0
100
AcDbLine
 10
-16.19041985845492
 20
13.48127274585563
 30
0.0
 11
-16.4739429984374
 21
13.34603914513023
 31
0.0
  0
LINE
  5
136
330
1F
100
AcDbEntity
  8
0
 62
   178
420
        0
100
AcDbLine
 10
-18.41287576874196
 20
4.224077653700977
 30
0.0
 11
-18.2088689528645
 21
3.985216361846851
 31
0.0
  0
LINE
  5
137
330
1F
100
AcDbEntity
  8
0
 62
   178
420
        0
100
AcDbLine
 10
-17.01783421009028
 20
2.967976592327455
 30
0.0
 11
-16.75000000000012
 21
2.803847577293368
 31
0.0
  0
LINE
  5
138
330
1F
100
AcDbEntity
  8
0
 62
   178
420
        0
100
AcDbLine
 10
-16.19041985845491
 20
2.518727254144396
 30
0.0
 11
-15.90020769727191
 21
2.398517441016791
 31
0.0
  0
LINE
  5
139
330
1F
100
AcDbEntity
  8
0
 62
   178
420
        0
100
AcDbLine
 10
-15.30291427061523
 20
2.204445042265595
 30
0.0
 11
-14.99747014490666
 21
2.131114395597171
 31
0.0
  0
LINE
  5
13A
330
1F
100
AcDbEntity
  8
0
 62
   178
420
        0
100
AcDbLine
 10
-18.00000000000015
 20
8.25000000000009
 30
0.0
 11
-17.99574072828628
 21
8.282352380637908
 31
0.0
  0
LINE
  5
13B
330
1F
100
AcDbEntity
  8
0
 62
   178
420
        0
100
AcDbLine
 10
-17.93750000000014
 20
8.35825317547315
 30
0.0
 11
-17.90735238063795
 21
8.370740728286231
 31
0.0
  0
LINE
  5
13C
330
1F
100
AcDbEntity
  8
0
 62
   178
420
        0
100
AcDbLine
 10
-17.90735238063795
 20
8.370740728286231
 30
0.0
 11
-17.87500000000014
 21
8.375000000000094
 31
0.0
  0
LINE
  5
13D
330
1F
100
AcDbEntity
  8
0
 62
   178
420
        0
100
AcDbLine
 10
-17.87500000000014
 20
8.375000000000094
 30
0.0
 11
-17.84264761936232
 21
8.370740728286227
 31
0.0
  0
LINE
  5
13E
330
1F
100
AcDbEntity
  8
0
 62
   178
420
        0
100
AcDbLine
 10
-17.78661165235182
 20
8.33838834764841
 30
0.0
 11
-17.76674682452708
 21
8.312500000000087
 31
0.0
  0
LINE
  5
13F
330
1F
100
AcDbEntity
  8
0
 62
   178
420
        0
100
AcDbLine
 10
-17.76674682452708
 20
8.312500000000087
 30
0.0
 11
-17.754259271714
 21
8.282352380637901
 31
0.0
  0
LINE
  5
140
330
1F
100
AcDbEntity
  8
0
 62
   178
420
        0
100
AcDbLine
 10
-17.754259271714
 20
8.282352380637901
 30
0.0
 11
-17.75000000000013
 21
8.250000000000083
 31
0.0
  0
LINE
  5
141
330
1F
100
AcDbEntity
  8
0
 62
   178
420
        0
100
AcDbLine
 10
-17.75000000000014
 20
7.750000000000083
 30
0.0
 11
-17.75425927171401
 21
7.717647619362269
 31
0.0
  0
LINE
  5
142
330
1F
100
AcDbEntity
  8
0
 62
   178
420
        0
100
AcDbLine
 10
-17.75425927171401
 20
7.717647619362269
 30
0.0
 11
-17.76674682452709
 21
7.687500000000083
 31
0.0
  0
LINE
  5
143
330
1F
100
AcDbEntity
  8
0
 62
   178
420
        0
100
AcDbLine
 10
-17.76674682452709
 20
7.687500000000083
 30
0.0
 11
-17.78661165235182
 21
7.661611652351764
 31
0.0
  0
LINE
  5
144
330
1F
100
AcDbEntity
  8
0
 62
   178
420
        0
100
AcDbLine
 10
-17.78661165235182
 20
7.661611652351764
 30
0.0
 11
-17.81250000000014
 21
7.641746824527027
 31
0.0
  0
LINE
  5
145
330
1F
100
AcDbEntity
  8
0
 62
   178
420
        0
100
AcDbLine
 10
-17.81250000000014
 20
7.641746824527027
 30
0.0
 11
-17.84264761936232
 21
7.62925927171395
 31
0.0
  0
LINE
  5
146
330
1F
100
AcDbEntity
  8
0
 62
   178
420
        0
100
AcDbLine
 10
-17.84264761936232
 20
7.62925927171395
 30
0.0
 11
-17.87500000000014
 21
7.625000000000083
 31
0.0
  0
LINE
  5
147
330
1F
100
AcDbEntity
  8
0
 62
   178
420
        0
100
AcDbLine
 10
-17.87500000000014
 20
7.625000000000083
 30
0.0
 11
-17.90735238063796
 21
7.62925927171395
 31
0.0
  0
LINE
  5
148
330
1F
100
AcDbEntity
  8
0
 62
   178
420
        0
100
AcDbLine
 10
-17.90735238063796
 20
7.62925927171395
 30
0.0
 11
-17.93750000000014
 21
7.641746824527027
 31
0.0
  0
LINE
  5
149
330
1F
100
AcDbEntity
  8
0
 62
   178
420
        0
100
AcDbLine
 10
-17.93750000000014
 20
7.641746824527027
 30
0.0
 11
-17.96338834764846
 21
7.661611652351764
 31
0.0
  0
LINE
  5
14A
330
1F
100
AcDbEntity
  8
0
 62
   178
420
        0
100
AcDbLine
 10
-17.96338834764846
 20
7.661611652351764
 30
0.0
 11
-17.98325317547319
 21
7.687500000000083
 31
0.0
  0
LINE
  5
14B
330
1F
100
AcDbEntity
  8
0
 62
   178
420
        0
100
AcDbLine
 10
-17.98325317547319
 20
7.687500000000083
 30
0.0
 11
-17.99574072828627
 21
7.717647619362269
 31
0.0
  0
LINE
  5
14C
330
1F
100
AcDbEntity
  8
0
 62
   178
420
        0
100
AcDbLine
 10
-17.99574072828627
 20
7.717647619362269
 30
0.0
 11
-18.00000000000014
 21
7.750000000000083
 31
0.0
  0
LINE
  5
14D
330
1F
100
AcDbEntity
  8
0
 62
   178
420
        0
100
AcDbLine
 10
-18.50000000000013
 20
7.750000000000094
 30
0.0
 11
-18.50425927171399
 21
7.717647619362277
 31
0.0
  0
LINE
  5
14E
330
1F
100
AcDbEntity
  8
0
 62
   178
420
        0
100
AcDbLine
 10
-18.50425927171399
 20
7.717647619362277
 30
0.0
 11
-18.51674682452708
 21
7.687500000000091
 31
0.0
  0
LINE
  5
14F
330
1F
100
AcDbEntity
  8
0
 62
   178
420
        0
100
AcDbLine
 10
-18.51674682452708
 20
7.687500000000091
 30
0.0
 11
-18.53661165235181
 21
7.661611652351771
 31
0.0
  0
LINE
  5
150
330
1F
100
AcDbEntity
  8
0
 62
   178
420
        0
100
AcDbLine
 10
-18.53661165235181
 20
7.661611652351771
 30
0.0
 11
-18.56250000000014
 21
7.641746824527035
 31
0.0
  0
LINE
  5
151
330
1F
100
AcDbEntity
  8
0
 62
   178
420
        0
100
AcDbLine
 10
-18.56250000000014
 20
7.641746824527035
 30
0.0
 11
-18.59264761936232
 21
7.629259271713957
 31
0.0
  0
LINE
  5
152
330
1F
100
AcDbEntity
  8
0
 62
   178
420
        0
100
AcDbLine
 10
-18.59264761936232
 20
7.629259271713957
 30
0.0
 11
-18.62500000000014
 21
7.625000000000091
 31
0.0
  0
LINE
  5
153
330
1F
100
AcDbEntity
  8
0
 62
   178
420
        0
100
AcDbLine
 10
-18.62500000000014
 20
7.625000000000091
 30
0.0
 11
-18.65735238063795
 21
7.629259271713957
 31
0.0
  0
LINE
  5
154
330
1F
100
AcDbEntity
  8
0
 62
   178
420
        0
100
AcDbLine
 10
-18.68750000000014
 20
7.641746824527038
 30
0.0
 11
-18.71338834764846
 21
7.661611652351775
 31
0.0
  0
LINE
  5
155
330
1F
100
AcDbEntity
  8
0
 62
   178
420
        0
100
AcDbLine
 10
-18.71338834764846
 20
7.661611652351775
 30
0.0
 11
-18.73325317547319
 21
7.687500000000098
 31
0.0
  0
LINE
  5
156
330
1F
100
AcDbEntity
  8
0
 62
   178
420
        0
100
AcDbLine
 10
-18.73325317547319
 20
7.687500000000098
 30
0.0
 11
-18.74574072828628
 21
7.717647619362284
 31
0.0
  0
LINE
  5
157
330
1F
100
AcDbEntity
  8
0
 62
   178
420
        0
100
AcDbLine
 10
-18.74574072828628
 20
7.717647619362284
 30
0.0
 11
-18.75000000000014
 21
7.750000000000101
 31
0.0
  0
LINE
  5
158
330
1F
100
AcDbEntity
  8
0
 62
   178
420
        0
100
AcDbLine
 10
-18.75000000000014
 20
8.250000000000101
 30
0.0
 11
-18.74574072828626
 21
8.282352380637915
 31
0.0
  0
LINE
  5
159
330
1F
100
AcDbEntity
  8
0
 62
   178
420
        0
100
AcDbLine
 10
-18.68750000000014
 20
8.358253175473157
 30
0.0
 11
-18.65735238063795
 21
8.370740728286234
 31
0.0
  0
LINE
  5
15A
330
1F
100
AcDbEntity
  8
0
 62
   178
420
        0
100
AcDbLine
 10
-18.56250000000014
 20
8.358253175473157
 30
0.0
 11
-18.53661165235182
 21
8.33838834764842
 31
0.0
  0
LINE
  5
15B
330
1F
100
AcDbEntity
  8
0
 62
   178
420
        0
100
AcDbLine
 10
-18.51674682452708
 20
8.312500000000101
 30
0.0
 11
-18.504259271714
 21
8.282352380637915
 31
0.0
  0
LINE
  5
15C
330
1F
100
AcDbEntity
  8
0
 62
   178
420
        0
100
AcDbLine
 10
-9.750000000000131
 20
8.249999999999938
 30
0.0
 11
-9.745740728286265
 21
8.282352380637748
 31
0.0
  0
LINE
  5
15D
330
1F
100
AcDbEntity
  8
0
 62
   178
420
        0
100
AcDbLine
 10
-9.745740728286265
 20
8.282352380637748
 30
0.0
 11
-9.733253175473186
 21
8.31249999999993
 31
0.0
  0
LINE
  5
15E
330
1F
100
AcDbEntity
  8
0
 62
   178
420
        0
100
AcDbLine
 10
-9.733253175473186
 20
8.31249999999993
 30
0.0
 11
-9.71338834764845
 21
8.338388347648246
 31
0.0
  0
LINE
  5
15F
330
1F
100
AcDbEntity
  8
0
 62
   178
420
        0
100
AcDbLine
 10
-9.71338834764845
 20
8.338388347648246
 30
0.0
 11
-9.687500000000133
 21
8.358253175472983
 31
0.0
  0
LINE
  5
160
330
1F
100
AcDbEntity
  8
0
 62
   178
420
        0
100
AcDbLine
 10
-9.687500000000133
 20
8.358253175472983
 30
0.0
 11
-9.65735238063795
 21
8.370740728286057
 31
0.0
  0
LINE
  5
161
330
1F
100
AcDbEntity
  8
0
 62
   178
420
        0
100
AcDbLine
 10
-9.65735238063795
 20
8.370740728286057
 30
0.0
 11
-9.625000000000139
 21
8.374999999999924
 31
0.0
  0
LINE
  5
162
330
1F
100
AcDbEntity
  8
0
 62
   178
420
        0
100
AcDbLine
 10
-9.625000000000139
 20
8.374999999999924
 30
0.0
 11
-9.592647619362326
 21
8.370740728286057
 31
0.0
  0
LINE
  5
163
330
1F
100
AcDbEntity
  8
0
 62
   178
420
        0
100
AcDbLine
 10
-9.592647619362326
 20
8.370740728286057
 30
0.0
 11
-9.562500000000144
 21
8.35825317547298
 31
0.0
  0
LINE
  5
164
330
1F
100
AcDbEntity
  8
0
 62
   178
420
        0
100
AcDbLine
 10
-9.562500000000144
 20
8.35825317547298
 30
0.0
 11
-9.536611652351828
 21
8.338388347648243
 31
0.0
  0
LINE
  5
165
330
1F
100
AcDbEntity
  8
0
 62
   178
420
        0
100
AcDbLine
 10
-9.536611652351828
 20
8.338388347648243
 30
0.0
 11
-9.516746824527095
 21
8.312499999999927
 31
0.0
  0
LINE
  5
166
330
1F
100
AcDbEntity
  8
0
 62
   178
420
        0
100
AcDbLine
 10
-9.516746824527095
 20
8.312499999999927
 30
0.0
 11
-9.504259271714018
 21
8.282352380637745
 31
0.0
  0
LINE
  5
167
330
1F
100
AcDbEntity
  8
0
 62
   178
420
        0
100
AcDbLine
 10
-9.504259271714018
 20
8.282352380637745
 30
0.0
 11
-9.500000000000153
 21
8.24999999999993
 31
0.0
  0
LINE
  5
168
330
1F
100
AcDbEntity
  8
0
 62
   178
420
        0
100
AcDbLine
 10
-9.500000000000153
 20
8.24999999999993
 30
0.0
 11
-9.000000000000133
 21
8.24999999999992
 31
0.0
  0
LINE
  5
169
330
1F
100
AcDbEntity
  8
0
 62
   178
420
        0
100
AcDbLine
 10
-9.000000000000133
 20
8.24999999999992
 30
0.0
 11
-8.995740728286266
 21
8.282352380637734
 31
0.0
  0
LINE
  5
16A
330
1F
100
AcDbEntity
  8
0
 62
   178
420
        0
100
AcDbLine
 10
-8.995740728286266
 20
8.282352380637734
 30
0.0
 11
-8.983253175473187
 21
8.31249999999992
 31
0.0
  0
LINE
  5
16B
330
1F
100
AcDbEntity
  8
0
 62
   178
420
        0
100
AcDbLine
 10
-8.983253175473187
 20
8.31249999999992
 30
0.0
 11
-8.963388347648452
 21
8.33838834764824
 31
0.0
  0
LINE
  5
16C
330
1F
100
AcDbEntity
  8
0
 62
   178
420
        0
100
AcDbLine
 10
-8.963388347648452
 20
8.33838834764824
 30
0.0
 11
-8.937500000000133
 21
8.358253175472976
 31
0.0
  0
LINE
  5
16D
330
1F
100
AcDbEntity
  8
0
 62
   178
420
        0
100
AcDbLine
 10
-8.937500000000133
 20
8.358253175472976
 30
0.0
 11
-8.907352380637949
 21
8.370740728286053
 31
0.0
  0
LINE
  5
16E
330
1F
100
AcDbEntity
  8
0
 62
   178
420
        0
100
AcDbLine
 10
-8.907352380637949
 20
8.370740728286053
 30
0.0
 11
-8.875000000000133
 21
8.37499999999992
 31
0.0
  0
LINE
  5
16F
330
1F
100
AcDbEntity
  8
0
 62
   178
420
        0
100
AcDbLine
 10
-8.875000000000133
 20
8.37499999999992
 30
0.0
 11
-8.842647619362317
 21
8.370740728286053
 31
0.0
  0
LINE
  5
170
330
1F
100
AcDbEntity
  8
0
 62
   178
420
        0
100
AcDbLine
 10
-8.842647619362317
 20
8.370740728286053
 30
0.0
 11
-8.812500000000133
 21
8.358253175472976
 31
0.0
  0
LINE
  5
171
330
1F
100
AcDbEntity
  8
0
 62
   178
420
        0
100
AcDbLine
 10
-8.812500000000133
 20
8.358253175472976
 30
0.0
 11
-8.786611652351814
 21
8.33838834764824
 31
0.0
  0
LINE
  5
172
330
1F
100
AcDbEntity
  8
0
 62
   178
420
        0
100
AcDbLine
 10
-8.786611652351814
 20
8.33838834764824
 30
0.0
 11
-8.766746824527079
 21
8.31249999999992
 31
0.0
  0
LINE
  5
173
330
1F
100
AcDbEntity
  8
0
 62
   178
420
        0
100
AcDbLine
 10
-8.766746824527079
 20
8.31249999999992
 30
0.0
 11
-8.754259271714
 21
8.282352380637734
 31
0.0
  0
LINE
  5
174
330
1F
100
AcDbEntity
  8
0
 62
   178
420
        0
100
AcDbLine
 10
-8.754259271714
 20
8.282352380637734
 30
0.0
 11
-8.750000000000133
 21
8.24999999999992
 31
0.0
  0
LINE
  5
175
330
1F
100
AcDbEntity
  8
0
 62
   178
420
        0
100
AcDbLine
 10
-8.750000000000142
 20
7.74999999999992
 30
0.0
 11
-8.754259271714009
 21
7.717647619362106
 31
0.0
  0
LINE
  5
176
330
1F
100
AcDbEntity
  8
0
 62
   178
420
        0
100
AcDbLine
 10
-8.754259271714009
 20
7.717647619362106
 30
0.0
 11
-8.766746824527088
 21
7.687499999999924
 31
0.0
  0
LINE
  5
177
330
1F
100
AcDbEntity
  8
0
 62
   178
420
        0
100
AcDbLine
 10
-8.766746824527088
 20
7.687499999999924
 30
0.0
 11
-8.786611652351823
 21
7.661611652351608
 31
0.0
  0
LINE
  5
178
330
1F
100
AcDbEntity
  8
0
 62
   178
420
        0
100
AcDbLine
 10
-8.786611652351823
 20
7.661611652351608
 30
0.0
 11
-8.81250000000014
 21
7.641746824526875
 31
0.0
  0
LINE
  5
179
330
1F
100
AcDbEntity
  8
0
 62
   178
420
        0
100
AcDbLine
 10
-8.81250000000014
 20
7.641746824526875
 30
0.0
 11
-8.842647619362324
 21
7.629259271713797
 31
0.0
  0
LINE
  5
17A
330
1F
100
AcDbEntity
  8
0
 62
   178
420
        0
100
AcDbLine
 10
-8.842647619362324
 20
7.629259271713797
 30
0.0
 11
-8.875000000000137
 21
7.624999999999931
 31
0.0
  0
LINE
  5
17B
330
1F
100
AcDbEntity
  8
0
 62
   178
420
        0
100
AcDbLine
 10
-8.875000000000137
 20
7.624999999999931
 30
0.0
 11
-8.907352380637949
 21
7.629259271713801
 31
0.0
  0
LINE
  5
17C
330
1F
100
AcDbEntity
  8
0
 62
   178
420
        0
100
AcDbLine
 10
-8.907352380637949
 20
7.629259271713801
 30
0.0
 11
-8.937500000000131
 21
7.641746824526878
 31
0.0
  0
LINE
  5
17D
330
1F
100
AcDbEntity
  8
0
 62
   178
420
        0
100
AcDbLine
 10
-8.937500000000131
 20
7.641746824526878
 30
0.0
 11
-8.963388347648447
 21
7.661611652351615
 31
0.0
  0
LINE
  5
17E
330
1F
100
AcDbEntity
  8
0
 62
   178
420
        0
100
AcDbLine
 10
-8.963388347648447
 20
7.661611652351615
 30
0.0
 11
-8.983253175473182
 21
7.687499999999931
 31
0.0
  0
LINE
  5
17F
330
1F
100
AcDbEntity
  8
0
 62
   178
420
        0
100
AcDbLine
 10
-8.99574072828626
 20
7.717647619362113
 30
0.0
 11
-9.000000000000124
 21
7.749999999999927
 31
0.0
  0
LINE
  5
180
330
1F
100
AcDbEntity
  8
0
 62
   178
420
        0
100
AcDbLine
 10
-9.000000000000124
 20
7.749999999999927
 30
0.0
 11
-9.500000000000142
 21
7.749999999999938
 31
0.0
  0
LINE
  5
181
330
1F
100
AcDbEntity
  8
0
 62
   178
420
        0
100
AcDbLine
 10
-9.500000000000142
 20
7.749999999999938
 30
0.0
 11
-9.504259271714009
 21
7.717647619362124
 31
0.0
  0
LINE
  5
182
330
1F
100
AcDbEntity
  8
0
 62
   178
420
        0
100
AcDbLine
 10
-9.504259271714009
 20
7.717647619362124
 30
0.0
 11
-9.516746824527088
 21
7.687499999999938
 31
0.0
  0
LINE
  5
183
330
1F
100
AcDbEntity
  8
0
 62
   178
420
        0
100
AcDbLine
 10
-9.516746824527088
 20
7.687499999999938
 30
0.0
 11
-9.536611652351823
 21
7.661611652351619
 31
0.0
  0
LINE
  5
184
330
1F
100
AcDbEntity
  8
0
 62
   178
420
        0
100
AcDbLine
 10
-9.536611652351823
 20
7.661611652351619
 30
0.0
 11
-9.562500000000142
 21
7.641746824526882
 31
0.0
  0
LINE
  5
185
330
1F
100
AcDbEntity
  8
0
 62
   178
420
        0
100
AcDbLine
 10
-9.562500000000142
 20
7.641746824526882
 30
0.0
 11
-9.592647619362326
 21
7.629259271713805
 31
0.0
  0
LINE
  5
186
330
1F
100
AcDbEntity
  8
0
 62
   178
420
        0
100
AcDbLine
 10
-9.592647619362326
 20
7.629259271713805
 30
0.0
 11
-9.625000000000142
 21
7.624999999999938
 31
0.0
  0
LINE
  5
187
330
1F
100
AcDbEntity
  8
0
 62
   178
420
        0
100
AcDbLine
 10
-9.625000000000142
 20
7.624999999999938
 30
0.0
 11
-9.657352380637958
 21
7.629259271713805
 31
0.0
  0
LINE
  5
188
330
1F
100
AcDbEntity
  8
0
 62
   178
420
        0
100
AcDbLine
 10
-9.657352380637958
 20
7.629259271713805
 30
0.0
 11
-9.687500000000142
 21
7.641746824526882
 31
0.0
  0
LINE
  5
189
330
1F
100
AcDbEntity
  8
0
 62
   178
420
        0
100
AcDbLine
 10
-9.687500000000142
 20
7.641746824526882
 30
0.0
 11
-9.713388347648461
 21
7.661611652351619
 31
0.0
  0
LINE
  5
18A
330
1F
100
AcDbEntity
  8
0
 62
   178
420
        0
100
AcDbLine
 10
-9.713388347648461
 20
7.661611652351619
 30
0.0
 11
-9.733253175473196
 21
7.687499999999938
 31
0.0
  0
LINE
  5
18B
330
1F
100
AcDbEntity
  8
0
 62
   178
420
        0
100
AcDbLine
 10
-9.733253175473196
 20
7.687499999999938
 30
0.0
 11
-9.745740728286275
 21
7.717647619362124
 31
0.0
  0
LINE
  5
18C
330
1F
100
AcDbEntity
  8
0
 62
   178
420
        0
100
AcDbLine
 10
-9.745740728286275
 20
7.717647619362124
 30
0.0
 11
-9.750000000000142
 21
7.749999999999938
 31
0.0
  0
LINE
  5
18D
330
1F
100
AcDbEntity
  8
0
 62
   178
420
        0
100
AcDbLine
 10
-14.00000000000014
 20
12.00000000000002
 30
0.0
 11
-14.03235238063795
 21
12.00425927171388
 31
0.0
  0
LINE
  5
18E
330
1F
100
AcDbEntity
  8
0
 62
   178
420
        0
100
AcDbLine
 10
-14.03235238063795
 20
12.00425927171388
 30
0.0
 11
-14.06250000000014
 21
12.01674682452696
 31
0.0
  0
LINE
  5
18F
330
1F
100
AcDbEntity
  8
0
 62
   178
420
        0
100
AcDbLine
 10
-14.06250000000014
 20
12.01674682452696
 30
0.0
 11
-14.08838834764846
 21
12.0366116523517
 31
0.0
  0
LINE
  5
190
330
1F
100
AcDbEntity
  8
0
 62
   178
420
        0
100
AcDbLine
 10
-14.08838834764846
 20
12.0366116523517
 30
0.0
 11
-14.10825317547319
 21
12.06250000000002
 31
0.0
  0
LINE
  5
191
330
1F
100
AcDbEntity
  8
0
 62
   178
420
        0
100
AcDbLine
 10
-14.10825317547319
 20
12.06250000000002
 30
0.0
 11
-14.12074072828627
 21
12.0926476193622
 31
0.0
  0
LINE
  5
192
330
1F
100
AcDbEntity
  8
0
 62
   178
420
        0
100
AcDbLine
 10
-14.12074072828627
 20
12.0926476193622
 30
0.0
 11
-14.12500000000014
 21
12.12500000000002
 31
0.0
  0
LINE
  5
193
330
1F
100
AcDbEntity
  8
0
 62
   178
420
        0
100
AcDbLine
 10
-14.12500000000014
 20
12.12500000000002
 30
0.0
 11
-14.12074072828627
 21
12.15735238063783
 31
0.0
  0
LINE
  5
194
330
1F
100
AcDbEntity
  8
0
 62
   178
420
        0
100
AcDbLine
 10
-14.12074072828627
 20
12.15735238063783
 30
0.0
 11
-14.10825317547319
 21
12.18750000000002
 31
0.0
  0
LINE
  5
195
330
1F
100
AcDbEntity
  8
0
 62
   178
420
        0
100
AcDbLine
 10
-14.10825317547319
 20
12.18750000000002
 30
0.0
 11
-14.08838834764846
 21
12.21338834764834
 31
0.0
  0
LINE
  5
196
330
1F
100
AcDbEntity
  8
0
 62
   178
420
        0
100
AcDbLine
 10
-14.08838834764846
 20
12.21338834764834
 30
0.0
 11
-14.06250000000014
 21
12.23325317547307
 31
0.0
  0
LINE
  5
197
330
1F
100
AcDbEntity
  8
0
 62
   178
420
        0
100
AcDbLine
 10
-14.06250000000014
 20
12.23325317547307
 30
0.0
 11
-14.03235238063795
 21
12.24574072828615
 31
0.0
  0
LINE
  5
198
330
1F
100
AcDbEntity
  8
0
 62
   178
420
        0
100
AcDbLine
 10
-14.03235238063795
 20
12.24574072828615
 30
0.0
 11
-14.00000000000014
 21
12.25000000000002
 31
0.0
  0
LINE
  5
199
330
1F
100
AcDbEntity
  8
0
 62
   178
420
        0
100
AcDbLine
 10
-14.00000000000014
 20
12.75000000000002
 30
0.0
 11
-14.03235238063795
 21
12.75425927171388
 31
0.0
  0
LINE
  5
19A
330
1F
100
AcDbEntity
  8
0
 62
   178
420
        0
100
AcDbLine
 10
-14.03235238063795
 20
12.75425927171388
 30
0.0
 11
-14.06250000000014
 21
12.76674682452696
 31
0.0
  0
LINE
  5
19B
330
1F
100
AcDbEntity
  8
0
 62
   178
420
        0
100
AcDbLine
 10
-14.06250000000014
 20
12.76674682452696
 30
0.0
 11
-14.08838834764846
 21
12.7866116523517
 31
0.0
  0
LINE
  5
19C
330
1F
100
AcDbEntity
  8
0
 62
   178
420
        0
100
AcDbLine
 10
-14.08838834764846
 20
12.7866116523517
 30
0.0
 11
-14.10825317547319
 21
12.81250000000002
 31
0.0
  0
LINE
  5
19D
330
1F
100
AcDbEntity
  8
0
 62
   178
420
        0
100
AcDbLine
 10
-14.10825317547319
 20
12.81250000000002
 30
0.0
 11
-14.12074072828627
 21
12.8426476193622
 31
0.0
  0
LINE
  5
19E
330
1F
100
AcDbEntity
  8
0
 62
   178
420
        0
100
AcDbLine
 10
-14.12074072828627
 20
12.8426476193622
 30
0.0
 11
-14.12500000000014
 21
12.87500000000002
 31
0.0
  0
LINE
  5
19F
330
1F
100
AcDbEntity
  8
0
 62
   178
420
        0
100
AcDbLine
 10
-14.12500000000014
 20
12.87500000000002
 30
0.0
 11
-14.12074072828627
 21
12.90735238063783
 31
0.0
  0
LINE
  5
1A0
330
1F
100
AcDbEntity
  8
0
 62
   178
420
        0
100
AcDbLine
 10
-14.12074072828627
 20
12.90735238063783
 30
0.0
 11
-14.10825317547319
 21
12.93750000000002
 31
0.0
  0
LINE
  5
1A1
330
1F
100
AcDbEntity
  8
0
 62
   178
420
        0
100
AcDbLine
 10
-14.10825317547319
 20
12.93750000000002
 30
0.0
 11
-14.08838834764846
 21
12.96338834764834
 31
0.0
  0
LINE
  5
1A2
330
1F
100
AcDbEntity
  8
0
 62
   178
420
        0
100
AcDbLine
 10
-14.08838834764846
 20
12.96338834764834
 30
0.0
 11
-14.06250000000014
 21
12.98325317547307
 31
0.0
  0
LINE
  5
1A3
330
1F
100
AcDbEntity
  8
0
 62
   178
420
        0
100
AcDbLine
 10
-14.06250000000014
 20
12.98325317547307
 30
0.0
 11
-14.03235238063795
 21
12.99574072828615
 31
0.0
  0
LINE
  5
1A4
330
1F
100
AcDbEntity
  8
0
 62
   178
420
        0
100
AcDbLine
 10
-14.03235238063795
 20
12.99574072828615
 30
0.0
 11
-14.00000000000014
 21
13.00000000000002
 31
0.0
  0
LINE
  5
1A5
330
1F
100
AcDbEntity
  8
0
 62
   178
420
        0
100
AcDbLine
 10
-13.50000000000014
 20
13.00000000000002
 30
0.0
 11
-13.46764761936232
 21
12.99574072828615
 31
0.0
  0
LINE
  5
1A6
330
1F
100
AcDbEntity
  8
0
 62
   178
420
        0
100
AcDbLine
 10
-13.46764761936232
 20
12.99574072828615
 30
0.0
 11
-13.43750000000014
 21
12.98325317547307
 31
0.0
  0
LINE
  5
1A7
330
1F
100
AcDbEntity
  8
0
 62
   178
420
        0
100
AcDbLine
 10
-13.43750000000014
 20
12.98325317547307
 30
0.0
 11
-13.41161165235182
 21
12.96338834764834
 31
0.0
  0
LINE
  5
1A8
330
1F
100
AcDbEntity
  8
0
 62
   178
420
        0
100
AcDbLine
 10
-13.41161165235182
 20
12.96338834764834
 30
0.0
 11
-13.39174682452708
 21
12.93750000000002
 31
0.0
  0
LINE
  5
1A9
330
1F
100
AcDbEntity
  8
0
 62
   178
420
        0
100
AcDbLine
 10
-13.39174682452708
 20
12.93750000000002
 30
0.0
 11
-13.37925927171401
 21
12.90735238063783
 31
0.0
  0
LINE
  5
1AA
330
1F
100
AcDbEntity
  8
0
 62
   178
420
        0
100
AcDbLine
 10
-13.37925927171401
 20
12.90735238063783
 30
0.0
 11
-13.37500000000014
 21
12.87500000000002
 31
0.0
  0
LINE
  5
1AB
330
1F
100
AcDbEntity
  8
0
 62
   178
420
        0
100
AcDbLine
 10
-13.37500000000014
 20
12.87500000000002
 30
0.0
 11
-13.37925927171401
 21
12.8426476193622
 31
0.0
  0
LINE
  5
1AC
330
1F
100
AcDbEntity
  8
0
 62
   178
420
        0
100
AcDbLine
 10
-13.37925927171401
 20
12.8426476193622
 30
0.0
 11
-13.39174682452708
 21
12.81250000000002
 31
0.0
  0
LINE
  5
1AD
330
1F
100
AcDbEntity
  8
0
 62
   178
420
        0
100
AcDbLine
 10
-13.39174682452708
 20
12.81250000000002
 30
0.0
 11
-13.41161165235182
 21
12.7866116523517
 31
0.0
  0
LINE
  5
1AE
330
1F
100
AcDbEntity
  8
0
 62
   178
420
        0
100
AcDbLine
 10
-13.41161165235182
 20
12.7866116523517
 30
0.0
 11
-13.43750000000014
 21
12.76674682452696
 31
0.0
  0
LINE
  5
1AF
330
1F
100
AcDbEntity
  8
0
 62
   178
420
        0
100
AcDbLine
 10
-13.46764761936232
 20
12.75425927171388
 30
0.0
 11
-13.50000000000014
 21
12.75000000000002
 31
0.0
  0
LINE
  5
1B0
330
1F
100
AcDbEntity
  8
0
 62
   178
420
        0
100
AcDbLine
 10
-13.50000000000014
 20
12.75000000000002
 30
0.0
 11
-13.50000000000014
 21
12.25000000000002
 31
0.0
  0
LINE
  5
1B1
330
1F
100
AcDbEntity
  8
0
 62
   178
420
        0
100
AcDbLine
 10
-13.50000000000014
 20
12.25000000000002
 30
0.0
 11
-13.46764761936232
 21
12.24574072828615
 31
0.0
  0
LINE
  5
1B2
330
1F
100
AcDbEntity
  8
0
 62
   178
420
        0
100
AcDbLine
 10
-13.46764761936232
 20
12.24574072828615
 30
0.0
 11
-13.43750000000014
 21
12.23325317547307
 31
0.0
  0
LINE
  5
1B3
330
1F
100
AcDbEntity
  8
0
 62
   178
420
        0
100
AcDbLine
 10
-13.43750000000014
 20
12.23325317547307
 30
0.0
 11
-13.41161165235182
 21
12.21338834764834
 31
0.0
  0
LINE
  5
1B4
330
1F
100
AcDbEntity
  8
0
 62
   178
420
        0
100
AcDbLine
 10
-13.41161165235182
 20
12.21338834764834
 30
0.0
 11
-13.39174682452708
 21
12.18750000000002
 31
0.0
  0
LINE
  5
1B5
330
1F
100
AcDbEntity
  8
0
 62
   178
420
        0
100
AcDbLine
 10
-13.39174682452708
 20
12.18750000000002
 30
0.0
 11
-13.37925927171401
 21
12.15735238063783
 31
0.0
  0
LINE
  5
1B6
330
1F
100
AcDbEntity
  8
0
 62
   178
420
        0
100
AcDbLine
 10
-13.37925927171401
 20
12.15735238063783
 30
0.0
 11
-13.37500000000014
 21
12.12500000000002
 31
0.0
  0
LINE
  5
1B7
330
1F
100
AcDbEntity
  8
0
 62
   178
420
        0
100
AcDbLine
 10
-13.37500000000014
 20
12.12500000000002
 30
0.0
 11
-13.37925927171401
 21
12.0926476193622
 31
0.0
  0
LINE
  5
1B8
330
1F
100
AcDbEntity
  8
0
 62
   178
420
        0
100
AcDbLine
 10
-13.37925927171401
 20
12.0926476193622
 30
0.0
 11
-13.39174682452708
 21
12.06250000000002
 31
0.0
  0
LINE
  5
1B9
330
1F
100
AcDbEntity
  8
0
 62
   178
420
        0
100
AcDbLine
 10
-13.39174682452708
 20
12.06250000000002
 30
0.0
 11
-13.41161165235182
 21
12.0366116523517
 31
0.0
  0
LINE
  5
1BA
330
1F
100
AcDbEntity
  8
0
 62
   178
420
        0
100
AcDbLine
 10
-13.41161165235182
 20
12.0366116523517
 30
0.0
 11
-13.43750000000014
 21
12.01674682452696
 31
0.0
  0
LINE
  5
1BB
330
1F
100
AcDbEntity
  8
0
 62
   178
420
        0
100
AcDbLine
 10
-13.43750000000014
 20
12.01674682452696
 30
0.0
 11
-13.46764761936232
 21
12.00425927171388
 31
0.0
  0
LINE
  5
1BC
330
1F
100
AcDbEntity
  8
0
 62
   178
420
        0
100
AcDbLine
 10
-13.46764761936232
 20
12.00425927171388
 30
0.0
 11
-13.50000000000014
 21
12.00000000000002
 31
0.0
  0
LINE
  5
1BD
330
1F
100
AcDbEntity
  8
0
 62
   178
420
        0
100
AcDbLine
 10
-13.39174682452709
 20
3.187500000000016
 30
0.0
 11
-13.37925927171401
 21
3.157352380637832
 31
0.0
  0
LINE
  5
1BE
330
1F
100
AcDbEntity
  8
0
 62
   178
420
        0
100
AcDbLine
 10
-13.37925927171401
 20
3.157352380637832
 30
0.0
 11
-13.37500000000014
 21
3.125000000000016
 31
0.0
  0
LINE
  5
1BF
330
1F
100
AcDbEntity
  8
0
 62
   178
420
        0
100
AcDbLine
 10
-13.37500000000014
 20
3.125000000000016
 30
0.0
 11
-13.37925927171401
 21
3.0926476193622
 31
0.0
  0
LINE
  5
1C0
330
1F
100
AcDbEntity
  8
0
 62
   178
420
        0
100
AcDbLine
 10
-13.39174682452709
 20
3.062500000000016
 30
0.0
 11
-13.41161165235182
 21
3.036611652351697
 31
0.0
  0
LINE
  5
1C1
330
1F
100
AcDbEntity
  8
0
 62
   178
420
        0
100
AcDbLine
 10
-14.03235238063796
 20
3.004259271713883
 30
0.0
 11
-14.00000000000014
 21
3.000000000000016
 31
0.0
  0
LINE
  5
1C2
330
1F
100
AcDbEntity
  8
0
 62
   178
420
        0
100
AcDbLine
 10
-14.06250000000014
 20
3.016746824526962
 30
0.0
 11
-14.03235238063796
 21
3.004259271713883
 31
0.0
  0
LINE
  5
1C3
330
1F
100
AcDbEntity
  8
0
 62
   178
420
        0
100
AcDbLine
 10
-14.08838834764846
 20
3.036611652351697
 30
0.0
 11
-14.06250000000014
 21
3.016746824526962
 31
0.0
  0
LINE
  5
1C4
330
1F
100
AcDbEntity
  8
0
 62
   178
420
        0
100
AcDbLine
 10
-14.10825317547319
 20
3.062500000000016
 30
0.0
 11
-14.08838834764846
 21
3.036611652351697
 31
0.0
  0
LINE
  5
1C5
330
1F
100
AcDbEntity
  8
0
 62
   178
420
        0
100
AcDbLine
 10
-14.12074072828627
 20
3.0926476193622
 30
0.0
 11
-14.10825317547319
 21
3.062500000000016
 31
0.0
  0
LINE
  5
1C6
330
1F
100
AcDbEntity
  8
0
 62
   178
420
        0
100
AcDbLine
 10
-14.12500000000014
 20
3.125000000000016
 30
0.0
 11
-14.12074072828627
 21
3.0926476193622
 31
0.0
  0
LINE
  5
1C7
330
1F
100
AcDbEntity
  8
0
 62
   178
420
        0
100
AcDbLine
 10
-14.12074072828627
 20
3.157352380637832
 30
0.0
 11
-14.12500000000014
 21
3.125000000000016
 31
0.0
  0
LINE
  5
1C8
330
1F
100
AcDbEntity
  8
0
 62
   178
420
        0
100
AcDbLine
 10
-14.10825317547319
 20
3.187500000000016
 30
0.0
 11
-14.12074072828627
 21
3.157352380637832
 31
0.0
  0
LINE
  5
1C9
330
1F
100
AcDbEntity
  8
0
 62
   178
420
        0
100
AcDbLine
 10
-14.08838834764846
 20
3.213388347648335
 30
0.0
 11
-14.10825317547319
 21
3.187500000000016
 31
0.0
  0
LINE
  5
1CA
330
1F
100
AcDbEntity
  8
0
 62
   178
420
        0
100
AcDbLine
 10
-14.06250000000014
 20
3.23325317547307
 30
0.0
 11
-14.08838834764846
 21
3.213388347648335
 31
0.0
  0
LINE
  5
1CB
330
1F
100
AcDbEntity
  8
0
 62
   178
420
        0
100
AcDbLine
 10
-14.03235238063796
 20
3.245740728286149
 30
0.0
 11
-14.06250000000014
 21
3.23325317547307
 31
0.0
  0
LINE
  5
1CC
330
1F
100
AcDbEntity
  8
0
 62
   178
420
        0
100
AcDbLine
 10
-14.00000000000014
 20
3.250000000000016
 30
0.0
 11
-14.03235238063796
 21
3.245740728286149
 31
0.0
  0
LINE
  5
1CD
330
1F
100
AcDbEntity
  8
0
 62
   178
420
        0
100
AcDbLine
 10
-14.00000000000014
 20
3.250000000000016
 30
0.0
 11
-14.00000000000014
 21
3.750000000000016
 31
0.0
  0
LINE
  5
1CE
330
1F
100
AcDbEntity
  8
0
 62
   178
420
        0
100
AcDbLine
 10
-14.00000000000014
 20
3.750000000000016
 30
0.0
 11
-14.03235238063796
 21
3.754259271713883
 31
0.0
  0
LINE
  5
1CF
330
1F
100
AcDbEntity
  8
0
 62
   178
420
        0
100
AcDbLine
 10
-14.08838834764846
 20
3.786611652351697
 30
0.0
 11
-14.10825317547319
 21
3.812500000000016
 31
0.0
  0
LINE
  5
1D0
330
1F
100
AcDbEntity
  8
0
 62
   178
420
        0
100
AcDbLine
 10
-14.10825317547319
 20
3.812500000000016
 30
0.0
 11
-14.12074072828627
 21
3.8426476193622
 31
0.0
  0
LINE
  5
1D1
330
1F
100
AcDbEntity
  8
0
 62
   178
420
        0
100
AcDbLine
 10
-14.12074072828627
 20
3.8426476193622
 30
0.0
 11
-14.12500000000014
 21
3.875000000000016
 31
0.0
  0
LINE
  5
1D2
330
1F
100
AcDbEntity
  8
0
 62
   178
420
        0
100
AcDbLine
 10
-14.12500000000014
 20
3.875000000000016
 30
0.0
 11
-14.12074072828627
 21
3.907352380637832
 31
0.0
  0
LINE
  5
1D3
330
1F
100
AcDbEntity
  8
0
 62
   178
420
        0
100
AcDbLine
 10
-14.12074072828627
 20
3.907352380637832
 30
0.0
 11
-14.10825317547319
 21
3.937500000000016
 31
0.0
  0
LINE
  5
1D4
330
1F
100
AcDbEntity
  8
0
 62
   178
420
        0
100
AcDbLine
 10
-14.10825317547319
 20
3.937500000000016
 30
0.0
 11
-14.08838834764846
 21
3.963388347648335
 31
0.0
  0
LINE
  5
1D5
330
1F
100
AcDbEntity
  8
0
 62
   178
420
        0
100
AcDbLine
 10
-14.08838834764846
 20
3.963388347648335
 30
0.0
 11
-14.06250000000014
 21
3.98325317547307
 31
0.0
  0
LINE
  5
1D6
330
1F
100
AcDbEntity
  8
0
 62
   178
420
        0
100
AcDbLine
 10
-14.06250000000014
 20
3.98325317547307
 30
0.0
 11
-14.03235238063796
 21
3.995740728286149
 31
0.0
  0
LINE
  5
1D7
330
1F
100
AcDbEntity
  8
0
 62
   178
420
        0
100
AcDbLine
 10
-13.46764761936232
 20
3.995740728286149
 30
0.0
 11
-13.43750000000014
 21
3.98325317547307
 31
0.0
  0
LINE
  5
1D8
330
1F
100
AcDbEntity
  8
0
 62
   178
420
        0
100
AcDbLine
 10
-13.43750000000014
 20
3.98325317547307
 30
0.0
 11
-13.41161165235182
 21
3.963388347648335
 31
0.0
  0
LINE
  5
1D9
330
1F
100
AcDbEntity
  8
0
 62
   178
420
        0
100
AcDbLine
 10
-13.41161165235182
 20
3.963388347648335
 30
0.0
 11
-13.39174682452709
 21
3.937500000000016
 31
0.0
  0
LINE
  5
1DA
330
1F
100
AcDbEntity
  8
0
 62
   178
420
        0
100
AcDbLine
 10
-13.39174682452709
 20
3.937500000000016
 30
0.0
 11
-13.37925927171401
 21
3.907352380637832
 31
0.0
  0
LINE
  5
1DB
330
1F
100
AcDbEntity
  8
0
 62
   178
420
        0
100
AcDbLine
 10
-13.37925927171401
 20
3.907352380637832
 30
0.0
 11
-13.37500000000014
 21
3.875000000000016
 31
0.0
  0
LINE
  5
1DC
330
1F
100
AcDbEntity
  8
0
 62
   178
420
        0
100
AcDbLine
 10
-13.37500000000014
 20
3.875000000000016
 30
0.0
 11
-13.37925927171401
 21
3.8426476193622
 31
0.0
  0
LINE
  5
1DD
330
1F
100
AcDbEntity
  8
0
 62
   178
420
        0
100
AcDbLine
 10
-13.37925927171401
 20
3.8426476193622
 30
0.0
 11
-13.39174682452709
 21
3.812500000000016
 31
0.0
  0
LINE
  5
1DE
330
1F
100
AcDbEntity
  8
0
 62
   178
420
        0
100
AcDbLine
 10
-13.39174682452709
 20
3.812500000000016
 30
0.0
 11
-13.41161165235182
 21
3.786611652351697
 31
0.0
  0
LINE
  5
1DF
330
1F
100
AcDbEntity
  8
0
 62
   178
420
        0
100
AcDbLine
 10
-13.43750000000014
 20
3.766746824526962
 30
0.0
 11
-13.46764761936232
 21
3.754259271713883
 31
0.0
  0
LINE
  5
1E0
330
1F
100
AcDbEntity
  8
0
 62
   178
420
        0
100
AcDbLine
 10
-13.46764761936232
 20
3.754259271713883
 30
0.0
 11
-13.50000000000014
 21
3.750000000000016
 31
0.0
  0
ENDSEC
  0
SECTION
  2
OBJECTS
  0
DICTIONARY
  5
C
330
0
100
AcDbDictionary
281
     1
  3
ACAD_GROUP
350
D
  3
ACAD_LAYOUT
350
1A
  3
ACAD_MATERIAL
350
3B
  3
ACAD_MLEADERSTYLE
350
1E2
  3
ACAD_MLINESTYLE
350
17
  3
ACAD_PLOTSETTINGS
350
19
  3
ACAD_PLOTSTYLENAME
350
E
  3
ACAD_TABLESTYLE
350
1E1
  3
ACAD_VISUALSTYLE
350
2A
  0
DICTIONARY
  5
D
102
{ACAD_REACTORS
330
C
102
}
330
C
100
AcDbDictionary
281
     1
  0
DICTIONARY
  5
1A
102
{ACAD_REACTORS
330
C
102
}
330
C
100
AcDbDictionary
281
     1
  3
Layout1
350
1E
  3
Layout2
350
26
  3
Model
350
22
  0
DICTIONARY
  5
3B
102
{ACAD_REACTORS
330
C
102
}
330
C
100
AcDbDictionary
281
     1
  3
ByBlock
350
3D
  3
ByLayer
350
3C
  3
Global
350
3E
  0
DICTIONARY
  5
1E2
102
{ACAD_REACTORS
330
C
102
}
330
C
100
AcDbDictionary
281
     1
  0
DICTIONARY
  5
17
102
{ACAD_REACTORS
330
C
102
}
330
C
100
AcDbDictionary
281
     1
  3
Standard
350
18
  0
DICTIONARY
  5
19
102
{ACAD_REACTORS
330
C
102
}
330
C
100
AcDbDictionary
281
     1
  0
ACDBDICTIONARYWDFLT
  5
E
102
{ACAD_REACTORS
330
C
102
}
330
C
100
AcDbDictionary
281
     1
  3
Normal
350
F
100
AcDbDictionaryWithDefault
340
F
  0
DICTIONARY
  5
1E1
102
{ACAD_REACTORS
330
C
102
}
330
C
100
AcDbDictionary
281
     1
  0
DICTIONARY
  5
2A
102
{ACAD_REACTORS
330
C
102
}
330
C
100
AcDbDictionary
281
     1
  3
2dWireframe
350
2F
  3
3D Hidden
350
31
  3
3dWireframe
350
30
  3
Basic
350
32
  3
Brighten
350
36
  3
ColorChange
350
3A
  3
Conceptual
350
34
  3
Dim
350
35
  3
Facepattern
350
39
  3
Flat
350
2B
  3
FlatWithEdges
350
2C
  3
Gouraud
350
2D
  3
GouraudWithEdges
350
2E
  3
Linepattern
350
38
  3
Realistic
350
33
  3
Thicken
350
37
  0
LAYOUT
  5
1E
102
{ACAD_REACTORS
330
1A
102
}
330
1A
100
AcDbPlotSettings
  1

  2
none_device
  4

  6

 40
0.0
 41
0.0
 42
0.0
 43
0.0
 44
0.0
 45
0.0
 46
0.0
 47
0.0
 48
0.0
 49
0.0
140
0.0
141
0.0
142
1.0
143
1.0
 70
   688
 72
     0
 73
     0
 74
     5
  7

 75
    16
 76
     0
 77
     2
 78
   300
147
1.0
148
0.0
149
0.0
100
AcDbLayout
  1
Layout1
 70
     1
 71
     1
 10
0.0
 20
0.0
 11
12.0
 21
9.0
 12
0.0
 22
0.0
 32
0.0
 14
1.000000000000000E+20
 24
1.000000000000000E+20
 34
1.000000000000000E+20
 15
-1.000000000000000E+20
 25
-1.000000000000000E+20
 35
-1.000000000000000E+20
146
0.0
 13
0.0
 23
0.0
 33
0.0
 16
1.0
 26
0.0
 36
0.0
 17
0.0
 27
1.0
 37
0.0
 76
     0
330
1B
  0
LAYOUT
  5
26
102
{ACAD_REACTORS
330
1A
102
}
330
1A
100
AcDbPlotSettings
  1

  2
none_device
  4

  6

 40
0.0
 41
0.0
 42
0.0
 43
0.0
 44
0.0
 45
0.0
 46
0.0
 47
0.0
 48
0.0
 49
0.0
140
0.0
141
0.0
142
1.0
143
1.0
 70
   688
 72
     0
 73
     0
 74
     5
  7

 75
    16
 76
     0
 77
     2
 78
   300
147
1.0
148
0.0
149
0.0
100
AcDbLayout
  1
Layout2
 70
     1
 71
     2
 10
0.0
 20
0.0
 11
0.0
 21
0.0
 12
0.0
 22
0.0
 32
0.0
 14
0.0
 24
0.0
 34
0.0
 15
0.0
 25
0.0
 35
0.0
146
0.0
 13
0.0
 23
0.0
 33
0.0
 16
1.0
 26
0.0
 36
0.0
 17
0.0
 27
1.0
 37
0.0
 76
     0
330
23
  0
LAYOUT
  5
22
102
{ACAD_REACTORS
330
1A
102
}
330
1A
100
AcDbPlotSettings
  1

  2
none_device
  4

  6

 40
0.0
 41
0.0
 42
0.0
 43
0.0
 44
0.0
 45
0.0
 46
0.0
 47
0.0
 48
0.0
 49
0.0
140
0.0
141
0.0
142
1.0
143
1.0
 70
  1712
 72
     0
 73
     0
 74
     0
  7

 75
     0
 76
     0
 77
     2
 78
   300
147
1.0
148
0.0
149
0.0
100
AcDbLayout
  1
Model
 70
     1
 71
     0
 10
0.0
 20
0.0
 11
12.0
 21
9.0
 12
0.0
 22
0.0
 32
0.0
 14
1.000000000000000E+20
 24
1.000000000000000E+20
 34
1.000000000000000E+20
 15
-1.000000000000000E+20
 25
-1.000000000000000E+20
 35
-1.000000000000000E+20
146
0.0
 13
0.0
 23
0.0
 33
0.0
 16
1.0
 26
0.0
 36
0.0
 17
0.0
 27
1.0
 37
0.0
 76
     0
330
1F
331
29
  0
MATERIAL
  5
3D
102
{ACAD_REACTORS
330
3B
102
}
330
3B
100
AcDbMaterial
  1
ByBlock
 72
     1
 94
      127
  0
MATERIAL
  5
3C
102
{ACAD_REACTORS
330
3B
102
}
330
3B
100
AcDbMaterial
  1
ByLayer
 72
     1
 94
      127
  0
MATERIAL
  5
3E
102
{ACAD_REACTORS
330
3B
102
}
330
3B
100
AcDbMaterial
  1
Global
 72
     1
 94
      127
  0
MLINESTYLE
  5
18
102
{ACAD_REACTORS
330
17
102
}
330
17
100
AcDbMlineStyle
  2
Standard
 70
     0
  3

 62
   256
 51
90.0
 52
90.0
 71
     2
 49
0.5
 62
   256
  6
BYLAYER
 49
-0.5
 62
   256
  6
BYLAYER
  0
ACDBPLACEHOLDER
  5
F
102
{ACAD_REACTORS
330
E
102
}
330
E
  0
VISUALSTYLE
  5
2F
102
{ACAD_REACTORS
330
2A
102
}
330
2A
100
AcDbVisualStyle
  2
2dWireframe
 70
     4
177
     2
291
     0
 71
     0
176
     1
 72
     2
176
     1
 73
     0
176
     1
 90
        0
176
     1
 40
-0.6
176
     1
 41
-30.0
176
     1
 62
     5
 63
     7
421
 16777215
176
     1
 74
     1
176
     1
 91
        4
176
     1
 64
     7
176
     1
 65
   257
176
     1
 75
     1
176
     1
175
     1
176
     1
 42
1.0
176
     1
 92
        0
176
     1
 66
   257
176
     1
 43
1.0
176
     1
 76
     1
176
     1
 77
     6
176
     1
 78
     2
176
     1
 67
     7
176
     1
 79
     5
176
     1
170
     0
176
     1
171
     0
176
     1
290
     0
176
     1
 93
        1
176
     1
 44
0.0
176
     1
173
     0
176
     1
  0
VISUALSTYLE
  5
31
102
{ACAD_REACTORS
330
2A
102
}
330
2A
100
AcDbVisualStyle
  2
3D Hidden
 70
     6
177
     2
291
     0
 71
     1
176
     1
 72
     2
176
     1
 73
     2
176
     1
 90
        0
176
     1
 40
-0.6
176
     1
 41
-30.0
176
     1
 62
     5
 63
     7
421
 16777215
176
     1
 74
     2
176
     1
 91
        2
176
     1
 64
     7
176
     1
 65
   257
176
     1
 75
     2
176
     1
175
     1
176
     1
 42
40.0
176
     1
 92
        0
176
     1
 66
   257
176
     1
 43
1.0
176
     1
 76
     1
176
     1
 77
     6
176
     1
 78
     2
176
     1
 67
     7
176
     1
 79
     3
176
     1
170
     0
176
     1
171
     0
176
     1
290
     0
176
     1
 93
        1
176
     1
 44
0.0
176
     1
173
     0
176
     1
  0
VISUALSTYLE
  5
30
102
{ACAD_REACTORS
330
2A
102
}
330
2A
100
AcDbVisualStyle
  2
3dWireframe
 70
     5
177
     2
291
     0
 71
     0
176
     1
 72
     2
176
     1
 73
     0
176
     1
 90
        0
176
     1
 40
-0.6
176
     1
 41
-30.0
176
     1
 62
     5
 63
     7
421
 16777215
176
     1
 74
     1
176
     1
 91
        4
176
     1
 64
     7
176
     1
 65
   257
176
     1
 75
     1
176
     1
175
     1
176
     1
 42
1.0
176
     1
 92
        0
176
     1
 66
   257
176
     1
 43
1.0
176
     1
 76
     1
176
     1
 77
     6
176
     1
 78
     2
176
     1
 67
     7
176
     1
 79
     5
176
     1
170
     0
176
     1
171
     0
176
     1
290
     0
176
     1
 93
        1
176
     1
 44
0.0
176
     1
173
     0
176
     1
  0
VISUALSTYLE
  5
32
102
{ACAD_REACTORS
330
2A
102
}
330
2A
100
AcDbVisualStyle
  2
Basic
 70
     7
177
     2
291
     1
 71
     1
176
     1
 72
     0
176
     1
 73
     1
176
     1
 90
        0
176
     1
 40
-0.6
176
     1
 41
-30.0
176
     1
 62
     5
 63
     7
421
 16777215
176
     1
 74
     0
176
     1
 91
        4
176
     1
 64
     7
176
     1
 65
   257
176
     1
 75
     1
176
     1
175
     1
176
     1
 42
1.0
176
     1
 92
        8
176
     1
 66
     7
176
     1
 43
1.0
176
     1
 76
     1
176
     1
 77
     6
176
     1
 78
     2
176
     1
 67
     7
176
     1
 79
     5
176
     1
170
     0
176
     1
171
     0
176
     1
290
     0
176
     1
 93
        1
176
     1
 44
0.0
176
     1
173
     0
176
     1
  0
VISUALSTYLE
  5
36
102
{ACAD_REACTORS
330
2A
102
}
330
2A
100
AcDbVisualStyle
  2
Brighten
 70
    12
177
     2
291
     1
 71
     2
176
     1
 72
     2
176
     1
 73
     0
176
     1
 90
        0
176
     1
 40
-0.6
176
     1
 41
-30.0
176
     1
 62
     5
 63
     7
421
 16777215
176
     1
 74
     1
176
     1
 91
        4
176
     1
 64
     7
176
     1
 65
   257
176
     1
 75
     1
176
     1
175
     1
176
     1
 42
1.0
176
     1
 92
        8
176
     1
 66
     7
176
     1
 43
1.0
176
     1
 76
     1
176
     1
 77
     6
176
     1
 78
     2
176
     1
 67
     7
176
     1
 79
     5
176
     1
170
     0
176
     1
171
     0
176
     1
290
     0
176
     1
 93
        1
176
     1
 44
50.0
176
     1
173
     0
176
     1
  0
VISUALSTYLE
  5
3A
102
{ACAD_REACTORS
330
2A
102
}
330
2A
100
AcDbVisualStyle
  2
ColorChange
 70
    16
177
     2
291
     1
 71
     2
176
     1
 72
     2
176
     1
 73
     3
176
     1
 90
        0
176
     1
 40
-0.6
176
     1
 41
-30.0
176
     1
 62
     5
 63
     8
421
  8421504
176
     1
 74
     1
176
     1
 91
        4
176
     1
 64
     7
176
     1
 65
   257
176
     1
 75
     1
176
     1
175
     1
176
     1
 42
1.0
176
     1
 92
        8
176
     1
 66
     8
424
  8421504
176
     1
 43
1.0
176
     1
 76
     1
176
     1
 77
     6
176
     1
 78
     2
176
     1
 67
     7
176
     1
 79
     5
176
     1
170
     0
176
     1
171
     0
176
     1
290
     0
176
     1
 93
        1
176
     1
 44
0.0
176
     1
173
     0
176
     1
  0
VISUALSTYLE
  5
34
102
{ACAD_REACTORS
330
2A
102
}
330
2A
100
AcDbVisualStyle
  2
Conceptual
 70
     9
177
     2
291
     0
 71
     3
176
     1
 72
     2
176
     1
 73
     0
176
     1
 90
        0
176
     1
 40
-0.6
176
     1
 41
-30.0
176
     1
 62
     5
 63
     7
421
 16777215
176
     1
 74
     2
176
     1
 91
        2
176
     1
 64
     7
176
     1
 65
   257
176
     1
 75
     1
176
     1
175
     1
176
     1
 42
40.0
176
     1
 92
        8
176
     1
 66
     7
176
     1
 43
1.0
176
     1
 76
     1
176
     1
 77
     6
176
     1
 78
     2
176
     1
 67
     7
176
     1
 79
     3
176
     1
170
     0
176
     1
171
     0
176
     1
290
     0
176
     1
 93
        1
176
     1
 44
0.0
176
     1
173
     0
176
     1
  0
VISUALSTYLE
  5
35
102
{ACAD_REACTORS
330
2A
102
}
330
2A
100
AcDbVisualStyle
  2
Dim
 70
    11
177
     2
291
     1
 71
     2
176
     1
 72
     2
176
     1
 73
     0
176
     1
 90
        0
176
     1
 40
-0.6
176
     1
 41
-30.0
176
     1
 62
     5
 63
     7
421
 16777215
176
     1
 74
     1
176
     1
 91
        4
176
     1
 64
     7
176
     1
 65
   257
176
     1
 75
     1
176
     1
175
     1
176
     1
 42
1.0
176
     1
 92
        8
176
     1
 66
     7
176
     1
 43
1.0
176
     1
 76
     1
176
     1
 77
     6
176
     1
 78
     2
176
     1
 67
     7
176
     1
 79
     5
176
     1
170
     0
176
     1
171
     0
176
     1
290
     0
176
     1
 93
        1
176
     1
 44
-50.0
176
     1
173
     0
176
     1
  0
VISUALSTYLE
  5
39
102
{ACAD_REACTORS
330
2A
102
}
330
2A
100
AcDbVisualStyle
  2
Facepattern
 70
    15
177
     2
291
     1
 71
     2
176
     1
 72
     2
176
     1
 73
     0
176
     1
 90
        0
176
     1
 40
-0.6
176
     1
 41
-30.0
176
     1
 62
     5
 63
     7
421
 16777215
176
     1
 74
     1
176
     1
 91
        4
176
     1
 64
     7
176
     1
 65
   257
176
     1
 75
     1
176
     1
175
     1
176
     1
 42
1.0
176
     1
 92
        8
176
     1
 66
     7
176
     1
 43
1.0
176
     1
 76
     1
176
     1
 77
     6
176
     1
 78
     2
176
     1
 67
     7
176
     1
 79
     5
176
     1
170
     0
176
     1
171
     0
176
     1
290
     0
176
     1
 93
        1
176
     1
 44
0.0
176
     1
173
     0
176
     1
  0
VISUALSTYLE
  5
2B
102
{ACAD_REACTORS
330
2A
102
}
330
2A
100
AcDbVisualStyle
  2
Flat
 70
     0
177
     2
291
     1
 71
     2
176
     1
 72
     1
176
     1
 73
     1
176
     1
 90
        2
176
     1
 40
-0.6
176
     1
 41
30.0
176
     1
 62
     5
 63
     7
421
 16777215
176
     1
 74
     0
176
     1
 91
        4
176
     1
 64
     7
176
     1
 65
   257
176
     1
 75
     1
176
     1
175
     1
176
     1
 42
1.0
176
     1
 92
        8
176
     1
 66
     7
176
     1
 43
1.0
176
     1
 76
     1
176
     1
 77
     6
176
     1
 78
     2
176
     1
 67
     7
176
     1
 79
     5
176
     1
170
     0
176
     1
171
     0
176
     1
290
     0
176
     1
 93
       13
176
     1
 44
0.0
176
     1
173
     0
176
     1
  0
VISUALSTYLE
  5
2C
102
{ACAD_REACTORS
330
2A
102
}
330
2A
100
AcDbVisualStyle
  2
FlatWithEdges
 70
     1
177
     2
291
     1
 71
     2
176
     1
 72
     1
176
     1
 73
     1
176
     1
 90
        2
176
     1
 40
-0.6
176
     1
 41
30.0
176
     1
 62
     5
 63
     7
421
 16777215
176
     1
 74
     1
176
     1
 91
        4
176
     1
 64
     7
176
     1
 65
   257
176
     1
 75
     1
176
     1
175
     1
176
     1
 42
1.0
176
     1
 92
        0
176
     1
 66
   257
176
     1
 43
1.0
176
     1
 76
     1
176
     1
 77
     6
176
     1
 78
     2
176
     1
 67
     7
176
     1
 79
     5
176
     1
170
     0
176
     1
171
     0
176
     1
290
     0
176
     1
 93
       13
176
     1
 44
0.0
176
     1
173
     0
176
     1
  0
VISUALSTYLE
  5
2D
102
{ACAD_REACTORS
330
2A
102
}
330
2A
100
AcDbVisualStyle
  2
Gouraud
 70
     2
177
     2
291
     1
 71
     2
176
     1
 72
     2
176
     1
 73
     1
176
     1
 90
        2
176
     1
 40
-0.6
176
     1
 41
30.0
176
     1
 62
     5
 63
     7
421
 16777215
176
     1
 74
     0
176
     1
 91
        4
176
     1
 64
     7
176
     1
 65
   257
176
     1
 75
     1
176
     1
175
     1
176
     1
 42
1.0
176
     1
 92
        0
176
     1
 66
     7
176
     1
 43
1.0
176
     1
 76
     1
176
     1
 77
     6
176
     1
 78
     2
176
     1
 67
     7
176
     1
 79
     5
176
     1
170
     0
176
     1
171
     0
176
     1
290
     0
176
     1
 93
       13
176
     1
 44
0.0
176
     1
173
     0
176
     1
  0
VISUALSTYLE
  5
2E
102
{ACAD_REACTORS
330
2A
102
}
330
2A
100
AcDbVisualStyle
  2
GouraudWithEdges
 70
     3
177
     2
291
     1
 71
     2
176
     1
 72
     2
176
     1
 73
     1
176
     1
 90
        2
176
     1
 40
-0.6
176
     1
 41
30.0
176
     1
 62
     5
 63
     7
421
 16777215
176
     1
 74
     1
176
     1
 91
        4
176
     1
 64
     7
176
     1
 65
   257
176
     1
 75
     1
176
     1
175
     1
176
     1
 42
1.0
176
     1
 92
        0
176
     1
 66
   257
176
     1
 43
1.0
176
     1
 76
     1
176
     1
 77
     6
176
     1
 78
     2
176
     1
 67
     7
176
     1
 79
     5
176
     1
170
     0
176
     1
171
     0
176
     1
290
     0
176
     1
 93
       13
176
     1
 44
0.0
176
     1
173
     0
176
     1
  0
VISUALSTYLE
  5
38
102
{ACAD_REACTORS
330
2A
102
}
330
2A
100
AcDbVisualStyle
  2
Linepattern
 70
    14
177
     2
291
     1
 71
     2
176
     1
 72
     2
176
     1
 73
     0
176
     1
 90
        0
176
     1
 40
-0.6
176
     1
 41
-30.0
176
     1
 62
     5
 63
     7
421
 16777215
176
     1
 74
     1
176
     1
 91
        4
176
     1
 64
     7
176
     1
 65
   257
176
     1
 75
     7
176
     1
175
     7
176
     1
 42
1.0
176
     1
 92
        8
176
     1
 66
     7
176
     1
 43
1.0
176
     1
 76
     1
176
     1
 77
     6
176
     1
 78
     2
176
     1
 67
     7
176
     1
 79
     5
176
     1
170
     0
176
     1
171
     0
176
     1
290
     0
176
     1
 93
        1
176
     1
 44
0.0
176
     1
173
     0
176
     1
  0
VISUALSTYLE
  5
33
102
{ACAD_REACTORS
330
2A
102
}
330
2A
100
AcDbVisualStyle
  2
Realistic
 70
     8
177
     2
291
     0
 71
     2
176
     1
 72
     2
176
     1
 73
     0
176
     1
 90
        0
176
     1
 40
-0.6
176
     1
 41
-30.0
176
     1
 62
     5
 63
     7
421
 16777215
176
     1
 74
     1
176
     1
 91
        0
176
     1
 64
     7
176
     1
 65
   257
176
     1
 75
     1
176
     1
175
     1
176
     1
 42
1.0
176
     1
 92
        8
176
     1
 66
     8
424
  7895160
176
     1
 43
1.0
176
     1
 76
     1
176
     1
 77
     6
176
     1
 78
     2
176
     1
 67
     7
176
     1
 79
     5
176
     1
170
     0
176
     1
171
     0
176
     1
290
     0
176
     1
 93
       13
176
     1
 44
0.0
176
     1
173
     0
176
     1
  0
VISUALSTYLE
  5
37
102
{ACAD_REACTORS
330
2A
102
}
330
2A
100
AcDbVisualStyle
  2
Thicken
 70
    13
177
     2
291
     1
 71
     2
176
     1
 72
     2
176
     1
 73
     0
176
     1
 90
        0
176
     1
 40
-0.6
176
     1
 41
-30.0
176
     1
 62
     5
 63
     7
421
 16777215
176
     1
 74
     1
176
     1
 91
        4
176
     1
 64
     7
176
     1
 65
   257
176
     1
 75
     1
176
     1
175
     1
176
     1
 42
1.0
176
     1
 92
       12
176
     1
 66
     7
176
     1
 43
1.0
176
     1
 76
     1
176
     1
 77
     6
176
     1
 78
     2
176
     1
 67
     7
176
     1
 79
     5
176
     1
170
     0
176
     1
171
     0
176
     1
290
     0
176
     1
 93
        1
176
     1
 44
0.0
176
     1
173
     0
176
     1
  0
ENDSEC
  0
EOF

1
     0
 71
     0
176
     1
 72
     2
176
     1
 73
     0
176
     1
 90
        0
176
     1
 40
-0.6
176
     1
 41
-30.0
176
     1
 62
     5
 63
     7
421
 16777215
176
     1
 74
     1
176
     1
 91
        4
176
     1
 64
     7
176
     1
 65
   257
176
     1
 75
     1
176
     1
175
     1
176
     1
 42
1.0
176
     1
 92
        0
176
     1
 66
   257
176
     1
 43
1.0
176
     1
 76
     1
176
     1
 77
     6
176
     1
 78
     2
176
     1
 67
     7
176
     1
 79
     5
176
     1
170
     0
176
     1
171
     0
176
     1
290
     0
176
     1
 93
        1
176
     1
 44
0.0
176
     1
173
     0
176
     1
  0
VISUALSTYLE
  5
32
102
{ACAD_REACTORS
330
2A
102
}
330
2A
100
AcDbVisualStyle
  2
Basic
 70
     7
177
     2
291
     1
 71
     1
176
     1
 72
     0
176
     1
 73
     1
176
     1
 90
        0
176
     1
 40
-0.6
176
     1
 41
-30.0
176
     1
 62
     5
 63
     7
421
 16777215
176
     1
 74
     0
176
     1
 91
        4
176
     1
 64
     7
176
     1
 65
   257
176
     1
 75
     1
176
     1
175
     1
176
     1
 42
1.0
176
     1
 92
        8
176
     1
 66
     7
176
     1
 43
1.0
176
     1
 76
     1
176
     1
 77
     6
176
     1
 78
     2
176
     1
 67
     7
176
     1
 79
     5
176
     1
170
     0
176
     1
171
     0
176
     1
290
     0
176
     1
 93
        1
176
     1
 44
0.0
176
     1
173
     0
176
     1
  0
VISUALSTYLE
  5
36
102
{ACAD_REACTORS
330
2A
102
}
330
2A
100
AcDbVisualStyle
  2
Brighten
 70
    12
177
     2
291
     1
 71
     2
176
     1
 72
     2
176
     1
 73
     0
176
     1
 90
        0
176
     1
 40
-0.6
176
     1
 41
-30.0
176
     1
 62
     5
 63
     7
421
 16777215
176
     1
 74
     1
176
     1
 91
        4
176
     1
 64
     7
176
     1
 65
   257
176
     1
 75
     1
176
     1
175
     1
176
     1
 42
1.0
176
     1
 92
        8
176
     1
 66
     7
176
     1
 43
1.0
176
     1
 76
     1
176
     1
 77
     6
176
     1
 78
     2
176
     1
 67
     7
176
     1
 79
     5
176
     1
170
     0
176
     1
171
     0
176
     1
290
     0
176
     1
 93
        1
176
     1
 44
50.0
176
     1
173
     0
176
     1
  0
VISUALSTYLE
  5
3A
102
{ACAD_REACTORS
330
2A
102
}
330
2A
100
AcDbVisualStyle
  2
ColorChange
 70
    16
177
     2
291
     1
 71
     2
176
     1
 72
     2
176
     1
 73
     3
176
     1
 90
        0
176
     1
 40
-0.6
176
     1
 41
-30.0
176
     1
 62
     5
 63
     8
421
  8421504
176
     1
 74
     1
176
     1
 91
        4
176
     1
 64
     7
176
     1
 65
   257
176
     1
 75
     1
176
     1
175
     1
176
     1
 42
1.0
176
     1
 92
        8
176
     1
 66
     8
424
  8421504
176
     1
 43
1.0
176
     1
 76
     1
176
     1
 77
     6
176
     1
 78
     2
176
     1
 67
     7
176
     1
 79
     5
176
     1
170
     0
176
     1
171
     0
176
     1
290
     0
176
     1
 93
        1
176
     1
 44
0.0
176
     1
173
     0
176
     1
  0
VISUALSTYLE
  5
34
102
{ACAD_REACTORS
330
2A
102
}
330
2A
100
AcDbVisualStyle
  2
Conceptual
 70
     9
177
     2
291
     0
 71
     3
176
     1
 72
     2
176
     1
 73
     0
176
     1
 90
        0
176
     1
 40
-0.6
176
     1
 41
-30.0
176
     1
 62
     5
 63
     7
421
 16777215
176
     1
 74
     2
176
     1
 91
        2
176
     1
 64
     7
176
     1
 65
   257
176
     1
 75
     1
176
     1
175
     1
176
     1
 42
40.0
176
     1
 92
        8
176
     1
 66
     7
176
     1
 43
1.0
176
     1
 76
     1
176
     1
 77
     6
176
     1
 78
     2
176
     1
 67
     7
176
     1
 79
     3
176
     1
170
     0
176
     1
171
     0
176
     1
290
     0
176
     1
 93
        1
176
     1
 44
0.0
176
     1
173
     0
176
     1
  0
VISUALSTYLE
  5
35
102
{ACAD_REACTORS
330
2A
102
}
330
2A
100
AcDbVisualStyle
  2
Dim
 70
    11
177
     2
291
     1
 71
     2
176
     1
 72
     2
176
     1
 73
     0
176
     1
 90
        0
176
     1
 40
-0.6
176
     1
 41
-30.0
176
     1
 62
     5
 63
     7
421
 16777215
176
     1
 74
     1
176
     1
 91
        4
176
     1
 64
     7
176
     1
 65
   257
176
     1
 75
     1
176
     1
175
     1
176
     1
 42
1.0
176
     1
 92
        8
176
     1
 66
     7
176
     1
 43
1.0
176
     1
 76
     1
176
     1
 77
     6
176
     1
 78
     2
176
     1
 67
     7
176
     1
 79
     5
176
     1
170
     0
176
     1
171
     0
176
     1
290
     0
176
     1
 93
        1
176
     1
 44
-50.0
176
     1
173
     0
176
     1
  0
VISUALSTYLE
  5
39
102
{ACAD_REACTORS
330
2A
102
}
330
2A
100
AcDbVisualStyle
  2
Facepattern
 70
    15
177
     2
291
     1
 71
     2
176
     1
 72
     2
176
     1
 73
     0
176
     1
 90
        0
176
     1
 40
-0.6
176
     1
 41
-30.0
176
     1
 62
     5
 63
     7
421
 16777215
176
     1
 74
     1
176
     1
 91
        4
176
     1
 64
     7
176
     1
 65
   257
176
     1
 75
     1
176
     1
175
     1
176
     1
 42
1.0
176
     1
 92
        8
176
     1
 66
     7
176
     1
 43
1.0
176
     1
 76
     1
176
     1
 77
     6
176
     1
 78
     2
176
     1
 67
     7
176
     1
 79
     5
176
     1
170
     0
176
     1
171
     0
176
     1
290
     0
176
     1
 93
        1
176
     1
 44
0.0
176
     1
173
     0
176
     1
  0
VISUALSTYLE
  5
2B
102
{ACAD_REACTORS
330
2A
102
}
330
2A
100
AcDbVisualStyle
  2
Flat
 70
     0
177
     2
291
     1
 71
     2
176
     1
 72
     1
176
     1
 73
     1
176
     1
 90
        2
176
     1
 40
-0.6
176
     1
 41
30.0
176
     1
 62
     5
 63
     7
421
 16777215
176
     1
 74
     0
176
     1
 91
        4
176
     1
 64
     7
176
     1
 65
   257
176
     1
 75
     1
176
     1
175
     1
176
     1
 42
1.0
176
     1
 92
        8
176
     1
 66
     7
176
     1
 43
1.0
176
     1
 76
     1
176
     1
 77
     6
176
     1
 78
     2
176
     1
 67
     7
176
     1
 79
     5
176
     1
170
     0
176
     1
171
     0
176
     1
290
     0
176
     1
 93
       13
176
     1
 44
0.0
176
     1
173
     0
176
     1
  0
VISUALSTYLE
  5
2C
102
{ACAD_REACTORS
330
2A
102
}
330
2A
100
AcDbVisualStyle
  2
FlatWithEdges
 70
     1
177
     2
291
     1
 71
     2
176
     1
 72
     1
176
     1
 73
     1
176
     1
 90
        2
176
     1
 40
-0.6
176
     1
 41
30.0
176
     1
 62
     5
 63
     7
421
 16777215
176
     1
 74
     1
176
     1
 91
        4
176
     1
 64
     7
176
     1
 65
   257
176
     1
 75
     1
176
     1
175
     1
176
     1
 42
1.0
176
     1
 92
        0
176
     1
 66
   257
176
     1
 43
1.0
176
     1
 76
     1
176
     1
 77
     6
176
     1
 78
     2
176
     1
 67
     7
176
     1
 79
     5
176
     1
170
     0
176
     1
171
     0
176
     1
290
     0
176
     1
 93
       13
176
     1
 44
0.0
176
     1
173
     0
176
     1
  0
VISUALSTYLE
  5
2D
102
{ACAD_REACTORS
330
2A
102
}
330
2A
100
AcDbVisualStyle
  2
Gouraud
 70
     2
177
     2
291
     1
 71
     2
176
     1
 72
     2
176
     1
 73
     1
176
     1
 90
        2
176
     1
 40
-0.6
176
     1
 41
30.0
176
     1
 62
     5
 63
     7
421
 16777215
176
     1
 74
     0
176
     1
 91
        4
176
     1
 64
     7
176
     1
 65
   257
176
     1
 75
     1
176
     1
175
     1
176
     1
 42
1.0
176
     1
 92
        0
176
     1
 66
     7
176
     1
 43
1.0
176
     1
 76
     1
176
     1
 77
     6
176
     1
 78
     2
176
     1
 67
     7
176
     1
 79
     5
176
     1
170
     0
176
     1
171
     0
176
     1
290
     0
176
     1
 93
       13
176
     1
 44
0.0
176
     1
173
     0
176
     1
  0
VISUALSTYLE
  5
2E
102
{ACAD_REACTORS
330
2A
102
}
330
2A
100
AcDbVisualStyle
  2
GouraudWithEdges
 70
     3
177
     2
291
     1
 71
     2
176
     1
 72
     2
176
     1
 73
     1
176
     1
 90
        2
176
     1
 40
-0.6
176
     1
 41
30.0
176
     1
 62
     5
 63
     7
421
 16777215
176
     1
 74
     1
176
     1
 91
        4
176
     1
 64
     7
176
     1
 65
   257
176
     1
 75
     1
176
     1
175
     1
176
     1
 42
1.0
176
     1
 92
        0
176
     1
 66
   257
176
     1
 43
1.0
176
     1
 76
     1
176
     1
 77
     6
176
     1
 78
     2
176
     1
 67
     7
176
     1
 79
     5
176
     1
170
     0
176
     1
171
     0
176
     1
290
     0
176
     1
 93
       13
176
     1
 44
0.0
176
     1
173
     0
176
     1
  0
VISUALSTYLE
  5
38
102
{ACAD_REACTORS
330
2A
102
}
330
2A
100
AcDbVisualStyle
  2
Linepattern
 70
    14
177
     2
291
     1
 71
     2
176
     1
 72
     2
176
     1
 73
     0
176
     1
 90
        0
176
     1
 40
-0.6
176
     1
 41
-30.0
176
     1
 62
     5
 63
     7
421
 16777215
176
     1
 74
     1
176
     1
 91
        4
176
     1
 64
     7
176
     1
 65
   257
176
     1
 75
     7
176
     1
175
     7
176
     1
 42
1.0
176
     1
 92
        8
176
     1
 66
     7
176
     1
 43
1.0
176
     1
 76
     1
176
     1
 77
     6
176
     1
 78
     2
176
     1
 67
     7
176
     1
 79
     5
176
     1
170
     0
176
     1
171
     0
176
     1
290
     0
176
     1
 93
        1
176
     1
 44
0.0
176
     1
173
     0
176
     1
  0
VISUALSTYLE
  5
33
102
{ACAD_REACTORS
330
2A
102
}
330
2A
100
AcDbVisualStyle
  2
Realistic
 70
     8
177
     2
291
     0
 71
     2
176
     1
 72
     2
176
     1
 73
     0
176
     1
 90
        0
176
     1
 40
-0.6
176
     1
 41
-30.0
176
     1
 62
     5
 63
     7
421
 16777215
176
     1
 74
     1
176
     1
 91
        0
176
     1
 64
     7
176
     1
 65
   257
176
     1
 75
     1
176
     1
175
     1
176
     1
 42
1.0
176
     1
 92
        8
176
     1
 66
     8
424
  7895160
176
     1
 43
1.0
176
     1
 76
     1
176
     1
 77
     6
176
     1
 78
     2
176
     1
 67
     7
176
     1
 79
     5
176
     1
170
     0
176
     1
171
     0
176
     1
290
     0
176
     1
 93
       13
176
     1
 44
0.0
176
     1
173
     0
176
     1
  0
VISUALSTYLE
  5
37
102
{ACAD_REACTORS
330
2A
102
}
330
2A
100
AcDbVisualStyle
  2
Thicken
 70
    13
177
     2
291
     1
 71
     2
176
     1
 72
     2
176
     1
 73
     0
176
     1
 90
        0
176
     1
 40
-0.6
176
     1
 41
-30.0
176
     1
 62
     5
 63
     7
421
 16777215
176
     1
 74
     1
176
     1
 91
        4
176
     1
 64
     7
176
     1
 65
   257
176
     1
 75
     1
176
     1
175
     1
176
     1
 42
1.0
176
     1
 92
       12
176
     1
 66
     7
176
     1
 43
1.0
176
     1
 76
     1
176
     1
 77
     6
176
     1
 78
     2
176
     1
 67
     7
176
     1
 79
     5
176
     1
170
     0
176
     1
171
     0
176
     1
290
     0
176
     1
 93
        1
176
     1
 44
0.0
176
     1
173
     0
176
     1
  0
DICTIONARYVAR
  5
227
102
{ACAD_REACTORS
330
226
102
}
330
226
100
DictionaryVariables
280
     0
  1
1:1
  0
ENDSEC
  0
EOF
