  0
SECTION
  2
HEADER
  9
$ACADVER
  1
AC1015
  9
$ACADMAINTVER
 70
     6
  9
$DWGCODEPAGE
  3
ANSI_1252
  9
$INSBASE
 10
0.0
 20
0.0
 30
0.0
  9
$EXTMIN
 10
0.0
 20
0.0
 30
0.0
  9
$EXTMAX
 10
2388.351074
 20
580.679993
 30
2.0
  9
$LIMMIN
 10
0.0
 20
0.0
  9
$LIMMAX
 10
420.0
 20
297.0
  9
$ORTHOMODE
 70
     0
  9
$REGENMODE
 70
     1
  9
$FILLMODE
 70
     1
  9
$QTEXTMODE
 70
     0
  9
$MIRRTEXT
 70
     1
  9
$LTSCALE
 40
1.0
  9
$ATTMODE
 70
     1
  9
$TEXTSIZE
 40
2.5
  9
$TRACEWID
 40
1.0
  9
$TEXTSTYLE
  7
Standard
  9
$CLAYER
  8
0
  9
$CELTYPE
  6
ByLayer
  9
$CECOLOR
 62
   256
  9
$CELTSCALE
 40
1.0
  9
$DISPSILH
 70
     0
  9
$DIMSCALE
 40
1.0
  9
$DIMASZ
 40
2.5
  9
$DIMEXO
 40
0.625
  9
$DIMDLI
 40
3.75
  9
$DIMRND
 40
0.0
  9
$DIMDLE
 40
0.0
  9
$DIMEXE
 40
1.25
  9
$DIMTP
 40
0.0
  9
$DIMTM
 40
0.0
  9
$DIMTXT
 40
2.5
  9
$DIMCEN
 40
2.5
  9
$DIMTSZ
 40
0.0
  9
$DIMTOL
 70
     0
  9
$DIMLIM
 70
     0
  9
$DIMTIH
 70
     0
  9
$DIMTOH
 70
     0
  9
$DIMSE1
 70
     0
  9
$DIMSE2
 70
     0
  9
$DIMTAD
 70
     1
  9
$DIMZIN
 70
     8
  9
$DIMBLK
  1

  9
$DIMASO
 70
     1
  9
$DIMSHO
 70
     1
  9
$DIMPOST
  1

  9
$DIMAPOST
  1

  9
$DIMALT
 70
     0
  9
$DIMALTD
 70
     3
  9
$DIMALTF
 40
0.03937
  9
$DIMLFAC
 40
1.0
  9
$DIMTOFL
 70
     1
  9
$DIMTVP
 40
0.0
  9
$DIMTIX
 70
     0
  9
$DIMSOXD
 70
     0
  9
$DIMSAH
 70
     0
  9
$DIMBLK1
  1

  9
$DIMBLK2
  1

  9
$DIMSTYLE
  2

  9
$DIMCLRD
 70
     0
  9
$DIMCLRE
 70
     0
  9
$DIMCLRT
 70
     0
  9
$DIMTFAC
 40
1.0
  9
$DIMGAP
 40
0.625
  9
$DIMJUST
 70
     0
  9
$DIMSD1
 70
     0
  9
$DIMSD2
 70
     0
  9
$DIMTOLJ
 70
     0
  9
$DIMTZIN
 70
     8
  9
$DIMALTZ
 70
     0
  9
$DIMALTTZ
 70
     0
  9
$DIMUPT
 70
     0
  9
$DIMDEC
 70
     2
  9
$DIMTDEC
 70
     2
  9
$DIMALTU
 70
     2
  9
$DIMALTTD
 70
     3
  9
$DIMTXSTY
  7
Standard
  9
$DIMAUNIT
 70
     0
  9
$DIMADEC
 70
     0
  9
$DIMALTRND
 40
0.0
  9
$DIMAZIN
 70
     0
  9
$DIMDSEP
 70
    44
  9
$DIMATFIT
 70
     0
  9
$DIMFRAC
 70
     0
  9
$DIMLDRBLK
  1

  9
$DIMLUNIT
 70
     2
  9
$DIMLWD
 70
    -2
  9
$DIMLWE
 70
    -2
  9
$DIMTMOVE
 70
     0
  9
$LUNITS
 70
     2
  9
$LUPREC
 70
     4
  9
$SKETCHINC
 40
1.0
  9
$FILLETRAD
 40
2.5
  9
$AUNITS
 70
     0
  9
$AUPREC
 70
     0
  9
$MENU
  1
.
  9
$ELEVATION
 40
0.0
  9
$PELEVATION
 40
0.0
  9
$THICKNESS
 40
0.0
  9
$LIMCHECK
 70
     0
  9
$CHAMFERA
 40
2.5
  9
$CHAMFERB
 40
2.5
  9
$CHAMFERC
 40
0.0
  9
$CHAMFERD
 40
0.0
  9
$SKPOLY
 70
     0
  9
$TDCREATE
 40
0.000000000
  9
$TDUCREATE
 40
0.000000000
  9
$TDUPDATE
 40
0.000000000
  9
$TDUUPDATE
 40
0.000000000
  9
$TDINDWG
 40
0.0000000000
  9
$TDUSRTIMER
 40
0.0000000000
  9
$USRTIMER
 70
     1
  9
$ANGBASE
 50
0.0
  9
$ANGDIR
 70
     0
  9
$PDMODE
 70
     0
  9
$PDSIZE
 40
0.0
  9
$PLINEWID
 40
0.0
  9
$SPLFRAME
 70
     0
  9
$SPLINETYPE
 70
     6
  9
$SPLINESEGS
 70
     8
  9
$HANDSEED
  5
106
  9
$SURFTAB1
 70
     6
  9
$SURFTAB2
 70
     6
  9
$SURFTYPE
 70
     6
  9
$SURFU
 70
     6
  9
$SURFV
 70
     6
  9
$UCSBASE
  2

  9
$UCSNAME
  2

  9
$UCSORG
 10
0.0
 20
0.0
 30
0.0
  9
$UCSXDIR
 10
1.0
 20
0.0
 30
0.0
  9
$UCSYDIR
 10
0.0
 20
1.0
 30
0.0
  9
$UCSORTHOREF
  2

  9
$UCSORTHOVIEW
 70
     1
  9
$UCSORGTOP
 10
0.0
 20
0.0
 30
0.0
  9
$UCSORGBOTTOM
 10
0.0
 20
0.0
 30
0.0
  9
$UCSORGLEFT
 10
0.0
 20
0.0
 30
0.0
  9
$UCSORGRIGHT
 10
0.0
 20
0.0
 30
0.0
  9
$UCSORGFRONT
 10
0.0
 20
0.0
 30
0.0
  9
$UCSORGBACK
 10
0.0
 20
0.0
 30
0.0
  9
$PUCSBASE
  2

  9
$PUCSNAME
  2

  9
$PUCSORG
 10
0.0
 20
0.0
 30
0.0
  9
$PUCSXDIR
 10
1.0
 20
0.0
 30
0.0
  9
$PUCSYDIR
 10
0.0
 20
1.0
 30
0.0
  9
$PUCSORTHOREF
  2

  9
$PUCSORTHOVIEW
 70
     0
  9
$PUCSORGTOP
 10
0.0
 20
0.0
 30
0.0
  9
$PUCSORGBOTTOM
 10
0.0
 20
0.0
 30
0.0
  9
$PUCSORGLEFT
 10
0.0
 20
0.0
 30
0.0
  9
$PUCSORGRIGHT
 10
0.0
 20
0.0
 30
0.0
  9
$PUCSORGFRONT
 10
0.0
 20
0.0
 30
0.0
  9
$PUCSORGBACK
 10
0.0
 20
0.0
 30
0.0
  9
$USERI1
 70
     0
  9
$USERI2
 70
     0
  9
$USERI3
 70
     0
  9
$USERI4
 70
     0
  9
$USERI5
 70
     0
  9
$USERR1
 40
0.0
  9
$USERR2
 40
0.0
  9
$USERR3
 40
0.0
  9
$USERR4
 40
0.0
  9
$USERR5
 40
0.0
  9
$WORLDVIEW
 70
     1
  9
$SHADEDGE
 70
     3
  9
$SHADEDIF
 70
    70
  9
$TILEMODE
 70
     1
  9
$MAXACTVP
 70
    48
  9
$PINSBASE
 10
0.0
 20
0.0
 30
0.0
  9
$PLIMCHECK
 70
     0
  9
$PEXTMIN
 10
0.0
 20
0.0
 30
0.0
  9
$PEXTMAX
 10
2388.351074
 20
580.679993
 30
2.0
  9
$PLIMMIN
 10
0.0
 20
0.0
  9
$PLIMMAX
 10
420.0
 20
297.0
  9
$UNITMODE
 70
     0
  9
$VISRETAIN
 70
     0
  9
$PLINEGEN
 70
     0
  9
$PSLTSCALE
 70
     1
  9
$TREEDEPTH
 70
  3020
  9
$CMLSTYLE
  2
Standard
  9
$CMLJUST
 70
     0
  9
$CMLSCALE
 40
20.0
  9
$PROXYGRAPHICS
 70
     1
  9
$MEASUREMENT
 70
     1
  9
$CELWEIGHT
370
    -1
  9
$ENDCAPS
280
     0
  9
$JOINSTYLE
280
     0
  9
$LWDISPLAY
290
     0
  9
$INSUNITS
 70
     0
  9
$HYPERLINKBASE
  1

  9
$STYLESHEET
  1

  9
$XEDIT
290
     1
  9
$CEPSNTYPE
380
     0
  9
$PSTYLEMODE
290
     0
  9
$FINGERPRINTGUID
  2

  9
$VERSIONGUID
  2

  9
$EXTNAMES
290
     0
  9
$PSVPSCALE
 40
0.0
  0
ENDSEC
  0
SECTION
  2
CLASSES
  0
CLASS
  1
LWPOLYLINE
  2
AcDbPolyline
  3
AutoCAD 2000
 90
        0
280
     0
281
     1
  0
CLASS
  1
IMAGE
  2
AcDbRasterImage
  3
ISM
 90
      127
280
     0
281
     1
  0
CLASS
  1
OLE2FRAME
  2
AcDbOle2Frame
  3
AutoCAD 2000
 90
        0
280
     0
281
     1
  0
CLASS
  1
HATCH
  2
AcDbHatch
  3
AutoCAD 2000
 90
        0
280
     0
281
     1
  0
CLASS
  1
DICTIONARYVAR
  2
AcDbDictionaryVar
  3
AutoCAD 2000
 90
        0
280
     0
281
     0
  0
CLASS
  1
RASTERVARIABLES
  2
AcDbRasterVariables
  3
ISM
 90
        0
280
     0
281
     0
  0
CLASS
  1
IMAGEDEF
  2
AcDbRasterImageDef
  3
ISM
 90
        0
280
     0
281
     0
  0
CLASS
  1
IMAGEDEF_REACTOR
  2
AcDbRasterImageDefReactor
  3
ISM
 90
        1
280
     0
281
     0
  0
CLASS
  1
IDBUFFER
  2
AcDbIdBuffer
  3
AutoCAD 2000
 90
        0
280
     0
281
     0
  0
CLASS
  1
SPATIAL_FILTER
  2
AcDbSpatialFilter
  3
AutoCAD 2000
 90
        0
280
     0
281
     0
  0
CLASS
  1
XRECORD
  2
AcDbXrecord
  3
AutoCAD 2000
 90
        0
280
     0
281
     0
  0
CLASS
  1
SORTENTSTABLE
  2
AcDbSortentsTable
  3
AutoCAD 2000
 90
        0
280
     0
281
     0
  0
CLASS
  1
LAYER_INDEX
  2
AcDbLayerIndex
  3
AutoCAD 2000
 90
        0
280
     0
281
     0
  0
CLASS
  1
SPATIAL_INDEX
  2
AcDbSpatialIndex
  3
AutoCAD 2000
 90
        0
280
     0
281
     0
  0
CLASS
  1
OBJECT_PTR
  2
CAseDLPNTableRecord
  3
\"ASE-LPNTableRecord\"
 90
        1
280
     0
281
     0
  0
CLASS
  1
LAYOUT
  2
AcDbLayout
  3
AutoCAD 2000
 90
        0
280
     0
281
     0
  0
CLASS
  1
PLOTSETTINGS
  2
AcDbPlotSettings
  3
AutoCAD 2000
 90
        0
280
     0
281
     0
  0
CLASS
  1
ACDBDICTIONARYWDFLT
  2
AcDbDictionaryWithDefault
  3
AutoCAD 2000
 90
        0
280
     0
281
     0
  0
CLASS
  1
ACDBPLACEHOLDER
  2
AcDbPlaceHolder
  3
AutoCAD 2000
 90
        0
280
     0
281
     0
  0
CLASS
  1
VBA_PROJECT
  2
AcDbVbaProject
  3
acadvba
 90
        0
280
     0
281
     0
  0
CLASS
  1
WIPEOUT
  2
AcDbWipeout
  3
WipeOut|AutoCAD Express Tool|expresstools@autodesk.com
 90
      127
280
     0
281
     1
  0
CLASS
  1
WIPEOUTVARIABLES
  2
AcDbWipeoutVariables
  3
WipeOut|AutoCAD Express Tool|expresstools@autodesk.com
 90
        0
280
     0
281
     0
  0
CLASS
  1
RTEXT
  2
RText
  3
RText|AutoCAD Express Tool|expresstools@autodesk.com
 90
        0
280
     0
281
     1
  0
CLASS
  1
ARCALIGNEDTEXT
  2
AcDbArcAlignedText
  3
ATEXT|AutoCAD Express Tool|expresstools@autodesk.com
 90
        0
280
     0
281
     1
  0
ENDSEC
  0
SECTION
  2
TABLES
  0
TABLE
  2
VPORT
  5
7
100
AcDbSymbolTable
 70
     1
  0
VPORT
  5
15
100
AcDbSymbolTableRecord
100
AcDbViewportTableRecord
  2
*ACTIVE
 70
     0
 10
0.0
 20
0.0
 11
1.0
 21
1.0
 12
6.591288
 22
4.579184
 13
0.0
 23
0.0
 14
1.0
 24
1.0
 15
0.0
 25
0.0
 16
0.0
 26
0.0
 36
1.0
 17
0.0
 27
0.0
 37
0.0
 40
9.158369
 41
0.688564
 42
50.0
 43
0.0
 44
0.0
 50
0.0
 51
0.0
 71
     0
 72
   100
 73
     1
 74
     1
 75
     0
 76
     0
 77
     0
 78
     0
281
     0
 65
     0
110
0.0
120
0.0
130
0.0
111
1.0
121
0.0
131
0.0
112
0.0
122
1.0
132
0.0
345
0
346
0
 79
     0
146
0.0
  0
ENDTAB
  0
TABLE
  2
LTYPE
  5
4
100
AcDbSymbolTable
 70
     3
  0
LTYPE
  5
11
100
AcDbSymbolTableRecord
100
AcDbLinetypeTableRecord
  2
ByBlock
 70
    64
  3

 72
    65
 73
     0
 40
0.0
  0
LTYPE
  5
12
100
AcDbSymbolTableRecord
100
AcDbLinetypeTableRecord
  2
ByLayer
 70
    64
  3

 72
    65
 73
     0
 40
0.0
  0
LTYPE
  5
13
100
AcDbSymbolTableRecord
100
AcDbLinetypeTableRecord
  2
Continuous
 70
    64
  3
Solid line
 72
    65
 73
     0
 40
0.0
  0
ENDTAB
  0
TABLE
  2
LAYER
  5
2
100
AcDbSymbolTable
 70
     1
  0
LAYER
  5
14
100
AcDbSymbolTableRecord
100
AcDbLayerTableRecord
  2
0
 70
     0
 62
     7
  6
Continuous
290
     1
370
    -3
390
1D
  0
ENDTAB
  0
TABLE
  2
STYLE
  5
3
100
AcDbSymbolTable
 70
     1
  0
STYLE
  5
17
100
AcDbSymbolTableRecord
100
AcDbTextStyleTableRecord
  2
Standard
 70
     0
 40
0.0
 41
1.0
 50
0.0
 71
     0
 42
0.0
  3
txt
  4

  0
ENDTAB
  0
TABLE
  2
VIEW
  5
5
100
AcDbSymbolTable
 70
     0
  0
ENDTAB
  0
TABLE
  2
UCS
  5
6
100
AcDbSymbolTable
 70
     0
  0
ENDTAB
  0
TABLE
  2
APPID
  5
8
100
AcDbSymbolTable
 70
     1
  0
APPID
  5
16
100
AcDbSymbolTableRecord
100
AcDbRegAppTableRecord
  2
ACAD
 70
     0
  0
ENDTAB
  0
TABLE
  2
DIMSTYLE
  5
9
100
AcDbSymbolTable
 70
     1
100
AcDbDimStyleTable
 71
     0
  0
DIMSTYLE
105
18
100
AcDbSymbolTableRecord
100
AcDbDimStyleTableRecord
  2
Standard
 70
     0
  3

  4

 40
1.0
 41
0.18
 42
0.0625
 43
0.38
 44
0.18
 45
0.0
 46
0.0
 47
0.0
 48
0.0
 71
     0
 72
     0
 73
     1
 74
     1
 75
     0
 76
     0
 77
     0
 78
     0
 79
     0
140
0.18
141
0.09
142
0.0
143
25.4
144
1.0
145
0.0
146
1.0
147
0.09
148
0.0
170
     0
171
     2
172
     0
173
     0
174
     0
175
     0
176
     0
177
     0
178
     0
179
     0
271
     4
272
     4
273
     2
274
     2
275
     0
276
     0
277
     2
278
    46
279
     0
280
     0
281
     0
282
     0
283
     1
284
     0
285
     0
286
     0
288
     0
289
     3
340
17
341
0
342
0
343
0
344
0
371
    -2
372
    -2
  0
ENDTAB
  0
TABLE
  2
BLOCK_RECORD
  5
1
100
AcDbSymbolTable
 70
     0
  0
BLOCK_RECORD
  5
A
100
AcDbSymbolTableRecord
100
AcDbBlockTableRecord
  2
*MODEL_SPACE
340
20
  0
BLOCK_RECORD
  5
B
100
AcDbSymbolTableRecord
100
AcDbBlockTableRecord
  2
*PAPER_SPACE
340
21
  0
ENDTAB
  0
ENDSEC
  0
SECTION
  2
BLOCKS
  0
BLOCK
  5
D
100
AcDbEntity
  8
0
390
0
100
AcDbBlockBegin
  2
*MODEL_SPACE
 70
     0
 10
0.0
 20
0.0
 30
0.0
  3
*MODEL_SPACE
  1

  0
ENDBLK
  5
E
100
AcDbEntity
  8
0
390
0
100
AcDbBlockEnd
  0
BLOCK
  5
F
100
AcDbEntity
 67
     1
  8
0
390
0
100
AcDbBlockBegin
  2
*PAPER_SPACE
 70
     0
 10
0.0
 20
0.0
 30
0.0
  3
*PAPER_SPACE
  1

  0
ENDBLK
  5
10
100
AcDbEntity
 67
     1
  8
0
390
0
100
AcDbBlockEnd
  0
ENDSEC
  0
SECTION
  2
ENTITIES
  0
VIEWPORT
  5
105
100
AcDbEntity
 67
     1
  8
0
370
     0
390
0
 62
     0
 48
0.0
100
AcDbViewport
 10
0.0
 20
0.0
 30
0.0
 40
1000.0
 41
1000.0
 68
     1
 69
     1
 12
0.0
 22
0.0
 13
0.0
 23
0.0
 14
1.0
 24
1.0
 15
1.0
 25
1.0
 16
0.0
 26
0.0
 36
1.0
 17
0.0
 27
0.0
 37
0.0
 42
50.0
 43
0.0
 44
0.0
 45
1000.0
 50
0.0
 51
0.0
 72
   100
 90
        0
340
0
  1

281
     0
 71
     0
 74
     1
110
0.0
120
0.0
130
0.0
111
1.0
121
0.0
131
0.0
112
0.0
122
1.0
132
0.0
345
0
346
0
 79
     0
146
0.0
  0
LINE
  5
24
100
AcDbEntity
  8
0
370
    35
390
0
 62
     7
 48
0.001947
100
AcDbLine
 10
2218.702148
 20
138.682068
 30
0.0
 11
2218.624268
 21
138.682373
 31
0.0
210
0.0
220
0.0
230
1.0
  0
LINE
  5
25
100
AcDbEntity
  8
0
370
    35
390
0
 62
     7
100
AcDbLine
 10
1531.69397
 20
116.449631
 30
0.0
 11
1627.036621
 21
89.314331
 31
0.0
210
0.0
220
0.0
230
1.0
  0
ARC
  5
26
100
AcDbEntity
  8
0
370
    35
390
0
 62
     7
100
AcDbCircle
 10
2023.171265
 20
-200.412964
 30
0.0
 40
44.38564
210
0.0
220
0.0
230
1.0
100
AcDbArc
 50
180.000005
 51
256.844862
  0
LINE
  5
27
100
AcDbEntity
  8
0
370
    35
390
0
 62
     7
100
AcDbLine
 10
1978.785645
 20
-200.412964
 30
0.0
 11
1978.785645
 21
11.117706
 31
0.0
210
0.0
220
0.0
230
1.0
  0
ARC
  5
28
100
AcDbEntity
  8
0
370
    35
390
0
 62
     7
100
AcDbCircle
 10
2025.66687
 20
11.117706
 30
0.0
 40
46.881257
210
0.0
220
0.0
230
1.0
100
AcDbArc
 50
98.532364
 51
180.000005
  0
ELLIPSE
  5
29
100
AcDbEntity
  8
0
370
    35
390
0
 62
     7
100
AcDbEllipse
 10
2287.18457
 20
-338.931763
 30
0.0
 11
10.0059814453125
 21
-1.1926116943359375
 31
0.0
210
0.0
220
0.0
230
1.0
 40
0.992386
 41
4.7129354637836398
 42
6.4319335920925145
  0
LINE
  5
2A
100
AcDbEntity
  8
0
370
    35
390
0
 62
     7
100
AcDbLine
 10
2288.800781
 20
-308.078217
 30
0.0
 11
2013.06958
 21
-243.633804
 31
0.0
210
0.0
220
0.0
230
1.0
  0
LINE
  5
2B
100
AcDbEntity
  8
0
370
    35
390
0
 62
     7
100
AcDbLine
 10
2297.255615
 20
-338.639648
 30
0.0
 11
2296.596191
 21
-317.540924
 31
0.0
210
0.0
220
0.0
230
1.0
  0
ELLIPSE
  5
2C
100
AcDbEntity
  8
0
370
    35
390
0
 62
     7
100
AcDbEllipse
 10
2286.524658
 20
-317.815948
 30
0.0
 11
9.8177490234375
 21
-2.2865829467773437
 31
0.0
210
0.0
220
0.0
230
1.0
 40
0.992032
 41
0.2580907751762108
 42
1.5700098198904322
  0
LINE
  5
2D
100
AcDbEntity
  8
0
370
    35
390
0
 62
     7
100
AcDbLine
 10
2274.768555
 20
95.895966
 30
0.0
 11
2018.711182
 21
57.480087
 31
0.0
210
0.0
220
0.0
230
1.0
  0
ELLIPSE
  5
2E
100
AcDbEntity
  8
0
370
    35
390
0
 62
     7
100
AcDbEllipse
 10
2273.284668
 20
105.785355
 30
0.0
 11
9.9652099609375
 21
1.4911270141601563
 31
0.0
210
0.0
220
0.0
230
1.0
 40
0.992452
 41
4.7127793703076453
 42
6.1667753083728059
  0
LINE
  5
2F
100
AcDbEntity
  8
0
370
    35
390
0
 62
     7
100
AcDbLine
 10
2283.354248
 20
106.117691
 30
0.0
 11
2282.639404
 21
128.992462
 31
0.0
210
0.0
220
0.0
230
1.0
  0
ELLIPSE
  5
30
100
AcDbEntity
  8
0
370
    35
390
0
 62
     7
100
AcDbEllipse
 10
2272.569092
 20
128.682434
 30
0.0
 11
10.0750732421875
 21
-0.0030136108398438
 31
0.0
210
0.0
220
0.0
230
1.0
 40
0.992545
 41
0.031309398693357
 42
1.5710976602310092
  0
LINE
  5
31
100
AcDbEntity
  8
0
370
    35
390
0
 62
     7
 48
0.305819
100
AcDbLine
 10
1531.69397
 20
128.682373
 30
0.0
 11
1531.69397
 21
116.449631
 31
0.0
210
0.0
220
0.0
230
1.0
  0
LINE
  5
32
100
AcDbEntity
  8
0
370
    35
390
0
 62
     7
100
AcDbLine
 10
1541.69397
 20
138.682373
 30
0.0
 11
2272.569092
 21
138.682373
 31
0.0
210
0.0
220
0.0
230
1.0
  0
ARC
  5
33
100
AcDbEntity
  8
0
370
    35
390
0
 62
     7
100
AcDbCircle
 10
1541.69397
 20
128.682373
 30
0.0
 40
10.0
210
0.0
220
0.0
230
1.0
100
AcDbArc
 50
90.000003
 51
180.000005
  0
LINE
  5
34
100
AcDbEntity
  8
0
370
    35
390
0
 62
     7
100
AcDbLine
 10
1862.886841
 20
61.485764
 30
0.0
 11
1627.036621
 21
89.314331
 31
0.0
210
0.0
220
0.0
230
1.0
  0
LINE
  5
35
100
AcDbEntity
  8
0
370
    35
390
0
 62
     7
100
AcDbLine
 10
1911.429321
 20
-304.421478
 30
0.0
 11
2286.006592
 21
-348.862244
 31
0.0
210
0.0
220
0.0
230
1.0
  0
ARC
  5
36
100
AcDbEntity
  8
0
370
    35
390
0
 62
     7
100
AcDbCircle
 10
1913.785645
 20
-284.56076
 30
0.0
 40
20.0
210
0.0
220
0.0
230
1.0
100
AcDbArc
 50
180.000005
 51
263.233916
  0
LINE
  5
37
100
AcDbEntity
  8
0
370
    35
390
0
 62
     7
100
AcDbLine
 10
1893.785645
 20
-260.291077
 30
0.0
 11
1893.785645
 21
-131.791061
 31
0.0
210
0.0
220
0.0
230
1.0
  0
LINE
  5
38
100
AcDbEntity
  8
0
370
    35
390
0
 62
     7
 48
0.156742
100
AcDbLine
 10
1893.785645
 20
-284.56076
 30
0.0
 11
1893.785645
 21
-278.291077
 31
0.0
210
0.0
220
0.0
230
1.0
  0
LINE
  5
39
100
AcDbEntity
  8
0
370
    35
390
0
 62
     7
100
AcDbLine
 10
1893.785645
 20
-113.791061
 30
0.0
 11
1893.785645
 21
14.708939
 31
0.0
210
0.0
220
0.0
230
1.0
  0
ARC
  5
3A
100
AcDbEntity
  8
0
370
    35
390
0
 62
     7
100
AcDbCircle
 10
1858.785645
 20
26.726898
 30
0.0
 40
35.0
210
0.0
220
0.0
230
1.0
100
AcDbArc
 50
9.841058
 51
83.270641
  0
LINE
  5
3B
100
AcDbEntity
  8
0
370
    35
390
0
 62
     7
 48
0.45
100
AcDbLine
 10
1931.805176
 20
32.708939
 30
0.0
 11
1931.805176
 21
14.708939
 31
0.0
210
0.0
220
0.0
230
1.0
  0
LINE
  5
3C
100
AcDbEntity
  8
0
370
    35
390
0
 62
     7
100
AcDbLine
 10
1893.785645
 20
14.708939
 30
0.0
 11
1931.805176
 21
14.708939
 31
0.0
210
0.0
220
0.0
230
1.0
  0
LINE
  5
3D
100
AcDbEntity
  8
0
370
    35
390
0
 62
     7
100
AcDbLine
 10
1893.27063
 20
32.708939
 30
0.0
 11
1931.805176
 21
32.708939
 31
0.0
210
0.0
220
0.0
230
1.0
  0
LINE
  5
3E
100
AcDbEntity
  8
0
370
    35
390
0
 62
     7
 48
0.45
100
AcDbLine
 10
1931.805176
 20
-113.791061
 30
0.0
 11
1931.805176
 21
-131.791061
 31
0.0
210
0.0
220
0.0
230
1.0
  0
LINE
  5
3F
100
AcDbEntity
  8
0
370
    35
390
0
 62
     7
100
AcDbLine
 10
1893.785645
 20
-113.791061
 30
0.0
 11
1931.805176
 21
-113.791061
 31
0.0
210
0.0
220
0.0
230
1.0
  0
LINE
  5
40
100
AcDbEntity
  8
0
370
    35
390
0
 62
     7
100
AcDbLine
 10
1893.785645
 20
-131.791061
 30
0.0
 11
1931.805176
 21
-131.791061
 31
0.0
210
0.0
220
0.0
230
1.0
  0
LINE
  5
41
100
AcDbEntity
  8
0
370
    35
390
0
 62
     7
 48
0.45
100
AcDbLine
 10
1931.805176
 20
-278.291077
 30
0.0
 11
1931.805176
 21
-260.291077
 31
0.0
210
0.0
220
0.0
230
1.0
  0
LINE
  5
42
100
AcDbEntity
  8
0
370
    35
390
0
 62
     7
100
AcDbLine
 10
1893.785645
 20
-278.291077
 30
0.0
 11
1931.805176
 21
-278.291077
 31
0.0
210
0.0
220
0.0
230
1.0
  0
LINE
  5
43
100
AcDbEntity
  8
0
370
    35
390
0
 62
     7
100
AcDbLine
 10
1893.785645
 20
-260.291077
 30
0.0
 11
1931.805176
 21
-260.291077
 31
0.0
210
0.0
220
0.0
230
1.0
  0
LINE
  5
44
100
AcDbEntity
  8
0
370
    35
390
0
 62
     7
 48
0.001947
100
AcDbLine
 10
1550.172363
 20
-401.433472
 30
0.0
 11
1550.250244
 21
-401.433777
 31
0.0
210
0.0
220
0.0
230
1.0
  0
LINE
  5
45
100
AcDbEntity
  8
0
370
    35
390
0
 62
     7
100
AcDbLine
 10
2237.18042
 20
-379.20105
 30
0.0
 11
2141.837891
 21
-352.065735
 31
0.0
210
0.0
220
0.0
230
1.0
  0
ARC
  5
46
100
AcDbEntity
  8
0
370
    35
390
0
 62
     7
100
AcDbCircle
 10
1745.703247
 20
-62.338463
 30
0.0
 40
44.38564
210
0.0
220
0.0
230
1.0
100
AcDbArc
 50
360.0
 51
76.84486
  0
LINE
  5
47
100
AcDbEntity
  8
0
370
    35
390
0
 62
     7
100
AcDbLine
 10
1790.088867
 20
-62.338463
 30
0.0
 11
1790.088867
 21
-273.869141
 31
0.0
210
0.0
220
0.0
230
1.0
  0
ARC
  5
48
100
AcDbEntity
  8
0
370
    35
390
0
 62
     7
100
AcDbCircle
 10
1743.207642
 20
-273.869141
 30
0.0
 40
46.881257
210
0.0
220
0.0
230
1.0
100
AcDbArc
 50
278.532359
 51
360.0
  0
ELLIPSE
  5
49
100
AcDbEntity
  8
0
370
    35
390
0
 62
     7
100
AcDbEllipse
 10
1481.689819
 20
76.180359
 30
0.0
 11
10.0059814453125
 21
-1.1926116943359375
 31
0.0
210
0.0
220
0.0
230
1.0
 40
0.992386
 41
1.5713428101984024
 42
3.2903409385071671
  0
LINE
  5
4A
100
AcDbEntity
  8
0
370
    35
390
0
 62
     7
100
AcDbLine
 10
1480.073853
 20
45.326797
 30
0.0
 11
1755.804932
 21
-19.117615
 31
0.0
210
0.0
220
0.0
230
1.0
  0
LINE
  5
4B
100
AcDbEntity
  8
0
370
    35
390
0
 62
     7
100
AcDbLine
 10
1471.618896
 20
75.888214
 30
0.0
 11
1472.27832
 21
54.789505
 31
0.0
210
0.0
220
0.0
230
1.0
  0
ELLIPSE
  5
4C
100
AcDbEntity
  8
0
370
    35
390
0
 62
     7
100
AcDbEllipse
 10
1482.349854
 20
55.064529
 30
0.0
 11
9.8177490234375
 21
-2.2865753173828125
 31
0.0
210
0.0
220
0.0
230
1.0
 40
0.992032
 41
3.3996834287330637
 42
4.7116024734466775
  0
LINE
  5
4D
100
AcDbEntity
  8
0
370
    35
390
0
 62
     7
100
AcDbLine
 10
1494.106079
 20
-358.6474
 30
0.0
 11
1750.16333
 21
-320.231506
 31
0.0
210
0.0
220
0.0
230
1.0
  0
ELLIPSE
  5
4E
100
AcDbEntity
  8
0
370
    35
390
0
 62
     7
100
AcDbEllipse
 10
1495.589844
 20
-368.536774
 30
0.0
 11
9.9652099609375
 21
1.4911346435546875
 31
0.0
210
0.0
220
0.0
230
1.0
 40
0.992452
 41
1.5711867167303395
 42
3.0251826547951364
  0
LINE
  5
4F
100
AcDbEntity
  8
0
370
    35
390
0
 62
     7
100
AcDbLine
 10
1485.520264
 20
-368.86911
 30
0.0
 11
1486.235229
 21
-391.743896
 31
0.0
210
0.0
220
0.0
230
1.0
  0
ELLIPSE
  5
50
100
AcDbEntity
  8
0
370
    35
390
0
 62
     7
100
AcDbEllipse
 10
1496.30542
 20
-391.433838
 30
0.0
 11
10.0750732421875
 21
-0.003021240234375
 31
0.0
210
0.0
220
0.0
230
1.0
 40
0.992545
 41
3.1729020522979181
 42
4.7126903138359317
  0
LINE
  5
51
100
AcDbEntity
  8
0
370
    35
390
0
 62
     7
 48
0.305818
100
AcDbLine
 10
2237.18042
 20
-391.433777
 30
0.0
 11
2237.18042
 21
-379.20105
 31
0.0
210
0.0
220
0.0
230
1.0
  0
LINE
  5
52
100
AcDbEntity
  8
0
370
    35
390
0
 62
     7
100
AcDbLine
 10
2227.18042
 20
-401.433777
 30
0.0
 11
1496.30542
 21
-401.433777
 31
0.0
210
0.0
220
0.0
230
1.0
  0
ARC
  5
53
100
AcDbEntity
  8
0
370
    35
390
0
 62
     7
100
AcDbCircle
 10
2227.18042
 20
-391.433777
 30
0.0
 40
10.0
210
0.0
220
0.0
230
1.0
100
AcDbArc
 50
269.999997
 51
360.0
  0
LINE
  5
54
100
AcDbEntity
  8
0
370
    35
390
0
 62
     7
100
AcDbLine
 10
1905.987671
 20
-324.237183
 30
0.0
 11
2141.837891
 21
-352.065735
 31
0.0
210
0.0
220
0.0
230
1.0
  0
LINE
  5
55
100
AcDbEntity
  8
0
370
    35
390
0
 62
     7
100
AcDbLine
 10
1857.44519
 20
41.670059
 30
0.0
 11
1482.86792
 21
86.11084
 31
0.0
210
0.0
220
0.0
230
1.0
  0
ARC
  5
56
100
AcDbEntity
  8
0
370
    35
390
0
 62
     7
100
AcDbCircle
 10
1855.088867
 20
21.809341
 30
0.0
 40
20.0
210
0.0
220
0.0
230
1.0
100
AcDbArc
 50
0.0
 51
83.233915
  0
LINE
  5
57
100
AcDbEntity
  8
0
370
    35
390
0
 62
     7
100
AcDbLine
 10
1875.088867
 20
-2.460358
 30
0.0
 11
1875.088867
 21
-130.960358
 31
0.0
210
0.0
220
0.0
230
1.0
  0
LINE
  5
58
100
AcDbEntity
  8
0
370
    35
390
0
 62
     7
 48
0.156742
100
AcDbLine
 10
1875.088867
 20
21.809341
 30
0.0
 11
1875.088867
 21
15.539642
 31
0.0
210
0.0
220
0.0
230
1.0
  0
LINE
  5
59
100
AcDbEntity
  8
0
370
    35
390
0
 62
     7
100
AcDbLine
 10
1875.088867
 20
-148.960358
 30
0.0
 11
1875.088867
 21
-277.460358
 31
0.0
210
0.0
220
0.0
230
1.0
  0
ARC
  5
5A
100
AcDbEntity
  8
0
370
    35
390
0
 62
     7
100
AcDbCircle
 10
1910.088867
 20
-289.478333
 30
0.0
 40
35.0
210
0.0
220
0.0
230
1.0
100
AcDbArc
 50
189.841054
 51
263.270642
  0
LINE
  5
5B
100
AcDbEntity
  8
0
370
    35
390
0
 62
     7
 48
0.45
100
AcDbLine
 10
1837.069336
 20
-295.460358
 30
0.0
 11
1837.069336
 21
-277.460358
 31
0.0
210
0.0
220
0.0
230
1.0
  0
LINE
  5
5C
100
AcDbEntity
  8
0
370
    35
390
0
 62
     7
100
AcDbLine
 10
1875.088867
 20
-277.460358
 30
0.0
 11
1837.069336
 21
-277.460358
 31
0.0
210
0.0
220
0.0
230
1.0
  0
LINE
  5
5D
100
AcDbEntity
  8
0
370
    35
390
0
 62
     7
100
AcDbLine
 10
1875.603882
 20
-295.460358
 30
0.0
 11
1837.069336
 21
-295.460358
 31
0.0
210
0.0
220
0.0
230
1.0
  0
LINE
  5
5E
100
AcDbEntity
  8
0
370
    35
390
0
 62
     7
 48
0.45
100
AcDbLine
 10
1837.069336
 20
-148.960358
 30
0.0
 11
1837.069336
 21
-130.960358
 31
0.0
210
0.0
220
0.0
230
1.0
  0
LINE
  5
5F
100
AcDbEntity
  8
0
370
    35
390
0
 62
     7
100
AcDbLine
 10
1875.088867
 20
-148.960358
 30
0.0
 11
1837.069336
 21
-148.960358
 31
0.0
210
0.0
220
0.0
230
1.0
  0
LINE
  5
60
100
AcDbEntity
  8
0
370
    35
390
0
 62
     7
100
AcDbLine
 10
1875.088867
 20
-130.960358
 30
0.0
 11
1837.069336
 21
-130.960358
 31
0.0
210
0.0
220
0.0
230
1.0
  0
LINE
  5
61
100
AcDbEntity
  8
0
370
    35
390
0
 62
     7
 48
0.45
100
AcDbLine
 10
1837.069336
 20
15.539642
 30
0.0
 11
1837.069336
 21
-2.460358
 31
0.0
210
0.0
220
0.0
230
1.0
  0
LINE
  5
62
100
AcDbEntity
  8
0
370
    35
390
0
 62
     7
100
AcDbLine
 10
1875.088867
 20
15.539642
 30
0.0
 11
1837.069336
 21
15.539642
 31
0.0
210
0.0
220
0.0
230
1.0
  0
LINE
  5
63
100
AcDbEntity
  8
0
370
    35
390
0
 62
     7
100
AcDbLine
 10
1875.088867
 20
-2.460358
 30
0.0
 11
1837.069336
 21
-2.460358
 31
0.0
210
0.0
220
0.0
230
1.0
  0
LINE
  5
64
100
AcDbEntity
  8
0
370
    35
390
0
 62
     7
100
AcDbLine
 10
2155.621094
 20
540.761475
 30
0.0
 11
2193.958252
 21
536.054321
 31
0.0
210
0.0
220
0.0
230
1.0
  0
LINE
  5
65
100
AcDbEntity
  8
0
370
    35
390
0
 62
     7
 48
0.012462
100
AcDbLine
 10
2155.621094
 20
540.761475
 30
0.0
 11
2155.560303
 21
540.266724
 31
0.0
210
0.0
220
0.0
230
1.0
  0
ARC
  5
66
100
AcDbEntity
  8
0
370
    35
390
0
 62
     7
100
AcDbCircle
 10
2175.411377
 20
537.829346
 30
0.0
 40
20.0
210
0.0
220
0.0
230
1.0
100
AcDbArc
 50
173.000004
 51
256.158127
  0
ARC
  5
67
100
AcDbEntity
  8
0
370
    35
390
0
 62
     7
100
AcDbCircle
 10
2158.664307
 20
469.862183
 30
0.0
 40
50.0
210
0.0
220
0.0
230
1.0
100
AcDbArc
 50
360.0
 51
76.158126
  0
LINE
  5
68
100
AcDbEntity
  8
0
370
    35
390
0
 62
     7
100
AcDbLine
 10
2208.664307
 20
365.058716
 30
0.0
 11
2208.664307
 21
469.862183
 31
0.0
210
0.0
220
0.0
230
1.0
  0
LINE
  5
69
100
AcDbEntity
  8
0
370
    35
390
0
 62
     7
100
AcDbLine
 10
2208.664307
 20
365.058716
 30
0.0
 11
2208.664307
 21
260.255249
 31
0.0
210
0.0
220
0.0
230
1.0
  0
ARC
  5
6A
100
AcDbEntity
  8
0
370
    35
390
0
 62
     7
100
AcDbCircle
 10
2158.664307
 20
260.255249
 30
0.0
 40
50.0
210
0.0
220
0.0
230
1.0
100
AcDbArc
 50
283.841874
 51
360.0
  0
ARC
  5
6B
100
AcDbEntity
  8
0
370
    35
390
0
 62
     7
100
AcDbCircle
 10
2175.411377
 20
192.288086
 30
0.0
 40
20.0
210
0.0
220
0.0
230
1.0
100
AcDbArc
 50
103.841873
 51
186.999996
  0
LINE
  5
6C
100
AcDbEntity
  8
0
370
    35
390
0
 62
     7
 48
0.012462
100
AcDbLine
 10
2155.621094
 20
189.355927
 30
0.0
 11
2155.560303
 21
189.850693
 31
0.0
210
0.0
220
0.0
230
1.0
  0
LINE
  5
6D
100
AcDbEntity
  8
0
370
    35
390
0
 62
     7
100
AcDbLine
 10
2155.621094
 20
189.355927
 30
0.0
 11
2193.958252
 21
194.06311
 31
0.0
210
0.0
220
0.0
230
1.0
  0
LINE
  5
6E
100
AcDbEntity
  8
0
370
    35
390
0
 62
     7
 48
0.45
100
AcDbLine
 10
2193.958252
 20
194.06311
 30
0.0
 11
2196.151855
 21
176.197281
 31
0.0
210
0.0
220
0.0
230
1.0
  0
LINE
  5
6F
100
AcDbEntity
  8
0
370
    35
390
0
 62
     7
100
AcDbLine
 10
2196.151855
 20
176.197281
 30
0.0
 11
2157.814697
 21
171.490097
 31
0.0
210
0.0
220
0.0
230
1.0
  0
ARC
  5
70
100
AcDbEntity
  8
0
370
    35
390
0
 62
     7
100
AcDbCircle
 10
2177.665771
 20
173.927475
 30
0.0
 40
20.0
210
0.0
220
0.0
230
1.0
100
AcDbArc
 50
186.999996
 51
276.999999
  0
LINE
  5
71
100
AcDbEntity
  8
0
370
    35
390
0
 62
     7
100
AcDbLine
 10
2224.148438
 20
159.484634
 30
0.0
 11
2180.103027
 21
154.076553
 31
0.0
210
0.0
220
0.0
230
1.0
  0
ARC
  5
72
100
AcDbEntity
  8
0
370
    35
390
0
 62
     7
100
AcDbCircle
 10
2218.664307
 20
204.149216
 30
0.0
 40
45.0
210
0.0
220
0.0
230
1.0
100
AcDbArc
 50
276.999999
 51
360.0
  0
LINE
  5
73
100
AcDbEntity
  8
0
370
    35
390
0
 62
     7
100
AcDbLine
 10
2263.664307
 20
204.149216
 30
0.0
 11
2263.664307
 21
365.058716
 31
0.0
210
0.0
220
0.0
230
1.0
  0
LINE
  5
74
100
AcDbEntity
  8
0
370
    35
390
0
 62
     7
100
AcDbLine
 10
2263.664307
 20
525.968201
 30
0.0
 11
2263.664307
 21
365.058716
 31
0.0
210
0.0
220
0.0
230
1.0
  0
ARC
  5
75
100
AcDbEntity
  8
0
370
    35
390
0
 62
     7
100
AcDbCircle
 10
2218.664307
 20
525.968201
 30
0.0
 40
45.0
210
0.0
220
0.0
230
1.0
100
AcDbArc
 50
0.0
 51
83.000001
  0
LINE
  5
76
100
AcDbEntity
  8
0
370
    35
390
0
 62
     7
100
AcDbLine
 10
2224.148438
 20
570.632813
 30
0.0
 11
2180.103027
 21
576.040894
 31
0.0
210
0.0
220
0.0
230
1.0
  0
ARC
  5
77
100
AcDbEntity
  8
0
370
    35
390
0
 62
     7
100
AcDbCircle
 10
2177.665771
 20
556.189941
 30
0.0
 40
20.0
210
0.0
220
0.0
230
1.0
100
AcDbArc
 50
83.000001
 51
173.000004
  0
LINE
  5
78
100
AcDbEntity
  8
0
370
    35
390
0
 62
     7
100
AcDbLine
 10
2196.151855
 20
553.920166
 30
0.0
 11
2157.814697
 21
558.627319
 31
0.0
210
0.0
220
0.0
230
1.0
  0
LINE
  5
79
100
AcDbEntity
  8
0
370
    35
390
0
 62
     7
 48
0.45
100
AcDbLine
 10
2193.958252
 20
536.054321
 30
0.0
 11
2196.151855
 21
553.920166
 31
0.0
210
0.0
220
0.0
230
1.0
  0
ARC
  5
7A
100
AcDbEntity
  8
0
370
    35
390
0
 62
     7
100
AcDbCircle
 10
2175.395508
 20
537.826904
 30
0.0
 40
19.984508
210
0.0
220
0.0
230
1.0
100
AcDbArc
 50
177.753733
 51
200.688501
  0
ARC
  5
7B
100
AcDbEntity
  8
0
370
    35
390
0
 62
     7
100
AcDbCircle
 10
2175.405273
 20
537.818359
 30
0.0
 40
19.987806
210
0.0
220
0.0
230
1.0
100
AcDbArc
 50
227.041106
 51
256.167608
  0
ARC
  5
7C
100
AcDbEntity
  8
0
370
    35
390
0
 62
     7
100
AcDbCircle
 10
2158.650391
 20
469.80484
 30
0.0
 40
50.058994
210
0.0
220
0.0
230
1.0
100
AcDbArc
 50
73.596306
 51
76.158324
  0
ARC
  5
7D
100
AcDbEntity
  8
0
370
    35
390
0
 62
     7
100
AcDbCircle
 10
2158.643066
 20
469.84549
 30
0.0
 40
50.026489
210
0.0
220
0.0
230
1.0
100
AcDbArc
 50
27.236351
 51
49.682174
  0
ARC
  5
7E
100
AcDbEntity
  8
0
370
    35
390
0
 62
     7
100
AcDbCircle
 10
2158.64209
 20
260.272675
 30
0.0
 40
50.027692
210
0.0
220
0.0
230
1.0
100
AcDbArc
 50
312.382172
 51
331.515637
  0
ARC
  5
7F
100
AcDbEntity
  8
0
370
    35
390
0
 62
     7
100
AcDbCircle
 10
2175.403076
 20
192.30246
 30
0.0
 40
19.983853
210
0.0
220
0.0
230
1.0
100
AcDbArc
 50
109.205163
 51
129.664106
  0
ARC
  5
80
100
AcDbEntity
  8
0
370
    35
390
0
 62
     7
100
AcDbCircle
 10
2175.395508
 20
192.290527
 30
0.0
 40
19.984321
210
0.0
220
0.0
230
1.0
100
AcDbArc
 50
160.908137
 51
182.533258
  0
ARC
  5
81
100
AcDbEntity
  8
0
370
    35
390
0
 62
     7
100
AcDbCircle
 10
2177.647705
 20
173.919418
 30
0.0
 40
19.980795
210
0.0
220
0.0
230
1.0
100
AcDbArc
 50
189.967973
 51
218.176094
  0
ARC
  5
82
100
AcDbEntity
  8
0
370
    35
390
0
 62
     7
100
AcDbCircle
 10
2177.662842
 20
173.910812
 30
0.0
 40
19.983693
210
0.0
220
0.0
230
1.0
100
AcDbArc
 50
244.847423
 51
277.013782
  0
ARC
  5
83
100
AcDbEntity
  8
0
370
    35
390
0
 62
     7
100
AcDbCircle
 10
2218.675293
 20
204.122421
 30
0.0
 40
44.971873
210
0.0
220
0.0
230
1.0
100
AcDbArc
 50
276.990238
 51
307.364042
  0
ARC
  5
84
100
AcDbEntity
  8
0
370
    35
390
0
 62
     7
100
AcDbCircle
 10
2218.692139
 20
204.141556
 30
0.0
 40
44.97187
210
0.0
220
0.0
230
1.0
100
AcDbArc
 50
329.649614
 51
0.009762
  0
ARC
  5
85
100
AcDbEntity
  8
0
370
    35
390
0
 62
     7
100
AcDbCircle
 10
2218.692383
 20
525.975891
 30
0.0
 40
44.971749
210
0.0
220
0.0
230
1.0
100
AcDbArc
 50
359.990202
 51
29.381889
  0
ARC
  5
86
100
AcDbEntity
  8
0
370
    35
390
0
 62
     7
100
AcDbCircle
 10
2218.677246
 20
525.998962
 30
0.0
 40
44.967561
210
0.0
220
0.0
230
1.0
100
AcDbArc
 50
54.233768
 51
80.481567
  0
ARC
  5
87
100
AcDbEntity
  8
0
370
    35
390
0
 62
     7
100
AcDbCircle
 10
2177.662354
 20
556.209717
 30
0.0
 40
19.980516
210
0.0
220
0.0
230
1.0
100
AcDbArc
 50
86.074618
 51
112.504663
  0
ARC
  5
88
100
AcDbEntity
  8
0
370
    35
390
0
 62
     7
100
AcDbCircle
 10
2177.646729
 20
556.198486
 30
0.0
 40
19.979744
210
0.0
220
0.0
230
1.0
100
AcDbArc
 50
143.687837
 51
169.049381
  0
ARC
  5
89
100
AcDbEntity
  8
0
370
    35
390
0
 62
     7
100
AcDbCircle
 10
2175.426514
 20
537.826782
 30
0.0
 40
20.015448
210
0.0
220
0.0
230
1.0
100
AcDbArc
 50
172.998078
 51
180.794647
  0
ARC
  5
8A
100
AcDbEntity
  8
0
370
    35
390
0
 62
     7
100
AcDbCircle
 10
2175.405273
 20
537.818359
 30
0.0
 40
19.987806
210
0.0
220
0.0
230
1.0
100
AcDbArc
 50
227.043893
 51
256.167608
  0
ARC
  5
8B
100
AcDbEntity
  8
0
370
    35
390
0
 62
     7
100
AcDbCircle
 10
2158.652832
 20
469.81366
 30
0.0
 40
50.049888
210
0.0
220
0.0
230
1.0
100
AcDbArc
 50
72.398974
 51
76.158535
  0
ARC
  5
8C
100
AcDbEntity
  8
0
370
    35
390
0
 62
     7
100
AcDbCircle
 10
2175.426025
 20
192.290604
 30
0.0
 40
20.014963
210
0.0
220
0.0
230
1.0
100
AcDbArc
 50
179.039503
 51
187.001991
  0
ARC
  5
8D
100
AcDbEntity
  8
0
370
    35
390
0
 62
     7
100
AcDbCircle
 10
2177.662842
 20
173.910767
 30
0.0
 40
19.983644
210
0.0
220
0.0
230
1.0
100
AcDbArc
 50
244.255929
 51
277.013837
  0
ARC
  5
8E
100
AcDbEntity
  8
0
370
    35
390
0
 62
     7
100
AcDbCircle
 10
2218.675293
 20
204.122803
 30
0.0
 40
44.972265
210
0.0
220
0.0
230
1.0
100
AcDbArc
 50
276.990341
 51
308.824709
  0
ARC
  5
8F
100
AcDbEntity
  8
0
370
    35
390
0
 62
     7
100
AcDbCircle
 10
2218.691895
 20
204.141632
 30
0.0
 40
44.972254
210
0.0
220
0.0
230
1.0
100
AcDbArc
 50
328.200668
 51
0.009661
  0
ARC
  5
90
100
AcDbEntity
  8
0
370
    35
390
0
 62
     7
100
AcDbCircle
 10
2218.692383
 20
525.975891
 30
0.0
 40
44.971781
210
0.0
220
0.0
230
1.0
100
AcDbArc
 50
359.990212
 51
29.800675
  0
LINE
  5
91
100
AcDbEntity
  8
0
370
    35
390
0
 62
     7
100
AcDbLine
 10
2032.85083
 20
545.251221
 30
0.0
 11
2071.187988
 21
540.544067
 31
0.0
210
0.0
220
0.0
230
1.0
  0
LINE
  5
92
100
AcDbEntity
  8
0
370
    35
390
0
 62
     7
 48
0.012461
100
AcDbLine
 10
2032.85083
 20
545.251221
 30
0.0
 11
2032.790161
 21
544.75647
 31
0.0
210
0.0
220
0.0
230
1.0
  0
ARC
  5
93
100
AcDbEntity
  8
0
370
    35
390
0
 62
     7
100
AcDbCircle
 10
2052.641113
 20
542.319092
 30
0.0
 40
20.0
210
0.0
220
0.0
230
1.0
100
AcDbArc
 50
173.000004
 51
256.158127
  0
ARC
  5
94
100
AcDbEntity
  8
0
370
    35
390
0
 62
     7
100
AcDbCircle
 10
2035.894043
 20
474.351868
 30
0.0
 40
50.0
210
0.0
220
0.0
230
1.0
100
AcDbArc
 50
360.0
 51
76.158126
  0
LINE
  5
95
100
AcDbEntity
  8
0
370
    35
390
0
 62
     7
100
AcDbLine
 10
2085.894043
 20
369.548431
 30
0.0
 11
2085.894043
 21
474.351868
 31
0.0
210
0.0
220
0.0
230
1.0
  0
LINE
  5
96
100
AcDbEntity
  8
0
370
    35
390
0
 62
     7
100
AcDbLine
 10
2085.894043
 20
369.548431
 30
0.0
 11
2085.894043
 21
264.744995
 31
0.0
210
0.0
220
0.0
230
1.0
  0
ARC
  5
97
100
AcDbEntity
  8
0
370
    35
390
0
 62
     7
100
AcDbCircle
 10
2035.894043
 20
264.744995
 30
0.0
 40
50.0
210
0.0
220
0.0
230
1.0
100
AcDbArc
 50
283.841874
 51
360.0
  0
ARC
  5
98
100
AcDbEntity
  8
0
370
    35
390
0
 62
     7
100
AcDbCircle
 10
2052.641113
 20
196.777802
 30
0.0
 40
20.0
210
0.0
220
0.0
230
1.0
100
AcDbArc
 50
103.841873
 51
186.999996
  0
LINE
  5
99
100
AcDbEntity
  8
0
370
    35
390
0
 62
     7
 48
0.012462
100
AcDbLine
 10
2032.85083
 20
193.845642
 30
0.0
 11
2032.790161
 21
194.340408
 31
0.0
210
0.0
220
0.0
230
1.0
  0
LINE
  5
9A
100
AcDbEntity
  8
0
370
    35
390
0
 62
     7
100
AcDbLine
 10
2032.85083
 20
193.845642
 30
0.0
 11
2071.187988
 21
198.552826
 31
0.0
210
0.0
220
0.0
230
1.0
  0
LINE
  5
9B
100
AcDbEntity
  8
0
370
    35
390
0
 62
     7
 48
0.45
100
AcDbLine
 10
2071.187988
 20
198.552826
 30
0.0
 11
2073.381592
 21
180.686996
 31
0.0
210
0.0
220
0.0
230
1.0
  0
LINE
  5
9C
100
AcDbEntity
  8
0
370
    35
390
0
 62
     7
100
AcDbLine
 10
2073.381592
 20
180.686996
 30
0.0
 11
2035.044556
 21
175.979813
 31
0.0
210
0.0
220
0.0
230
1.0
  0
ARC
  5
9D
100
AcDbEntity
  8
0
370
    35
390
0
 62
     7
100
AcDbCircle
 10
2054.895508
 20
178.417191
 30
0.0
 40
20.0
210
0.0
220
0.0
230
1.0
100
AcDbArc
 50
186.999996
 51
276.999999
  0
LINE
  5
9E
100
AcDbEntity
  8
0
370
    35
390
0
 62
     7
100
AcDbLine
 10
2101.378174
 20
163.97435
 30
0.0
 11
2057.332764
 21
158.566269
 31
0.0
210
0.0
220
0.0
230
1.0
  0
ARC
  5
9F
100
AcDbEntity
  8
0
370
    35
390
0
 62
     7
100
AcDbCircle
 10
2095.894043
 20
208.638931
 30
0.0
 40
45.0
210
0.0
220
0.0
230
1.0
100
AcDbArc
 50
276.999999
 51
360.0
  0
LINE
  5
A0
100
AcDbEntity
  8
0
370
    35
390
0
 62
     7
100
AcDbLine
 10
2140.894043
 20
208.638931
 30
0.0
 11
2140.894043
 21
369.548431
 31
0.0
210
0.0
220
0.0
230
1.0
  0
LINE
  5
A1
100
AcDbEntity
  8
0
370
    35
390
0
 62
     7
100
AcDbLine
 10
2140.894043
 20
530.457947
 30
0.0
 11
2140.894043
 21
369.548431
 31
0.0
210
0.0
220
0.0
230
1.0
  0
ARC
  5
A2
100
AcDbEntity
  8
0
370
    35
390
0
 62
     7
100
AcDbCircle
 10
2095.894043
 20
530.457947
 30
0.0
 40
45.0
210
0.0
220
0.0
230
1.0
100
AcDbArc
 50
0.0
 51
83.000001
  0
LINE
  5
A3
100
AcDbEntity
  8
0
370
    35
390
0
 62
     7
100
AcDbLine
 10
2101.378174
 20
575.122498
 30
0.0
 11
2057.332764
 21
580.530579
 31
0.0
210
0.0
220
0.0
230
1.0
  0
ARC
  5
A4
100
AcDbEntity
  8
0
370
    35
390
0
 62
     7
100
AcDbCircle
 10
2054.895508
 20
560.679688
 30
0.0
 40
20.0
210
0.0
220
0.0
230
1.0
100
AcDbArc
 50
83.000001
 51
173.000004
  0
LINE
  5
A5
100
AcDbEntity
  8
0
370
    35
390
0
 62
     7
100
AcDbLine
 10
2073.381592
 20
558.409851
 30
0.0
 11
2035.044556
 21
563.117065
 31
0.0
210
0.0
220
0.0
230
1.0
  0
LINE
  5
A6
100
AcDbEntity
  8
0
370
    35
390
0
 62
     7
 48
0.449999
100
AcDbLine
 10
2071.187988
 20
540.544067
 30
0.0
 11
2073.381592
 21
558.409851
 31
0.0
210
0.0
220
0.0
230
1.0
  0
ARC
  5
A7
100
AcDbEntity
  8
0
370
    35
390
0
 62
     7
100
AcDbCircle
 10
2052.625488
 20
542.31665
 30
0.0
 40
19.984508
210
0.0
220
0.0
230
1.0
100
AcDbArc
 50
177.753733
 51
200.688501
  0
ARC
  5
A8
100
AcDbEntity
  8
0
370
    35
390
0
 62
     7
100
AcDbCircle
 10
2052.63501
 20
542.308105
 30
0.0
 40
19.987806
210
0.0
220
0.0
230
1.0
100
AcDbArc
 50
227.041106
 51
256.167608
  0
ARC
  5
A9
100
AcDbEntity
  8
0
370
    35
390
0
 62
     7
100
AcDbCircle
 10
2035.880127
 20
474.294556
 30
0.0
 40
50.058994
210
0.0
220
0.0
230
1.0
100
AcDbArc
 50
73.596306
 51
76.158324
  0
ARC
  5
AA
100
AcDbEntity
  8
0
370
    35
390
0
 62
     7
100
AcDbCircle
 10
2035.872803
 20
474.335205
 30
0.0
 40
50.026489
210
0.0
220
0.0
230
1.0
100
AcDbArc
 50
27.236351
 51
49.682174
  0
ARC
  5
AB
100
AcDbEntity
  8
0
370
    35
390
0
 62
     7
100
AcDbCircle
 10
2035.871826
 20
264.76239
 30
0.0
 40
50.027692
210
0.0
220
0.0
230
1.0
100
AcDbArc
 50
312.382172
 51
331.515637
  0
ARC
  5
AC
100
AcDbEntity
  8
0
370
    35
390
0
 62
     7
100
AcDbCircle
 10
2052.632813
 20
196.792175
 30
0.0
 40
19.983853
210
0.0
220
0.0
230
1.0
100
AcDbArc
 50
109.205163
 51
129.664106
  0
ARC
  5
AD
100
AcDbEntity
  8
0
370
    35
390
0
 62
     7
100
AcDbCircle
 10
2052.625244
 20
196.780243
 30
0.0
 40
19.984321
210
0.0
220
0.0
230
1.0
100
AcDbArc
 50
160.908137
 51
182.533258
  0
ARC
  5
AE
100
AcDbEntity
  8
0
370
    35
390
0
 62
     7
100
AcDbCircle
 10
2054.877441
 20
178.409134
 30
0.0
 40
19.980795
210
0.0
220
0.0
230
1.0
100
AcDbArc
 50
189.967973
 51
218.176094
  0
ARC
  5
AF
100
AcDbEntity
  8
0
370
    35
390
0
 62
     7
100
AcDbCircle
 10
2054.892578
 20
178.400528
 30
0.0
 40
19.983693
210
0.0
220
0.0
230
1.0
100
AcDbArc
 50
244.847423
 51
277.013782
  0
ARC
  5
B0
100
AcDbEntity
  8
0
370
    35
390
0
 62
     7
100
AcDbCircle
 10
2095.905029
 20
208.612137
 30
0.0
 40
44.971873
210
0.0
220
0.0
230
1.0
100
AcDbArc
 50
276.990238
 51
307.364042
  0
ARC
  5
B1
100
AcDbEntity
  8
0
370
    35
390
0
 62
     7
100
AcDbCircle
 10
2095.921875
 20
208.631271
 30
0.0
 40
44.97187
210
0.0
220
0.0
230
1.0
100
AcDbArc
 50
329.649614
 51
0.009762
  0
ARC
  5
B2
100
AcDbEntity
  8
0
370
    35
390
0
 62
     7
100
AcDbCircle
 10
2095.922119
 20
530.465637
 30
0.0
 40
44.971749
210
0.0
220
0.0
230
1.0
100
AcDbArc
 50
359.990202
 51
29.381889
  0
ARC
  5
B3
100
AcDbEntity
  8
0
370
    35
390
0
 62
     7
100
AcDbCircle
 10
2095.906982
 20
530.488647
 30
0.0
 40
44.967561
210
0.0
220
0.0
230
1.0
100
AcDbArc
 50
54.233768
 51
80.481567
  0
ARC
  5
B4
100
AcDbEntity
  8
0
370
    35
390
0
 62
     7
100
AcDbCircle
 10
2054.89209
 20
560.699463
 30
0.0
 40
19.980516
210
0.0
220
0.0
230
1.0
100
AcDbArc
 50
86.074618
 51
112.504663
  0
ARC
  5
B5
100
AcDbEntity
  8
0
370
    35
390
0
 62
     7
100
AcDbCircle
 10
2054.876465
 20
560.688171
 30
0.0
 40
19.979744
210
0.0
220
0.0
230
1.0
100
AcDbArc
 50
143.687837
 51
169.049381
  0
ARC
  5
B6
100
AcDbEntity
  8
0
370
    35
390
0
 62
     7
100
AcDbCircle
 10
2052.65625
 20
542.316528
 30
0.0
 40
20.015448
210
0.0
220
0.0
230
1.0
100
AcDbArc
 50
172.998078
 51
180.794647
  0
ARC
  5
B7
100
AcDbEntity
  8
0
370
    35
390
0
 62
     7
100
AcDbCircle
 10
2052.63501
 20
542.308105
 30
0.0
 40
19.987806
210
0.0
220
0.0
230
1.0
100
AcDbArc
 50
227.043893
 51
256.167608
  0
ARC
  5
B8
100
AcDbEntity
  8
0
370
    35
390
0
 62
     7
100
AcDbCircle
 10
2035.882446
 20
474.303345
 30
0.0
 40
50.049888
210
0.0
220
0.0
230
1.0
100
AcDbArc
 50
72.398974
 51
76.158535
  0
ARC
  5
B9
100
AcDbEntity
  8
0
370
    35
390
0
 62
     7
100
AcDbCircle
 10
2052.655762
 20
196.780319
 30
0.0
 40
20.014963
210
0.0
220
0.0
230
1.0
100
AcDbArc
 50
179.039503
 51
187.001991
  0
ARC
  5
BA
100
AcDbEntity
  8
0
370
    35
390
0
 62
     7
100
AcDbCircle
 10
2054.892578
 20
178.400482
 30
0.0
 40
19.983644
210
0.0
220
0.0
230
1.0
100
AcDbArc
 50
244.255929
 51
277.013837
  0
ARC
  5
BB
100
AcDbEntity
  8
0
370
    35
390
0
 62
     7
100
AcDbCircle
 10
2095.905029
 20
208.612518
 30
0.0
 40
44.972265
210
0.0
220
0.0
230
1.0
100
AcDbArc
 50
276.990341
 51
308.824709
  0
ARC
  5
BC
100
AcDbEntity
  8
0
370
    35
390
0
 62
     7
100
AcDbCircle
 10
2095.921631
 20
208.631348
 30
0.0
 40
44.972254
210
0.0
220
0.0
230
1.0
100
AcDbArc
 50
328.200668
 51
0.009661
  0
ARC
  5
BD
100
AcDbEntity
  8
0
370
    35
390
0
 62
     7
100
AcDbCircle
 10
2095.922119
 20
530.465576
 30
0.0
 40
44.971781
210
0.0
220
0.0
230
1.0
100
AcDbArc
 50
359.990212
 51
29.800675
  0
LINE
  5
BE
100
AcDbEntity
  8
0
370
    35
390
0
 62
     7
100
AcDbLine
 10
2280.307861
 20
537.400024
 30
0.0
 11
2318.64502
 21
532.69281
 31
0.0
210
0.0
220
0.0
230
1.0
  0
LINE
  5
BF
100
AcDbEntity
  8
0
370
    35
390
0
 62
     7
 48
0.012463
100
AcDbLine
 10
2280.307861
 20
537.400024
 30
0.0
 11
2280.24707
 21
536.905212
 31
0.0
210
0.0
220
0.0
230
1.0
  0
ARC
  5
C0
100
AcDbEntity
  8
0
370
    35
390
0
 62
     7
100
AcDbCircle
 10
2300.098145
 20
534.467834
 30
0.0
 40
20.0
210
0.0
220
0.0
230
1.0
100
AcDbArc
 50
173.000004
 51
256.158127
  0
ARC
  5
C1
100
AcDbEntity
  8
0
370
    35
390
0
 62
     7
100
AcDbCircle
 10
2283.351074
 20
466.500671
 30
0.0
 40
50.0
210
0.0
220
0.0
230
1.0
100
AcDbArc
 50
360.0
 51
76.158126
  0
LINE
  5
C2
100
AcDbEntity
  8
0
370
    35
390
0
 62
     7
100
AcDbLine
 10
2333.351074
 20
361.697205
 30
0.0
 11
2333.351074
 21
466.500671
 31
0.0
210
0.0
220
0.0
230
1.0
  0
LINE
  5
C3
100
AcDbEntity
  8
0
370
    35
390
0
 62
     7
100
AcDbLine
 10
2333.351074
 20
361.697205
 30
0.0
 11
2333.351074
 21
256.893738
 31
0.0
210
0.0
220
0.0
230
1.0
  0
ARC
  5
C4
100
AcDbEntity
  8
0
370
    35
390
0
 62
     7
100
AcDbCircle
 10
2283.351074
 20
256.893738
 30
0.0
 40
50.0
210
0.0
220
0.0
230
1.0
100
AcDbArc
 50
283.841874
 51
360.0
  0
ARC
  5
C5
100
AcDbEntity
  8
0
370
    35
390
0
 62
     7
100
AcDbCircle
 10
2300.098145
 20
188.926575
 30
0.0
 40
20.0
210
0.0
220
0.0
230
1.0
100
AcDbArc
 50
103.841873
 51
186.999996
  0
LINE
  5
C6
100
AcDbEntity
  8
0
370
    35
390
0
 62
     7
 48
0.012462
100
AcDbLine
 10
2280.307861
 20
185.994415
 30
0.0
 11
2280.24707
 21
186.489182
 31
0.0
210
0.0
220
0.0
230
1.0
  0
LINE
  5
C7
100
AcDbEntity
  8
0
370
    35
390
0
 62
     7
100
AcDbLine
 10
2280.307861
 20
185.994415
 30
0.0
 11
2318.64502
 21
190.701599
 31
0.0
210
0.0
220
0.0
230
1.0
  0
LINE
  5
C8
100
AcDbEntity
  8
0
370
    35
390
0
 62
     7
 48
0.45
100
AcDbLine
 10
2318.64502
 20
190.701599
 30
0.0
 11
2320.838623
 21
172.83577
 31
0.0
210
0.0
220
0.0
230
1.0
  0
LINE
  5
C9
100
AcDbEntity
  8
0
370
    35
390
0
 62
     7
100
AcDbLine
 10
2320.838623
 20
172.83577
 30
0.0
 11
2282.501465
 21
168.128586
 31
0.0
210
0.0
220
0.0
230
1.0
  0
ARC
  5
CA
100
AcDbEntity
  8
0
370
    35
390
0
 62
     7
100
AcDbCircle
 10
2302.352539
 20
170.565964
 30
0.0
 40
20.0
210
0.0
220
0.0
230
1.0
100
AcDbArc
 50
186.999996
 51
276.999999
  0
LINE
  5
CB
100
AcDbEntity
  8
0
370
    35
390
0
 62
     7
100
AcDbLine
 10
2348.835205
 20
156.123123
 30
0.0
 11
2304.789795
 21
150.715042
 31
0.0
210
0.0
220
0.0
230
1.0
  0
ARC
  5
CC
100
AcDbEntity
  8
0
370
    35
390
0
 62
     7
100
AcDbCircle
 10
2343.351074
 20
200.787704
 30
0.0
 40
45.0
210
0.0
220
0.0
230
1.0
100
AcDbArc
 50
276.999999
 51
360.0
  0
LINE
  5
CD
100
AcDbEntity
  8
0
370
    35
390
0
 62
     7
100
AcDbLine
 10
2388.351074
 20
200.787704
 30
0.0
 11
2388.351074
 21
361.697205
 31
0.0
210
0.0
220
0.0
230
1.0
  0
LINE
  5
CE
100
AcDbEntity
  8
0
370
    35
390
0
 62
     7
100
AcDbLine
 10
2388.351074
 20
522.606689
 30
0.0
 11
2388.351074
 21
361.697205
 31
0.0
210
0.0
220
0.0
230
1.0
  0
ARC
  5
CF
100
AcDbEntity
  8
0
370
    35
390
0
 62
     7
100
AcDbCircle
 10
2343.351074
 20
522.606689
 30
0.0
 40
45.0
210
0.0
220
0.0
230
1.0
100
AcDbArc
 50
0.0
 51
83.000001
  0
LINE
  5
D0
100
AcDbEntity
  8
0
370
    35
390
0
 62
     7
100
AcDbLine
 10
2348.835205
 20
567.271301
 30
0.0
 11
2304.789795
 21
572.679382
 31
0.0
210
0.0
220
0.0
230
1.0
  0
ARC
  5
D1
100
AcDbEntity
  8
0
370
    35
390
0
 62
     7
100
AcDbCircle
 10
2302.352539
 20
552.82843
 30
0.0
 40
20.0
210
0.0
220
0.0
230
1.0
100
AcDbArc
 50
83.000001
 51
173.000004
  0
LINE
  5
D2
100
AcDbEntity
  8
0
370
    35
390
0
 62
     7
100
AcDbLine
 10
2320.838623
 20
550.558655
 30
0.0
 11
2282.501465
 21
555.265808
 31
0.0
210
0.0
220
0.0
230
1.0
  0
LINE
  5
D3
100
AcDbEntity
  8
0
370
    35
390
0
 62
     7
 48
0.45
100
AcDbLine
 10
2318.64502
 20
532.69281
 30
0.0
 11
2320.838623
 21
550.558655
 31
0.0
210
0.0
220
0.0
230
1.0
  0
ARC
  5
D4
100
AcDbEntity
  8
0
370
    35
390
0
 62
     7
100
AcDbCircle
 10
2300.08252
 20
534.465393
 30
0.0
 40
19.984508
210
0.0
220
0.0
230
1.0
100
AcDbArc
 50
177.753733
 51
200.688501
  0
ARC
  5
D5
100
AcDbEntity
  8
0
370
    35
390
0
 62
     7
100
AcDbCircle
 10
2300.092041
 20
534.456848
 30
0.0
 40
19.987806
210
0.0
220
0.0
230
1.0
100
AcDbArc
 50
227.041106
 51
256.167608
  0
ARC
  5
D6
100
AcDbEntity
  8
0
370
    35
390
0
 62
     7
100
AcDbCircle
 10
2283.337158
 20
466.443329
 30
0.0
 40
50.058994
210
0.0
220
0.0
230
1.0
100
AcDbArc
 50
73.596306
 51
76.158324
  0
ARC
  5
D7
100
AcDbEntity
  8
0
370
    35
390
0
 62
     7
100
AcDbCircle
 10
2283.329834
 20
466.483978
 30
0.0
 40
50.026489
210
0.0
220
0.0
230
1.0
100
AcDbArc
 50
27.236351
 51
49.682174
  0
ARC
  5
D8
100
AcDbEntity
  8
0
370
    35
390
0
 62
     7
100
AcDbCircle
 10
2283.328857
 20
256.911163
 30
0.0
 40
50.027692
210
0.0
220
0.0
230
1.0
100
AcDbArc
 50
312.382172
 51
331.515637
  0
ARC
  5
D9
100
AcDbEntity
  8
0
370
    35
390
0
 62
     7
100
AcDbCircle
 10
2300.089844
 20
188.940948
 30
0.0
 40
19.983853
210
0.0
220
0.0
230
1.0
100
AcDbArc
 50
109.205163
 51
129.664106
  0
ARC
  5
DA
100
AcDbEntity
  8
0
370
    35
390
0
 62
     7
100
AcDbCircle
 10
2300.082275
 20
188.929016
 30
0.0
 40
19.984321
210
0.0
220
0.0
230
1.0
100
AcDbArc
 50
160.908137
 51
182.533258
  0
ARC
  5
DB
100
AcDbEntity
  8
0
370
    35
390
0
 62
     7
100
AcDbCircle
 10
2302.334473
 20
170.557907
 30
0.0
 40
19.980795
210
0.0
220
0.0
230
1.0
100
AcDbArc
 50
189.967973
 51
218.176094
  0
ARC
  5
DC
100
AcDbEntity
  8
0
370
    35
390
0
 62
     7
100
AcDbCircle
 10
2302.349609
 20
170.549301
 30
0.0
 40
19.983693
210
0.0
220
0.0
230
1.0
100
AcDbArc
 50
244.847423
 51
277.013782
  0
ARC
  5
DD
100
AcDbEntity
  8
0
370
    35
390
0
 62
     7
100
AcDbCircle
 10
2343.362061
 20
200.76091
 30
0.0
 40
44.971873
210
0.0
220
0.0
230
1.0
100
AcDbArc
 50
276.990238
 51
307.364042
  0
ARC
  5
DE
100
AcDbEntity
  8
0
370
    35
390
0
 62
     7
100
AcDbCircle
 10
2343.378906
 20
200.780045
 30
0.0
 40
44.97187
210
0.0
220
0.0
230
1.0
100
AcDbArc
 50
329.649614
 51
0.009762
  0
ARC
  5
DF
100
AcDbEntity
  8
0
370
    35
390
0
 62
     7
100
AcDbCircle
 10
2343.37915
 20
522.61438
 30
0.0
 40
44.971749
210
0.0
220
0.0
230
1.0
100
AcDbArc
 50
359.990202
 51
29.381889
  0
ARC
  5
E0
100
AcDbEntity
  8
0
370
    35
390
0
 62
     7
100
AcDbCircle
 10
2343.364014
 20
522.637451
 30
0.0
 40
44.967561
210
0.0
220
0.0
230
1.0
100
AcDbArc
 50
54.233768
 51
80.481567
  0
ARC
  5
E1
100
AcDbEntity
  8
0
370
    35
390
0
 62
     7
100
AcDbCircle
 10
2302.349121
 20
552.848267
 30
0.0
 40
19.980516
210
0.0
220
0.0
230
1.0
100
AcDbArc
 50
86.074618
 51
112.504663
  0
ARC
  5
E2
100
AcDbEntity
  8
0
370
    35
390
0
 62
     7
100
AcDbCircle
 10
2302.333496
 20
552.836914
 30
0.0
 40
19.979744
210
0.0
220
0.0
230
1.0
100
AcDbArc
 50
143.687837
 51
169.049381
  0
ARC
  5
E3
100
AcDbEntity
  8
0
370
    35
390
0
 62
     7
100
AcDbCircle
 10
2300.113281
 20
534.465271
 30
0.0
 40
20.015448
210
0.0
220
0.0
230
1.0
100
AcDbArc
 50
172.998078
 51
180.794647
  0
ARC
  5
E4
100
AcDbEntity
  8
0
370
    35
390
0
 62
     7
100
AcDbCircle
 10
2300.092041
 20
534.456848
 30
0.0
 40
19.987806
210
0.0
220
0.0
230
1.0
100
AcDbArc
 50
227.043893
 51
256.167608
  0
ARC
  5
E5
100
AcDbEntity
  8
0
370
    35
390
0
 62
     7
100
AcDbCircle
 10
2283.3396
 20
466.452148
 30
0.0
 40
50.049888
210
0.0
220
0.0
230
1.0
100
AcDbArc
 50
72.398974
 51
76.158535
  0
ARC
  5
E6
100
AcDbEntity
  8
0
370
    35
390
0
 62
     7
100
AcDbCircle
 10
2300.112793
 20
188.929092
 30
0.0
 40
20.014963
210
0.0
220
0.0
230
1.0
100
AcDbArc
 50
179.039503
 51
187.001991
  0
ARC
  5
E7
100
AcDbEntity
  8
0
370
    35
390
0
 62
     7
100
AcDbCircle
 10
2302.349609
 20
170.549255
 30
0.0
 40
19.983644
210
0.0
220
0.0
230
1.0
100
AcDbArc
 50
244.255929
 51
277.013837
  0
ARC
  5
E8
100
AcDbEntity
  8
0
370
    35
390
0
 62
     7
100
AcDbCircle
 10
2343.362061
 20
200.761292
 30
0.0
 40
44.972265
210
0.0
220
0.0
230
1.0
100
AcDbArc
 50
276.990341
 51
308.824709
  0
ARC
  5
E9
100
AcDbEntity
  8
0
370
    35
390
0
 62
     7
100
AcDbCircle
 10
2343.378662
 20
200.780121
 30
0.0
 40
44.972254
210
0.0
220
0.0
230
1.0
100
AcDbArc
 50
328.200668
 51
0.009661
  0
ARC
  5
EA
100
AcDbEntity
  8
0
370
    35
390
0
 62
     7
100
AcDbCircle
 10
2343.37915
 20
522.61438
 30
0.0
 40
44.971781
210
0.0
220
0.0
230
1.0
100
AcDbArc
 50
359.990212
 51
29.800675
  0
CIRCLE
  5
EB
100
AcDbEntity
  8
0
370
    35
390
0
 62
     7
100
AcDbCircle
 10
1759.264771
 20
243.859589
 30
0.0
 40
1.5
210
0.0
220
0.0
230
1.0
  0
LINE
  5
EC
100
AcDbEntity
  8
0
370
    35
390
0
 62
     7
100
AcDbLine
 10
1757.914795
 20
204.741455
 30
0.0
 11
1502.914795
 21
157.241455
 31
0.0
210
0.0
220
0.0
230
1.0
  0
ARC
  5
ED
100
AcDbEntity
  8
0
370
    35
390
0
 62
     7
100
AcDbCircle
 10
1743.264771
 20
283.388641
 30
0.0
 40
80.0
210
0.0
220
0.0
230
1.0
100
AcDbArc
 50
280.551793
 51
0.00001
  0
LINE
  5
EE
100
AcDbEntity
  8
0
370
    35
390
0
 62
     7
100
AcDbLine
 10
1823.264771
 20
446.094269
 30
0.0
 11
1823.264771
 21
283.388641
 31
0.0
210
0.0
220
0.0
230
1.0
  0
ARC
  5
EF
100
AcDbEntity
  8
0
370
    35
390
0
 62
     7
100
AcDbCircle
 10
1743.264771
 20
446.094269
 30
0.0
 40
80.0
210
0.0
220
0.0
230
1.0
100
AcDbArc
 50
0.00001
 51
79.448194
  0
LINE
  5
F0
100
AcDbEntity
  8
0
370
    35
390
0
 62
     7
100
AcDbLine
 10
1502.914795
 20
572.241455
 30
0.0
 11
1757.914795
 21
524.741455
 31
0.0
210
0.0
220
0.0
230
1.0
  0
ARC
  5
F1
100
AcDbEntity
  8
0
370
    35
390
0
 62
     7
100
AcDbCircle
 10
1488.264771
 20
493.594299
 30
0.0
 40
80.0
210
0.0
220
0.0
230
1.0
100
AcDbArc
 50
79.448194
 51
180.000009
  0
LINE
  5
F2
100
AcDbEntity
  8
0
370
    35
390
0
 62
     7
100
AcDbLine
 10
1408.264771
 20
235.888626
 30
0.0
 11
1408.264771
 21
493.594299
 31
0.0
210
0.0
220
0.0
230
1.0
  0
ARC
  5
F3
100
AcDbEntity
  8
0
370
    35
390
0
 62
     7
100
AcDbCircle
 10
1488.264771
 20
235.888626
 30
0.0
 40
80.0
210
0.0
220
0.0
230
1.0
100
AcDbArc
 50
180.000009
 51
280.551793
  0
CIRCLE
  5
F4
100
AcDbEntity
  8
0
370
    35
390
0
 62
     7
100
AcDbCircle
 10
1466.264771
 20
211.313324
 30
0.0
 40
1.5
210
0.0
220
0.0
230
1.0
  0
CIRCLE
  5
F5
100
AcDbEntity
  8
0
370
    35
390
0
 62
     7
100
AcDbCircle
 10
1759.264771
 20
485.623322
 30
0.0
 40
1.5
210
0.0
220
0.0
230
1.0
  0
CIRCLE
  5
F6
100
AcDbEntity
  8
0
370
    35
390
0
 62
     7
100
AcDbCircle
 10
1466.264771
 20
518.169556
 30
0.0
 40
1.5
210
0.0
220
0.0
230
1.0
  0
CIRCLE
  5
F7
100
AcDbEntity
  8
0
370
    35
390
0
 62
     7
100
AcDbCircle
 10
1919.828125
 20
498.057251
 30
0.0
 40
1.5
210
0.0
220
0.0
230
1.0
  0
LINE
  5
F8
100
AcDbEntity
  8
0
370
    35
390
0
 62
     7
100
AcDbLine
 10
2003.972168
 20
366.166718
 30
0.0
 11
2003.972168
 21
532.369019
 31
0.0
210
0.0
220
0.0
230
1.0
  0
ARC
  5
F9
100
AcDbEntity
  8
0
370
    35
390
0
 62
     7
100
AcDbCircle
 10
1973.972168
 20
532.369019
 30
0.0
 40
30.0
210
0.0
220
0.0
230
1.0
100
AcDbArc
 50
360.0
 51
100.205398
  0
LINE
  5
FA
100
AcDbEntity
  8
0
370
    35
390
0
 62
     7
100
AcDbLine
 10
1968.656982
 20
561.894409
 30
0.0
 11
1878.656982
 21
545.692078
 31
0.0
210
0.0
220
0.0
230
1.0
  0
ARC
  5
FB
100
AcDbEntity
  8
0
370
    35
390
0
 62
     7
100
AcDbCircle
 10
1883.972168
 20
516.166748
 30
0.0
 40
30.0
210
0.0
220
0.0
230
1.0
100
AcDbArc
 50
100.205398
 51
180.000005
  0
LINE
  5
FC
100
AcDbEntity
  8
0
370
    35
390
0
 62
     7
100
AcDbLine
 10
1853.972168
 20
516.166748
 30
0.0
 11
1853.972168
 21
366.166718
 31
0.0
210
0.0
220
0.0
230
1.0
  0
LINE
  5
FD
100
AcDbEntity
  8
0
370
    35
390
0
 62
     7
100
AcDbLine
 10
1853.972168
 20
216.166718
 30
0.0
 11
1853.972168
 21
366.166718
 31
0.0
210
0.0
220
0.0
230
1.0
  0
ARC
  5
FE
100
AcDbEntity
  8
0
370
    35
390
0
 62
     7
100
AcDbCircle
 10
1883.972168
 20
216.166718
 30
0.0
 40
30.0
210
0.0
220
0.0
230
1.0
100
AcDbArc
 50
180.000005
 51
259.794602
  0
LINE
  5
FF
100
AcDbEntity
  8
0
370
    35
390
0
 62
     7
100
AcDbLine
 10
1968.656982
 20
170.439041
 30
0.0
 11
1878.656982
 21
186.641357
 31
0.0
210
0.0
220
0.0
230
1.0
  0
ARC
  5
100
100
AcDbEntity
  8
0
370
    35
390
0
 62
     7
100
AcDbCircle
 10
1973.972168
 20
199.964401
 30
0.0
 40
30.0
210
0.0
220
0.0
230
1.0
100
AcDbArc
 50
259.794602
 51
360.0
  0
LINE
  5
101
100
AcDbEntity
  8
0
370
    35
390
0
 62
     7
100
AcDbLine
 10
2003.972168
 20
366.166718
 30
0.0
 11
2003.972168
 21
199.964401
 31
0.0
210
0.0
220
0.0
230
1.0
  0
CIRCLE
  5
102
100
AcDbEntity
  8
0
370
    35
390
0
 62
     7
100
AcDbCircle
 10
1979.387451
 20
505.315857
 30
0.0
 40
1.5
210
0.0
220
0.0
230
1.0
  0
CIRCLE
  5
103
100
AcDbEntity
  8
0
370
    35
390
0
 62
     7
100
AcDbCircle
 10
1919.828125
 20
234.276169
 30
0.0
 40
1.5
210
0.0
220
0.0
230
1.0
  0
CIRCLE
  5
104
100
AcDbEntity
  8
0
370
    35
390
0
 62
     7
100
AcDbCircle
 10
1979.387451
 20
227.017578
 30
0.0
 40
1.5
210
0.0
220
0.0
230
1.0
  0
ENDSEC
  0
SECTION
  2
OBJECTS
  0
DICTIONARY
  5
19
100
AcDbDictionary
280
     0
281
     1
  3
ACAD_GROUP
350
1A
  3
ACAD_MLINESTYLE
350
1B
  3
ACAD_LAYOUT
350
1E
  3
ACAD_PLOTSETTINGS
350
22
  3
ACAD_PLOTSTYLENAME
350
1F
  3
ACAD_WIPEOUT_VARS
350
23
  0
DICTIONARY
  5
1A
102
{ACAD_REACTORS
330
19
102
}
100
AcDbDictionary
280
     0
281
     1
  0
DICTIONARY
  5
1B
102
{ACAD_REACTORS
330
19
102
}
100
AcDbDictionary
280
     0
281
     1
  3
Standard
350
1C
  0
MLINESTYLE
  5
1C
102
{ACAD_REACTORS
330
1B
102
}
100
AcDbMlineStyle
  2
Standard
 70
     0
  3

 62
     0
 51
90.0
 52
90.0
 71
     2
 49
0.5
 62
   256
  6
ByLayer
 49
-0.5
 62
   256
  6
ByLayer
  0
ACDBDICTIONARYWDFLT
  5
1F
102
{ACAD_REACTORS
330
19
102
}
100
AcDbDictionary
281
     1
  3
Normal
350
1D
100
AcDbDictionaryWithDefault
340
1D
  0
ACDBPLACEHOLDER
  5
1D
102
{ACAD_REACTORS
330
1F
102
}
  0
LAYOUT
  5
20
102
{ACAD_REACTORS
330
1E
102
}
100
AcDbPlotSettings
  1

  2

  4

  6

 40
0.0
 41
0.0
 42
0.0
 43
0.0
 44
0.0
 45
0.0
 46
0.0
 47
0.0
 48
0.0
 49
0.0
140
0.0
141
0.0
142
1.0
143
1.0
 70
  1024
 72
     0
 73
     0
 74
     0
  7

 75
     0
147
1.0
148
0.0
149
0.0
100
AcDbLayout
  1
Model
 70
     0
 71
     0
 10
0.0
 20
0.0
 11
0.0
 21
0.0
 12
0.0
 22
0.0
 32
0.0
 14
0.0
 24
0.0
 34
0.0
 15
0.0
 25
0.0
 35
0.0
146
0.0
 13
0.0
 23
0.0
 33
0.0
 16
0.0
 26
0.0
 36
0.0
 17
0.0
 27
0.0
 37
0.0
 76
     0
330
A
331
0
345
0
346
0
  0
LAYOUT
  5
21
102
{ACAD_REACTORS
330
1E
102
}
100
AcDbPlotSettings
  1

  2

  4

  6

 40
0.0
 41
0.0
 42
0.0
 43
0.0
 44
0.0
 45
0.0
 46
0.0
 47
0.0
 48
0.0
 49
0.0
140
0.0
141
0.0
142
1.0
143
1.0
 70
     0
 72
     0
 73
     0
 74
     0
  7

 75
     0
147
1.0
148
0.0
149
0.0
100
AcDbLayout
  1
Layout1
 70
     0
 71
     0
 10
0.0
 20
0.0
 11
0.0
 21
0.0
 12
0.0
 22
0.0
 32
0.0
 14
0.0
 24
0.0
 34
0.0
 15
0.0
 25
0.0
 35
0.0
146
0.0
 13
0.0
 23
0.0
 33
0.0
 16
0.0
 26
0.0
 36
0.0
 17
0.0
 27
0.0
 37
0.0
 76
     0
330
B
331
0
345
0
346
0
  0
DICTIONARY
  5
1E
102
{ACAD_REACTORS
330
19
102
}
100
AcDbDictionary
280
     0
281
     1
  3
Layout1
350
21
  3
Model
350
20
  0
DICTIONARY
  5
22
102
{ACAD_REACTORS
330
19
102
}
100
AcDbDictionary
280
     0
281
     1
  0
WIPEOUTVARIABLES
  5
23
100
AcDbWipeoutVariables
 70
     1
  0
ENDSEC
  0
EOF
