  0
SECTION
  2
HEADER
  9
$ACADVER
  1
AC1024
  9
$ACADMAINTVER
 70
     6
  9
$DWGCODEPAGE
  3
ANSI_1252
  9
$COMMENTS
  1
File was created by Mastercam X5
  9
$LASTSAVEDBY
  1
CFORCHT
  9
$INSBASE
 10
0.0
 20
0.0
 30
0.0
  9
$EXTMIN
 10
286.8946542887675
 20
-0.7725603166480825
 30
-0.00000001
  9
$EXTMAX
 10
552.3333777781252
 20
237.1352163345889
 30
0.00000001
  9
$LIMMIN
 10
0.0
 20
0.0
  9
$LIMMAX
 10
12.0
 20
9.0
  9
$ORTHOMODE
 70
     0
  9
$REGENMODE
 70
     1
  9
$FILLMODE
 70
     1
  9
$QTEXTMODE
 70
     0
  9
$MIRRTEXT
 70
     1
  9
$LTSCALE
 40
1.0
  9
$ATTMODE
 70
     1
  9
$TEXTSIZE
 40
0.2
  9
$TRACEWID
 40
0.05
  9
$TEXTSTYLE
  7
Standard
  9
$CLAYER
  8
7
  9
$CELTYPE
  6
ByLayer
  9
$CECOLOR
 62
   256
  9
$CELTSCALE
 40
1.0
  9
$DISPSILH
 70
     0
  9
$DIMSCALE
 40
1.0
  9
$DIMASZ
 40
0.18
  9
$DIMEXO
 40
0.0625
  9
$DIMDLI
 40
0.38
  9
$DIMRND
 40
0.0
  9
$DIMDLE
 40
0.0
  9
$DIMEXE
 40
0.18
  9
$DIMTP
 40
0.0
  9
$DIMTM
 40
0.0
  9
$DIMTXT
 40
0.18
  9
$DIMCEN
 40
0.09
  9
$DIMTSZ
 40
0.0
  9
$DIMTOL
 70
     0
  9
$DIMLIM
 70
     0
  9
$DIMTIH
 70
     1
  9
$DIMTOH
 70
     1
  9
$DIMSE1
 70
     0
  9
$DIMSE2
 70
     0
  9
$DIMTAD
 70
     0
  9
$DIMZIN
 70
     0
  9
$DIMBLK
  1

  9
$DIMASO
 70
     1
  9
$DIMSHO
 70
     1
  9
$DIMPOST
  1

  9
$DIMAPOST
  1

  9
$DIMALT
 70
     0
  9
$DIMALTD
 70
     2
  9
$DIMALTF
 40
25.4
  9
$DIMLFAC
 40
1.0
  9
$DIMTOFL
 70
     0
  9
$DIMTVP
 40
0.0
  9
$DIMTIX
 70
     0
  9
$DIMSOXD
 70
     0
  9
$DIMSAH
 70
     0
  9
$DIMBLK1
  1

  9
$DIMBLK2
  1

  9
$DIMSTYLE
  2
Standard
  9
$DIMCLRD
 70
     0
  9
$DIMCLRE
 70
     0
  9
$DIMCLRT
 70
     0
  9
$DIMTFAC
 40
1.0
  9
$DIMGAP
 40
0.09
  9
$DIMJUST
 70
     0
  9
$DIMSD1
 70
     0
  9
$DIMSD2
 70
     0
  9
$DIMTOLJ
 70
     1
  9
$DIMTZIN
 70
     0
  9
$DIMALTZ
 70
     0
  9
$DIMALTTZ
 70
     0
  9
$DIMUPT
 70
     0
  9
$DIMDEC
 70
     4
  9
$DIMTDEC
 70
     4
  9
$DIMALTU
 70
     2
  9
$DIMALTTD
 70
     2
  9
$DIMTXSTY
  7
Standard
  9
$DIMAUNIT
 70
     0
  9
$DIMADEC
 70
     2
  9
$DIMALTRND
 40
0.0
  9
$DIMAZIN
 70
     0
  9
$DIMDSEP
 70
    46
  9
$DIMATFIT
 70
     3
  9
$DIMFRAC
 70
     0
  9
$DIMLDRBLK
  1

  9
$DIMLUNIT
 70
     2
  9
$DIMLWD
 70
    -2
  9
$DIMLWE
 70
    -2
  9
$DIMTMOVE
 70
     0
  9
$DIMFXL
 40
1.0
  9
$DIMFXLON
 70
     0
  9
$DIMJOGANG
 40
0.7853981633974483
  9
$DIMTFILL
 70
     0
  9
$DIMTFILLCLR
 70
     0
  9
$DIMARCSYM
 70
     0
  9
$DIMLTYPE
  6

  9
$DIMLTEX1
  6

  9
$DIMLTEX2
  6

  9
$DIMTXTDIRECTION
 70
     0
  9
$LUNITS
 70
     2
  9
$LUPREC
 70
     4
  9
$SKETCHINC
 40
0.1
  9
$FILLETRAD
 40
0.0
  9
$AUNITS
 70
     0
  9
$AUPREC
 70
     0
  9
$MENU
  1
.
  9
$ELEVATION
 40
0.0
  9
$PELEVATION
 40
0.0
  9
$THICKNESS
 40
0.0
  9
$LIMCHECK
 70
     0
  9
$CHAMFERA
 40
0.5
  9
$CHAMFERB
 40
0.5
  9
$CHAMFERC
 40
1.0
  9
$CHAMFERD
 40
0.0
  9
$SKPOLY
 70
     0
  9
$TDCREATE
 40
2453737.500000000
  9
$TDUCREATE
 40
2453737.750000000
  9
$TDUPDATE
 40
2457766.703853310
  9
$TDUUPDATE
 40
2457766.953853310
  9
$TDINDWG
 40
0.0788689468
  9
$TDUSRTIMER
 40
0.0788688657
  9
$USRTIMER
 70
     1
  9
$ANGBASE
 50
0.0
  9
$ANGDIR
 70
     0
  9
$PDMODE
 70
     2
  9
$PDSIZE
 40
0.1
  9
$PLINEWID
 40
0.0
  9
$SPLFRAME
 70
     0
  9
$SPLINETYPE
 70
     6
  9
$SPLINESEGS
 70
     8
  9
$HANDSEED
  5
2680
  9
$SURFTAB1
 70
     6
  9
$SURFTAB2
 70
     6
  9
$SURFTYPE
 70
     6
  9
$SURFU
 70
     6
  9
$SURFV
 70
     6
  9
$UCSBASE
  2

  9
$UCSNAME
  2

  9
$UCSORG
 10
0.0
 20
0.0
 30
0.0
  9
$UCSXDIR
 10
1.0
 20
0.0
 30
0.0
  9
$UCSYDIR
 10
0.0
 20
1.0
 30
0.0
  9
$UCSORTHOREF
  2

  9
$UCSORTHOVIEW
 70
     0
  9
$UCSORGTOP
 10
0.0
 20
0.0
 30
0.0
  9
$UCSORGBOTTOM
 10
0.0
 20
0.0
 30
0.0
  9
$UCSORGLEFT
 10
0.0
 20
0.0
 30
0.0
  9
$UCSORGRIGHT
 10
0.0
 20
0.0
 30
0.0
  9
$UCSORGFRONT
 10
0.0
 20
0.0
 30
0.0
  9
$UCSORGBACK
 10
0.0
 20
0.0
 30
0.0
  9
$PUCSBASE
  2

  9
$PUCSNAME
  2

  9
$PUCSORG
 10
0.0
 20
0.0
 30
0.0
  9
$PUCSXDIR
 10
1.0
 20
0.0
 30
0.0
  9
$PUCSYDIR
 10
0.0
 20
1.0
 30
0.0
  9
$PUCSORTHOREF
  2

  9
$PUCSORTHOVIEW
 70
     0
  9
$PUCSORGTOP
 10
0.0
 20
0.0
 30
0.0
  9
$PUCSORGBOTTOM
 10
0.0
 20
0.0
 30
0.0
  9
$PUCSORGLEFT
 10
0.0
 20
0.0
 30
0.0
  9
$PUCSORGRIGHT
 10
0.0
 20
0.0
 30
0.0
  9
$PUCSORGFRONT
 10
0.0
 20
0.0
 30
0.0
  9
$PUCSORGBACK
 10
0.0
 20
0.0
 30
0.0
  9
$USERI1
 70
     0
  9
$USERI2
 70
     0
  9
$USERI3
 70
     0
  9
$USERI4
 70
     0
  9
$USERI5
 70
     0
  9
$USERR1
 40
0.0
  9
$USERR2
 40
0.0
  9
$USERR3
 40
0.0
  9
$USERR4
 40
0.0
  9
$USERR5
 40
0.0
  9
$WORLDVIEW
 70
     1
  9
$SHADEDGE
 70
     3
  9
$SHADEDIF
 70
    70
  9
$TILEMODE
 70
     1
  9
$MAXACTVP
 70
    64
  9
$PINSBASE
 10
0.0
 20
0.0
 30
0.0
  9
$PLIMCHECK
 70
     0
  9
$PEXTMIN
 10
1.000000000000000E+20
 20
1.000000000000000E+20
 30
1.000000000000000E+20
  9
$PEXTMAX
 10
-1.000000000000000E+20
 20
-1.000000000000000E+20
 30
-1.000000000000000E+20
  9
$PLIMMIN
 10
0.0
 20
0.0
  9
$PLIMMAX
 10
12.0
 20
9.0
  9
$UNITMODE
 70
     0
  9
$VISRETAIN
 70
     1
  9
$PLINEGEN
 70
     0
  9
$PSLTSCALE
 70
     1
  9
$TREEDEPTH
 70
  3020
  9
$CMLSTYLE
  2
Standard
  9
$CMLJUST
 70
     0
  9
$CMLSCALE
 40
1.0
  9
$PROXYGRAPHICS
 70
     1
  9
$MEASUREMENT
 70
     0
  9
$CELWEIGHT
370
    -1
  9
$ENDCAPS
280
     0
  9
$JOINSTYLE
280
     0
  9
$LWDISPLAY
290
     0
  9
$INSUNITS
 70
     1
  9
$HYPERLINKBASE
  1

  9
$STYLESHEET
  1

  9
$XEDIT
290
     1
  9
$CEPSNTYPE
380
     0
  9
$PSTYLEMODE
290
     1
  9
$FINGERPRINTGUID
  2
{C8A18024-8C73-4009-B4D5-852A41F0D8D3}
  9
$VERSIONGUID
  2
{B75226E2-DF94-4CC5-AEDE-D1F207FB9FAE}
  9
$EXTNAMES
290
     1
  9
$PSVPSCALE
 40
0.0
  9
$OLESTARTUP
290
     0
  9
$SORTENTS
280
   127
  9
$INDEXCTL
280
     0
  9
$HIDETEXT
280
     1
  9
$XCLIPFRAME
280
     0
  9
$HALOGAP
280
     0
  9
$OBSCOLOR
 70
   257
  9
$OBSLTYPE
280
     0
  9
$INTERSECTIONDISPLAY
280
     0
  9
$INTERSECTIONCOLOR
 70
   257
  9
$DIMASSOC
280
     2
  9
$PROJECTNAME
  1

  9
$CAMERADISPLAY
290
     0
  9
$LENSLENGTH
 40
50.0
  9
$CAMERAHEIGHT
 40
0.0
  9
$STEPSPERSEC
 40
2.0
  9
$STEPSIZE
 40
6.0
  9
$3DDWFPREC
 40
2.0
  9
$PSOLWIDTH
 40
0.25
  9
$PSOLHEIGHT
 40
4.0
  9
$LOFTANG1
 40
1.570796326794897
  9
$LOFTANG2
 40
1.570796326794897
  9
$LOFTMAG1
 40
0.0
  9
$LOFTMAG2
 40
0.0
  9
$LOFTPARAM
 70
     7
  9
$LOFTNORMALS
280
     1
  9
$LATITUDE
 40
37.795
  9
$LONGITUDE
 40
-122.394
  9
$NORTHDIRECTION
 40
0.0
  9
$TIMEZONE
 70
 -8000
  9
$LIGHTGLYPHDISPLAY
280
     1
  9
$TILEMODELIGHTSYNCH
280
     1
  9
$CMATERIAL
347
3C
  9
$SOLIDHIST
280
     1
  9
$SHOWHIST
280
     1
  9
$DWFFRAME
280
     2
  9
$DGNFRAME
280
     2
  9
$REALWORLDSCALE
290
     1
  9
$INTERFERECOLOR
 62
   256
  9
$INTERFEREOBJVS
345
33
  9
$INTERFEREVPVS
346
30
  9
$CSHADOW
280
     0
  9
$SHADOWPLANELOCATION
 40
0.0
  0
ENDSEC
  0
SECTION
  2
CLASSES
  0
CLASS
  1
ACDBDICTIONARYWDFLT
  2
AcDbDictionaryWithDefault
  3
ObjectDBX Classes
 90
        0
 91
        1
280
     0
281
     0
  0
CLASS
  1
VISUALSTYLE
  2
AcDbVisualStyle
  3
ObjectDBX Classes
 90
     4095
 91
       19
280
     0
281
     0
  0
CLASS
  1
MATERIAL
  2
AcDbMaterial
  3
ObjectDBX Classes
 90
     1153
 91
        3
280
     0
281
     0
  0
CLASS
  1
TABLESTYLE
  2
AcDbTableStyle
  3
ObjectDBX Classes
 90
     4095
 91
        1
280
     0
281
     0
  0
CLASS
  1
SCALE
  2
AcDbScale
  3
ObjectDBX Classes
 90
     1153
 91
       33
280
     0
281
     0
  0
CLASS
  1
MLEADERSTYLE
  2
AcDbMLeaderStyle
  3
ACDB_MLEADERSTYLE_CLASS
 90
     4095
 91
        1
280
     0
281
     0
  0
CLASS
  1
SORTENTSTABLE
  2
AcDbSortentsTable
  3
ObjectDBX Classes
 90
        0
 91
        1
280
     0
281
     0
  0
CLASS
  1
DICTIONARYVAR
  2
AcDbDictionaryVar
  3
ObjectDBX Classes
 90
        0
 91
        5
280
     0
281
     0
  0
CLASS
  1
CELLSTYLEMAP
  2
AcDbCellStyleMap
  3
ObjectDBX Classes
 90
     1152
 91
        2
280
     0
281
     0
  0
CLASS
  1
DIMASSOC
  2
AcDbDimAssoc
  3
\"AcDbDimAssoc|Product Desc:     AcDim ARX App For Dimension|Company:          Autodesk, Inc.|WEB Address:      www.autodesk.com\"
 90
        0
 91
        0
280
     0
281
     0
  0
ENDSEC
  0
SECTION
  2
TABLES
  0
TABLE
  2
VPORT
  5
8
330
0
100
AcDbSymbolTable
 70
     1
  0
VPORT
  5
29
330
8
100
AcDbSymbolTableRecord
100
AcDbViewportTableRecord
  2
*Active
 70
     0
 10
0.0
 20
0.0
 11
1.0
 21
1.0
 12
383.0985145703904
 22
126.8854108919917
 13
0.0
 23
0.0
 14
0.5
 24
0.5
 15
0.5
 25
0.5
 16
0.0
 26
0.0
 36
1.0
 17
0.0
 27
0.0
 37
0.0
 40
250.0880265881689
 41
1.924468085106382
 42
50.0
 43
0.0
 44
0.0
 50
0.0
 51
0.0
 71
     0
 72
   100
 73
     1
 74
     3
 75
     0
 76
     0
 77
     0
 78
     0
281
     0
 65
     1
110
0.0
120
0.0
130
0.0
111
1.0
121
0.0
131
0.0
112
0.0
122
1.0
132
0.0
 79
     0
146
0.0
348
2F
 60
     3
 61
     5
292
     1
282
     1
141
0.0
142
0.0
 63
   250
  0
ENDTAB
  0
TABLE
  2
LTYPE
  5
5
330
0
100
AcDbSymbolTable
 70
     5
  0
LTYPE
  5
14
330
5
100
AcDbSymbolTableRecord
100
AcDbLinetypeTableRecord
  2
ByBlock
 70
     0
  3

 72
    65
 73
     0
 40
0.0
  0
LTYPE
  5
15
330
5
100
AcDbSymbolTableRecord
100
AcDbLinetypeTableRecord
  2
ByLayer
 70
     0
  3

 72
    65
 73
     0
 40
0.0
  0
LTYPE
  5
16
330
5
100
AcDbSymbolTableRecord
100
AcDbLinetypeTableRecord
  2
Continuous
 70
     0
  3
Solid line
 72
    65
 73
     0
 40
0.0
  0
LTYPE
  5
40
330
5
100
AcDbSymbolTableRecord
100
AcDbLinetypeTableRecord
  2
Continuous2
 70
     0
  3
Solid Line
 72
    65
 73
     0
 40
0.0
  0
LTYPE
  5
41
330
5
100
AcDbSymbolTableRecord
100
AcDbLinetypeTableRecord
  2
DASHED
 70
     0
  3
__ __ __ __ __ __ __ __ __ __ __ __ __ __ __ __
 72
    83
 73
     2
 40
0.5
 49
0.375
 74
     0
 49
-0.125
 74
     0
  0
LTYPE
  5
42
330
5
100
AcDbSymbolTableRecord
100
AcDbLinetypeTableRecord
  2
CENTER
 70
     0
  3
____ _ ____ _ ____ _ ____ _ ____ _ ____ _ ____ _
 72
    83
 73
     4
 40
1.0
 49
0.625
 74
     0
 49
-0.125
 74
     0
 49
0.125
 74
     0
 49
-0.125
 74
     0
  0
LTYPE
  5
43
330
5
100
AcDbSymbolTableRecord
100
AcDbLinetypeTableRecord
  2
PHANTOM
 70
     0
  3
___ _ _ ___ _ _ ___ _ _ ___ _ _ ___ _ _ ___ _ _ 
 72
    83
 73
     6
 40
1.0
 49
0.5
 74
     0
 49
-0.1
 74
     0
 49
0.1
 74
     0
 49
-0.1
 74
     0
 49
0.1
 74
     0
 49
-0.1
 74
     0
  0
ENDTAB
  0
TABLE
  2
LAYER
  5
2
102
{ACAD_XDICTIONARY
360
2617
102
}
330
0
100
AcDbSymbolTable
 70
     3
  0
LAYER
  5
10
102
{ACAD_XDICTIONARY
360
169D
102
}
330
2
100
AcDbSymbolTableRecord
100
AcDbLayerTableRecord
  2
0
 70
     0
 62
     7
  6
Continuous
370
    -3
390
F
347
3E
  0
LAYER
  5
44
102
{ACAD_XDICTIONARY
360
169F
102
}
330
2
100
AcDbSymbolTableRecord
100
AcDbLayerTableRecord
  2
7
 70
     0
 62
     1
  6
Continuous
370
    -3
390
F
347
3E
  0
LAYER
  5
22C7
330
2
100
AcDbSymbolTableRecord
100
AcDbLayerTableRecord
  2
Defpoints
 70
     0
 62
     7
  6
Continuous
290
     0
370
    -3
390
F
347
3E
  0
ENDTAB
  0
TABLE
  2
STYLE
  5
3
330
0
100
AcDbSymbolTable
 70
     1
  0
STYLE
  5
11
330
3
100
AcDbSymbolTableRecord
100
AcDbTextStyleTableRecord
  2
Standard
 70
     0
 40
0.0
 41
1.0
 50
0.0
 71
     0
 42
0.2
  3
txt
  4

  0
ENDTAB
  0
TABLE
  2
VIEW
  5
6
330
0
100
AcDbSymbolTable
 70
     0
  0
ENDTAB
  0
TABLE
  2
UCS
  5
7
330
0
100
AcDbSymbolTable
 70
     0
  0
ENDTAB
  0
TABLE
  2
APPID
  5
9
330
0
100
AcDbSymbolTable
 70
     5
  0
APPID
  5
12
330
9
100
AcDbSymbolTableRecord
100
AcDbRegAppTableRecord
  2
ACAD
 70
     0
  0
APPID
  5
3F
330
9
100
AcDbSymbolTableRecord
100
AcDbRegAppTableRecord
  2
Mastercam X5
 70
     0
  0
APPID
  5
216F
330
9
100
AcDbSymbolTableRecord
100
AcDbRegAppTableRecord
  2
ACAD_EXEMPT_FROM_CAD_STANDARDS
 70
     0
  0
APPID
  5
2552
330
9
100
AcDbSymbolTableRecord
100
AcDbRegAppTableRecord
  2
ACAD_DSTYLE_DIMJAG
 70
     0
  0
APPID
  5
2553
330
9
100
AcDbSymbolTableRecord
100
AcDbRegAppTableRecord
  2
ACAD_DSTYLE_DIMTALN
 70
     0
  0
ENDTAB
  0
TABLE
  2
DIMSTYLE
  5
A
330
0
100
AcDbSymbolTable
 70
     1
100
AcDbDimStyleTable
 71
     1
340
27
  0
DIMSTYLE
105
27
330
A
100
AcDbSymbolTableRecord
100
AcDbDimStyleTableRecord
  2
Standard
 70
     0
179
     2
340
11
1001
ACAD_DSTYLE_DIMJAG
1070
   388
1040
1.5
1001
ACAD_DSTYLE_DIMTALN
1070
   392
1070
     0
  0
ENDTAB
  0
TABLE
  2
BLOCK_RECORD
  5
1
330
0
100
AcDbSymbolTable
 70
     9
  0
BLOCK_RECORD
  5
1F
102
{ACAD_XDICTIONARY
360
1652
102
}
330
1
100
AcDbSymbolTableRecord
100
AcDbBlockTableRecord
  2
*Model_Space
340
22
 70
     0
280
     1
281
     0
  0
BLOCK_RECORD
  5
1B
330
1
100
AcDbSymbolTableRecord
100
AcDbBlockTableRecord
  2
*Paper_Space
340
1E
 70
     0
280
     1
281
     0
  0
BLOCK_RECORD
  5
23
330
1
100
AcDbSymbolTableRecord
100
AcDbBlockTableRecord
  2
*Paper_Space0
340
26
 70
     0
280
     1
281
     0
  0
BLOCK_RECORD
  5
22C8
330
1
100
AcDbSymbolTableRecord
100
AcDbBlockTableRecord
  2
*D1
340
0
 70
     0
280
     1
281
     0
  0
BLOCK_RECORD
  5
22E2
330
1
100
AcDbSymbolTableRecord
100
AcDbBlockTableRecord
  2
*D2
340
0
 70
     0
280
     1
281
     0
  0
BLOCK_RECORD
  5
22FC
330
1
100
AcDbSymbolTableRecord
100
AcDbBlockTableRecord
  2
*D3
340
0
 70
     0
280
     1
281
     0
  0
BLOCK_RECORD
  5
2316
330
1
100
AcDbSymbolTableRecord
100
AcDbBlockTableRecord
  2
*D4
340
0
 70
     0
280
     1
281
     0
  0
BLOCK_RECORD
  5
2330
330
1
100
AcDbSymbolTableRecord
100
AcDbBlockTableRecord
  2
*D5
340
0
 70
     0
280
     1
281
     0
  0
BLOCK_RECORD
  5
234A
330
1
100
AcDbSymbolTableRecord
100
AcDbBlockTableRecord
  2
*D6
340
0
 70
     0
280
     1
281
     0
  0
BLOCK_RECORD
  5
2537
330
1
100
AcDbSymbolTableRecord
100
AcDbBlockTableRecord
  2
*D7
340
0
 70
     0
280
     1
281
     0
  0
BLOCK_RECORD
  5
2596
330
1
100
AcDbSymbolTableRecord
100
AcDbBlockTableRecord
  2
*D8
340
0
 70
     0
280
     1
281
     0
  0
ENDTAB
  0
ENDSEC
  0
SECTION
  2
BLOCKS
  0
BLOCK
  5
20
330
1F
100
AcDbEntity
  8
0
100
AcDbBlockBegin
  2
*Model_Space
 70
     0
 10
0.0
 20
0.0
 30
0.0
  3
*Model_Space
  1

  0
ENDBLK
  5
21
330
1F
100
AcDbEntity
  8
0
100
AcDbBlockEnd
  0
BLOCK
  5
1C
330
1B
100
AcDbEntity
 67
     1
  8
0
100
AcDbBlockBegin
  2
*Paper_Space
 70
     0
 10
0.0
 20
0.0
 30
0.0
  3
*Paper_Space
  1

  0
ENDBLK
  5
1D
330
1B
100
AcDbEntity
 67
     1
  8
0
100
AcDbBlockEnd
  0
BLOCK
  5
24
330
23
100
AcDbEntity
 67
     1
  8
0
100
AcDbBlockBegin
  2
*Paper_Space0
 70
     0
 10
0.0
 20
0.0
 30
0.0
  3
*Paper_Space0
  1

  0
ENDBLK
  5
25
330
23
100
AcDbEntity
 67
     1
  8
0
100
AcDbBlockEnd
  0
BLOCK
  5
22C9
330
22C8
100
AcDbEntity
  8
0
100
AcDbBlockBegin
  2
*D1
 70
     1
 10
0.0
 20
0.0
 30
0.0
  3
*D1
  1

  0
LINE
  5
22D6
330
22C8
100
AcDbEntity
  8
7
 62
     0
370
    -2
100
AcDbLine
 10
471.0635446730733
 20
317.9444195889308
 30
0.0
 11
471.0635446730733
 21
338.3750112878823
 31
0.0
  0
LINE
  5
22D7
330
22C8
100
AcDbEntity
  8
7
 62
     0
370
    -2
100
AcDbLine
 10
389.6607446730734
 20
317.9441195889308
 30
0.0
 11
389.6607446730734
 21
338.3750112878823
 31
0.0
  0
LINE
  5
22D8
330
22C8
100
AcDbEntity
  8
7
 62
     0
370
    -2
100
AcDbLine
 10
470.8835446730733
 20
338.1950112878822
 30
0.0
 11
430.9471446730731
 21
338.1950112878822
 31
0.0
  0
LINE
  5
22D9
330
22C8
100
AcDbEntity
  8
7
 62
     0
370
    -2
100
AcDbLine
 10
389.8407446730733
 20
338.1950112878822
 30
0.0
 11
429.7771446730733
 21
338.1950112878822
 31
0.0
  0
SOLID
  5
22DA
330
22C8
100
AcDbEntity
  8
7
 62
     0
100
AcDbTrace
 10
470.8835446730733
 20
338.2250112878822
 30
0.0
 11
470.8835446730733
 21
338.1650112878823
 31
0.0
 12
471.0635446730733
 22
338.1950112878822
 32
0.0
 13
471.0635446730733
 23
338.1950112878822
 33
0.0
  0
SOLID
  5
22DB
330
22C8
100
AcDbEntity
  8
7
 62
     0
100
AcDbTrace
 10
389.8407446730733
 20
338.2250112878822
 30
0.0
 11
389.8407446730733
 21
338.1650112878823
 31
0.0
 12
389.6607446730734
 22
338.1950112878822
 32
0.0
 13
389.6607446730734
 23
338.1950112878822
 33
0.0
  0
MTEXT
  5
22DC
330
22C8
100
AcDbEntity
  8
7
 62
     0
100
AcDbMText
 10
430.3621446730732
 20
338.1950112878822
 30
0.0
 40
0.18
 41
0.0
 46
0.0
 71
     5
 72
     1
  1
\\A1;81.4028
 73
     1
 44
1.0
  0
POINT
  5
22DD
330
22C8
100
AcDbEntity
  8
Defpoints
 62
     0
100
AcDbPoint
 10
471.0635446730733
 20
317.8819195889308
 30
0.0
  0
POINT
  5
22DE
330
22C8
100
AcDbEntity
  8
Defpoints
 62
     0
100
AcDbPoint
 10
389.6607446730734
 20
317.8816195889309
 30
0.0
  0
POINT
  5
22DF
330
22C8
100
AcDbEntity
  8
Defpoints
 62
     0
100
AcDbPoint
 10
389.6607446730734
 20
338.1950112878822
 30
0.0
  0
ENDBLK
  5
22CA
330
22C8
100
AcDbEntity
  8
0
100
AcDbBlockEnd
  0
BLOCK
  5
22E3
330
22E2
100
AcDbEntity
  8
0
100
AcDbBlockBegin
  2
*D2
 70
     1
 10
0.0
 20
0.0
 30
0.0
  3
*D2
  1

  0
LINE
  5
22F0
330
22E2
100
AcDbEntity
  8
7
 62
     0
370
    -2
100
AcDbLine
 10
374.9822446730734
 20
329.7509402479895
 30
0.0
 11
374.9822446730734
 21
340.4416591676391
 31
0.0
  0
LINE
  5
22F1
330
22E2
100
AcDbEntity
  8
7
 62
     0
370
    -2
100
AcDbLine
 10
293.5262446730733
 20
329.7509402479895
 30
0.0
 11
293.5262446730733
 21
340.4416591676391
 31
0.0
  0
LINE
  5
22F2
330
22E2
100
AcDbEntity
  8
7
 62
     0
370
    -2
100
AcDbLine
 10
374.8022446730733
 20
340.2616591676391
 30
0.0
 11
334.8392446730733
 21
340.2616591676391
 31
0.0
  0
LINE
  5
22F3
330
22E2
100
AcDbEntity
  8
7
 62
     0
370
    -2
100
AcDbLine
 10
293.7062446730733
 20
340.2616591676391
 30
0.0
 11
333.6692446730733
 21
340.2616591676391
 31
0.0
  0
SOLID
  5
22F4
330
22E2
100
AcDbEntity
  8
7
 62
     0
100
AcDbTrace
 10
374.8022446730733
 20
340.2916591676391
 30
0.0
 11
374.8022446730733
 21
340.2316591676391
 31
0.0
 12
374.9822446730734
 22
340.2616591676391
 32
0.0
 13
374.9822446730734
 23
340.2616591676391
 33
0.0
  0
SOLID
  5
22F5
330
22E2
100
AcDbEntity
  8
7
 62
     0
100
AcDbTrace
 10
293.7062446730733
 20
340.2916591676391
 30
0.0
 11
293.7062446730733
 21
340.2316591676391
 31
0.0
 12
293.5262446730733
 22
340.2616591676391
 32
0.0
 13
293.5262446730733
 23
340.2616591676391
 33
0.0
  0
MTEXT
  5
22F6
330
22E2
100
AcDbEntity
  8
7
 62
     0
100
AcDbMText
 10
334.2542446730734
 20
340.2616591676391
 30
0.0
 40
0.18
 41
0.0
 46
0.0
 71
     5
 72
     1
  1
\\A1;81.4560
 73
     1
 44
1.0
  0
POINT
  5
22F7
330
22E2
100
AcDbEntity
  8
Defpoints
 62
     0
100
AcDbPoint
 10
374.9822446730734
 20
329.6884402479896
 30
0.0
  0
POINT
  5
22F8
330
22E2
100
AcDbEntity
  8
Defpoints
 62
     0
100
AcDbPoint
 10
293.5262446730733
 20
329.6884402479896
 30
0.0
  0
POINT
  5
22F9
330
22E2
100
AcDbEntity
  8
Defpoints
 62
     0
100
AcDbPoint
 10
293.5262446730733
 20
340.2616591676391
 30
0.0
  0
ENDBLK
  5
22E4
330
22E2
100
AcDbEntity
  8
0
100
AcDbBlockEnd
  0
BLOCK
  5
22FD
330
22FC
100
AcDbEntity
  8
0
100
AcDbBlockBegin
  2
*D3
 70
     1
 10
0.0
 20
0.0
 30
0.0
  3
*D3
  1

  0
LINE
  5
230A
330
22FC
100
AcDbEntity
  8
7
 62
     0
370
    -2
100
AcDbLine
 10
85.1773
 20
92.7467
 30
0.0
 11
85.1773
 21
96.28366321934285
 31
0.0
  0
LINE
  5
230B
330
22FC
100
AcDbEntity
  8
7
 62
     0
370
    -2
100
AcDbLine
 10
3.745299999999998
 20
92.7467
 30
0.0
 11
3.745299999999998
 21
96.28366321934285
 31
0.0
  0
LINE
  5
230C
330
22FC
100
AcDbEntity
  8
7
 62
     0
370
    -2
100
AcDbLine
 10
84.99729999999997
 20
96.1036632193428
 30
0.0
 11
45.04629999999998
 21
96.1036632193428
 31
0.0
  0
LINE
  5
230D
330
22FC
100
AcDbEntity
  8
7
 62
     0
370
    -2
100
AcDbLine
 10
3.925299999999998
 20
96.1036632193428
 30
0.0
 11
43.87629999999999
 21
96.1036632193428
 31
0.0
  0
SOLID
  5
230E
330
22FC
100
AcDbEntity
  8
7
 62
     0
100
AcDbTrace
 10
84.99729999999997
 20
96.13366321934281
 30
0.0
 11
84.99729999999997
 21
96.0736632193428
 31
0.0
 12
85.1773
 22
96.1036632193428
 32
0.0
 13
85.1773
 23
96.1036632193428
 33
0.0
  0
SOLID
  5
230F
330
22FC
100
AcDbEntity
  8
7
 62
     0
100
AcDbTrace
 10
3.925299999999998
 20
96.13366321934281
 30
0.0
 11
3.925299999999998
 21
96.0736632193428
 31
0.0
 12
3.745299999999998
 22
96.1036632193428
 32
0.0
 13
3.745299999999998
 23
96.1036632193428
 33
0.0
  0
MTEXT
  5
2310
330
22FC
100
AcDbEntity
  8
7
 62
     0
100
AcDbMText
 10
44.46129999999999
 20
96.1036632193428
 30
0.0
 40
0.18
 41
0.0
 46
0.0
 71
     5
 72
     1
  1
\\A1;81.4320
 73
     1
 44
1.0
  0
POINT
  5
2311
330
22FC
100
AcDbEntity
  8
Defpoints
 62
     0
100
AcDbPoint
 10
85.1773
 20
92.6842
 30
0.0
  0
POINT
  5
2312
330
22FC
100
AcDbEntity
  8
Defpoints
 62
     0
100
AcDbPoint
 10
3.745299999999998
 20
92.6842
 30
0.0
  0
POINT
  5
2313
330
22FC
100
AcDbEntity
  8
Defpoints
 62
     0
100
AcDbPoint
 10
3.745299999999998
 20
96.1036632193428
 30
0.0
  0
ENDBLK
  5
22FE
330
22FC
100
AcDbEntity
  8
0
100
AcDbBlockEnd
  0
BLOCK
  5
2317
330
2316
100
AcDbEntity
  8
0
100
AcDbBlockBegin
  2
*D4
 70
     1
 10
0.0
 20
0.0
 30
0.0
  3
*D4
  1

  0
LINE
  5
2324
330
2316
100
AcDbEntity
  8
7
 62
     0
370
    -2
100
AcDbLine
 10
81.9766
 20
76.63739999999998
 30
0.0
 11
81.9766
 21
68.94198742101463
 31
0.0
  0
LINE
  5
2325
330
2316
100
AcDbEntity
  8
7
 62
     0
370
    -2
100
AcDbLine
 10
6.945899999999999
 20
76.63739999999998
 30
0.0
 11
6.945899999999997
 21
68.94198742101463
 31
0.0
  0
LINE
  5
2326
330
2316
100
AcDbEntity
  8
7
 62
     0
370
    -2
100
AcDbLine
 10
81.7966
 20
69.12198742101463
 30
0.0
 11
45.06124999999999
 21
69.12198742101463
 31
0.0
  0
LINE
  5
2327
330
2316
100
AcDbEntity
  8
7
 62
     0
370
    -2
100
AcDbLine
 10
7.125899999999997
 20
69.12198742101463
 30
0.0
 11
43.86124999999998
 21
69.12198742101463
 31
0.0
  0
SOLID
  5
2328
330
2316
100
AcDbEntity
  8
7
 62
     0
100
AcDbTrace
 10
81.7966
 20
69.15198742101464
 30
0.0
 11
81.7966
 21
69.09198742101463
 31
0.0
 12
81.9766
 22
69.12198742101463
 32
0.0
 13
81.9766
 23
69.12198742101463
 33
0.0
  0
SOLID
  5
2329
330
2316
100
AcDbEntity
  8
7
 62
     0
100
AcDbTrace
 10
7.125899999999997
 20
69.15198742101464
 30
0.0
 11
7.125899999999997
 21
69.09198742101463
 31
0.0
 12
6.945899999999997
 22
69.12198742101463
 32
0.0
 13
6.945899999999997
 23
69.12198742101463
 33
0.0
  0
MTEXT
  5
232A
330
2316
100
AcDbEntity
  8
7
 62
     0
100
AcDbMText
 10
44.46125
 20
69.12198742101463
 30
0.0
 40
0.18
 41
0.0
 46
0.0
 71
     5
 72
     1
  1
\\A1;75.0307
 73
     1
 44
1.0
  0
POINT
  5
232B
330
2316
100
AcDbEntity
  8
Defpoints
 62
     0
100
AcDbPoint
 10
81.9766
 20
76.69989999999998
 30
0.0
  0
POINT
  5
232C
330
2316
100
AcDbEntity
  8
Defpoints
 62
     0
100
AcDbPoint
 10
6.945899999999999
 20
76.69989999999998
 30
0.0
  0
POINT
  5
232D
330
2316
100
AcDbEntity
  8
Defpoints
 62
     0
100
AcDbPoint
 10
6.945899999999997
 20
69.12198742101463
 30
0.0
  0
ENDBLK
  5
2318
330
2316
100
AcDbEntity
  8
0
100
AcDbBlockEnd
  0
BLOCK
  5
2331
330
2330
100
AcDbEntity
  8
0
100
AcDbBlockBegin
  2
*D5
 70
     1
 10
0.0
 20
0.0
 30
0.0
  3
*D5
  1

  0
LINE
  5
233E
330
2330
100
AcDbEntity
  8
7
 62
     0
370
    -2
100
AcDbLine
 10
467.8640946730731
 20
305.9324195889308
 30
0.0
 11
467.8640946730731
 21
306.0500695889309
 31
0.0
  0
LINE
  5
233F
330
2330
100
AcDbEntity
  8
7
 62
     0
370
    -2
100
AcDbLine
 10
392.8620946730733
 20
305.9325695889309
 30
0.0
 11
392.8620946730733
 21
306.0500695889309
 31
0.0
  0
LINE
  5
2340
330
2330
100
AcDbEntity
  8
7
 62
     0
370
    -2
100
AcDbLine
 10
467.6840946730733
 20
305.8700695889308
 30
0.0
 11
430.9480946730731
 21
305.8700695889308
 31
0.0
  0
LINE
  5
2341
330
2330
100
AcDbEntity
  8
7
 62
     0
370
    -2
100
AcDbLine
 10
393.0420946730734
 20
305.8700695889308
 30
0.0
 11
429.7780946730733
 21
305.8700695889308
 31
0.0
  0
SOLID
  5
2342
330
2330
100
AcDbEntity
  8
7
 62
     0
100
AcDbTrace
 10
467.6840946730733
 20
305.9000695889308
 30
0.0
 11
467.6840946730733
 21
305.8400695889309
 31
0.0
 12
467.8640946730731
 22
305.8700695889308
 32
0.0
 13
467.8640946730731
 23
305.8700695889308
 33
0.0
  0
SOLID
  5
2343
330
2330
100
AcDbEntity
  8
7
 62
     0
100
AcDbTrace
 10
393.0420946730734
 20
305.9000695889308
 30
0.0
 11
393.0420946730734
 21
305.8400695889309
 31
0.0
 12
392.8620946730733
 22
305.8700695889308
 32
0.0
 13
392.8620946730733
 23
305.8700695889308
 33
0.0
  0
MTEXT
  5
2344
330
2330
100
AcDbEntity
  8
7
 62
     0
100
AcDbMText
 10
430.3630946730732
 20
305.8700695889308
 30
0.0
 40
0.18
 41
0.0
 46
0.0
 71
     5
 72
     1
  1
\\A1;75.0020
 73
     1
 44
1.0
  0
POINT
  5
2345
330
2330
100
AcDbEntity
  8
Defpoints
 62
     0
100
AcDbPoint
 10
467.8640946730731
 20
305.8699195889308
 30
0.0
  0
POINT
  5
2346
330
2330
100
AcDbEntity
  8
Defpoints
 62
     0
100
AcDbPoint
 10
392.8620946730733
 20
305.8700695889308
 30
0.0
  0
POINT
  5
2347
330
2330
100
AcDbEntity
  8
Defpoints
 62
     0
100
AcDbPoint
 10
392.8620946730733
 20
305.8700695889308
 30
0.0
  0
ENDBLK
  5
2332
330
2330
100
AcDbEntity
  8
0
100
AcDbBlockEnd
  0
BLOCK
  5
234B
330
234A
100
AcDbEntity
  8
0
100
AcDbBlockBegin
  2
*D6
 70
     1
 10
0.0
 20
0.0
 30
0.0
  3
*D6
  1

  0
LINE
  5
2358
330
234A
100
AcDbEntity
  8
7
 62
     0
370
    -2
100
AcDbLine
 10
371.8092946730733
 20
295.6925902479895
 30
0.0
 11
371.8092946730733
 21
293.0009355983653
 31
0.0
  0
LINE
  5
2359
330
234A
100
AcDbEntity
  8
7
 62
     0
370
    -2
100
AcDbLine
 10
296.7542946730733
 20
295.6953902479896
 30
0.0
 11
296.7542946730733
 21
293.0009355983653
 31
0.0
  0
LINE
  5
235A
330
234A
100
AcDbEntity
  8
7
 62
     0
370
    -2
100
AcDbLine
 10
371.6292946730733
 20
293.1809355983654
 30
0.0
 11
334.8817946730733
 21
293.1809355983654
 31
0.0
  0
LINE
  5
235B
330
234A
100
AcDbEntity
  8
7
 62
     0
370
    -2
100
AcDbLine
 10
296.9342946730733
 20
293.1809355983654
 30
0.0
 11
333.6817946730733
 21
293.1809355983654
 31
0.0
  0
SOLID
  5
235C
330
234A
100
AcDbEntity
  8
7
 62
     0
100
AcDbTrace
 10
371.6292946730733
 20
293.2109355983654
 30
0.0
 11
371.6292946730733
 21
293.1509355983654
 31
0.0
 12
371.8092946730733
 22
293.1809355983654
 32
0.0
 13
371.8092946730733
 23
293.1809355983654
 33
0.0
  0
SOLID
  5
235D
330
234A
100
AcDbEntity
  8
7
 62
     0
100
AcDbTrace
 10
296.9342946730733
 20
293.2109355983654
 30
0.0
 11
296.9342946730733
 21
293.1509355983654
 31
0.0
 12
296.7542946730733
 22
293.1809355983654
 32
0.0
 13
296.7542946730733
 23
293.1809355983654
 33
0.0
  0
MTEXT
  5
235E
330
234A
100
AcDbEntity
  8
7
 62
     0
100
AcDbMText
 10
334.2817946730733
 20
293.1809355983654
 30
0.0
 40
0.18
 41
0.0
 46
0.0
 71
     5
 72
     1
  1
\\A1;75.0550
 73
     1
 44
1.0
  0
POINT
  5
235F
330
234A
100
AcDbEntity
  8
Defpoints
 62
     0
100
AcDbPoint
 10
371.8092946730733
 20
295.7550902479895
 30
0.0
  0
POINT
  5
2360
330
234A
100
AcDbEntity
  8
Defpoints
 62
     0
100
AcDbPoint
 10
296.7542946730733
 20
295.7578902479895
 30
0.0
  0
POINT
  5
2361
330
234A
100
AcDbEntity
  8
Defpoints
 62
     0
100
AcDbPoint
 10
296.7542946730733
 20
293.1809355983654
 30
0.0
  0
ENDBLK
  5
234C
330
234A
100
AcDbEntity
  8
0
100
AcDbBlockEnd
  0
BLOCK
  5
2538
330
2537
100
AcDbEntity
  8
0
100
AcDbBlockBegin
  2
*D7
 70
     1
 10
0.0
 20
0.0
 30
0.0
  3
*D7
  1

  0
LINE
  5
255F
330
2537
100
AcDbEntity
  8
7
 62
     0
370
    -2
100
AcDbLine
 10
576.6291065657967
 20
204.1153412052458
 30
0.0
 11
576.6289226279179
 21
225.4741813597473
 31
0.0
  0
ARC
  5
2560
330
2537
100
AcDbEntity
  8
7
 62
     0
370
    -2
100
AcDbCircle
 10
576.6295047379706
 20
157.8796453247998
 30
0.0
 40
67.41453603745394
100
AcDbArc
 50
90.15347590620363
 51
106.7271020407145
  0
ARC
  5
2561
330
2537
100
AcDbEntity
  8
7
 62
     0
370
    -2
100
AcDbCircle
 10
576.6295047379706
 20
157.8796453247998
 30
0.0
 40
67.41453603745394
100
AcDbArc
 50
107.6345021634281
 51
124.2070175131049
  0
SOLID
  5
2562
330
2537
100
AcDbEntity
  8
7
 62
     0
100
AcDbTrace
 10
576.4488840314596
 20
225.3239394782954
 30
0.0
 11
576.4489646495857
 21
225.2639395324562
 31
0.0
 12
576.6289241780405
 22
225.294181359754
 32
0.0
 13
576.6289241780405
 23
225.294181359754
 33
0.0
  0
SOLID
  5
2563
330
2537
100
AcDbEntity
  8
7
 62
     0
100
AcDbTrace
 10
538.746984461128
 20
213.6074692376541
 30
0.0
 11
538.7131871659708
 21
213.6570448651343
 31
0.0
 12
538.581358931109
 22
213.5308651659225
 32
0.0
 13
538.581358931109
 23
213.5308651659225
 33
0.0
  0
MTEXT
  5
2564
330
2537
100
AcDbEntity
  8
7
 62
     0
100
AcDbMText
 10
556.7166873455781
 20
222.2861618634421
 30
0.0
 40
0.18
 41
0.0
 46
0.0
 71
     5
 72
     1
  1
\\A1;34.36°
 73
     1
 44
1.0
  0
POINT
  5
2565
330
2537
100
AcDbEntity
  8
Defpoints
 62
     0
100
AcDbPoint
 10
563.2426390206702
 20
223.9516628164138
 30
0.0
  0
POINT
  5
2566
330
2537
100
AcDbEntity
  8
Defpoints
 62
     0
100
AcDbPoint
 10
576.626595861888
 20
157.8839
 30
0.0
  0
POINT
  5
2567
330
2537
100
AcDbEntity
  8
Defpoints
 62
     0
100
AcDbPoint
 10
576.6291498911017
 20
199.084412977109
 30
0.0
  0
POINT
  5
2568
330
2537
100
AcDbEntity
  8
Defpoints
 62
     0
100
AcDbPoint
 10
576.6291071040337
 20
204.0528412052481
 30
0.0
  0
POINT
  5
2569
330
2537
100
AcDbEntity
  8
Defpoints
 62
     0
100
AcDbPoint
 10
533.1098336228445
 20
221.5338059489547
 30
0.0
  0
ENDBLK
  5
2539
330
2537
100
AcDbEntity
  8
0
100
AcDbBlockEnd
  0
BLOCK
  5
2597
330
2596
100
AcDbEntity
  8
0
100
AcDbBlockBegin
  2
*D8
 70
     1
 10
0.0
 20
0.0
 30
0.0
  3
*D8
  1

  0
ARC
  5
25A4
330
2596
100
AcDbEntity
  8
7
 62
     0
370
    -2
100
AcDbCircle
 10
390.7862446730733
 20
228.6071224384335
 30
0.0
 40
21.29495053387351
100
AcDbArc
 50
62.4798598733391
 51
74.66274939706408
  0
ARC
  5
25A5
330
2596
100
AcDbEntity
  8
7
 62
     0
370
    -2
100
AcDbCircle
 10
390.7862446730733
 20
228.6071224384335
 30
0.0
 40
21.29495053387351
100
AcDbArc
 50
77.32509037265545
 51
89.51569406095435
  0
SOLID
  5
25A6
330
2596
100
AcDbEntity
  8
7
 62
     0
100
AcDbTrace
 10
400.6397717240766
 20
247.5190633360804
 30
0.0
 11
400.6118234607886
 21
247.4659700730503
 31
0.0
 12
400.7850773815231
 22
247.4086719147015
 32
0.0
 13
400.7850773815231
 23
247.4086719147015
 33
0.0
  0
SOLID
  5
25A7
330
2596
100
AcDbEntity
  8
7
 62
     0
100
AcDbTrace
 10
390.966116274859
 20
249.8713124965139
 30
0.0
 11
390.9663698561009
 21
249.9313119606493
 31
0.0
 12
390.7862446730733
 22
249.9020729723069
 32
0.0
 13
390.7862446730733
 23
249.9020729723069
 33
0.0
  0
MTEXT
  5
25A8
330
2596
100
AcDbEntity
  8
7
 62
     0
100
AcDbMText
 10
395.9387611545034
 20
249.2693220345247
 30
0.0
 40
0.18
 41
0.0
 46
0.0
 71
     5
 72
     1
  1
\\A1;28.00°
 73
     1
 44
1.0
  0
POINT
  5
25A9
330
2596
100
AcDbEntity
  8
Defpoints
 62
     0
100
AcDbPoint
 10
397.6029900782483
 20
248.7815344576509
 30
0.0
  0
POINT
  5
25AA
330
2596
100
AcDbEntity
  8
Defpoints
 62
     0
100
AcDbPoint
 10
390.7862446730733
 20
228.6071603398164
 30
0.0
  0
POINT
  5
25AB
330
2596
100
AcDbEntity
  8
Defpoints
 62
     0
100
AcDbPoint
 10
398.9848446730733
 20
244.0235603398163
 30
0.0
  0
POINT
  5
25AC
330
2596
100
AcDbEntity
  8
Defpoints
 62
     0
100
AcDbPoint
 10
401.7409446730733
 20
249.2060603398164
 30
0.0
  0
POINT
  5
25AD
330
2596
100
AcDbEntity
  8
Defpoints
 62
     0
100
AcDbPoint
 10
390.7862446730733
 20
253.5581392712899
 30
0.0
  0
ENDBLK
  5
2598
330
2596
100
AcDbEntity
  8
0
100
AcDbBlockEnd
  0
ENDSEC
  0
SECTION
  2
ENTITIES
  0
LINE
  5
16BC
330
1F
100
AcDbEntity
  8
7
  6
Continuous2
 62
     1
370
    -3
100
AcDbLine
 10
480.3645446730731
 20
153.6972
 30
0.0
 11
471.6084446730733
 21
153.6972
 31
0.0
  0
LINE
  5
16BD
330
1F
100
AcDbEntity
  8
7
  6
Continuous2
 62
     1
370
    -3
100
AcDbLine
 10
471.6084446730733
 20
153.6972
 30
0.0
 11
471.6084446730733
 21
156.8978
 31
0.0
  0
LINE
  5
16BE
330
1F
100
AcDbEntity
  8
7
  6
Continuous2
 62
     1
370
    -3
100
AcDbLine
 10
471.6084446730733
 20
156.8978
 30
0.0
 11
480.3645446730731
 21
156.8978
 31
0.0
  0
LINE
  5
16BF
330
1F
100
AcDbEntity
  8
7
  6
Continuous2
 62
     1
370
    -3
100
AcDbLine
 10
480.3645446730731
 20
156.8978
 30
0.0
 11
480.3645446730731
 21
153.6972
 31
0.0
  0
LINE
  5
16C0
330
1F
100
AcDbEntity
  8
7
  6
Continuous2
 62
     1
370
    -3
100
AcDbLine
 10
451.9357446730733
 20
153.6972
 30
0.0
 11
444.2901446730734
 21
153.6972
 31
0.0
  0
LINE
  5
16C1
330
1F
100
AcDbEntity
  8
7
  6
Continuous2
 62
     1
370
    -3
100
AcDbLine
 10
444.2901446730734
 20
153.6972
 30
0.0
 11
444.2901446730734
 21
156.8978
 31
0.0
  0
LINE
  5
16C2
330
1F
100
AcDbEntity
  8
7
  6
Continuous2
 62
     1
370
    -3
100
AcDbLine
 10
444.2901446730734
 20
156.8978
 30
0.0
 11
451.9357446730733
 21
156.8978
 31
0.0
  0
LINE
  5
16C3
330
1F
100
AcDbEntity
  8
7
  6
Continuous2
 62
     1
370
    -3
100
AcDbLine
 10
451.9357446730733
 20
156.8978
 30
0.0
 11
451.9357446730733
 21
153.6972
 31
0.0
  0
LINE
  5
16C4
330
1F
100
AcDbEntity
  8
7
  6
Continuous2
 62
     1
370
    -3
100
AcDbLine
 10
427.3024446730731
 20
153.6972
 30
0.0
 11
419.6574446730734
 21
153.6972
 31
0.0
  0
LINE
  5
16C5
330
1F
100
AcDbEntity
  8
7
  6
Continuous2
 62
     1
370
    -3
100
AcDbLine
 10
419.6574446730734
 20
153.6972
 30
0.0
 11
419.6574446730734
 21
156.8978
 31
0.0
  0
LINE
  5
16C6
330
1F
100
AcDbEntity
  8
7
  6
Continuous2
 62
     1
370
    -3
100
AcDbLine
 10
419.6574446730734
 20
156.8978
 30
0.0
 11
427.3024446730731
 21
156.8978
 31
0.0
  0
LINE
  5
16C7
330
1F
100
AcDbEntity
  8
7
  6
Continuous2
 62
     1
370
    -3
100
AcDbLine
 10
427.3024446730731
 20
156.8978
 30
0.0
 11
427.3024446730731
 21
153.6972
 31
0.0
  0
LINE
  5
16C8
330
1F
100
AcDbEntity
  8
7
  6
Continuous2
 62
     1
370
    -3
100
AcDbLine
 10
398.0399446730734
 20
153.6972
 30
0.0
 11
392.8641446730734
 21
153.6972
 31
0.0
  0
LINE
  5
16C9
330
1F
100
AcDbEntity
  8
7
  6
Continuous2
 62
     1
370
    -3
100
AcDbLine
 10
392.8641446730734
 20
153.6972
 30
0.0
 11
392.8641446730734
 21
156.8978
 31
0.0
  0
LINE
  5
16CA
330
1F
100
AcDbEntity
  8
7
  6
Continuous2
 62
     1
370
    -3
100
AcDbLine
 10
392.8641446730734
 20
156.8978
 30
0.0
 11
398.0399446730734
 21
156.8978
 31
0.0
  0
LINE
  5
16CB
330
1F
100
AcDbEntity
  8
7
  6
Continuous2
 62
     1
370
    -3
100
AcDbLine
 10
398.0399446730734
 20
156.8978
 30
0.0
 11
398.0399446730734
 21
153.6972
 31
0.0
  0
LINE
  5
16CC
330
1F
100
AcDbEntity
  8
7
  6
Continuous2
 62
     1
370
    -3
100
AcDbLine
 10
396.0425446730734
 20
163.2629908377975
 30
0.0
 11
393.6121446730734
 21
158.6929908377975
 31
0.0
  0
LINE
  5
16CD
330
1F
100
AcDbEntity
  8
7
  6
Continuous2
 62
     1
370
    -3
100
AcDbLine
 10
393.6121446730734
 20
158.6929908377975
 30
0.0
 11
390.7862446730733
 21
160.1956908377975
 31
0.0
  0
LINE
  5
16CE
330
1F
100
AcDbEntity
  8
7
  6
Continuous2
 62
     1
370
    -3
100
AcDbLine
 10
390.7862446730733
 20
160.1956908377975
 30
0.0
 11
393.2165446730734
 21
164.7657908377975
 31
0.0
  0
LINE
  5
16CF
330
1F
100
AcDbEntity
  8
7
  6
Continuous2
 62
     1
370
    -3
100
AcDbLine
 10
393.2165446730734
 20
164.7657908377975
 30
0.0
 11
396.0425446730734
 21
163.2629908377975
 31
0.0
  0
LINE
  5
16D0
330
1F
100
AcDbEntity
  8
7
  6
Continuous2
 62
     1
370
    -3
100
AcDbLine
 10
404.5667446730733
 20
179.2917908377975
 30
0.0
 11
401.8107446730732
 21
174.1094908377975
 31
0.0
  0
LINE
  5
16D1
330
1F
100
AcDbEntity
  8
7
  6
Continuous2
 62
     1
370
    -3
100
AcDbLine
 10
401.8107446730732
 20
174.1094908377975
 30
0.0
 11
398.9848446730733
 21
175.6120908377975
 31
0.0
  0
LINE
  5
16D2
330
1F
100
AcDbEntity
  8
7
  6
Continuous2
 62
     1
370
    -3
100
AcDbLine
 10
398.9848446730733
 20
175.6120908377975
 30
0.0
 11
401.7409446730733
 21
180.7945908377975
 31
0.0
  0
LINE
  5
16D3
330
1F
100
AcDbEntity
  8
7
  6
Continuous2
 62
     1
370
    -3
100
AcDbLine
 10
401.7409446730733
 20
180.7945908377975
 30
0.0
 11
404.5667446730733
 21
179.2917908377975
 31
0.0
  0
LINE
  5
16D4
330
1F
100
AcDbEntity
  8
7
  6
Continuous2
 62
     1
370
    -3
100
AcDbLine
 10
486.4206446730731
 20
161.1442
 30
0.0
 11
482.9559446730733
 21
156.0774
 31
0.0
  0
LINE
  5
16D5
330
1F
100
AcDbEntity
  8
7
  6
Continuous2
 62
     1
370
    -3
100
AcDbLine
 10
482.9559446730733
 20
156.0774
 30
0.0
 11
480.3138446730733
 21
157.8839
 31
0.0
  0
LINE
  5
16D6
330
1F
100
AcDbEntity
  8
7
  6
Continuous2
 62
     1
370
    -3
100
AcDbLine
 10
480.3138446730733
 20
157.8839
 30
0.0
 11
483.7786446730733
 21
162.9507
 31
0.0
  0
LINE
  5
16D7
330
1F
100
AcDbEntity
  8
7
  6
Continuous2
 62
     1
370
    -3
100
AcDbLine
 10
483.7786446730733
 20
162.9507
 30
0.0
 11
486.4206446730731
 21
161.1442
 31
0.0
  0
LINE
  5
16D8
330
1F
100
AcDbEntity
  8
7
  6
Continuous2
 62
     1
370
    -3
100
AcDbLine
 10
520.4425446730733
 20
210.8998
 30
0.0
 11
516.7688446730733
 21
205.5275
 31
0.0
  0
LINE
  5
16D9
330
1F
100
AcDbEntity
  8
7
  6
Continuous2
 62
     1
370
    -3
100
AcDbLine
 10
516.7688446730733
 20
205.5275
 30
0.0
 11
514.1267446730734
 21
207.334
 31
0.0
  0
LINE
  5
16DA
330
1F
100
AcDbEntity
  8
7
  6
Continuous2
 62
     1
370
    -3
100
AcDbLine
 10
514.1267446730734
 20
207.334
 30
0.0
 11
517.8004446730733
 21
212.7064
 31
0.0
  0
LINE
  5
16DB
330
1F
100
AcDbEntity
  8
7
  6
Continuous2
 62
     1
370
    -3
100
AcDbLine
 10
517.8004446730733
 20
212.7064
 30
0.0
 11
520.4425446730733
 21
210.8998
 31
0.0
  0
LINE
  5
16DC
330
1F
100
AcDbEntity
  8
7
  6
Continuous2
 62
     1
370
    -3
100
AcDbLine
 10
509.0154446730734
 20
194.1886
 30
0.0
 11
506.2112446730733
 21
190.0872
 31
0.0
  0
LINE
  5
16DD
330
1F
100
AcDbEntity
  8
7
  6
Continuous2
 62
     1
370
    -3
100
AcDbLine
 10
506.2112446730733
 20
190.0872
 30
0.0
 11
503.5691446730734
 21
191.8938
 31
0.0
  0
LINE
  5
16DE
330
1F
100
AcDbEntity
  8
7
  6
Continuous2
 62
     1
370
    -3
100
AcDbLine
 10
503.5691446730734
 20
191.8938
 30
0.0
 11
506.3732446730734
 21
195.9953
 31
0.0
  0
LINE
  5
16DF
330
1F
100
AcDbEntity
  8
7
  6
Continuous2
 62
     1
370
    -3
100
AcDbLine
 10
506.3732446730734
 20
195.9953
 30
0.0
 11
509.0154446730734
 21
194.1886
 31
0.0
  0
LINE
  5
16E0
330
1F
100
AcDbEntity
  8
7
  6
Continuous2
 62
     1
370
    -3
100
AcDbLine
 10
496.3705446730734
 20
175.6952
 30
0.0
 11
493.4709446730733
 21
171.4548
 31
0.0
  0
LINE
  5
16E1
330
1F
100
AcDbEntity
  8
7
  6
Continuous2
 62
     1
370
    -3
100
AcDbLine
 10
493.4709446730733
 20
171.4548
 30
0.0
 11
490.8287446730732
 21
173.2613
 31
0.0
  0
LINE
  5
16E2
330
1F
100
AcDbEntity
  8
7
  6
Continuous2
 62
     1
370
    -3
100
AcDbLine
 10
490.8287446730732
 20
173.2613
 30
0.0
 11
493.7284446730733
 21
177.5018
 31
0.0
  0
LINE
  5
16E3
330
1F
100
AcDbEntity
  8
7
  6
Continuous2
 62
     1
370
    -3
100
AcDbLine
 10
493.7284446730733
 20
177.5018
 30
0.0
 11
496.3705446730734
 21
175.6952
 31
0.0
  0
LINE
  5
1828
330
1F
100
AcDbEntity
  8
7
  6
Continuous2
 62
     1
370
    -3
100
AcDbLine
 10
406.6427446730733
 20
127.5246
 30
0.0
 11
392.4840446730734
 21
127.5246
 31
0.0
  0
ARC
  5
213E
330
1F
100
AcDbEntity
  8
7
 62
     1
100
AcDbCircle
 10
343.5263446730733
 20
138.5562567137254
 30
0.0
 40
14.32265671372548
100
AcDbArc
 50
157.6782803066363
 51
269.9999999999998
  0
ARC
  5
213F
330
1F
100
AcDbEntity
  8
7
 62
     1
100
AcDbCircle
 10
341.15690958611
 20
138.5858272672396
 30
0.0
 40
12.15091303366786
100
AcDbArc
 50
69.14015877370677
 51
153.5602507277853
  0
LINE
  5
2140
330
1F
100
AcDbEntity
  8
7
 62
     1
100
AcDbLine
 10
345.4836446730733
 20
149.9403
 30
0.0
 11
357.6331446730733
 21
144.8798
 31
0.0
  0
ARC
  5
2141
330
1F
100
AcDbEntity
  8
7
 62
     1
100
AcDbCircle
 10
364.4454818471782
 20
163.5009871574161
 30
0.0
 40
19.82817563280121
100
AcDbArc
 50
249.9055619521375
 51
296.0616241854457
  0
ARC
  5
2142
330
1F
100
AcDbEntity
  8
7
 62
     1
100
AcDbCircle
 10
373.2825534147316
 20
145.3250214078876
 30
0.0
 40
0.3850135962214027
100
AcDbArc
 50
309.4214532950301
 51
109.0725057187492
  0
ARC
  5
2143
330
1F
100
AcDbEntity
  8
7
 62
     1
100
AcDbCircle
 10
387.7255129637057
 20
118.138123354501
 30
0.0
 40
30.40790121118083
100
AcDbArc
 50
117.8354279585009
 51
142.761108467272
  0
ARC
  5
2144
330
1F
100
AcDbEntity
  8
7
100
AcDbCircle
 10
360.4906428753051
 20
139.8232801852574
 30
0.0
 40
4.466041519992042
100
AcDbArc
 50
211.1527672007808
 51
312.6626983915712
  0
ARC
  5
2145
330
1F
100
AcDbEntity
  8
7
100
AcDbCircle
 10
345.9987656527145
 20
131.3607507364819
 30
0.0
 40
12.31646292040446
100
AcDbArc
 50
29.96733407131726
 51
83.81189024587698
  0
ARC
  5
2146
330
1F
100
AcDbEntity
  8
7
100
AcDbCircle
 10
346.7269603044675
 20
136.1808103077765
 30
0.0
 40
7.448798300505055
100
AcDbArc
 50
85.38418996086788
 51
200.2184723199503
  0
ARC
  5
2147
330
1F
100
AcDbEntity
  8
7
100
AcDbCircle
 10
341.587806227826
 20
131.1472182664595
 30
0.0
 40
3.077826316601615
100
AcDbArc
 50
23.94941268700895
 51
126.962235169166
  0
LINE
  5
2148
330
1F
100
AcDbEntity
  8
7
100
AcDbLine
 10
344.4006446730734
 20
132.3965999999999
 30
0.0
 11
345.7461446730733
 21
129.7064
 31
0.0
  0
LINE
  5
2149
330
1F
100
AcDbEntity
  8
7
100
AcDbLine
 10
343.5263446730733
 20
124.2336
 30
0.0
 11
526.203036536684
 21
124.2336
 31
0.0
  0
ARC
  5
214B
330
1F
100
AcDbEntity
  8
7
100
AcDbCircle
 10
350.6021056362048
 20
132.655047709597
 30
0.0
 40
5.681098502118143
100
AcDbArc
 50
211.2670567117552
 51
265.4134654820629
  0
ARC
  5
214C
330
1F
100
AcDbEntity
  8
7
100
AcDbCircle
 10
357.528795135519
 20
217.3334014026414
 30
0.0
 40
90.64227492424903
100
AcDbArc
 50
265.3292481985923
 51
275.5110321939737
  0
ARC
  5
214E
330
1F
100
AcDbEntity
  8
7
100
AcDbCircle
 10
365.8590084880381
 20
129.4757797980114
 30
0.0
 40
2.395191656701232
100
AcDbArc
 50
279.0035277964443
 51
342.6558990653036
  0
ARC
  5
214F
330
1F
100
AcDbEntity
  8
7
100
AcDbCircle
 10
372.433073161393
 20
127.0058064495057
 30
0.0
 40
4.633398549382513
100
AcDbArc
 50
125.0078541624303
 51
157.7297759132087
  0
ARC
  5
2150
330
1F
100
AcDbEntity
  8
7
100
AcDbCircle
 10
370.7153751749131
 20
129.640755248316
 30
0.0
 40
1.493434087481106
100
AcDbArc
 50
24.77129485261786
 51
129.0287361571279
  0
ARC
  5
2151
330
1F
100
AcDbEntity
  8
7
100
AcDbCircle
 10
377.7592532731034
 20
132.9492717888568
 30
0.0
 40
6.288799561523909
100
AcDbArc
 50
205.2516770437834
 51
232.9336391780381
  0
ARC
  5
2152
330
1F
100
AcDbEntity
  8
7
100
AcDbCircle
 10
375.666642962585
 20
129.7701914640759
 30
0.0
 40
2.502947903267413
100
AcDbArc
 50
227.2844249779819
 51
257.7212181761465
  0
ARC
  5
2153
330
1F
100
AcDbEntity
  8
7
100
AcDbCircle
 10
377.4554013187911
 20
138.4037875049162
 30
0.0
 40
11.31980192270268
100
AcDbArc
 50
258.1679294608691
 51
274.9144312693673
  0
ARC
  5
2154
330
1F
100
AcDbEntity
  8
7
100
AcDbCircle
 10
381.6060094078885
 20
134.7254325659573
 30
0.0
 40
8.23865010130766
100
AcDbArc
 50
194.4126631728988
 51
247.2885419748322
  0
ARC
  5
2155
330
1F
100
AcDbEntity
  8
7
100
AcDbCircle
 10
377.2754791763729
 20
133.4328457331539
 30
0.0
 40
3.726744768027806
100
AcDbArc
 50
49.54773126806592
 51
191.7362584502845
  0
ARC
  5
2156
330
1F
100
AcDbEntity
  8
7
100
AcDbCircle
 10
376.859212942256
 20
133.4029091681797
 30
0.0
 40
4.030586383606852
100
AcDbArc
 50
332.0343919830125
 51
45.31722415070599
  0
ARC
  5
2157
330
1F
100
AcDbEntity
  8
7
100
AcDbCircle
 10
383.4225525888379
 20
138.4573051918326
 30
0.0
 40
7.566149051391176
100
AcDbArc
 50
246.6121471394938
 51
319.9186112369036
  0
ARC
  5
2158
330
1F
100
AcDbEntity
  8
7
100
AcDbCircle
 10
387.2048917819538
 20
135.2724091971814
 30
0.0
 40
2.621490750564049
100
AcDbArc
 50
319.9515532361413
 51
57.96457058484804
  0
ARC
  5
2159
330
1F
100
AcDbEntity
  8
7
100
AcDbCircle
 10
390.8813563913867
 20
133.6749353721202
 30
0.0
 40
4.451515943622251
100
AcDbArc
 50
31.47666423454925
 51
120.8981197102054
  0
ARC
  5
215B
330
1F
100
AcDbEntity
  8
7
100
AcDbCircle
 10
396.4086359996222
 20
142.2273226714598
 30
0.0
 40
2.673947231140859
100
AcDbArc
 50
343.8382473415618
 51
220.6052706285867
  0
ARC
  5
215C
330
1F
100
AcDbEntity
  8
7
100
AcDbCircle
 10
394.9567575291276
 20
145.2825628601643
 30
0.0
 40
4.830295358742998
100
AcDbArc
 50
170.6129306811066
 51
263.1248943180127
  0
ARC
  5
215D
330
1F
100
AcDbEntity
  8
7
100
AcDbCircle
 10
390.3515629815432
 20
152.9118303336407
 30
0.0
 40
6.843310824721585
100
AcDbArc
 50
181.3475171932376
 51
268.6567709315602
  0
ARC
  5
215E
330
1F
100
AcDbEntity
  8
7
100
AcDbCircle
 10
387.0651861066842
 20
162.683813444134
 30
0.0
 40
10.5499331317003
100
AcDbArc
 50
250.3074470268634
 51
291.2486102293994
  0
ARC
  5
215F
330
1F
100
AcDbEntity
  8
7
100
AcDbCircle
 10
392.7426299347051
 20
160.6084276467598
 30
0.0
 40
7.975800497099486
100
AcDbArc
 50
174.0814422361419
 51
256.5585663947617
  0
ARC
  5
2161
330
1F
100
AcDbEntity
  8
7
100
AcDbCircle
 10
391.8394912393808
 20
160.7014100283545
 30
0.0
 40
7.06788818643862
100
AcDbArc
 50
117.8135450139811
 51
174.0762528805592
  0
ARC
  5
2162
330
1F
100
AcDbEntity
  8
7
100
AcDbCircle
 10
379.2185808849187
 20
186.7086900654625
 30
0.0
 40
21.84528979592962
100
AcDbArc
 50
295.2631836386499
 51
331.7979713198322
  0
ARC
  5
2163
330
1F
100
AcDbEntity
  8
7
100
AcDbCircle
 10
393.9026304237375
 20
178.458619674705
 30
0.0
 40
5.016546535676638
100
AcDbArc
 50
335.5841706239989
 51
111.8418508980559
  0
LINE
  5
2164
330
1F
100
AcDbEntity
  8
7
100
AcDbLine
 10
392.0362446730733
 20
183.11505
 30
0.0
 11
389.0958427261298
 21
182.0573742951598
 31
0.0
  0
ARC
  5
2165
330
1F
100
AcDbEntity
  8
7
100
AcDbCircle
 10
390.5652222056567
 20
177.7585427293938
 30
0.0
 40
4.543019798072711
100
AcDbArc
 50
108.8708917771735
 51
184.8612921325692
  0
ARC
  5
2166
330
1F
100
AcDbEntity
  8
7
100
AcDbCircle
 10
389.0834118043472
 20
177.4273232688012
 30
0.0
 40
3.045341920302075
100
AcDbArc
 50
181.011755513405
 51
275.42061586241
  0
ARC
  5
2167
330
1F
100
AcDbEntity
  8
7
100
AcDbCircle
 10
389.4620959938062
 20
172.5014636916881
 30
0.0
 40
1.896321068500954
100
AcDbArc
 50
316.5573539411641
 51
92.75058637089941
  0
ARC
  5
2168
330
1F
100
AcDbEntity
  8
7
100
AcDbCircle
 10
386.4906760066757
 20
174.1212432788115
 30
0.0
 40
5.239820145345613
100
AcDbArc
 50
264.6557855997685
 51
326.0834092551318
  0
ARC
  5
2169
330
1F
100
AcDbEntity
  8
7
100
AcDbCircle
 10
372.5318616232597
 20
168.1215130782046
 30
0.0
 40
13.49350194696306
100
AcDbArc
 50
317.0820009743741
 51
3.325292620855043
  0
LINE
  5
216B
330
1F
100
AcDbEntity
  8
7
100
AcDbLine
 10
382.4135446730734
 20
158.9331
 30
0.0
 11
377.9801446730734
 21
177.4362
 31
0.0
  0
ARC
  5
216C
330
1F
100
AcDbEntity
  8
7
100
AcDbCircle
 10
394.0702431553969
 20
181.3148523254326
 30
0.0
 40
16.55098827963011
100
AcDbArc
 50
36.27957592123632
 51
193.5530550100842
  0
LINE
  5
2176
330
1F
100
AcDbEntity
  8
7
100
AcDbLine
 10
407.4126446730732
 20
191.1084999999999
 30
0.0
 11
416.3803826873913
 21
178.1785151489639
 31
0.0
  0
ARC
  5
2177
330
1F
100
AcDbEntity
  8
7
100
AcDbCircle
 10
427.0879767582434
 20
186.3542739359235
 30
0.0
 40
13.47203037885134
100
AcDbArc
 50
217.3634603010141
 51
294.4635870856401
  0
ARC
  5
2179
330
1F
100
AcDbEntity
  8
7
100
AcDbCircle
 10
403.6912303041841
 20
250.1203771891736
 30
0.0
 40
81.36308609143965
100
AcDbArc
 50
290.8626238194245
 51
308.175584609965
  0
ARC
  5
217A
330
1F
100
AcDbEntity
  8
7
100
AcDbCircle
 10
483.6089810819961
 20
147.5351364984142
 30
0.0
 40
48.6797578090093
100
AcDbArc
 50
114.6306031548967
 51
127.4926232928553
  0
ARC
  5
217B
330
1F
100
AcDbEntity
  8
7
100
AcDbCircle
 10
466.0519692206421
 20
185.6222029628265
 30
0.0
 40
6.741473422896882
100
AcDbArc
 50
40.87390998624786
 51
113.8983574612607
  0
ARC
  5
217C
330
1F
100
AcDbEntity
  8
7
100
AcDbCircle
 10
469.7335707938428
 20
188.8522969674976
 30
0.0
 40
1.844161446965888
100
AcDbArc
 50
284.1323073666871
 51
39.84196451357465
  0
LINE
  5
217D
330
1F
100
AcDbEntity
  8
7
100
AcDbLine
 10
470.1838446730733
 20
187.06395
 30
0.0
 11
468.7059446730732
 21
186.6004
 31
0.0
  0
ARC
  5
217E
330
1F
100
AcDbEntity
  8
7
100
AcDbCircle
 10
468.9803837570552
 20
184.7016742671089
 30
0.0
 40
1.918456728612848
100
AcDbArc
 50
98.224491414623
 51
280.5258174864611
  0
ARC
  5
217F
330
1F
100
AcDbEntity
  8
7
100
AcDbCircle
 10
466.4218356452003
 20
199.0009798310293
 30
0.0
 40
16.44481957593044
100
AcDbArc
 50
280.1889637464481
 51
336.6544497242379
  0
ARC
  5
2180
330
1F
100
AcDbEntity
  8
7
100
AcDbCircle
 10
550.1921280439232
 20
168.391717798246
 30
0.0
 40
72.77545155120101
100
AcDbArc
 50
126.3180323238066
 51
160.6672569874211
  0
ARC
  5
2181
330
1F
100
AcDbEntity
  8
7
100
AcDbCircle
 10
521.7217856763332
 20
207.6341441774671
 30
0.0
 40
24.29602506264526
100
AcDbArc
 50
53.0664212138191
 51
127.0307987223793
  0
ARC
  5
2182
330
1F
100
AcDbEntity
  8
7
100
AcDbCircle
 10
526.556520132406
 20
214.6446332490064
 30
0.0
 40
15.791008860381
100
AcDbArc
 50
308.6178130792057
 51
51.80377627328184
  0
ARC
  5
2183
330
1F
100
AcDbEntity
  8
7
100
AcDbCircle
 10
521.4091559122397
 20
223.4806283281745
 30
0.0
 40
25.95037402459968
100
AcDbArc
 50
273.3330208353417
 51
305.3196625574944
  0
ARC
  5
2184
330
1F
100
AcDbEntity
  8
7
100
AcDbCircle
 10
522.4814616908315
 20
199.1334940178245
 30
0.0
 40
1.619267585642789
100
AcDbArc
 50
172.9477026597006
 51
285.6359993665206
  0
ARC
  5
2185
330
1F
100
AcDbEntity
  8
7
100
AcDbCircle
 10
530.5323596857745
 20
197.7449043575534
 30
0.0
 40
9.78749954371492
100
AcDbArc
 50
138.7920414723892
 51
170.6661962533997
  0
ARC
  5
2186
330
1F
100
AcDbEntity
  8
7
100
AcDbCircle
 10
521.1159173615604
 20
205.8248927230525
 30
0.0
 40
2.622725661771845
100
AcDbArc
 50
321.5179295605221
 51
149.3306541292693
  0
ARC
  5
2188
330
1F
100
AcDbEntity
  8
7
100
AcDbCircle
 10
575.0094675867152
 20
183.4169229503821
 30
0.0
 40
60.96408468291118
100
AcDbArc
 50
157.0763369808232
 51
168.8964069207842
  0
LINE
  5
2189
330
1F
100
AcDbEntity
  8
7
100
AcDbLine
 10
515.1865946730733
 20
195.1576
 30
0.0
 11
512.6378446730733
 21
183.9412
 31
0.0
  0
ARC
  5
218A
330
1F
100
AcDbEntity
  8
7
100
AcDbCircle
 10
475.9323286352644
 20
191.0712237911813
 30
0.0
 40
37.3916052993806
100
AcDbArc
 50
279.0676175079314
 51
349.0072286546459
  0
ARC
  5
218C
330
1F
100
AcDbEntity
  8
7
100
AcDbCircle
 10
481.6910814457942
 20
151.3360666450888
 30
0.0
 40
2.814033390106604
100
AcDbArc
 50
323.3030593035774
 51
87.2673025677855
  0
ARC
  5
218D
330
1F
100
AcDbEntity
  8
7
100
AcDbCircle
 10
474.0298047313668
 20
156.0344737036501
 30
0.0
 40
11.79251002590099
100
AcDbArc
 50
300.105164269484
 51
327.2466676285587
  0
ARC
  5
218E
330
1F
100
AcDbEntity
  8
7
100
AcDbCircle
 10
477.1536170780348
 20
150.9965756352974
 30
0.0
 40
5.869947524796409
100
AcDbArc
 50
249.7314440986361
 51
298.3921046619215
  0
LINE
  5
218F
330
1F
100
AcDbEntity
  8
7
100
AcDbLine
 10
475.1201446730733
 20
145.4901
 30
0.0
 11
471.3987446730733
 21
146.6946
 31
0.0
  0
ARC
  5
2190
330
1F
100
AcDbEntity
  8
7
100
AcDbCircle
 10
470.7707866456685
 20
144.4791108234515
 30
0.0
 40
2.302764333488278
100
AcDbArc
 50
74.17515420468939
 51
185.6462630455208
  0
ARC
  5
2191
330
1F
100
AcDbEntity
  8
7
100
AcDbCircle
 10
475.7634712467433
 20
144.6595819444365
 30
0.0
 40
7.295639807824282
100
AcDbArc
 50
183.1982565745627
 51
280.8640219245097
  0
ARC
  5
2192
330
1F
100
AcDbEntity
  8
7
100
AcDbCircle
 10
483.9914501097706
 20
139.0958563519119
 30
0.0
 40
7.037472173130485
100
AcDbArc
 50
193.1510297198035
 51
277.2144876842581
  0
ARC
  5
2193
330
1F
100
AcDbEntity
  8
7
100
AcDbCircle
 10
484.8349474730812
 20
137.3177993834064
 30
0.0
 40
5.203855410865162
100
AcDbArc
 50
270.4436869165775
 51
330.1705752787007
  0
ARC
  5
2194
330
1F
100
AcDbEntity
  8
7
100
AcDbCircle
 10
488.1991150967738
 20
135.3879668035566
 30
0.0
 40
1.325469741752528
100
AcDbArc
 50
330.2028465356149
 51
81.02273873976866
  0
ARC
  5
2195
330
1F
100
AcDbEntity
  8
7
100
AcDbCircle
 10
491.7334933924226
 20
132.0172474966549
 30
0.0
 40
5.742345854544923
100
AcDbArc
 50
33.2489637919898
 51
125.4136603604836
  0
ARC
  5
2196
330
1F
100
AcDbEntity
  8
7
100
AcDbCircle
 10
492.7742126078988
 20
132.8514427833171
 30
0.0
 40
4.416452725297648
100
AcDbArc
 50
304.6753234997644
 51
31.60073469291607
  0
ARC
  5
2197
330
1F
100
AcDbEntity
  8
7
100
AcDbCircle
 10
499.0285764417915
 20
117.5347296843874
 30
0.0
 40
12.26915143820441
100
AcDbArc
 50
75.55176005265936
 51
107.7564014822728
  0
ARC
  5
2198
330
1F
100
AcDbEntity
  8
7
100
AcDbCircle
 10
509.7736370184526
 20
158.1231747175761
 30
0.0
 40
29.71787215850103
100
AcDbArc
 50
255.0153865306473
 51
274.8895477487384
  0
ARC
  5
2199
330
1F
100
AcDbEntity
  8
7
100
AcDbCircle
 10
511.7898490836005
 20
135.857835065748
 30
0.0
 40
7.362545054210637
100
AcDbArc
 50
274.0250449894589
 51
313.896688637123
  0
ARC
  5
219B
330
1F
100
AcDbEntity
  8
7
100
AcDbCircle
 10
521.5604683742646
 20
126.1574995113056
 30
0.0
 40
6.409724444461937
100
AcDbArc
 50
69.24600076133653
 51
136.7117430741612
  0
ARC
  5
219C
330
1F
100
AcDbEntity
  8
7
100
AcDbCircle
 10
520.5215954452106
 20
124.3047093350727
 30
0.0
 40
8.516243537561965
100
AcDbArc
 50
19.51541821368619
 51
67.12683820509646
  0
ARC
  5
21A0
330
1F
100
AcDbEntity
  8
7
100
AcDbCircle
 10
526.3454908002573
 20
126.5203785291243
 30
0.0
 40
2.291211308123775
100
AcDbArc
 50
266.4353808033929
 51
15.94090488620879
  0
ARC
  5
21A1
330
1F
100
AcDbEntity
  8
7
100
AcDbCircle
 10
550.1921280439232
 20
168.391717798246
 30
0.0
 40
69.77545155120101
100
AcDbArc
 50
125.619331952371
 51
136.8458008702886
  0
ARC
  5
21A2
330
1F
100
AcDbEntity
  8
7
100
AcDbCircle
 10
466.4218356452003
 20
199.0009798310293
 30
0.0
 40
19.44481957593044
100
AcDbArc
 50
280.1889637464481
 51
336.9803352560948
  0
ARC
  5
21A3
330
1F
100
AcDbEntity
  8
7
100
AcDbCircle
 10
403.6912303041841
 20
250.1203771891736
 30
0.0
 40
84.36308609143967
100
AcDbArc
 50
290.9240298349711
 51
299.6377131419756
  0
ARC
  5
21A5
330
1F
100
AcDbEntity
  8
7
100
AcDbCircle
 10
483.6089810819961
 20
147.5351364984142
 30
0.0
 40
45.67975780900932
100
AcDbArc
 50
121.2041532071805
 51
127.4707559406991
  0
ARC
  5
21A6
330
1F
100
AcDbEntity
  8
7
100
AcDbCircle
 10
427.0879767582434
 20
186.3542739359235
 30
0.0
 40
16.47203037885134
100
AcDbArc
 50
217.3634603010141
 51
250.0301693378733
  0
ARC
  5
21A8
330
1F
100
AcDbEntity
  8
7
100
AcDbCircle
 10
521.7217856763332
 20
207.6341441774671
 30
0.0
 40
21.29602506264526
100
AcDbArc
 50
53.0664212138191
 51
124.841819747286
  0
ARC
  5
21A9
330
1F
100
AcDbEntity
  8
7
100
AcDbCircle
 10
550.1921280439232
 20
168.391717798246
 30
0.0
 40
66.77545155120101
100
AcDbArc
 50
126.2844290191696
 51
131.8683740577657
  0
ARC
  5
21AA
330
1F
100
AcDbEntity
  8
7
100
AcDbCircle
 10
521.7217856763332
 20
207.6341441774671
 30
0.0
 40
18.29602506264526
100
AcDbArc
 50
53.0664212138191
 51
127.1419045747377
  0
ARC
  5
21AB
330
1F
100
AcDbEntity
  8
7
100
AcDbCircle
 10
403.6912303041841
 20
250.1203771891736
 30
0.0
 40
87.36308609143964
100
AcDbArc
 50
290.9771346793633
 51
299.701787534191
  0
ARC
  5
21AC
330
1F
100
AcDbEntity
  8
7
100
AcDbCircle
 10
483.6089810819961
 20
147.5351364984142
 30
0.0
 40
42.67975780900932
100
AcDbArc
 50
120.9999919774026
 51
128.3928094499485
  0
ARC
  5
21AD
330
1F
100
AcDbEntity
  8
7
100
AcDbCircle
 10
427.0879767582434
 20
186.3542739359235
 30
0.0
 40
19.47203037885134
100
AcDbArc
 50
217.3634603010141
 51
250.1562676646641
  0
ARC
  5
21B1
330
1F
100
AcDbEntity
  8
7
100
AcDbCircle
 10
460.6372467488939
 20
185.2624548587615
 30
0.0
 40
1.512630134058858
100
AcDbArc
 50
310.8828871055604
 51
117.3289499453013
  0
ARC
  5
21B3
330
1F
100
AcDbEntity
  8
7
100
AcDbCircle
 10
491.1343168786986
 20
239.4817041768038
 30
0.0
 40
102.6725013302858
100
AcDbArc
 50
210.2945244062188
 51
219.2377251889317
  0
ARC
  5
21B4
330
1F
100
AcDbEntity
  8
7
100
AcDbCircle
 10
355.4171601143157
 20
128.3510081738808
 30
0.0
 40
75.73731074798191
100
AcDbArc
 50
39.3355308603762
 51
51.57956787231988
  0
ARC
  5
21B7
330
1F
100
AcDbEntity
  8
7
100
AcDbCircle
 10
427.0879767582434
 20
186.3542739359235
 30
0.0
 40
16.47203037885134
100
AcDbArc
 50
267.2115717024443
 51
294.1220708286518
  0
ARC
  5
21B8
330
1F
100
AcDbEntity
  8
7
100
AcDbCircle
 10
427.0879767582434
 20
186.3542739359235
 30
0.0
 40
19.47203037885134
100
AcDbArc
 50
267.6414418573973
 51
293.8675076950154
  0
ARC
  5
21B9
330
1F
100
AcDbEntity
  8
7
100
AcDbCircle
 10
420.9141771540561
 20
169.4750226880748
 30
0.0
 40
1.501302132015354
100
AcDbArc
 50
253.1133398093714
 51
68.58383890935221
  0
ARC
  5
21BA
330
1F
100
AcDbEntity
  8
7
100
AcDbCircle
 10
426.4356491275949
 20
168.4002429344848
 30
0.0
 40
1.508879039047213
100
AcDbArc
 50
95.66729556952244
 51
264.3327044304755
  0
ARC
  5
21BD
330
1F
100
AcDbEntity
  8
7
100
AcDbCircle
 10
403.6912303041841
 20
250.1203771891736
 30
0.0
 40
87.36308609143964
100
AcDbArc
 50
303.5417587372692
 51
307.6889122781404
  0
ARC
  5
21BE
330
1F
100
AcDbEntity
  8
7
100
AcDbCircle
 10
403.6912303041841
 20
250.1203771891736
 30
0.0
 40
84.36308609143967
100
AcDbArc
 50
303.5766157130974
 51
308.1631382498526
  0
ARC
  5
21BF
330
1F
100
AcDbEntity
  8
7
100
AcDbCircle
 10
446.2593249378144
 20
175.5548973408448
 30
0.0
 40
1.502711626503477
100
AcDbArc
 50
298.5885080220666
 51
124.4174913565376
  0
ARC
  5
21C0
330
1F
100
AcDbEntity
  8
7
100
AcDbCircle
 10
451.090323001763
 20
178.5272998097845
 30
0.0
 40
1.50223743856631
100
AcDbArc
 50
119.5972938380535
 51
305.5259971485611
  0
ARC
  5
21C1
330
1F
100
AcDbEntity
  8
7
100
AcDbCircle
 10
470.1562094213618
 20
198.8045933007754
 30
0.0
 40
18.944074438695
100
AcDbArc
 50
269.1087155510957
 51
333.9930010683249
  0
ARC
  5
21C2
330
1F
100
AcDbEntity
  8
7
100
AcDbCircle
 10
495.4471327191841
 20
209.185562840063
 30
0.0
 40
1.510196984682759
100
AcDbArc
 50
315.8634637328109
 51
137.5799977196422
  0
ARC
  5
21C3
330
1F
100
AcDbEntity
  8
7
100
AcDbCircle
 10
508.5736271277642
 20
197.7672689556341
 30
0.0
 40
20.56333604814274
100
AcDbArc
 50
98.24490838540459
 51
116.8381945280396
  0
ARC
  5
21C4
330
1F
100
AcDbEntity
  8
7
100
AcDbCircle
 10
550.1921280439232
 20
168.391717798246
 30
0.0
 40
69.77545155120101
100
AcDbArc
 50
143.1841835432704
 51
160.7490351341703
  0
ARC
  5
21C5
330
1F
100
AcDbEntity
  8
7
100
AcDbCircle
 10
550.1921280439232
 20
168.391717798246
 30
0.0
 40
66.77545155120101
100
AcDbArc
 50
143.1400593614831
 51
160.6672569874211
  0
ARC
  5
21C6
330
1F
100
AcDbEntity
  8
7
100
AcDbCircle
 10
533.3394855022087
 20
223.6663676873118
 30
0.0
 40
1.539653088486481
100
AcDbArc
 50
246.0981256725887
 51
40.03471675505136
  0
LINE
  5
21C9
330
1F
100
AcDbEntity
  8
7
100
AcDbLine
 10
419.0069446730731
 20
152.7509
 30
0.0
 11
401.0793719064478
 21
152.7509
 31
0.0
  0
ARC
  5
21CE
330
1F
100
AcDbEntity
  8
7
100
AcDbCircle
 10
400.7192575872541
 20
147.1418925004443
 30
0.0
 40
5.620555795734124
100
AcDbArc
 50
338.4062721727278
 51
86.32648900725888
  0
ARC
  5
21CF
330
1F
100
AcDbEntity
  8
7
100
AcDbCircle
 10
423.6363362149281
 20
129.9255061910662
 30
0.0
 40
23.29012384210757
100
AcDbArc
 50
101.4650754003759
 51
139.4282419164381
  0
LINE
  5
21D3
330
1F
100
AcDbEntity
  8
7
100
AcDbLine
 10
444.9836474315538
 20
152.7509
 30
0.0
 11
427.0560746649283
 21
152.7509
 31
0.0
  0
ARC
  5
21D4
330
1F
100
AcDbEntity
  8
7
100
AcDbCircle
 10
426.6959603457347
 20
147.1418925004443
 30
0.0
 40
5.620555795734124
100
AcDbArc
 50
338.4062721727278
 51
86.32648900725888
  0
ARC
  5
21D5
330
1F
100
AcDbEntity
  8
7
100
AcDbCircle
 10
449.6130389734084
 20
129.9255061910662
 30
0.0
 40
23.29012384210757
100
AcDbArc
 50
101.4650754003758
 51
139.4282419164381
  0
LINE
  5
21D6
330
1F
100
AcDbEntity
  8
7
100
AcDbLine
 10
470.6779949883562
 20
152.7509
 30
0.0
 11
452.7504222217308
 21
152.7509
 31
0.0
  0
ARC
  5
21D7
330
1F
100
AcDbEntity
  8
7
100
AcDbCircle
 10
452.3903079025371
 20
147.1418925004443
 30
0.0
 40
5.620555795734124
100
AcDbArc
 50
338.4062721727277
 51
86.32648900725888
  0
ARC
  5
21D8
330
1F
100
AcDbEntity
  8
7
100
AcDbCircle
 10
475.3073865302111
 20
129.9255061910662
 30
0.0
 40
23.29012384210757
100
AcDbArc
 50
101.4650754003758
 51
139.4282419164381
  0
LINE
  5
21DF
330
1F
100
AcDbEntity
  8
7
100
AcDbLine
 10
423.0914516073774
 20
127.5246
 30
0.0
 11
451.7329727504286
 21
127.5246
 31
0.0
  0
LINE
  5
21E2
330
1F
100
AcDbEntity
  8
7
100
AcDbLine
 10
467.5320762182408
 20
127.5246
 30
0.0
 11
477.9495928773871
 21
127.5246
 31
0.0
  0
ARC
  5
21E3
330
1F
100
AcDbEntity
  8
7
100
AcDbCircle
 10
375.5506503945559
 20
163.0539674354201
 30
0.0
 40
39.35830016848818
100
AcDbArc
 50
295.482597323874
 51
316.8004853466591
  0
ARC
  5
21E4
330
1F
100
AcDbEntity
  8
7
100
AcDbCircle
 10
408.9974044789578
 20
131.7466667999271
 30
0.0
 40
6.455074818190907
100
AcDbArc
 50
87.00082055635231
 51
137.4524535829415
  0
ARC
  5
21E7
330
1F
100
AcDbEntity
  8
7
100
AcDbCircle
 10
413.356579525062
 20
138.3266977046101
 30
0.0
 40
4.023660037148873
100
AcDbArc
 50
122.7540210652779
 51
181.9055927181315
  0
ARC
  5
21EB
330
1F
100
AcDbEntity
  8
7
100
AcDbCircle
 10
417.5863938455234
 20
142.1210062563163
 30
0.0
 40
6.976720477024548
100
AcDbArc
 50
232.3384358544569
 51
301.4107022023542
  0
ARC
  5
21EC
330
1F
100
AcDbEntity
  8
7
100
AcDbCircle
 10
417.991162926747
 20
141.6560799708432
 30
0.0
 40
6.369809588083083
100
AcDbArc
 50
300.4828706056061
 51
101.9971579393891
  0
ARC
  5
21EF
330
1F
100
AcDbEntity
  8
7
100
AcDbCircle
 10
420.9505617446531
 20
141.5238162401913
 30
0.0
 40
7.670395827293504
100
AcDbArc
 50
345.6245508769596
 51
123.9479079590513
  0
ARC
  5
21F0
330
1F
100
AcDbEntity
  8
7
100
AcDbCircle
 10
415.6613550769761
 20
142.823895402578
 30
0.0
 40
13.11688278429248
100
AcDbArc
 50
278.4677198300246
 51
345.8595711298792
  0
ARC
  5
21F1
330
1F
100
AcDbEntity
  8
7
100
AcDbCircle
 10
415.0707095336183
 20
140.0700876924005
 30
0.0
 40
10.52669739766613
100
AcDbArc
 50
239.095740434235
 51
283.8625881488405
  0
ARC
  5
21F2
330
1F
100
AcDbEntity
  8
7
100
AcDbCircle
 10
410.1390281169223
 20
131.8096749207427
 30
0.0
 40
0.9061737214957712
100
AcDbArc
 50
96.6783224448552
 51
238.3954577675155
  0
ARC
  5
21F3
330
1F
100
AcDbEntity
  8
7
100
AcDbCircle
 10
407.2733809349228
 20
133.1084298083528
 30
0.0
 40
2.788914011621208
100
AcDbArc
 50
351.7802814847966
 51
105.1747356134133
  0
ARC
  5
21F4
330
1F
100
AcDbEntity
  8
7
100
AcDbCircle
 10
407.8225469170848
 20
131.6852516587858
 30
0.0
 40
4.309099123050767
100
AcDbArc
 50
107.2691475479403
 51
254.917077188767
  0
ARC
  5
21F5
330
1F
100
AcDbEntity
  8
7
100
AcDbCircle
 10
412.8480368065054
 20
139.4044006795131
 30
0.0
 40
2.846416627395356
100
AcDbArc
 50
279.6186706890285
 51
125.8834049735382
  0
ARC
  5
21F6
330
1F
100
AcDbEntity
  8
7
100
AcDbCircle
 10
390.8210544062939
 20
143.4499234431884
 30
0.0
 40
8.389673465285326
100
AcDbArc
 50
297.3681919612756
 51
346.4412518295838
  0
ARC
  5
21F7
330
1F
100
AcDbEntity
  8
7
100
AcDbCircle
 10
418.3549798702558
 20
142.3367986213916
 30
0.0
 40
15.55105760120867
100
AcDbArc
 50
287.7326290926874
 51
4.206538753790511
  0
ARC
  5
21F9
330
1F
100
AcDbEntity
  8
7
100
AcDbCircle
 10
435.119928660668
 20
138.2244664453697
 30
0.0
 40
5.401051281886815
100
AcDbArc
 50
333.3323948381898
 51
103.4447335498386
  0
ARC
  5
21FA
330
1F
100
AcDbEntity
  8
7
100
AcDbCircle
 10
435.8644962456258
 20
137.8299869427463
 30
0.0
 40
4.558675917687771
100
AcDbArc
 50
255.9960096666368
 51
333.5629603044761
  0
ARC
  5
21FB
330
1F
100
AcDbEntity
  8
7
100
AcDbCircle
 10
438.7228413715395
 20
132.6625965550546
 30
0.0
 40
4.030793328791128
100
AcDbArc
 50
169.36046651357
 51
354.9915846471663
  0
ARC
  5
21FC
330
1F
100
AcDbEntity
  8
7
100
AcDbCircle
 10
452.7739287602556
 20
140.3260582743071
 30
0.0
 40
12.84371143257388
100
AcDbArc
 50
218.6138649808333
 51
265.3511976476722
  0
ARC
  5
21FD
330
1F
100
AcDbEntity
  8
7
100
AcDbCircle
 10
486.8337550057725
 20
145.6982182885309
 30
0.0
 40
20.22890848317488
100
AcDbArc
 50
203.8913353357525
 51
243.9483314882683
  0
ARC
  5
21FE
330
1F
100
AcDbEntity
  8
7
100
AcDbCircle
 10
463.0322443964884
 20
129.5792444125947
 30
0.0
 40
4.94672114498705
100
AcDbArc
 50
335.4583375667737
 51
70.87371106623962
  0
ARC
  5
21FF
330
1F
100
AcDbEntity
  8
7
100
AcDbCircle
 10
465.857367223027
 20
136.6022859341728
 30
0.0
 40
2.64007709584701
100
AcDbArc
 50
20.00456515562905
 51
242.8597952158654
  0
ARC
  5
2200
330
1F
100
AcDbEntity
  8
7
100
AcDbCircle
 10
451.0502296435243
 20
141.128501008492
 30
0.0
 40
7.528474971168726
100
AcDbArc
 50
61.834291257817
 51
179.4554651543922
  0
ARC
  5
2201
330
1F
100
AcDbEntity
  8
7
100
AcDbCircle
 10
454.9493996253344
 20
141.8209063047646
 30
0.0
 40
5.954628655631236
100
AcDbArc
 50
93.32681866751483
 51
286.0783617610687
  0
ARC
  5
2202
330
1F
100
AcDbEntity
  8
7
100
AcDbCircle
 10
453.8062156433737
 20
140.9216437213796
 30
0.0
 40
10.28788871381043
100
AcDbArc
 50
178.4492977329264
 51
264.2122311116005
  0
ARC
  5
2203
330
1F
100
AcDbEntity
  8
7
100
AcDbCircle
 10
459.0523565622389
 20
138.7400161981094
 30
0.0
 40
3.604872116956121
100
AcDbArc
 50
64.32993701679193
 51
227.1021651225102
  0
LINE
  5
2205
330
1F
100
AcDbEntity
  8
7
100
AcDbLine
 10
452.7687446730733
 20
130.6862
 30
0.0
 11
462.1609946730733
 21
129.9543
 31
0.0
  0
ARC
  5
2206
330
1F
100
AcDbEntity
  8
7
100
AcDbCircle
 10
462.3241360320756
 20
131.3367199576955
 30
0.0
 40
1.39201294622288
100
AcDbArc
 50
263.2695720225318
 51
55.1012958984245
  0
ARC
  5
2207
330
1F
100
AcDbEntity
  8
7
100
AcDbCircle
 10
466.5555288981336
 20
137.2006818525963
 30
0.0
 40
5.839440257573782
100
AcDbArc
 50
135.6819799572572
 51
233.9678859386449
  0
LINE
  5
2208
330
1F
100
AcDbEntity
  8
7
100
AcDbLine
 10
460.6139446730733
 20
141.9891
 30
0.0
 11
462.3775668230252
 21
141.280350395594
 31
0.0
  0
LINE
  5
236A
330
1F
100
AcDbEntity
  8
7
  6
Continuous2
 62
     1
370
    -3
100
AcDbLine
 10
292.4494617880571
 20
154.0792887254117
 30
0.0
 11
333.1775617880571
 21
154.0809387254116
 31
0.0
  0
LINE
  5
2460
330
1F
100
AcDbEntity
  8
7
  6
Continuous2
 62
     1
370
    -3
100
AcDbLine
 10
406.6427446730733
 20
119.4482408275987
 30
0.0
 11
392.4840446730734
 21
119.4482408275987
 31
0.0
  0
LINE
  5
2461
330
1F
100
AcDbEntity
  8
7
  6
Continuous2
 62
     1
370
    -3
100
AcDbLine
 10
480.3645446730731
 20
93.27564082759868
 30
0.0
 11
471.6084446730733
 21
93.27564082759868
 31
0.0
  0
LINE
  5
2462
330
1F
100
AcDbEntity
  8
7
  6
Continuous2
 62
     1
370
    -3
100
AcDbLine
 10
471.6084446730733
 20
93.27564082759868
 30
0.0
 11
471.6084446730733
 21
90.0750408275987
 31
0.0
  0
LINE
  5
2463
330
1F
100
AcDbEntity
  8
7
  6
Continuous2
 62
     1
370
    -3
100
AcDbLine
 10
471.6084446730733
 20
90.0750408275987
 30
0.0
 11
480.3645446730731
 21
90.0750408275987
 31
0.0
  0
LINE
  5
2464
330
1F
100
AcDbEntity
  8
7
  6
Continuous2
 62
     1
370
    -3
100
AcDbLine
 10
480.3645446730731
 20
90.0750408275987
 30
0.0
 11
480.3645446730731
 21
93.27564082759868
 31
0.0
  0
LINE
  5
2465
330
1F
100
AcDbEntity
  8
7
  6
Continuous2
 62
     1
370
    -3
100
AcDbLine
 10
451.9357446730733
 20
93.27564082759868
 30
0.0
 11
444.2901446730734
 21
93.27564082759868
 31
0.0
  0
LINE
  5
2466
330
1F
100
AcDbEntity
  8
7
  6
Continuous2
 62
     1
370
    -3
100
AcDbLine
 10
444.2901446730734
 20
93.27564082759868
 30
0.0
 11
444.2901446730734
 21
90.0750408275987
 31
0.0
  0
LINE
  5
2467
330
1F
100
AcDbEntity
  8
7
  6
Continuous2
 62
     1
370
    -3
100
AcDbLine
 10
444.2901446730734
 20
90.0750408275987
 30
0.0
 11
451.9357446730733
 21
90.0750408275987
 31
0.0
  0
LINE
  5
2468
330
1F
100
AcDbEntity
  8
7
  6
Continuous2
 62
     1
370
    -3
100
AcDbLine
 10
451.9357446730733
 20
90.0750408275987
 30
0.0
 11
451.9357446730733
 21
93.27564082759868
 31
0.0
  0
LINE
  5
2469
330
1F
100
AcDbEntity
  8
7
  6
Continuous2
 62
     1
370
    -3
100
AcDbLine
 10
427.3024446730731
 20
93.27564082759868
 30
0.0
 11
419.6574446730734
 21
93.27564082759868
 31
0.0
  0
LINE
  5
246A
330
1F
100
AcDbEntity
  8
7
  6
Continuous2
 62
     1
370
    -3
100
AcDbLine
 10
419.6574446730734
 20
93.27564082759868
 30
0.0
 11
419.6574446730734
 21
90.0750408275987
 31
0.0
  0
LINE
  5
246B
330
1F
100
AcDbEntity
  8
7
  6
Continuous2
 62
     1
370
    -3
100
AcDbLine
 10
419.6574446730734
 20
90.0750408275987
 30
0.0
 11
427.3024446730731
 21
90.0750408275987
 31
0.0
  0
LINE
  5
246C
330
1F
100
AcDbEntity
  8
7
  6
Continuous2
 62
     1
370
    -3
100
AcDbLine
 10
427.3024446730731
 20
90.0750408275987
 30
0.0
 11
427.3024446730731
 21
93.27564082759868
 31
0.0
  0
LINE
  5
246D
330
1F
100
AcDbEntity
  8
7
  6
Continuous2
 62
     1
370
    -3
100
AcDbLine
 10
398.0399446730734
 20
93.27564082759868
 30
0.0
 11
392.8641446730734
 21
93.27564082759868
 31
0.0
  0
LINE
  5
246E
330
1F
100
AcDbEntity
  8
7
  6
Continuous2
 62
     1
370
    -3
100
AcDbLine
 10
392.8641446730734
 20
93.27564082759868
 30
0.0
 11
392.8641446730734
 21
90.0750408275987
 31
0.0
  0
LINE
  5
246F
330
1F
100
AcDbEntity
  8
7
  6
Continuous2
 62
     1
370
    -3
100
AcDbLine
 10
392.8641446730734
 20
90.0750408275987
 30
0.0
 11
398.0399446730734
 21
90.0750408275987
 31
0.0
  0
LINE
  5
2470
330
1F
100
AcDbEntity
  8
7
  6
Continuous2
 62
     1
370
    -3
100
AcDbLine
 10
398.0399446730734
 20
90.0750408275987
 30
0.0
 11
398.0399446730734
 21
93.27564082759868
 31
0.0
  0
LINE
  5
2471
330
1F
100
AcDbEntity
  8
7
  6
Continuous2
 62
     1
370
    -3
100
AcDbLine
 10
396.0425446730734
 20
83.70984998980118
 30
0.0
 11
393.6121446730734
 21
88.27984998980118
 31
0.0
  0
LINE
  5
2472
330
1F
100
AcDbEntity
  8
7
  6
Continuous2
 62
     1
370
    -3
100
AcDbLine
 10
393.6121446730734
 20
88.27984998980118
 30
0.0
 11
390.7862446730733
 21
86.77714998980118
 31
0.0
  0
LINE
  5
2473
330
1F
100
AcDbEntity
  8
7
  6
Continuous2
 62
     1
370
    -3
100
AcDbLine
 10
390.7862446730733
 20
86.77714998980118
 30
0.0
 11
393.2165446730734
 21
82.20704998980115
 31
0.0
  0
LINE
  5
2474
330
1F
100
AcDbEntity
  8
7
  6
Continuous2
 62
     1
370
    -3
100
AcDbLine
 10
393.2165446730734
 20
82.20704998980115
 30
0.0
 11
396.0425446730734
 21
83.70984998980118
 31
0.0
  0
LINE
  5
2475
330
1F
100
AcDbEntity
  8
7
  6
Continuous2
 62
     1
370
    -3
100
AcDbLine
 10
404.5667446730733
 20
67.68104998980118
 30
0.0
 11
401.8107446730732
 21
72.8633499898012
 31
0.0
  0
LINE
  5
2476
330
1F
100
AcDbEntity
  8
7
  6
Continuous2
 62
     1
370
    -3
100
AcDbLine
 10
401.8107446730732
 20
72.8633499898012
 30
0.0
 11
398.9848446730733
 21
71.36074998980117
 31
0.0
  0
LINE
  5
2477
330
1F
100
AcDbEntity
  8
7
  6
Continuous2
 62
     1
370
    -3
100
AcDbLine
 10
398.9848446730733
 20
71.36074998980117
 30
0.0
 11
401.7409446730733
 21
66.17824998980117
 31
0.0
  0
LINE
  5
2478
330
1F
100
AcDbEntity
  8
7
  6
Continuous2
 62
     1
370
    -3
100
AcDbLine
 10
401.7409446730733
 20
66.17824998980117
 30
0.0
 11
404.5667446730733
 21
67.68104998980118
 31
0.0
  0
LINE
  5
2479
330
1F
100
AcDbEntity
  8
7
  6
Continuous2
 62
     1
370
    -3
100
AcDbLine
 10
486.4206446730731
 20
85.82864082759869
 30
0.0
 11
482.9559446730733
 21
90.8954408275987
 31
0.0
  0
LINE
  5
247A
330
1F
100
AcDbEntity
  8
7
  6
Continuous2
 62
     1
370
    -3
100
AcDbLine
 10
482.9559446730733
 20
90.8954408275987
 30
0.0
 11
480.3138446730733
 21
89.0889408275987
 31
0.0
  0
LINE
  5
247B
330
1F
100
AcDbEntity
  8
7
  6
Continuous2
 62
     1
370
    -3
100
AcDbLine
 10
480.3138446730733
 20
89.0889408275987
 30
0.0
 11
483.7786446730733
 21
84.02214082759869
 31
0.0
  0
LINE
  5
247C
330
1F
100
AcDbEntity
  8
7
  6
Continuous2
 62
     1
370
    -3
100
AcDbLine
 10
483.7786446730733
 20
84.02214082759869
 30
0.0
 11
486.4206446730731
 21
85.82864082759869
 31
0.0
  0
LINE
  5
247D
330
1F
100
AcDbEntity
  8
7
  6
Continuous2
 62
     1
370
    -3
100
AcDbLine
 10
520.4425446730733
 20
36.07304082759871
 30
0.0
 11
516.7688446730733
 21
41.44534082759871
 31
0.0
  0
LINE
  5
247E
330
1F
100
AcDbEntity
  8
7
  6
Continuous2
 62
     1
370
    -3
100
AcDbLine
 10
516.7688446730733
 20
41.44534082759871
 30
0.0
 11
514.1267446730734
 21
39.63884082759871
 31
0.0
  0
LINE
  5
247F
330
1F
100
AcDbEntity
  8
7
  6
Continuous2
 62
     1
370
    -3
100
AcDbLine
 10
514.1267446730734
 20
39.63884082759871
 30
0.0
 11
517.8004446730733
 21
34.2664408275987
 31
0.0
  0
LINE
  5
2480
330
1F
100
AcDbEntity
  8
7
  6
Continuous2
 62
     1
370
    -3
100
AcDbLine
 10
517.8004446730733
 20
34.2664408275987
 30
0.0
 11
520.4425446730733
 21
36.07304082759871
 31
0.0
  0
LINE
  5
2481
330
1F
100
AcDbEntity
  8
7
  6
Continuous2
 62
     1
370
    -3
100
AcDbLine
 10
509.0154446730734
 20
52.78424082759869
 30
0.0
 11
506.2112446730733
 21
56.88564082759871
 31
0.0
  0
LINE
  5
2482
330
1F
100
AcDbEntity
  8
7
  6
Continuous2
 62
     1
370
    -3
100
AcDbLine
 10
506.2112446730733
 20
56.88564082759871
 30
0.0
 11
503.5691446730734
 21
55.0790408275987
 31
0.0
  0
LINE
  5
2483
330
1F
100
AcDbEntity
  8
7
  6
Continuous2
 62
     1
370
    -3
100
AcDbLine
 10
503.5691446730734
 20
55.0790408275987
 30
0.0
 11
506.3732446730734
 21
50.97754082759871
 31
0.0
  0
LINE
  5
2484
330
1F
100
AcDbEntity
  8
7
  6
Continuous2
 62
     1
370
    -3
100
AcDbLine
 10
506.3732446730734
 20
50.97754082759871
 30
0.0
 11
509.0154446730734
 21
52.78424082759869
 31
0.0
  0
LINE
  5
2485
330
1F
100
AcDbEntity
  8
7
  6
Continuous2
 62
     1
370
    -3
100
AcDbLine
 10
496.3705446730734
 20
71.2776408275987
 30
0.0
 11
493.4709446730733
 21
75.51804082759868
 31
0.0
  0
LINE
  5
2486
330
1F
100
AcDbEntity
  8
7
  6
Continuous2
 62
     1
370
    -3
100
AcDbLine
 10
493.4709446730733
 20
75.51804082759868
 30
0.0
 11
490.8287446730732
 21
73.71154082759868
 31
0.0
  0
LINE
  5
2487
330
1F
100
AcDbEntity
  8
7
  6
Continuous2
 62
     1
370
    -3
100
AcDbLine
 10
490.8287446730732
 20
73.71154082759868
 30
0.0
 11
493.7284446730733
 21
69.4710408275987
 31
0.0
  0
LINE
  5
2488
330
1F
100
AcDbEntity
  8
7
  6
Continuous2
 62
     1
370
    -3
100
AcDbLine
 10
493.7284446730733
 20
69.4710408275987
 30
0.0
 11
496.3705446730734
 21
71.2776408275987
 31
0.0
  0
ARC
  5
2489
330
1F
100
AcDbEntity
  8
7
 62
     1
100
AcDbCircle
 10
343.5263446730733
 20
108.4165841138732
 30
0.0
 40
14.32265671372548
100
AcDbArc
 50
90.00000000000017
 51
202.321719693363
  0
ARC
  5
248A
330
1F
100
AcDbEntity
  8
7
 62
     1
100
AcDbCircle
 10
341.15690958611
 20
108.3870135603591
 30
0.0
 40
12.15091303366786
100
AcDbArc
 50
206.4397492722149
 51
290.8598412262932
  0
LINE
  5
248B
330
1F
100
AcDbEntity
  8
7
 62
     1
100
AcDbLine
 10
345.4836446730733
 20
97.03254082759873
 30
0.0
 11
357.6331446730733
 21
102.0930408275987
 31
0.0
  0
ARC
  5
248C
330
1F
100
AcDbEntity
  8
7
 62
     1
100
AcDbCircle
 10
364.4454818471782
 20
83.47185367018253
 30
0.0
 40
19.82817563280121
100
AcDbArc
 50
63.93837581455456
 51
110.0944380478627
  0
ARC
  5
248D
330
1F
100
AcDbEntity
  8
7
 62
     1
100
AcDbCircle
 10
373.2825534147316
 20
101.6478194197111
 30
0.0
 40
0.3850135962214027
100
AcDbArc
 50
250.927494281251
 51
50.57854670496982
  0
ARC
  5
248E
330
1F
100
AcDbEntity
  8
7
 62
     1
100
AcDbCircle
 10
387.7255129637057
 20
128.8347174730977
 30
0.0
 40
30.40790121118083
100
AcDbArc
 50
217.2388915327281
 51
242.1645720414989
  0
ARC
  5
248F
330
1F
100
AcDbEntity
  8
7
100
AcDbCircle
 10
360.4906428753051
 20
107.1495606423412
 30
0.0
 40
4.466041519992042
100
AcDbArc
 50
47.33730160842853
 51
148.8472327992193
  0
ARC
  5
2490
330
1F
100
AcDbEntity
  8
7
100
AcDbCircle
 10
345.9987656527145
 20
115.6120900911167
 30
0.0
 40
12.31646292040446
100
AcDbArc
 50
276.188109754123
 51
330.032665928683
  0
ARC
  5
2491
330
1F
100
AcDbEntity
  8
7
100
AcDbCircle
 10
346.7269603044675
 20
110.7920305198222
 30
0.0
 40
7.448798300505055
100
AcDbArc
 50
159.7815276800494
 51
274.6158100391321
  0
ARC
  5
2492
330
1F
100
AcDbEntity
  8
7
100
AcDbCircle
 10
341.587806227826
 20
115.8256225611391
 30
0.0
 40
3.077826316601615
100
AcDbArc
 50
233.0377648308336
 51
336.0505873129914
  0
LINE
  5
2493
330
1F
100
AcDbEntity
  8
7
100
AcDbLine
 10
344.4006446730734
 20
114.5762408275987
 30
0.0
 11
345.7461446730733
 21
117.2664408275987
 31
0.0
  0
LINE
  5
2494
330
1F
100
AcDbEntity
  8
7
100
AcDbLine
 10
343.5263446730733
 20
122.7392408275987
 30
0.0
 11
526.203036536684
 21
122.7392408275987
 31
0.0
  0
ARC
  5
2495
330
1F
100
AcDbEntity
  8
7
100
AcDbCircle
 10
350.6021056362048
 20
114.3177931180016
 30
0.0
 40
5.681098502118143
100
AcDbArc
 50
94.58653451793713
 51
148.7329432882444
  0
ARC
  5
2496
330
1F
100
AcDbEntity
  8
7
100
AcDbCircle
 10
357.528795135519
 20
29.63943942495729
 30
0.0
 40
90.64227492424903
100
AcDbArc
 50
84.48896780602636
 51
94.67075180140767
  0
ARC
  5
2497
330
1F
100
AcDbEntity
  8
7
100
AcDbCircle
 10
365.8590084880381
 20
117.4970610295872
 30
0.0
 40
2.395191656701232
100
AcDbArc
 50
17.34410093469566
 51
80.99647220355564
  0
ARC
  5
2498
330
1F
100
AcDbEntity
  8
7
100
AcDbCircle
 10
372.433073161393
 20
119.9670343780929
 30
0.0
 40
4.633398549382513
100
AcDbArc
 50
202.270224086792
 51
234.9921458375695
  0
ARC
  5
2499
330
1F
100
AcDbEntity
  8
7
100
AcDbCircle
 10
370.7153751749131
 20
117.3320855792826
 30
0.0
 40
1.493434087481106
100
AcDbArc
 50
230.9712638428724
 51
335.2287051473821
  0
ARC
  5
249A
330
1F
100
AcDbEntity
  8
7
100
AcDbCircle
 10
377.7592532731034
 20
114.0235690387418
 30
0.0
 40
6.288799561523909
100
AcDbArc
 50
127.0663608219614
 51
154.7483229562173
  0
ARC
  5
249B
330
1F
100
AcDbEntity
  8
7
100
AcDbCircle
 10
375.666642962585
 20
117.2026493635228
 30
0.0
 40
2.502947903267413
100
AcDbArc
 50
102.2787818238534
 51
132.7155750220178
  0
ARC
  5
249C
330
1F
100
AcDbEntity
  8
7
100
AcDbCircle
 10
377.4554013187911
 20
108.5690533226824
 30
0.0
 40
11.31980192270268
100
AcDbArc
 50
85.08556873063263
 51
101.832070539131
  0
ARC
  5
249D
330
1F
100
AcDbEntity
  8
7
100
AcDbCircle
 10
381.6060094078885
 20
112.2474082616413
 30
0.0
 40
8.23865010130766
100
AcDbArc
 50
112.7114580251679
 51
165.5873368271016
  0
ARC
  5
249E
330
1F
100
AcDbEntity
  8
7
100
AcDbCircle
 10
377.2754791763729
 20
113.5399950944447
 30
0.0
 40
3.726744768027806
100
AcDbArc
 50
168.2637415497161
 51
310.4522687319345
  0
ARC
  5
249F
330
1F
100
AcDbEntity
  8
7
100
AcDbCircle
 10
376.859212942256
 20
113.5699316594189
 30
0.0
 40
4.030586383606852
100
AcDbArc
 50
314.6827758492943
 51
27.96560801698709
  0
ARC
  5
24A0
330
1F
100
AcDbEntity
  8
7
100
AcDbCircle
 10
383.4225525888379
 20
108.515535635766
 30
0.0
 40
7.566149051391176
100
AcDbArc
 50
40.08138876309607
 51
113.3878528605063
  0
ARC
  5
24A1
330
1F
100
AcDbEntity
  8
7
100
AcDbCircle
 10
387.2048917819538
 20
111.7004316304173
 30
0.0
 40
2.621490750564049
100
AcDbArc
 50
302.0354294151517
 51
40.04844676385881
  0
ARC
  5
24A2
330
1F
100
AcDbEntity
  8
7
100
AcDbCircle
 10
390.8813563913867
 20
113.2979054554784
 30
0.0
 40
4.451515943622251
100
AcDbArc
 50
239.1018802897943
 51
328.5233357654506
  0
ARC
  5
24A3
330
1F
100
AcDbEntity
  8
7
100
AcDbCircle
 10
396.4086359996222
 20
104.7455181561389
 30
0.0
 40
2.673947231140859
100
AcDbArc
 50
139.3947293714138
 51
16.16175265843768
  0
ARC
  5
24A4
330
1F
100
AcDbEntity
  8
7
100
AcDbCircle
 10
394.9567575291276
 20
101.6902779674343
 30
0.0
 40
4.830295358742998
100
AcDbArc
 50
96.87510568198744
 51
189.387069318894
  0
ARC
  5
24A5
330
1F
100
AcDbEntity
  8
7
100
AcDbCircle
 10
390.3515629815432
 20
94.06101049395799
 30
0.0
 40
6.843310824721585
100
AcDbArc
 50
91.34322906843982
 51
178.6524828067621
  0
ARC
  5
24A6
330
1F
100
AcDbEntity
  8
7
100
AcDbCircle
 10
387.0651861066842
 20
84.2890273834647
 30
0.0
 40
10.5499331317003
100
AcDbArc
 50
68.75138977060048
 51
109.6925529731367
  0
ARC
  5
24A7
330
1F
100
AcDbEntity
  8
7
100
AcDbCircle
 10
392.7426299347051
 20
86.36441318083887
 30
0.0
 40
7.975800497099486
100
AcDbArc
 50
103.4414336052382
 51
185.9185577638582
  0
ARC
  5
24A8
330
1F
100
AcDbEntity
  8
7
100
AcDbCircle
 10
391.8394912393808
 20
86.27143079924421
 30
0.0
 40
7.06788818643862
100
AcDbArc
 50
185.92374711944
 51
242.1864549860187
  0
ARC
  5
24A9
330
1F
100
AcDbEntity
  8
7
100
AcDbCircle
 10
379.2185808849187
 20
60.26415076213618
 30
0.0
 40
21.84528979592962
100
AcDbArc
 50
28.20202868016807
 51
64.73681636135026
  0
ARC
  5
24AA
330
1F
100
AcDbEntity
  8
7
100
AcDbCircle
 10
393.9026304237375
 20
68.51422115289371
 30
0.0
 40
5.016546535676638
100
AcDbArc
 50
248.158149101944
 51
24.41582937600065
  0
LINE
  5
24AB
330
1F
100
AcDbEntity
  8
7
100
AcDbLine
 10
392.0362446730733
 20
63.85779082759867
 30
0.0
 11
389.0958427261298
 21
64.91546653243893
 31
0.0
  0
ARC
  5
24AC
330
1F
100
AcDbEntity
  8
7
100
AcDbCircle
 10
390.5652222056567
 20
69.21429809820492
 30
0.0
 40
4.543019798072711
100
AcDbArc
 50
175.1387078674305
 51
251.1291082228265
  0
ARC
  5
24AD
330
1F
100
AcDbEntity
  8
7
100
AcDbCircle
 10
389.0834118043472
 20
69.54551755879747
 30
0.0
 40
3.045341920302075
100
AcDbArc
 50
84.57938413758993
 51
178.9882444865948
  0
ARC
  5
24AE
330
1F
100
AcDbEntity
  8
7
100
AcDbCircle
 10
389.4620959938062
 20
74.47137713591057
 30
0.0
 40
1.896321068500954
100
AcDbArc
 50
267.2494136291006
 51
43.44264605883584
  0
ARC
  5
24AF
330
1F
100
AcDbEntity
  8
7
100
AcDbCircle
 10
386.4906760066757
 20
72.85159754878723
 30
0.0
 40
5.239820145345613
100
AcDbArc
 50
33.91659074486793
 51
95.3442144002315
  0
ARC
  5
24B0
330
1F
100
AcDbEntity
  8
7
100
AcDbCircle
 10
372.5318616232597
 20
78.85132774939409
 30
0.0
 40
13.49350194696306
100
AcDbArc
 50
356.6747073791447
 51
42.91799902562588
  0
LINE
  5
24B1
330
1F
100
AcDbEntity
  8
7
100
AcDbLine
 10
382.4135446730734
 20
88.0397408275987
 30
0.0
 11
377.9801446730734
 21
69.53664082759869
 31
0.0
  0
ARC
  5
24B2
330
1F
100
AcDbEntity
  8
7
100
AcDbCircle
 10
394.0702431553969
 20
65.65798850216612
 30
0.0
 40
16.55098827963011
100
AcDbArc
 50
166.4469449899159
 51
323.7204240787637
  0
LINE
  5
24B3
330
1F
100
AcDbEntity
  8
7
100
AcDbLine
 10
407.4126446730732
 20
55.86434082759879
 30
0.0
 11
416.3803826873913
 21
68.79432567863478
 31
0.0
  0
ARC
  5
24B4
330
1F
100
AcDbEntity
  8
7
100
AcDbCircle
 10
427.0879767582434
 20
60.61856689167516
 30
0.0
 40
13.47203037885134
100
AcDbArc
 50
65.53641291435957
 51
142.6365396989853
  0
ARC
  5
24B5
330
1F
100
AcDbEntity
  8
7
100
AcDbCircle
 10
427.0879767582434
 20
60.61856689167516
 30
0.0
 40
16.47203037885134
100
AcDbArc
 50
109.9698306621264
 51
142.6365396989853
  0
ARC
  5
24B6
330
1F
100
AcDbEntity
  8
7
100
AcDbCircle
 10
427.0879767582434
 20
60.61856689167516
 30
0.0
 40
16.47203037885134
100
AcDbArc
 50
65.87792917134831
 51
92.78842829755577
  0
ARC
  5
24B7
330
1F
100
AcDbEntity
  8
7
100
AcDbCircle
 10
427.0879767582434
 20
60.61856689167516
 30
0.0
 40
19.47203037885134
100
AcDbArc
 50
109.8437323353358
 51
142.6365396989853
  0
ARC
  5
24B8
330
1F
100
AcDbEntity
  8
7
100
AcDbCircle
 10
427.0879767582434
 20
60.61856689167516
 30
0.0
 40
19.47203037885134
100
AcDbArc
 50
66.13249230498446
 51
92.35855814260274
  0
ARC
  5
24B9
330
1F
100
AcDbEntity
  8
7
100
AcDbCircle
 10
403.6912303041841
 20
-3.147536361574906
 30
0.0
 40
81.36308609143965
100
AcDbArc
 50
51.82441539003489
 51
69.13737618057528
  0
ARC
  5
24BA
330
1F
100
AcDbEntity
  8
7
100
AcDbCircle
 10
403.6912303041841
 20
-3.147536361574906
 30
0.0
 40
84.36308609143967
100
AcDbArc
 50
60.3622868580246
 51
69.07597016502865
  0
ARC
  5
24BB
330
1F
100
AcDbEntity
  8
7
100
AcDbCircle
 10
403.6912303041841
 20
-3.147536361574906
 30
0.0
 40
84.36308609143967
100
AcDbArc
 50
51.83686175014748
 51
56.42338428690237
  0
ARC
  5
24BC
330
1F
100
AcDbEntity
  8
7
100
AcDbCircle
 10
403.6912303041841
 20
-3.147536361574906
 30
0.0
 40
87.36308609143964
100
AcDbArc
 50
60.29821246580929
 51
69.02286532063652
  0
ARC
  5
24BD
330
1F
100
AcDbEntity
  8
7
100
AcDbCircle
 10
403.6912303041841
 20
-3.147536361574906
 30
0.0
 40
87.36308609143964
100
AcDbArc
 50
52.31108772185932
 51
56.45824126273064
  0
ARC
  5
24BE
330
1F
100
AcDbEntity
  8
7
100
AcDbCircle
 10
483.6089810819961
 20
99.4377043291845
 30
0.0
 40
48.6797578090093
100
AcDbArc
 50
232.5073767071444
 51
245.3693968451036
  0
ARC
  5
24BF
330
1F
100
AcDbEntity
  8
7
100
AcDbCircle
 10
483.6089810819961
 20
99.4377043291845
 30
0.0
 40
45.67975780900932
100
AcDbArc
 50
232.5292440593009
 51
238.7958467928196
  0
ARC
  5
24C0
330
1F
100
AcDbEntity
  8
7
100
AcDbCircle
 10
483.6089810819961
 20
99.4377043291845
 30
0.0
 40
42.67975780900932
100
AcDbArc
 50
231.6071905500519
 51
239.0000080225972
  0
ARC
  5
24C1
330
1F
100
AcDbEntity
  8
7
100
AcDbCircle
 10
466.0519692206421
 20
61.35063786477214
 30
0.0
 40
6.741473422896882
100
AcDbArc
 50
246.1016425387394
 51
319.1260900137519
  0
ARC
  5
24C2
330
1F
100
AcDbEntity
  8
7
100
AcDbCircle
 10
469.7335707938428
 20
58.12054386010107
 30
0.0
 40
1.844161446965888
100
AcDbArc
 50
320.1580354864252
 51
75.86769263331309
  0
LINE
  5
24C3
330
1F
100
AcDbEntity
  8
7
100
AcDbLine
 10
470.1838446730733
 20
59.90889082759871
 30
0.0
 11
468.7059446730732
 21
60.37244082759869
 31
0.0
  0
ARC
  5
24C4
330
1F
100
AcDbEntity
  8
7
100
AcDbCircle
 10
468.9803837570552
 20
62.27116656048982
 30
0.0
 40
1.918456728612848
100
AcDbArc
 50
79.47418251353891
 51
261.775508585377
  0
ARC
  5
24C5
330
1F
100
AcDbEntity
  8
7
100
AcDbCircle
 10
466.4218356452003
 20
47.97186099656935
 30
0.0
 40
16.44481957593044
100
AcDbArc
 50
23.34555027576267
 51
79.81103625355188
  0
ARC
  5
24C6
330
1F
100
AcDbEntity
  8
7
100
AcDbCircle
 10
466.4218356452003
 20
47.97186099656935
 30
0.0
 40
19.44481957593044
100
AcDbArc
 50
23.01966474390583
 51
79.81103625355188
  0
ARC
  5
24C7
330
1F
100
AcDbEntity
  8
7
100
AcDbCircle
 10
550.1921280439232
 20
78.58112302935268
 30
0.0
 40
72.77545155120101
100
AcDbArc
 50
199.3327430125786
 51
233.6819676761936
  0
ARC
  5
24C8
330
1F
100
AcDbEntity
  8
7
100
AcDbCircle
 10
550.1921280439232
 20
78.58112302935268
 30
0.0
 40
69.77545155120101
100
AcDbArc
 50
223.1541991297118
 51
234.3806680476287
  0
ARC
  5
24C9
330
1F
100
AcDbEntity
  8
7
100
AcDbCircle
 10
550.1921280439232
 20
78.58112302935268
 30
0.0
 40
69.77545155120101
100
AcDbArc
 50
199.2509648658293
 51
216.8158164567298
  0
ARC
  5
24CA
330
1F
100
AcDbEntity
  8
7
100
AcDbCircle
 10
550.1921280439232
 20
78.58112302935268
 30
0.0
 40
66.77545155120101
100
AcDbArc
 50
228.1316259422341
 51
233.7155709808308
  0
ARC
  5
24CB
330
1F
100
AcDbEntity
  8
7
100
AcDbCircle
 10
550.1921280439232
 20
78.58112302935268
 30
0.0
 40
66.77545155120101
100
AcDbArc
 50
199.3327430125786
 51
216.8599406385166
  0
ARC
  5
24CC
330
1F
100
AcDbEntity
  8
7
100
AcDbCircle
 10
521.7217856763332
 20
39.33869665013157
 30
0.0
 40
24.29602506264526
100
AcDbArc
 50
232.9692012776203
 51
306.9335787861805
  0
ARC
  5
24CD
330
1F
100
AcDbEntity
  8
7
100
AcDbCircle
 10
521.7217856763332
 20
39.33869665013157
 30
0.0
 40
21.29602506264526
100
AcDbArc
 50
235.158180252714
 51
306.9335787861805
  0
ARC
  5
24CE
330
1F
100
AcDbEntity
  8
7
100
AcDbCircle
 10
521.7217856763332
 20
39.33869665013157
 30
0.0
 40
18.29602506264526
100
AcDbArc
 50
232.8580954252628
 51
306.9335787861805
  0
ARC
  5
24CF
330
1F
100
AcDbEntity
  8
7
100
AcDbCircle
 10
526.556520132406
 20
32.32820757859233
 30
0.0
 40
15.791008860381
100
AcDbArc
 50
308.1962237267183
 51
51.38218692079457
  0
ARC
  5
24D0
330
1F
100
AcDbEntity
  8
7
100
AcDbCircle
 10
521.4091559122397
 20
23.49221249942417
 30
0.0
 40
25.95037402459968
100
AcDbArc
 50
54.68033744250555
 51
86.6669791646583
  0
ARC
  5
24D1
330
1F
100
AcDbEntity
  8
7
100
AcDbCircle
 10
522.4814616908315
 20
47.8393468097742
 30
0.0
 40
1.619267585642789
100
AcDbArc
 50
74.3640006334795
 51
187.0522973402992
  0
ARC
  5
24D2
330
1F
100
AcDbEntity
  8
7
100
AcDbCircle
 10
530.5323596857745
 20
49.22793647004525
 30
0.0
 40
9.78749954371492
100
AcDbArc
 50
189.3338037466
 51
221.2079585276108
  0
ARC
  5
24D3
330
1F
100
AcDbEntity
  8
7
100
AcDbCircle
 10
521.1159173615604
 20
41.1479481045462
 30
0.0
 40
2.622725661771845
100
AcDbArc
 50
210.6693458707308
 51
38.48207043947823
  0
ARC
  5
24D4
330
1F
100
AcDbEntity
  8
7
100
AcDbCircle
 10
575.0094675867152
 20
63.55591787721653
 30
0.0
 40
60.96408468291118
100
AcDbArc
 50
191.1035930792153
 51
202.9236630191767
  0
LINE
  5
24D5
330
1F
100
AcDbEntity
  8
7
100
AcDbLine
 10
515.1865946730733
 20
51.81524082759866
 30
0.0
 11
512.6378446730733
 21
63.03164082759868
 31
0.0
  0
ARC
  5
24D6
330
1F
100
AcDbEntity
  8
7
100
AcDbCircle
 10
475.9323286352644
 20
55.90161703641737
 30
0.0
 40
37.3916052993806
100
AcDbArc
 50
10.9927713453535
 51
80.93238249206869
  0
ARC
  5
24D7
330
1F
100
AcDbEntity
  8
7
100
AcDbCircle
 10
481.6910814457942
 20
95.63677418250984
 30
0.0
 40
2.814033390106604
100
AcDbArc
 50
272.7326974322145
 51
36.69694069642249
  0
ARC
  5
24D8
330
1F
100
AcDbEntity
  8
7
100
AcDbCircle
 10
474.0298047313668
 20
90.93836712394855
 30
0.0
 40
11.79251002590099
100
AcDbArc
 50
32.7533323714417
 51
59.89483573051558
  0
ARC
  5
24D9
330
1F
100
AcDbEntity
  8
7
100
AcDbCircle
 10
477.1536170780348
 20
95.97626519230127
 30
0.0
 40
5.869947524796409
100
AcDbArc
 50
61.6078953380784
 51
110.2685559013637
  0
LINE
  5
24DA
330
1F
100
AcDbEntity
  8
7
100
AcDbLine
 10
475.1201446730733
 20
101.4827408275986
 30
0.0
 11
471.3987446730733
 21
100.2782408275987
 31
0.0
  0
ARC
  5
24DB
330
1F
100
AcDbEntity
  8
7
100
AcDbCircle
 10
470.7707866456685
 20
102.4937300041472
 30
0.0
 40
2.302764333488278
100
AcDbArc
 50
174.353736954479
 51
285.8248457953108
  0
ARC
  5
24DC
330
1F
100
AcDbEntity
  8
7
100
AcDbCircle
 10
475.7634712467433
 20
102.3132588831622
 30
0.0
 40
7.295639807824282
100
AcDbArc
 50
79.13597807549034
 51
176.801743425437
  0
ARC
  5
24DD
330
1F
100
AcDbEntity
  8
7
100
AcDbCircle
 10
483.9914501097706
 20
107.8769844756867
 30
0.0
 40
7.037472173130485
100
AcDbArc
 50
82.78551231574196
 51
166.8489702801972
  0
ARC
  5
24DE
330
1F
100
AcDbEntity
  8
7
100
AcDbCircle
 10
484.8349474730812
 20
109.6550414441923
 30
0.0
 40
5.203855410865162
100
AcDbArc
 50
29.82942472130004
 51
89.55631308342249
  0
ARC
  5
24DF
330
1F
100
AcDbEntity
  8
7
100
AcDbCircle
 10
488.1991150967738
 20
111.5848740240421
 30
0.0
 40
1.325469741752528
100
AcDbArc
 50
278.9772612602312
 51
29.79715346438545
  0
ARC
  5
24E0
330
1F
100
AcDbEntity
  8
7
100
AcDbCircle
 10
491.7334933924226
 20
114.9555933309438
 30
0.0
 40
5.742345854544923
100
AcDbArc
 50
234.5863396395166
 51
326.7510362080095
  0
ARC
  5
24E1
330
1F
100
AcDbEntity
  8
7
100
AcDbCircle
 10
492.7742126078988
 20
114.1213980442816
 30
0.0
 40
4.416452725297648
100
AcDbArc
 50
328.399265307084
 51
55.32467650023535
  0
ARC
  5
24E2
330
1F
100
AcDbEntity
  8
7
100
AcDbCircle
 10
499.0285764417915
 20
129.4381111432113
 30
0.0
 40
12.26915143820441
100
AcDbArc
 50
252.2435985177271
 51
284.4482399473405
  0
ARC
  5
24E3
330
1F
100
AcDbEntity
  8
7
100
AcDbCircle
 10
509.7736370184526
 20
88.84966611002246
 30
0.0
 40
29.71787215850103
100
AcDbArc
 50
85.11045225126155
 51
104.9846134693526
  0
ARC
  5
24E4
330
1F
100
AcDbEntity
  8
7
100
AcDbCircle
 10
511.7898490836005
 20
111.1150057618506
 30
0.0
 40
7.362545054210637
100
AcDbArc
 50
46.10331136287684
 51
85.97495501054114
  0
ARC
  5
24E5
330
1F
100
AcDbEntity
  8
7
100
AcDbCircle
 10
521.5604683742646
 20
120.815341316293
 30
0.0
 40
6.409724444461937
100
AcDbArc
 50
223.2882569258388
 51
290.7539992386635
  0
ARC
  5
24E6
330
1F
100
AcDbEntity
  8
7
100
AcDbCircle
 10
520.5215954452106
 20
122.6681314925259
 30
0.0
 40
8.516243537561965
100
AcDbArc
 50
292.8731617949038
 51
340.4845817863145
  0
ARC
  5
24E7
330
1F
100
AcDbEntity
  8
7
100
AcDbCircle
 10
526.3454908002573
 20
120.4524622984743
 30
0.0
 40
2.291211308123775
100
AcDbArc
 50
344.059095113791
 51
93.56461919660715
  0
ARC
  5
24E8
330
1F
100
AcDbEntity
  8
7
100
AcDbCircle
 10
460.6372467488939
 20
61.71038596883717
 30
0.0
 40
1.512630134058858
100
AcDbArc
 50
242.6710500546987
 51
49.11711289443928
  0
ARC
  5
24E9
330
1F
100
AcDbEntity
  8
7
100
AcDbCircle
 10
491.1343168786986
 20
7.491136650794942
 30
0.0
 40
102.6725013302858
100
AcDbArc
 50
140.7622748110677
 51
149.7054755937814
  0
ARC
  5
24EA
330
1F
100
AcDbEntity
  8
7
100
AcDbCircle
 10
355.4171601143157
 20
118.6218326537179
 30
0.0
 40
75.73731074798191
100
AcDbArc
 50
308.4204321276802
 51
320.664469139624
  0
ARC
  5
24EB
330
1F
100
AcDbEntity
  8
7
100
AcDbCircle
 10
420.9141771540561
 20
77.49781813952385
 30
0.0
 40
1.501302132015354
100
AcDbArc
 50
291.4161610906475
 51
106.8866601906287
  0
ARC
  5
24EC
330
1F
100
AcDbEntity
  8
7
100
AcDbCircle
 10
426.4356491275949
 20
78.57259789311386
 30
0.0
 40
1.508879039047213
100
AcDbArc
 50
95.66729556952443
 51
264.3327044304776
  0
ARC
  5
24ED
330
1F
100
AcDbEntity
  8
7
100
AcDbCircle
 10
446.2593249378144
 20
71.41794348675387
 30
0.0
 40
1.502711626503477
100
AcDbArc
 50
235.5825086434622
 51
61.41149197793339
  0
ARC
  5
24EE
330
1F
100
AcDbEntity
  8
7
100
AcDbCircle
 10
451.090323001763
 20
68.44554101781418
 30
0.0
 40
1.50223743856631
100
AcDbArc
 50
54.47400285143912
 51
240.4027061619464
  0
ARC
  5
24EF
330
1F
100
AcDbEntity
  8
7
100
AcDbCircle
 10
470.1562094213618
 20
48.16824752682332
 30
0.0
 40
18.944074438695
100
AcDbArc
 50
26.00699893167477
 51
90.8912844489043
  0
ARC
  5
24F0
330
1F
100
AcDbEntity
  8
7
100
AcDbCircle
 10
495.4471327191841
 20
37.78727798753568
 30
0.0
 40
1.510196984682759
100
AcDbArc
 50
222.4200022803576
 51
44.13653626718918
  0
ARC
  5
24F1
330
1F
100
AcDbEntity
  8
7
100
AcDbCircle
 10
508.5736271277642
 20
49.20557187196457
 30
0.0
 40
20.56333604814274
100
AcDbArc
 50
243.16180547196
 51
261.7550916145955
  0
ARC
  5
24F2
330
1F
100
AcDbEntity
  8
7
100
AcDbCircle
 10
533.3394855022087
 20
23.30647314028684
 30
0.0
 40
1.539653088486481
100
AcDbArc
 50
319.9652832449481
 51
113.901874327411
  0
LINE
  5
24F3
330
1F
100
AcDbEntity
  8
7
100
AcDbLine
 10
419.0069446730731
 20
94.22194082759872
 30
0.0
 11
401.0793719064478
 21
94.22194082759872
 31
0.0
  0
ARC
  5
24F4
330
1F
100
AcDbEntity
  8
7
100
AcDbCircle
 10
400.7192575872541
 20
99.8309483271544
 30
0.0
 40
5.620555795734124
100
AcDbArc
 50
273.6735109927411
 51
21.59372782727276
  0
ARC
  5
24F5
330
1F
100
AcDbEntity
  8
7
100
AcDbCircle
 10
423.6363362149281
 20
117.0473346365324
 30
0.0
 40
23.29012384210757
100
AcDbArc
 50
220.5717580835623
 51
258.534924599624
  0
LINE
  5
24F6
330
1F
100
AcDbEntity
  8
7
100
AcDbLine
 10
444.9836474315538
 20
94.22194082759872
 30
0.0
 11
427.0560746649283
 21
94.22194082759872
 31
0.0
  0
ARC
  5
24F7
330
1F
100
AcDbEntity
  8
7
100
AcDbCircle
 10
426.6959603457347
 20
99.8309483271544
 30
0.0
 40
5.620555795734124
100
AcDbArc
 50
273.6735109927411
 51
21.59372782727276
  0
ARC
  5
24F8
330
1F
100
AcDbEntity
  8
7
100
AcDbCircle
 10
449.6130389734084
 20
117.0473346365324
 30
0.0
 40
23.29012384210757
100
AcDbArc
 50
220.5717580835623
 51
258.5349245996241
  0
LINE
  5
24F9
330
1F
100
AcDbEntity
  8
7
100
AcDbLine
 10
470.6779949883562
 20
94.22194082759872
 30
0.0
 11
452.7504222217308
 21
94.22194082759872
 31
0.0
  0
ARC
  5
24FA
330
1F
100
AcDbEntity
  8
7
100
AcDbCircle
 10
452.3903079025371
 20
99.8309483271544
 30
0.0
 40
5.620555795734124
100
AcDbArc
 50
273.6735109927411
 51
21.59372782727277
  0
ARC
  5
24FB
330
1F
100
AcDbEntity
  8
7
100
AcDbCircle
 10
475.3073865302111
 20
117.0473346365324
 30
0.0
 40
23.29012384210757
100
AcDbArc
 50
220.5717580835623
 51
258.5349245996241
  0
LINE
  5
24FD
330
1F
100
AcDbEntity
  8
7
100
AcDbLine
 10
423.0914516073774
 20
119.4482408275987
 30
0.0
 11
451.7329727504286
 21
119.4482408275987
 31
0.0
  0
LINE
  5
24FE
330
1F
100
AcDbEntity
  8
7
100
AcDbLine
 10
467.5320762182408
 20
119.4482408275987
 30
0.0
 11
477.9495928773871
 21
119.4482408275987
 31
0.0
  0
ARC
  5
24FF
330
1F
100
AcDbEntity
  8
7
100
AcDbCircle
 10
375.5506503945559
 20
83.91887339217857
 30
0.0
 40
39.35830016848818
100
AcDbArc
 50
43.19951465334105
 51
64.51740267612613
  0
ARC
  5
2500
330
1F
100
AcDbEntity
  8
7
100
AcDbCircle
 10
408.9974044789578
 20
115.2261740276715
 30
0.0
 40
6.455074818190907
100
AcDbArc
 50
222.5475464170586
 51
272.9991794436477
  0
ARC
  5
2501
330
1F
100
AcDbEntity
  8
7
100
AcDbCircle
 10
413.356579525062
 20
108.6461431229886
 30
0.0
 40
4.023660037148873
100
AcDbArc
 50
178.0944072818683
 51
237.245978934722
  0
ARC
  5
2502
330
1F
100
AcDbEntity
  8
7
100
AcDbCircle
 10
417.5863938455234
 20
104.8518345712823
 30
0.0
 40
6.976720477024548
100
AcDbArc
 50
58.58929779764547
 51
127.6615641455435
  0
ARC
  5
2503
330
1F
100
AcDbEntity
  8
7
100
AcDbCircle
 10
417.991162926747
 20
105.3167608567554
 30
0.0
 40
6.369809588083083
100
AcDbArc
 50
258.0028420606109
 51
59.51712939439405
  0
ARC
  5
2504
330
1F
100
AcDbEntity
  8
7
100
AcDbCircle
 10
420.9505617446531
 20
105.4490245874073
 30
0.0
 40
7.670395827293504
100
AcDbArc
 50
236.0520920409485
 51
14.37544912303975
  0
ARC
  5
2505
330
1F
100
AcDbEntity
  8
7
100
AcDbCircle
 10
415.6613550769761
 20
104.1489454250206
 30
0.0
 40
13.11688278429248
100
AcDbArc
 50
14.14042887012122
 51
81.5322801699753
  0
ARC
  5
2506
330
1F
100
AcDbEntity
  8
7
100
AcDbCircle
 10
415.0707095336183
 20
106.9027531351982
 30
0.0
 40
10.52669739766613
100
AcDbArc
 50
76.1374118511595
 51
120.9042595657651
  0
ARC
  5
2507
330
1F
100
AcDbEntity
  8
7
100
AcDbCircle
 10
410.1390281169223
 20
115.1631659068559
 30
0.0
 40
0.9061737214957712
100
AcDbArc
 50
121.6045422324842
 51
263.3216775551448
  0
ARC
  5
2508
330
1F
100
AcDbEntity
  8
7
100
AcDbCircle
 10
407.2733809349228
 20
113.8644110192458
 30
0.0
 40
2.788914011621208
100
AcDbArc
 50
254.8252643865868
 51
8.219718515203782
  0
ARC
  5
2509
330
1F
100
AcDbEntity
  8
7
100
AcDbCircle
 10
407.8225469170848
 20
115.2875891688128
 30
0.0
 40
4.309099123050767
100
AcDbArc
 50
105.0829228112329
 51
252.7308524520597
  0
ARC
  5
250A
330
1F
100
AcDbEntity
  8
7
100
AcDbCircle
 10
412.8480368065054
 20
107.5684401480856
 30
0.0
 40
2.846416627395356
100
AcDbArc
 50
234.1165950264619
 51
80.38132931097155
  0
ARC
  5
250B
330
1F
100
AcDbEntity
  8
7
100
AcDbCircle
 10
390.8210544062939
 20
103.5229173844103
 30
0.0
 40
8.389673465285326
100
AcDbArc
 50
13.55874817041543
 51
62.63180803872455
  0
ARC
  5
250C
330
1F
100
AcDbEntity
  8
7
100
AcDbCircle
 10
418.3549798702558
 20
104.636042206207
 30
0.0
 40
15.55105760120867
100
AcDbArc
 50
355.7934612462102
 51
72.26737090731237
  0
ARC
  5
250D
330
1F
100
AcDbEntity
  8
7
100
AcDbCircle
 10
435.119928660668
 20
108.748374382229
 30
0.0
 40
5.401051281886815
100
AcDbArc
 50
256.5552664501615
 51
26.66760516180973
  0
ARC
  5
250E
330
1F
100
AcDbEntity
  8
7
100
AcDbCircle
 10
435.8644962456258
 20
109.1428538848524
 30
0.0
 40
4.558675917687771
100
AcDbArc
 50
26.43703969552369
 51
104.003990333363
  0
ARC
  5
250F
330
1F
100
AcDbEntity
  8
7
100
AcDbCircle
 10
438.7228413715395
 20
114.310244272544
 30
0.0
 40
4.030793328791128
100
AcDbArc
 50
5.008415352833802
 51
190.6395334864294
  0
ARC
  5
2510
330
1F
100
AcDbEntity
  8
7
100
AcDbCircle
 10
452.7739287602556
 20
106.6467825532915
 30
0.0
 40
12.84371143257388
100
AcDbArc
 50
94.64880235232781
 51
141.3861350191669
  0
ARC
  5
2511
330
1F
100
AcDbEntity
  8
7
100
AcDbCircle
 10
486.8337550057725
 20
101.2746225390677
 30
0.0
 40
20.22890848317488
100
AcDbArc
 50
116.0516685117316
 51
156.108664664247
  0
ARC
  5
2512
330
1F
100
AcDbEntity
  8
7
100
AcDbCircle
 10
463.0322443964884
 20
117.3935964150039
 30
0.0
 40
4.94672114498705
100
AcDbArc
 50
289.1262889337602
 51
24.5416624332262
  0
ARC
  5
2513
330
1F
100
AcDbEntity
  8
7
100
AcDbCircle
 10
465.857367223027
 20
110.3705548934258
 30
0.0
 40
2.64007709584701
100
AcDbArc
 50
117.1402047841344
 51
339.9954348443702
  0
ARC
  5
2514
330
1F
100
AcDbEntity
  8
7
100
AcDbCircle
 10
451.0502296435243
 20
105.8443398191066
 30
0.0
 40
7.528474971168726
100
AcDbArc
 50
180.5445348456075
 51
298.1657087421827
  0
ARC
  5
2515
330
1F
100
AcDbEntity
  8
7
100
AcDbCircle
 10
454.9493996253344
 20
105.1519345228341
 30
0.0
 40
5.954628655631236
100
AcDbArc
 50
73.92163823893131
 51
266.6731813324852
  0
ARC
  5
2516
330
1F
100
AcDbEntity
  8
7
100
AcDbCircle
 10
453.8062156433737
 20
106.0511971062189
 30
0.0
 40
10.28788871381043
100
AcDbArc
 50
95.78776888839945
 51
181.5507022670733
  0
ARC
  5
2517
330
1F
100
AcDbEntity
  8
7
100
AcDbCircle
 10
459.0523565622389
 20
108.2328246294893
 30
0.0
 40
3.604872116956121
100
AcDbArc
 50
132.8978348774897
 51
295.6700629832083
  0
LINE
  5
2518
330
1F
100
AcDbEntity
  8
7
100
AcDbLine
 10
452.7687446730733
 20
116.2866408275987
 30
0.0
 11
462.1609946730733
 21
117.0185408275987
 31
0.0
  0
ARC
  5
2519
330
1F
100
AcDbEntity
  8
7
100
AcDbCircle
 10
462.3241360320756
 20
115.6361208699031
 30
0.0
 40
1.39201294622288
100
AcDbArc
 50
304.8987041015758
 51
96.73042797746816
  0
ARC
  5
251A
330
1F
100
AcDbEntity
  8
7
100
AcDbCircle
 10
466.5555288981336
 20
109.7721589750024
 30
0.0
 40
5.839440257573782
100
AcDbArc
 50
126.0321140613552
 51
224.3180200427428
  0
LINE
  5
251B
330
1F
100
AcDbEntity
  8
7
100
AcDbLine
 10
460.6139446730733
 20
104.9837408275986
 30
0.0
 11
462.3775668230252
 21
105.6924904320047
 31
0.0
  0
ARC
  5
251E
330
1F
100
AcDbEntity
  8
7
100
AcDbCircle
 10
295.5916605333282
 20
244.8459341307071
 30
0.0
 40
24.35323784855192
100
AcDbArc
 50
270.000684812167
 51
307.064710145988
  0
ARC
  5
251F
330
1F
100
AcDbEntity
  8
7
100
AcDbCircle
 10
319.9539915416242
 20
210.4143767233083
 30
0.0
 40
17.85349174575135
100
AcDbArc
 50
54.68637399289335
 51
122.8490612453815
  0
ARC
  5
2521
330
1F
100
AcDbEntity
  8
7
100
AcDbCircle
 10
333.1775617880571
 20
223.4350094109067
 30
0.0
 40
3.290146369993211
100
AcDbArc
 50
90.0
 51
151.9370860717117
  0
LINE
  5
2523
330
1F
100
AcDbEntity
  8
7
100
AcDbLine
 10
292.4494617880571
 20
154.0792887254117
 30
0.0
 11
292.4494617880571
 21
160.2174161351759
 31
0.0
  0
LINE
  5
2524
330
1F
100
AcDbEntity
  8
7
100
AcDbLine
 10
295.6244617880571
 20
160.2174161351759
 30
0.0
 11
295.6244617880571
 21
172.7080206719805
 31
0.0
  0
LINE
  5
256E
330
1F
100
AcDbEntity
  8
7
100
AcDbLine
 10
292.4494617880571
 20
220.4926962838947
 30
0.0
 11
295.591951608757
 21
220.4926962838947
 31
0.0
  0
LINE
  5
256F
330
1F
100
AcDbEntity
  8
7
100
AcDbLine
 10
292.4494617880571
 20
213.984418583083
 30
0.0
 11
295.6244617880571
 21
213.984418583083
 31
0.0
  0
LINE
  5
2570
330
1F
100
AcDbEntity
  8
7
100
AcDbLine
 10
292.4494617880571
 20
200.248121268199
 30
0.0
 11
295.6244617880571
 21
200.248121268199
 31
0.0
  0
LINE
  5
2571
330
1F
100
AcDbEntity
  8
7
100
AcDbLine
 10
292.4494617880569
 20
195.279719151749
 30
0.0
 11
295.6244617880571
 21
195.279719151749
 31
0.0
  0
LINE
  5
2572
330
1F
100
AcDbEntity
  8
7
100
AcDbLine
 10
292.4494617880571
 20
177.8450112462904
 30
0.0
 11
295.6244617880571
 21
177.8450112462904
 31
0.0
  0
LINE
  5
2573
330
1F
100
AcDbEntity
  8
7
100
AcDbLine
 10
292.4494617880571
 20
172.7080206719805
 30
0.0
 11
295.6244617880571
 21
172.7080206719805
 31
0.0
  0
LINE
  5
2574
330
1F
100
AcDbEntity
  8
7
100
AcDbLine
 10
292.4494617880571
 20
160.2174161351759
 30
0.0
 11
295.6244617880571
 21
160.2174161351759
 31
0.0
  0
LINE
  5
2575
330
1F
100
AcDbEntity
  8
7
100
AcDbLine
 10
292.4494617880571
 20
172.7080206719805
 30
0.0
 11
292.4494617880571
 21
177.8450112462904
 31
0.0
  0
LINE
  5
2576
330
1F
100
AcDbEntity
  8
7
100
AcDbLine
 10
295.6244617880571
 20
177.8450112462904
 30
0.0
 11
295.6244617880571
 21
195.279719151749
 31
0.0
  0
LINE
  5
2577
330
1F
100
AcDbEntity
  8
7
100
AcDbLine
 10
292.4494617880571
 20
213.984418583083
 30
0.0
 11
292.4494617880571
 21
220.4926962838947
 31
0.0
  0
LINE
  5
2578
330
1F
100
AcDbEntity
  8
7
100
AcDbLine
 10
292.4494617880571
 20
195.279719151749
 30
0.0
 11
292.4494617880571
 21
200.248121268199
 31
0.0
  0
LINE
  5
2579
330
1F
100
AcDbEntity
  8
7
100
AcDbLine
 10
295.6244617880571
 20
200.248121268199
 30
0.0
 11
295.6244617880571
 21
213.984418583083
 31
0.0
  0
LINE
  5
257A
330
1F
100
AcDbEntity
  8
7
  6
Continuous2
 62
     1
370
    -3
100
AcDbLine
 10
373.9056617880572
 20
154.0792887254117
 30
0.0
 11
333.1775617880571
 21
154.0809387254116
 31
0.0
  0
ARC
  5
257B
330
1F
100
AcDbEntity
  8
7
100
AcDbCircle
 10
370.7634630427861
 20
244.8459341307071
 30
0.0
 40
24.35323784855192
100
AcDbArc
 50
232.9352898540118
 51
269.9993151878339
  0
ARC
  5
257C
330
1F
100
AcDbEntity
  8
7
100
AcDbCircle
 10
346.4011320344902
 20
210.4143767233083
 30
0.0
 40
17.85349174575135
100
AcDbArc
 50
57.15093875461708
 51
125.313626007106
  0
ARC
  5
257D
330
1F
100
AcDbEntity
  8
7
100
AcDbCircle
 10
333.1775617880571
 20
223.4350094109067
 30
0.0
 40
3.290146369993211
100
AcDbArc
 50
28.06291392828815
 51
90.0
  0
LINE
  5
257E
330
1F
100
AcDbEntity
  8
7
100
AcDbLine
 10
373.9056617880572
 20
154.0792887254117
 30
0.0
 11
373.9056617880572
 21
160.2174161351759
 31
0.0
  0
LINE
  5
257F
330
1F
100
AcDbEntity
  8
7
100
AcDbLine
 10
373.9056617880572
 20
172.7080206719805
 30
0.0
 11
373.9056617880572
 21
177.8450112462904
 31
0.0
  0
LINE
  5
2580
330
1F
100
AcDbEntity
  8
7
100
AcDbLine
 10
373.9056617880571
 20
195.279719151749
 30
0.0
 11
373.9056617880572
 21
200.248121268199
 31
0.0
  0
LINE
  5
2581
330
1F
100
AcDbEntity
  8
7
100
AcDbLine
 10
373.9056617880572
 20
213.984418583083
 30
0.0
 11
373.9056617880572
 21
220.4926962838947
 31
0.0
  0
LINE
  5
2582
330
1F
100
AcDbEntity
  8
7
100
AcDbLine
 10
370.7306617880572
 20
160.2174161351759
 30
0.0
 11
370.7306617880572
 21
172.7080206719805
 31
0.0
  0
LINE
  5
2583
330
1F
100
AcDbEntity
  8
7
100
AcDbLine
 10
370.7306617880572
 20
177.8450112462904
 30
0.0
 11
370.7306617880572
 21
195.279719151749
 31
0.0
  0
LINE
  5
2584
330
1F
100
AcDbEntity
  8
7
100
AcDbLine
 10
370.7306617880572
 20
200.248121268199
 30
0.0
 11
370.7306617880572
 21
213.984418583083
 31
0.0
  0
LINE
  5
2585
330
1F
100
AcDbEntity
  8
7
100
AcDbLine
 10
373.9056617880572
 20
220.4926962838947
 30
0.0
 11
370.7631719673573
 21
220.4926962838947
 31
0.0
  0
LINE
  5
2586
330
1F
100
AcDbEntity
  8
7
100
AcDbLine
 10
373.9056617880572
 20
213.984418583083
 30
0.0
 11
370.7306617880572
 21
213.984418583083
 31
0.0
  0
LINE
  5
2587
330
1F
100
AcDbEntity
  8
7
100
AcDbLine
 10
373.9056617880572
 20
200.248121268199
 30
0.0
 11
370.7306617880571
 21
200.248121268199
 31
0.0
  0
LINE
  5
2588
330
1F
100
AcDbEntity
  8
7
100
AcDbLine
 10
373.9056617880572
 20
195.279719151749
 30
0.0
 11
370.7306617880572
 21
195.279719151749
 31
0.0
  0
LINE
  5
2589
330
1F
100
AcDbEntity
  8
7
100
AcDbLine
 10
373.9056617880572
 20
177.8450112462904
 30
0.0
 11
370.7306617880572
 21
177.8450112462904
 31
0.0
  0
LINE
  5
258A
330
1F
100
AcDbEntity
  8
7
100
AcDbLine
 10
373.9056617880572
 20
172.7080206719805
 30
0.0
 11
370.7306617880572
 21
172.7080206719805
 31
0.0
  0
LINE
  5
258B
330
1F
100
AcDbEntity
  8
7
100
AcDbLine
 10
373.9056617880572
 20
160.2174161351759
 30
0.0
 11
370.7306617880571
 21
160.2174161351759
 31
0.0
  0
LINE
  5
258D
330
1F
100
AcDbEntity
  8
7
  6
Continuous2
 62
     1
370
    -3
100
AcDbLine
 10
402.3477346139794
 20
199.6665006625674
 30
0.0
 11
399.1471380939211
 21
199.6666263210799
 31
0.0
  0
LINE
  5
258E
330
1F
100
AcDbEntity
  8
7
  6
Continuous2
 62
     1
370
    -3
100
AcDbLine
 10
399.1471380939211
 20
199.6666263210799
 30
0.0
 11
399.1474336397584
 21
204.842741854243
 31
0.0
  0
LINE
  5
258F
330
1F
100
AcDbEntity
  8
7
  6
Continuous2
 62
     1
370
    -3
100
AcDbLine
 10
399.1474336397584
 20
204.842741854243
 30
0.0
 11
402.3481654017323
 21
204.8425748481275
 31
0.0
  0
LINE
  5
2591
330
1F
100
AcDbEntity
  8
7
  6
Continuous2
 62
     1
370
    -3
100
AcDbLine
 10
402.349060401104
 20
217.1274717825335
 30
0.0
 11
399.1485108282019
 21
217.1275091462866
 31
0.0
  0
LINE
  5
2592
330
1F
100
AcDbEntity
  8
7
  6
Continuous2
 62
     1
370
    -3
100
AcDbLine
 10
399.1485108282019
 20
217.1275091462866
 30
0.0
 11
399.1489663147425
 21
222.9972956204723
 31
0.0
  0
LINE
  5
25AF
330
1F
100
AcDbEntity
  8
7
  6
Continuous2
 62
     1
370
    -3
100
AcDbLine
 10
399.1471380939211
 20
199.6666263210799
 30
0.0
 11
439.8752380939211
 21
199.6682763210798
 31
0.0
  0
LINE
  5
25B1
330
1F
100
AcDbEntity
  8
7
  6
Continuous2
 62
     1
370
    -3
100
AcDbLine
 10
480.6033380939211
 20
199.6666263210799
 30
0.0
 11
439.8752380939211
 21
199.6682763210798
 31
0.0
  0
LINE
  5
25B3
330
1F
100
AcDbEntity
  8
7
100
AcDbLine
 10
402.3221380939212
 20
204.8425762061669
 30
0.0
 11
402.3221380939212
 21
217.127472096829
 31
0.0
  0
ARC
  5
25B4
330
1F
100
AcDbEntity
  8
7
100
AcDbCircle
 10
402.2893368391923
 20
247.3505334672847
 30
0.0
 40
24.35323784855192
100
AcDbArc
 50
270.0006848121669
 51
307.0647101459881
  0
ARC
  5
25B5
330
1F
100
AcDbEntity
  8
7
100
AcDbCircle
 10
426.651667847488
 20
212.918976059886
 30
0.0
 40
17.85349174575135
100
AcDbArc
 50
54.68637399289349
 51
122.8490612453814
  0
ARC
  5
25B6
330
1F
100
AcDbEntity
  8
7
100
AcDbCircle
 10
439.8752380939211
 20
225.9396087474843
 30
0.0
 40
3.290146369993211
100
AcDbArc
 50
90.0
 51
151.9370860717117
  0
LINE
  5
25B7
330
1F
100
AcDbEntity
  8
7
100
AcDbLine
 10
399.1471380939211
 20
222.9972956204723
 30
0.0
 11
402.2896279146209
 21
222.9972956204723
 31
0.0
  0
ARC
  5
25B8
330
1F
100
AcDbEntity
  8
7
100
AcDbCircle
 10
477.4611393486499
 20
247.3505334672847
 30
0.0
 40
24.35323784855192
100
AcDbArc
 50
232.9352898540117
 51
269.9993151878339
  0
ARC
  5
25B9
330
1F
100
AcDbEntity
  8
7
100
AcDbCircle
 10
453.0988083403541
 20
212.918976059886
 30
0.0
 40
17.85349174575135
100
AcDbArc
 50
57.15093875461728
 51
125.3136260071053
  0
ARC
  5
25BA
330
1F
100
AcDbEntity
  8
7
100
AcDbCircle
 10
439.8752380939211
 20
225.9396087474843
 30
0.0
 40
3.290146369993211
100
AcDbArc
 50
28.06291392828815
 51
90.0
  0
LINE
  5
25BB
330
1F
100
AcDbEntity
  8
7
100
AcDbLine
 10
480.6033380939211
 20
222.9972956204723
 30
0.0
 11
477.4608482732213
 21
222.9972956204723
 31
0.0
  0
LINE
  5
25BE
330
1F
100
AcDbEntity
  8
7
  6
Continuous2
 62
     1
370
    -3
100
AcDbLine
 10
480.6033380939211
 20
199.6666263210799
 30
0.0
 11
480.6030425480838
 21
204.842741854243
 31
0.0
  0
LINE
  5
25BF
330
1F
100
AcDbEntity
  8
7
  6
Continuous2
 62
     1
370
    -3
100
AcDbLine
 10
480.6030425480838
 20
204.842741854243
 30
0.0
 11
477.4023107861099
 21
204.8425748481275
 31
0.0
  0
LINE
  5
25C0
330
1F
100
AcDbEntity
  8
7
  6
Continuous2
 62
     1
370
    -3
100
AcDbLine
 10
477.4014157867382
 20
217.1274717825335
 30
0.0
 11
480.6019653596403
 21
217.1275091462866
 31
0.0
  0
LINE
  5
25C1
330
1F
100
AcDbEntity
  8
7
  6
Continuous2
 62
     1
370
    -3
100
AcDbLine
 10
480.6019653596403
 20
217.1275091462866
 30
0.0
 11
480.6015098730996
 21
222.9972956204723
 31
0.0
  0
LINE
  5
25C2
330
1F
100
AcDbEntity
  8
7
100
AcDbLine
 10
477.4283380939209
 20
204.8425762061669
 30
0.0
 11
477.4283380939211
 21
217.127472096829
 31
0.0
  0
LINE
  5
25C4
330
1F
100
AcDbEntity
  8
7
  6
Continuous2
 62
     1
370
    -3
100
AcDbLine
 10
297.0564471708419
 20
15.24144863440153
 30
0.0
 11
293.881447170842
 21
15.24144863440153
 31
0.0
  0
LINE
  5
25C5
330
1F
100
AcDbEntity
  8
7
  6
Continuous2
 62
     1
370
    -3
100
AcDbLine
 10
293.881447170842
 20
15.24144863440153
 30
0.0
 11
293.881447170842
 21
6.485348634401588
 31
0.0
  0
LINE
  5
25C8
330
1F
100
AcDbEntity
  8
7
  6
Continuous2
 62
     1
370
    -3
100
AcDbLine
 10
297.0564471708419
 20
42.55974863440154
 30
0.0
 11
293.881447170842
 21
42.55974863440154
 31
0.0
  0
LINE
  5
25C9
330
1F
100
AcDbEntity
  8
7
  6
Continuous2
 62
     1
370
    -3
100
AcDbLine
 10
293.881447170842
 20
42.55974863440154
 30
0.0
 11
293.881447170842
 21
34.91414863440161
 31
0.0
  0
LINE
  5
25CA
330
1F
100
AcDbEntity
  8
7
  6
Continuous2
 62
     1
370
    -3
100
AcDbLine
 10
293.881447170842
 20
34.91414863440161
 30
0.0
 11
297.0564471708419
 21
34.91414863440161
 31
0.0
  0
LINE
  5
25CC
330
1F
100
AcDbEntity
  8
7
  6
Continuous2
 62
     1
370
    -3
100
AcDbLine
 10
297.0564471708419
 20
67.19244863440156
 30
0.0
 11
293.881447170842
 21
67.19244863440156
 31
0.0
  0
LINE
  5
25CD
330
1F
100
AcDbEntity
  8
7
  6
Continuous2
 62
     1
370
    -3
100
AcDbLine
 10
293.881447170842
 20
67.19244863440156
 30
0.0
 11
293.881447170842
 21
59.54744863440158
 31
0.0
  0
LINE
  5
25CE
330
1F
100
AcDbEntity
  8
7
  6
Continuous2
 62
     1
370
    -3
100
AcDbLine
 10
293.881447170842
 20
59.54744863440158
 30
0.0
 11
297.0564471708419
 21
59.54744863440158
 31
0.0
  0
LINE
  5
25D1
330
1F
100
AcDbEntity
  8
7
  6
Continuous2
 62
     1
370
    -3
100
AcDbLine
 10
293.881447170842
 20
93.98574863440158
 30
0.0
 11
293.881447170842
 21
88.80994863440163
 31
0.0
  0
LINE
  5
25D2
330
1F
100
AcDbEntity
  8
7
  6
Continuous2
 62
     1
370
    -3
100
AcDbLine
 10
293.881447170842
 20
88.80994863440163
 30
0.0
 11
297.0564471708419
 21
88.80994863440163
 31
0.0
  0
LINE
  5
25D3
330
1F
100
AcDbEntity
  8
7
  6
Continuous2
 62
     1
370
    -3
100
AcDbLine
 10
293.881447170842
 20
6.485348634401588
 30
0.0
 11
334.609547170842
 21
6.486998634401516
 31
0.0
  0
LINE
  5
25D4
330
1F
100
AcDbEntity
  8
7
  6
Continuous2
 62
     1
370
    -3
100
AcDbLine
 10
375.3376471708421
 20
6.485348634401588
 30
0.0
 11
334.609547170842
 21
6.486998634401516
 31
0.0
  0
LINE
  5
25D7
330
1F
100
AcDbEntity
  8
7
100
AcDbLine
 10
297.0564471708419
 20
15.24144863440153
 30
0.0
 11
297.0564471708419
 21
34.91414863440161
 31
0.0
  0
LINE
  5
25DA
330
1F
100
AcDbEntity
  8
7
100
AcDbLine
 10
297.0564471708419
 20
42.55974863440154
 30
0.0
 11
297.0564471708418
 21
59.54744863440163
 31
0.0
  0
LINE
  5
25DB
330
1F
100
AcDbEntity
  8
7
100
AcDbLine
 10
297.0564471708418
 20
67.19244863440156
 30
0.0
 11
297.0564471708418
 21
88.80994863440163
 31
0.0
  0
LINE
  5
25DC
330
1F
100
AcDbEntity
  8
7
  6
Continuous2
 62
     1
370
    -3
100
AcDbLine
 10
372.1626471708422
 20
15.24144863440153
 30
0.0
 11
375.3376471708421
 21
15.24144863440153
 31
0.0
  0
LINE
  5
25DD
330
1F
100
AcDbEntity
  8
7
  6
Continuous2
 62
     1
370
    -3
100
AcDbLine
 10
375.3376471708421
 20
15.24144863440153
 30
0.0
 11
375.3376471708421
 21
6.485348634401588
 31
0.0
  0
LINE
  5
25DE
330
1F
100
AcDbEntity
  8
7
  6
Continuous2
 62
     1
370
    -3
100
AcDbLine
 10
372.1626471708422
 20
42.55974863440154
 30
0.0
 11
375.3376471708421
 21
42.55974863440154
 31
0.0
  0
LINE
  5
25DF
330
1F
100
AcDbEntity
  8
7
  6
Continuous2
 62
     1
370
    -3
100
AcDbLine
 10
375.3376471708421
 20
42.55974863440154
 30
0.0
 11
375.3376471708421
 21
34.91414863440161
 31
0.0
  0
LINE
  5
25E0
330
1F
100
AcDbEntity
  8
7
  6
Continuous2
 62
     1
370
    -3
100
AcDbLine
 10
375.3376471708421
 20
34.91414863440161
 30
0.0
 11
372.1626471708422
 21
34.91414863440161
 31
0.0
  0
LINE
  5
25E1
330
1F
100
AcDbEntity
  8
7
  6
Continuous2
 62
     1
370
    -3
100
AcDbLine
 10
372.1626471708422
 20
67.19244863440156
 30
0.0
 11
375.3376471708421
 21
67.19244863440156
 31
0.0
  0
LINE
  5
25E2
330
1F
100
AcDbEntity
  8
7
  6
Continuous2
 62
     1
370
    -3
100
AcDbLine
 10
375.3376471708421
 20
67.19244863440156
 30
0.0
 11
375.3376471708421
 21
59.54744863440158
 31
0.0
  0
LINE
  5
25E3
330
1F
100
AcDbEntity
  8
7
  6
Continuous2
 62
     1
370
    -3
100
AcDbLine
 10
375.3376471708421
 20
59.54744863440158
 30
0.0
 11
372.1626471708422
 21
59.54744863440158
 31
0.0
  0
LINE
  5
25E4
330
1F
100
AcDbEntity
  8
7
  6
Continuous2
 62
     1
370
    -3
100
AcDbLine
 10
375.3376471708421
 20
93.98574863440158
 30
0.0
 11
375.3376471708421
 21
88.80994863440163
 31
0.0
  0
LINE
  5
25E5
330
1F
100
AcDbEntity
  8
7
  6
Continuous2
 62
     1
370
    -3
100
AcDbLine
 10
375.3376471708421
 20
88.80994863440163
 30
0.0
 11
372.1626471708422
 21
88.80994863440163
 31
0.0
  0
LINE
  5
25E6
330
1F
100
AcDbEntity
  8
7
100
AcDbLine
 10
372.1626471708422
 20
15.24144863440153
 30
0.0
 11
372.1626471708422
 21
34.91414863440161
 31
0.0
  0
LINE
  5
25E7
330
1F
100
AcDbEntity
  8
7
100
AcDbLine
 10
372.1626471708422
 20
42.55974863440154
 30
0.0
 11
372.1626471708422
 21
59.54744863440163
 31
0.0
  0
LINE
  5
25E8
330
1F
100
AcDbEntity
  8
7
100
AcDbLine
 10
372.1626471708422
 20
67.19244863440156
 30
0.0
 11
372.1626471708422
 21
88.80994863440163
 31
0.0
  0
LINE
  5
25E9
330
1F
100
AcDbEntity
  8
7
100
AcDbLine
 10
293.881447170842
 20
93.98574863440158
 30
0.0
 11
375.3376471708421
 21
93.98574863440158
 31
0.0
  0
LWPOLYLINE
  5
2613
330
1F
100
AcDbEntity
  8
7
 62
     0
100
AcDbPolyline
 90
        4
 70
     1
 43
0.0
 10
286.8946542887675
 20
237.1352163345889
 10
552.3333777781252
 20
237.1352163345889
 10
552.3333777781252
 20
-0.7725603166480825
 10
286.8946542887675
 20
-0.7725603166480825
  0
ENDSEC
  0
SECTION
  2
OBJECTS
  0
DICTIONARY
  5
C
330
0
100
AcDbDictionary
281
     1
  3
ACAD_COLOR
350
1627
  3
ACAD_GROUP
350
D
  3
ACAD_LAYOUT
350
1A
  3
ACAD_MATERIAL
350
3B
  3
ACAD_MLEADERSTYLE
350
1621
  3
ACAD_MLINESTYLE
350
17
  3
ACAD_PLOTSETTINGS
350
19
  3
ACAD_PLOTSTYLENAME
350
E
  3
ACAD_SCALELIST
350
1629
  3
ACAD_TABLESTYLE
350
1620
  3
ACAD_VISUALSTYLE
350
2A
  3
ACDB_RECOMPOSE_DATA
350
267F
  3
AcDbVariableDictionary
350
16A1
  0
DICTIONARY
  5
2617
330
2
100
AcDbDictionary
280
     1
281
     1
  3
ACAD_LAYERSTATES
360
2618
  0
DICTIONARY
  5
169D
330
10
100
AcDbDictionary
280
     1
281
     1
  3
ADSK_XREC_LAYER_RECONCILED
360
169E
  0
DICTIONARY
  5
169F
330
44
100
AcDbDictionary
280
     1
281
     1
  3
ADSK_XREC_LAYER_RECONCILED
360
16A0
  0
DICTIONARY
  5
1652
330
1F
100
AcDbDictionary
280
     1
281
     1
  3
ACAD_SORTENTS
360
1653
  0
DICTIONARY
  5
1627
102
{ACAD_REACTORS
330
C
102
}
330
C
100
AcDbDictionary
281
     1
  0
DICTIONARY
  5
D
102
{ACAD_REACTORS
330
C
102
}
330
C
100
AcDbDictionary
281
     1
  0
DICTIONARY
  5
1A
102
{ACAD_REACTORS
330
C
102
}
330
C
100
AcDbDictionary
281
     1
  3
Layout1
350
1E
  3
Layout2
350
26
  3
Model
350
22
  0
DICTIONARY
  5
3B
102
{ACAD_REACTORS
330
C
102
}
330
C
100
AcDbDictionary
281
     1
  3
ByBlock
350
3D
  3
ByLayer
350
3C
  3
Global
350
3E
  0
DICTIONARY
  5
1621
102
{ACAD_REACTORS
330
C
102
}
330
C
100
AcDbDictionary
281
     1
  3
Standard
350
164B
  0
DICTIONARY
  5
17
102
{ACAD_REACTORS
330
C
102
}
330
C
100
AcDbDictionary
281
     1
  3
Standard
350
18
  0
DICTIONARY
  5
19
102
{ACAD_REACTORS
330
C
102
}
330
C
100
AcDbDictionary
281
     1
  0
ACDBDICTIONARYWDFLT
  5
E
102
{ACAD_REACTORS
330
C
102
}
330
C
100
AcDbDictionary
281
     1
  3
Normal
350
F
100
AcDbDictionaryWithDefault
340
F
  0
DICTIONARY
  5
1629
102
{ACAD_REACTORS
330
C
102
}
330
C
100
AcDbDictionary
281
     1
  3
A0
350
162A
  3
A1
350
162B
  3
A2
350
162C
  3
A3
350
162D
  3
A4
350
162E
  3
A5
350
162F
  3
A6
350
1630
  3
A7
350
1631
  3
A8
350
1632
  3
A9
350
1633
  3
B0
350
1634
  3
B1
350
1635
  3
B2
350
1636
  3
B3
350
1637
  3
B4
350
1638
  3
B5
350
1639
  3
B6
350
163A
  3
B7
350
163B
  3
B8
350
163C
  3
B9
350
163D
  3
C0
350
163E
  3
C1
350
163F
  3
C2
350
1640
  3
C3
350
1641
  3
C4
350
1642
  3
C5
350
1643
  3
C6
350
1644
  3
C7
350
1645
  3
C8
350
1646
  3
C9
350
1647
  3
D0
350
1648
  3
D1
350
1649
  3
D2
350
164A
  0
DICTIONARY
  5
1620
102
{ACAD_REACTORS
330
C
102
}
330
C
100
AcDbDictionary
281
     1
  3
Standard
350
1628
  0
DICTIONARY
  5
2A
102
{ACAD_REACTORS
330
C
102
}
330
C
100
AcDbDictionary
281
     1
  3
2dWireframe
350
2F
  3
3D Hidden
350
31
  3
3dWireframe
350
30
  3
Basic
350
32
  3
Brighten
350
36
  3
ColorChange
350
3A
  3
Conceptual
350
34
  3
Dim
350
35
  3
EdgeColorOff
350
1626
  3
Facepattern
350
39
  3
Flat
350
2B
  3
FlatWithEdges
350
2C
  3
Gouraud
350
2D
  3
GouraudWithEdges
350
2E
  3
JitterOff
350
1624
  3
Linepattern
350
38
  3
OverhangOff
350
1625
  3
Realistic
350
33
  3
Thicken
350
37
  0
XRECORD
  5
267F
102
{ACAD_REACTORS
330
C
102
}
330
C
100
AcDbXrecord
280
     1
 90
        1
330
1628
  0
DICTIONARY
  5
16A1
102
{ACAD_REACTORS
330
C
102
}
330
C
100
AcDbDictionary
281
     1
  3
CANNOSCALE
350
16A4
  3
CMLEADERSTYLE
350
16A3
  3
CTABLESTYLE
350
16A2
  3
LAYEREVAL
350
16A5
  3
LAYERNOTIFY
350
16A6
  0
DICTIONARY
  5
2618
102
{ACAD_REACTORS
330
2617
102
}
330
2617
100
AcDbDictionary
281
     1
  0
XRECORD
  5
169E
102
{ACAD_REACTORS
330
169D
102
}
330
169D
100
AcDbXrecord
280
     1
290
     1
  0
XRECORD
  5
16A0
102
{ACAD_REACTORS
330
169F
102
}
330
169F
100
AcDbXrecord
280
     1
290
     1
  0
SORTENTSTABLE
  5
1653
102
{ACAD_REACTORS
330
1652
102
}
330
1652
100
AcDbSortentsTable
330
1F
331
2157
  5
2288
331
2153
  5
2284
331
214F
  5
2280
331
2196
  5
2366
331
21D7
  5
237F
331
21D3
  5
237B
331
16DC
  5
2134
331
214B
  5
227D
331
248D
  5
248D
331
2192
  5
22C5
331
21CF
  5
237A
331
16D8
  5
2130
331
2489
  5
2489
331
24C4
  5
24C4
331
2485
  5
2485
331
2481
  5
2481
331
24C0
  5
24C0
331
2507
  5
2507
331
2503
  5
2503
331
24FF
  5
24FF
331
2586
  5
2586
331
2582
  5
2582
331
24FB
  5
24FB
331
2147
  5
227A
331
218E
  5
22C1
331
218A
  5
22BE
331
16D4
  5
212C
331
2143
  5
2276
331
213F
  5
2272
331
2186
  5
22BB
331
2206
  5
239E
331
16D0
  5
2128
331
16CC
  5
2124
331
21C3
  5
2376
331
2202
  5
239B
331
2182
  5
22B7
331
247D
  5
247D
331
24BC
  5
24BC
331
16C8
  5
2120
331
21BF
  5
2372
331
21FE
  5
2397
331
2479
  5
2479
331
24B8
  5
24B8
331
2169
  5
2298
331
24B4
  5
24B4
331
21FA
  5
2393
331
2475
  5
2475
331
2471
  5
2471
331
24B0
  5
24B0
331
24F7
  5
24F7
331
257E
  5
257E
331
24F3
  5
24F3
331
257A
  5
257A
331
24EF
  5
24EF
331
2576
  5
2571
331
25D1
  5
25D1
331
2572
  5
2577
331
25CD
  5
25CD
331
24EB
  5
24EB
331
25C9
  5
25C9
331
217E
  5
22AC
331
217A
  5
22A6
331
16C4
  5
211C
331
2176
  5
229B
331
21F6
  5
2390
331
21B7
  5
229E
331
16C0
  5
2118
331
16BC
  5
2114
331
21F2
  5
238C
331
246D
  5
246D
331
24AC
  5
24AC
331
21B3
  5
236E
331
2469
  5
2469
331
24A8
  5
24A8
331
24A4
  5
24A4
331
21AB
  5
22A4
331
2465
  5
2465
331
2461
  5
2461
331
24A0
  5
24A0
331
24E7
  5
24E7
331
24E3
  5
24E3
331
25C5
  5
25C5
331
24DF
  5
24DF
331
251E
  5
251E
331
25C1
  5
25C1
331
251A
  5
251A
331
24DB
  5
24DB
331
25B9
  5
25BA
331
2166
  5
2295
331
2162
  5
2291
331
16E3
  5
213B
331
215E
  5
228E
331
21E2
  5
2383
331
249C
  5
249C
331
21A3
  5
22A2
331
2498
  5
2498
331
2494
  5
2494
331
219B
  5
236A
331
2490
  5
2490
331
2516
  5
2516
331
24D7
  5
24D7
331
24D3
  5
24D3
331
2512
  5
2512
331
25B5
  5
25B6
331
24CF
  5
24CF
331
250E
  5
250E
331
25B1
  5
25B1
331
258D
  5
258D
331
24CB
  5
24CB
331
250A
  5
250A
331
2589
  5
2589
331
2156
  5
2287
331
2152
  5
2283
331
214E
  5
227F
331
2195
  5
2365
331
21D6
  5
237E
331
16DF
  5
2137
331
16DB
  5
2133
331
248C
  5
248C
331
2191
  5
22C4
331
24C7
  5
24C7
331
21CE
  5
2379
331
2488
  5
2488
331
2484
  5
2484
331
24C3
  5
24C3
331
2480
  5
2480
331
2506
  5
2506
331
2502
  5
2502
331
24FE
  5
24FE
331
2585
  5
2585
331
2581
  5
2581
331
24FA
  5
24FA
331
218D
  5
22C0
331
16D7
  5
212F
331
2146
  5
2279
331
2189
  5
22BD
331
16D3
  5
212B
331
2142
  5
2275
331
213E
  5
2271
331
2185
  5
22BA
331
2592
  5
2592
331
2205
  5
239D
331
24BF
  5
24BF
331
21C6
  5
2377
331
16CF
  5
2127
331
16CB
  5
2123
331
21C2
  5
2375
331
2201
  5
239A
331
2181
  5
22B4
331
247C
  5
247C
331
24BB
  5
24BB
331
24B7
  5
24B7
331
21BE
  5
22A3
331
21FD
  5
2396
331
2478
  5
2478
331
216C
  5
229A
331
2168
  5
2297
331
24B3
  5
24B3
331
21BA
  5
2371
331
21F9
  5
2392
331
2474
  5
2474
331
2470
  5
2470
331
24F6
  5
24F6
331
257D
  5
257D
331
24F2
  5
24F2
331
2579
  5
2572
331
25D4
  5
25D4
331
24EE
  5
24EE
331
2575
  5
2524
331
2571
  5
2576
331
25CC
  5
25CC
331
24EA
  5
24EA
331
25C8
  5
25C8
331
16C7
  5
211F
331
217D
  5
22AB
331
2179
  5
22A1
331
16C3
  5
211B
331
21F5
  5
238F
331
24AF
  5
24AF
331
16BF
  5
2117
331
21F1
  5
238B
331
246C
  5
246C
331
24AB
  5
24AB
331
2468
  5
2468
331
24A7
  5
24A7
331
24A3
  5
24A3
331
21AA
  5
22B6
331
2464
  5
2464
331
2460
  5
2460
331
24E6
  5
24E6
331
24E2
  5
24E2
331
2521
  5
2521
331
25C4
  5
25C4
331
24DE
  5
24DE
331
25C0
  5
25C0
331
2519
  5
2519
331
24DA
  5
24DA
331
25B8
  5
25B9
331
2165
  5
2294
331
2161
  5
2290
331
16E2
  5
213A
331
215D
  5
228D
331
249F
  5
249F
331
21A6
  5
229D
331
25AF
  5
25AF
331
2159
  5
228A
331
249B
  5
249B
331
21A2
  5
22AE
331
2497
  5
2497
331
2493
  5
2493
331
24D6
  5
24D6
331
2515
  5
2515
331
24D2
  5
24D2
331
2511
  5
2511
331
25B4
  5
25B5
331
24CE
  5
24CE
331
250D
  5
250D
331
2509
  5
2509
331
24CA
  5
24CA
331
2588
  5
2588
331
2155
  5
2286
331
2151
  5
2282
331
16DE
  5
2136
331
2194
  5
2364
331
256F
  5
2574
331
248F
  5
248F
331
21D5
  5
237D
331
16DA
  5
2132
331
2149
  5
227C
331
248B
  5
248B
331
2190
  5
22C3
331
24C6
  5
24C6
331
2487
  5
2487
331
2483
  5
2483
331
24C2
  5
24C2
331
21C9
  5
2378
331
2208
  5
23A0
331
2505
  5
2505
331
2501
  5
2501
331
2584
  5
2584
331
24FD
  5
24FD
331
2580
  5
2580
331
25DB
  5
25DA
331
24F9
  5
24F9
331
218C
  5
22BF
331
16D6
  5
212E
331
2145
  5
2278
331
2141
  5
2274
331
2188
  5
22BC
331
16D2
  5
212A
331
2184
  5
22B9
331
2591
  5
2591
331
247F
  5
247F
331
24BE
  5
24BE
331
21C5
  5
22B3
331
16CE
  5
2126
331
16CA
  5
2122
331
21C1
  5
2374
331
2200
  5
2399
331
2180
  5
22AF
331
247B
  5
247B
331
24BA
  5
24BA
331
24B6
  5
24B6
331
21BD
  5
22A5
331
21FC
  5
2395
331
2477
  5
2477
331
216B
  5
2299
331
2473
  5
2473
331
24B2
  5
24B2
331
21B9
  5
2370
331
24F5
  5
24F5
331
257C
  5
257C
331
25D7
  5
25D7
331
24F1
  5
24F1
331
2578
  5
256E
331
25D3
  5
25D3
331
24ED
  5
24ED
331
2574
  5
2579
331
2570
  5
2575
331
24E9
  5
24E9
331
217C
  5
22AA
331
16C6
  5
211E
331
16C2
  5
211A
331
21F4
  5
238E
331
246F
  5
246F
331
24AE
  5
24AE
331
16BE
  5
2116
331
21B1
  5
236D
331
21F0
  5
238A
331
246B
  5
246B
331
24AA
  5
24AA
331
24A6
  5
24A6
331
21AD
  5
229F
331
21EC
  5
2388
331
2467
  5
2467
331
24A2
  5
24A2
331
21A9
  5
22B2
331
2463
  5
2463
331
24E5
  5
24E5
331
2524
  5
2570
331
24E1
  5
24E1
331
25BF
  5
25BF
331
24DD
  5
24DD
331
2518
  5
2518
331
25BB
  5
25BD
331
24D9
  5
24D9
331
2164
  5
2293
331
16E1
  5
2139
331
21E4
  5
2385
331
215C
  5
228C
331
249E
  5
249E
331
21A5
  5
22A7
331
21A1
  5
22B0
331
2158
  5
2289
331
249A
  5
249A
331
2496
  5
2496
331
2492
  5
2492
331
2199
  5
2369
331
21D8
  5
2380
331
24D5
  5
24D5
331
2514
  5
2514
331
25B7
  5
25B8
331
24D1
  5
24D1
331
2510
  5
2510
331
25B3
  5
25B3
331
24CD
  5
24CD
331
250C
  5
250C
331
258F
  5
258F
331
2508
  5
2508
331
258B
  5
258B
331
24C9
  5
24C9
331
2154
  5
2285
331
2150
  5
2281
331
2197
  5
2367
331
16DD
  5
2135
331
214C
  5
227E
331
2193
  5
2363
331
21D4
  5
237C
331
248E
  5
248E
331
256E
  5
2573
331
16D9
  5
2131
331
2148
  5
227B
331
248A
  5
248A
331
24C5
  5
24C5
331
2486
  5
2486
331
2482
  5
2482
331
24C1
  5
24C1
331
2504
  5
2504
331
2500
  5
2500
331
2587
  5
2587
331
2583
  5
2583
331
24F8
  5
24F8
331
25DA
  5
25D9
331
218F
  5
22C2
331
16D5
  5
212D
331
2144
  5
2277
331
2140
  5
2273
331
2207
  5
239F
331
16D1
  5
2129
331
16CD
  5
2125
331
2203
  5
239C
331
2183
  5
22B8
331
247E
  5
247E
331
24BD
  5
24BD
331
21C4
  5
22B1
331
16C9
  5
2121
331
21C0
  5
2373
331
21FF
  5
2398
331
247A
  5
247A
331
24B9
  5
24B9
331
24B5
  5
24B5
331
21FB
  5
2394
331
2476
  5
2476
331
2472
  5
2472
331
24B1
  5
24B1
331
21B8
  5
22A0
331
257F
  5
257F
331
24F4
  5
24F4
331
257B
  5
257B
331
24F0
  5
24F0
331
2577
  5
256F
331
25D2
  5
25D2
331
2573
  5
2578
331
25CE
  5
25CE
331
24EC
  5
24EC
331
25CA
  5
25CA
331
24E8
  5
24E8
331
217F
  5
22AD
331
217B
  5
22A9
331
16C5
  5
211D
331
2177
  5
229C
331
16C1
  5
2119
331
21F7
  5
2391
331
21F3
  5
238D
331
246E
  5
246E
331
24AD
  5
24AD
331
21B4
  5
236F
331
16BD
  5
2115
331
21EF
  5
2389
331
1828
  5
2112
331
246A
  5
246A
331
24A9
  5
24A9
331
24A5
  5
24A5
331
21AC
  5
22A8
331
21EB
  5
2387
331
2466
  5
2466
331
2462
  5
2462
331
24A1
  5
24A1
331
21A8
  5
22B5
331
24E4
  5
24E4
331
2523
  5
2523
331
24E0
  5
24E0
331
251F
  5
251F
331
25C2
  5
25C2
331
25BE
  5
25BE
331
24DC
  5
24DC
331
251B
  5
251B
331
25BA
  5
25BB
331
24D8
  5
24D8
331
2167
  5
2296
331
2163
  5
2292
331
215F
  5
228F
331
21E7
  5
2386
331
16E0
  5
2138
331
21E3
  5
2384
331
215B
  5
228B
331
249D
  5
249D
331
21A0
  5
236C
331
21DF
  5
2382
331
2499
  5
2499
331
2495
  5
2495
331
219C
  5
236B
331
2491
  5
2491
331
2198
  5
2368
331
236A
  5
21E4
331
2517
  5
2517
331
24D4
  5
24D4
331
2513
  5
2513
331
25B6
  5
25B7
331
24D0
  5
24D0
331
250F
  5
250F
331
258E
  5
258E
331
24CC
  5
24CC
331
250B
  5
250B
331
258A
  5
258A
331
24C8
  5
24C8
  0
LAYOUT
  5
1E
102
{ACAD_REACTORS
330
1A
102
}
330
1A
100
AcDbPlotSettings
  1

  2
none_device
  4

  6

 40
0.0
 41
0.0
 42
0.0
 43
0.0
 44
0.0
 45
0.0
 46
0.0
 47
0.0
 48
0.0
 49
0.0
140
0.0
141
0.0
142
1.0
143
1.0
 70
   688
 72
     0
 73
     0
 74
     5
  7

 75
    16
147
1.0
 76
     0
 77
     2
 78
   300
148
0.0
149
0.0
100
AcDbLayout
  1
Layout1
 70
     1
 71
     1
 10
0.0
 20
0.0
 11
12.0
 21
9.0
 12
0.0
 22
0.0
 32
0.0
 14
1.000000000000000E+20
 24
1.000000000000000E+20
 34
1.000000000000000E+20
 15
-1.000000000000000E+20
 25
-1.000000000000000E+20
 35
-1.000000000000000E+20
146
0.0
 13
0.0
 23
0.0
 33
0.0
 16
1.0
 26
0.0
 36
0.0
 17
0.0
 27
1.0
 37
0.0
 76
     0
330
1B
  0
LAYOUT
  5
26
102
{ACAD_REACTORS
330
1A
102
}
330
1A
100
AcDbPlotSettings
  1

  2
none_device
  4

  6

 40
0.0
 41
0.0
 42
0.0
 43
0.0
 44
0.0
 45
0.0
 46
0.0
 47
0.0
 48
0.0
 49
0.0
140
0.0
141
0.0
142
1.0
143
1.0
 70
   688
 72
     0
 73
     0
 74
     5
  7

 75
    16
147
1.0
 76
     0
 77
     2
 78
   300
148
0.0
149
0.0
100
AcDbLayout
  1
Layout2
 70
     1
 71
     2
 10
0.0
 20
0.0
 11
0.0
 21
0.0
 12
0.0
 22
0.0
 32
0.0
 14
0.0
 24
0.0
 34
0.0
 15
0.0
 25
0.0
 35
0.0
146
0.0
 13
0.0
 23
0.0
 33
0.0
 16
1.0
 26
0.0
 36
0.0
 17
0.0
 27
1.0
 37
0.0
 76
     0
330
23
  0
LAYOUT
  5
22
102
{ACAD_XDICTIONARY
360
261D
102
}
102
{ACAD_REACTORS
330
1A
102
}
330
1A
100
AcDbPlotSettings
  1

  2
none_device
  4

  6

 40
0.0
 41
0.0
 42
0.0
 43
0.0
 44
0.0
 45
0.0
 46
0.0
 47
0.0
 48
0.0
 49
0.0
140
0.0
141
0.0
142
1.0
143
1.0
 70
  1712
 72
     0
 73
     0
 74
     0
  7

 75
     0
147
1.0
 76
     0
 77
     2
 78
   300
148
0.0
149
0.0
100
AcDbLayout
  1
Model
 70
     1
 71
     0
 10
0.0
 20
0.0
 11
12.0
 21
9.0
 12
0.0
 22
0.0
 32
0.0
 14
0.0
 24
0.0
 34
0.0
 15
259.7276
 25
239.614
 35
0.0
146
0.0
 13
0.0
 23
0.0
 33
0.0
 16
1.0
 26
0.0
 36
0.0
 17
0.0
 27
1.0
 37
0.0
 76
     0
330
1F
331
29
  0
MATERIAL
  5
3D
102
{ACAD_REACTORS
330
3B
102
}
330
3B
100
AcDbMaterial
  1
ByBlock
  0
MATERIAL
  5
3C
102
{ACAD_REACTORS
330
3B
102
}
330
3B
100
AcDbMaterial
  1
ByLayer
  0
MATERIAL
  5
3E
102
{ACAD_REACTORS
330
3B
102
}
330
3B
100
AcDbMaterial
  1
Global
  0
MLEADERSTYLE
  5
164B
102
{ACAD_REACTORS
330
1621
102
}
330
1621
100
AcDbMLeaderStyle
179
     2
170
     2
171
     1
172
     0
 90
        2
 40
0.0
 41
0.0
173
     1
 91
-1056964608
340
14
 92
       -2
290
     1
 42
0.09
291
     1
 43
0.36
  3
Standard
 44
0.18
300

342
11
174
     1
178
     6
175
     1
176
     0
 93
-1056964608
 45
0.18
292
     0
297
     0
 46
0.18
 94
-1056964608
 47
1.0
 49
1.0
140
1.0
293
     1
141
0.0
294
     1
177
     0
142
1.0
295
     0
296
     0
143
0.125
271
     0
272
     9
273
     9
  0
MLINESTYLE
  5
18
102
{ACAD_REACTORS
330
17
102
}
330
17
100
AcDbMlineStyle
  2
STANDARD
 70
     0
  3

 62
   256
 51
90.0
 52
90.0
 71
     2
 49
0.5
 62
   256
  6
BYLAYER
 49
-0.5
 62
   256
  6
BYLAYER
  0
ACDBPLACEHOLDER
  5
F
102
{ACAD_REACTORS
330
E
102
}
330
E
  0
SCALE
  5
162A
102
{ACAD_REACTORS
330
1629
102
}
330
1629
100
AcDbScale
 70
     0
300
1:1
140
1.0
141
1.0
290
     1
  0
SCALE
  5
162B
102
{ACAD_REACTORS
330
1629
102
}
330
1629
100
AcDbScale
 70
     0
300
1:2
140
1.0
141
2.0
290
     0
  0
SCALE
  5
162C
102
{ACAD_REACTORS
330
1629
102
}
330
1629
100
AcDbScale
 70
     0
300
1:4
140
1.0
141
4.0
290
     0
  0
SCALE
  5
162D
102
{ACAD_REACTORS
330
1629
102
}
330
1629
100
AcDbScale
 70
     0
300
1:5
140
1.0
141
5.0
290
     0
  0
SCALE
  5
162E
102
{ACAD_REACTORS
330
1629
102
}
330
1629
100
AcDbScale
 70
     0
300
1:8
140
1.0
141
8.0
290
     0
  0
SCALE
  5
162F
102
{ACAD_REACTORS
330
1629
102
}
330
1629
100
AcDbScale
 70
     0
300
1:10
140
1.0
141
10.0
290
     0
  0
SCALE
  5
1630
102
{ACAD_REACTORS
330
1629
102
}
330
1629
100
AcDbScale
 70
     0
300
1:16
140
1.0
141
16.0
290
     0
  0
SCALE
  5
1631
102
{ACAD_REACTORS
330
1629
102
}
330
1629
100
AcDbScale
 70
     0
300
1:20
140
1.0
141
20.0
290
     0
  0
SCALE
  5
1632
102
{ACAD_REACTORS
330
1629
102
}
330
1629
100
AcDbScale
 70
     0
300
1:30
140
1.0
141
30.0
290
     0
  0
SCALE
  5
1633
102
{ACAD_REACTORS
330
1629
102
}
330
1629
100
AcDbScale
 70
     0
300
1:40
140
1.0
141
40.0
290
     0
  0
SCALE
  5
1634
102
{ACAD_REACTORS
330
1629
102
}
330
1629
100
AcDbScale
 70
     0
300
1:50
140
1.0
141
50.0
290
     0
  0
SCALE
  5
1635
102
{ACAD_REACTORS
330
1629
102
}
330
1629
100
AcDbScale
 70
     0
300
1:100
140
1.0
141
100.0
290
     0
  0
SCALE
  5
1636
102
{ACAD_REACTORS
330
1629
102
}
330
1629
100
AcDbScale
 70
     0
300
2:1
140
2.0
141
1.0
290
     0
  0
SCALE
  5
1637
102
{ACAD_REACTORS
330
1629
102
}
330
1629
100
AcDbScale
 70
     0
300
4:1
140
4.0
141
1.0
290
     0
  0
SCALE
  5
1638
102
{ACAD_REACTORS
330
1629
102
}
330
1629
100
AcDbScale
 70
     0
300
8:1
140
8.0
141
1.0
290
     0
  0
SCALE
  5
1639
102
{ACAD_REACTORS
330
1629
102
}
330
1629
100
AcDbScale
 70
     0
300
10:1
140
10.0
141
1.0
290
     0
  0
SCALE
  5
163A
102
{ACAD_REACTORS
330
1629
102
}
330
1629
100
AcDbScale
 70
     0
300
100:1
140
100.0
141
1.0
290
     0
  0
SCALE
  5
163B
102
{ACAD_REACTORS
330
1629
102
}
330
1629
100
AcDbScale
 70
     0
300
1/128\" = 1\'-0\"
140
0.0078125
141
12.0
290
     0
  0
SCALE
  5
163C
102
{ACAD_REACTORS
330
1629
102
}
330
1629
100
AcDbScale
 70
     0
300
1/64\" = 1\'-0\"
140
0.015625
141
12.0
290
     0
  0
SCALE
  5
163D
102
{ACAD_REACTORS
330
1629
102
}
330
1629
100
AcDbScale
 70
     0
300
1/32\" = 1\'-0\"
140
0.03125
141
12.0
290
     0
  0
SCALE
  5
163E
102
{ACAD_REACTORS
330
1629
102
}
330
1629
100
AcDbScale
 70
     0
300
1/16\" = 1\'-0\"
140
0.0625
141
12.0
290
     0
  0
SCALE
  5
163F
102
{ACAD_REACTORS
330
1629
102
}
330
1629
100
AcDbScale
 70
     0
300
3/32\" = 1\'-0\"
140
0.09375
141
12.0
290
     0
  0
SCALE
  5
1640
102
{ACAD_REACTORS
330
1629
102
}
330
1629
100
AcDbScale
 70
     0
300
1/8\" = 1\'-0\"
140
0.125
141
12.0
290
     0
  0
SCALE
  5
1641
102
{ACAD_REACTORS
330
1629
102
}
330
1629
100
AcDbScale
 70
     0
300
3/16\" = 1\'-0\"
140
0.1875
141
12.0
290
     0
  0
SCALE
  5
1642
102
{ACAD_REACTORS
330
1629
102
}
330
1629
100
AcDbScale
 70
     0
300
1/4\" = 1\'-0\"
140
0.25
141
12.0
290
     0
  0
SCALE
  5
1643
102
{ACAD_REACTORS
330
1629
102
}
330
1629
100
AcDbScale
 70
     0
300
3/8\" = 1\'-0\"
140
0.375
141
12.0
290
     0
  0
SCALE
  5
1644
102
{ACAD_REACTORS
330
1629
102
}
330
1629
100
AcDbScale
 70
     0
300
1/2\" = 1\'-0\"
140
0.5
141
12.0
290
     0
  0
SCALE
  5
1645
102
{ACAD_REACTORS
330
1629
102
}
330
1629
100
AcDbScale
 70
     0
300
3/4\" = 1\'-0\"
140
0.75
141
12.0
290
     0
  0
SCALE
  5
1646
102
{ACAD_REACTORS
330
1629
102
}
330
1629
100
AcDbScale
 70
     0
300
1\" = 1\'-0\"
140
1.0
141
12.0
290
     0
  0
SCALE
  5
1647
102
{ACAD_REACTORS
330
1629
102
}
330
1629
100
AcDbScale
 70
     0
300
1-1/2\" = 1\'-0\"
140
1.5
141
12.0
290
     0
  0
SCALE
  5
1648
102
{ACAD_REACTORS
330
1629
102
}
330
1629
100
AcDbScale
 70
     0
300
3\" = 1\'-0\"
140
3.0
141
12.0
290
     0
  0
SCALE
  5
1649
102
{ACAD_REACTORS
330
1629
102
}
330
1629
100
AcDbScale
 70
     0
300
6\" = 1\'-0\"
140
6.0
141
12.0
290
     0
  0
SCALE
  5
164A
102
{ACAD_REACTORS
330
1629
102
}
330
1629
100
AcDbScale
 70
     0
300
1\'-0\" = 1\'-0\"
140
12.0
141
12.0
290
     0
  0
TABLESTYLE
  5
1628
102
{ACAD_XDICTIONARY
360
16A7
102
}
102
{ACAD_REACTORS
330
1620
102
}
330
1620
100
AcDbTableStyle
280
     0
  3
Standard
 70
     0
 71
     0
 40
0.06
 41
0.06
280
     0
281
     0
  7
Standard
140
0.18
170
     2
 62
     0
 63
     7
283
     0
 90
      512
 91
        0
  1

274
    -2
284
     1
 64
     0
275
    -2
285
     1
 65
     0
276
    -2
286
     1
 66
     0
277
    -2
287
     1
 67
     0
278
    -2
288
     1
 68
     0
279
    -2
289
     1
 69
     0
  7
Standard
140
0.25
170
     5
 62
     0
 63
     7
283
     0
 90
      512
 91
        0
  1

274
    -2
284
     1
 64
     0
275
    -2
285
     1
 65
     0
276
    -2
286
     1
 66
     0
277
    -2
287
     1
 67
     0
278
    -2
288
     1
 68
     0
279
    -2
289
     1
 69
     0
  7
Standard
140
0.18
170
     5
 62
     0
 63
     7
283
     0
 90
      512
 91
        0
  1

274
    -2
284
     1
 64
     0
275
    -2
285
     1
 65
     0
276
    -2
286
     1
 66
     0
277
    -2
287
     1
 67
     0
278
    -2
288
     1
 68
     0
279
    -2
289
     1
 69
     0
  0
VISUALSTYLE
  5
2F
102
{ACAD_REACTORS
330
2A
102
}
330
2A
100
AcDbVisualStyle
  2

 70
     4
177
     2
291
     0
 71
     0
176
     1
 72
     2
176
     1
 73
     0
176
     1
 90
        0
176
     1
 40
0.6
176
     1
 41
30.0
176
     1
 63
     7
421
 16777215
176
     1
 74
     1
176
     1
 91
        4
176
     1
 64
     7
176
     1
 65
   257
176
     1
 75
     1
176
     1
175
     1
176
     1
 42
1.0
176
     1
 92
        0
176
     1
 66
   257
176
     1
 43
1.0
176
     1
 76
     1
176
     1
 77
     6
176
     1
 78
     2
176
     1
 67
     7
176
     1
 79
     5
176
     1
170
     0
176
     1
171
     0
176
     1
290
     0
176
     1
 93
        1
176
     1
 44
0.0
176
     1
173
     0
176
     1
  0
VISUALSTYLE
  5
31
102
{ACAD_REACTORS
330
2A
102
}
330
2A
100
AcDbVisualStyle
  2

 70
     6
177
     2
291
     0
 71
     1
176
     1
 72
     2
176
     1
 73
     2
176
     1
 90
        0
176
     1
 40
0.6
176
     1
 41
30.0
176
     1
 63
     7
421
 16777215
176
     1
 74
     2
176
     1
 91
        2
176
     1
 64
     7
176
     1
 65
   257
176
     1
 75
     2
176
     1
175
     1
176
     1
 42
40.0
176
     1
 92
        0
176
     1
 66
   257
176
     1
 43
1.0
176
     1
 76
     1
176
     1
 77
     6
176
     1
 78
     2
176
     1
 67
     7
176
     1
 79
     3
176
     1
170
     0
176
     1
171
     0
176
     1
290
     0
176
     1
 93
        1
176
     1
 44
0.0
176
     1
173
     0
176
     1
  0
VISUALSTYLE
  5
30
102
{ACAD_REACTORS
330
2A
102
}
330
2A
100
AcDbVisualStyle
  2

 70
     5
177
     2
291
     0
 71
     0
176
     1
 72
     2
176
     1
 73
     0
176
     1
 90
        0
176
     1
 40
0.6
176
     1
 41
30.0
176
     1
 63
     7
421
 16777215
176
     1
 74
     1
176
     1
 91
        4
176
     1
 64
     7
176
     1
 65
   257
176
     1
 75
     1
176
     1
175
     1
176
     1
 42
1.0
176
     1
 92
        0
176
     1
 66
   257
176
     1
 43
1.0
176
     1
 76
     1
176
     1
 77
     6
176
     1
 78
     2
176
     1
 67
     7
176
     1
 79
     5
176
     1
170
     0
176
     1
171
     0
176
     1
290
     0
176
     1
 93
        1
176
     1
 44
0.0
176
     1
173
     0
176
     1
  0
VISUALSTYLE
  5
32
102
{ACAD_REACTORS
330
2A
102
}
330
2A
100
AcDbVisualStyle
  2

 70
     7
177
     2
291
     1
 71
     1
176
     1
 72
     0
176
     1
 73
     1
176
     1
 90
        0
176
     1
 40
0.6
176
     1
 41
30.0
176
     1
 63
     7
421
 16777215
176
     1
 74
     0
176
     1
 91
        4
176
     1
 64
     7
176
     1
 65
   257
176
     1
 75
     1
176
     1
175
     1
176
     1
 42
1.0
176
     1
 92
        8
176
     1
 66
     7
176
     1
 43
1.0
176
     1
 76
     1
176
     1
 77
     6
176
     1
 78
     2
176
     1
 67
     7
176
     1
 79
     5
176
     1
170
     0
176
     1
171
     0
176
     1
290
     0
176
     1
 93
        1
176
     1
 44
0.0
176
     1
173
     0
176
     1
  0
VISUALSTYLE
  5
36
102
{ACAD_REACTORS
330
2A
102
}
330
2A
100
AcDbVisualStyle
  2

 70
    12
177
     2
291
     1
 71
     2
176
     1
 72
     2
176
     1
 73
     0
176
     1
 90
        0
176
     1
 40
0.6
176
     1
 41
30.0
176
     1
 63
     7
421
 16777215
176
     1
 74
     1
176
     1
 91
        4
176
     1
 64
     7
176
     1
 65
   257
176
     1
 75
     1
176
     1
175
     1
176
     1
 42
1.0
176
     1
 92
        8
176
     1
 66
     7
176
     1
 43
1.0
176
     1
 76
     1
176
     1
 77
     6
176
     1
 78
     2
176
     1
 67
     7
176
     1
 79
     5
176
     1
170
     0
176
     1
171
     0
176
     1
290
     0
176
     1
 93
        1
176
     1
 44
50.0
176
     1
173
     0
176
     1
  0
VISUALSTYLE
  5
3A
102
{ACAD_REACTORS
330
2A
102
}
330
2A
100
AcDbVisualStyle
  2

 70
    16
177
     2
291
     1
 71
     2
176
     1
 72
     2
176
     1
 73
     3
176
     1
 90
        0
176
     1
 40
0.6
176
     1
 41
30.0
176
     1
 63
     8
421
  8421504
176
     1
 74
     1
176
     1
 91
        4
176
     1
 64
     7
176
     1
 65
   257
176
     1
 75
     1
176
     1
175
     1
176
     1
 42
1.0
176
     1
 92
        8
176
     1
 66
     8
424
  8421504
176
     1
 43
1.0
176
     1
 76
     1
176
     1
 77
     6
176
     1
 78
     2
176
     1
 67
     7
176
     1
 79
     5
176
     1
170
     0
176
     1
171
     0
176
     1
290
     0
176
     1
 93
        1
176
     1
 44
0.0
176
     1
173
     0
176
     1
  0
VISUALSTYLE
  5
34
102
{ACAD_REACTORS
330
2A
102
}
330
2A
100
AcDbVisualStyle
  2

 70
     9
177
     2
291
     0
 71
     3
176
     1
 72
     2
176
     1
 73
     0
176
     1
 90
        0
176
     1
 40
0.6
176
     1
 41
30.0
176
     1
 63
     7
421
 16777215
176
     1
 74
     2
176
     1
 91
        2
176
     1
 64
     7
176
     1
 65
   257
176
     1
 75
     1
176
     1
175
     1
176
     1
 42
40.0
176
     1
 92
        8
176
     1
 66
     7
176
     1
 43
1.0
176
     1
 76
     1
176
     1
 77
     6
176
     1
 78
     2
176
     1
 67
     7
176
     1
 79
     3
176
     1
170
     0
176
     1
171
     0
176
     1
290
     0
176
     1
 93
        1
176
     1
 44
0.0
176
     1
173
     0
176
     1
  0
VISUALSTYLE
  5
35
102
{ACAD_REACTORS
330
2A
102
}
330
2A
100
AcDbVisualStyle
  2

 70
    11
177
     2
291
     1
 71
     2
176
     1
 72
     2
176
     1
 73
     0
176
     1
 90
        0
176
     1
 40
0.6
176
     1
 41
30.0
176
     1
 63
     7
421
 16777215
176
     1
 74
     1
176
     1
 91
        4
176
     1
 64
     7
176
     1
 65
   257
176
     1
 75
     1
176
     1
175
     1
176
     1
 42
1.0
176
     1
 92
        8
176
     1
 66
     7
176
     1
 43
1.0
176
     1
 76
     1
176
     1
 77
     6
176
     1
 78
     2
176
     1
 67
     7
176
     1
 79
     5
176
     1
170
     0
176
     1
171
     0
176
     1
290
     0
176
     1
 93
        1
176
     1
 44
-50.0
176
     1
173
     0
176
     1
  0
VISUALSTYLE
  5
1626
102
{ACAD_REACTORS
330
2A
102
}
330
2A
100
AcDbVisualStyle
  2
EdgeColorOff
 70
    22
177
     2
291
     1
 71
     2
176
     0
 72
     2
176
     0
 73
     0
176
     0
 90
        0
176
     0
 40
0.6
176
     0
 41
30.0
176
     0
 63
     7
421
 16777215
176
     0
 74
     1
176
     0
 91
        4
176
     0
 64
     7
176
     0
 65
   257
176
     0
 75
     1
176
     0
175
     1
176
     0
 42
1.0
176
     0
 92
        8
176
     2
 66
     7
176
     0
 43
1.0
176
     0
 76
     1
176
     0
 77
     6
176
     0
 78
     2
176
     0
 67
     7
176
     0
 79
     5
176
     0
170
     0
176
     0
171
     0
176
     0
290
     0
176
     0
 93
        1
176
     0
 44
0.0
176
     0
173
     0
176
     0
  0
VISUALSTYLE
  5
39
102
{ACAD_REACTORS
330
2A
102
}
330
2A
100
AcDbVisualStyle
  2

 70
    15
177
     2
291
     1
 71
     2
176
     1
 72
     2
176
     1
 73
     0
176
     1
 90
        0
176
     1
 40
0.6
176
     1
 41
30.0
176
     1
 63
     7
421
 16777215
176
     1
 74
     1
176
     1
 91
        4
176
     1
 64
     7
176
     1
 65
   257
176
     1
 75
     1
176
     1
175
     1
176
     1
 42
1.0
176
     1
 92
        8
176
     1
 66
     7
176
     1
 43
1.0
176
     1
 76
     1
176
     1
 77
     6
176
     1
 78
     2
176
     1
 67
     7
176
     1
 79
     5
176
     1
170
     0
176
     1
171
     0
176
     1
290
     0
176
     1
 93
        1
176
     1
 44
0.0
176
     1
173
     0
176
     1
  0
VISUALSTYLE
  5
2B
102
{ACAD_REACTORS
330
2A
102
}
330
2A
100
AcDbVisualStyle
  2

 70
     0
177
     2
291
     1
 71
     2
176
     1
 72
     1
176
     1
 73
     1
176
     1
 90
        2
176
     1
 40
0.6
176
     1
 41
30.0
176
     1
 63
     7
421
 16777215
176
     1
 74
     0
176
     1
 91
        4
176
     1
 64
     7
176
     1
 65
   257
176
     1
 75
     1
176
     1
175
     1
176
     1
 42
1.0
176
     1
 92
        8
176
     1
 66
     7
176
     1
 43
1.0
176
     1
 76
     1
176
     1
 77
     6
176
     1
 78
     2
176
     1
 67
     7
176
     1
 79
     5
176
     1
170
     0
176
     1
171
     0
176
     1
290
     0
176
     1
 93
       13
176
     1
 44
0.0
176
     1
173
     0
176
     1
  0
VISUALSTYLE
  5
2C
102
{ACAD_REACTORS
330
2A
102
}
330
2A
100
AcDbVisualStyle
  2

 70
     1
177
     2
291
     1
 71
     2
176
     1
 72
     1
176
     1
 73
     1
176
     1
 90
        2
176
     1
 40
0.6
176
     1
 41
30.0
176
     1
 63
     7
421
 16777215
176
     1
 74
     1
176
     1
 91
        4
176
     1
 64
     7
176
     1
 65
   257
176
     1
 75
     1
176
     1
175
     1
176
     1
 42
1.0
176
     1
 92
        0
176
     1
 66
   257
176
     1
 43
1.0
176
     1
 76
     1
176
     1
 77
     6
176
     1
 78
     2
176
     1
 67
     7
176
     1
 79
     5
176
     1
170
     0
176
     1
171
     0
176
     1
290
     0
176
     1
 93
       13
176
     1
 44
0.0
176
     1
173
     0
176
     1
  0
VISUALSTYLE
  5
2D
102
{ACAD_REACTORS
330
2A
102
}
330
2A
100
AcDbVisualStyle
  2

 70
     2
177
     2
291
     1
 71
     2
176
     1
 72
     2
176
     1
 73
     1
176
     1
 90
        2
176
     1
 40
0.6
176
     1
 41
30.0
176
     1
 63
     7
421
 16777215
176
     1
 74
     0
176
     1
 91
        4
176
     1
 64
     7
176
     1
 65
   257
176
     1
 75
     1
176
     1
175
     1
176
     1
 42
1.0
176
     1
 92
        0
176
     1
 66
     7
176
     1
 43
1.0
176
     1
 76
     1
176
     1
 77
     6
176
     1
 78
     2
176
     1
 67
     7
176
     1
 79
     5
176
     1
170
     0
176
     1
171
     0
176
     1
290
     0
176
     1
 93
       13
176
     1
 44
0.0
176
     1
173
     0
176
     1
  0
VISUALSTYLE
  5
2E
102
{ACAD_REACTORS
330
2A
102
}
330
2A
100
AcDbVisualStyle
  2

 70
     3
177
     2
291
     1
 71
     2
176
     1
 72
     2
176
     1
 73
     1
176
     1
 90
        2
176
     1
 40
0.6
176
     1
 41
30.0
176
     1
 63
     7
421
 16777215
176
     1
 74
     1
176
     1
 91
        4
176
     1
 64
     7
176
     1
 65
   257
176
     1
 75
     1
176
     1
175
     1
176
     1
 42
1.0
176
     1
 92
        0
176
     1
 66
   257
176
     1
 43
1.0
176
     1
 76
     1
176
     1
 77
     6
176
     1
 78
     2
176
     1
 67
     7
176
     1
 79
     5
176
     1
170
     0
176
     1
171
     0
176
     1
290
     0
176
     1
 93
       13
176
     1
 44
0.0
176
     1
173
     0
176
     1
  0
VISUALSTYLE
  5
1624
102
{ACAD_REACTORS
330
2A
102
}
330
2A
100
AcDbVisualStyle
  2
JitterOff
 70
    20
177
     2
291
     1
 71
     2
176
     0
 72
     2
176
     0
 73
     0
176
     0
 90
        0
176
     0
 40
0.6
176
     0
 41
30.0
176
     0
 63
     7
421
 16777215
176
     0
 74
     1
176
     0
 91
        4
176
     0
 64
     7
176
     0
 65
   257
176
     0
 75
     1
176
     0
175
     1
176
     0
 42
1.0
176
     0
 92
       10
176
     2
 66
     7
176
     0
 43
1.0
176
     0
 76
     1
176
     0
 77
     6
176
     0
 78
     2
176
     0
 67
     7
176
     0
 79
     5
176
     0
170
     0
176
     0
171
     0
176
     0
290
     0
176
     0
 93
        1
176
     0
 44
0.0
176
     0
173
     0
176
     0
  0
VISUALSTYLE
  5
38
102
{ACAD_REACTORS
330
2A
102
}
330
2A
100
AcDbVisualStyle
  2

 70
    14
177
     2
291
     1
 71
     2
176
     1
 72
     2
176
     1
 73
     0
176
     1
 90
        0
176
     1
 40
0.6
176
     1
 41
30.0
176
     1
 63
     7
421
 16777215
176
     1
 74
     1
176
     1
 91
        4
176
     1
 64
     7
176
     1
 65
   257
176
     1
 75
     7
176
     1
175
     7
176
     1
 42
1.0
176
     1
 92
        8
176
     1
 66
     7
176
     1
 43
1.0
176
     1
 76
     1
176
     1
 77
     6
176
     1
 78
     2
176
     1
 67
     7
176
     1
 79
     5
176
     1
170
     0
176
     1
171
     0
176
     1
290
     0
176
     1
 93
        1
176
     1
 44
0.0
176
     1
173
     0
176
     1
  0
VISUALSTYLE
  5
1625
102
{ACAD_REACTORS
330
2A
102
}
330
2A
100
AcDbVisualStyle
  2
OverhangOff
 70
    21
177
     2
291
     1
 71
     2
176
     0
 72
     2
176
     0
 73
     0
176
     0
 90
        0
176
     0
 40
0.6
176
     0
 41
30.0
176
     0
 63
     7
421
 16777215
176
     0
 74
     1
176
     0
 91
        4
176
     0
 64
     7
176
     0
 65
   257
176
     0
 75
     1
176
     0
175
     1
176
     0
 42
1.0
176
     0
 92
        9
176
     2
 66
     7
176
     0
 43
1.0
176
     0
 76
     1
176
     0
 77
     6
176
     0
 78
     2
176
     0
 67
     7
176
     0
 79
     5
176
     0
170
     0
176
     0
171
     0
176
     0
290
     0
176
     0
 93
        1
176
     0
 44
0.0
176
     0
173
     0
176
     0
  0
VISUALSTYLE
  5
33
102
{ACAD_REACTORS
330
2A
102
}
330
2A
100
AcDbVisualStyle
  2

 70
     8
177
     2
291
     0
 71
     2
176
     1
 72
     2
176
     1
 73
     0
176
     1
 90
        0
176
     1
 40
0.6
176
     1
 41
30.0
176
     1
 63
     7
421
 16777215
176
     1
 74
     1
176
     1
 91
        0
176
     1
 64
     7
176
     1
 65
   257
176
     1
 75
     1
176
     1
175
     1
176
     1
 42
1.0
176
     1
 92
        8
176
     1
 66
     8
424
  7895160
176
     1
 43
1.0
176
     1
 76
     1
176
     1
 77
     6
176
     1
 78
     2
176
     1
 67
     7
176
     1
 79
     5
176
     1
170
     0
176
     1
171
     0
176
     1
290
     0
176
     1
 93
       13
176
     1
 44
0.0
176
     1
173
     0
176
     1
  0
VISUALSTYLE
  5
37
102
{ACAD_REACTORS
330
2A
102
}
330
2A
100
AcDbVisualStyle
  2

 70
    13
177
     2
291
     1
 71
     2
176
     1
 72
     2
176
     1
 73
     0
176
     1
 90
        0
176
     1
 40
0.6
176
     1
 41
30.0
176
     1
 63
     7
421
 16777215
176
     1
 74
     1
176
     1
 91
        4
176
     1
 64
     7
176
     1
 65
   257
176
     1
 75
     1
176
     1
175
     1
176
     1
 42
1.0
176
     1
 92
       12
176
     1
 66
     7
176
     1
 43
1.0
176
     1
 76
     1
176
     1
 77
     6
176
     1
 78
     2
176
     1
 67
     7
176
     1
 79
     5
176
     1
170
     0
176
     1
171
     0
176
     1
290
     0
176
     1
 93
        1
176
     1
 44
0.0
176
     1
173
     0
176
     1
  0
DICTIONARYVAR
  5
16A4
102
{ACAD_REACTORS
330
16A1
102
}
330
16A1
100
DictionaryVariables
280
     0
  1
1:1
  0
DICTIONARYVAR
  5
16A3
102
{ACAD_REACTORS
330
16A1
102
}
330
16A1
100
DictionaryVariables
280
     0
  1
STANDARD
  0
DICTIONARYVAR
  5
16A2
102
{ACAD_REACTORS
330
16A1
102
}
330
16A1
100
DictionaryVariables
280
     0
  1
STANDARD
  0
DICTIONARYVAR
  5
16A5
102
{ACAD_REACTORS
330
16A1
102
}
330
16A1
100
DictionaryVariables
280
     0
  1
1
  0
DICTIONARYVAR
  5
16A6
102
{ACAD_REACTORS
330
16A1
102
}
330
16A1
100
DictionaryVariables
280
     0
  1
15
  0
DICTIONARY
  5
261D
330
22
100
AcDbDictionary
280
     1
281
     1
  3
ADSK_XREC_LAYOUTTHUMBNAIL
360
261E
  0
DICTIONARY
  5
16A7
330
1628
100
AcDbDictionary
280
     1
281
     1
  3
ACAD_ROUNDTRIP_2008_TABLESTYLE_CELLSTYLEMAP
360
267E
  0
XRECORD
  5
261E
102
{ACAD_REACTORS
330
261D
102
}
330
261D
100
AcDbXrecord
280
     1
310
280000000001000085000000010008000000000000850000000000000000000000010000000000000000000000000000FFFFFF000000000000000000000000000000000000000000000000000000000000000000330000006600000099000000CC000000FF00000000330000333300006633000099330000CC330000FF3300
310
0000660000336600006666000099660000CC660000FF66000000990000339900006699000099990000CC990000FF99000000CC000033CC000066CC000099CC0000CCCC0000FFCC000000FF000033FF000066FF000099FF0000CCFF0000FFFF000000003300330033006600330099003300CC003300FF003300003333003333
310
33006633330099333300CC333300FF33330000663300336633006666330099663300CC663300FF66330000993300339933006699330099993300CC993300FF99330000CC330033CC330066CC330099CC3300CCCC3300FFCC330000FF330033FF330066FF330099FF3300CCFF3300FFFF330000006600330066006600660099
310
006600CC006600FF00660000336600333366006633660099336600CC336600FF33660000666600336666006666660099666600CC666600FF66660000996600339966006699660099996600CC996600FF99660000CC660033CC660066CC660099CC6600CCCC6600FFCC660000FF660033FF660066FF660099FF6600CCFF6600
310
FFFF660000009900330099006600990099009900CC009900FF00990000339900333399006633990099339900CC339900FF33990000669900336699006666990099669900CC669900FF66990000999900339999006699990099999900CC999900FF99990000CC990033CC990066CC990099CC9900CCCC9900FFCC990000FF99
310
0033FF990066FF990099FF9900CCFF9900FFFF99000000CC003300CC006600CC009900CC00CC00CC00FF00CC000033CC003333CC006633CC009933CC00CC33CC00FF33CC000066CC003366CC006666CC009966CC00CC66CC00FF66CC000099CC003399CC006699CC009999CC00CC99CC00FF99CC0000CCCC0033CCCC0066CC
310
CC0099CCCC00CCCCCC00FFCCCC0000FFCC0033FFCC0066FFCC0099FFCC00CCFFCC00FFFFCC000000FF003300FF006600FF009900FF00CC00FF00FF00FF000033FF003333FF006633FF009933FF00CC33FF00FF33FF000066FF003366FF006666FF009966FF00CC66FF00FF66FF000099FF003399FF006699FF009999FF00CC
310
99FF00FF99FF0000CCFF0033CCFF0066CCFF0099CCFF00CCCCFF00FFCCFF0000FFFF0033FFFF0066FFFF0099FFFF00CCFFFF00FFFFFF00000000000D0D0D001A1A1A00282828003535350043434300505050005D5D5D006B6B6B00787878008686860093939300A1A1A100AEAEAE00BBBBBB00C9C9C900D6D6D600E4E4E400
310
F1F1F100FFFFFF0000000000000000000000000000000000000000000000000000000000000000000000000000000000E2E2E2E2E2E2E2E2E2E2E2E2E2E2E2E2E2E2E2E2E2E2E2E2E2E2E2E2E2E2E2E2E2E2E2E2E2E2E2E2E2E2E2E2E2E2E2E2E2E2E2E2E2E2E2E2E2E2E2E2E2E2E2E2E2E2E2E2E2E2E2E2E2E2E2E2E2E2E2
310
E2E2E2E2E2E2E2E2E2E2E2E2E2E2E2E2E2E2E2E2E2E2E2E2E2E2E2E2E2E2E2E2E2E2E2E2E2E2E2E2E2E2E2E2E2E2E2E2E2E2E2E2E2E2E2E2E2E2E2E2E2E2E2E2E2E2E2E2E2E2E2E2E2E2E2E2E2E2E2E2E2E2E2E2E2E2E2E2E2E2E2E2E2E2E2E2E2E2E2E2E2E2E2E2E2E2E2E2E2E2E2E2E2E2E2E2E2E2E2E2E2E2E2E2E2E2E2
310
E2E2E2E2E2E2E2E2E2E2E2E2E2E2E2E2E2E2E2E2E2E2E2E2E2E2E2E2E2E2E2E2E2E2E2E2E2E2E2E2E2E2E2E2E2E2E2E2E2E2E2E2E2E2E2E2E2E2E2E2E2E2E2E2E2E2E2E2E2E2E2E2E2E2E2E2E2E2E2E2E2E2E2E2E2E2E2E2E2E2E2E2E2E2E2E2E2E2E2E2E2E2E2E2E2E2E2E2E2E2E2E2E2E2E2E2E2E2E2E2E2E2E2E2E2E2E2
310
E2E2E2E2E2E2E2E2E2E2E2E2E2E2E2E2E2E2E2E2E2E2E2E2E2E2E2E2E2E2E2E2E2E2E2E2E2E2E2E2E2E2E2E2E2E2E2E2E2E2E2E2E2E2E2E2E2E2E2E2E2E2E2E2E2E2E2E2E2E2E2E2E2E2E2E2E2E2E2E2E2E2E2E2E2E2E2E2E2E2E2E2E2E2E2E2E2E2E2E2E2E2E2E2E2E2E2E2E2E2E2E2E2E2E2E2E2E2E2E2E2E2E2E2E2E2E2
310
E2E2E2E2E2E2E2E2E2E2E2E2E2E2E2E2E2E2E2E2E2E2E2E2E2E2E2E2E2E2E2E2E2E2E2E2E2E2E2E2E2E2E2E2E2E2E2E2E2E2E2E2E2E2E2E2E2E2E2E2E2E2E2E2E2E2E2E2E2E2E2E2E2E2E2E2E2E2E2E2E2E2E2E2E2E2E2E2E2E2E2E2E2E2E2E2E2E2E2E2E2E2E2E2E2E2E2E2E2E2E2E2E2E2E2E2E2E2E2E2E2E2E2E2E2E2E2
310
E2E2E2E2E2E2E2E2E2E2E2E2E2E2E2E2E2E2E2E2E2E2E2E2E2E2E2E2E2E2E2E2E2E2E2E2E2E2E2E2E2E2E2E2E2E2E2E2E2E2E2E2E2E2E2E2E2E2E2E2E2E2E2E2E2E2E2E2E2E2E2E2E2E2E2E2E2E2E2E2E2E2E2E2E2E2E2E2E2E2E2E2E2E2E2E2E2E2E2E2E2E2E2E2E2E2E2E2E2E2E2E2E2E2E2E2E2E2E2E2E2E2E2E2E2E2E2
310
E2E2E2E2E2E2E2E2E2E2E2E2E2E2E2E2E2E2E2E2E2E2E2E2E2E2E2E2E2E2E2E2E2E2E2E2E2E2E2E2E2E2E2E2E2E2E2E2E2E2E2E2E2E2E2E2E2E2E2E2E2E2E2E2E2E2E2E2E2E2E2E2E2E2E2E2E2E2E2E2E2E2E2E2E2E2E2E2E2E2E2E2E2E2E2E2E2E2E2E2E2E2E2E2E2E2E2E2E2E2E2E2E2E2E2E2E2E2E2E2E2E2E2E2E2E2E2
310
E2E2E2E2E2E2E2E2E2E2E2E2E2E2E2E2E2E2E2E2E2E2E2E2E2E2E2E2E2E2E2E2E2E2E2E2E2E2E2E2E2E2E2E2E2E2E2E2E2E2E2E2E2E2E2E2E2E2E2E2E2E2E2E2E2E2E2E2E2E2E2E2E2E2E2E2E2E2E2E2E2E2E2E2E2E2E2E2E2E2E2E2E2E2E2E2E2E2E2E2E2E2E2E2E2E2E2E2E2E2E2E2E2E2E2E2E2E2E2E2E2E2E2E2E2E2E2
310
E2E2E2E2E2E2E2E2E2E2E2E2E2E2E2E2E2E2E2E2E2E2E2E2E2E2E2E2E2E2E2E2E2E2E2E2E2E2E2E2E2E2E2E2E2E2E2E2E2E2E2E2E2E2E2E2E2E2E2E2E2E2E2E2E2E2E2E2E2E2E2E2E2E2E2E2E2E2E2E2E2E2E2E2E2E2E2E2E2E2E2E2E2E2E2E2E2E2E2E2E2E2E2E2E2E2E2E2E2E2E2E2E2E2E2E2E2E2E2E2E2E2E2E2E2E2E2
310
E2E2E2E2E2E2E2E2E2E2E2E2E2E2E2E2E2E2E2E2E2E2E2E2E2E2E2E2E2E2E2E2E2E2E2E2E2E2E2E2E2E2E2E2E2E2E2E2E2E2E2E2E2E2E2E2E2E2E2E2E2E2E2E2E2E2E2E2E2E2E2E2E2E2E2E2E2E2E2E2E2E2E2E2E2E2E2E2E2E2E2E2E2E2E2E2E2E2E2E2E2E2E2E2E2E2E2E2E2E2E2E2E2E2E2E2E2E2E2E2E2E2E2E2E2E2E2
310
E2E2E2E2E2E2E2E2E2E2E2E2E2E2E2E2E2E2E2E2E2E2E2E2E2E2E2E2E2E2E2E2E2E2E2E2E2E2E2E2E2E2E2E2E2E2E2E2E2E2E2E2E2E2E2E2E2E2E2E2E2E2E2E2E2E2E2E2E2E2E2E2E2E2E2E2E2E2E2E2E2E2E2E2E2E2E2E2E2E2E2E2E2E2E2E2E2E2E2E2E2E2E2E2E2E2E2E2E2E2E2E2E2E2E2E2E2E2E2E2E2E2E2E2E2E2E2
310
E2E2E2E2E2E2E2E2E2E2E2E2E2E2E2E2E2E2E2E2E2E2E2E2E2E2E2E2E2E2E2E2E2E2E2E2E2E2E2E2E2E2E2E2E2E2E2E2E2E2E2E2E2E2E2E2E2E2E2E2E2E2E2E2E2E2E2E2E2E2E2E2E2E2E2E2E2E2E2E2E2E2E2E2E2E2E2E2E2E2E2E2E2E2E2E2E2E2E2E2E2E2E2E2E2E2E2E2E2E2E2E2E2E2E2E2E2E2E2E2E2E2E2E2E2E2E2
310
E2E2E2E2E2E2E2E2E2E2E2E2E2E2E2E2E2E2E2E2E2E2E2E2E2E2E2E2E2E2E2E2E2E2E2E2E2E2E2E2E2E2E2E2E2E2E2E2E2E2E2E2E2E2E2E2E2E2E2E2E2E2E2E2E2E2E2E2E2E2E2E2E2E2E2E2E2E2E2E2E2E2E2E2E2E2E2E2E2E2E2E2E2E2E2E2E2E2E2E2E2E2E2E2E2E2E2E2E2E2E2E2E2E2E2E2E2E2E2E2E2E2E2E2E2E2E2
310
E2E2E2E2E2E2E2E2E2E2E2E2E2E2E2E2E2E2E2E2E2E2E2E2E2E2E2E2E2E2E2E2E2E2E2E2E2E2E2E2E2E2E2E2E2E2E2E2E2E2E2E2E2E2E2E2E2E2E2E2E2E2E2E2E2E2E2E2E2E2E2E2E2E2E2E2E2E2E2E2E2E2E2E2E2E2E2E2E2E2E2E2E2E2E2E2E2E2E2E2E2E2E2E2E2E2E2E2E2E2E2E2E2E2E2E2E2E2E2E2E2E2E2E2E2E2E2
310
E2E2E2E2E2E2E2E2E2E2E2E2E2E2E2E2E2E2E2E2E2E2E2E2E2E2E2E2E2E2E2E2E2E2E2E2E2E2E2E2E2E2E2E2E2E2E2E2E2E2E2E2E2E2E2E2E2E2E2E2E2E2E2E2E2E2E2E2E2E2E2E2E2E2E2E2E2E2E2E2E2E2E2E2E2E2E2E2E2E2E2E2E2E2E2E2E2E2E2E2E2E2E2E2E2E2E2E2E2E2E2E2E2E2E2E2E2E2E2E2E2E2E2E2E2E2E2
310
E2E2E2E2E2E2E2E2E2E2E2E2E2E2E2E2E2E2E2E2E2E2E2E2E2E2E2E2E2E2E2E2E2E2E2E2E2E2E2E2E2E2E2E2E2E2E2E2E2E2E2E2E2E2E2E2E2E2E2E2E2E2E2E2E2E2E2E2E2E2E2E2E2E2E2E2E2E2E2E2E2E2E2E2E2E2E2E2E2E2E2E2E2E2E2E2E2E2E2E2E2E2E2E2E2E2E2E2E2E2E2E2E2E2E2E2E2E2E2E2E2E2E2E2E2E2E2
310
E2E2E2E2E2E2E2E2E2E2E2E2E2E2E2E2E2E2E2E2E2E2E2E2E2E2E2E2E2E2E2E2E2E2E2E2E2E2E2E2E2E2E2E2E2E2E2E2E2E2E2E2E2E2E2E2E2E2E2E2E2E2E2E2E2E2E2E2E2E2E2E2E2E2E2E2E2E2E2E2E2E2E2E2E2E2E2E2E2E2E2E2E2E2E2E2E2E2E2E2E2E2E2E2E2E2E2E2E2E2E2E2E2E2E2E2E2E2E2E2E2E2E2E2E2E2E2
310
E2E2E2E2E2E2E2E2E2E2E2E2E2E2E2E2E2E2E2E2E2E2E2E2E2E2E2E2E2E2E2E2E2E2E2E2E2E2E2E2E2E2E2E2E2E2E2E2E2E2E2E2E2E2E2E2E2E2E2E2E2E2E2E2E2E2E2E2E2E2E2E2E2E2E2E2E2E2E2E2E2E2E2E2E2E2E2E2E2E2E2E2E2E2E2E2E2E2E2E2E2E2E2E2E2E2E2E2E2E2E2E2E2E2E2E2E2E2E2E2E2E2E2E2E2E2E2
310
E2E2E2E2E2E2E2E2E2E2E2E2E2E2E2E2E2E2E2E2E2E2E2E2E2E2E2E2E2E2E2E2E2E2E2E2E2E2E2E2E2E2E2E2E2E2E2E2E2E2E2E2E2E2E2E2E2E2E2E2E2E2E2E2E2E2E2E2E2E2E2E2E2E2E2E2E2E2E2E2E2E2E2E2E2E2E2E2E2E2E2E2E2E2E2E2E2E2E2E2E2E2E2E2E2E2E2E2E2E2E2E2E2E2E2E2E2E2E2E2E2E2E2E2E2E2E2
310
E2E2E2E2E2E2E2E2E2E2E2E2E2E2E2E2E2E2E2E2E2E2E2E2E2E2E2E2E2E2E2E2E2E2E2E2E2E2E2E2E2E2E2E2E2E2E2E2E2E2E2E2E2E2E2E2E2E2E2E2E2E2E2E2E2E2E2E2E2E2E2E2E2E2E2E2E2E2E2E2E2E2E2E2E2E2E2E2E2E2E2E2E2E2E2E2E2E2E2E2E2E2E2E2E2E2E2E2E2E2E2E2E2E2E2E2E2E2E2E2E2E2E2E2E2E2E2
310
E2E2E2E2E2E2E2E2E2E2E2E2E2E2E2E2E2E2E2E2E2E2E2E2E2E2E2E2E2E2E2E2E2E2E2E2E2E2E2E2E2E2E2E2E2E2E2E2E2E2E2E2E2E2E2E2E2E2E2E2E2E2E2E2E2E2E2E2E2E2E2E2E2E2E2E2E2E2E2E2E2E2E2E2E2E2E2E2E2E2E2E2E2E2E2E2E2E2E2E2E2E2E2E2E2E2E2E2E2E2E2E2E2E2E2E2E2E2E2E2E2E2E2E2E2E2E2
310
E2E2E2E2E2E2E2E2E2E2E2E2E2E2E2E2E2E2E2E2E2E2E2E2E2E2E2E2E2E2E2E2E2E2E2E2E2E2E2E2E2E2E2E2E2E2E2E2E2E2E2E2E2E2E2E2E2E2E2E2E2E2E2E2E2E2E2E2E2E2E2E2E2E2E2E2E2E2E2E2E2E2E2E2E2E2E2E2E2E2E2E2E2E2E2E2E2E2E2E2E2E2E2E2E2E2E2E2E2E2E2E2E2E2E2E2E2E2E2E2E2E2E2E2E2E2E2
310
E2E2E2E2E2E2E2E2E2E2E2E2E2E2E2E2E2E2E2E2E2E2E2E2E2E2E2E2E2E2E2E2E2E2E2E2E2E2E2E2E2E2E2E2E2E2E2E2E2E2E2E2E2E2E2E2E2E2E2E2E2E2E2E2E2E2E2E2E2E2E2E2E2E2E2E2E2E2E2E2E2E2E2E2E2E2E2E2E2E2E2E2E2E2E2E2E2E2E2E2E2E2E2E2E2E2E2E2E2E2E2E2E2E2E2E2E2E2E2E2E2E2E2E2E2E2E2
310
E2E2E2E2E2E2E2E2E2E2E2E2E2E2E2E2E2E2E2E2E2E2E2E2E2E2E2E2E2E2E2E2E2E2E2E2E2E2E2E2E2E2E2E2E2E2E2E2E2E2E2E2E2E2E2E2E2E2E2E2E2E2E2E2E2E2E2E2E2E2E2E2E2E2E2E2E2E2E2E2E2E2E2E2E2E2E2E2E2E2E2E2E2E2E2E2E2E2E2E2E2E2E2E2E2E2E2E2E2E2E2E2E2E2E2E2E2E2E2E2E2E2E2E2E2E2E2
310
E2E2E2E2E2E2E2E2E2E2E2E2E2E2E2E2E2E2E2E2E2E2E2E2E2E2E2E2E2E2E2E2E2E2E2E2E2E2E2E2E2E2E2E2E2E2E2E2E2E2E2E2E2E2E2E2E2E2E2E2E2E2E2E2E2E2E2E2E2E2E2E2E2E2E2E2E2E2E2E2E2E2E2E2E2E2E2E2E2E2E2E2E2E2E2E2E2E2E2E2E2E2E2E2E2E2E2E2E2E2E2E2E2E2E2E2E2E2E2E2E2E2E2E2E2E2E2
310
E2E2E2E2E2E2E2E2E2F5F5F5F5F5F5F5F5F5F5F5F5F5F5F5F5F5F5F5F5F5F5F5F5F5F5F5F5F5F5F5F5F5F5F5F5F5F5F5F5F5F5F5F5F5F5F5F5F5F5F5F5F5F5F5F5F5F5F5F5F5F5F5F5F5F5F5F5F5F5F5F5F5F5F5F5F5F5F5F5F5F5F5F5F5F5F5F5F5F5F5F5F5F5F5F5F5F5F5F5F5F5F5F5F5F5F5E2E2E2E2E2E2E2E2E2E2E2
310
E2E2E2E2E2E2E2E2E2E2E2E2E2E2E2E2E2E2E2E2E2E2E2E2E2E2E2E2E2E2E2E2E2E2E2E2E2E2E2E2E2E2E2E2E2E2E2E2E2E2E2E2E2E2E2E2E2E2E2E2E2E2E2E2E2E2E2E2E2E2E2E2E2E2E2E2E2E2E2E2E2E2E2E2E2E2E2E2E2E2E2E2E2E2E2E2E2E2E2E2E2E2E2E2E2E2E2E2E2E2E2E2E2E2E2E2E2E2E2E2E2E2E2E2E2E2E2
310
E2E2E2E2E2E2E2E2E2E2E2F5E2E2E2E2E2E2E2E2E2E2E2E2E2E2E2E2E2E2E2E2E2E2E2E2E2E2E2E2E2E2E2E2E2E2E2E2E2E2E2E2E2E2E2E2E2E2E2E2E2E2E2E2E2E2E2E2E2E2E2E2E2E2E2E2E2E2E2E2E2E2E2E2E2E2E2E2E2E2E2E2E2E2E2E2E2E2E2E2E2E2E2E2E2E2E2E2E2E2E2E2E2E2E2E2E2F5E2E2E2E2E2E2E2E2E2
310
E2E2E2E2E2E2E2E2E2E2E2E2E2E2E2E2E2E2E2E2E2E2E2E2E2E2E2E2E2E2E2E2E2E2E2E2E2E2E2E2E2E2E2E2E2E2E2E2E2E2E2E2E2E2E2E2E2E2E2E2E2E2E2E2E2E2E2E2E2E2E2E2E2E2E2E2E2E2E2E2E2E2E2E2E2E2E2E2E2E2E2E2E2E2E2E2E2E2E2E2E2E2E2E2E2E2E2E2E2E2E2E2E2E2E2E2E2E2E2E2E2E2E2E2E2E2E2
310
E2E2E2E2E2E2E2E2E2E2E2E2E2F5E2E2E2E2E2E2E2E2E2E2E2E2E2E2E2E2E2E2E2E2E2E2E2E2E2E2E2E2E2E2E2E2E2E2E2E2E2E2E2E2E2E2E2E2E2E2E2E2E2E2E2E2E2E2E2E2E2E2E2E2E2E2E2E2E2E2E2E2E2E2E2E2E2E2E2E2E2E2E2E2E2E2E2E2E2E2E2E2E2E2E2E2E2E2E2E2E2E2E2E2E2E2E2E2E2F5E2E2E2E2E2E2E2
310
E2E2E2E2E2E2E2E2E2E2E2E2E2E2E2E2E2E2E2E2E2E2E2E2E2E2E2E2E2E2E2E2E2E2E2E2E2E2E2E2E2E2E2E2E2E2E2E2E2E2E2E2E2E2E2E2E2E2E2E2E2E2E2E2E2E2E2E2E2E2E2E2E2E2E2E2E2E2E2E2E2E2E2E2E2E2E2E2E2E2E2E2E2E2E2E2E2E2E2E2E2E2E2E2E2E2E2E2E2E2E2E2E2E2E2E2E2E2E2E2E2E2E2E2E2E2E2
310
E2E2E2E2E2E2E2E2E2E2E2E2E2E2E2F5E2E2BEBEBEBEBEBEBEBEBEBEBEBEBEBEBEBEBEBEBEBEBEBEBEBEBEBEBEBEBEBEBEBEBEBEE2E2E2E2E2E2E2E2E2E2E2E2E2E2E2E2E2E2E2E2E2E2E2E2E2E2E2E2E2E2E2E2E2E2E2E2E2E2E2E2E2E2E2E2E2E2E2E2E2E2E2E2E2E2E2E2E2E2E2E2E2E2E2E2E2E2E2E2E2F5E2E2E2E2E2
310
E2E2E2E2E2E2E2E2E2E2E2E2E2E2E2E2E2E2E2E2E2E2E2E2E2E2E2E2E2E2E2E2E2E2E2E2E2E2E2E2E2E2E2E2E2E2E2E2E2E2E2E2E2E2E2E2E2E2E2E2E2E2E2E2E2E2E2E2E2E2E2E2E2E2E2E2E2E2E2E2E2E2E2E2E2E2E2E2E2E2E2E2E2E2E2E2E2E2E2E2E2E2E2E2E2E2E2E2E2E2E2E2E2E2E2E2E2E2E2E2E2E2E2E2E2E2E2
310
E2E2E2E2E2E2E2E2E2E2E2E2E2E2E2E2E2F5E2E2BEE2E2E2E2E2E2E2E2E2E2E2E2E2E2E2E2E2E2E2E2E2E2E2E2E2E2E2E2E2E2E2E2BEE2E2E2E2E2E2E2E2E2E2E2E2E2E2E2E2E2E2E2E2E2E2E2E2E2E2E2E2E2E2E2E2E2E2E2E2E2E2E2E2E2E2E2E2E2E2E2E2E2E2E2E2E2E2E2E2E2E2E2E2E2E2E2E2E2E2E2E2E2F5E2E2E2
310
E2E2E2E2E2E2E2E2E2E2E2E2E2E2E2E2E2E2E2E2E2E2E2E2E2E2E2E2E2E2E2E2E2E2E2E2E2E2E2E2E2E2E2E2E2E2E2E2E2E2E2E2E2E2E2E2E2E2E2E2E2E2E2E2E2E2E2E2E2E2E2E2E2E2E2E2E2E2E2E2E2E2E2E2E2E2E2E2E2E2E2E2E2E2E2E2E2E2E2E2E2E2E2E2E2E2E2E2E2E2E2E2E2E2E2E2E2E2E2E2E2E2E2E2E2E2E2
310
E2E2E2E2E2E2E2E2E2E2E2E2E2E2E2E2E2E2E2F5E2E2BEE2E2E2E2E2E2E2E2E2E2E2E2E2E2E2E2E2E2E2E2E2E2E2E2E2E2E2E2E2E2E2E2BEE2E2E2E2E2E2E2E2E2E2E2E2E2E2E2E2E2E2E2E2E2E2E2E2E2E2E2E2E2E2E2E2E2E2E2E2E2E2E2E2E2E2E2E2E2E2E2E2E2E2E2E2E2E2E2E2E2E2E2E2E2E2E2E2E2E2E2E2E2F5E2
310
E2E2E2E2E2E2E2E2E2E2E2E2E2E2E2E2E2E2E2E2E2E2E2E2E2E2E2E2E2E2E2E2E2E2E2E2E2E2E2E2E2E2E2E2E2E2E2E2E2E2E2E2E2E2E2E2E2E2E2E2E2E2E2E2E2E2E2E2E2E2E2E2E2E2E2E2E2E2E2E2E2E2E2E2E2E2E2E2E2E2E2E2E2E2E2E2E2E2E2E2E2E2E2E2E2E2E2E2E2E2E2E2E2E2E2E2E2E2E2E2E2E2E2E2E2E2E2
310
E2E2E2E2E2E2E2E2E2E2E2E2E2E2E2E2E2E2E2E2E2F5E2E2BEE2E2E2E2E2E2E2E2E2E2E2E2E2E2E2E2E2E2E2E2E2E2E2E2E2E2E2E2E2E2E2E2BEE2E2E2E2E2E2E2E2E2E2E2E2E2E2E2E2E2E2E2E2E2E2E2E2E2E2E2E2E2E2E2E2E2E2E2E2E2E2E2E2E2E2E2E2E2E2E2E2E2E2E2E2E2E2E2E2E2BEE2E2E2E2E2E2E2E2E2E2E2
310
F5E2E2E2E2E2E2E2E2E2E2E2E2E2E2E2E2E2E2E2E2E2E2E2E2E2E2E2E2E2E2E2E2E2E2E2E2E2E2E2E2E2E2E2E2E2E2E2E2E2E2E2E2E2E2E2E2E2E2E2E2E2E2E2E2E2E2E2E2E2E2E2E2E2E2E2E2E2E2E2E2E2E2E2E2E2E2E2E2E2E2E2E2E2E2E2E2E2E2E2E2E2E2E2E2E2E2E2E2E2E2E2E2E2E2E2E2E2E2E2E2E2E2E2E2E2E2
310
E2E2E2E2E2E2E2E2E2E2E2E2E2E2E2E2E2E2E2E2E2E2E2F5E2E2BEBEE2E2E2E2E2E2E2E2E2E2E2E2E2E2E2E2E2E2E2E2E2E2E2E2E2E2E2E2E2BEBEBEE2E2E2E2E2E2E2E2E2E2E2E2E2E2E2E2E2E2E2E2E2E2E2E2E2E2E2E2E2E2E2E2E2E2E2E2E2E2E2E2E2E2E2E2E2E2E2E2E2E2E2E2E2BEBEBEBEE2BEBEBEBEE2E2E2E2E2
310
E2E2F5E2E2E2E2E2E2E2E2E2E2E2E2E2E2E2E2E2E2E2E2E2E2E2E2E2E2E2E2E2E2E2E2E2E2E2E2E2E2E2E2E2E2E2E2E2E2E2E2E2E2E2E2E2E2E2E2E2E2E2E2E2E2E2E2E2E2E2E2E2E2E2E2E2E2E2E2E2E2E2E2E2E2E2E2E2E2E2E2E2E2E2E2E2E2E2E2E2E2E2E2E2E2E2E2E2E2E2E2E2E2E2E2E2E2E2E2E2E2E2E2E2E2E2E2
310
E2E2E2E2E2E2E2E2E2E2E2E2E2E2E2E2E2E2E2E2E2E2E2E2E2F5E2E2E2BEE2E2E2E2E2E2E2E2E2E2E2E2E2E2E2E2E2E2E2E2E2E2E2E2E2E2E2E2E2BEE2E2E2E2E2E2E2E2E2E2E2E2E2E2E2E2E2E2E2E2E2E2E2E2E2E2E2E2E2E2E2E2E2E2E2E2E2E2E2E2E2E2E2E2E2E2E2E2E2E2E2E2E2BEBEBEBEBEBEBEBEBEBEE2BEBEE2
310
E2E2E2E2F5E2E2E2E2E2E2E2E2E2E2E2E2E2E2E2E2E2E2E2E2E2E2E2E2E2E2E2E2E2E2E2E2E2E2E2E2E2E2E2E2E2E2E2E2E2E2E2E2E2E2E2E2E2E2E2E2E2E2E2E2E2E2E2E2E2E2E2E2E2E2E2E2E2E2E2E2E2E2E2E2E2E2E2E2E2E2E2E2E2E2E2E2E2E2E2E2E2E2E2E2E2E2E2E2E2E2E2E2E2E2E2E2E2E2E2E2E2E2E2E2E2E2
310
E2E2E2E2E2E2E2E2E2E2E2E2E2E2E2E2E2E2E2E2E2E2E2E2E2E2E2F5E2E2E2BEE2E2E2E2E2E2E2E2E2E2E2E2E2E2E2E2E2E2E2E2E2E2E2E2E2E2E2E2E2BEE2E2E2E2E2E2E2E2E2E2E2E2E2E2E2E2E2E2E2E2E2E2E2E2E2E2E2E2E2E2E2E2E2E2E2E2E2E2E2E2E2E2E2E2E2E2E2E2E2E2E2E2BEE2BEBEBEBEBEBEBEBEBEBEBE
310
BEBEE2E2E2E2F5E2E2E2E2E2E2E2E2E2E2E2E2E2E2E2E2E2E2E2E2E2E2E2E2E2E2E2E2E2E2E2E2E2E2E2E2E2E2E2E2E2E2E2E2E2E2E2E2E2E2E2E2E2E2E2E2E2E2E2E2E2E2E2E2E2E2E2E2E2E2E2E2E2E2E2E2E2E2E2E2E2E2E2E2E2E2E2E2E2E2E2E2E2E2E2E2E2E2E2E2E2E2E2E2E2E2E2E2E2E2E2E2E2E2E2E2E2E2E2E2
310
E2E2E2E2E2E2E2E2E2E2E2E2E2E2E2E2E2E2E2E2E2E2E2E2E2E2E2E2E2F5E2E2E2BEE2E2E2E2E2E2E2E2E2E2E2E2E2E2E2E2E2E2E2E2E2E2E2E2E2E2E2E2E2BEE2E2E2E2E2E2E2E2E2E2E2E2E2E2E2E2E2E2E2E2E2E2E2E2E2E2E2E2E2E2E2E2E2E2E2E2E2E2E2E2E2E2E2E2E2E2E2E2E2E2E2BEE2BEE2BEBEE2E2E2E2E2BE
310
BEBEE2BEE2E2E2E2F5E2E2E2E2E2E2E2E2E2E2E2E2E2E2E2E2E2E2E2E2E2E2E2E2E2E2E2E2E2E2E2E2E2E2E2E2E2E2E2E2E2E2E2E2E2E2E2E2E2E2E2E2E2E2E2E2E2E2E2E2E2E2E2E2E2E2E2E2E2E2E2E2E2E2E2E2E2E2E2E2E2E2E2E2E2E2E2E2E2E2E2E2E2E2E2E2E2E2E2E2E2E2E2E2E2E2E2E2E2E2E2E2E2E2E2E2E2E2
310
E2E2E2E2E2E2E2E2E2E2E2E2E2E2E2E2E2E2E2E2E2E2E2E2E2E2E2E2E2E2E2F5E2E2E2BEE2E2E2E2E2E2E2E2E2E2E2E2E2E2E2E2E2E2E2E2E2E2E2E2E2E2E2E2E2BEE2E2E2E2E2E2E2E2E2E2E2E2E2E2E2E2E2E2E2E2E2E2E2E2E2E2E2E2E2E2E2E2E2E2E2E2E2E2E2E2E2E2E2E2E2E2E2E2E2E2BEE2BEE2BEE2E2E2E2E2E2
310
E2E2E2E2E2E2BEE2E2E2F5E2E2E2E2E2E2E2E2E2E2E2E2E2E2E2E2E2E2E2E2E2E2E2E2E2E2E2E2E2E2E2E2E2E2E2E2E2E2E2E2E2E2E2E2E2E2E2E2E2E2E2E2E2E2E2E2E2E2E2E2E2E2E2E2E2E2E2E2E2E2E2E2E2E2E2E2E2E2E2E2E2E2E2E2E2E2E2E2E2E2E2E2E2E2E2E2E2E2E2E2E2E2E2E2E2E2E2E2E2E2E2E2E2E2E2E2
310
E2E2E2E2E2E2E2E2E2E2E2E2E2E2E2E2E2E2E2E2E2E2E2E2E2E2E2E2E2E2E2E2E2F5E2E2E2BEE2E2E2E2E2E2E2E2E2E2E2E2E2E2E2E2E2E2E2E2E2E2E2E2E2E2E2E2E2BEE2E2E2E2E2E2E2E2E2E2E2E2E2E2E2E2E2E2E2E2E2E2E2E2E2E2E2E2E2E2E2E2E2E2E2E2E2E2E2E2E2E2E2E2E2E2E2E2E2BEE2BEBEBEE2E2E2E2E2
310
E2E2E2E2E2E2E2E2BEE2E2E2F5E2E2E2E2E2E2E2E2E2E2E2E2E2E2E2E2E2E2E2E2E2E2E2E2E2E2E2E2E2E2E2E2E2E2E2E2E2E2E2E2E2E2E2E2E2E2E2E2E2E2E2E2E2E2E2E2E2E2E2E2E2E2E2E2E2E2E2E2E2E2E2E2E2E2E2E2E2E2E2E2E2E2E2E2E2E2E2E2E2E2E2E2E2E2E2E2E2E2E2E2E2E2E2E2E2E2E2E2E2E2E2E2E2E2
310
E2E2E2E2E2E2E2E2E2E2E2E2E2E2E2E2E2E2E2E2E2E2E2E2E2E2E2E2E2E2E2E2E2E2E2F5E2E2E2BEE2E2E2E2E2E2E2E2E2E2E2E2E2E2E2E2E2E2E2E2E2E2E2E2E2E2E2E2E2BEE2E2E2E2E2E2E2E2E2E2E2E2E2E2E2E2E2E2E2E2E2E2E2E2E2E2E2E2E2E2E2E2E2E2E2E2E2E2E2E2E2E2E2E2E2E2E2E2E2BEBEE2E2E2E2E2E2
310
E2E2E2E2E2E2E2E2E2E2BEE2E2E2F5E2E2E2E2E2E2E2E2E2E2E2E2E2E2E2E2E2E2E2E2E2E2E2E2E2E2E2E2E2E2E2E2E2E2E2E2E2E2E2E2E2E2E2E2E2E2E2E2E2E2E2E2E2E2E2E2E2E2E2E2E2E2E2E2E2E2E2E2E2E2E2E2E2E2E2E2E2E2E2E2E2E2E2E2E2E2E2E2E2E2E2E2E2E2E2E2E2E2E2E2E2E2E2E2E2E2E2E2E2E2E2E2
310
E2E2E2E2E2E2E2E2E2E2E2E2E2E2E2E2E2E2E2E2E2E2E2E2E2E2E2E2E2E2E2E2E2E2E2E2E2F5E2E2BEBEE2E2E2E2E2E2E2E2E2E2E2E2E2E2E2E2E2E2E2E2E2E2E2E2E2E2E2E2E2BEBEBEE2E2E2E2E2E2E2E2E2E2E2E2E2E2E2E2E2E2E2E2E2E2E2E2E2E2E2E2E2E2E2E2E2E2E2E2E2E2E2E2E2E2E2E2E2BEBEE2E2E2E2E2E2
310
E2E2BEE2E2E2E2E2E2E2E2E2BEE2E2E2F5E2E2E2E2E2E2E2E2E2E2E2E2E2E2E2E2E2E2E2E2E2E2E2E2E2E2E2E2E2E2E2E2E2E2E2E2E2E2E2E2E2E2E2E2E2E2E2E2E2E2E2E2E2E2E2E2E2E2E2E2E2E2E2E2E2E2E2E2E2E2E2E2E2E2E2E2E2E2E2E2E2E2E2E2E2E2E2E2E2E2E2E2E2E2E2E2E2E2E2E2E2E2E2E2E2E2E2E2E2E2
310
E2E2E2E2E2E2E2E2E2E2E2E2E2E2E2E2E2E2E2E2E2E2E2E2E2E2E2E2E2E2E2E2E2E2E2E2E2E2E2F5E2E2BEE2E2E2E2E2E2E2E2E2E2E2E2E2E2E2E2E2E2E2E2E2E2E2E2E2E2E2E2E2E2E2E2BEE2E2E2E2E2E2E2E2E2E2E2E2E2E2E2E2E2E2E2E2E2E2E2E2E2E2E2E2E2E2E2E2E2E2E2E2E2E2E2E2E2E2E2E2BEE2BEBEE2E2E2
310
E2E2E2E2BEBEE2E2E2E2E2E2E2E2BEE2E2E2F5E2E2E2E2E2E2E2E2E2E2E2E2E2E2E2E2E2E2E2E2E2E2E2E2E2E2E2E2E2E2E2E2E2E2E2E2E2E2E2E2E2E2E2E2E2E2E2E2E2E2E2E2E2E2E2E2E2E2E2E2E2E2E2E2E2E2E2E2E2E2E2E2E2E2E2E2E2E2E2E2E2E2E2E2E2E2E2E2E2E2E2E2E2E2E2E2E2E2E2E2E2E2E2E2E2E2E2E2
310
E2E2E2E2E2E2E2E2E2E2E2E2E2E2E2E2E2E2E2E2E2E2E2E2E2E2E2E2E2E2E2E2E2E2E2E2E2E2E2E2E2F5E2E2BEE2E2E2E2E2E2E2E2E2E2E2E2E2E2E2E2E2E2E2E2E2E2E2E2E2E2E2E2E2E2E2E2BEE2E2E2E2E2E2E2E2E2E2E2E2E2E2E2E2E2E2E2E2E2E2E2E2E2E2E2E2E2E2E2E2E2E2E2E2E2E2E2E2E2E2E2E2BEBEE2BEE2
310
E2E2E2E2E2BEE2BEBEBEE2E2E2E2E2BEBEE2E2E2F5E2E2E2E2E2E2E2E2E2E2E2E2E2E2E2E2E2E2E2E2E2E2E2E2E2E2E2E2E2E2E2E2E2E2E2E2E2E2E2E2E2E2E2E2E2E2E2E2E2E2E2E2E2E2E2E2E2E2E2E2E2E2E2E2E2E2E2E2E2E2E2E2E2E2E2E2E2E2E2E2E2E2E2E2E2E2E2E2E2E2E2E2E2E2E2E2E2E2E2E2E2E2E2E2E2E2
310
E2E2E2E2E2E2E2E2E2E2E2E2E2E2E2E2E2E2E2E2E2E2E2E2E2E2E2E2E2E2E2E2E2E2E2E2E2E2E2E2E2E2E2F5E2E2BEBEE2E2E2E2E2E2E2E2E2E2E2E2E2E2E2E2E2E2E2E2E2E2E2E2E2E2E2E2E2BEBEBEE2E2E2E2E2E2E2E2E2E2E2E2E2E2E2E2E2E2E2E2E2E2E2E2E2E2E2E2E2E2E2E2E2E2E2E2E2E2E2E2E2E2E2E2BEBEBE
310
E2E2E2E2E2E2E2E2BEE2E2BEE2E2E2E2E2BEE2E2E2E2F5E2E2E2E2E2E2E2E2E2E2E2E2E2E2E2E2E2E2E2E2E2E2E2E2E2E2E2E2E2E2E2E2E2E2E2E2E2E2E2E2E2E2E2E2E2E2E2E2E2E2E2E2E2E2E2E2E2E2E2E2E2E2E2E2E2E2E2E2E2E2E2E2E2E2E2E2E2E2E2E2E2E2E2E2E2E2E2E2E2E2E2E2E2E2E2E2E2E2E2E2E2E2E2E2
310
E2E2E2E2E2E2E2E2E2E2E2E2E2E2E2E2E2E2E2E2E2E2E2E2E2E2E2E2E2E2E2E2E2E2E2E2E2E2E2E2E2E2E2E2E2F5E2E2E2BEE2E2E2E2E2E2E2E2E2E2E2E2E2E2E2E2E2E2E2E2E2E2E2E2E2E2E2E2E2BEE2E2E2E2E2E2E2E2E2E2E2E2E2E2E2E2E2E2E2E2E2E2E2E2E2E2E2E2E2E2E2E2E2E2E2E2E2E2E2E2E2E2E2E2E2BEBE
310
E2BEE2E2E2E2E2E2E2E2BEE2BEE2E2E2E2E2BEE2E2E2E2E2F5E2E2E2E2E2E2E2E2E2E2E2E2E2E2E2E2E2E2E2E2E2E2E2E2E2E2E2E2E2E2E2E2E2E2E2E2E2E2E2E2E2E2E2E2E2E2E2E2E2E2E2E2E2E2E2E2E2E2E2E2E2E2E2E2E2E2E2E2E2E2E2E2E2E2E2E2E2E2E2E2E2E2E2E2E2E2E2E2E2E2E2E2E2E2E2E2E2E2E2E2E2E2
310
E2E2E2E2E2E2E2E2E2E2E2E2E2E2E2E2E2E2E2E2E2E2E2E2E2E2E2E2E2E2E2E2E2E2E2E2E2E2E2E2E2E2E2E2E2E2E2F5E2E2E2BEE2E2E2E2E2E2E2E2E2E2E2E2E2E2E2E2E2E2E2E2E2E2E2E2E2E2E2E2E2BEE2E2E2E2E2E2E2E2E2E2E2E2E2E2E2E2E2E2E2E2E2E2E2E2E2E2E2E2E2E2E2E2E2E2E2E2E2E2E2E2E2E2E2E2BE
310
BEE2BEE2E2E2E2E2E2E2E2E2BEE2BEE2E2E2BEBEE2E2E2E2E2E2F5E2E2E2E2E2E2E2E2E2E2E2E2E2E2E2E2E2E2E2E2E2E2E2E2E2E2E2E2E2E2E2E2E2E2E2E2E2E2E2E2E2E2E2E2E2E2E2E2E2E2E2E2E2E2E2E2E2E2E2E2E2E2E2E2E2E2E2E2E2E2E2E2E2E2E2E2E2E2E2E2E2E2E2E2E2E2E2E2E2E2E2E2E2E2E2E2E2E2E2E2
310
E2E2E2E2E2E2E2E2E2E2E2E2E2E2E2E2E2E2E2E2E2E2E2E2E2E2E2E2E2E2E2E2E2E2E2E2E2E2E2E2E2E2E2E2E2E2E2E2E2F5E2E2E2BEE2E2E2E2E2E2E2E2E2E2E2E2E2E2E2E2E2E2E2E2E2E2E2E2E2E2E2E2E2BEE2E2E2E2E2E2BEBEBEBEBEBEE2E2E2E2E2E2E2E2E2E2E2E2E2E2E2E2E2E2E2E2E2E2E2E2E2E2E2E2E2E2E2
310
E2BEBEE2BEE2E2E2E2E2E2E2E2E2BEE2BEBEBEBEE2E2E2E2E2E2E2E2F5E2E2E2E2E2E2E2E2E2E2E2E2E2E2E2E2E2E2E2E2E2E2E2E2E2E2E2E2E2E2E2E2E2E2E2E2E2E2E2E2E2E2E2E2E2E2E2E2E2E2E2E2E2E2E2E2E2E2E2E2E2E2E2E2E2E2E2E2E2E2E2E2E2E2E2E2E2E2E2E2E2E2E2E2E2E2E2E2E2E2E2E2E2E2E2E2E2E2
310
E2E2E2E2E2E2E2E2E2E2E2E2E2E2E2E2E2E2E2E2E2E2E2E2E2E2E2E2E2E2E2E2E2E2E2E2E2E2E2E2E2E2E2E2E2E2E2E2E2E2E2F5E2E2E2BEE2E2E2E2E2E2E2E2E2E2E2E2E2E2E2E2E2E2E2E2E2E2E2E2E2E2E2E2E2BEE2E2E2E2BEBEE2E2E2E2E2BEBEE2E2E2E2E2E2E2E2E2E2E2E2E2E2E2E2E2E2E2E2E2E2E2E2E2E2E2E2
310
E2E2BEBEE2BEE2E2E2E2E2E2BEBEE2BEE2E2E2E2E2E2E2E2E2E2E2E2E2E2F5E2E2E2E2E2E2E2E2E2E2E2E2E2E2E2E2E2E2E2E2E2E2E2E2E2E2E2E2E2E2E2E2E2E2E2E2E2E2E2E2E2E2E2E2E2E2E2E2E2E2E2E2E2E2E2E2E2E2E2E2E2E2E2E2E2E2E2E2E2E2E2E2E2E2E2E2E2E2E2E2E2E2E2E2E2E2E2E2E2E2E2E2E2E2E2E2
310
E2E2E2E2E2E2E2E2E2E2E2E2E2E2E2E2E2E2E2E2E2E2E2E2E2E2E2E2E2E2E2E2E2E2E2E2E2E2E2E2E2E2E2E2E2E2E2E2E2E2E2E2E2F5E2E2E2BEE2E2E2E2E2E2E2E2E2E2E2E2E2E2E2E2E2E2E2E2E2E2E2E2E2E2E2E2E2BEE2E2E2BEBEE2E2E2E2E2E2E2E2BEE2E2E2E2E2E2E2E2E2E2E2E2E2E2E2E2E2E2E2E2E2E2BEBEBE
310
E2E2E2E2BEBEE2BEE2E2E2E2E2BEE2BEE2BEE2E2E2E2E2E2E2E2E2E2E2E2E2E2F5E2E2E2E2E2E2E2E2E2E2E2E2E2E2E2E2E2E2E2E2E2E2E2E2E2E2E2E2E2E2E2E2E2E2E2E2E2E2E2E2E2E2E2E2E2E2E2E2E2E2E2E2E2E2E2E2E2E2E2E2E2E2E2E2E2E2E2E2E2E2E2E2E2E2E2E2E2E2E2E2E2E2E2E2E2E2E2E2E2E2E2E2E2E2
310
E2E2E2E2E2E2E2E2E2E2E2E2E2E2E2E2E2E2E2E2E2E2E2E2E2E2E2E2E2E2E2E2E2E2E2E2E2E2E2E2E2E2E2E2E2E2E2E2E2E2E2E2E2E2E2F5E2E2E2BEE2E2E2E2E2E2E2E2E2E2E2E2E2E2E2E2E2E2E2E2E2E2E2E2E2E2E2E2E2BEE2E2BEBEE2E2E2E2E2E2E2E2E2BEE2E2E2E2E2E2E2E2E2E2E2E2E2E2E2E2E2E2E2E2BEBEE2
310
E2BEBEE2E2BEBEBEBEE2E2E2E2E2E2E2BEE2E2BEE2E2E2E2E2E2E2E2E2E2E2E2E2E2F5E2E2E2E2E2E2E2E2E2E2E2E2E2E2E2E2E2E2E2E2E2E2E2E2E2E2E2E2E2E2E2E2E2E2E2E2E2E2E2E2E2E2E2E2E2E2E2E2E2E2E2E2E2E2E2E2E2E2E2E2E2E2E2E2E2E2E2E2E2E2E2E2E2E2E2E2E2E2E2E2E2E2E2E2E2E2E2E2E2E2E2E2
310
E2E2E2E2E2E2E2E2E2E2E2E2E2E2E2E2E2E2E2E2E2E2E2E2E2E2E2E2E2E2E2E2E2E2E2E2E2E2E2E2E2E2E2E2E2E2E2E2E2E2E2E2E2E2E2E2E2F5E2E2BEBEE2E2E2E2E2E2E2E2E2E2E2E2E2E2E2E2E2E2E2E2E2E2E2E2E2E2E2E2E2BEBEBEBEE2E2E2E2E2E2E2E2BEE2E2BEE2E2E2E2E2E2E2E2E2E2E2E2E2E2E2E2E2E2BEBE
310
BEE2E2BEBEE2BEBEBEE2BEE2E2E2E2E2E2E2E2E2BEE2E2E2E2E2E2E2E2E2E2E2E2E2E2E2F5E2E2E2E2E2E2E2E2E2E2E2E2E2E2E2E2E2E2E2E2E2E2E2E2E2E2E2E2E2E2E2E2E2E2E2E2E2E2E2E2E2E2E2E2E2E2E2E2E2E2E2E2E2E2E2E2E2E2E2E2E2E2E2E2E2E2E2E2E2E2E2E2E2E2E2E2E2E2E2E2E2E2E2E2E2E2E2E2E2E2
310
E2E2E2E2E2E2E2E2E2E2E2E2E2E2E2E2E2E2E2E2E2E2E2E2E2E2E2E2E2E2E2E2E2E2E2E2E2E2E2E2E2E2E2E2E2E2E2E2E2E2E2E2E2E2E2E2E2E2E2F5E2E2BEE2E2E2E2E2E2E2E2E2E2E2E2E2E2E2E2E2E2E2E2E2E2E2E2E2E2E2E2E2E2E2E2BEBEE2E2E2E2E2E2E2E2E2BEE2E2BEE2E2E2E2E2E2E2E2E2E2E2E2E2E2E2BEBE
310
BEE2BEE2BEE2E2BEBEBEBEBEE2E2E2E2E2E2E2E2E2E2BEE2E2E2E2E2E2E2E2E2E2E2E2E2E2E2F5E2E2E2E2E2E2E2E2E2E2E2E2E2E2E2E2E2E2E2E2E2E2E2E2E2E2E2E2E2E2E2E2E2E2E2E2E2E2E2E2E2E2E2E2E2E2E2E2E2E2E2E2E2E2E2E2E2E2E2E2E2E2E2E2E2E2E2E2E2E2E2E2E2E2E2E2E2E2E2E2E2E2E2E2E2E2E2E2
310
E2E2E2E2E2E2E2E2E2E2E2E2E2E2E2E2E2E2E2E2E2E2E2E2E2E2E2E2E2E2E2E2E2E2E2E2E2E2E2E2E2E2E2E2E2E2E2E2E2E2E2E2E2E2E2E2E2E2E2E2E2F5E2E2BEE2E2E2E2E2E2E2E2E2E2E2E2E2E2E2E2E2E2E2E2E2E2E2E2E2E2E2E2E2E2E2E2BEBEE2E2E2BEBEBEBEBEE2E2BEE2BEE2E2E2E2E2E2E2E2E2E2E2E2E2E2BE
310
E2BEBEBEE2E2BEBEBEE2BEBEBEE2E2E2E2E2E2E2E2E2E2E2BEE2E2E2E2E2E2E2E2E2E2E2E2E2E2E2F5E2E2E2E2E2E2E2E2E2E2E2E2E2E2E2E2E2E2E2E2E2E2E2E2E2E2E2E2E2E2E2E2E2E2E2E2E2E2E2E2E2E2E2E2E2E2E2E2E2E2E2E2E2E2E2E2E2E2E2E2E2E2E2E2E2E2E2E2E2E2E2E2E2E2E2E2E2E2E2E2E2E2E2E2E2E2
310
E2E2E2E2E2E2E2E2E2E2E2E2E2E2E2E2E2E2E2E2E2E2E2E2E2E2E2E2E2E2E2E2E2E2E2E2E2E2E2E2E2E2E2E2E2E2E2E2E2E2E2E2E2E2E2E2E2E2E2E2E2E2E2F5E2E2BEBEE2E2E2E2E2E2E2E2E2E2E2E2E2E2E2E2E2E2E2E2E2E2E2E2E2E2E2E2E2BEBEBEBEE2E2BEBEE2E2E2BEBEBEBEBEE2BEE2E2E2E2E2E2E2E2E2E2E2E2
310
BEBEBEBEBEE2E2E2E2BEBEBEBEE2E2E2E2E2E2E2E2E2E2E2E2E2BEE2E2E2E2E2E2E2E2E2E2E2E2E2E2E2F5E2E2E2E2E2E2E2E2E2E2E2E2E2E2E2E2E2E2E2E2E2E2E2E2E2E2E2E2E2E2E2E2E2E2E2E2E2E2E2E2E2E2E2E2E2E2E2E2E2E2E2E2E2E2E2E2E2E2E2E2E2E2E2E2E2E2E2E2E2E2E2E2E2E2E2E2E2E2E2E2E2E2E2E2
310
E2E2E2E2E2E2E2E2E2E2E2E2E2E2E2E2E2E2E2E2E2E2E2E2E2E2E2E2E2E2E2E2E2E2E2E2E2E2E2E2E2E2E2E2E2E2E2E2E2E2E2E2E2E2E2E2E2E2E2E2E2E2E2E2E2F5E2E2E2BEE2E2E2E2E2E2E2E2E2E2E2E2E2E2E2E2E2E2E2E2E2E2E2E2E2E2E2E2E2BEE2E2BEE2E2BEE2E2E2E2BEBEBEE2BEBEE2BEE2E2E2E2E2E2E2E2BE
310
BEBEBEBEBEE2E2E2E2E2E2E2E2E2E2E2E2E2E2E2E2BEE2E2E2E2E2E2BEE2E2E2E2E2E2E2E2E2E2E2E2E2E2E2F5E2E2E2E2E2E2E2E2E2E2E2E2E2E2E2E2E2E2E2E2E2E2E2E2E2E2E2E2E2E2E2E2E2E2E2E2E2E2E2E2E2E2E2E2E2E2E2E2E2E2E2E2E2E2E2E2E2E2E2E2E2E2E2E2E2E2E2E2E2E2E2E2E2E2E2E2E2E2E2E2E2E2
310
E2E2E2E2E2E2E2E2E2E2E2E2E2E2E2E2E2E2E2E2E2E2E2E2E2E2E2E2E2E2E2E2E2E2E2E2E2E2E2E2E2E2E2E2E2E2E2E2E2E2E2E2E2E2E2E2E2E2E2E2E2E2E2E2E2E2E2F5E2E2E2BEE2E2E2E2E2E2E2E2E2E2E2E2E2E2E2E2E2E2E2E2E2E2E2E2E2E2E2E2E2BEE2E2BEE2E2BEBEBEE2E2BEBEE2E2E2BEBEBEBEBEE2E2E2BEBE
310
BEE2BEBEBEE2E2E2E2E2E2E2E2E2E2E2E2E2E2E2E2E2E2BEBEE2E2E2E2BEE2E2E2E2E2E2E2E2E2E2E2E2E2E2E2E2F5E2E2E2E2E2E2E2E2E2E2E2E2E2E2E2E2E2E2E2E2E2E2E2E2E2E2E2E2E2E2E2E2E2E2E2E2E2E2E2E2E2E2E2E2E2E2E2E2E2E2E2E2E2E2E2E2E2E2E2E2E2E2E2E2E2E2E2E2E2E2E2E2E2E2E2E2E2E2E2E2
310
E2E2E2E2E2E2E2E2E2E2E2E2E2E2E2E2E2E2E2E2E2E2E2E2E2E2E2E2E2E2E2E2E2E2E2E2E2E2E2E2E2E2E2E2E2E2E2E2E2E2E2E2E2E2E2E2E2E2E2E2E2E2E2E2E2E2E2E2E2F5E2E2E2BEE2E2E2E2E2E2E2E2E2E2E2E2E2E2E2E2E2E2E2E2E2E2E2E2E2E2E2E2E2BEE2E2BEE2E2E2E2BEE2BEE2E2E2E2E2BEBEBEBEBEBEBEBE
310
BEBEBEBEE2BEE2E2E2E2E2E2E2E2E2E2E2E2E2E2E2E2E2E2BEBEE2E2E2E2E2BEE2E2E2E2E2E2E2E2E2E2E2E2E2E2E2E2F5E2E2E2E2E2E2E2E2E2E2E2E2E2E2E2E2E2E2E2E2E2E2E2E2E2E2E2E2E2E2E2E2E2E2E2E2E2E2E2E2E2E2E2E2E2E2E2E2E2E2E2E2E2E2E2E2E2E2E2E2E2E2E2E2E2E2E2E2E2E2E2E2E2E2E2E2E2E2
310
E2E2E2E2E2E2E2E2E2E2E2E2E2E2E2E2E2E2E2E2E2E2E2E2E2E2E2E2E2E2E2E2E2E2E2E2E2E2E2E2E2E2E2E2E2E2E2E2E2E2E2E2E2E2E2E2E2E2E2E2E2E2E2E2E2E2E2E2E2E2E2F5E2E2E2BEE2E2E2E2E2E2E2E2E2E2E2E2E2E2E2E2E2E2E2E2E2E2E2E2E2E2E2E2E2BEE2E2BEE2E2BEBEBEBEE2E2E2E2E2E2E2BEBEE2BEBE
310
BEBEBEE2E2BEBEE2E2E2E2E2E2E2E2E2E2E2E2E2E2E2E2E2E2E2E2E2E2E2E2E2BEE2E2E2E2E2E2E2E2E2E2E2E2E2E2E2E2E2F5E2E2E2E2E2E2E2E2E2E2E2E2E2E2E2E2E2E2E2E2E2E2E2E2E2E2E2E2E2E2E2E2E2E2E2E2E2E2E2E2E2E2E2E2E2E2E2E2E2E2E2E2E2E2E2E2E2E2E2E2E2E2E2E2E2E2E2E2E2E2E2E2E2E2E2E2
310
E2E2E2E2E2E2E2E2E2E2E2E2E2E2E2E2E2E2E2E2E2E2E2E2E2E2E2E2E2E2E2E2E2E2E2E2E2E2E2E2E2E2E2E2E2E2E2E2E2E2E2E2E2E2E2E2E2E2E2E2E2E2E2E2E2E2E2E2E2E2E2E2E2F5E2E2E2BEE2E2E2E2E2E2E2E2E2E2E2E2E2E2E2E2E2E2E2E2E2E2E2E2E2E2E2E2E2BEE2E2E2BEE2BEBEBEE2E2E2E2E2E2E2E2E2E2BE
310
BEBEBEBEBEBEBEE2E2E2E2E2E2E2E2E2E2E2E2E2E2E2E2E2E2E2E2E2E2E2E2E2E2BEE2E2E2E2E2E2E2E2E2E2E2E2E2E2E2E2E2E2F5E2E2E2E2E2E2E2E2E2E2E2E2E2E2E2E2E2E2E2E2E2E2E2E2E2E2E2E2E2E2E2E2E2E2E2E2E2E2E2E2E2E2E2E2E2E2E2E2E2E2E2E2E2E2E2E2E2E2E2E2E2E2E2E2E2E2E2E2E2E2E2E2E2E2
310
E2E2E2E2E2E2E2E2E2E2E2E2E2E2E2E2E2E2E2E2E2E2E2E2E2E2E2E2E2E2E2E2E2E2E2E2E2E2E2E2E2E2E2E2E2E2E2E2E2E2E2E2E2E2E2E2E2E2E2E2E2E2E2E2E2E2E2E2E2E2E2E2E2E2E2F5E2E2E2BEE2E2E2E2E2E2E2E2E2E2E2E2E2E2E2E2E2E2E2E2E2E2E2E2E2E2E2E2E2BEE2E2E2BEE2BEE2E2BEE2E2E2E2E2E2E2E2
310
E2E2E2E2E2E2E2E2E2E2E2E2E2E2E2E2E2E2E2E2E2E2E2E2E2E2E2E2E2E2E2E2E2E2BEBEE2E2E2E2E2E2E2E2E2E2E2E2E2E2E2E2E2E2F5E2E2E2E2E2E2E2E2E2E2E2E2E2E2E2E2E2E2E2E2E2E2E2E2E2E2E2E2E2E2E2E2E2E2E2E2E2E2E2E2E2E2E2E2E2E2E2E2E2E2E2E2E2E2E2E2E2E2E2E2E2E2E2E2E2E2E2E2E2E2E2E2
310
E2E2E2E2E2E2E2E2E2E2E2E2E2E2E2E2E2E2E2E2E2E2E2E2E2E2E2E2E2E2E2E2E2E2E2E2E2E2E2E2E2E2E2E2E2E2E2E2E2E2E2E2E2E2E2E2E2E2E2E2E2E2E2E2E2E2E2E2E2E2E2E2E2E2E2E2E2F5E2E2E2BEE2E2E2E2E2E2E2E2E2E2E2E2E2E2E2E2E2E2E2E2E2E2E2E2E2E2E2E2E2BEE2E2E2BEBEBEE2E2BEBEE2E2E2E2E2
310
E2E2E2E2E2E2E2E2E2E2E2E2E2E2E2E2E2E2E2E2E2E2E2E2E2E2E2E2E2BEE2E2E2E2E2BEE2E2E2E2E2E2E2E2E2E2E2E2E2E2E2E2E2E2E2E2F5E2E2E2E2E2E2E2E2E2E2E2E2E2E2E2E2E2E2E2E2E2E2E2E2E2E2E2E2E2E2E2E2E2E2E2E2E2E2E2E2E2E2E2E2E2E2E2E2E2E2E2E2E2E2E2E2E2E2E2E2E2E2E2E2E2E2E2E2E2E2
310
E2E2E2E2E2E2E2E2E2E2E2E2E2E2E2E2E2E2E2E2E2E2E2E2E2E2E2E2E2E2E2E2E2E2E2E2E2E2E2E2E2E2E2E2E2E2E2E2E2E2E2E2E2E2E2E2E2E2E2E2E2E2E2E2E2E2E2E2E2E2E2E2E2E2E2E2E2E2E2F5E2E2E2BEE2E2E2E2E2E2E2E2E2E2E2E2E2E2E2E2E2E2E2E2E2E2E2E2E2E2E2E2E2BEE2E2E2BEBEE2E2BEE2BEE2E2E2
310
E2E2E2E2E2E2E2E2E2E2E2E2E2E2E2E2E2E2E2E2E2E2E2E2E2E2E2E2E2E2BEE2BEE2E2E2BEBEE2E2E2E2E2E2E2E2E2E2E2E2E2E2E2E2E2E2E2E2F5E2E2E2E2E2E2E2E2E2E2E2E2E2E2E2E2E2E2E2E2E2E2E2E2E2E2E2E2E2E2E2E2E2E2E2E2E2E2E2E2E2E2E2E2E2E2E2E2E2E2E2E2E2E2E2E2E2E2E2E2E2E2E2E2E2E2E2E2
310
E2E2E2E2E2E2E2E2E2E2E2E2E2E2E2E2E2E2E2E2E2E2E2E2E2E2E2E2E2E2E2E2E2E2E2E2E2E2E2E2E2E2E2E2E2E2E2E2E2E2E2E2E2E2E2E2E2E2E2E2E2E2E2E2E2E2E2E2E2E2E2E2E2E2E2E2E2E2E2E2E2F5E2E2BEBEE2E2E2E2E2E2E2E2E2E2E2E2E2E2E2E2E2E2E2E2E2E2E2E2E2E2E2E2E2BEBEBEE2E2E2BEE2E2BEBEBE
310
E2E2E2E2E2E2E2BEBEBEBEE2E2E2E2E2E2BEBEBEBEE2E2E2E2E2E2E2BEBEBEBEE2BEE2E2BEBEE2E2E2E2E2E2E2E2E2E2E2E2E2E2E2E2E2E2E2E2E2E2F5E2E2E2E2E2E2E2E2E2E2E2E2E2E2E2E2E2E2E2E2E2E2E2E2E2E2E2E2E2E2E2E2E2E2E2E2E2E2E2E2E2E2E2E2E2E2E2E2E2E2E2E2E2E2E2E2E2E2E2E2E2E2E2E2E2E2
310
E2E2E2E2E2E2E2E2E2E2E2E2E2E2E2E2E2E2E2E2E2E2E2E2E2E2E2E2E2E2E2E2E2E2E2E2E2E2E2E2E2E2E2E2E2E2E2E2E2E2E2E2E2E2E2E2E2E2E2E2E2E2E2E2E2E2E2E2E2E2E2E2E2E2E2E2E2E2E2E2E2E2E2F5E2E2BEE2E2E2E2E2E2E2E2E2E2E2E2E2E2E2E2E2E2E2E2E2E2E2E2E2E2E2E2E2E2E2E2BEE2E2E2BEBEE2BE
310
BEBEE2E2E2E2E2E2E2BEBEBEBEE2E2E2E2E2E2BEBEBEBEE2E2E2E2E2E2E2BEBEBEBEBEBEBEBEE2E2E2E2E2E2E2E2E2E2E2E2E2E2E2E2E2E2E2E2E2E2E2E2F5E2E2E2E2E2E2E2E2E2E2E2E2E2E2E2E2E2E2E2E2E2E2E2E2E2E2E2E2E2E2E2E2E2E2E2E2E2E2E2E2E2E2E2E2E2E2E2E2E2E2E2E2E2E2E2E2E2E2E2E2E2E2E2E2
310
E2E2E2E2E2E2E2E2E2E2E2E2E2E2E2E2E2E2E2E2E2E2E2E2E2E2E2E2E2E2E2E2E2E2E2E2E2E2E2E2E2E2E2E2E2E2E2E2E2E2E2E2E2E2E2E2E2E2E2E2E2E2E2E2E2E2E2E2E2E2E2E2E2E2E2E2E2E2E2E2E2E2E2E2E2F5E2E2BEBEBEBEBEBEBEBEBEBEBEBEBEBEBEBEBEBEBEBEBEBEBEBEBEBEBEBEBEBEBEBEBEBEE2E2BEBEBE
310
BEE2E2E2BEBEBEBEBEBEBEBEE2E2BEBEBEBEBEBEBEBEE2E2BEBEBEBEBEBEBEBEBEE2E2E2E2BEE2E2E2E2E2E2E2E2E2E2E2E2E2E2E2E2E2E2E2E2E2E2E2E2E2E2F5E2E2E2E2E2E2E2E2E2E2E2E2E2E2E2E2E2E2E2E2E2E2E2E2E2E2E2E2E2E2E2E2E2E2E2E2E2E2E2E2E2E2E2E2E2E2E2E2E2E2E2E2E2E2E2E2E2E2E2E2E2E2
310
E2E2E2E2E2E2E2E2E2E2E2E2E2E2E2E2E2E2E2E2E2E2E2E2E2E2E2E2E2E2E2E2E2E2E2E2E2E2E2E2E2E2E2E2E2E2E2E2E2E2E2E2E2E2E2E2E2E2E2E2E2E2E2E2E2E2E2E2E2E2E2E2E2E2E2E2E2E2E2E2E2E2E2E2E2E2E2F5E2E2E2E2E2E2E2E2E2E2E2E2E2E2E2E2E2E2BEBEBEBEBEBEBEE2E2E2E2E2E2E2E2E2E2E2E2E2BE
310
E2E2E2E2E2E2E2BEBEE2BEBEE2BEBEBEE2E2BEE2BEBEE2E2E2E2BEE2BEE2BEBEE2E2E2E2E2E2E2BEE2E2E2E2E2E2E2E2E2E2E2E2E2E2E2E2E2E2E2E2E2E2E2E2E2E2F5E2E2E2E2E2E2E2E2E2E2E2E2E2E2E2E2E2E2E2E2E2E2E2E2E2E2E2E2E2E2E2E2E2E2E2E2E2E2E2E2E2E2E2E2E2E2E2E2E2E2E2E2E2E2E2E2E2E2E2E2
310
E2E2E2E2E2E2E2E2E2E2E2E2E2E2E2E2E2E2E2E2E2E2E2E2E2E2E2E2E2E2E2E2E2E2E2E2E2E2E2E2E2E2E2E2E2E2E2E2E2E2E2E2E2E2E2E2E2E2E2E2E2E2E2E2E2E2E2E2E2E2E2E2E2E2E2E2E2E2E2E2E2E2E2E2E2E2E2E2E2F5E2E2E2E2E2E2E2E2E2E2E2E2E2E2E2E2E2BEBEE2E2E2E2E2E2BEBEE2E2E2E2E2E2E2E2E2E2
310
E2E2BEBEE2E2E2E2E2E2BEBEE2E2BEBEBEBEBEE2BEBEE2E2E2E2BEBEBEBEBEBEE2E2E2BEBEE2E2E2BEE2E2E2E2E2E2E2E2E2E2E2E2E2E2E2E2E2E2E2E2E2E2E2E2E2E2E2F5E2E2E2E2E2E2E2E2E2E2E2E2E2E2E2E2E2E2E2E2E2E2E2E2E2E2E2E2E2E2E2E2E2E2E2E2E2E2E2E2E2E2E2E2E2E2E2E2E2E2E2E2E2E2E2E2E2E2
310
E2E2E2E2E2E2E2E2E2E2E2E2E2E2E2E2E2E2E2E2E2E2E2E2E2E2E2E2E2E2E2E2E2E2E2E2E2E2E2E2E2E2E2E2E2E2E2E2E2E2E2E2E2E2E2E2E2E2E2E2E2E2E2E2E2E2E2E2E2E2E2E2E2E2E2E2E2E2E2E2E2E2E2E2E2E2E2E2E2E2E2F5E2E2E2E2E2E2E2E2E2E2E2E2E2E2E2E2E2BEE2E2E2E2E2BEE2E2E2BEBEBEBEBEBEBEBE
310
E2E2E2E2E2E2BEBEBEBEE2E2BEE2E2E2E2E2E2BEBEBEBEBEBEE2E2BEE2BEBEE2BEBEE2E2E2BEE2BEBEBEE2E2E2E2E2E2E2E2E2E2E2E2E2E2E2E2E2E2E2E2E2E2E2E2E2E2E2E2F5E2E2E2E2E2E2E2E2E2E2E2E2E2E2E2E2E2E2E2E2E2E2E2E2E2E2E2E2E2E2E2E2E2E2E2E2E2E2E2E2E2E2E2E2E2E2E2E2E2E2E2E2E2E2E2E2
310
E2E2E2E2E2E2E2E2E2E2E2E2E2E2E2E2E2E2E2E2E2E2E2E2E2E2E2E2E2E2E2E2E2E2E2E2E2E2E2E2E2E2E2E2E2E2E2E2E2E2E2E2E2E2E2E2E2E2E2E2E2E2E2E2E2E2E2E2E2E2E2E2E2E2E2E2E2E2E2E2E2E2E2E2E2E2E2E2E2E2E2E2E2F5E2E2E2E2E2E2E2E2E2E2E2E2E2E2E2E2BEBEE2E2E2BEBEBEBEBEBEE2E2E2E2E2BE
310
E2E2E2E2E2E2E2E2BEBEE2BEE2E2E2E2BEBEE2E2E2BEE2BEE2BEBEBEE2BEE2BEE2E2BEBEBEE2E2BEE2E2E2E2E2E2E2E2E2E2E2E2E2E2E2E2E2E2E2E2E2E2E2E2E2E2E2E2E2E2E2E2F5E2E2E2E2E2E2E2E2E2E2E2E2E2E2E2E2E2E2E2E2E2E2E2E2E2E2E2E2E2E2E2E2E2E2E2E2E2E2E2E2E2E2E2E2E2E2E2E2E2E2E2E2E2E2
310
E2E2E2E2E2E2E2E2E2E2E2E2E2E2E2E2E2E2E2E2E2E2E2E2E2E2E2E2E2E2E2E2E2E2E2E2E2E2E2E2E2E2E2E2E2E2E2E2E2E2E2E2E2E2E2E2E2E2E2E2E2E2E2E2E2E2E2E2E2E2E2E2E2E2E2E2E2E2E2E2E2E2E2E2E2E2E2E2E2E2E2E2E2E2E2F5E2E2E2E2E2E2E2E2E2E2E2E2E2E2E2E2BEE2E2E2E2BEE2E2E2E2BEBEE2E2E2
310
BEE2E2E2E2E2E2E2E2E2E2BEE2BEE2E2E2BEBEE2BEE2E2BEE2BEE2BEE2BEBEBEE2BEE2E2BEE2BEBEBEBEBEE2E2E2E2E2E2E2E2E2E2E2E2E2E2E2E2E2E2E2E2E2E2E2E2E2E2E2E2E2E2E2F5E2E2E2E2E2E2E2E2E2E2E2E2E2E2E2E2E2E2E2E2E2E2E2E2E2E2E2E2E2E2E2E2E2E2E2E2E2E2E2E2E2E2E2E2E2E2E2E2E2E2E2E2
310
E2E2E2E2E2E2E2E2E2E2E2E2E2E2E2E2E2E2E2E2E2E2E2E2E2E2E2E2E2E2E2E2E2E2E2E2E2E2E2E2E2E2E2E2E2E2E2E2E2E2E2E2E2E2E2E2E2E2E2E2E2E2E2E2E2E2E2E2E2E2E2E2E2E2E2E2E2E2E2E2E2E2E2E2E2E2E2E2E2E2E2E2E2E2E2E2E2F5E2E2E2E2E2E2E2E2E2E2E2E2E2E2E2E2BEE2E2E2BEE2E2E2E2E2E2BEBE
310
E2BEE2E2E2E2BEBEE2E2E2BEBEBEBEE2E2BEBEBEE2BEBEE2BEBEBEBEBEBEE2E2BEBEE2E2BEBEBEE2BEBEBEBEBEBEBEE2E2E2E2BEBEBEE2E2E2E2E2E2E2E2E2E2E2E2E2E2E2E2E2E2E2E2E2E2F5E2E2E2E2E2E2E2E2E2E2E2E2E2E2E2E2E2E2E2E2E2E2E2E2E2E2E2E2E2E2E2E2E2E2E2E2E2E2E2E2E2E2E2E2E2E2E2E2E2E2
310
E2E2E2E2E2E2E2E2E2E2E2E2E2E2E2E2E2E2E2E2E2E2E2E2E2E2E2E2E2E2E2E2E2E2E2E2E2E2E2E2E2E2E2E2E2E2E2E2E2E2E2E2E2E2E2E2E2E2E2E2E2E2E2E2E2E2E2E2E2E2E2E2E2E2E2E2E2E2E2E2E2E2E2E2E2E2E2E2E2E2E2E2E2E2E2E2E2E2E2F5E2E2E2E2E2E2E2E2E2E2E2E2E2E2E2E2BEBEE2E2BEBEBEE2E2E2E2
310
E2BEBEE2E2E2E2BEE2E2BEE2E2BEE2BEE2E2BEBEBEBEE2BEBEBEBEBEBEE2BEE2E2BEE2BEBEE2E2BEBEE2BEBEBEBEE2E2BEBEE2E2E2BEE2E2BEE2E2E2E2E2E2E2E2E2E2E2E2E2E2E2E2E2E2E2E2E2F5E2E2E2E2E2E2E2E2E2E2E2E2E2E2E2E2E2E2E2E2E2E2E2E2E2E2E2E2E2E2E2E2E2E2E2E2E2E2E2E2E2E2E2E2E2E2E2E2
310
E2E2E2E2E2E2E2E2E2E2E2E2E2E2E2E2E2E2E2E2E2E2E2E2E2E2E2E2E2E2E2E2E2E2E2E2E2E2E2E2E2E2E2E2E2E2E2E2E2E2E2E2E2E2E2E2E2E2E2E2E2E2E2E2E2E2E2E2E2E2E2E2E2E2E2E2E2E2E2E2E2E2E2E2E2E2E2E2E2E2E2E2E2E2E2E2E2E2E2E2E2F5E2E2E2E2E2E2E2E2E2E2E2E2E2E2E2E2E2BEE2E2E2E2BEE2E2
310
E2E2E2E2E2E2E2E2BEBEE2E2BEE2BEBEE2E2E2BEBEBEE2BEE2E2E2E2BEBEE2BEBEBEBEE2BEBEBEBEBEE2E2E2BEBEBEE2BEE2E2BEBEBEBEE2E2E2BEE2E2E2E2E2E2E2BEBEBEBEE2E2E2E2E2E2E2E2E2E2F5E2E2E2E2E2E2E2E2E2E2E2E2E2E2E2E2E2E2E2E2E2E2E2E2E2E2E2E2E2E2E2E2E2E2E2E2E2E2E2E2E2E2E2E2E2E2
310
E2E2E2E2E2E2E2E2E2E2E2E2E2E2E2E2E2E2E2E2E2E2E2E2E2E2E2E2E2E2E2E2E2E2E2E2E2E2E2E2E2E2E2E2E2E2E2E2E2E2E2E2E2E2E2E2E2E2E2E2E2E2E2E2E2E2E2E2E2E2E2E2E2E2E2E2E2E2E2E2E2E2E2E2E2E2E2E2E2E2E2E2E2E2E2E2E2E2E2E2E2E2E2F5E2E2E2E2E2E2E2E2E2E2E2E2E2E2E2E2E2BEBEE2E2E2E2
310
BEE2E2E2E2E2E2E2E2BEBEBEBEE2BEBEE2E2E2BEBEE2E2BEE2E2BEBEBEBEBEE2BEBEE2BEBEBEBEBEBEE2BEBEBEBEBEBEE2BEE2BEE2E2E2E2E2E2E2BEBEBEBEBEBEE2BEBEBEE2E2E2BEE2E2E2E2E2E2E2E2E2F5E2E2E2E2E2E2E2E2E2E2E2E2E2E2E2E2E2E2E2E2E2E2E2E2E2E2E2E2E2E2E2E2E2E2E2E2E2E2E2E2E2E2E2E2
310
E2E2E2E2E2E2E2E2E2E2E2E2E2E2E2E2E2E2E2E2E2E2E2E2E2E2E2E2E2E2E2E2E2E2E2E2E2E2E2E2E2E2E2E2E2E2E2E2E2E2E2E2E2E2E2E2E2E2E2E2E2E2E2E2E2E2E2E2E2E2E2E2E2E2E2E2E2E2E2E2E2E2E2E2E2E2E2E2E2E2E2E2E2E2E2E2E2E2E2E2E2E2E2E2E2F5E2E2E2E2E2E2E2E2E2E2E2E2E2E2E2E2E2E2BEBEE2
310
E2E2BEBEBEBEBEBEBEBEBEBEE2BEBEBEE2E2E2E2BEBEBEBEBEBEBEE2E2E2E2E2E2BEBEBEBEBEBEBEBEBEBEBEBEE2E2E2E2E2BEBEBEBEBEBEE2E2E2E2E2E2E2E2E2E2E2BEE2E2E2E2E2E2BEBEE2E2E2E2E2E2E2E2F5E2E2E2E2E2E2E2E2E2E2E2E2E2E2E2E2E2E2E2E2E2E2E2E2E2E2E2E2E2E2E2E2E2E2E2E2E2E2E2E2E2E2
310
E2E2E2E2E2E2E2E2E2E2E2E2E2E2E2E2E2E2E2E2E2E2E2E2E2E2E2E2E2E2E2E2E2E2E2E2E2E2E2E2E2E2E2E2E2E2E2E2E2E2E2E2E2E2E2E2E2E2E2E2E2E2E2E2E2E2E2E2E2E2E2E2E2E2E2E2E2E2E2E2E2E2E2E2E2E2E2E2E2E2E2E2E2E2E2E2E2E2E2E2E2E2E2E2E2E2E2F5E2E2E2E2E2E2E2E2E2E2E2E2E2E2E2E2E2E2E2
310
BEBEBEBEBEBEBEBEBEBEBEBEBEBEBEBEBEBEBEBEBEBEBEBEBEBEBEBEBEBEBEBEBEBEBEBEBEBEBEBEBEBEBEBEBEBEBEBEBEBEBEBEBEBEBEBEBEBEBEBEBEBEBEBEBEBEBEBEBEBEBEBEBEBEBEBEBEBEE2E2E2E2E2E2E2E2F5E2E2E2E2E2E2E2E2E2E2E2E2E2E2E2E2E2E2E2E2E2E2E2E2E2E2E2E2E2E2E2E2E2E2E2E2E2E2E2E2
310
E2E2E2E2E2E2E2E2E2E2E2E2E2E2E2E2E2E2E2E2E2E2E2E2E2E2E2E2E2E2E2E2E2E2E2E2E2E2E2E2E2E2E2E2E2E2E2E2E2E2E2E2E2E2E2E2E2E2E2E2E2E2E2E2E2E2E2E2E2E2E2E2E2E2E2E2E2E2E2E2E2E2E2E2E2E2E2E2E2E2E2E2E2E2E2E2E2E2E2E2E2E2E2E2E2E2E2E2E2F5E2E2E2E2E2E2E2E2E2E2E2E2E2E2E2E2E2
310
E2E2BEBEBEBEBEBEBEBEBEBEBEBEBEBEBEBEBEBEBEBEBEBEBEBEBEBEBEBEBEBEBEBEBEBEBEBEBEBEBEBEBEBEBEBEBEBEBEBEBEBEBEBEBEBEBEBEBEBEBEBEBEBEBEBEBEBEBEBEBEBEBEBEBEBEBEBEBEBEE2E2E2E2E2E2E2E2F5E2E2E2E2E2E2E2E2E2E2E2E2E2E2E2E2E2E2E2E2E2E2E2E2E2E2E2E2E2E2E2E2E2E2E2E2E2E2
310
E2E2E2E2E2E2E2E2E2E2E2E2E2E2E2E2E2E2E2E2E2E2E2E2E2E2E2E2E2E2E2E2E2E2E2E2E2E2E2E2E2E2E2E2E2E2E2E2E2E2E2E2E2E2E2E2E2E2E2E2E2E2E2E2E2E2E2E2E2E2E2E2E2E2E2E2E2E2E2E2E2E2E2E2E2E2E2E2E2E2E2E2E2E2E2E2E2E2E2E2E2E2E2E2E2E2E2E2E2E2E2F5E2E2E2E2E2E2E2E2E2E2E2E2E2E2E2
310
E2E2E2BEBEE2E2E2BEBEBEBEBEBEBEBEBEBEE2BEBEBEE2E2E2E2BEBEBEBEBEBEBEE2E2E2E2E2E2BEBEBEBEBEBEBEBEBEBEBEBEE2E2E2E2E2BEBEBEBEBEBEE2E2E2E2E2E2E2E2E2E2E2BEBEE2E2E2E2E2BEBEE2E2E2E2E2E2E2E2F5E2E2E2E2E2E2E2E2E2E2E2E2E2E2E2E2E2E2E2E2E2E2E2E2E2E2E2E2E2E2E2E2E2E2E2E2
310
E2E2E2E2E2E2E2E2E2E2E2E2E2E2E2E2E2E2E2E2E2E2E2E2E2E2E2E2E2E2E2E2E2E2E2E2E2E2E2E2E2E2E2E2E2E2E2E2E2E2E2E2E2E2E2E2E2E2E2E2E2E2E2E2E2E2E2E2E2E2E2E2E2E2E2E2E2E2E2E2E2E2E2E2E2E2E2E2E2E2E2E2E2E2E2E2E2E2E2E2E2E2E2E2E2E2E2E2E2E2E2E2E2F5E2E2E2E2E2E2E2E2E2E2E2E2E2
310
E2E2E2E2BEBEE2E2E2E2BEE2E2E2E2E2E2E2E2BEBEBEBEE2BEBEBEE2E2BEBEE2E2BEE2BEBEBEBEBEBEE2BEBEE2BEBEBEBEBEBEE2BEBEBEBEBEBEE2BEE2BEE2E2E2E2E2E2E2BEBEBEBEBEBEE2E2BEBEE2E2E2BEE2E2E2E2E2E2E2E2E2F5E2E2E2E2E2E2E2E2E2E2E2E2E2E2E2E2E2E2E2E2E2E2E2E2E2E2E2E2E2E2E2E2E2E2
310
E2E2E2E2E2E2E2E2E2E2E2E2E2E2E2E2E2E2E2E2E2E2E2E2E2E2E2E2E2E2E2E2E2E2E2E2E2E2E2E2E2E2E2E2E2E2E2E2E2E2E2E2E2E2E2E2E2E2E2E2E2E2E2E2E2E2E2E2E2E2E2E2E2E2E2E2E2E2E2E2E2E2E2E2E2E2E2E2E2E2E2E2E2E2E2E2E2E2E2E2E2E2E2E2E2E2E2E2E2E2E2E2E2E2E2F5E2E2E2E2E2E2E2E2E2E2E2
310
E2E2E2E2E2E2BEE2E2BEE2BEE2E2E2E2E2E2E2E2E2E2BEBEE2E2BEE2BEBEE2E2E2BEBEBEE2BEE2E2E2E2BEBEE2BEBEBEBEE2BEBEBEBEBEE2E2E2BEBEBEE2BEE2E2BEBEBEBEBEE2E2BEE2E2E2E2E2E2E2BEBEBEBEE2E2E2E2E2E2E2E2E2E2F5E2E2E2E2E2E2E2E2E2E2E2E2E2E2E2E2E2E2E2E2E2E2E2E2E2E2E2E2E2E2E2E2
310
E2E2E2E2E2E2E2E2E2E2E2E2E2E2E2E2E2E2E2E2E2E2E2E2E2E2E2E2E2E2E2E2E2E2E2E2E2E2E2E2E2E2E2E2E2E2E2E2E2E2E2E2E2E2E2E2E2E2E2E2E2E2E2E2E2E2E2E2E2E2E2E2E2E2E2E2E2E2E2E2E2E2E2E2E2E2E2E2E2E2E2E2E2E2E2E2E2E2E2E2E2E2E2E2E2E2E2E2E2E2E2E2E2E2E2E2E2F5E2E2E2E2E2E2E2E2E2
310
E2E2E2E2E2E2E2BEBEE2E2BEBEBEE2E2E2E2E2BEBEBEE2E2E2BEE2E2BEE2E2BEE2BEE2E2BEBEBEBEE2BEBEBEBEE2BEE2BEE2E2BEE2BEBEE2E2BEBEE2BEBEE2BEE2E2BEBEE2E2E2BEE2E2BEE2E2E2E2E2E2E2E2E2E2E2E2E2E2E2E2E2E2E2E2E2F5E2E2E2E2E2E2E2E2E2E2E2E2E2E2E2E2E2E2E2E2E2E2E2E2E2E2E2E2E2E2
310
E2E2E2E2E2E2E2E2E2E2E2E2E2E2E2E2E2E2E2E2E2E2E2E2E2E2E2E2E2E2E2E2E2E2E2E2E2E2E2E2E2E2E2E2E2E2E2E2E2E2E2E2E2E2E2E2E2E2E2E2E2E2E2E2E2E2E2E2E2E2E2E2E2E2E2E2E2E2E2E2E2E2E2E2E2E2E2E2E2E2E2E2E2E2E2E2E2E2E2E2E2E2E2E2E2E2E2E2E2E2E2E2E2E2E2E2E2E2E2F5E2E2E2E2E2E2E2
310
E2E2E2E2E2E2E2E2E2BEE2E2E2BEE2E2E2E2E2E2BEBEE2BEE2E2E2E2BEBEE2E2E2BEBEBEBEE2E2BEBEBEE2BEBEE2BEBEBEBEBEBEE2E2BEBEE2BEBEBEBEE2BEBEBEBEBEBEBEE2E2E2E2BEBEBEE2E2E2E2E2E2E2E2E2E2E2E2E2E2E2E2E2E2E2E2E2E2F5E2E2E2E2E2E2E2E2E2E2E2E2E2E2E2E2E2E2E2E2E2E2E2E2E2E2E2E2
310
E2E2E2E2E2E2E2E2E2E2E2E2E2E2E2E2E2E2E2E2E2E2E2E2E2E2E2E2E2E2E2E2E2E2E2E2E2E2E2E2E2E2E2E2E2E2E2E2E2E2E2E2E2E2E2E2E2E2E2E2E2E2E2E2E2E2E2E2E2E2E2E2E2E2E2E2E2E2E2E2E2E2E2E2E2E2E2E2E2E2E2E2E2E2E2E2E2E2E2E2E2E2E2E2E2E2E2E2E2E2E2E2E2E2E2E2E2E2E2E2E2F5E2E2E2E2E2
310
E2E2E2E2E2E2E2E2E2E2E2BEE2E2E2E2BEE2E2E2E2BEBEE2E2E2BEE2E2E2E2E2E2E2E2E2E2BEE2BEE2E2E2BEBEE2BEE2E2BEE2BEE2BEE2BEBEBEE2BEE2E2BEE2BEBEBEBEBEE2E2E2E2E2E2E2E2E2E2E2E2E2E2E2E2E2E2E2E2E2E2E2E2E2E2E2E2E2E2E2F5E2E2E2E2E2E2E2E2E2E2E2E2E2E2E2E2E2E2E2E2E2E2E2E2E2E2
310
E2E2E2E2E2E2E2E2E2E2E2E2E2E2E2E2E2E2E2E2E2E2E2E2E2E2E2E2E2E2E2E2E2E2E2E2E2E2E2E2E2E2E2E2E2E2E2E2E2E2E2E2E2E2E2E2E2E2E2E2E2E2E2E2E2E2E2E2E2E2E2E2E2E2E2E2E2E2E2E2E2E2E2E2E2E2E2E2E2E2E2E2E2E2E2E2E2E2E2E2E2E2E2E2E2E2E2E2E2E2E2E2E2E2E2E2E2E2E2E2E2E2E2F5E2E2E2
310
E2E2E2E2E2E2E2E2E2E2E2E2E2BEBEE2E2E2BEBEBEBEBEBEE2E2E2BEBEBEE2E2E2E2E2E2E2E2BEBEE2BEE2E2E2E2BEBEE2E2E2BEE2BEE2BEBEBEE2BEE2BEE2E2BEBEBEE2E2BEE2E2E2E2E2E2E2E2E2E2E2E2E2E2E2E2E2E2E2E2E2E2E2E2E2E2E2E2E2E2E2E2F5E2E2E2E2E2E2E2E2E2E2E2E2E2E2E2E2E2E2E2E2E2E2E2E2
310
E2E2E2E2E2E2E2E2E2E2E2E2E2E2E2E2E2E2E2E2E2E2E2E2E2E2E2E2E2E2E2E2E2E2E2E2E2E2E2E2E2E2E2E2E2E2E2E2E2E2E2E2E2E2E2E2E2E2E2E2E2E2E2E2E2E2E2E2E2E2E2E2E2E2E2E2E2E2E2E2E2E2E2E2E2E2E2E2E2E2E2E2E2E2E2E2E2E2E2E2E2E2E2E2E2E2E2E2E2E2E2E2E2E2E2E2E2E2E2E2E2E2E2E2E2F5E2
310
E2E2E2E2E2E2E2E2E2E2E2E2E2E2E2E2BEE2E2E2E2E2E2E2E2E2BEBEBEE2BEBEBEBEE2E2E2E2E2BEBEBEBEBEE2E2BEE2E2E2E2E2BEBEBEBEBEE2E2E2E2BEE2BEBEE2BEBEE2E2E2BEE2BEBEBEE2E2E2E2E2E2E2E2E2E2E2E2E2E2E2E2E2E2E2E2E2E2E2E2E2E2E2E2F5E2E2E2E2E2E2E2E2E2E2E2E2E2E2E2E2E2E2E2E2E2E2
310
E2E2E2E2E2E2E2E2E2E2E2E2E2E2E2E2E2E2E2E2E2E2E2E2E2E2E2E2E2E2E2E2E2E2E2E2E2E2E2E2E2E2E2E2E2E2E2E2E2E2E2E2E2E2E2E2E2E2E2E2E2E2E2E2E2E2E2E2E2E2E2E2E2E2E2E2E2E2E2E2E2E2E2E2E2E2E2E2E2E2E2E2E2E2E2E2E2E2E2E2E2E2E2E2E2E2E2E2E2E2E2E2E2E2E2E2E2E2E2E2E2E2E2E2E2E2E2
310
F5E2E2E2E2E2E2E2E2E2E2E2E2E2E2E2E2E2E2BEE2E2E2E2E2E2BEBEE2E2E2E2E2E2E2E2E2E2E2E2BEBEE2E2E2E2E2E2BEBEE2E2BEBEBEBEBEE2BEBEE2E2E2E2BEBEBEBEBEBEE2E2E2BEBEE2E2E2BEBEE2E2E2E2E2E2E2E2E2E2E2E2E2E2E2E2E2E2E2E2E2E2E2E2E2E2F5E2E2E2E2E2E2E2E2E2E2E2E2E2E2E2E2E2E2E2E2
310
E2E2E2E2E2E2E2E2E2E2E2E2E2E2E2E2E2E2E2E2E2E2E2E2E2E2E2E2E2E2E2E2E2E2E2E2E2E2E2E2E2E2E2E2E2E2E2E2E2E2E2E2E2E2E2E2E2E2E2E2E2E2E2E2E2E2E2E2E2E2E2E2E2E2E2E2E2E2E2E2E2E2E2E2E2E2E2E2E2E2E2E2E2E2E2E2E2E2E2E2E2E2E2E2E2E2E2E2E2E2E2E2E2E2E2E2E2E2E2E2E2E2E2E2E2E2E2
310
E2E2F5E2E2E2E2E2E2E2E2E2E2E2E2E2E2E2E2E2E2E2BEBEBEBEBEBEE2E2E2E2E2E2E2E2E2E2E2E2E2BEE2E2E2E2E2E2E2BEBEE2BEBEE2BEBEE2E2E2BEE2BEBEE2E2E2E2E2E2BEE2BEBEE2E2E2E2E2E2E2BEE2E2E2E2E2E2E2E2E2E2E2E2E2E2E2E2E2E2E2E2E2E2E2E2E2E2F5E2E2E2E2E2E2E2E2E2E2E2E2E2E2E2E2E2E2
310
E2E2E2E2E2E2E2E2E2E2E2E2E2E2E2E2E2E2E2E2E2E2E2E2E2E2E2E2E2E2E2E2E2E2E2E2E2E2E2E2E2E2E2E2E2E2E2E2E2E2E2E2E2E2E2E2E2E2E2E2E2E2E2E2E2E2E2E2E2E2E2E2E2E2E2E2E2E2E2E2E2E2E2E2E2E2E2E2E2E2E2E2E2E2E2E2E2E2E2E2E2E2E2E2E2E2E2E2E2E2E2E2E2E2E2E2E2E2E2E2E2E2E2E2E2E2E2
310
E2E2E2E2F5E2E2E2E2E2E2E2E2E2E2E2E2E2E2E2E2E2E2E2E2E2E2E2E2E2E2E2E2E2E2E2E2E2E2E2E2E2E2BEBEBEBEBEBEBEBEBEBEBEBEBEBEBEBEBEBEBEBEBEBEBEBEBEBEBEBEBEBEBEBEBEBEBEBEBEBEBEE2BEE2E2E2E2E2E2E2E2E2E2E2E2E2E2E2E2E2E2E2E2E2E2E2E2E2E2F5E2E2E2E2E2E2E2E2E2E2E2E2E2E2E2E2
310
E2E2E2E2E2E2E2E2E2E2E2E2E2E2E2E2E2E2E2E2E2E2E2E2E2E2E2E2E2E2E2E2E2E2E2E2E2E2E2E2E2E2E2E2E2E2E2E2E2E2E2E2E2E2E2E2E2E2E2E2E2E2E2E2E2E2E2E2E2E2E2E2E2E2E2E2E2E2E2E2E2E2E2E2E2E2E2E2E2E2E2E2E2E2E2E2E2E2E2E2E2E2E2E2E2E2E2E2E2E2E2E2E2E2E2E2E2E2E2E2E2E2E2E2E2E2E2
310
E2E2E2E2E2E2F5E2E2BEBEBEBEBEBEBEBEBEBEBEBEBEBEBEBEBEBEBEBEBEBEBEBEBEBEBEBEBEBEBEBEBEE2E2E2E2BEBEE2BEE2BEE2E2E2E2E2E2E2BEE2E2BEE2E2E2E2E2E2BEE2E2BEE2E2E2E2E2E2E2BEE2E2BEBEBEBEBEE2E2E2E2E2E2E2E2E2E2E2E2E2E2E2E2E2E2E2E2E2E2E2E2F5E2E2E2E2E2E2E2E2E2E2E2E2E2E2
310
E2E2E2E2E2E2E2E2E2E2E2E2E2E2E2E2E2E2E2E2E2E2E2E2E2E2E2E2E2E2E2E2E2E2E2E2E2E2E2E2E2E2E2E2E2E2E2E2E2E2E2E2E2E2E2E2E2E2E2E2E2E2E2E2E2E2E2E2E2E2E2E2E2E2E2E2E2E2E2E2E2E2E2E2E2E2E2E2E2E2E2E2E2E2E2E2E2E2E2E2E2E2E2E2E2E2E2E2E2E2E2E2E2E2E2E2E2E2E2E2E2E2E2E2E2E2E2
310
E2E2E2E2E2E2E2E2F5E2E2BEE2E2E2E2E2E2E2E2E2E2E2E2E2E2E2E2E2E2E2E2E2E2E2E2E2E2E2E2E2E2E2BEE2E2E2E2BEE2E2BEBEBEE2E2E2E2E2E2E2BEBEBEBEE2E2E2E2E2E2BEBEBEBEE2E2E2E2E2E2E2BEBEBEBEE2BEE2E2BEBEE2E2E2E2E2E2E2E2E2E2E2E2E2E2E2E2E2E2E2E2E2E2F5E2E2E2E2E2E2E2E2E2E2E2E2
310
E2E2E2E2E2E2E2E2E2E2E2E2E2E2E2E2E2E2E2E2E2E2E2E2E2E2E2E2E2E2E2E2E2E2E2E2E2E2E2E2E2E2E2E2E2E2E2E2E2E2E2E2E2E2E2E2E2E2E2E2E2E2E2E2E2E2E2E2E2E2E2E2E2E2E2E2E2E2E2E2E2E2E2E2E2E2E2E2E2E2E2E2E2E2E2E2E2E2E2E2E2E2E2E2E2E2E2E2E2E2E2E2E2E2E2E2E2E2E2E2E2E2E2E2E2E2E2
310
E2E2E2E2E2E2E2E2E2E2F5E2E2BEBEE2E2E2E2E2E2E2E2E2E2E2E2E2E2E2E2E2E2E2E2E2E2E2E2E2E2E2E2E2BEBEE2E2BEBEE2E2BEE2BEE2E2E2E2E2E2E2E2E2E2E2E2E2E2E2E2E2E2E2E2E2E2E2E2E2E2E2E2E2E2E2E2E2BEE2BEE2E2E2BEBEE2E2E2E2E2E2E2E2E2E2E2E2E2E2E2E2E2E2E2E2F5E2E2E2E2E2E2E2E2E2E2
310
E2E2E2E2E2E2E2E2E2E2E2E2E2E2E2E2E2E2E2E2E2E2E2E2E2E2E2E2E2E2E2E2E2E2E2E2E2E2E2E2E2E2E2E2E2E2E2E2E2E2E2E2E2E2E2E2E2E2E2E2E2E2E2E2E2E2E2E2E2E2E2E2E2E2E2E2E2E2E2E2E2E2E2E2E2E2E2E2E2E2E2E2E2E2E2E2E2E2E2E2E2E2E2E2E2E2E2E2E2E2E2E2E2E2E2E2E2E2E2E2E2E2E2E2E2E2E2
310
E2E2E2E2E2E2E2E2E2E2E2E2F5E2E2E2BEE2E2E2E2E2E2E2E2E2E2E2E2E2E2E2E2E2E2E2E2E2E2E2E2E2E2E2E2E2BEE2E2E2BEBEBEE2E2BEBEE2E2E2E2E2E2E2E2E2E2E2E2E2E2E2E2E2E2E2E2E2E2E2E2E2E2E2E2E2E2E2E2E2E2BEE2E2E2E2E2BEE2E2E2E2E2E2E2E2E2E2E2E2E2E2E2E2E2E2E2E2F5E2E2E2E2E2E2E2E2
310
E2E2E2E2E2E2E2E2E2E2E2E2E2E2E2E2E2E2E2E2E2E2E2E2E2E2E2E2E2E2E2E2E2E2E2E2E2E2E2E2E2E2E2E2E2E2E2E2E2E2E2E2E2E2E2E2E2E2E2E2E2E2E2E2E2E2E2E2E2E2E2E2E2E2E2E2E2E2E2E2E2E2E2E2E2E2E2E2E2E2E2E2E2E2E2E2E2E2E2E2E2E2E2E2E2E2E2E2E2E2E2E2E2E2E2E2E2E2E2E2E2E2E2E2E2E2E2
310
E2E2E2E2E2E2E2E2E2E2E2E2E2E2F5E2E2E2BEE2E2E2E2E2E2E2E2E2E2E2E2E2E2E2E2E2E2E2E2E2E2E2E2E2E2E2E2E2BEE2E2E2BEE2BEE2E2BEE2E2E2E2E2E2E2E2E2E2E2E2E2E2E2E2E2E2E2E2E2E2E2E2E2E2E2E2E2E2E2E2E2E2E2E2E2E2E2E2E2E2BEBEE2E2E2E2E2E2E2E2E2E2E2E2E2E2E2E2E2E2F5E2E2E2E2E2E2
310
E2E2E2E2E2E2E2E2E2E2E2E2E2E2E2E2E2E2E2E2E2E2E2E2E2E2E2E2E2E2E2E2E2E2E2E2E2E2E2E2E2E2E2E2E2E2E2E2E2E2E2E2E2E2E2E2E2E2E2E2E2E2E2E2E2E2E2E2E2E2E2E2E2E2E2E2E2E2E2E2E2E2E2E2E2E2E2E2E2E2E2E2E2E2E2E2E2E2E2E2E2E2E2E2E2E2E2E2E2E2E2E2E2E2E2E2E2E2E2E2E2E2E2E2E2E2E2
310
E2E2E2E2E2E2E2E2E2E2E2E2E2E2E2E2F5E2E2E2BEE2E2E2E2E2E2E2E2E2E2E2E2E2E2E2E2E2E2E2E2E2E2E2E2E2E2E2E2E2BEE2E2E2BEE2BEBEBEE2E2E2E2E2E2E2E2E2E2BEBEBEBEBEBEBEE2E2E2E2E2E2E2E2E2E2E2E2E2E2E2E2E2E2E2E2E2E2E2E2E2E2E2BEE2E2E2E2E2E2E2E2E2E2E2E2E2E2E2E2E2E2F5E2E2E2E2
310
E2E2E2E2E2E2E2E2E2E2E2E2E2E2E2E2E2E2E2E2E2E2E2E2E2E2E2E2E2E2E2E2E2E2E2E2E2E2E2E2E2E2E2E2E2E2E2E2E2E2E2E2E2E2E2E2E2E2E2E2E2E2E2E2E2E2E2E2E2E2E2E2E2E2E2E2E2E2E2E2E2E2E2E2E2E2E2E2E2E2E2E2E2E2E2E2E2E2E2E2E2E2E2E2E2E2E2E2E2E2E2E2E2E2E2E2E2E2E2E2E2E2E2E2E2E2E2
310
E2E2E2E2E2E2E2E2E2E2E2E2E2E2E2E2E2E2F5E2E2E2BEE2E2E2E2E2E2E2E2E2E2E2E2E2E2E2E2E2E2E2E2E2E2E2E2E2E2E2E2E2BEE2E2BEE2E2E2BEBEBEE2E2E2E2E2E2E2BEBEE2BEBEBEBEBEBEBEBEBEE2E2E2E2E2E2E2E2E2E2E2E2E2E2E2E2E2E2E2E2E2E2E2E2E2BEE2E2E2E2E2E2E2E2E2E2E2E2E2E2E2E2E2F5E2E2
310
E2E2E2E2E2E2E2E2E2E2E2E2E2E2E2E2E2E2E2E2E2E2E2E2E2E2E2E2E2E2E2E2E2E2E2E2E2E2E2E2E2E2E2E2E2E2E2E2E2E2E2E2E2E2E2E2E2E2E2E2E2E2E2E2E2E2E2E2E2E2E2E2E2E2E2E2E2E2E2E2E2E2E2E2E2E2E2E2E2E2E2E2E2E2E2E2E2E2E2E2E2E2E2E2E2E2E2E2E2E2E2E2E2E2E2E2E2E2E2E2E2E2E2E2E2E2E2
310
E2E2E2E2E2E2E2E2E2E2E2E2E2E2E2E2E2E2E2E2F5E2E2BEBEE2E2E2E2E2E2E2E2E2E2E2E2E2E2E2E2E2E2E2E2E2E2E2E2E2E2E2E2E2BEBEE2BEE2E2E2E2BEE2BEE2E2E2E2E2BEBEBEBEBEBEBEBEBEE2BEBEE2BEE2E2E2E2E2E2E2E2E2E2E2E2E2E2E2E2E2E2BEBEE2E2E2E2E2BEE2E2E2E2E2E2E2E2E2E2E2E2E2E2E2E2F5
310
E2E2E2E2E2E2E2E2E2E2E2E2E2E2E2E2E2E2E2E2E2E2E2E2E2E2E2E2E2E2E2E2E2E2E2E2E2E2E2E2E2E2E2E2E2E2E2E2E2E2E2E2E2E2E2E2E2E2E2E2E2E2E2E2E2E2E2E2E2E2E2E2E2E2E2E2E2E2E2E2E2E2E2E2E2E2E2E2E2E2E2E2E2E2E2E2E2E2E2E2E2E2E2E2E2E2E2E2E2E2E2E2E2E2E2E2E2E2E2E2E2E2E2E2E2E2E2
310
E2E2E2E2E2E2E2E2E2E2E2E2E2E2E2E2E2E2E2E2E2E2F5E2E2BEE2E2E2E2E2E2E2E2E2E2E2E2E2E2E2E2E2E2E2E2E2E2E2E2E2E2E2E2E2E2E2BEE2BEE2E2BEBEBEE2E2BEBEE2E2E2BEBEBEBEBEE2E2E2BEBEBEE2BEE2BEE2E2E2E2E2E2E2E2E2E2E2E2E2E2E2E2E2E2BEBEE2E2E2E2BEE2E2E2E2E2E2E2E2E2E2E2E2E2E2E2
310
E2F5E2E2E2E2E2E2E2E2E2E2E2E2E2E2E2E2E2E2E2E2E2E2E2E2E2E2E2E2E2E2E2E2E2E2E2E2E2E2E2E2E2E2E2E2E2E2E2E2E2E2E2E2E2E2E2E2E2E2E2E2E2E2E2E2E2E2E2E2E2E2E2E2E2E2E2E2E2E2E2E2E2E2E2E2E2E2E2E2E2E2E2E2E2E2E2E2E2E2E2E2E2E2E2E2E2E2E2E2E2E2E2E2E2E2E2E2E2E2E2E2E2E2E2E2E2
310
E2E2E2E2E2E2E2E2E2E2E2E2E2E2E2E2E2E2E2E2E2E2E2E2F5E2E2BEBEE2E2E2E2E2E2E2E2E2E2E2E2E2E2E2E2E2E2E2E2E2E2E2E2E2E2E2E2E2BEBEE2BEE2E2BEE2E2E2E2BEBEBEE2BEBEE2BEE2E2E2E2E2E2E2E2BEBEBEBEBEBEE2E2E2E2E2E2E2E2E2E2E2E2E2E2E2E2BEE2E2E2E2E2E2BEE2E2E2E2E2E2E2E2E2E2E2E2
310
E2E2E2F5E2E2E2E2E2E2E2E2E2E2E2E2E2E2E2E2E2E2E2E2E2E2E2E2E2E2E2E2E2E2E2E2E2E2E2E2E2E2E2E2E2E2E2E2E2E2E2E2E2E2E2E2E2E2E2E2E2E2E2E2E2E2E2E2E2E2E2E2E2E2E2E2E2E2E2E2E2E2E2E2E2E2E2E2E2E2E2E2E2E2E2E2E2E2E2E2E2E2E2E2E2E2E2E2E2E2E2E2E2E2E2E2E2E2E2E2E2E2E2E2E2E2E2
310
E2E2E2E2E2E2E2E2E2E2E2E2E2E2E2E2E2E2E2E2E2E2E2E2E2E2F5E2E2E2BEE2E2E2E2E2E2E2E2E2E2E2E2E2E2E2E2E2E2E2E2E2E2E2E2E2E2E2E2E2BEE2E2BEE2E2BEBEE2E2E2BEBEBEBEBEE2BEE2E2E2E2E2E2E2E2E2E2E2BEBEBEBEBEBEE2E2E2E2BEBEBEBEE2E2E2E2E2E2E2E2E2E2E2E2E2BEE2E2E2E2E2E2E2E2E2E2
310
E2E2E2E2E2F5E2E2E2E2E2E2E2E2E2E2E2E2E2E2E2E2E2E2E2E2E2E2E2E2E2E2E2E2E2E2E2E2E2E2E2E2E2E2E2E2E2E2E2E2E2E2E2E2E2E2E2E2E2E2E2E2E2E2E2E2E2E2E2E2E2E2E2E2E2E2E2E2E2E2E2E2E2E2E2E2E2E2E2E2E2E2E2E2E2E2E2E2E2E2E2E2E2E2E2E2E2E2E2E2E2E2E2E2E2E2E2E2E2E2E2E2E2E2E2E2E2
310
E2E2E2E2E2E2E2E2E2E2E2E2E2E2E2E2E2E2E2E2E2E2E2E2E2E2E2E2F5E2E2E2BEE2E2E2E2E2E2E2E2E2E2E2E2E2E2E2E2E2E2E2E2E2E2E2E2E2E2E2E2E2BEE2E2BEE2E2E2BEBEBEBEBEE2E2BEE2BEE2E2E2E2E2E2E2E2E2E2E2E2E2E2BEBEBEBEBEE2E2BEBEBEE2BEBEBEE2E2E2E2E2E2E2E2E2E2E2BEE2E2E2E2E2E2E2E2
310
E2E2E2E2E2E2E2F5E2E2E2E2E2E2E2E2E2E2E2E2E2E2E2E2E2E2E2E2E2E2E2E2E2E2E2E2E2E2E2E2E2E2E2E2E2E2E2E2E2E2E2E2E2E2E2E2E2E2E2E2E2E2E2E2E2E2E2E2E2E2E2E2E2E2E2E2E2E2E2E2E2E2E2E2E2E2E2E2E2E2E2E2E2E2E2E2E2E2E2E2E2E2E2E2E2E2E2E2E2E2E2E2E2E2E2E2E2E2E2E2E2E2E2E2E2E2E2
310
E2E2E2E2E2E2E2E2E2E2E2E2E2E2E2E2E2E2E2E2E2E2E2E2E2E2E2E2E2E2F5E2E2E2BEE2E2E2E2E2E2E2E2E2E2E2E2E2E2E2E2E2E2E2E2E2E2E2E2E2E2E2E2E2BEE2E2BEE2E2E2E2E2E2E2E2E2BEE2E2BEE2E2E2E2E2E2E2E2E2E2E2E2E2E2E2E2BEBEE2BEE2BEBEE2BEBEBEBEBEE2E2E2E2E2E2E2E2E2E2BEE2E2E2E2E2E2
310
E2E2E2E2E2E2E2E2E2F5E2E2E2E2E2E2E2E2E2E2E2E2E2E2E2E2E2E2E2E2E2E2E2E2E2E2E2E2E2E2E2E2E2E2E2E2E2E2E2E2E2E2E2E2E2E2E2E2E2E2E2E2E2E2E2E2E2E2E2E2E2E2E2E2E2E2E2E2E2E2E2E2E2E2E2E2E2E2E2E2E2E2E2E2E2E2E2E2E2E2E2E2E2E2E2E2E2E2E2E2E2E2E2E2E2E2E2E2E2E2E2E2E2E2E2E2E2
310
E2E2E2E2E2E2E2E2E2E2E2E2E2E2E2E2E2E2E2E2E2E2E2E2E2E2E2E2E2E2E2E2F5E2E2E2BEE2E2E2E2E2E2E2E2E2E2E2E2E2E2E2E2E2E2E2E2E2E2E2E2E2E2E2E2E2BEE2E2BEE2E2E2E2E2E2E2E2BEE2E2BEE2E2E2E2E2E2E2E2E2E2E2E2E2E2E2E2E2E2BEBEBEE2E2BEBEE2BEBEBEE2BEE2E2E2E2E2E2E2E2E2BEE2E2E2E2
310
E2E2E2E2E2E2E2E2E2E2E2F5E2E2E2E2E2E2E2E2E2E2E2E2E2E2E2E2E2E2E2E2E2E2E2E2E2E2E2E2E2E2E2E2E2E2E2E2E2E2E2E2E2E2E2E2E2E2E2E2E2E2E2E2E2E2E2E2E2E2E2E2E2E2E2E2E2E2E2E2E2E2E2E2E2E2E2E2E2E2E2E2E2E2E2E2E2E2E2E2E2E2E2E2E2E2E2E2E2E2E2E2E2E2E2E2E2E2E2E2E2E2E2E2E2E2E2
310
E2E2E2E2E2E2E2E2E2E2E2E2E2E2E2E2E2E2E2E2E2E2E2E2E2E2E2E2E2E2E2E2E2E2F5E2E2E2BEE2E2E2E2E2E2E2E2E2E2E2E2E2E2E2E2E2E2E2E2E2E2E2E2E2E2E2E2E2BEE2E2BEBEE2E2E2E2E2E2E2E2E2BEE2E2E2E2E2E2E2E2E2E2E2E2E2E2E2E2E2E2E2E2BEBEE2E2BEBEE2E2BEBEBEBEE2E2E2E2E2E2E2BEE2E2BEE2
310
E2E2E2E2E2E2E2E2E2E2E2E2E2F5E2E2E2E2E2E2E2E2E2E2E2E2E2E2E2E2E2E2E2E2E2E2E2E2E2E2E2E2E2E2E2E2E2E2E2E2E2E2E2E2E2E2E2E2E2E2E2E2E2E2E2E2E2E2E2E2E2E2E2E2E2E2E2E2E2E2E2E2E2E2E2E2E2E2E2E2E2E2E2E2E2E2E2E2E2E2E2E2E2E2E2E2E2E2E2E2E2E2E2E2E2E2E2E2E2E2E2E2E2E2E2E2E2
310
E2E2E2E2E2E2E2E2E2E2E2E2E2E2E2E2E2E2E2E2E2E2E2E2E2E2E2E2E2E2E2E2E2E2E2E2F5E2E2E2BEE2E2E2E2E2E2E2E2E2E2E2E2E2E2E2E2E2E2E2E2E2E2E2E2E2E2E2E2E2BEE2E2E2BEBEE2E2E2E2E2E2E2E2BEE2E2E2E2E2E2E2E2E2E2E2E2E2E2E2E2E2E2E2E2E2E2BEBEBEE2E2E2E2BEBEE2BEE2E2E2E2E2BEE2BEE2
310
BEE2E2E2E2E2E2E2E2E2E2E2E2E2E2F5E2E2E2E2E2E2E2E2E2E2E2E2E2E2E2E2E2E2E2E2E2E2E2E2E2E2E2E2E2E2E2E2E2E2E2E2E2E2E2E2E2E2E2E2E2E2E2E2E2E2E2E2E2E2E2E2E2E2E2E2E2E2E2E2E2E2E2E2E2E2E2E2E2E2E2E2E2E2E2E2E2E2E2E2E2E2E2E2E2E2E2E2E2E2E2E2E2E2E2E2E2E2E2E2E2E2E2E2E2E2E2
310
E2E2E2E2E2E2E2E2E2E2E2E2E2E2E2E2E2E2E2E2E2E2E2E2E2E2E2E2E2E2E2E2E2E2E2E2E2E2F5E2E2BEBEE2E2E2E2E2E2E2E2E2E2E2E2E2E2E2E2E2E2E2E2E2E2E2E2E2E2E2E2E2BEBEE2E2E2BEBEE2E2E2E2E2BEBEE2E2E2E2E2E2E2E2E2E2E2E2E2E2E2E2E2E2E2E2E2E2E2E2E2E2E2E2E2E2BEBEE2BEE2E2E2E2E2E2BE
310
BEE2BEE2E2E2E2E2E2E2E2E2E2E2E2E2E2F5E2E2E2E2E2E2E2E2E2E2E2E2E2E2E2E2E2E2E2E2E2E2E2E2E2E2E2E2E2E2E2E2E2E2E2E2E2E2E2E2E2E2E2E2E2E2E2E2E2E2E2E2E2E2E2E2E2E2E2E2E2E2E2E2E2E2E2E2E2E2E2E2E2E2E2E2E2E2E2E2E2E2E2E2E2E2E2E2E2E2E2E2E2E2E2E2E2E2E2E2E2E2E2E2E2E2E2E2E2
310
E2E2E2E2E2E2E2E2E2E2E2E2E2E2E2E2E2E2E2E2E2E2E2E2E2E2E2E2E2E2E2E2E2E2E2E2E2E2E2E2F5E2E2BEE2E2E2E2E2E2E2E2E2E2E2E2E2E2E2E2E2E2E2E2E2E2E2E2E2E2E2E2E2E2E2BEE2E2E2E2E2BEBEBEBEBEE2E2E2E2E2E2E2E2E2E2E2E2E2E2E2E2E2E2E2E2E2E2E2E2E2E2E2E2E2E2E2E2E2BEBEE2BEE2E2E2E2
310
E2E2E2E2E2BEE2BEBEBEBEE2E2E2E2E2E2E2E2F5E2E2E2E2E2E2E2E2E2E2E2E2E2E2E2E2E2E2E2E2E2E2E2E2E2E2E2E2E2E2E2E2E2E2E2E2E2E2E2E2E2E2E2E2E2E2E2E2E2E2E2E2E2E2E2E2E2E2E2E2E2E2E2E2E2E2E2E2E2E2E2E2E2E2E2E2E2E2E2E2E2E2E2E2E2E2E2E2E2E2E2E2E2E2E2E2E2E2E2E2E2E2E2E2E2E2E2
310
E2E2E2E2E2E2E2E2E2E2E2E2E2E2E2E2E2E2E2E2E2E2E2E2E2E2E2E2E2E2E2E2E2E2E2E2E2E2E2E2E2E2F5E2E2BEBEE2E2E2E2E2E2E2E2E2E2E2E2E2E2E2E2E2E2E2E2E2E2E2E2E2E2E2E2E2BEBEE2E2E2E2E2E2E2E2E2BEBEBEBEBEBEBEBEBEBEBEBEBEBEBEBEBEBEBEBEBEBEBEBEBEBEBEBEBEBEBEBEBEBEBEBEE2BEE2E2
310
E2E2E2E2E2E2E2BEE2BEE2E2E2BEBEE2E2E2E2E2E2F5E2E2E2E2E2E2E2E2E2E2E2E2E2E2E2E2E2E2E2E2E2E2E2E2E2E2E2E2E2E2E2E2E2E2E2E2E2E2E2E2E2E2E2E2E2E2E2E2E2E2E2E2E2E2E2E2E2E2E2E2E2E2E2E2E2E2E2E2E2E2E2E2E2E2E2E2E2E2E2E2E2E2E2E2E2E2E2E2E2E2E2E2E2E2E2E2E2E2E2E2E2E2E2E2E2
310
E2E2E2E2E2E2E2E2E2E2E2E2E2E2E2E2E2E2E2E2E2E2E2E2E2E2E2E2E2E2E2E2E2E2E2E2E2E2E2E2E2E2E2E2F5E2E2E2BEE2E2E2E2E2E2E2E2E2E2E2E2E2E2E2E2E2E2E2E2E2E2E2E2E2E2E2E2E2BEE2E2E2E2E2E2E2E2E2E2BEE2E2E2E2E2E2E2E2E2E2E2E2E2E2E2E2E2E2E2E2E2E2E2E2E2E2E2E2E2E2E2E2BEE2BEBEE2
310
BEE2E2E2E2E2E2E2E2BEE2BEBEE2E2E2E2BEE2E2E2E2E2F5E2E2E2E2E2E2E2E2E2E2E2E2E2E2E2E2E2E2E2E2E2E2E2E2E2E2E2E2E2E2E2E2E2E2E2E2E2E2E2E2E2E2E2E2E2E2E2E2E2E2E2E2E2E2E2E2E2E2E2E2E2E2E2E2E2E2E2E2E2E2E2E2E2E2E2E2E2E2E2E2E2E2E2E2E2E2E2E2E2E2E2E2E2E2E2E2E2E2E2E2E2E2E2
310
E2E2E2E2E2E2E2E2E2E2E2E2E2E2E2E2E2E2E2E2E2E2E2E2E2E2E2E2E2E2E2E2E2E2E2E2E2E2E2E2E2E2E2E2E2E2F5E2E2E2BEE2E2E2E2E2E2E2E2E2E2E2E2E2E2E2E2E2E2E2E2E2E2E2E2E2E2E2E2E2BEE2E2E2E2E2E2E2E2E2E2BEBEE2E2E2E2E2E2E2E2E2E2E2E2E2E2E2E2E2E2E2E2E2E2E2E2E2E2E2E2E2BEBEBEE2E2
310
BEBEBEE2E2E2E2E2E2E2E2BEE2E2BEE2E2E2E2E2BEE2E2E2E2F5E2E2E2E2E2E2E2E2E2E2E2E2E2E2E2E2E2E2E2E2E2E2E2E2E2E2E2E2E2E2E2E2E2E2E2E2E2E2E2E2E2E2E2E2E2E2E2E2E2E2E2E2E2E2E2E2E2E2E2E2E2E2E2E2E2E2E2E2E2E2E2E2E2E2E2E2E2E2E2E2E2E2E2E2E2E2E2E2E2E2E2E2E2E2E2E2E2E2E2E2E2
310
E2E2E2E2E2E2E2E2E2E2E2E2E2E2E2E2E2E2E2E2E2E2E2E2E2E2E2E2E2E2E2E2E2E2E2E2E2E2E2E2E2E2E2E2E2E2E2E2F5E2E2E2BEE2E2E2E2E2E2E2E2E2E2E2E2E2E2E2E2E2E2E2E2E2E2E2E2E2E2E2E2E2BEE2E2E2E2E2E2E2E2E2E2E2BEE2E2E2E2E2E2E2E2E2E2E2E2E2E2E2E2E2E2E2E2E2E2E2E2E2E2E2E2E2BEE2E2
310
E2E2BEBEE2BEE2E2E2E2E2E2BEE2BEBEBEE2E2E2E2E2BEBEE2E2E2F5E2E2E2E2E2E2E2E2E2E2E2E2E2E2E2E2E2E2E2E2E2E2E2E2E2E2E2E2E2E2E2E2E2E2E2E2E2E2E2E2E2E2E2E2E2E2E2E2E2E2E2E2E2E2E2E2E2E2E2E2E2E2E2E2E2E2E2E2E2E2E2E2E2E2E2E2E2E2E2E2E2E2E2E2E2E2E2E2E2E2E2E2E2E2E2E2E2E2E2
310
E2E2E2E2E2E2E2E2E2E2E2E2E2E2E2E2E2E2E2E2E2E2E2E2E2E2E2E2E2E2E2E2E2E2E2E2E2E2E2E2E2E2E2E2E2E2E2E2E2E2F5E2E2E2BEE2E2E2E2E2E2E2E2E2E2E2E2E2E2E2E2E2E2E2E2E2E2E2E2E2E2E2E2E2BEE2E2E2E2E2E2E2E2E2E2E2BEE2E2E2E2E2E2E2E2E2E2E2E2E2E2E2E2E2E2E2E2E2E2E2E2E2E2E2E2E2BE
310
E2E2E2E2E2BEBEBEE2E2E2E2E2E2E2BEBEE2E2E2E2E2E2E2E2BEE2E2E2F5E2E2E2E2E2E2E2E2E2E2E2E2E2E2E2E2E2E2E2E2E2E2E2E2E2E2E2E2E2E2E2E2E2E2E2E2E2E2E2E2E2E2E2E2E2E2E2E2E2E2E2E2E2E2E2E2E2E2E2E2E2E2E2E2E2E2E2E2E2E2E2E2E2E2E2E2E2E2E2E2E2E2E2E2E2E2E2E2E2E2E2E2E2E2E2E2E2
310
E2E2E2E2E2E2E2E2E2E2E2E2E2E2E2E2E2E2E2E2E2E2E2E2E2E2E2E2E2E2E2E2E2E2E2E2E2E2E2E2E2E2E2E2E2E2E2E2E2E2E2E2F5E2E2BEBEE2E2E2E2E2E2E2E2E2E2E2E2E2E2E2E2E2E2E2E2E2E2E2E2E2E2E2E2E2BEBEE2E2E2E2E2E2E2E2E2E2BEE2E2E2E2E2E2E2E2E2E2E2E2E2E2E2E2E2E2E2E2E2E2E2E2E2E2E2E2
310
E2BEE2E2E2E2E2E2BEE2E2E2E2E2E2E2E2BEE2E2E2E2E2E2E2E2E2BEE2E2E2F5E2E2E2E2E2E2E2E2E2E2E2E2E2E2E2E2E2E2E2E2E2E2E2E2E2E2E2E2E2E2E2E2E2E2E2E2E2E2E2E2E2E2E2E2E2E2E2E2E2E2E2E2E2E2E2E2E2E2E2E2E2E2E2E2E2E2E2E2E2E2E2E2E2E2E2E2E2E2E2E2E2E2E2E2E2E2E2E2E2E2E2E2E2E2E2
310
E2E2E2E2E2E2E2E2E2E2E2E2E2E2E2E2E2E2E2E2E2E2E2E2E2E2E2E2E2E2E2E2E2E2E2E2E2E2E2E2E2E2E2E2E2E2E2E2E2E2E2E2E2E2F5E2E2BEE2E2E2E2E2E2E2E2E2E2E2E2E2E2E2E2E2E2E2E2E2E2E2E2E2E2E2E2E2E2E2BEE2E2E2E2E2E2E2E2E2E2BEE2E2E2E2E2E2E2E2E2E2E2E2E2E2E2E2E2E2E2E2E2E2E2E2E2E2
310
E2E2E2BEE2E2E2E2E2E2E2BEBEBEE2E2E2E2E2E2E2E2E2E2E2E2E2E2E2BEE2E2E2F5E2E2E2E2E2E2E2E2E2E2E2E2E2E2E2E2E2E2E2E2E2E2E2E2E2E2E2E2E2E2E2E2E2E2E2E2E2E2E2E2E2E2E2E2E2E2E2E2E2E2E2E2E2E2E2E2E2E2E2E2E2E2E2E2E2E2E2E2E2E2E2E2E2E2E2E2E2E2E2E2E2E2E2E2E2E2E2E2E2E2E2E2E2
310
E2E2E2E2E2E2E2E2E2E2E2E2E2E2E2E2E2E2E2E2E2E2E2E2E2E2E2E2E2E2E2E2E2E2E2E2E2E2E2E2E2E2E2E2E2E2E2E2E2E2E2E2E2E2E2E2F5E2E2BEE2E2E2E2E2E2E2E2E2E2E2E2E2E2E2E2E2E2E2E2E2E2E2E2E2E2E2E2E2E2E2BEE2E2E2E2E2E2E2E2E2BEBEE2E2E2E2E2E2E2E2E2E2E2E2E2E2E2E2E2E2E2E2E2E2E2E2
310
E2E2E2E2E2BEBEBEE2E2E2E2E2BEE2BEBEBEE2E2E2E2E2E2E2E2E2E2E2E2E2BEE2E2E2F5E2E2E2E2E2E2E2E2E2E2E2E2E2E2E2E2E2E2E2E2E2E2E2E2E2E2E2E2E2E2E2E2E2E2E2E2E2E2E2E2E2E2E2E2E2E2E2E2E2E2E2E2E2E2E2E2E2E2E2E2E2E2E2E2E2E2E2E2E2E2E2E2E2E2E2E2E2E2E2E2E2E2E2E2E2E2E2E2E2E2E2
310
E2E2E2E2E2E2E2E2E2E2E2E2E2E2E2E2E2E2E2E2E2E2E2E2E2E2E2E2E2E2E2E2E2E2E2E2E2E2E2E2E2E2E2E2E2E2E2E2E2E2E2E2E2E2E2E2E2E2F5E2E2BEBEBEBEE2E2E2E2E2E2E2E2E2E2E2E2E2E2E2E2E2E2E2E2E2E2E2E2E2BEBEBEBEE2E2E2E2E2E2E2E2E2BEE2E2E2E2E2E2E2E2E2E2E2E2E2E2E2E2E2E2E2E2E2E2E2
310
E2E2E2E2E2E2E2E2E2BEE2E2E2E2E2E2BEE2BEE2BEE2E2E2E2E2E2E2E2E2E2E2E2BEE2E2E2F5E2E2E2E2E2E2E2E2E2E2E2E2E2E2E2E2E2E2E2E2E2E2E2E2E2E2E2E2E2E2E2E2E2E2E2E2E2E2E2E2E2E2E2E2E2E2E2E2E2E2E2E2E2E2E2E2E2E2E2E2E2E2E2E2E2E2E2E2E2E2E2E2E2E2E2E2E2E2E2E2E2E2E2E2E2E2E2E2E2
310
E2E2E2E2E2E2E2E2E2E2E2E2E2E2E2E2E2E2E2E2E2E2E2E2E2E2E2E2E2E2E2E2E2E2E2E2E2E2E2E2E2E2E2E2E2E2E2E2E2E2E2E2E2E2E2E2E2E2E2E2F5E2E2E2E2E2E2BEBEE2E2E2E2E2E2E2E2E2E2E2E2E2E2E2E2E2E2E2E2E2BEBEE2E2E2E2E2E2E2E2E2E2E2E2E2BEBEBEBEE2E2E2E2E2E2E2E2E2E2E2E2E2E2E2E2E2E2
310
E2E2E2E2E2E2E2BEBEBEBEBEE2E2E2E2E2E2E2BEE2BEE2BEBEE2E2E2E2E2BEBEBEE2BEE2E2E2E2F5E2E2E2E2E2E2E2E2E2E2E2E2E2E2E2E2E2E2E2E2E2E2E2E2E2E2E2E2E2E2E2E2E2E2E2E2E2E2E2E2E2E2E2E2E2E2E2E2E2E2E2E2E2E2E2E2E2E2E2E2E2E2E2E2E2E2E2E2E2E2E2E2E2E2E2E2E2E2E2E2E2E2E2E2E2E2E2
310
E2E2E2E2E2E2E2E2E2E2E2E2E2E2E2E2E2E2E2E2E2E2E2E2E2E2E2E2E2E2E2E2E2E2E2E2E2E2E2E2E2E2E2E2E2E2E2E2E2E2E2E2E2E2E2E2E2E2E2E2E2E2F5E2E2E2E2E2E2E2E2BEBEE2E2E2E2E2E2E2BEBEBEE2E2E2E2E2E2E2BEBEE2E2E2E2E2E2E2E2E2E2E2E2E2E2E2E2E2E2E2BEBEE2E2E2E2E2E2E2E2E2E2E2E2E2E2
310
E2E2E2E2E2E2E2BEBEE2E2E2E2E2E2E2E2E2E2E2E2E2BEE2BEBEBEBEBEBEBEBEBEBEBEBEBEE2E2E2E2F5E2E2E2E2E2E2E2E2E2E2E2E2E2E2E2E2E2E2E2E2E2E2E2E2E2E2E2E2E2E2E2E2E2E2E2E2E2E2E2E2E2E2E2E2E2E2E2E2E2E2E2E2E2E2E2E2E2E2E2E2E2E2E2E2E2E2E2E2E2E2E2E2E2E2E2E2E2E2E2E2E2E2E2E2E2
310
E2E2E2E2E2E2E2E2E2E2E2E2E2E2E2E2E2E2E2E2E2E2E2E2E2E2E2E2E2E2E2E2E2E2E2E2E2E2E2E2E2E2E2E2E2E2E2E2E2E2E2E2E2E2E2E2E2E2E2E2E2E2E2E2F5E2E2E2E2E2E2E2E2E2E2BEBEBEBEBEBEBEE2E2E2BEBEBEBEBEBEBEE2E2E2E2E2E2E2E2E2E2E2E2E2E2E2E2E2E2E2E2E2E2E2BEBEE2E2E2E2E2E2E2BEBEBE
310
E2E2E2E2E2E2E2BEBEE2E2E2E2E2E2E2E2E2E2E2E2E2E2E2E2BEBEE2BEBEBEBEBEBEBEE2BEBEE2E2E2E2E2F5E2E2E2E2E2E2E2E2E2E2E2E2E2E2E2E2E2E2E2E2E2E2E2E2E2E2E2E2E2E2E2E2E2E2E2E2E2E2E2E2E2E2E2E2E2E2E2E2E2E2E2E2E2E2E2E2E2E2E2E2E2E2E2E2E2E2E2E2E2E2E2E2E2E2E2E2E2E2E2E2E2E2E2
310
E2E2E2E2E2E2E2E2E2E2E2E2E2E2E2E2E2E2E2E2E2E2E2E2E2E2E2E2E2E2E2E2E2E2E2E2E2E2E2E2E2E2E2E2E2E2E2E2E2E2E2E2E2E2E2E2E2E2E2E2E2E2E2E2E2E2F5E2E2E2E2E2E2E2E2E2E2E2E2E2E2E2E2E2E2E2E2E2E2E2E2E2E2E2E2E2E2E2E2E2E2E2E2E2E2E2E2E2E2E2E2E2E2E2E2E2E2E2E2BEBEBEBEBEBEBEE2
310
E2E2BEBEBEBEBEBEBEE2E2E2E2E2E2E2E2E2E2E2E2E2E2E2E2E2E2E2E2BEBEBEBEBEBEBEBEBEE2E2E2E2E2E2E2F5E2E2E2E2E2E2E2E2E2E2E2E2E2E2E2E2E2E2E2E2E2E2E2E2E2E2E2E2E2E2E2E2E2E2E2E2E2E2E2E2E2E2E2E2E2E2E2E2E2E2E2E2E2E2E2E2E2E2E2E2E2E2E2E2E2E2E2E2E2E2E2E2E2E2E2E2E2E2E2E2E2
310
E2E2E2E2E2E2E2E2E2E2E2E2E2E2E2E2E2E2E2E2E2E2E2E2E2E2E2E2E2E2E2E2E2E2E2E2E2E2E2E2E2E2E2E2E2E2E2E2E2E2E2E2E2E2E2E2E2E2E2E2E2E2E2E2E2E2E2E2F5E2E2E2E2E2E2E2E2E2E2E2E2E2E2E2E2E2E2E2E2E2E2E2E2E2E2E2E2E2E2E2E2E2E2E2E2E2E2E2E2E2E2E2E2E2E2E2E2E2E2E2E2E2E2E2E2E2E2
310
E2E2E2E2E2E2E2E2E2E2E2E2E2E2E2E2E2E2E2E2E2E2E2E2E2E2E2E2E2E2E2E2E2E2E2E2E2E2E2E2E2E2E2E2E2E2E2F5E2E2E2E2E2E2E2E2E2E2E2E2E2E2E2E2E2E2E2E2E2E2E2E2E2E2E2E2E2E2E2E2E2E2E2E2E2E2E2E2E2E2E2E2E2E2E2E2E2E2E2E2E2E2E2E2E2E2E2E2E2E2E2E2E2E2E2E2E2E2E2E2E2E2E2E2E2E2E2
310
E2E2E2E2E2E2E2E2E2E2E2E2E2E2E2E2E2E2E2E2E2E2E2E2E2E2E2E2E2E2E2E2E2E2E2E2E2E2E2E2E2E2E2E2E2E2E2E2E2E2E2E2E2E2E2E2E2E2E2E2E2E2E2E2E2E2E2E2E2E2F5E2E2E2E2E2E2E2E2E2E2E2E2E2E2E2E2E2E2E2E2E2E2E2E2E2E2E2E2E2E2E2E2E2E2E2E2E2E2E2E2E2E2E2E2E2E2E2E2E2E2E2E2E2E2E2E2
310
E2E2E2E2E2E2E2E2E2E2E2E2E2E2E2E2E2E2E2E2E2E2E2E2E2E2E2E2E2E2E2E2E2E2E2E2E2E2E2E2E2E2E2E2E2E2E2E2E2F5E2E2E2E2E2E2E2E2E2E2E2E2E2E2E2E2E2E2E2E2E2E2E2E2E2E2E2E2E2E2E2E2E2E2E2E2E2E2E2E2E2E2E2E2E2E2E2E2E2E2E2E2E2E2E2E2E2E2E2E2E2E2E2E2E2E2E2E2E2E2E2E2E2E2E2E2E2
310
E2E2E2E2E2E2E2E2E2E2E2E2E2E2E2E2E2E2E2E2E2E2E2E2E2E2E2E2E2E2E2E2E2E2E2E2E2E2E2E2E2E2E2E2E2E2E2E2E2E2E2E2E2E2E2E2E2E2E2E2E2E2E2E2E2E2E2E2E2E2E2E2F5F5F5F5F5F5F5F5F5F5F5F5F5F5F5F5F5F5F5F5F5F5F5F5F5F5F5F5F5F5F5F5F5F5F5F5F5F5F5F5F5F5F5F5F5F5F5F5F5F5F5F5F5F5F5
310
F5F5F5F5F5F5F5F5F5F5F5F5F5F5F5F5F5F5F5F5F5F5F5F5F5F5F5F5F5F5F5F5F5F5F5F5F5F5F5F5F5F5F5F5F5F5F5F5F5F5F5F5E2E2E2E2E2E2E2E2E2E2E2E2E2E2E2E2E2E2E2E2E2E2E2E2E2E2E2E2E2E2E2E2E2E2E2E2E2E2E2E2E2E2E2E2E2E2E2E2E2E2E2E2E2E2E2E2E2E2E2E2E2E2E2E2E2E2E2E2E2E2E2E2E2E2E2
310
E2E2E2E2E2E2E2E2E2E2E2E2E2E2E2E2E2E2E2E2E2E2E2E2E2E2E2E2E2E2E2E2E2E2E2E2E2E2E2E2E2E2E2E2E2E2E2E2E2E2E2E2E2E2E2E2E2E2E2E2E2E2E2E2E2E2E2E2E2E2E2E2E2E2E2E2E2E2E2E2E2E2E2E2E2E2E2E2E2E2E2E2E2E2E2E2E2E2E2E2E2E2E2E2E2E2E2E2E2E2E2E2E2E2E2E2E2E2E2E2E2E2E2E2E2E2E2
310
E2E2E2E2E2E2E2E2E2E2E2E2E2E2E2E2E2E2E2E2E2E2E2E2E2E2E2E2E2E2E2E2E2E2E2E2E2E2E2E2E2E2E2E2E2E2E2E2E2E2E2E2E2E2E2E2E2E2E2E2E2E2E2E2E2E2E2E2E2E2E2E2E2E2E2E2E2E2E2E2E2E2E2E2E2E2E2E2E2E2E2E2E2E2E2E2E2E2E2E2E2E2E2E2E2E2E2E2E2E2E2E2E2E2E2E2E2E2E2E2E2E2E2E2E2E2E2
310
E2E2E2E2E2E2E2E2E2E2E2E2E2E2E2E2E2E2E2E2E2E2E2E2E2E2E2E2E2E2E2E2E2E2E2E2E2E2E2E2E2E2E2E2E2E2E2E2E2E2E2E2E2E2E2E2E2E2E2E2E2E2E2E2E2E2E2E2E2E2E2E2E2E2E2E2E2E2E2E2E2E2E2E2E2E2E2E2E2E2E2E2E2E2E2E2E2E2E2E2E2E2E2E2E2E2E2E2E2E2E2E2E2E2E2E2E2E2E2E2E2E2E2E2E2E2E2
310
E2E2E2E2E2E2E2E2E2E2E2E2E2E2E2E2E2E2E2E2E2E2E2E2E2E2E2E2E2E2E2E2E2E2E2E2E2E2E2E2E2E2E2E2E2E2E2E2E2E2E2E2E2E2E2E2E2E2E2E2E2E2E2E2E2E2E2E2E2E2E2E2E2E2E2E2E2E2E2E2E2E2E2E2E2E2E2E2E2E2E2E2E2E2E2E2E2E2E2E2E2E2E2E2E2E2E2E2E2E2E2E2E2E2E2E2E2E2E2E2E2E2E2E2E2E2E2
310
E2E2E2E2E2E2E2E2E2E2E2E2E2E2E2E2E2E2E2E2E2E2E2E2E2E2E2E2E2E2E2E2E2E2E2E2E2E2E2E2E2E2E2E2E2E2E2E2E2E2E2E2E2E2E2E2E2E2E2E2E2E2E2E2E2E2E2E2E2E2E2E2E2E2E2E2E2E2E2E2E2E2E2E2E2E2E2E2E2E2E2E2E2E2E2E2E2E2E2E2E2E2E2E2E2E2E2E2E2E2E2E2E2E2E2E2E2E2E2E2E2E2E2E2E2E2E2
310
E2E2E2E2E2E2E2E2E2E2E2E2E2E2E2E2E2E2E2E2E2E2E2E2E2E2E2E2E2E2E2E2E2E2E2E2E2E2E2E2E2E2E2E2E2E2E2E2E2E2E2E2E2E2E2E2E2E2E2E2E2E2E2E2E2E2E2E2E2E2E2E2E2E2E2E2E2E2E2E2E2E2E2E2E2E2E2E2E2E2E2E2E2E2E2E2E2E2E2E2E2E2E2E2E2E2E2E2E2E2E2E2E2E2E2E2E2E2E2E2E2E2E2E2E2E2E2
310
E2E2E2E2E2E2E2E2E2E2E2E2E2E2E2E2E2E2E2E2E2E2E2E2E2E2E2E2E2E2E2E2E2E2E2E2E2E2E2E2E2E2E2E2E2E2E2E2E2E2E2E2E2E2E2E2E2E2E2E2E2E2E2E2E2E2E2E2E2E2E2E2E2E2E2E2E2E2E2E2E2E2E2E2E2E2E2E2E2E2E2E2E2E2E2E2E2E2E2E2E2E2E2E2E2E2E2E2E2E2E2E2E2E2E2E2E2E2E2E2E2E2E2E2E2E2E2
310
E2E2E2E2E2E2E2E2E2E2E2E2E2E2E2E2E2E2E2E2E2E2E2E2E2E2E2E2E2E2E2E2E2E2E2E2E2E2E2E2E2E2E2E2E2E2E2E2E2E2E2E2E2E2E2E2E2E2E2E2E2E2E2E2E2E2E2E2E2E2E2E2E2E2E2E2E2E2E2E2E2E2E2E2E2E2E2E2E2E2E2E2E2E2E2E2E2E2E2E2E2E2E2E2E2E2E2E2E2E2E2E2E2E2E2E2E2E2E2E2E2E2E2E2E2E2E2
310
E2E2E2E2E2E2E2E2E2E2E2E2E2E2E2E2E2E2E2E2E2E2E2E2E2E2E2E2E2E2E2E2E2E2E2E2E2E2E2E2E2E2E2E2E2E2E2E2E2E2E2E2E2E2E2E2E2E2E2E2E2E2E2E2E2E2E2E2E2E2E2E2E2E2E2E2E2E2E2E2E2E2E2E2E2E2E2E2E2E2E2E2E2E2E2E2E2E2E2E2E2E2E2E2E2E2E2E2E2E2E2E2E2E2E2E2E2E2E2E2E2E2E2E2E2E2E2
310
E2E2E2E2E2E2E2E2E2E2E2E2E2E2E2E2E2E2E2E2E2E2E2E2E2E2E2E2E2E2E2E2E2E2E2E2E2E2E2E2E2E2E2E2E2E2E2E2E2E2E2E2E2E2E2E2E2E2E2E2E2E2E2E2E2E2E2E2E2E2E2E2E2E2E2E2E2E2E2E2E2E2E2E2E2E2E2E2E2E2E2E2E2E2E2E2E2E2E2E2E2E2E2E2E2E2E2E2E2E2E2E2E2E2E2E2E2E2E2E2E2E2E2E2E2E2E2
310
E2E2E2E2E2E2E2E2E2E2E2E2E2E2E2E2E2E2E2E2E2E2E2E2E2E2E2E2E2E2E2E2E2E2E2E2E2E2E2E2E2E2E2E2E2E2E2E2E2E2E2E2E2E2E2E2E2E2E2E2E2E2E2E2E2E2E2E2E2E2E2E2E2E2E2E2E2E2E2E2E2E2E2E2E2E2E2E2E2E2E2E2E2E2E2E2E2E2E2E2E2E2E2E2E2E2E2E2E2E2E2E2E2E2E2E2E2E2E2E2E2E2E2E2E2E2E2
310
E2E2E2E2E2E2E2E2E2E2E2E2E2E2E2E2E2E2E2E2E2E2E2E2E2E2E2E2E2E2E2E2E2E2E2E2E2E2E2E2E2E2E2E2E2E2E2E2E2E2E2E2E2E2E2E2E2E2E2E2E2E2E2E2E2E2E2E2E2E2E2E2E2E2E2E2E2E2E2E2E2E2E2E2E2E2E2E2E2E2E2E2E2E2E2E2E2E2E2E2E2E2E2E2E2E2E2E2E2E2E2E2E2E2E2E2E2E2E2E2E2E2E2E2E2E2E2
310
E2E2E2E2E2E2E2E2E2E2E2E2E2E2E2E2E2E2E2E2E2E2E2E2E2E2E2E2E2E2E2E2E2E2E2E2E2E2E2E2E2E2E2E2E2E2E2E2E2E2E2E2E2E2E2E2E2E2E2E2E2E2E2E2E2E2E2E2E2E2E2E2E2E2E2E2E2E2E2E2E2E2E2E2E2E2E2E2E2E2E2E2E2E2E2E2E2E2E2E2E2E2E2E2E2E2E2E2E2E2E2E2E2E2E2E2E2E2E2E2E2E2E2E2E2E2E2
310
E2E2E2E2E2E2E2E2E2E2E2E2E2E2E2E2E2E2E2E2E2E2E2E2E2E2E2E2E2E2E2E2E2E2E2E2E2E2E2E2E2E2E2E2E2E2E2E2E2E2E2E2E2E2E2E2E2E2E2E2E2E2E2E2E2E2E2E2E2E2E2E2E2E2E2E2E2E2E2E2E2E2E2E2E2E2E2E2E2E2E2E2E2E2E2E2E2E2E2E2E2E2E2E2E2E2E2E2E2E2E2E2E2E2E2E2E2E2E2E2E2E2E2E2E2E2E2
310
E2E2E2E2E2E2E2E2E2E2E2E2E2E2E2E2E2E2E2E2E2E2E2E2E2E2E2E2E2E2E2E2E2E2E2E2E2E2E2E2E2E2E2E2E2E2E2E2E2E2E2E2E2E2E2E2E2E2E2E2E2E2E2E2E2E2E2E2E2E2E2E2E2E2E2E2E2E2E2E2E2E2E2E2E2E2E2E2E2E2E2E2E2E2E2E2E2E2E2E2E2E2E2E2E2E2E2E2E2E2E2E2E2E2E2E2E2E2E2E2E2E2E2E2E2E2E2
310
E2E2E2E2E2E2E2E2E2E2E2E2E2E2E2E2E2E2E2E2E2E2E2E2E2E2E2E2E2E2E2E2E2E2E2E2E2E2E2E2E2E2E2E2E2E2E2E2E2E2E2E2E2E2E2E2E2E2E2E2E2E2E2E2E2E2E2E2E2E2E2E2E2E2E2E2E2E2E2E2E2E2E2E2E2E2E2E2E2E2E2E2E2E2E2E2E2E2E2E2E2E2E2E2E2E2E2E2E2E2E2E2E2E2E2E2E2E2E2E2E2E2E2E2E2E2E2
310
E2E2E2E2E2E2E2E2E2E2E2E2E2E2E2E2E2E2E2E2E2E2E2E2E2E2E2E2E2E2E2E2E2E2E2E2E2E2E2E2E2E2E2E2E2E2E2E2E2E2E2E2E2E2E2E2E2E2E2E2E2E2E2E2E2E2E2E2E2E2E2E2E2E2E2E2E2E2E2E2E2E2E2E2E2E2E2E2E2E2E2E2E2E2E2E2E2E2E2E2E2E2E2E2E2E2E2E2E2E2E2E2E2E2E2E2E2E2E2E2E2E2E2E2E2E2E2
310
E2E2E2E2E2E2E2E2E2E2E2E2E2E2E2E2E2E2E2E2E2E2E2E2E2E2E2E2E2E2E2E2E2E2E2E2E2E2E2E2E2E2E2E2E2E2E2E2E2E2E2E2E2E2E2E2E2E2E2E2E2E2E2E2E2E2E2E2E2E2E2E2E2E2E2E2E2E2E2E2E2E2E2E2E2E2E2E2E2E2E2E2E2E2E2E2E2E2E2E2E2E2E2E2E2E2E2E2E2E2E2E2E2E2E2E2E2E2E2E2E2E2E2E2E2E2E2
310
E2E2E2E2E2E2E2E2E2E2E2E2E2E2E2E2E2E2E2E2E2E2E2E2E2E2E2E2E2E2E2E2E2E2E2E2E2E2E2E2E2E2E2E2E2E2E2E2E2E2E2E2E2E2E2E2E2E2E2E2E2E2E2E2E2E2E2E2E2E2E2E2E2E2E2E2E2E2E2E2E2E2E2E2E2E2E2E2E2E2E2E2E2E2E2E2E2E2E2E2E2E2E2E2E2E2E2E2E2E2E2E2E2E2E2E2E2E2E2E2E2E2E2E2E2E2E2
310
E2E2E2E2E2E2E2E2E2E2E2E2E2E2E2E2E2E2E2E2E2E2E2E2E2E2E2E2E2E2E2E2E2E2E2E2E2E2E2E2E2E2E2E2E2E2E2E2E2E2E2E2E2E2E2E2E2E2E2E2E2E2E2E2E2E2E2E2E2E2E2E2E2E2E2E2E2E2E2E2E2E2E2E2E2E2E2E2E2E2E2E2E2E2E2E2E2E2E2E2E2E2E2E2E2E2E2E2E2E2E2E2E2E2E2E2E2E2E2E2E2E2E2E2E2E2E2
310
E2E2E2E2E2E2E2E2E2E2E2E2E2E2E2E2E2E2E2E2E2E2E2E2E2E2E2E2E2E2E2E2E2E2E2E2E2E2E2E2E2E2E2E2E2E2E2E2E2E2E2E2E2E2E2E2E2E2E2E2E2E2E2E2E2E2E2E2E2E2E2E2E2E2E2E2E2E2E2E2E2E2E2E2E2E2E2E2E2E2E2E2E2E2E2E2E2E2E2E2E2E2E2E2E2E2E2E2E2E2E2E2E2E2E2E2E2E2E2E2E2E2E2E2E2E2E2
310
E2E2E2E2E2E2E2E2E2E2E2E2E2E2E2E2E2E2E2E2E2E2E2E2E2E2E2E2E2E2E2E2E2E2E2E2E2E2E2E2E2E2E2E2E2E2E2E2E2E2E2E2E2E2E2E2E2E2E2E2E2E2E2E2E2E2E2E2E2E2E2E2E2E2E2E2E2E2E2E2E2E2E2E2E2E2E2E2E2E2E2E2E2E2E2E2E2E2E2E2E2E2E2E2E2E2E2E2E2E2E2E2E2E2E2E2E2E2E2E2E2E2E2E2E2E2E2
310
E2E2E2E2E2E2E2E2E2E2E2E2E2E2E2E2E2E2E2E2E2E2E2E2E2E2E2E2E2E2E2E2E2E2E2E2E2E2E2E2E2E2E2E2E2E2E2E2E2E2E2E2E2E2E2E2E2E2E2E2E2E2E2E2E2E2E2E2E2E2E2E2E2E2E2E2E2E2E2E2E2E2E2E2E2E2E2E2E2E2E2E2E2E2E2E2E2E2E2E2E2E2E2E2E2E2E2E2E2E2E2E2E2E2E2E2E2E2E2E2E2E2E2E2E2E2E2
310
E2E2E2E2E2E2E2E2E2E2E2E2E2E2E2E2E2E2E2E2E2E2E2E2E2E2E2E2E2E2E2E2E2E2E2E2E2E2E2E2E2E2E2E2E2E2E2E2E2E2E2E2E2E2E2E2E2E2E2E2E2E2E2E2E2E2E2E2E2E2E2E2E2E2E2E2E2E2E2E2E2E2E2E2E2E2E2E2E2E2E2E2E2E2E2E2E2E2E2E2E2E2E2E2E2E2E2E2E2E2E2E2E2E2E2E2E2E2E2E2E2E2E2E2E2E2E2
310
E2E2E2E2E2E2E2E2E2E2E2E2E2E2E2E2E2E2E2E2E2E2E2E2E2E2E2E2E2E2E2E2E2E2E2E2E2E2E2E2E2E2E2E2E2E2E2E2E2E2E2E2E2E2E2E2E2E2E2E2E2E2E2E2E2E2E2E2E2E2E2E2E2E2E2E2E2E2E2E2E2E2E2E2E2E2E2E2E2E2E2E2E2E2E2E2E2E2E2E2E2E2E2E2E2E2E2E2E2E2E2E2E2E2E2E2E2E2E2E2E2E2E2E2E2E2E2
310
E2E2E2E2E2E2E2E2E2E2E2E2E2E2E2E2E2E2E2E2E2E2E2E2E2E2E2E2E2E2E2E2E2E2E2E2E2E2E2E2E2E2E2E2E2E2E2E2E2E2E2E2E2E2E2E2E2E2E2E2E2E2E2E2E2E2E2E2E2E2E2E2E2E2E2E2E2E2E2E2E2E2E2E2E2E2E2E2E2E2E2E2E2E2E2E2E2E2E2E2E2E2E2E2E2E2E2E2E2E2E2E2E2E2E2E2E2E2E2E2E2E2E2E2E2E2E2
310
E2E2E2E2E2E2E2E2E2E2E2E2E2E2E2E2E2E2E2E2E2E2E2E2E2E2E2E2E2E2E2E2E2E2E2E2E2E2E2E2E2E2E2E2E2E2E2E2E2E2E2E2E2E2E2E2E2E2E2E2E2E2E2E2E2E2E2E2E2E2E2E2E2E2E2E2E2E2E2E2E2E2E2E2E2E2E2E2E2E2E2E2E2E2E2E2E2E2E2E2E2E2E2E2E2E2E2E2E2E2E2E2E2E2E2E2E2E2E2E2E2E2E2E2E2E2E2
310
E2E2E2E2E2E2E2E2E2E2E2E2E2E2E2E2E2E2E2E2E2E2E2E2E2E2E2E2E2E2E2E2E2E2E2E2E2E2E2E2E2E2E2E2E2E2E2E2E2E2E2E2E2E2E2E2E2E2E2E2E2E2E2E2E2E2E2E2E2E2E2E2E2E2E2E2E2E2E2E2E2E2E2E2E2E2E2E2E2E2E2E2E2E2E2E2E2E2E2E2E2E2E2E2E2E2E2E2E2E2E2E2E2E2E2E2E2E2E2E2E2E2E2E2E2E2E2
310
E2E2E2E2E2E2E2E2E2E2E2E2E2E2E2E2E2E2E2E2E2E2E2E2E2E2E2E2E2E2E2E2E2E2E2E2E2E2E2E2E2E2E2E2E2E2E2E2E2E2E2E2E2E2E2E2E2E2E2E2E2E2E2E2E2E2E2E2E2E2E2E2E2E2E2E2E2E2E2E2E2E2E2E2E2E2E2E2E2E2E2E2E2E2E2E2E2E2E2E2E2E2E2E2E2E2E2E2E2E2E2E2E2E2E2E2E2E2E2E2E2E2E2E2E2E2E2
310
E2E2E2E2E2E2E2E2E2E2E2E2E2E2E2E2E2E2E2E2E2E2E2E2E2E2E2E2E2E2E2E2E2E2E2E2E2E2E2E2E2E2E2E2E2E2E2E2E2E2E2E2E2E2E2E2E2E2E2E2E2E2E2E2E2E2E2E2E2E2E2E2E2E2E2E2E2E2E2E2E2E2E2E2E2E2E2E2E2E2E2E2E2E2E2E2E2E2E2E2E2E2E2E2E2E2E2E2E2E2E2E2E2E2E2E2E2E2E2E2E2E2E2E2E2E2E2
310
E2E2E2E2E2E2E2E2E2E2E2E2E2E2E2E2E2E2E2E2E2E2E2E2E2E2E2E2E2E2E2E2E2E2E2E2E2E2E2E2E2E2E2E2E2E2E2E2E2E2E2E2E2E2E2E2E2E2E2E2E2E2E2E2E2E2E2E2E2E2E2E2E2E2E2E2E2E2E2E2E2E2E2E2E2E2E2E2E2E2E2E2E2E2E2E2E2E2E2E2E2E2E2E2E2E2E2E2E2E2E2E2E2E2E2E2E2E2E2E2E2E2E2E2E2E2E2
310
E2E2E2E2E2E2E2E2E2E2E2E2E2E2E2E2E2E2E2E2E2E2E2E2E2E2E2E2E2E2E2E2E2E2E2E2E2E2E2E2E2E2E2E2E2E2E2E2E2E2E2E2E2E2E2E2E2E2E2E2E2E2E2E2E2E2E2E2E2E2E2E2E2E2E2E2E2E2E2E2E2E2E2E2E2E2E2E2E2E2E2E2E2E2E2E2E2E2E2E2E2E2E2E2E2E2E2E2E2E2E2E2E2E2E2E2E2E2E2E2E2E2E2E2E2E2E2
310
E2E2E2E2E2E2E2E2E2E2E2E2E2E2E2E2E2E2E2E2E2E2E2E2E2E2E2E2E2E2E2E2E2E2E2E2E2E2E2E2E2E2E2E2E2E2E2E2E2E2E2E2E2E2E2E2E2E2E2E2E2E2E2E2E2E2E2E2E2E2E2E2E2E2E2E2E2E2E2E2E2E2E2E2E2E2E2E2E2E2E2E2E2E2E2E2E2E2E2E2E2E2E2E2E2E2E2E2E2E2E2E2E2E2E2E2E2E2E2E2E2E2E2E2E2E2E2
310
E2E2E2E2E2E2E2E2E2E2E2E2E2E2E2E2E2E2E2E2E2E2E2E2E2E2E2E2E2E2E2E2E2E2E2E2E2E2E2E2E2E2E2E2E2E2E2E2E2E2E2E2E2E2E2E2E2E2E2E2E2E2E2E2E2E2E2E2E2E2E2E2E2E2E2E2E2E2E2E2E2E2E2E2E2E2E2E2E2E2E2E2E2E2E2E2E2E2E2E2E2E2E2E2E2E2E2E2E2E2E2E2E2E2E2E2E2E2E2E2E2E2E2E2E2E2E2
310
E2E2E2E2E2E2E2E2E2E2E2E2E2E2E2E2E2E2E2E2E2E2E2E2E2E2E2E2E2E2E2E2E2E2E2E2E2E2E2E2E2E2E2E2E2E2E2E2E2E2E2E2E2E2E2E2E2E2E2E2E2E2E2E2E2E2E2E2E2E2E2E2E2E2E2E2E2E2E2E2E2E2E2E2E2E2E2E2E2E2E2E2E2E2E2E2E2E2E2E2E2E2E2E2E2E2E2E2E2E2E2E2E2E2E2E2E2E2E2E2E2E2E2E2E2E2E2
310
E2E2E2E2E2E2E2E2E2E2E2E2E2E2E2E2E2E2E2E2E2E2E2E2E2E2E2E2E2E2E2E2E2E2E2E2E2E2E2E2E2E2E2E2E2E2E2E2E2E2E2E2E2E2E2E2E2E2E2E2E2E2E2E2E2E2E2E2E2E2E2E2E2E2E2E2E2E2E2E2E2E2E2E2E2E2E2E2E2E2E2E2E2E2E2E2E2E2E2E2E2E2E2E2E2E2E2E2E2E2E2E2E2E2E2E2E2E2E2E2E2E2E2E2E2E2E2
310
E2E2E2E2E2E2E2E2E2E2E2E2E2E2E2E2E2E2E2E2E2E2E2E2E2E2E2E2E2E2E2E2E2E2E2E2E2E2E2E2E2E2E2E2E2E2E2E2E2E2E2E2E2E2E2E2E2E2E2E2E2E2E2E2E2E2E2E2E2E2E2E2E2E2E2E2E2E2E2E2E2E2E2E2E2E2E2E2E2E2E2E2E2E2E2E2E2E2E2E2E2E2E2E2E2E2E2E2E2E2E2E2E2E2E2E2E2E2E2E2E2E2E2E2E2E2E2
310
E2E2E2E2E2E2E2E2E2E2E2E2E2E2E2E2E2E2E2E2E2E2E2E2E2E2E2E2E2E2E2E2E2E2E2E2E2E2E2E2E2E2E2E2E2E2E2E2E2E2E2E2E2E2E2E2E2E2E2E2E2E2E2E2E2E2E2E2E2E2E2E2E2E2E2E2E2E2E2E2E2E2E2E2E2E2E2E2E2E2E2E2E2E2E2E2E2E2E2E2E2E2E2E2E2E2E2E2E2E2E2E2E2E2E2E2E2E2E2E2E2E2E2E2E2E2E2
310
E2E2E2E2E2E2E2E2E2E2E2E2E2E2E2E2E2E2E2E2E2E2E2E2E2E2E2E2E2E2E2E2E2E2E2E2E2E2E2E2E2E2E2E2E2E2E2E2E2E2E2E2E2E2E2E2E2E2E2E2E2E2E2E2E2E2E2E2E2E2E2E2E2E2E2E2E2E2E2E2E2E2E2E2E2E2E2E2E2E2E2E2E2E2E2E2E2E2E2E2E2E2E2E2E2E2E2E2E2E2E2E2E2E2E2E2E2E2E2E2E2E2E2E2E2E2E2
310
E2E2E2E2E2E2E2E2E2E2E2E2E2E2E2E2E2E2E2E2E2E2E2E2E2E2E2E2E2E2E2E2E2E2E2E2E2E2E2E2E2E2E2E2E2E2E2E2E2E2E2E2E2E2E2E2E2E2E2E2E2E2E2E2E2E2E2E2E2E2E2E2E2E2E2E2E2E2E2E2E2E2E2E2E2E2E2E2E2E2E2E2E2E2E2E2E2E2E2E2E2E2E2E2E2E2E2E2E2E2E2E2E2E2E2E2E2E2E2E2E2E2E2E2E2E2E2
310
E2E2E2E2E2E2E2E2E2E2E2E2E2E2E2E2E2E2E2E2E2E2E2E2E2E2E2E2E2E2E2E2E2E2E2E2E2E2E2E2E2E2E2E2E2E2E2E2E2E2E2E2E2E2E2E2E2E2E2E2E2E2E2E2E2E2E2E2E2E2E2E2E2E2E2E2E2E2E2E2E2E2E2E2E2E2E2E2E2E2E2E2E2E2E2E2E2E2E2E2E2E2E2E2E2E2E2E2E2E2E2E2E2E2E2E2E2E2E2E2E2E2E2E2E2E2E2
310
E2E2E2E2E2E2E2E2E2E2E2E2E2E2E2E2E2E2E2E2E2E2E2E2E2E2E2E2E2E2E2E2E2E2E2E2E2E2E2E2E2E2E2E2E2E2E2E2E2E2E2E2E2E2E2E2E2E2E2E2E2E2E2E2E2E2E2E2E2E2E2E2E2E2E2E2E2E2E2E2E2E2E2E2E2E2E2E2E2E2E2E2E2E2E2E2E2E2E2E2E2E2E2E2E2E2E2E2E2E2E2E2E2E2E2E2E2E2E2E2E2E2E2E2E2E2E2
310
E2E2E2E2E2E2E2E2E2E2E2E2E2E2E2E2E2E2E2E2E2E2E2E2E2E2E2E2E2E2E2E2E2E2E2E2E2E2E2E2E2E2E2E2E2E2E2E2E2E2E2E2E2E2E2E2E2E2E2E2E2E2E2E2E2E2E2E2E2E2E2E2E2E2E2E2E2E2E2E2E2E2E2E2E2E2E2E2E2E2E2E2E2E2E2E2E2E2E2E2E2E2E2E2E2E2E2E2E2E2E2E2E2E2E2E2E2E2E2E2E2E2E2E2E2E2E2
310
E2E2E2E2E2E2E2E2E2E2E2E2E2E2E2E2E2E2E2E2E2E2E2E2E2E2E2E2E2E2E2E2E2E2E2E2E2E2E2E2E2E2E2E2E2E2E2E2E2E2E2E2E2E2E2E2E2E2E2E2E2E2E2E2E2E2E2E2E2E2E2E2E2E2E2E2E2E2E2E2E2E2E2E2E2E2E2E2E2E2E2E2E2E2E2E2E2E2E2E2E2E2E2E2E2E2E2E2E2E2E2E2E2E2E2E2E2E2E2E2E2E2E2E2E2E2E2
310
E2E2E2E2E2E2E2E2E2E2E2E2E2E2E2E2E2E2E2E2E2E2E2E2E2E2E2E2E2E2E2E2E2E2E2E2E2E2E2E2E2E2E2E2E2E2E2E2E2E2E2E2E2E2E2E2E2E2E2E2E2E2E2E2E2E2E2E2E2E2E2E2E2E2E2E2E2E2E2E2E2E2E2E2E2E2E2E2E2E2E2E2E2E2E2E2E2E2E2E2E2E2E2E2E2E2E2E2E2E2E2E2E2E2E2E2E2E2E2E2E2E2E2E2E2E2E2
310
E2E2E2E2E2E2E2E2E2E2E2E2E2E2E2E2E2E2E2E2E2E2E2E2E2E2E2E2E2E2E2E2E2E2E2E2E2E2E2E2E2E2E2E2E2E2E2E2E2E2E2E2E2E2E2E2E2E2E2E2E2E2E2E2E2E2E2E2E2E2E2E2E2E2E2E2E2E2E2E2E2E2E2E2E2E2E2E2E2E2E2E2E2E2E2E2E2E2E2E2E2E2E2E2E2E2E2E2E2E2E2E2E2E2E2E2E2E2E2E2E2E2E2E2E2E2E2
310
E2E2E2E2E2E2E2E2E2E2E2E2E2E2E2E2E2E2E2E2E2E2E2E2E2E2E2E2E2E2E2E2E2E2E2E2E2E2E2E2E2E2E2E2E2E2E2E2E2E2E2E2E2E2E2E2E2E2E2E2E2E2E2E2E2E2E2E2E2E2E2E2E2E2E2E2E2E2E2E2E2E2E2E2E2E2E2E2E2E2E2E2E2E2E2E2E2E2E2E2E2E2E2E2E2E2E2E2E2E2E2E2E2E2E2E2E2E2E2E2E2E2E2E2E2E2E2
310
E2E2E2E2E2E2E2E2E2E2E2E2E2E2E2E2E2E2E2E2E2E2E2E2E2E2E2E2E2E2E2E2E2E2E2E2E2E2E2E2E2E2E2E2E2E2E2E2E2E2E2E2E2E2E2E2E2E2E2E2E2E2E2E2E2E2E2E2E2E2E2E2E2E2E2E2E2E2E2E2E2E2E2E2E2E2E2E2E2E2E2E2E2E2E2E2E2E2E2E2E2E2E2E2E2E2E2E2E2E2E2E2E2E2E2E2E2E2E2E2E2E2E2E2E2E2E2
310
E2E2E2E2E2E2E2E2E2E2E2E2E2E2E2E2E2E2E2E2E2E2E2E2E2E2E2E2E2E2E2E2E2E2E2E2E2E2E2E2E2E2E2E2E2E2E2E2E2E2E2E2E2E2E2E2E2E2E2E2E2E2E2E2E2E2E2E2E2E2E2E2E2E2E2E2E2E2E2E2E2E2E2E2E2E2E2E2E2E2E2E2E2E2E2E2E2E2E2E2E2E2E2E2E2E2E2E2E2E2E2E2E2E2E2E2E2E2E2E2E2E2E2E2E2E2E2
310
E2E2E2E2E2E2E2E2E2E2E2E2E2E2E2E2E2E2E2E2E2E2E2E2E2E2E2E2E2E2E2E2E2E2E2E2E2E2E2E2E2E2E2E2E2E2E2E2E2E2E2E2E2E2E2E2E2E2E2E2E2E2E2E2E2E2E2E2E2E2E2E2E2E2E2E2E2E2E2E2E2E2E2E2E2E2E2E2E2E2E2E2E2E2E2E2E2E2E2E2E2E2E2E2E2E2E2E2E2E2E2E2E2E2E2E2E2E2E2E2E2E2E2E2E2E2E2
310
E2E2E2E2E2E2E2E2E2E2E2E2E2E2E2E2E2E2E2E2E2E2E2E2E2E2E2E2E2E2E2E2E2E2E2E2E2E2E2E2E2E2E2E2E2E2E2E2E2E2E2E2E2E2E2E2E2E2E2E2
  0
CELLSTYLEMAP
  5
267E
102
{ACAD_REACTORS
330
16A7
102
}
330
16A7
100
AcDbCellStyleMap
 90
        3
300
CELLSTYLE
  1
TABLEFORMAT_BEGIN
 90
        5
170
     1
 91
        0
 92
    32768
 62
   257
 93
        1
300
CONTENTFORMAT
  1
CONTENTFORMAT_BEGIN
 90
        0
 91
        0
 92
      512
 93
        0
300

 40
0.0
140
1.0
 94
        5
 62
     0
340
11
144
0.25
309
CONTENTFORMAT_END
171
     1
301
MARGIN
  1
CELLMARGIN_BEGIN
 40
0.06
 40
0.06
 40
0.06
 40
0.06
 40
0.18
 40
0.18
309
CELLMARGIN_END
 94
        6
 95
        1
302
GRIDFORMAT
  1
GRIDFORMAT_BEGIN
 90
        0
 91
        1
 62
     0
 92
       -2
340
0
 93
        0
 40
0.045
309
GRIDFORMAT_END
 95
        2
302
GRIDFORMAT
  1
GRIDFORMAT_BEGIN
 90
        0
 91
        1
 62
     0
 92
       -2
340
0
 93
        0
 40
0.045
309
GRIDFORMAT_END
 95
        4
302
GRIDFORMAT
  1
GRIDFORMAT_BEGIN
 90
        0
 91
        1
 62
     0
 92
       -2
340
0
 93
        0
 40
0.045
309
GRIDFORMAT_END
 95
        8
302
GRIDFORMAT
  1
GRIDFORMAT_BEGIN
 90
        0
 91
        1
 62
     0
 92
       -2
340
0
 93
        0
 40
0.045
309
GRIDFORMAT_END
 95
       16
302
GRIDFORMAT
  1
GRIDFORMAT_BEGIN
 90
        0
 91
        1
 62
     0
 92
       -2
340
0
 93
        0
 40
0.045
309
GRIDFORMAT_END
 95
       32
302
GRIDFORMAT
  1
GRIDFORMAT_BEGIN
 90
        0
 91
        1
 62
     0
 92
       -2
340
0
 93
        0
 40
0.045
309
GRIDFORMAT_END
309
TABLEFORMAT_END
  1
CELLSTYLE_BEGIN
 90
        1
 91
        1
300
_TITLE
309
CELLSTYLE_END
300
CELLSTYLE
  1
TABLEFORMAT_BEGIN
 90
        5
170
     1
 91
        0
 92
        0
 62
   257
 93
        1
300
CONTENTFORMAT
  1
CONTENTFORMAT_BEGIN
 90
        0
 91
        0
 92
      512
 93
        0
300

 40
0.0
140
1.0
 94
        5
 62
     0
340
11
144
0.18
309
CONTENTFORMAT_END
171
     1
301
MARGIN
  1
CELLMARGIN_BEGIN
 40
0.06
 40
0.06
 40
0.06
 40
0.06
 40
0.18
 40
0.18
309
CELLMARGIN_END
 94
        6
 95
        1
302
GRIDFORMAT
  1
GRIDFORMAT_BEGIN
 90
        0
 91
        1
 62
     0
 92
       -2
340
0
 93
        0
 40
0.045
309
GRIDFORMAT_END
 95
        2
302
GRIDFORMAT
  1
GRIDFORMAT_BEGIN
 90
        0
 91
        1
 62
     0
 92
       -2
340
0
 93
        0
 40
0.045
309
GRIDFORMAT_END
 95
        4
302
GRIDFORMAT
  1
GRIDFORMAT_BEGIN
 90
        0
 91
        1
 62
     0
 92
       -2
340
0
 93
        0
 40
0.045
309
GRIDFORMAT_END
 95
        8
302
GRIDFORMAT
  1
GRIDFORMAT_BEGIN
 90
        0
 91
        1
 62
     0
 92
       -2
340
0
 93
        0
 40
0.045
309
GRIDFORMAT_END
 95
       16
302
GRIDFORMAT
  1
GRIDFORMAT_BEGIN
 90
        0
 91
        1
 62
     0
 92
       -2
340
0
 93
        0
 40
0.045
309
GRIDFORMAT_END
 95
       32
302
GRIDFORMAT
  1
GRIDFORMAT_BEGIN
 90
        0
 91
        1
 62
     0
 92
       -2
340
0
 93
        0
 40
0.045
309
GRIDFORMAT_END
309
TABLEFORMAT_END
  1
CELLSTYLE_BEGIN
 90
        2
 91
        1
300
_HEADER
309
CELLSTYLE_END
300
CELLSTYLE
  1
TABLEFORMAT_BEGIN
 90
        5
170
     1
 91
        0
 92
        0
 62
   257
 93
        1
300
CONTENTFORMAT
  1
CONTENTFORMAT_BEGIN
 90
        0
 91
        0
 92
      512
 93
        0
300

 40
0.0
140
1.0
 94
        2
 62
     0
340
11
144
0.18
309
CONTENTFORMAT_END
171
     1
301
MARGIN
  1
CELLMARGIN_BEGIN
 40
0.06
 40
0.06
 40
0.06
 40
0.06
 40
0.18
 40
0.18
309
CELLMARGIN_END
 94
        6
 95
        1
302
GRIDFORMAT
  1
GRIDFORMAT_BEGIN
 90
        0
 91
        1
 62
     0
 92
       -2
340
0
 93
        0
 40
0.045
309
GRIDFORMAT_END
 95
        2
302
GRIDFORMAT
  1
GRIDFORMAT_BEGIN
 90
        0
 91
        1
 62
     0
 92
       -2
340
0
 93
        0
 40
0.045
309
GRIDFORMAT_END
 95
        4
302
GRIDFORMAT
  1
GRIDFORMAT_BEGIN
 90
        0
 91
        1
 62
     0
 92
       -2
340
0
 93
        0
 40
0.045
309
GRIDFORMAT_END
 95
        8
302
GRIDFORMAT
  1
GRIDFORMAT_BEGIN
 90
        0
 91
        1
 62
     0
 92
       -2
340
0
 93
        0
 40
0.045
309
GRIDFORMAT_END
 95
       16
302
GRIDFORMAT
  1
GRIDFORMAT_BEGIN
 90
        0
 91
        1
 62
     0
 92
       -2
340
0
 93
        0
 40
0.045
309
GRIDFORMAT_END
 95
       32
302
GRIDFORMAT
  1
GRIDFORMAT_BEGIN
 90
        0
 91
        1
 62
     0
 92
       -2
340
0
 93
        0
 40
0.045
309
GRIDFORMAT_END
309
TABLEFORMAT_END
  1
CELLSTYLE_BEGIN
 90
        3
 91
        2
300
_DATA
309
CELLSTYLE_END
  0
ENDSEC
  0
EOF
