  0
SECTION
  2
HEADER
  9
$ACADVER
  1
AC1021
  9
$ACADMAINTVER
 70
    25
  9
$DWGCODEPAGE
  3
ANSI_1251
  9
$INSBASE
 10
0.0
 20
0.0
 30
0.0
  9
$EXTMIN
 10
-112.21262
 20
-115.90633
 30
0.0
  9
$EXTMAX
 10
108.29796
 20
40.9774
 30
0.0
  9
$LIMMIN
 10
0.0
 20
0.0
  9
$LIMMAX
 10
12.0
 20
9.0
  9
$ORTHOMODE
 70
     0
  9
$REGENMODE
 70
     1
  9
$FILLMODE
 70
     1
  9
$QTEXTMODE
 70
     0
  9
$MIRRTEXT
 70
     1
  9
$LTSCALE
 40
1.0
  9
$ATTMODE
 70
     1
  9
$TEXTSIZE
 40
0.2
  9
$TRACEWID
 40
0.05
  9
$TEXTSTYLE
  7
Standard
  9
$CLAYER
  8
0
  9
$CELTYPE
  6
ByLayer
  9
$CECOLOR
 62
   256
  9
$CELTSCALE
 40
1.0
  9
$DISPSILH
 70
     0
  9
$DIMSCALE
 40
1.0
  9
$DIMASZ
 40
0.18
  9
$DIMEXO
 40
0.0625
  9
$DIMDLI
 40
0.38
  9
$DIMRND
 40
0.0
  9
$DIMDLE
 40
0.0
  9
$DIMEXE
 40
0.18
  9
$DIMTP
 40
0.0
  9
$DIMTM
 40
0.0
  9
$DIMTXT
 40
0.18
  9
$DIMCEN
 40
0.09
  9
$DIMTSZ
 40
0.0
  9
$DIMTOL
 70
     0
  9
$DIMLIM
 70
     0
  9
$DIMTIH
 70
     1
  9
$DIMTOH
 70
     1
  9
$DIMSE1
 70
     0
  9
$DIMSE2
 70
     0
  9
$DIMTAD
 70
     0
  9
$DIMZIN
 70
     0
  9
$DIMBLK
  1

  9
$DIMASO
 70
     1
  9
$DIMSHO
 70
     1
  9
$DIMPOST
  1

  9
$DIMAPOST
  1

  9
$DIMALT
 70
     0
  9
$DIMALTD
 70
     2
  9
$DIMALTF
 40
25.4
  9
$DIMLFAC
 40
1.0
  9
$DIMTOFL
 70
     0
  9
$DIMTVP
 40
0.0
  9
$DIMTIX
 70
     0
  9
$DIMSOXD
 70
     0
  9
$DIMSAH
 70
     0
  9
$DIMBLK1
  1

  9
$DIMBLK2
  1

  9
$DIMSTYLE
  2
Standard
  9
$DIMCLRD
 70
     0
  9
$DIMCLRE
 70
     0
  9
$DIMCLRT
 70
     0
  9
$DIMTFAC
 40
1.0
  9
$DIMGAP
 40
0.09
  9
$DIMJUST
 70
     0
  9
$DIMSD1
 70
     0
  9
$DIMSD2
 70
     0
  9
$DIMTOLJ
 70
     1
  9
$DIMTZIN
 70
     0
  9
$DIMALTZ
 70
     0
  9
$DIMALTTZ
 70
     0
  9
$DIMUPT
 70
     0
  9
$DIMDEC
 70
     4
  9
$DIMTDEC
 70
     4
  9
$DIMALTU
 70
     2
  9
$DIMALTTD
 70
     2
  9
$DIMTXSTY
  7
Standard
  9
$DIMAUNIT
 70
     0
  9
$DIMADEC
 70
     0
  9
$DIMALTRND
 40
0.0
  9
$DIMAZIN
 70
     0
  9
$DIMDSEP
 70
    46
  9
$DIMATFIT
 70
     3
  9
$DIMFRAC
 70
     0
  9
$DIMLDRBLK
  1

  9
$DIMLUNIT
 70
     2
  9
$DIMLWD
 70
    -2
  9
$DIMLWE
 70
    -2
  9
$DIMTMOVE
 70
     0
  9
$DIMFXL
 40
1.0
  9
$DIMFXLON
 70
     0
  9
$DIMJOGANG
 40
0.7853981633974483
  9
$DIMTFILL
 70
     0
  9
$DIMTFILLCLR
 70
     0
  9
$DIMARCSYM
 70
     0
  9
$DIMLTYPE
  6

  9
$DIMLTEX1
  6

  9
$DIMLTEX2
  6

  9
$LUNITS
 70
     2
  9
$LUPREC
 70
     4
  9
$SKETCHINC
 40
0.1
  9
$FILLETRAD
 40
0.5
  9
$AUNITS
 70
     0
  9
$AUPREC
 70
     0
  9
$MENU
  1
.
  9
$ELEVATION
 40
0.0
  9
$PELEVATION
 40
0.0
  9
$THICKNESS
 40
0.0
  9
$LIMCHECK
 70
     0
  9
$CHAMFERA
 40
0.0
  9
$CHAMFERB
 40
0.0
  9
$CHAMFERC
 40
0.0
  9
$CHAMFERD
 40
0.0
  9
$SKPOLY
 70
     0
  9
$TDCREATE
 40
2458100.998330961
  9
$TDUCREATE
 40
2458100.873330961
  9
$TDUPDATE
 40
2458100.998330995
  9
$TDUUPDATE
 40
2458100.873330995
  9
$TDINDWG
 40
0.0000000116
  9
$TDUSRTIMER
 40
0.0000000116
  9
$USRTIMER
 70
     1
  9
$ANGBASE
 50
0.0
  9
$ANGDIR
 70
     0
  9
$PDMODE
 70
     0
  9
$PDSIZE
 40
0.0
  9
$PLINEWID
 40
0.0
  9
$SPLFRAME
 70
     0
  9
$SPLINETYPE
 70
     6
  9
$SPLINESEGS
 70
     8
  9
$HANDSEED
  5
BE
  9
$SURFTAB1
 70
     6
  9
$SURFTAB2
 70
     6
  9
$SURFTYPE
 70
     6
  9
$SURFU
 70
     6
  9
$SURFV
 70
     6
  9
$UCSBASE
  2

  9
$UCSNAME
  2

  9
$UCSORG
 10
0.0
 20
0.0
 30
0.0
  9
$UCSXDIR
 10
1.0
 20
0.0
 30
0.0
  9
$UCSYDIR
 10
0.0
 20
1.0
 30
0.0
  9
$UCSORTHOREF
  2

  9
$UCSORTHOVIEW
 70
     0
  9
$UCSORGTOP
 10
0.0
 20
0.0
 30
0.0
  9
$UCSORGBOTTOM
 10
0.0
 20
0.0
 30
0.0
  9
$UCSORGLEFT
 10
0.0
 20
0.0
 30
0.0
  9
$UCSORGRIGHT
 10
0.0
 20
0.0
 30
0.0
  9
$UCSORGFRONT
 10
0.0
 20
0.0
 30
0.0
  9
$UCSORGBACK
 10
0.0
 20
0.0
 30
0.0
  9
$PUCSBASE
  2

  9
$PUCSNAME
  2

  9
$PUCSORG
 10
0.0
 20
0.0
 30
0.0
  9
$PUCSXDIR
 10
1.0
 20
0.0
 30
0.0
  9
$PUCSYDIR
 10
0.0
 20
1.0
 30
0.0
  9
$PUCSORTHOREF
  2

  9
$PUCSORTHOVIEW
 70
     0
  9
$PUCSORGTOP
 10
0.0
 20
0.0
 30
0.0
  9
$PUCSORGBOTTOM
 10
0.0
 20
0.0
 30
0.0
  9
$PUCSORGLEFT
 10
0.0
 20
0.0
 30
0.0
  9
$PUCSORGRIGHT
 10
0.0
 20
0.0
 30
0.0
  9
$PUCSORGFRONT
 10
0.0
 20
0.0
 30
0.0
  9
$PUCSORGBACK
 10
0.0
 20
0.0
 30
0.0
  9
$USERI1
 70
     0
  9
$USERI2
 70
     0
  9
$USERI3
 70
     0
  9
$USERI4
 70
     0
  9
$USERI5
 70
     0
  9
$USERR1
 40
0.0
  9
$USERR2
 40
0.0
  9
$USERR3
 40
0.0
  9
$USERR4
 40
0.0
  9
$USERR5
 40
0.0
  9
$WORLDVIEW
 70
     1
  9
$SHADEDGE
 70
     3
  9
$SHADEDIF
 70
    70
  9
$TILEMODE
 70
     1
  9
$MAXACTVP
 70
    64
  9
$PINSBASE
 10
0.0
 20
0.0
 30
0.0
  9
$PLIMCHECK
 70
     0
  9
$PEXTMIN
 10
1.000000000000000E+20
 20
1.000000000000000E+20
 30
1.000000000000000E+20
  9
$PEXTMAX
 10
-1.000000000000000E+20
 20
-1.000000000000000E+20
 30
-1.000000000000000E+20
  9
$PLIMMIN
 10
0.0
 20
0.0
  9
$PLIMMAX
 10
12.0
 20
9.0
  9
$UNITMODE
 70
     0
  9
$VISRETAIN
 70
     1
  9
$PLINEGEN
 70
     0
  9
$PSLTSCALE
 70
     1
  9
$TREEDEPTH
 70
  3020
  9
$CMLSTYLE
  2
Standard
  9
$CMLJUST
 70
     0
  9
$CMLSCALE
 40
1.0
  9
$PROXYGRAPHICS
 70
     1
  9
$MEASUREMENT
 70
     0
  9
$CELWEIGHT
370
    -1
  9
$ENDCAPS
280
     0
  9
$JOINSTYLE
280
     0
  9
$LWDISPLAY
290
     0
  9
$INSUNITS
 70
     5
  9
$HYPERLINKBASE
  1

  9
$STYLESHEET
  1

  9
$XEDIT
290
     1
  9
$CEPSNTYPE
380
     0
  9
$PSTYLEMODE
290
     1
  9
$FINGERPRINTGUID
  2
{871A0223-6F7B-4CC8-AEC0-4832E8BA2DFD}
  9
$VERSIONGUID
  2
{FAEB1C32-E019-11D5-929B-00C0DF256EC4}
  9
$EXTNAMES
290
     1
  9
$PSVPSCALE
 40
0.0
  9
$OLESTARTUP
290
     0
  9
$SORTENTS
280
   127
  9
$INDEXCTL
280
     0
  9
$HIDETEXT
280
     1
  9
$XCLIPFRAME
290
     0
  9
$HALOGAP
280
     0
  9
$OBSCOLOR
 70
   257
  9
$OBSLTYPE
280
     0
  9
$INTERSECTIONDISPLAY
280
     0
  9
$INTERSECTIONCOLOR
 70
   257
  9
$DIMASSOC
280
     2
  9
$PROJECTNAME
  1

  9
$CAMERADISPLAY
290
     0
  9
$LENSLENGTH
 40
50.0
  9
$CAMERAHEIGHT
 40
0.0
  9
$STEPSPERSEC
 40
2.0
  9
$STEPSIZE
 40
6.0
  9
$3DDWFPREC
 40
2.0
  9
$PSOLWIDTH
 40
0.25
  9
$PSOLHEIGHT
 40
4.0
  9
$LOFTANG1
 40
1.570796326794897
  9
$LOFTANG2
 40
1.570796326794897
  9
$LOFTMAG1
 40
0.0
  9
$LOFTMAG2
 40
0.0
  9
$LOFTPARAM
 70
     7
  9
$LOFTNORMALS
280
     1
  9
$LATITUDE
 40
37.795
  9
$LONGITUDE
 40
-122.394
  9
$NORTHDIRECTION
 40
0.0
  9
$TIMEZONE
 70
 -8000
  9
$LIGHTGLYPHDISPLAY
280
     1
  9
$TILEMODELIGHTSYNCH
280
     1
  9
$CMATERIAL
347
44
  9
$SOLIDHIST
280
     0
  9
$SHOWHIST
280
     1
  9
$DWFFRAME
280
     2
  9
$DGNFRAME
280
     2
  9
$REALWORLDSCALE
290
     1
  9
$INTERFERECOLOR
 62
   256
  9
$CSHADOW
280
     0
  9
$SHADOWPLANELOCATION
 40
0.0
  0
ENDSEC
  0
SECTION
  2
CLASSES
  0
CLASS
  1
ACDBDICTIONARYWDFLT
  2
AcDbDictionaryWithDefault
  3
ObjectDBX Classes
 90
        0
 91
        4
280
     0
281
     0
  0
CLASS
  1
VISUALSTYLE
  2
AcDbVisualStyle
  3
ObjectDBX Classes
 90
     4095
 91
        4
280
     0
281
     0
  0
CLASS
  1
MATERIAL
  2
AcDbMaterial
  3
ObjectDBX Classes
 90
     1153
 91
        4
280
     0
281
     0
  0
CLASS
  1
SCALE
  2
AcDbScale
  3
ObjectDBX Classes
 90
     1153
 91
        4
280
     0
281
     0
  0
CLASS
  1
TABLESTYLE
  2
AcDbTableStyle
  3
ObjectDBX Classes
 90
     4095
 91
        4
280
     0
281
     0
  0
CLASS
  1
MLEADERSTYLE
  2
AcDbMLeaderStyle
  3
ACDB_MLEADERSTYLE_CLASS
 90
     4095
 91
        4
280
     0
281
     0
  0
CLASS
  1
SUN
  2
AcDbSun
  3
SCENEOE
 90
     1153
 91
        4
280
     0
281
     0
  0
CLASS
  1
DICTIONARYVAR
  2
AcDbDictionaryVar
  3
ObjectDBX Classes
 90
        0
 91
        4
280
     0
281
     0
  0
CLASS
  1
CELLSTYLEMAP
  2
AcDbCellStyleMap
  3
ObjectDBX Classes
 90
     1152
 91
        4
280
     0
281
     0
  0
ENDSEC
  0
SECTION
  2
TABLES
  0
TABLE
  2
VPORT
  5
8
330
0
100
AcDbSymbolTable
 70
     1
  0
VPORT
  5
29
330
8
100
AcDbSymbolTableRecord
100
AcDbViewportTableRecord
  2
*Active
 70
     0
 10
0.0
 20
0.0
 11
1.0
 21
1.0
 12
10.42990654205607
 22
4.5
 13
0.0
 23
0.0
 14
0.5
 24
0.5
 15
0.5
 25
0.5
 16
0.0
 26
0.0
 36
1.0
 17
0.0
 27
0.0
 37
0.0
 40
9.0
 41
1.972972972850329
 42
50.0
 43
0.0
 44
0.0
 50
0.0
 51
0.0
 71
     0
 72
   100
 73
     1
 74
     3
 75
     0
 76
     0
 77
     0
 78
     0
281
     0
 65
     1
110
0.0
120
0.0
130
0.0
111
1.0
121
0.0
131
0.0
112
0.0
122
1.0
132
0.0
 79
     0
146
0.0
 60
     3
 61
     5
292
     1
282
     1
141
0.0
142
0.0
 63
   250
361
6D
  0
ENDTAB
  0
TABLE
  2
LTYPE
  5
5
330
0
100
AcDbSymbolTable
 70
     1
  0
LTYPE
  5
14
330
5
100
AcDbSymbolTableRecord
100
AcDbLinetypeTableRecord
  2
ByBlock
 70
     0
  3

 72
    65
 73
     0
 40
0.0
  0
LTYPE
  5
15
330
5
100
AcDbSymbolTableRecord
100
AcDbLinetypeTableRecord
  2
ByLayer
 70
     0
  3

 72
    65
 73
     0
 40
0.0
  0
LTYPE
  5
16
330
5
100
AcDbSymbolTableRecord
100
AcDbLinetypeTableRecord
  2
Continuous
 70
     0
  3
Solid line
 72
    65
 73
     0
 40
0.0
  0
ENDTAB
  0
TABLE
  2
LAYER
  5
2
330
0
100
AcDbSymbolTable
 70
     2
  0
LAYER
  5
10
330
2
100
AcDbSymbolTableRecord
100
AcDbLayerTableRecord
  2
0
 70
     0
 62
     7
  6
Continuous
370
    -3
390
F
347
46
  0
LAYER
  5
6F
330
2
100
AcDbSymbolTableRecord
100
AcDbLayerTableRecord
  2
layer 1
 70
     0
 62
     7
  6
Continuous
370
    -3
390
F
347
46
  0
ENDTAB
  0
TABLE
  2
STYLE
  5
3
330
0
100
AcDbSymbolTable
 70
     1
  0
STYLE
  5
11
330
3
100
AcDbSymbolTableRecord
100
AcDbTextStyleTableRecord
  2
Standard
 70
     0
 40
0.0
 41
1.0
 50
0.0
 71
     0
 42
0.2
  3
txt
  4

  0
ENDTAB
  0
TABLE
  2
VIEW
  5
6
330
0
100
AcDbSymbolTable
 70
     0
  0
ENDTAB
  0
TABLE
  2
UCS
  5
7
330
0
100
AcDbSymbolTable
 70
     0
  0
ENDTAB
  0
TABLE
  2
APPID
  5
9
330
0
100
AcDbSymbolTable
 70
     3
  0
APPID
  5
12
330
9
100
AcDbSymbolTableRecord
100
AcDbRegAppTableRecord
  2
ACAD
 70
     0
  0
APPID
  5
6E
330
9
100
AcDbSymbolTableRecord
100
AcDbRegAppTableRecord
  2
ODA
 70
     0
  0
APPID
  5
B6
330
9
100
AcDbSymbolTableRecord
100
AcDbRegAppTableRecord
  2
ACAD_MLEADERVER
 70
     0
  0
ENDTAB
  0
TABLE
  2
DIMSTYLE
  5
A
330
0
100
AcDbSymbolTable
 70
     1
100
AcDbDimStyleTable
  0
DIMSTYLE
105
27
330
A
100
AcDbSymbolTableRecord
100
AcDbDimStyleTableRecord
  2
Standard
 70
     0
178
     0
340
11
  0
ENDTAB
  0
TABLE
  2
BLOCK_RECORD
  5
1
330
0
100
AcDbSymbolTable
 70
     1
  0
BLOCK_RECORD
  5
1F
330
1
100
AcDbSymbolTableRecord
100
AcDbBlockTableRecord
  2
*Model_Space
340
22
 70
     0
280
     1
281
     0
  0
BLOCK_RECORD
  5
1B
330
1
100
AcDbSymbolTableRecord
100
AcDbBlockTableRecord
  2
*Paper_Space
340
1E
 70
     0
280
     1
281
     0
  0
BLOCK_RECORD
  5
23
330
1
100
AcDbSymbolTableRecord
100
AcDbBlockTableRecord
  2
*Paper_Space0
340
26
 70
     0
280
     1
281
     0
  0
ENDTAB
  0
ENDSEC
  0
SECTION
  2
BLOCKS
  0
BLOCK
  5
20
330
1F
100
AcDbEntity
  8
0
100
AcDbBlockBegin
  2
*Model_Space
 70
     0
 10
0.0
 20
0.0
 30
0.0
  3
*Model_Space
  1

  0
ENDBLK
  5
21
330
1F
100
AcDbEntity
  8
0
100
AcDbBlockEnd
  0
BLOCK
  5
1C
330
1B
100
AcDbEntity
 67
     1
  8
0
100
AcDbBlockBegin
  2
*Paper_Space
 70
     0
 10
0.0
 20
0.0
 30
0.0
  3
*Paper_Space
  1

  0
ENDBLK
  5
1D
330
1B
100
AcDbEntity
 67
     1
  8
0
100
AcDbBlockEnd
  0
BLOCK
  5
24
330
23
100
AcDbEntity
  8
0
100
AcDbBlockBegin
  2
*Paper_Space0
 70
     0
 10
0.0
 20
0.0
 30
0.0
  3
*Paper_Space0
  1

  0
ENDBLK
  5
25
330
23
100
AcDbEntity
  8
0
100
AcDbBlockEnd
  0
ENDSEC
  0
SECTION
  2
ENTITIES
  0
SPLINE
  5
70
330
1F
100
AcDbEntity
  8
layer 1
 62
   250
370
     9
100
AcDbSpline
210
0.0
220
0.0
230
1.0
 70
    11
 71
     3
 72
   288
 73
   284
 74
     0
 42
0.000000001
 43
0.0000000001
 40
0.0
 40
0.0
 40
0.0
 40
0.0
 40
0.0138888888888889
 40
0.0138888888888889
 40
0.0138888888888889
 40
0.0138888888888889
 40
0.0277777777777778
 40
0.0277777777777778
 40
0.0277777777777778
 40
0.0277777777777778
 40
0.0416666666666667
 40
0.0416666666666667
 40
0.0416666666666667
 40
0.0416666666666667
 40
0.0555555555555556
 40
0.0555555555555556
 40
0.0555555555555556
 40
0.0555555555555556
 40
0.0694444444444444
 40
0.0694444444444444
 40
0.0694444444444444
 40
0.0694444444444444
 40
0.0833333333333333
 40
0.0833333333333333
 40
0.0833333333333333
 40
0.0833333333333333
 40
0.0972222222222222
 40
0.0972222222222222
 40
0.0972222222222222
 40
0.0972222222222222
 40
0.1111111111111111
 40
0.1111111111111111
 40
0.1111111111111111
 40
0.1111111111111111
 40
0.125
 40
0.125
 40
0.125
 40
0.125
 40
0.1388888888888889
 40
0.1388888888888889
 40
0.1388888888888889
 40
0.1388888888888889
 40
0.1527777777777778
 40
0.1527777777777778
 40
0.1527777777777778
 40
0.1527777777777778
 40
0.1666666666666667
 40
0.1666666666666667
 40
0.1666666666666667
 40
0.1666666666666667
 40
0.1805555555555556
 40
0.1805555555555556
 40
0.1805555555555556
 40
0.1805555555555556
 40
0.1944444444444444
 40
0.1944444444444444
 40
0.1944444444444444
 40
0.1944444444444444
 40
0.2083333333333333
 40
0.2083333333333333
 40
0.2083333333333333
 40
0.2083333333333333
 40
0.2222222222222222
 40
0.2222222222222222
 40
0.2222222222222222
 40
0.2222222222222222
 40
0.2361111111111111
 40
0.2361111111111111
 40
0.2361111111111111
 40
0.2361111111111111
 40
0.25
 40
0.25
 40
0.25
 40
0.25
 40
0.2638888888888889
 40
0.2638888888888889
 40
0.2638888888888889
 40
0.2638888888888889
 40
0.2777777777777778
 40
0.2777777777777778
 40
0.2777777777777778
 40
0.2777777777777778
 40
0.2916666666666667
 40
0.2916666666666667
 40
0.2916666666666667
 40
0.2916666666666667
 40
0.3055555555555556
 40
0.3055555555555556
 40
0.3055555555555556
 40
0.3055555555555556
 40
0.3194444444444444
 40
0.3194444444444444
 40
0.3194444444444444
 40
0.3194444444444444
 40
0.3333333333333333
 40
0.3333333333333333
 40
0.3333333333333333
 40
0.3333333333333333
 40
0.3472222222222222
 40
0.3472222222222222
 40
0.3472222222222222
 40
0.3472222222222222
 40
0.3611111111111111
 40
0.3611111111111111
 40
0.3611111111111111
 40
0.3611111111111111
 40
0.375
 40
0.375
 40
0.375
 40
0.375
 40
0.3888888888888889
 40
0.3888888888888889
 40
0.3888888888888889
 40
0.3888888888888889
 40
0.4027777777777778
 40
0.4027777777777778
 40
0.4027777777777778
 40
0.4027777777777778
 40
0.4166666666666667
 40
0.4166666666666667
 40
0.4166666666666667
 40
0.4166666666666667
 40
0.4305555555555556
 40
0.4305555555555556
 40
0.4305555555555556
 40
0.4305555555555556
 40
0.4444444444444444
 40
0.4444444444444444
 40
0.4444444444444444
 40
0.4444444444444444
 40
0.4583333333333333
 40
0.4583333333333333
 40
0.4583333333333333
 40
0.4583333333333333
 40
0.4722222222222222
 40
0.4722222222222222
 40
0.4722222222222222
 40
0.4722222222222222
 40
0.4861111111111111
 40
0.4861111111111111
 40
0.4861111111111111
 40
0.4861111111111111
 40
0.5
 40
0.5
 40
0.5
 40
0.5
 40
0.5138888888888888
 40
0.5138888888888888
 40
0.5138888888888888
 40
0.5138888888888888
 40
0.5277777777777778
 40
0.5277777777777778
 40
0.5277777777777778
 40
0.5277777777777778
 40
0.5416666666666666
 40
0.5416666666666666
 40
0.5416666666666666
 40
0.5416666666666666
 40
0.5555555555555556
 40
0.5555555555555556
 40
0.5555555555555556
 40
0.5555555555555556
 40
0.5694444444444444
 40
0.5694444444444444
 40
0.5694444444444444
 40
0.5694444444444444
 40
0.5833333333333334
 40
0.5833333333333334
 40
0.5833333333333334
 40
0.5833333333333334
 40
0.5972222222222222
 40
0.5972222222222222
 40
0.5972222222222222
 40
0.5972222222222222
 40
0.6111111111111112
 40
0.6111111111111112
 40
0.6111111111111112
 40
0.6111111111111112
 40
0.625
 40
0.625
 40
0.625
 40
0.625
 40
0.6388888888888888
 40
0.6388888888888888
 40
0.6388888888888888
 40
0.6388888888888888
 40
0.6527777777777778
 40
0.6527777777777778
 40
0.6527777777777778
 40
0.6527777777777778
 40
0.6666666666666666
 40
0.6666666666666666
 40
0.6666666666666666
 40
0.6666666666666666
 40
0.6805555555555556
 40
0.6805555555555556
 40
0.6805555555555556
 40
0.6805555555555556
 40
0.6944444444444444
 40
0.6944444444444444
 40
0.6944444444444444
 40
0.6944444444444444
 40
0.7083333333333334
 40
0.7083333333333334
 40
0.7083333333333334
 40
0.7083333333333334
 40
0.7222222222222222
 40
0.7222222222222222
 40
0.7222222222222222
 40
0.7222222222222222
 40
0.7361111111111112
 40
0.7361111111111112
 40
0.7361111111111112
 40
0.7361111111111112
 40
0.75
 40
0.75
 40
0.75
 40
0.75
 40
0.7638888888888888
 40
0.7638888888888888
 40
0.7638888888888888
 40
0.7638888888888888
 40
0.7777777777777778
 40
0.7777777777777778
 40
0.7777777777777778
 40
0.7777777777777778
 40
0.7916666666666666
 40
0.7916666666666666
 40
0.7916666666666666
 40
0.7916666666666666
 40
0.8055555555555556
 40
0.8055555555555556
 40
0.8055555555555556
 40
0.8055555555555556
 40
0.8194444444444444
 40
0.8194444444444444
 40
0.8194444444444444
 40
0.8194444444444444
 40
0.8333333333333334
 40
0.8333333333333334
 40
0.8333333333333334
 40
0.8333333333333334
 40
0.8472222222222222
 40
0.8472222222222222
 40
0.8472222222222222
 40
0.8472222222222222
 40
0.8611111111111112
 40
0.8611111111111112
 40
0.8611111111111112
 40
0.8611111111111112
 40
0.875
 40
0.875
 40
0.875
 40
0.875
 40
0.8888888888888888
 40
0.8888888888888888
 40
0.8888888888888888
 40
0.8888888888888888
 40
0.9027777777777778
 40
0.9027777777777778
 40
0.9027777777777778
 40
0.9027777777777778
 40
0.9166666666666666
 40
0.9166666666666666
 40
0.9166666666666666
 40
0.9166666666666666
 40
0.9305555555555556
 40
0.9305555555555556
 40
0.9305555555555556
 40
0.9305555555555556
 40
0.9444444444444444
 40
0.9444444444444444
 40
0.9444444444444444
 40
0.9444444444444444
 40
0.9583333333333334
 40
0.9583333333333334
 40
0.9583333333333334
 40
0.9583333333333334
 40
0.9722222222222222
 40
0.9722222222222222
 40
0.9722222222222222
 40
0.9722222222222222
 40
1.0
 40
1.0
 40
1.0
 40
1.0
 10
-2.36727
 20
-54.26876
 30
0.0
 10
-2.36727
 20
-54.26876
 30
0.0
 10
-2.36727
 20
-39.38153
 30
0.0
 10
-2.36727
 20
-39.38153
 30
0.0
 10
-2.36727
 20
-39.38153
 30
0.0
 10
-2.36727
 20
-39.38153
 30
0.0
 10
-3.36727
 20
-39.38153
 30
0.0
 10
-3.36727
 20
-39.38153
 30
0.0
 10
-3.36727
 20
-39.38153
 30
0.0
 10
-3.36727
 20
-39.38153
 30
0.0
 10
-3.36727
 20
-54.19835
 30
0.0
 10
-3.36727
 20
-54.19835
 30
0.0
 10
-3.36727
 20
-54.19835
 30
0.0
 10
-5.87051
 20
-53.70282
 30
0.0
 10
-8.43504
 20
-50.69075
 30
0.0
 10
-10.02259
 20
-49.06927
 30
0.0
 10
-10.02259
 20
-49.06927
 30
0.0
 10
-17.6789
 20
-41.24938
 30
0.0
 10
-42.17188
 20
-37.15447
 30
0.0
 10
-50.61727
 20
-45.89614
 30
0.0
 10
-50.61727
 20
-45.89614
 30
0.0
 10
-50.61727
 20
-45.89614
 30
0.0
 10
-50.61727
 20
-29.17308
 30
0.0
 10
-50.61727
 20
-29.17308
 30
0.0
 10
-50.61727
 20
-29.17308
 30
0.0
 10
-50.61727
 20
-29.17308
 30
0.0
 10
-51.61727
 20
-29.17308
 30
0.0
 10
-51.61727
 20
-29.17308
 30
0.0
 10
-51.61727
 20
-29.17308
 30
0.0
 10
-51.61727
 20
-29.17308
 30
0.0
 10
-51.61727
 20
-47.09881
 30
0.0
 10
-51.61727
 20
-47.09881
 30
0.0
 10
-51.61727
 20
-47.09881
 30
0.0
 10
-52.21463
 20
-47.97071
 30
0.0
 10
-52.8474
 20
-48.75043
 30
0.0
 10
-53.92977
 20
-48.99339
 30
0.0
 10
-53.92977
 20
-48.99339
 30
0.0
 10
-54.13394
 20
-49.03923
 30
0.0
 10
-54.2506
 20
-49.03089
 30
0.0
 10
-54.26727
 20
-48.96006
 30
0.0
 10
-54.26727
 20
-48.96006
 30
0.0
 10
-54.28394
 20
-48.88923
 30
0.0
 10
-54.2006
 20
-48.75589
 30
0.0
 10
-54.0631
 20
-48.49339
 30
0.0
 10
-54.0631
 20
-48.49339
 30
0.0
 10
-53.53306
 20
-47.4815
 30
0.0
 10
-53.35251
 20
-46.31698
 30
0.0
 10
-53.25477
 20
-45.18923
 30
0.0
 10
-53.25477
 20
-45.18923
 30
0.0
 10
-53.2006
 20
-44.56423
 30
0.0
 10
-53.20894
 20
-44.13089
 30
0.0
 10
-53.2131
 20
-43.85589
 30
0.0
 10
-53.2131
 20
-43.85589
 30
0.0
 10
-53.23024
 20
-42.72593
 30
0.0
 10
-54.37545
 20
-44.59608
 30
0.0
 10
-54.5131
 20
-44.85172
 30
0.0
 10
-54.5131
 20
-44.85172
 30
0.0
 10
-54.71727
 20
-45.23089
 30
0.0
 10
-54.86727
 20
-45.63923
 30
0.0
 10
-54.97143
 20
-45.98089
 30
0.0
 10
-54.97143
 20
-45.98089
 30
0.0
 10
-55.15053
 20
-46.56834
 30
0.0
 10
-55.19574
 20
-47.17915
 30
0.0
 10
-55.4881
 20
-46.16839
 30
0.0
 10
-55.4881
 20
-46.16839
 30
0.0
 10
-56.33908
 20
-43.2266
 30
0.0
 10
-56.41149
 20
-40.0406
 30
0.0
 10
-56.08882
 20
-37.01533
 30
0.0
 10
-56.08882
 20
-37.01533
 30
0.0
 10
-55.81624
 20
-34.45946
 30
0.0
 10
-55.50491
 20
-32.08486
 30
0.0
 10
-54.81727
 20
-29.60173
 30
0.0
 10
-54.81727
 20
-29.60173
 30
0.0
 10
-54.59227
 20
-28.78923
 30
0.0
 10
-54.36727
 20
-28.05589
 30
0.0
 10
-54.16727
 20
-27.36839
 30
0.0
 10
-54.16727
 20
-27.36839
 30
0.0
 10
-53.62205
 20
-25.4942
 30
0.0
 10
-53.16918
 20
-22.46473
 30
0.0
 10
-54.2381
 20
-20.71006
 30
0.0
 10
-54.2381
 20
-20.71006
 30
0.0
 10
-54.73411
 20
-19.89588
 30
0.0
 10
-55.69763
 20
-18.95323
 30
0.0
 10
-56.7256
 20
-19.36839
 30
0.0
 10
-56.7256
 20
-19.36839
 30
0.0
 10
-57.18864
 20
-19.55538
 30
0.0
 10
-57.37191
 20
-20.09524
 30
0.0
 10
-57.42977
 20
-20.55172
 30
0.0
 10
-57.42977
 20
-20.55172
 30
0.0
 10
-57.46727
 20
-20.84756
 30
0.0
 10
-57.46727
 20
-21.19756
 30
0.0
 10
-57.43393
 20
-21.54756
 30
0.0
 10
-57.43393
 20
-21.54756
 30
0.0
 10
-57.28806
 20
-23.0793
 30
0.0
 10
-57.00342
 20
-24.08511
 30
0.0
 10
-57.12977
 20
-25.73923
 30
0.0
 10
-57.12977
 20
-25.73923
 30
0.0
 10
-57.27297
 20
-27.61409
 30
0.0
 10
-58.28737
 20
-29.85697
 30
0.0
 10
-59.50477
 20
-31.28922
 30
0.0
 10
-59.50477
 20
-31.28922
 30
0.0
 10
-59.7736
 20
-31.60553
 30
0.0
 10
-59.72317
 20
-31.2533
 30
0.0
 10
-59.73393
 20
-31.04339
 30
0.0
 10
-59.73393
 20
-31.04339
 30
0.0
 10
-59.83212
 20
-29.1305
 30
0.0
 10
-61.88316
 20
-29.38082
 30
0.0
 10
-62.00991
 20
-30.95258
 30
0.0
 10
-62.00991
 20
-30.95258
 30
0.0
 10
-62.03075
 20
-31.21091
 30
0.0
 10
-61.98651
 20
-31.44174
 30
0.0
 10
-61.95605
 20
-31.58631
 30
0.0
 10
-61.95605
 20
-31.58631
 30
0.0
 10
-61.9256
 20
-31.73089
 30
0.0
 10
-61.90894
 20
-31.78923
 30
0.0
 10
-61.97144
 20
-31.77673
 30
0.0
 10
-61.97144
 20
-31.77673
 30
0.0
 10
-62.37061
 20
-31.6969
 30
0.0
 10
-63.18552
 20
-30.94923
 30
0.0
 10
-63.36611
 20
-30.57963
 30
0.0
 10
-63.36611
 20
-30.57963
 30
0.0
 10
-63.63418
 20
-30.03106
 30
0.0
 10
-63.66825
 20
-29.47989
 30
0.0
 10
-63.54306
 20
-28.89131
 30
0.0
 10
-63.54306
 20
-28.89131
 30
0.0
 10
-63.50894
 20
-28.73089
 30
0.0
 10
-63.4756
 20
-28.66423
 30
0.0
 10
-63.49643
 20
-28.64756
 30
0.0
 10
-63.49643
 20
-28.64756
 30
0.0
 10
-63.66469
 20
-28.51296
 30
0.0
 10
-64.03508
 20
-29.22876
 30
0.0
 10
-64.08393
 20
-29.36006
 30
0.0
 10
-64.08393
 20
-29.36006
 30
0.0
 10
-64.29042
 20
-29.91497
 30
0.0
 10
-64.36845
 20
-30.53501
 30
0.0
 10
-64.24786
 20
-31.11824
 30
0.0
 10
-64.24786
 20
-31.11824
 30
0.0
 10
-64.21443
 20
-31.27997
 30
0.0
 10
-64.17107
 20
-31.4096
 30
0.0
 10
-64.12682
 20
-31.50496
 30
0.0
 10
-64.12682
 20
-31.50496
 30
0.0
 10
-63.97361
 20
-31.83518
 30
0.0
 10
-64.3022
 20
-31.61639
 30
0.0
 10
-64.44004
 20
-31.52033
 30
0.0
 10
-64.44004
 20
-31.52033
 30
0.0
 10
-65.04746
 20
-31.09704
 30
0.0
 10
-65.4332
 20
-30.23788
 30
0.0
 10
-65.35229
 20
-29.50975
 30
0.0
 10
-65.35229
 20
-29.50975
 30
0.0
 10
-65.33562
 20
-29.35976
 30
0.0
 10
-65.30145
 20
-29.21615
 30
0.0
 10
-65.32602
 20
-29.22352
 30
0.0
 10
-65.32602
 20
-29.22352
 30
0.0
 10
-65.3506
 20
-29.23089
 30
0.0
 10
-65.43143
 20
-29.39067
 30
0.0
 10
-65.5256
 20
-29.55173
 30
0.0
 10
-65.5256
 20
-29.55173
 30
0.0
 10
-65.90496
 20
-30.20058
 30
0.0
 10
-66.41373
 20
-30.51464
 30
0.0
 10
-67.18393
 20
-30.58922
 30
0.0
 10
-67.18393
 20
-30.58922
 30
0.0
 10
-67.37543
 20
-30.60776
 30
0.0
 10
-67.53394
 20
-30.61423
 30
0.0
 10
-67.67144
 20
-30.60173
 30
0.0
 10
-67.67144
 20
-30.60173
 30
0.0
 10
-67.88057
 20
-30.58272
 30
0.0
 10
-68.08099
 20
-30.56255
 30
0.0
 10
-67.86727
 20
-30.37256
 30
0.0
 10
-67.86727
 20
-30.37256
 30
0.0
 10
-67.48668
 20
-30.03423
 30
0.0
 10
-67.31727
 20
-29.76197
 30
0.0
 10
-67.31727
 20
-29.24756
 30
0.0
 10
-67.31727
 20
-29.24756
 30
0.0
 10
-67.31727
 20
-28.58716
 30
0.0
 10
-67.57634
 20
-28.00386
 30
0.0
 10
-67.94644
 20
-27.47672
 30
0.0
 10
-67.94644
 20
-27.47672
 30
0.0
 10
-68.3803
 20
-26.8588
 30
0.0
 10
-69.2605
 20
-25.70256
 30
0.0
 10
-69.3381
 20
-25.03506
 30
0.0
 10
-69.3381
 20
-25.03506
 30
0.0
 10
-69.35894
 20
-24.85589
 30
0.0
 10
-69.3506
 20
-24.66423
 30
0.0
 10
-69.33393
 20
-24.53923
 30
0.0
 10
-69.33393
 20
-24.53923
 30
0.0
 10
-69.31571
 20
-24.40254
 30
0.0
 10
-69.2403
 20
-24.24111
 30
0.0
 10
-69.44227
 20
-24.41423
 30
0.0
 10
-69.44227
 20
-24.41423
 30
0.0
 10
-69.58021
 20
-24.53247
 30
0.0
 10
-69.70257
 20
-24.72175
 30
0.0
 10
-69.74636
 20
-24.89795
 30
0.0
 10
-69.74636
 20
-24.89795
 30
0.0
 10
-69.84624
 20
-25.29975
 30
0.0
 10
-69.6817
 20
-25.81841
 30
0.0
 10
-69.46372
 20
-26.16437
 30
0.0
 10
-69.46372
 20
-26.16437
 30
0.0
 10
-69.34717
 20
-26.34938
 30
0.0
 10
-69.21611
 20
-26.46247
 30
0.0
 10
-69.5506
 20
-26.36839
 30
0.0
 10
-69.5506
 20
-26.36839
 30
0.0
 10
-70.42105
 20
-26.12359
 30
0.0
 10
-71.33255
 20
-25.08847
 30
0.0
 10
-71.8684
 20
-24.39856
 30
0.0
 10
-71.8684
 20
-24.39856
 30
0.0
 10
-72.3345
 20
-23.79845
 30
0.0
 10
-72.76958
 20
-23.08775
 30
0.0
 10
-72.92989
 20
-22.33698
 30
0.0
 10
-72.92989
 20
-22.33698
 30
0.0
 10
-73.0006
 20
-22.00589
 30
0.0
 10
-73.03394
 20
-21.63923
 30
0.0
 10
-73.0381
 20
-21.35589
 30
0.0
 10
-73.0381
 20
-21.35589
 30
0.0
 10
-73.04832
 20
-20.66127
 30
0.0
 10
-72.9871
 20
-20.72057
 30
0.0
 10
-73.49644
 20
-20.22256
 30
0.0
 10
-73.49644
 20
-20.22256
 30
0.0
 10
-74.74228
 20
-19.00439
 30
0.0
 10
-74.78679
 20
-18.25995
 30
0.0
 10
-73.4256
 20
-17.19756
 30
0.0
 10
-73.4256
 20
-17.19756
 30
0.0
 10
-73.08394
 20
-16.93089
 30
0.0
 10
-72.6756
 20
-16.68923
 30
0.0
 10
-72.35477
 20
-16.45173
 30
0.0
 10
-72.35477
 20
-16.45173
 30
0.0
 10
-72.03394
 20
-16.21423
 30
0.0
 10
-71.8006
 20
-15.98089
 30
0.0
 10
-71.58393
 20
-15.76422
 30
0.0
 10
-71.58393
 20
-15.76422
 30
0.0
 10
-71.06813
 20
-15.24842
 30
0.0
 10
-70.60909
 20
-14.86627
 30
0.0
 10
-70.00893
 20
-14.44756
 30
0.0
 10
-70.00893
 20
-14.44756
 30
0.0
 10
-67.09485
 20
-12.41445
 30
0.0
 10
-65.76224
 20
-10.77685
 30
0.0
 10
-63.21794
 20
-8.5048
 30
0.0
 10
-63.21794
 20
-8.5048
 30
0.0
 10
-59.44205
 20
-5.13302
 30
0.0
 10
-54.59638
 20
-2.09077
 30
0.0
 10
-49.42556
 20
-4.16759
 30
0.0
 10
-49.42556
 20
-4.16759
 30
0.0
 10
-43.97734
 20
-6.35587
 30
0.0
 10
-44.02065
 20
-10.46375
 30
0.0
 10
-42.06484
 20
-14.93402
 30
0.0
 10
-42.06484
 20
-14.93402
 30
0.0
 10
-36.61482
 20
-27.39072
 30
0.0
 10
-9.27993
 20
-28.16866
 30
0.0
 10
-8.6756
 20
-20.46423
 30
0.0
 10
-8.6756
 20
-20.46423
 30
0.0
 10
-8.29858
 20
-15.65661
 30
0.0
 10
-9.56225
 20
-11.21409
 30
0.0
 10
-11.54644
 20
-6.89756
 30
0.0
 10
-11.54644
 20
-6.89756
 30
0.0
 10
-11.78394
 20
-6.38089
 30
0.0
 10
-11.9756
 20
-5.91423
 30
0.0
 10
-12.0881
 20
-5.55589
 30
0.0
 10
-12.0881
 20
-5.55589
 30
0.0
 10
-12.4602
 20
-4.37069
 30
0.0
 10
-11.47516
 20
-5.19511
 30
0.0
 10
-11.01727
 20
-5.53089
 30
0.0
 10
-11.01727
 20
-5.53089
 30
0.0
 10
-6.6164
 20
-8.75823
 30
0.0
 10
-4.74841
 20
-14.97569
 30
0.0
 10
-3.64643
 20
-20.12673
 30
0.0
 10
-3.64643
 20
-20.12673
 30
0.0
 10
-3.1523
 20
-22.43661
 30
0.0
 10
-3.07717
 20
-23.77755
 30
0.0
 10
-1.54274
 20
-25.61145
 30
0.0
 10
-1.54274
 20
-25.61145
 30
0.0
 10
0.17303
 20
-27.66208
 30
0.0
 10
1.64269
 20
-29.53512
 30
0.0
 10
2.63169
 20
-32.04523
 30
0.0
 10
2.63169
 20
-32.04523
 30
0.0
 10
3.53781
 20
-34.91176
 30
0.0
 10
3.49589
 20
-39.05685
 30
0.0
 10
3.20531
 20
-42.16898
 30
0.0
 10
3.20531
 20
-42.16898
 30
0.0
 10
2.43034
 20
-50.46897
 30
0.0
 10
-0.90613
 20
-49.6512
 30
0.0
 10
-1.28719
 20
-53.46176
 30
0.0
 10
-1.28719
 20
-53.46176
 30
0.0
 10
-1.36219
 20
-54.21176
 30
0.0
 10
-2.2138
 20
-54.26876
 30
0.0
 10
-2.36727
 20
-54.26876
 30
0.0
  0
SPLINE
  5
71
330
1F
100
AcDbEntity
  8
layer 1
 62
   250
370
     9
100
AcDbSpline
210
0.0
220
0.0
230
1.0
 70
    11
 71
     3
 72
    20
 73
    16
 74
     0
 42
0.000000001
 43
0.0000000001
 40
0.0
 40
0.0
 40
0.0
 40
0.0
 40
0.2
 40
0.2
 40
0.2
 40
0.2
 40
0.4
 40
0.4
 40
0.4
 40
0.4
 40
0.6
 40
0.6
 40
0.6
 40
0.6
 40
1.0
 40
1.0
 40
1.0
 40
1.0
 10
-21.08602
 20
-35.91966
 30
0.0
 10
-21.08602
 20
-35.91966
 30
0.0
 10
-9.27352
 20
-35.91966
 30
0.0
 10
-9.27352
 20
-35.91966
 30
0.0
 10
-9.27352
 20
-35.91966
 30
0.0
 10
-9.27352
 20
-35.91966
 30
0.0
 10
-9.27352
 20
-36.91966
 30
0.0
 10
-9.27352
 20
-36.91966
 30
0.0
 10
-9.27352
 20
-36.91966
 30
0.0
 10
-9.27352
 20
-36.91966
 30
0.0
 10
-21.08602
 20
-36.91966
 30
0.0
 10
-21.08602
 20
-36.91966
 30
0.0
 10
-21.08602
 20
-36.91966
 30
0.0
 10
-21.08602
 20
-36.91966
 30
0.0
 10
-21.08602
 20
-35.91966
 30
0.0
 10
-21.08602
 20
-35.91966
 30
0.0
  0
SPLINE
  5
72
330
1F
100
AcDbEntity
  8
layer 1
 62
   250
370
     9
100
AcDbSpline
210
0.0
220
0.0
230
1.0
 70
    11
 71
     3
 72
    20
 73
    16
 74
     0
 42
0.000000001
 43
0.0000000001
 40
0.0
 40
0.0
 40
0.0
 40
0.0
 40
0.2
 40
0.2
 40
0.2
 40
0.2
 40
0.4
 40
0.4
 40
0.4
 40
0.4
 40
0.6
 40
0.6
 40
0.6
 40
0.6
 40
1.0
 40
1.0
 40
1.0
 40
1.0
 10
-44.71102
 20
-35.91966
 30
0.0
 10
-44.71102
 20
-35.91966
 30
0.0
 10
-32.89852
 20
-35.91966
 30
0.0
 10
-32.89852
 20
-35.91966
 30
0.0
 10
-32.89852
 20
-35.91966
 30
0.0
 10
-32.89852
 20
-35.91966
 30
0.0
 10
-32.89852
 20
-36.91966
 30
0.0
 10
-32.89852
 20
-36.91966
 30
0.0
 10
-32.89852
 20
-36.91966
 30
0.0
 10
-32.89852
 20
-36.91966
 30
0.0
 10
-44.71102
 20
-36.91966
 30
0.0
 10
-44.71102
 20
-36.91966
 30
0.0
 10
-44.71102
 20
-36.91966
 30
0.0
 10
-44.71102
 20
-36.91966
 30
0.0
 10
-44.71102
 20
-35.91966
 30
0.0
 10
-44.71102
 20
-35.91966
 30
0.0
  0
SPLINE
  5
73
330
1F
100
AcDbEntity
  8
layer 1
 62
   250
370
     9
100
AcDbSpline
210
0.0
220
0.0
230
1.0
 70
    11
 71
     3
 72
   164
 73
   160
 74
     0
 42
0.000000001
 43
0.0000000001
 40
0.0
 40
0.0
 40
0.0
 40
0.0
 40
0.024390243902439
 40
0.024390243902439
 40
0.024390243902439
 40
0.024390243902439
 40
0.0487804878048781
 40
0.0487804878048781
 40
0.0487804878048781
 40
0.0487804878048781
 40
0.0731707317073171
 40
0.0731707317073171
 40
0.0731707317073171
 40
0.0731707317073171
 40
0.0975609756097561
 40
0.0975609756097561
 40
0.0975609756097561
 40
0.0975609756097561
 40
0.1219512195121951
 40
0.1219512195121951
 40
0.1219512195121951
 40
0.1219512195121951
 40
0.1463414634146341
 40
0.1463414634146341
 40
0.1463414634146341
 40
0.1463414634146341
 40
0.1707317073170732
 40
0.1707317073170732
 40
0.1707317073170732
 40
0.1707317073170732
 40
0.1951219512195122
 40
0.1951219512195122
 40
0.1951219512195122
 40
0.1951219512195122
 40
0.2195121951219512
 40
0.2195121951219512
 40
0.2195121951219512
 40
0.2195121951219512
 40
0.2439024390243902
 40
0.2439024390243902
 40
0.2439024390243902
 40
0.2439024390243902
 40
0.2682926829268293
 40
0.2682926829268293
 40
0.2682926829268293
 40
0.2682926829268293
 40
0.2926829268292683
 40
0.2926829268292683
 40
0.2926829268292683
 40
0.2926829268292683
 40
0.3170731707317073
 40
0.3170731707317073
 40
0.3170731707317073
 40
0.3170731707317073
 40
0.3414634146341464
 40
0.3414634146341464
 40
0.3414634146341464
 40
0.3414634146341464
 40
0.3658536585365854
 40
0.3658536585365854
 40
0.3658536585365854
 40
0.3658536585365854
 40
0.3902439024390244
 40
0.3902439024390244
 40
0.3902439024390244
 40
0.3902439024390244
 40
0.4146341463414634
 40
0.4146341463414634
 40
0.4146341463414634
 40
0.4146341463414634
 40
0.4390243902439024
 40
0.4390243902439024
 40
0.4390243902439024
 40
0.4390243902439024
 40
0.4634146341463415
 40
0.4634146341463415
 40
0.4634146341463415
 40
0.4634146341463415
 40
0.4878048780487805
 40
0.4878048780487805
 40
0.4878048780487805
 40
0.4878048780487805
 40
0.5121951219512195
 40
0.5121951219512195
 40
0.5121951219512195
 40
0.5121951219512195
 40
0.5365853658536586
 40
0.5365853658536586
 40
0.5365853658536586
 40
0.5365853658536586
 40
0.5609756097560976
 40
0.5609756097560976
 40
0.5609756097560976
 40
0.5609756097560976
 40
0.5853658536585366
 40
0.5853658536585366
 40
0.5853658536585366
 40
0.5853658536585366
 40
0.6097560975609756
 40
0.6097560975609756
 40
0.6097560975609756
 40
0.6097560975609756
 40
0.6341463414634146
 40
0.6341463414634146
 40
0.6341463414634146
 40
0.6341463414634146
 40
0.6585365853658537
 40
0.6585365853658537
 40
0.6585365853658537
 40
0.6585365853658537
 40
0.6829268292682927
 40
0.6829268292682927
 40
0.6829268292682927
 40
0.6829268292682927
 40
0.7073170731707317
 40
0.7073170731707317
 40
0.7073170731707317
 40
0.7073170731707317
 40
0.7317073170731707
 40
0.7317073170731707
 40
0.7317073170731707
 40
0.7317073170731707
 40
0.7560975609756098
 40
0.7560975609756098
 40
0.7560975609756098
 40
0.7560975609756098
 40
0.7804878048780488
 40
0.7804878048780488
 40
0.7804878048780488
 40
0.7804878048780488
 40
0.8048780487804879
 40
0.8048780487804879
 40
0.8048780487804879
 40
0.8048780487804879
 40
0.8292682926829268
 40
0.8292682926829268
 40
0.8292682926829268
 40
0.8292682926829268
 40
0.8536585365853658
 40
0.8536585365853658
 40
0.8536585365853658
 40
0.8536585365853658
 40
0.8780487804878049
 40
0.8780487804878049
 40
0.8780487804878049
 40
0.8780487804878049
 40
0.9024390243902439
 40
0.9024390243902439
 40
0.9024390243902439
 40
0.9024390243902439
 40
0.926829268292683
 40
0.926829268292683
 40
0.926829268292683
 40
0.926829268292683
 40
0.9512195121951219
 40
0.9512195121951219
 40
0.9512195121951219
 40
0.9512195121951219
 40
1.0
 40
1.0
 40
1.0
 40
1.0
 10
98.42224
 20
-35.51798
 30
0.0
 10
98.42224
 20
-35.51798
 30
0.0
 10
98.42224
 20
-24.09148
 30
0.0
 10
98.42224
 20
-24.09148
 30
0.0
 10
98.42224
 20
-24.09148
 30
0.0
 10
98.42224
 20
-24.09148
 30
0.0
 10
97.42224
 20
-24.09148
 30
0.0
 10
97.42224
 20
-24.09148
 30
0.0
 10
97.42224
 20
-24.09148
 30
0.0
 10
97.42224
 20
-24.09148
 30
0.0
 10
97.42227
 20
-35.70543
 30
0.0
 10
97.42227
 20
-35.70543
 30
0.0
 10
97.42227
 20
-35.70543
 30
0.0
 10
96.47753
 20
-35.85199
 30
0.0
 10
95.50871
 20
-35.91966
 30
0.0
 10
94.55415
 20
-35.91966
 30
0.0
 10
94.55415
 20
-35.91966
 30
0.0
 10
90.71378
 20
-35.91966
 30
0.0
 10
85.23687
 20
-33.84437
 30
0.0
 10
83.9517
 20
-29.8524
 30
0.0
 10
83.9517
 20
-29.8524
 30
0.0
 10
83.93492
 20
-29.80038
 30
0.0
 10
83.92475
 20
-29.74106
 30
0.0
 10
83.92572
 20
-29.68639
 30
0.0
 10
83.92572
 20
-29.68639
 30
0.0
 10
83.92783
 20
-29.56714
 30
0.0
 10
84.01838
 20
-29.49509
 30
0.0
 10
84.13266
 20
-29.53374
 30
0.0
 10
84.13266
 20
-29.53374
 30
0.0
 10
84.36614
 20
-29.61271
 30
0.0
 10
84.48632
 20
-29.6635
 30
0.0
 10
84.74724
 20
-29.6635
 30
0.0
 10
84.74724
 20
-29.6635
 30
0.0
 10
85.57567
 20
-29.6635
 30
0.0
 10
86.24724
 20
-28.99193
 30
0.0
 10
86.24724
 20
-28.1635
 30
0.0
 10
86.24724
 20
-28.1635
 30
0.0
 10
86.24724
 20
-27.33507
 30
0.0
 10
85.57567
 20
-26.6635
 30
0.0
 10
84.74724
 20
-26.6635
 30
0.0
 10
84.74724
 20
-26.6635
 30
0.0
 10
84.44292
 20
-26.6635
 30
0.0
 10
84.26092
 20
-26.7329
 30
0.0
 10
83.99643
 20
-26.8634
 30
0.0
 10
83.99643
 20
-26.8634
 30
0.0
 10
83.92374
 20
-26.89929
 30
0.0
 10
83.79946
 20
-26.91273
 30
0.0
 10
83.80141
 20
-26.801
 30
0.0
 10
83.80141
 20
-26.801
 30
0.0
 10
83.80323
 20
-26.69678
 30
0.0
 10
83.73891
 20
-26.63017
 30
0.0
 10
83.58891
 20
-26.551
 30
0.0
 10
83.58891
 20
-26.551
 30
0.0
 10
83.05768
 20
-26.27062
 30
0.0
 10
82.31175
 20
-26.18633
 30
0.0
 10
81.76807
 20
-26.4635
 30
0.0
 10
81.76807
 20
-26.4635
 30
0.0
 10
81.37423
 20
-26.66428
 30
0.0
 10
81.09492
 20
-27.06171
 30
0.0
 10
80.86391
 20
-27.426
 30
0.0
 10
80.86391
 20
-27.426
 30
0.0
 10
80.31654
 20
-28.28908
 30
0.0
 10
79.89934
 20
-28.85417
 30
0.0
 10
78.94554
 20
-29.33736
 30
0.0
 10
78.94554
 20
-29.33736
 30
0.0
 10
78.58179
 20
-29.52164
 30
0.0
 10
78.34088
 20
-29.5885
 30
0.0
 10
77.93474
 20
-29.5885
 30
0.0
 10
77.93474
 20
-29.5885
 30
0.0
 10
77.81391
 20
-29.5885
 30
0.0
 10
77.73057
 20
-29.5885
 30
0.0
 10
77.75141
 20
-29.55933
 30
0.0
 10
77.75141
 20
-29.55933
 30
0.0
 10
77.77224
 20
-29.53017
 30
0.0
 10
77.89724
 20
-29.47183
 30
0.0
 10
78.04724
 20
-29.38016
 30
0.0
 10
78.04724
 20
-29.38016
 30
0.0
 10
78.51709
 20
-29.09305
 30
0.0
 10
78.75611
 20
-28.71476
 30
0.0
 10
78.97224
 20
-28.21767
 30
0.0
 10
78.97224
 20
-28.21767
 30
0.0
 10
79.20298
 20
-27.68698
 30
0.0
 10
79.25268
 20
-27.28142
 30
0.0
 10
79.40141
 20
-26.75516
 30
0.0
 10
79.40141
 20
-26.75516
 30
0.0
 10
79.50253
 20
-26.39733
 30
0.0
 10
79.70359
 20
-25.98003
 30
0.0
 10
79.98891
 20
-25.73433
 30
0.0
 10
79.98891
 20
-25.73433
 30
0.0
 10
80.24613
 20
-25.51285
 30
0.0
 10
80.63538
 20
-25.33208
 30
0.0
 10
80.93891
 20
-25.16766
 30
0.0
 10
80.93891
 20
-25.16766
 30
0.0
 10
81.34231
 20
-24.94918
 30
0.0
 10
80.49812
 20
-25.03902
 30
0.0
 10
80.39307
 20
-25.06767
 30
0.0
 10
80.39307
 20
-25.06767
 30
0.0
 10
80.04665
 20
-25.16215
 30
0.0
 10
79.64573
 20
-25.45462
 30
0.0
 10
79.43058
 20
-25.73433
 30
0.0
 10
79.43058
 20
-25.73433
 30
0.0
 10
79.38891
 20
-25.7885
 30
0.0
 10
79.38057
 20
-25.8135
 30
0.0
 10
79.37641
 20
-25.7635
 30
0.0
 10
79.37641
 20
-25.7635
 30
0.0
 10
79.37224
 20
-25.7135
 30
0.0
 10
79.37224
 20
-25.5885
 30
0.0
 10
79.45141
 20
-25.40516
 30
0.0
 10
79.45141
 20
-25.40516
 30
0.0
 10
79.95022
 20
-24.24995
 30
0.0
 10
81.63486
 20
-23.63799
 30
0.0
 10
82.81391
 20
-23.43433
 30
0.0
 10
82.81391
 20
-23.43433
 30
0.0
 10
83.27224
 20
-23.35517
 30
0.0
 10
83.79724
 20
-23.29683
 30
0.0
 10
84.26391
 20
-23.24683
 30
0.0
 10
84.26391
 20
-23.24683
 30
0.0
 10
85.27136
 20
-23.13889
 30
0.0
 10
86.26986
 20
-23.00052
 30
0.0
 10
87.22641
 20
-22.64683
 30
0.0
 10
87.22641
 20
-22.64683
 30
0.0
 10
87.72224
 20
-22.4635
 30
0.0
 10
88.12224
 20
-22.2385
 30
0.0
 10
88.53058
 20
-22.0135
 30
0.0
 10
88.53058
 20
-22.0135
 30
0.0
 10
89.49336
 20
-21.48298
 30
0.0
 10
90.27311
 20
-21.20023
 30
0.0
 10
91.28225
 20
-20.80586
 30
0.0
 10
91.28225
 20
-20.80586
 30
0.0
 10
93.47933
 20
-19.9473
 30
0.0
 10
94.5083
 20
-18.86749
 30
0.0
 10
95.66147
 20
-16.90784
 30
0.0
 10
95.66147
 20
-16.90784
 30
0.0
 10
96.37602
 20
-15.69356
 30
0.0
 10
96.91605
 20
-14.64896
 30
0.0
 10
97.18701
 20
-13.26033
 30
0.0
 10
97.18701
 20
-13.26033
 30
0.0
 10
97.56238
 20
-11.33651
 30
0.0
 10
97.99924
 20
-11.5198
 30
0.0
 10
98.8764
 20
-13.24406
 30
0.0
 10
98.8764
 20
-13.24406
 30
0.0
 10
99.25957
 20
-13.99727
 30
0.0
 10
99.54041
 20
-14.84256
 30
0.0
 10
99.74327
 20
-15.72158
 30
0.0
 10
99.74327
 20
-15.72158
 30
0.0
 10
99.94612
 20
-16.6006
 30
0.0
 10
100.07098
 20
-17.51334
 30
0.0
 10
100.32948
 20
-18.52178
 30
0.0
 10
100.32948
 20
-18.52178
 30
0.0
 10
100.58798
 20
-19.53022
 30
0.0
 10
100.98011
 20
-20.63436
 30
0.0
 10
101.44477
 20
-21.37323
 30
0.0
 10
101.44477
 20
-21.37323
 30
0.0
 10
102.89394
 20
-23.67763
 30
0.0
 10
104.86619
 20
-24.15679
 30
0.0
 10
105.1829
 20
-27.4007
 30
0.0
 10
105.1829
 20
-27.4007
 30
0.0
 10
105.65463
 20
-32.23159
 30
0.0
 10
102.38701
 20
-34.6402
 30
0.0
 10
98.42224
 20
-35.51798
 30
0.0
  0
SPLINE
  5
74
330
1F
100
AcDbEntity
  8
layer 1
 62
   250
370
     9
100
AcDbSpline
210
0.0
220
0.0
230
1.0
 70
    11
 71
     3
 72
   752
 73
   748
 74
     0
 42
0.000000001
 43
0.0000000001
 40
0.0
 40
0.0
 40
0.0
 40
0.0
 40
0.0053191489361702
 40
0.0053191489361702
 40
0.0053191489361702
 40
0.0053191489361702
 40
0.0106382978723404
 40
0.0106382978723404
 40
0.0106382978723404
 40
0.0106382978723404
 40
0.0159574468085106
 40
0.0159574468085106
 40
0.0159574468085106
 40
0.0159574468085106
 40
0.0212765957446809
 40
0.0212765957446809
 40
0.0212765957446809
 40
0.0212765957446809
 40
0.0265957446808511
 40
0.0265957446808511
 40
0.0265957446808511
 40
0.0265957446808511
 40
0.0319148936170213
 40
0.0319148936170213
 40
0.0319148936170213
 40
0.0319148936170213
 40
0.0372340425531915
 40
0.0372340425531915
 40
0.0372340425531915
 40
0.0372340425531915
 40
0.0425531914893617
 40
0.0425531914893617
 40
0.0425531914893617
 40
0.0425531914893617
 40
0.0478723404255319
 40
0.0478723404255319
 40
0.0478723404255319
 40
0.0478723404255319
 40
0.0531914893617021
 40
0.0531914893617021
 40
0.0531914893617021
 40
0.0531914893617021
 40
0.0585106382978723
 40
0.0585106382978723
 40
0.0585106382978723
 40
0.0585106382978723
 40
0.0638297872340425
 40
0.0638297872340425
 40
0.0638297872340425
 40
0.0638297872340425
 40
0.0691489361702128
 40
0.0691489361702128
 40
0.0691489361702128
 40
0.0691489361702128
 40
0.074468085106383
 40
0.074468085106383
 40
0.074468085106383
 40
0.074468085106383
 40
0.0797872340425532
 40
0.0797872340425532
 40
0.0797872340425532
 40
0.0797872340425532
 40
0.0851063829787234
 40
0.0851063829787234
 40
0.0851063829787234
 40
0.0851063829787234
 40
0.0904255319148936
 40
0.0904255319148936
 40
0.0904255319148936
 40
0.0904255319148936
 40
0.0957446808510638
 40
0.0957446808510638
 40
0.0957446808510638
 40
0.0957446808510638
 40
0.101063829787234
 40
0.101063829787234
 40
0.101063829787234
 40
0.101063829787234
 40
0.1063829787234043
 40
0.1063829787234043
 40
0.1063829787234043
 40
0.1063829787234043
 40
0.1117021276595745
 40
0.1117021276595745
 40
0.1117021276595745
 40
0.1117021276595745
 40
0.1170212765957447
 40
0.1170212765957447
 40
0.1170212765957447
 40
0.1170212765957447
 40
0.1223404255319149
 40
0.1223404255319149
 40
0.1223404255319149
 40
0.1223404255319149
 40
0.1276595744680851
 40
0.1276595744680851
 40
0.1276595744680851
 40
0.1276595744680851
 40
0.1329787234042553
 40
0.1329787234042553
 40
0.1329787234042553
 40
0.1329787234042553
 40
0.1382978723404255
 40
0.1382978723404255
 40
0.1382978723404255
 40
0.1382978723404255
 40
0.1436170212765958
 40
0.1436170212765958
 40
0.1436170212765958
 40
0.1436170212765958
 40
0.148936170212766
 40
0.148936170212766
 40
0.148936170212766
 40
0.148936170212766
 40
0.1542553191489362
 40
0.1542553191489362
 40
0.1542553191489362
 40
0.1542553191489362
 40
0.1595744680851064
 40
0.1595744680851064
 40
0.1595744680851064
 40
0.1595744680851064
 40
0.1648936170212766
 40
0.1648936170212766
 40
0.1648936170212766
 40
0.1648936170212766
 40
0.1702127659574468
 40
0.1702127659574468
 40
0.1702127659574468
 40
0.1702127659574468
 40
0.175531914893617
 40
0.175531914893617
 40
0.175531914893617
 40
0.175531914893617
 40
0.1808510638297872
 40
0.1808510638297872
 40
0.1808510638297872
 40
0.1808510638297872
 40
0.1861702127659574
 40
0.1861702127659574
 40
0.1861702127659574
 40
0.1861702127659574
 40
0.1914893617021277
 40
0.1914893617021277
 40
0.1914893617021277
 40
0.1914893617021277
 40
0.1968085106382979
 40
0.1968085106382979
 40
0.1968085106382979
 40
0.1968085106382979
 40
0.2021276595744681
 40
0.2021276595744681
 40
0.2021276595744681
 40
0.2021276595744681
 40
0.2074468085106383
 40
0.2074468085106383
 40
0.2074468085106383
 40
0.2074468085106383
 40
0.2127659574468085
 40
0.2127659574468085
 40
0.2127659574468085
 40
0.2127659574468085
 40
0.2180851063829787
 40
0.2180851063829787
 40
0.2180851063829787
 40
0.2180851063829787
 40
0.2234042553191489
 40
0.2234042553191489
 40
0.2234042553191489
 40
0.2234042553191489
 40
0.2287234042553191
 40
0.2287234042553191
 40
0.2287234042553191
 40
0.2287234042553191
 40
0.2340425531914894
 40
0.2340425531914894
 40
0.2340425531914894
 40
0.2340425531914894
 40
0.2393617021276596
 40
0.2393617021276596
 40
0.2393617021276596
 40
0.2393617021276596
 40
0.2446808510638298
 40
0.2446808510638298
 40
0.2446808510638298
 40
0.2446808510638298
 40
0.25
 40
0.25
 40
0.25
 40
0.25
 40
0.2553191489361702
 40
0.2553191489361702
 40
0.2553191489361702
 40
0.2553191489361702
 40
0.2606382978723404
 40
0.2606382978723404
 40
0.2606382978723404
 40
0.2606382978723404
 40
0.2659574468085106
 40
0.2659574468085106
 40
0.2659574468085106
 40
0.2659574468085106
 40
0.2712765957446808
 40
0.2712765957446808
 40
0.2712765957446808
 40
0.2712765957446808
 40
0.2765957446808511
 40
0.2765957446808511
 40
0.2765957446808511
 40
0.2765957446808511
 40
0.2819148936170213
 40
0.2819148936170213
 40
0.2819148936170213
 40
0.2819148936170213
 40
0.2872340425531915
 40
0.2872340425531915
 40
0.2872340425531915
 40
0.2872340425531915
 40
0.2925531914893617
 40
0.2925531914893617
 40
0.2925531914893617
 40
0.2925531914893617
 40
0.2978723404255319
 40
0.2978723404255319
 40
0.2978723404255319
 40
0.2978723404255319
 40
0.3031914893617021
 40
0.3031914893617021
 40
0.3031914893617021
 40
0.3031914893617021
 40
0.3085106382978723
 40
0.3085106382978723
 40
0.3085106382978723
 40
0.3085106382978723
 40
0.3138297872340425
 40
0.3138297872340425
 40
0.3138297872340425
 40
0.3138297872340425
 40
0.3191489361702128
 40
0.3191489361702128
 40
0.3191489361702128
 40
0.3191489361702128
 40
0.324468085106383
 40
0.324468085106383
 40
0.324468085106383
 40
0.324468085106383
 40
0.3297872340425532
 40
0.3297872340425532
 40
0.3297872340425532
 40
0.3297872340425532
 40
0.3351063829787234
 40
0.3351063829787234
 40
0.3351063829787234
 40
0.3351063829787234
 40
0.3404255319148936
 40
0.3404255319148936
 40
0.3404255319148936
 40
0.3404255319148936
 40
0.3457446808510639
 40
0.3457446808510639
 40
0.3457446808510639
 40
0.3457446808510639
 40
0.351063829787234
 40
0.351063829787234
 40
0.351063829787234
 40
0.351063829787234
 40
0.3563829787234042
 40
0.3563829787234042
 40
0.3563829787234042
 40
0.3563829787234042
 40
0.3617021276595745
 40
0.3617021276595745
 40
0.3617021276595745
 40
0.3617021276595745
 40
0.3670212765957447
 40
0.3670212765957447
 40
0.3670212765957447
 40
0.3670212765957447
 40
0.3723404255319149
 40
0.3723404255319149
 40
0.3723404255319149
 40
0.3723404255319149
 40
0.3776595744680851
 40
0.3776595744680851
 40
0.3776595744680851
 40
0.3776595744680851
 40
0.3829787234042553
 40
0.3829787234042553
 40
0.3829787234042553
 40
0.3829787234042553
 40
0.3882978723404255
 40
0.3882978723404255
 40
0.3882978723404255
 40
0.3882978723404255
 40
0.3936170212765958
 40
0.3936170212765958
 40
0.3936170212765958
 40
0.3936170212765958
 40
0.398936170212766
 40
0.398936170212766
 40
0.398936170212766
 40
0.398936170212766
 40
0.4042553191489361
 40
0.4042553191489361
 40
0.4042553191489361
 40
0.4042553191489361
 40
0.4095744680851064
 40
0.4095744680851064
 40
0.4095744680851064
 40
0.4095744680851064
 40
0.4148936170212766
 40
0.4148936170212766
 40
0.4148936170212766
 40
0.4148936170212766
 40
0.4202127659574468
 40
0.4202127659574468
 40
0.4202127659574468
 40
0.4202127659574468
 40
0.425531914893617
 40
0.425531914893617
 40
0.425531914893617
 40
0.425531914893617
 40
0.4308510638297872
 40
0.4308510638297872
 40
0.4308510638297872
 40
0.4308510638297872
 40
0.4361702127659575
 40
0.4361702127659575
 40
0.4361702127659575
 40
0.4361702127659575
 40
0.4414893617021277
 40
0.4414893617021277
 40
0.4414893617021277
 40
0.4414893617021277
 40
0.4468085106382979
 40
0.4468085106382979
 40
0.4468085106382979
 40
0.4468085106382979
 40
0.4521276595744681
 40
0.4521276595744681
 40
0.4521276595744681
 40
0.4521276595744681
 40
0.4574468085106383
 40
0.4574468085106383
 40
0.4574468085106383
 40
0.4574468085106383
 40
0.4627659574468085
 40
0.4627659574468085
 40
0.4627659574468085
 40
0.4627659574468085
 40
0.4680851063829787
 40
0.4680851063829787
 40
0.4680851063829787
 40
0.4680851063829787
 40
0.4734042553191489
 40
0.4734042553191489
 40
0.4734042553191489
 40
0.4734042553191489
 40
0.4787234042553192
 40
0.4787234042553192
 40
0.4787234042553192
 40
0.4787234042553192
 40
0.4840425531914894
 40
0.4840425531914894
 40
0.4840425531914894
 40
0.4840425531914894
 40
0.4893617021276596
 40
0.4893617021276596
 40
0.4893617021276596
 40
0.4893617021276596
 40
0.4946808510638298
 40
0.4946808510638298
 40
0.4946808510638298
 40
0.4946808510638298
 40
0.5
 40
0.5
 40
0.5
 40
0.5
 40
0.5053191489361702
 40
0.5053191489361702
 40
0.5053191489361702
 40
0.5053191489361702
 40
0.5106382978723404
 40
0.5106382978723404
 40
0.5106382978723404
 40
0.5106382978723404
 40
0.5159574468085106
 40
0.5159574468085106
 40
0.5159574468085106
 40
0.5159574468085106
 40
0.5212765957446809
 40
0.5212765957446809
 40
0.5212765957446809
 40
0.5212765957446809
 40
0.526595744680851
 40
0.526595744680851
 40
0.526595744680851
 40
0.526595744680851
 40
0.5319148936170213
 40
0.5319148936170213
 40
0.5319148936170213
 40
0.5319148936170213
 40
0.5372340425531915
 40
0.5372340425531915
 40
0.5372340425531915
 40
0.5372340425531915
 40
0.5425531914893617
 40
0.5425531914893617
 40
0.5425531914893617
 40
0.5425531914893617
 40
0.5478723404255319
 40
0.5478723404255319
 40
0.5478723404255319
 40
0.5478723404255319
 40
0.5531914893617021
 40
0.5531914893617021
 40
0.5531914893617021
 40
0.5531914893617021
 40
0.5585106382978723
 40
0.5585106382978723
 40
0.5585106382978723
 40
0.5585106382978723
 40
0.5638297872340425
 40
0.5638297872340425
 40
0.5638297872340425
 40
0.5638297872340425
 40
0.5691489361702128
 40
0.5691489361702128
 40
0.5691489361702128
 40
0.5691489361702128
 40
0.574468085106383
 40
0.574468085106383
 40
0.574468085106383
 40
0.574468085106383
 40
0.5797872340425532
 40
0.5797872340425532
 40
0.5797872340425532
 40
0.5797872340425532
 40
0.5851063829787234
 40
0.5851063829787234
 40
0.5851063829787234
 40
0.5851063829787234
 40
0.5904255319148937
 40
0.5904255319148937
 40
0.5904255319148937
 40
0.5904255319148937
 40
0.5957446808510638
 40
0.5957446808510638
 40
0.5957446808510638
 40
0.5957446808510638
 40
0.601063829787234
 40
0.601063829787234
 40
0.601063829787234
 40
0.601063829787234
 40
0.6063829787234043
 40
0.6063829787234043
 40
0.6063829787234043
 40
0.6063829787234043
 40
0.6117021276595744
 40
0.6117021276595744
 40
0.6117021276595744
 40
0.6117021276595744
 40
0.6170212765957447
 40
0.6170212765957447
 40
0.6170212765957447
 40
0.6170212765957447
 40
0.6223404255319149
 40
0.6223404255319149
 40
0.6223404255319149
 40
0.6223404255319149
 40
0.6276595744680851
 40
0.6276595744680851
 40
0.6276595744680851
 40
0.6276595744680851
 40
0.6329787234042553
 40
0.6329787234042553
 40
0.6329787234042553
 40
0.6329787234042553
 40
0.6382978723404256
 40
0.6382978723404256
 40
0.6382978723404256
 40
0.6382978723404256
 40
0.6436170212765957
 40
0.6436170212765957
 40
0.6436170212765957
 40
0.6436170212765957
 40
0.648936170212766
 40
0.648936170212766
 40
0.648936170212766
 40
0.648936170212766
 40
0.6542553191489362
 40
0.6542553191489362
 40
0.6542553191489362
 40
0.6542553191489362
 40
0.6595744680851063
 40
0.6595744680851063
 40
0.6595744680851063
 40
0.6595744680851063
 40
0.6648936170212766
 40
0.6648936170212766
 40
0.6648936170212766
 40
0.6648936170212766
 40
0.6702127659574468
 40
0.6702127659574468
 40
0.6702127659574468
 40
0.6702127659574468
 40
0.675531914893617
 40
0.675531914893617
 40
0.675531914893617
 40
0.675531914893617
 40
0.6808510638297872
 40
0.6808510638297872
 40
0.6808510638297872
 40
0.6808510638297872
 40
0.6861702127659575
 40
0.6861702127659575
 40
0.6861702127659575
 40
0.6861702127659575
 40
0.6914893617021277
 40
0.6914893617021277
 40
0.6914893617021277
 40
0.6914893617021277
 40
0.6968085106382979
 40
0.6968085106382979
 40
0.6968085106382979
 40
0.6968085106382979
 40
0.7021276595744681
 40
0.7021276595744681
 40
0.7021276595744681
 40
0.7021276595744681
 40
0.7074468085106383
 40
0.7074468085106383
 40
0.7074468085106383
 40
0.7074468085106383
 40
0.7127659574468085
 40
0.7127659574468085
 40
0.7127659574468085
 40
0.7127659574468085
 40
0.7180851063829787
 40
0.7180851063829787
 40
0.7180851063829787
 40
0.7180851063829787
 40
0.723404255319149
 40
0.723404255319149
 40
0.723404255319149
 40
0.723404255319149
 40
0.7287234042553191
 40
0.7287234042553191
 40
0.7287234042553191
 40
0.7287234042553191
 40
0.7340425531914894
 40
0.7340425531914894
 40
0.7340425531914894
 40
0.7340425531914894
 40
0.7393617021276596
 40
0.7393617021276596
 40
0.7393617021276596
 40
0.7393617021276596
 40
0.7446808510638298
 40
0.7446808510638298
 40
0.7446808510638298
 40
0.7446808510638298
 40
0.75
 40
0.75
 40
0.75
 40
0.75
 40
0.7553191489361702
 40
0.7553191489361702
 40
0.7553191489361702
 40
0.7553191489361702
 40
0.7606382978723404
 40
0.7606382978723404
 40
0.7606382978723404
 40
0.7606382978723404
 40
0.7659574468085106
 40
0.7659574468085106
 40
0.7659574468085106
 40
0.7659574468085106
 40
0.7712765957446809
 40
0.7712765957446809
 40
0.7712765957446809
 40
0.7712765957446809
 40
0.776595744680851
 40
0.776595744680851
 40
0.776595744680851
 40
0.776595744680851
 40
0.7819148936170213
 40
0.7819148936170213
 40
0.7819148936170213
 40
0.7819148936170213
 40
0.7872340425531915
 40
0.7872340425531915
 40
0.7872340425531915
 40
0.7872340425531915
 40
0.7925531914893617
 40
0.7925531914893617
 40
0.7925531914893617
 40
0.7925531914893617
 40
0.7978723404255319
 40
0.7978723404255319
 40
0.7978723404255319
 40
0.7978723404255319
 40
0.8031914893617021
 40
0.8031914893617021
 40
0.8031914893617021
 40
0.8031914893617021
 40
0.8085106382978723
 40
0.8085106382978723
 40
0.8085106382978723
 40
0.8085106382978723
 40
0.8138297872340425
 40
0.8138297872340425
 40
0.8138297872340425
 40
0.8138297872340425
 40
0.8191489361702128
 40
0.8191489361702128
 40
0.8191489361702128
 40
0.8191489361702128
 40
0.824468085106383
 40
0.824468085106383
 40
0.824468085106383
 40
0.824468085106383
 40
0.8297872340425532
 40
0.8297872340425532
 40
0.8297872340425532
 40
0.8297872340425532
 40
0.8351063829787234
 40
0.8351063829787234
 40
0.8351063829787234
 40
0.8351063829787234
 40
0.8404255319148937
 40
0.8404255319148937
 40
0.8404255319148937
 40
0.8404255319148937
 40
0.8457446808510638
 40
0.8457446808510638
 40
0.8457446808510638
 40
0.8457446808510638
 40
0.851063829787234
 40
0.851063829787234
 40
0.851063829787234
 40
0.851063829787234
 40
0.8563829787234043
 40
0.8563829787234043
 40
0.8563829787234043
 40
0.8563829787234043
 40
0.8617021276595744
 40
0.8617021276595744
 40
0.8617021276595744
 40
0.8617021276595744
 40
0.8670212765957447
 40
0.8670212765957447
 40
0.8670212765957447
 40
0.8670212765957447
 40
0.8723404255319149
 40
0.8723404255319149
 40
0.8723404255319149
 40
0.8723404255319149
 40
0.8776595744680851
 40
0.8776595744680851
 40
0.8776595744680851
 40
0.8776595744680851
 40
0.8829787234042553
 40
0.8829787234042553
 40
0.8829787234042553
 40
0.8829787234042553
 40
0.8882978723404256
 40
0.8882978723404256
 40
0.8882978723404256
 40
0.8882978723404256
 40
0.8936170212765957
 40
0.8936170212765957
 40
0.8936170212765957
 40
0.8936170212765957
 40
0.898936170212766
 40
0.898936170212766
 40
0.898936170212766
 40
0.898936170212766
 40
0.9042553191489362
 40
0.9042553191489362
 40
0.9042553191489362
 40
0.9042553191489362
 40
0.9095744680851063
 40
0.9095744680851063
 40
0.9095744680851063
 40
0.9095744680851063
 40
0.9148936170212766
 40
0.9148936170212766
 40
0.9148936170212766
 40
0.9148936170212766
 40
0.9202127659574468
 40
0.9202127659574468
 40
0.9202127659574468
 40
0.9202127659574468
 40
0.925531914893617
 40
0.925531914893617
 40
0.925531914893617
 40
0.925531914893617
 40
0.9308510638297872
 40
0.9308510638297872
 40
0.9308510638297872
 40
0.9308510638297872
 40
0.9361702127659575
 40
0.9361702127659575
 40
0.9361702127659575
 40
0.9361702127659575
 40
0.9414893617021277
 40
0.9414893617021277
 40
0.9414893617021277
 40
0.9414893617021277
 40
0.9468085106382979
 40
0.9468085106382979
 40
0.9468085106382979
 40
0.9468085106382979
 40
0.9521276595744681
 40
0.9521276595744681
 40
0.9521276595744681
 40
0.9521276595744681
 40
0.9574468085106383
 40
0.9574468085106383
 40
0.9574468085106383
 40
0.9574468085106383
 40
0.9627659574468085
 40
0.9627659574468085
 40
0.9627659574468085
 40
0.9627659574468085
 40
0.9680851063829787
 40
0.9680851063829787
 40
0.9680851063829787
 40
0.9680851063829787
 40
0.973404255319149
 40
0.973404255319149
 40
0.973404255319149
 40
0.973404255319149
 40
0.9787234042553191
 40
0.9787234042553191
 40
0.9787234042553191
 40
0.9787234042553191
 40
0.9840425531914894
 40
0.9840425531914894
 40
0.9840425531914894
 40
0.9840425531914894
 40
0.9893617021276596
 40
0.9893617021276596
 40
0.9893617021276596
 40
0.9893617021276596
 40
1.0
 40
1.0
 40
1.0
 40
1.0
 10
-108.0696
 20
-59.01963
 30
0.0
 10
-108.0696
 20
-59.01963
 30
0.0
 10
-110.19064
 20
-59.01963
 30
0.0
 10
-110.19064
 20
-59.01963
 30
0.0
 10
-110.19064
 20
-59.01963
 30
0.0
 10
-111.03695
 20
-58.20019
 30
0.0
 10
-111.07106
 20
-57.66513
 30
0.0
 10
-110.51641
 20
-56.6238
 30
0.0
 10
-110.51641
 20
-56.6238
 30
0.0
 10
-110.28559
 20
-56.19044
 30
0.0
 10
-110.10816
 20
-55.79076
 30
0.0
 10
-110.09454
 20
-55.26129
 30
0.0
 10
-110.09454
 20
-55.26129
 30
0.0
 10
-110.06864
 20
-54.25391
 30
0.0
 10
-110.66397
 20
-52.78782
 30
0.0
 10
-110.99315
 20
-51.8363
 30
0.0
 10
-110.99315
 20
-51.8363
 30
0.0
 10
-112.10914
 20
-48.6107
 30
0.0
 10
-112.32491
 20
-46.8645
 30
0.0
 10
-112.1593
 20
-43.44463
 30
0.0
 10
-112.1593
 20
-43.44463
 30
0.0
 10
-112.05696
 20
-41.33094
 30
0.0
 10
-111.85928
 20
-39.05893
 30
0.0
 10
-111.66719
 20
-36.91965
 30
0.0
 10
-111.66719
 20
-36.91965
 30
0.0
 10
-111.66719
 20
-36.91965
 30
0.0
 10
-103.26557
 20
-36.91967
 30
0.0
 10
-103.26557
 20
-36.91967
 30
0.0
 10
-103.26557
 20
-36.91967
 30
0.0
 10
-103.26557
 20
-36.91967
 30
0.0
 10
-103.26557
 20
-35.91966
 30
0.0
 10
-103.26557
 20
-35.91966
 30
0.0
 10
-103.26557
 20
-35.91966
 30
0.0
 10
-103.26557
 20
-35.91966
 30
0.0
 10
-111.57592
 20
-35.91965
 30
0.0
 10
-111.57592
 20
-35.91965
 30
0.0
 10
-111.57592
 20
-35.91965
 30
0.0
 10
-111.51412
 20
-35.28043
 30
0.0
 10
-111.43922
 20
-34.62885
 30
0.0
 10
-111.33571
 20
-34.0075
 30
0.0
 10
-111.33571
 20
-34.0075
 30
0.0
 10
-110.92296
 20
-31.52989
 30
0.0
 10
-110.3127
 20
-28.84464
 30
0.0
 10
-108.0696
 20
-28.63354
 30
0.0
 10
-108.0696
 20
-28.63354
 30
0.0
 10
-108.0696
 20
-28.63354
 30
0.0
 10
-108.0696
 20
-32.58928
 30
0.0
 10
-108.0696
 20
-32.58928
 30
0.0
 10
-108.0696
 20
-32.58928
 30
0.0
 10
-108.0696
 20
-32.58928
 30
0.0
 10
-107.0696
 20
-32.58928
 30
0.0
 10
-107.0696
 20
-32.58928
 30
0.0
 10
-107.0696
 20
-32.58928
 30
0.0
 10
-107.0696
 20
-32.58928
 30
0.0
 10
-107.0696
 20
-28.61707
 30
0.0
 10
-107.0696
 20
-28.61707
 30
0.0
 10
-107.0696
 20
-28.61707
 30
0.0
 10
-93.73539
 20
-28.16784
 30
0.0
 10
-97.57754
 20
-18.69128
 30
0.0
 10
-101.62064
 20
-20.06825
 30
0.0
 10
-101.62064
 20
-20.06825
 30
0.0
 10
-102.19564
 20
-20.26408
 30
0.0
 10
-102.78261
 20
-20.66686
 30
0.0
 10
-102.78081
 20
-20.39884
 30
0.0
 10
-102.78081
 20
-20.39884
 30
0.0
 10
-102.77901
 20
-20.13083
 30
0.0
 10
-102.18844
 20
-19.19203
 30
0.0
 10
-101.89166
 20
-18.58202
 30
0.0
 10
-101.89166
 20
-18.58202
 30
0.0
 10
-101.59488
 20
-17.97202
 30
0.0
 10
-101.59189
 20
-17.6908
 30
0.0
 10
-101.70726
 20
-17.51078
 30
0.0
 10
-101.70726
 20
-17.51078
 30
0.0
 10
-101.82264
 20
-17.33076
 30
0.0
 10
-102.05638
 20
-17.25194
 30
0.0
 10
-102.39278
 20
-17.32835
 30
0.0
 10
-102.39278
 20
-17.32835
 30
0.0
 10
-102.72919
 20
-17.40477
 30
0.0
 10
-103.16825
 20
-17.63644
 30
0.0
 10
-103.09357
 20
-17.42931
 30
0.0
 10
-103.09357
 20
-17.42931
 30
0.0
 10
-103.0189
 20
-17.22218
 30
0.0
 10
-102.43047
 20
-16.57627
 30
0.0
 10
-102.07069
 20
-16.10091
 30
0.0
 10
-102.07069
 20
-16.10091
 30
0.0
 10
-101.71091
 20
-15.62555
 30
0.0
 10
-101.57976
 20
-15.32075
 30
0.0
 10
-101.7838
 20
-15.18268
 30
0.0
 10
-101.7838
 20
-15.18268
 30
0.0
 10
-101.98784
 20
-15.04462
 30
0.0
 10
-102.52705
 20
-15.07329
 30
0.0
 10
-102.94731
 20
-15.19293
 30
0.0
 10
-102.94731
 20
-15.19293
 30
0.0
 10
-103.36758
 20
-15.31257
 30
0.0
 10
-103.6689
 20
-15.52318
 30
0.0
 10
-103.54861
 20
-15.29696
 30
0.0
 10
-103.54861
 20
-15.29696
 30
0.0
 10
-103.42833
 20
-15.07074
 30
0.0
 10
-102.88646
 20
-14.40768
 30
0.0
 10
-102.85227
 20
-13.62272
 30
0.0
 10
-102.85227
 20
-13.62272
 30
0.0
 10
-102.81808
 20
-12.83776
 30
0.0
 10
-103.29158
 20
-11.93089
 30
0.0
 10
-103.54012
 20
-10.34944
 30
0.0
 10
-103.54012
 20
-10.34944
 30
0.0
 10
-103.78867
 20
-8.768
 30
0.0
 10
-103.81225
 20
-6.51199
 30
0.0
 10
-103.38383
 20
-5.1767
 30
0.0
 10
-103.38383
 20
-5.1767
 30
0.0
 10
-102.95542
 20
-3.84142
 30
0.0
 10
-102.075
 20
-3.42686
 30
0.0
 10
-101.62943
 20
-2.34739
 30
0.0
 10
-101.62943
 20
-2.34739
 30
0.0
 10
-101.18386
 20
-1.26792
 30
0.0
 10
-101.17313
 20
0.47648
 30
0.0
 10
-101.01896
 20
1.65859
 30
0.0
 10
-101.01896
 20
1.65859
 30
0.0
 10
-100.93988
 20
2.265
 30
0.0
 10
-100.62422
 20
3.79381
 30
0.0
 10
-100.06958
 20
4.19338
 30
0.0
 10
-100.06958
 20
4.19338
 30
0.0
 10
-100.06958
 20
4.19338
 30
0.0
 10
-100.06958
 20
-7.42057
 30
0.0
 10
-100.06958
 20
-7.42057
 30
0.0
 10
-100.06958
 20
-7.42057
 30
0.0
 10
-100.06958
 20
-7.42057
 30
0.0
 10
-99.06958
 20
-7.42057
 30
0.0
 10
-99.06958
 20
-7.42057
 30
0.0
 10
-99.06958
 20
-7.42057
 30
0.0
 10
-99.06958
 20
-7.42057
 30
0.0
 10
-99.06958
 20
4.19338
 30
0.0
 10
-99.06958
 20
4.19338
 30
0.0
 10
-99.06958
 20
4.19338
 30
0.0
 10
-98.62381
 20
4.00409
 30
0.0
 10
-98.39796
 20
3.38518
 30
0.0
 10
-98.28624
 20
2.95121
 30
0.0
 10
-98.28624
 20
2.95121
 30
0.0
 10
-98.17791
 20
2.53037
 30
0.0
 10
-98.13623
 20
2.03037
 30
0.0
 10
-98.09041
 20
1.19704
 30
0.0
 10
-98.09041
 20
1.19704
 30
0.0
 10
-97.94225
 20
-1.497
 30
0.0
 10
-97.99372
 20
-3.77585
 30
0.0
 10
-94.56959
 20
-3.77585
 30
0.0
 10
-94.56959
 20
-3.77585
 30
0.0
 10
-94.56959
 20
-3.77585
 30
0.0
 10
-94.56959
 20
-29.17309
 30
0.0
 10
-94.56959
 20
-29.17309
 30
0.0
 10
-94.56959
 20
-29.17309
 30
0.0
 10
-94.56959
 20
-29.17309
 30
0.0
 10
-93.56957
 20
-29.17309
 30
0.0
 10
-93.56957
 20
-29.17309
 30
0.0
 10
-93.56957
 20
-29.17309
 30
0.0
 10
-93.56957
 20
-29.17309
 30
0.0
 10
-93.56958
 20
-3.77585
 30
0.0
 10
-93.56958
 20
-3.77585
 30
0.0
 10
-93.56958
 20
-3.77585
 30
0.0
 10
-90.17658
 20
-3.77585
 30
0.0
 10
-90.19676
 20
-1.49428
 30
0.0
 10
-90.04875
 20
1.19704
 30
0.0
 10
-90.04875
 20
1.19704
 30
0.0
 10
-90.00293
 20
2.03037
 30
0.0
 10
-89.96125
 20
2.53037
 30
0.0
 10
-89.85292
 20
2.95121
 30
0.0
 10
-89.85292
 20
2.95121
 30
0.0
 10
-89.7412
 20
3.38518
 30
0.0
 10
-89.51535
 20
4.00409
 30
0.0
 10
-89.06958
 20
4.19338
 30
0.0
 10
-89.06958
 20
4.19338
 30
0.0
 10
-89.06958
 20
4.19338
 30
0.0
 10
-89.06958
 20
-7.42057
 30
0.0
 10
-89.06958
 20
-7.42057
 30
0.0
 10
-89.06958
 20
-7.42057
 30
0.0
 10
-89.06958
 20
-7.42057
 30
0.0
 10
-88.06958
 20
-7.42057
 30
0.0
 10
-88.06958
 20
-7.42057
 30
0.0
 10
-88.06958
 20
-7.42057
 30
0.0
 10
-88.06958
 20
-7.42057
 30
0.0
 10
-88.06958
 20
4.19338
 30
0.0
 10
-88.06958
 20
4.19338
 30
0.0
 10
-88.06958
 20
4.19338
 30
0.0
 10
-87.51494
 20
3.79381
 30
0.0
 10
-87.19928
 20
2.265
 30
0.0
 10
-87.1202
 20
1.65859
 30
0.0
 10
-87.1202
 20
1.65859
 30
0.0
 10
-86.96603
 20
0.47648
 30
0.0
 10
-86.9553
 20
-1.26792
 30
0.0
 10
-86.50973
 20
-2.34739
 30
0.0
 10
-86.50973
 20
-2.34739
 30
0.0
 10
-86.06416
 20
-3.42686
 30
0.0
 10
-85.18374
 20
-3.84142
 30
0.0
 10
-84.75533
 20
-5.1767
 30
0.0
 10
-84.75533
 20
-5.1767
 30
0.0
 10
-84.32691
 20
-6.51199
 30
0.0
 10
-84.35049
 20
-8.768
 30
0.0
 10
-84.59904
 20
-10.34944
 30
0.0
 10
-84.59904
 20
-10.34944
 30
0.0
 10
-84.84758
 20
-11.93089
 30
0.0
 10
-85.32108
 20
-12.83776
 30
0.0
 10
-85.28689
 20
-13.62272
 30
0.0
 10
-85.28689
 20
-13.62272
 30
0.0
 10
-85.2527
 20
-14.40768
 30
0.0
 10
-84.71083
 20
-15.07074
 30
0.0
 10
-84.59055
 20
-15.29696
 30
0.0
 10
-84.59055
 20
-15.29696
 30
0.0
 10
-84.47026
 20
-15.52318
 30
0.0
 10
-84.77158
 20
-15.31257
 30
0.0
 10
-85.19185
 20
-15.19293
 30
0.0
 10
-85.19185
 20
-15.19293
 30
0.0
 10
-85.61211
 20
-15.07329
 30
0.0
 10
-86.15132
 20
-15.04462
 30
0.0
 10
-86.35536
 20
-15.18268
 30
0.0
 10
-86.35536
 20
-15.18268
 30
0.0
 10
-86.5594
 20
-15.32075
 30
0.0
 10
-86.42825
 20
-15.62555
 30
0.0
 10
-86.06847
 20
-16.10091
 30
0.0
 10
-86.06847
 20
-16.10091
 30
0.0
 10
-85.70869
 20
-16.57627
 30
0.0
 10
-85.12026
 20
-17.22218
 30
0.0
 10
-85.04559
 20
-17.42931
 30
0.0
 10
-85.04559
 20
-17.42931
 30
0.0
 10
-84.97091
 20
-17.63644
 30
0.0
 10
-85.40997
 20
-17.40477
 30
0.0
 10
-85.74638
 20
-17.32835
 30
0.0
 10
-85.74638
 20
-17.32835
 30
0.0
 10
-86.08278
 20
-17.25194
 30
0.0
 10
-86.31652
 20
-17.33076
 30
0.0
 10
-86.4319
 20
-17.51078
 30
0.0
 10
-86.4319
 20
-17.51078
 30
0.0
 10
-86.54727
 20
-17.6908
 30
0.0
 10
-86.54428
 20
-17.97202
 30
0.0
 10
-86.2475
 20
-18.58202
 30
0.0
 10
-86.2475
 20
-18.58202
 30
0.0
 10
-85.95072
 20
-19.19203
 30
0.0
 10
-85.36015
 20
-20.13083
 30
0.0
 10
-85.35835
 20
-20.39884
 30
0.0
 10
-85.35835
 20
-20.39884
 30
0.0
 10
-85.35655
 20
-20.66686
 30
0.0
 10
-85.94352
 20
-20.26409
 30
0.0
 10
-86.51852
 20
-20.06825
 30
0.0
 10
-86.51852
 20
-20.06825
 30
0.0
 10
-90.56163
 20
-18.69128
 30
0.0
 10
-94.40376
 20
-28.16783
 30
0.0
 10
-81.06958
 20
-28.61707
 30
0.0
 10
-81.06958
 20
-28.61707
 30
0.0
 10
-81.06958
 20
-28.61707
 30
0.0
 10
-81.06958
 20
-32.58928
 30
0.0
 10
-81.06958
 20
-32.58928
 30
0.0
 10
-81.06958
 20
-32.58928
 30
0.0
 10
-81.06958
 20
-32.58928
 30
0.0
 10
-80.06958
 20
-32.58928
 30
0.0
 10
-80.06958
 20
-32.58928
 30
0.0
 10
-80.06958
 20
-32.58928
 30
0.0
 10
-80.06958
 20
-32.58928
 30
0.0
 10
-80.06958
 20
-28.63354
 30
0.0
 10
-80.06958
 20
-28.63354
 30
0.0
 10
-80.06958
 20
-28.63354
 30
0.0
 10
-77.82646
 20
-28.84463
 30
0.0
 10
-77.21621
 20
-31.52988
 30
0.0
 10
-76.80345
 20
-34.0075
 30
0.0
 10
-76.80345
 20
-34.0075
 30
0.0
 10
-76.69994
 20
-34.62886
 30
0.0
 10
-76.62504
 20
-35.28043
 30
0.0
 10
-76.56324
 20
-35.91965
 30
0.0
 10
-76.56324
 20
-35.91965
 30
0.0
 10
-76.56324
 20
-35.91965
 30
0.0
 10
-85.06641
 20
-35.91967
 30
0.0
 10
-85.06641
 20
-35.91967
 30
0.0
 10
-85.06641
 20
-35.91967
 30
0.0
 10
-85.06641
 20
-35.91967
 30
0.0
 10
-85.06641
 20
-36.91967
 30
0.0
 10
-85.06641
 20
-36.91967
 30
0.0
 10
-85.06641
 20
-36.91967
 30
0.0
 10
-85.06641
 20
-36.91967
 30
0.0
 10
-76.47197
 20
-36.91965
 30
0.0
 10
-76.47197
 20
-36.91965
 30
0.0
 10
-76.47197
 20
-36.91965
 30
0.0
 10
-76.27988
 20
-39.05893
 30
0.0
 10
-76.0822
 20
-41.33094
 30
0.0
 10
-75.97986
 20
-43.44463
 30
0.0
 10
-75.97986
 20
-43.44463
 30
0.0
 10
-75.81425
 20
-46.8645
 30
0.0
 10
-76.03002
 20
-48.6107
 30
0.0
 10
-77.14601
 20
-51.8363
 30
0.0
 10
-77.14601
 20
-51.8363
 30
0.0
 10
-77.47519
 20
-52.78782
 30
0.0
 10
-78.07052
 20
-54.25391
 30
0.0
 10
-78.04462
 20
-55.26129
 30
0.0
 10
-78.04462
 20
-55.26129
 30
0.0
 10
-78.031
 20
-55.79076
 30
0.0
 10
-77.85357
 20
-56.19044
 30
0.0
 10
-77.62275
 20
-56.6238
 30
0.0
 10
-77.62275
 20
-56.6238
 30
0.0
 10
-77.0681
 20
-57.66513
 30
0.0
 10
-77.10221
 20
-58.20019
 30
0.0
 10
-77.94852
 20
-59.01963
 30
0.0
 10
-77.94852
 20
-59.01963
 30
0.0
 10
-77.94852
 20
-59.01963
 30
0.0
 10
-80.06958
 20
-59.01963
 30
0.0
 10
-80.06958
 20
-59.01963
 30
0.0
 10
-80.06958
 20
-59.01963
 30
0.0
 10
-80.06958
 20
-59.01963
 30
0.0
 10
-80.06958
 20
-47.96963
 30
0.0
 10
-80.06958
 20
-47.96963
 30
0.0
 10
-80.06958
 20
-47.96963
 30
0.0
 10
-80.06958
 20
-47.96963
 30
0.0
 10
-81.06959
 20
-47.96963
 30
0.0
 10
-81.06959
 20
-47.96963
 30
0.0
 10
-81.06959
 20
-47.96963
 30
0.0
 10
-81.06959
 20
-47.96963
 30
0.0
 10
-81.06959
 20
-59.01963
 30
0.0
 10
-81.06959
 20
-59.01963
 30
0.0
 10
-81.06959
 20
-59.01963
 30
0.0
 10
-81.06959
 20
-59.01963
 30
0.0
 10
-83.20316
 20
-59.01963
 30
0.0
 10
-83.20316
 20
-59.01963
 30
0.0
 10
-83.20316
 20
-59.01963
 30
0.0
 10
-83.34174
 20
-58.8633
 30
0.0
 10
-83.48035
 20
-58.70696
 30
0.0
 10
-83.58526
 20
-58.56258
 30
0.0
 10
-83.58526
 20
-58.56258
 30
0.0
 10
-83.88571
 20
-58.14911
 30
0.0
 10
-83.94311
 20
-57.76166
 30
0.0
 10
-83.79269
 20
-57.25306
 30
0.0
 10
-83.79269
 20
-57.25306
 30
0.0
 10
-83.69513
 20
-56.92326
 30
0.0
 10
-83.52068
 20
-56.62302
 30
0.0
 10
-83.38392
 20
-56.31478
 30
0.0
 10
-83.38392
 20
-56.31478
 30
0.0
 10
-83.05767
 20
-55.57938
 30
0.0
 10
-83.13867
 20
-54.21602
 30
0.0
 10
-83.4409
 20
-53.47695
 30
0.0
 10
-83.4409
 20
-53.47695
 30
0.0
 10
-83.55294
 20
-53.20296
 30
0.0
 10
-83.73129
 20
-52.8863
 30
0.0
 10
-83.78315
 20
-52.55946
 30
0.0
 10
-83.78315
 20
-52.55946
 30
0.0
 10
-83.83501
 20
-52.23262
 30
0.0
 10
-83.76038
 20
-51.8956
 30
0.0
 10
-83.77172
 20
-51.67942
 30
0.0
 10
-83.77172
 20
-51.67942
 30
0.0
 10
-83.78306
 20
-51.46324
 30
0.0
 10
-83.88039
 20
-51.36788
 30
0.0
 10
-83.93533
 20
-51.31258
 30
0.0
 10
-83.93533
 20
-51.31258
 30
0.0
 10
-84.03985
 20
-51.20739
 30
0.0
 10
-83.99476
 20
-51.24592
 30
0.0
 10
-84.01069
 20
-51.37362
 30
0.0
 10
-84.01069
 20
-51.37362
 30
0.0
 10
-84.02815
 20
-51.51368
 30
0.0
 10
-84.08971
 20
-51.6659
 30
0.0
 10
-84.16453
 20
-51.77409
 30
0.0
 10
-84.16453
 20
-51.77409
 30
0.0
 10
-84.1975
 20
-51.82177
 30
0.0
 10
-84.2289
 20
-51.85609
 30
0.0
 10
-84.26186
 20
-51.90567
 30
0.0
 10
-84.26186
 20
-51.90567
 30
0.0
 10
-84.42293
 20
-52.148
 30
0.0
 10
-84.43707
 20
-52.39256
 30
0.0
 10
-84.37646
 20
-52.67803
 30
0.0
 10
-84.37646
 20
-52.67803
 30
0.0
 10
-84.34512
 20
-52.82552
 30
0.0
 10
-84.45548
 20
-52.75047
 30
0.0
 10
-84.52088
 20
-52.70854
 30
0.0
 10
-84.52088
 20
-52.70854
 30
0.0
 10
-84.57739
 20
-52.67231
 30
0.0
 10
-84.64019
 20
-52.61892
 30
0.0
 10
-84.69513
 20
-52.5598
 30
0.0
 10
-84.69513
 20
-52.5598
 30
0.0
 10
-84.88259
 20
-52.35807
 30
0.0
 10
-85.03964
 20
-52.06721
 30
0.0
 10
-85.10642
 20
-51.77218
 30
0.0
 10
-85.10642
 20
-51.77218
 30
0.0
 10
-85.12368
 20
-51.6959
 30
0.0
 10
-85.12996
 20
-51.65013
 30
0.0
 10
-85.13311
 20
-51.62725
 30
0.0
 10
-85.13311
 20
-51.62725
 30
0.0
 10
-85.13624
 20
-51.60436
 30
0.0
 10
-85.13624
 20
-51.60436
 30
0.0
 10
-85.14095
 20
-51.63487
 30
0.0
 10
-85.14095
 20
-51.63487
 30
0.0
 10
-85.14566
 20
-51.66539
 30
0.0
 10
-85.15508
 20
-51.72642
 30
0.0
 10
-85.16921
 20
-51.78935
 30
0.0
 10
-85.16921
 20
-51.78935
 30
0.0
 10
-85.18334
 20
-51.85228
 30
0.0
 10
-85.20218
 20
-51.91712
 30
0.0
 10
-85.22573
 20
-51.97814
 30
0.0
 10
-85.22573
 20
-51.97814
 30
0.0
 10
-85.24927
 20
-52.03917
 30
0.0
 10
-85.27753
 20
-52.09639
 30
0.0
 10
-85.30108
 20
-52.13453
 30
0.0
 10
-85.30108
 20
-52.13453
 30
0.0
 10
-85.36699
 20
-52.24131
 30
0.0
 10
-85.36979
 20
-52.14391
 30
0.0
 10
-85.38585
 20
-52.06587
 30
0.0
 10
-85.38585
 20
-52.06587
 30
0.0
 10
-85.44597
 20
-51.77376
 30
0.0
 10
-85.57675
 20
-51.70835
 30
0.0
 10
-85.77524
 20
-51.56154
 30
0.0
 10
-85.77524
 20
-51.56154
 30
0.0
 10
-85.87719
 20
-51.48612
 30
0.0
 10
-86.01533
 20
-51.37933
 30
0.0
 10
-86.1111
 20
-51.27825
 30
0.0
 10
-86.1111
 20
-51.27825
 30
0.0
 10
-86.20685
 20
-51.17717
 30
0.0
 10
-86.26023
 20
-51.08182
 30
0.0
 10
-86.29947
 20
-50.98266
 30
0.0
 10
-86.29947
 20
-50.98266
 30
0.0
 10
-86.33872
 20
-50.88349
 30
0.0
 10
-86.36383
 20
-50.78052
 30
0.0
 10
-86.37639
 20
-50.74619
 30
0.0
 10
-86.37639
 20
-50.74619
 30
0.0
 10
-86.38895
 20
-50.71187
 30
0.0
 10
-86.38895
 20
-50.74619
 30
0.0
 10
-86.39366
 20
-50.81484
 30
0.0
 10
-86.39366
 20
-50.81484
 30
0.0
 10
-86.39837
 20
-50.8835
 30
0.0
 10
-86.4078
 20
-50.98647
 30
0.0
 10
-86.4439
 20
-51.11615
 30
0.0
 10
-86.4439
 20
-51.11615
 30
0.0
 10
-86.51301
 20
-51.36439
 30
0.0
 10
-86.76427
 20
-51.81567
 30
0.0
 10
-86.98077
 20
-51.85609
 30
0.0
 10
-86.98077
 20
-51.85609
 30
0.0
 10
-87.00118
 20
-51.85991
 30
0.0
 10
-87.00118
 20
-51.84084
 30
0.0
 10
-86.99804
 20
-51.79888
 30
0.0
 10
-86.99804
 20
-51.79888
 30
0.0
 10
-86.98261
 20
-51.59302
 30
0.0
 10
-87.01877
 20
-51.39656
 30
0.0
 10
-87.10165
 20
-51.21532
 30
0.0
 10
-87.10165
 20
-51.21532
 30
0.0
 10
-87.59752
 20
-50.13111
 30
0.0
 10
-89.23441
 20
-50.46594
 30
0.0
 10
-89.42114
 20
-51.68226
 30
0.0
 10
-89.42114
 20
-51.68226
 30
0.0
 10
-89.44281
 20
-51.82332
 30
0.0
 10
-89.43708
 20
-51.91966
 30
0.0
 10
-89.43421
 20
-51.97871
 30
0.0
 10
-89.43421
 20
-51.97871
 30
0.0
 10
-89.43134
 20
-52.03775
 30
0.0
 10
-89.43134
 20
-52.0595
 30
0.0
 10
-89.45462
 20
-52.05515
 30
0.0
 10
-89.45462
 20
-52.05515
 30
0.0
 10
-89.79636
 20
-51.99132
 30
0.0
 10
-90.09685
 20
-51.26954
 30
0.0
 10
-90.12442
 20
-50.86725
 30
0.0
 10
-90.12442
 20
-50.86725
 30
0.0
 10
-90.12979
 20
-50.78893
 30
0.0
 10
-90.12979
 20
-50.74977
 30
0.0
 10
-90.14411
 20
-50.78893
 30
0.0
 10
-90.14411
 20
-50.78893
 30
0.0
 10
-90.15845
 20
-50.82809
 30
0.0
 10
-90.1871
 20
-50.94557
 30
0.0
 10
-90.23187
 20
-51.0587
 30
0.0
 10
-90.23187
 20
-51.0587
 30
0.0
 10
-90.27665
 20
-51.17183
 30
0.0
 10
-90.33754
 20
-51.28061
 30
0.0
 10
-90.44679
 20
-51.39593
 30
0.0
 10
-90.44679
 20
-51.39593
 30
0.0
 10
-90.55603
 20
-51.51124
 30
0.0
 10
-90.71363
 20
-51.63307
 30
0.0
 10
-90.82995
 20
-51.71911
 30
0.0
 10
-90.82995
 20
-51.71911
 30
0.0
 10
-91.05646
 20
-51.88666
 30
0.0
 10
-91.20554
 20
-51.96116
 30
0.0
 10
-91.27418
 20
-52.29447
 30
0.0
 10
-91.27418
 20
-52.29447
 30
0.0
 10
-91.29252
 20
-52.38354
 30
0.0
 10
-91.29568
 20
-52.49461
 30
0.0
 10
-91.37089
 20
-52.37279
 30
0.0
 10
-91.37089
 20
-52.37279
 30
0.0
 10
-91.47242
 20
-52.20833
 30
0.0
 10
-91.52279
 20
-52.00206
 30
0.0
 10
-91.55357
 20
-51.80277
 30
0.0
 10
-91.55357
 20
-51.80277
 30
0.0
 10
-91.55893
 20
-51.76796
 30
0.0
 10
-91.55893
 20
-51.76796
 30
0.0
 10
-91.56251
 20
-51.79407
 30
0.0
 10
-91.56251
 20
-51.79407
 30
0.0
 10
-91.58508
 20
-51.95855
 30
0.0
 10
-91.63311
 20
-52.14111
 30
0.0
 10
-91.69683
 20
-52.28794
 30
0.0
 10
-91.69683
 20
-52.28794
 30
0.0
 10
-91.8138
 20
-52.55739
 30
0.0
 10
-92.03349
 20
-52.88179
 30
0.0
 10
-92.26096
 20
-53.02765
 30
0.0
 10
-92.26096
 20
-53.02765
 30
0.0
 10
-92.33556
 20
-53.07548
 30
0.0
 10
-92.46146
 20
-53.1611
 30
0.0
 10
-92.42572
 20
-52.99285
 30
0.0
 10
-92.42572
 20
-52.99285
 30
0.0
 10
-92.35657
 20
-52.66719
 30
0.0
 10
-92.3727
 20
-52.38816
 30
0.0
 10
-92.55646
 20
-52.11171
 30
0.0
 10
-92.55646
 20
-52.11171
 30
0.0
 10
-92.59407
 20
-52.05515
 30
0.0
 10
-92.62989
 20
-52.01599
 30
0.0
 10
-92.6675
 20
-51.9616
 30
0.0
 10
-92.6675
 20
-51.9616
 30
0.0
 10
-92.75287
 20
-51.83814
 30
0.0
 10
-92.82307
 20
-51.66453
 30
0.0
 10
-92.843
 20
-51.50472
 30
0.0
 10
-92.843
 20
-51.50472
 30
0.0
 10
-92.85196
 20
-51.43293
 30
0.0
 10
-92.84479
 20
-51.38505
 30
0.0
 10
-92.84837
 20
-51.36982
 30
0.0
 10
-92.84837
 20
-51.36982
 30
0.0
 10
-92.85196
 20
-51.35459
 30
0.0
 10
-92.86629
 20
-51.372
 30
0.0
 10
-92.92897
 20
-51.43509
 30
0.0
 10
-92.92897
 20
-51.43509
 30
0.0
 10
-92.99165
 20
-51.49818
 30
0.0
 10
-93.10268
 20
-51.60697
 30
0.0
 10
-93.0995
 20
-51.84534
 30
0.0
 10
-93.0995
 20
-51.84534
 30
0.0
 10
-93.09001
 20
-52.55675
 30
0.0
 10
-92.83749
 20
-52.33836
 30
0.0
 10
-93.06087
 20
-53.34129
 30
0.0
 10
-93.06087
 20
-53.34129
 30
0.0
 10
-93.16823
 20
-53.82338
 30
0.0
 10
-93.5212
 20
-54.61424
 30
0.0
 10
-94.06958
 20
-54.71594
 30
0.0
 10
-94.06958
 20
-54.71594
 30
0.0
 10
-94.61387
 20
-54.61499
 30
0.0
 10
-94.97139
 20
-53.82131
 30
0.0
 10
-95.07829
 20
-53.34129
 30
0.0
 10
-95.07829
 20
-53.34129
 30
0.0
 10
-95.30167
 20
-52.33836
 30
0.0
 10
-95.04915
 20
-52.55675
 30
0.0
 10
-95.03966
 20
-51.84534
 30
0.0
 10
-95.03966
 20
-51.84534
 30
0.0
 10
-95.03648
 20
-51.60697
 30
0.0
 10
-95.14751
 20
-51.49818
 30
0.0
 10
-95.21019
 20
-51.43509
 30
0.0
 10
-95.21019
 20
-51.43509
 30
0.0
 10
-95.27287
 20
-51.372
 30
0.0
 10
-95.2872
 20
-51.35459
 30
0.0
 10
-95.29079
 20
-51.36982
 30
0.0
 10
-95.29079
 20
-51.36982
 30
0.0
 10
-95.29437
 20
-51.38505
 30
0.0
 10
-95.2872
 20
-51.43293
 30
0.0
 10
-95.29616
 20
-51.50472
 30
0.0
 10
-95.29616
 20
-51.50472
 30
0.0
 10
-95.31609
 20
-51.66453
 30
0.0
 10
-95.38629
 20
-51.83814
 30
0.0
 10
-95.47166
 20
-51.9616
 30
0.0
 10
-95.47166
 20
-51.9616
 30
0.0
 10
-95.50927
 20
-52.01599
 30
0.0
 10
-95.54509
 20
-52.05515
 30
0.0
 10
-95.5827
 20
-52.11171
 30
0.0
 10
-95.5827
 20
-52.11171
 30
0.0
 10
-95.76646
 20
-52.38816
 30
0.0
 10
-95.78259
 20
-52.66719
 30
0.0
 10
-95.71344
 20
-52.99285
 30
0.0
 10
-95.71344
 20
-52.99285
 30
0.0
 10
-95.6777
 20
-53.1611
 30
0.0
 10
-95.8036
 20
-53.07548
 30
0.0
 10
-95.8782
 20
-53.02765
 30
0.0
 10
-95.8782
 20
-53.02765
 30
0.0
 10
-96.10567
 20
-52.88179
 30
0.0
 10
-96.32536
 20
-52.55739
 30
0.0
 10
-96.44233
 20
-52.28794
 30
0.0
 10
-96.44233
 20
-52.28794
 30
0.0
 10
-96.50605
 20
-52.14111
 30
0.0
 10
-96.55408
 20
-51.95855
 30
0.0
 10
-96.57665
 20
-51.79407
 30
0.0
 10
-96.57665
 20
-51.79407
 30
0.0
 10
-96.58023
 20
-51.76796
 30
0.0
 10
-96.58023
 20
-51.76796
 30
0.0
 10
-96.58559
 20
-51.80277
 30
0.0
 10
-96.58559
 20
-51.80277
 30
0.0
 10
-96.61637
 20
-52.00206
 30
0.0
 10
-96.66674
 20
-52.20833
 30
0.0
 10
-96.76827
 20
-52.37279
 30
0.0
 10
-96.76827
 20
-52.37279
 30
0.0
 10
-96.84348
 20
-52.49461
 30
0.0
 10
-96.84664
 20
-52.38354
 30
0.0
 10
-96.86498
 20
-52.29447
 30
0.0
 10
-96.86498
 20
-52.29447
 30
0.0
 10
-96.93362
 20
-51.96116
 30
0.0
 10
-97.0827
 20
-51.88666
 30
0.0
 10
-97.30921
 20
-51.71911
 30
0.0
 10
-97.30921
 20
-51.71911
 30
0.0
 10
-97.42553
 20
-51.63307
 30
0.0
 10
-97.58313
 20
-51.51124
 30
0.0
 10
-97.69237
 20
-51.39593
 30
0.0
 10
-97.69237
 20
-51.39593
 30
0.0
 10
-97.80162
 20
-51.28061
 30
0.0
 10
-97.86251
 20
-51.17183
 30
0.0
 10
-97.90729
 20
-51.0587
 30
0.0
 10
-97.90729
 20
-51.0587
 30
0.0
 10
-97.95206
 20
-50.94557
 30
0.0
 10
-97.98071
 20
-50.82809
 30
0.0
 10
-97.99505
 20
-50.78893
 30
0.0
 10
-97.99505
 20
-50.78893
 30
0.0
 10
-98.00937
 20
-50.74977
 30
0.0
 10
-98.00937
 20
-50.78893
 30
0.0
 10
-98.01474
 20
-50.86725
 30
0.0
 10
-98.01474
 20
-50.86725
 30
0.0
 10
-98.04231
 20
-51.26954
 30
0.0
 10
-98.3428
 20
-51.99132
 30
0.0
 10
-98.68454
 20
-52.05515
 30
0.0
 10
-98.68454
 20
-52.05515
 30
0.0
 10
-98.70782
 20
-52.0595
 30
0.0
 10
-98.70782
 20
-52.03775
 30
0.0
 10
-98.70495
 20
-51.97871
 30
0.0
 10
-98.70495
 20
-51.97871
 30
0.0
 10
-98.70208
 20
-51.91966
 30
0.0
 10
-98.69635
 20
-51.82332
 30
0.0
 10
-98.71802
 20
-51.68226
 30
0.0
 10
-98.71802
 20
-51.68226
 30
0.0
 10
-98.90475
 20
-50.46594
 30
0.0
 10
-100.54164
 20
-50.13111
 30
0.0
 10
-101.03751
 20
-51.21532
 30
0.0
 10
-101.03751
 20
-51.21532
 30
0.0
 10
-101.12039
 20
-51.39656
 30
0.0
 10
-101.15655
 20
-51.59302
 30
0.0
 10
-101.14112
 20
-51.79888
 30
0.0
 10
-101.14112
 20
-51.79888
 30
0.0
 10
-101.13798
 20
-51.84084
 30
0.0
 10
-101.13798
 20
-51.85991
 30
0.0
 10
-101.15839
 20
-51.85609
 30
0.0
 10
-101.15839
 20
-51.85609
 30
0.0
 10
-101.37489
 20
-51.81567
 30
0.0
 10
-101.62615
 20
-51.36439
 30
0.0
 10
-101.69526
 20
-51.11615
 30
0.0
 10
-101.69526
 20
-51.11615
 30
0.0
 10
-101.73136
 20
-50.98647
 30
0.0
 10
-101.74079
 20
-50.8835
 30
0.0
 10
-101.7455
 20
-50.81484
 30
0.0
 10
-101.7455
 20
-50.81484
 30
0.0
 10
-101.75021
 20
-50.74619
 30
0.0
 10
-101.75021
 20
-50.71187
 30
0.0
 10
-101.76277
 20
-50.74619
 30
0.0
 10
-101.76277
 20
-50.74619
 30
0.0
 10
-101.77533
 20
-50.78052
 30
0.0
 10
-101.80044
 20
-50.88349
 30
0.0
 10
-101.83969
 20
-50.98266
 30
0.0
 10
-101.83969
 20
-50.98266
 30
0.0
 10
-101.87893
 20
-51.08182
 30
0.0
 10
-101.93231
 20
-51.17717
 30
0.0
 10
-102.02806
 20
-51.27825
 30
0.0
 10
-102.02806
 20
-51.27825
 30
0.0
 10
-102.12383
 20
-51.37933
 30
0.0
 10
-102.26197
 20
-51.48612
 30
0.0
 10
-102.36392
 20
-51.56154
 30
0.0
 10
-102.36392
 20
-51.56154
 30
0.0
 10
-102.56241
 20
-51.70835
 30
0.0
 10
-102.69319
 20
-51.77376
 30
0.0
 10
-102.75331
 20
-52.06587
 30
0.0
 10
-102.75331
 20
-52.06587
 30
0.0
 10
-102.76937
 20
-52.14391
 30
0.0
 10
-102.77217
 20
-52.24131
 30
0.0
 10
-102.83808
 20
-52.13453
 30
0.0
 10
-102.83808
 20
-52.13453
 30
0.0
 10
-102.86163
 20
-52.09639
 30
0.0
 10
-102.88989
 20
-52.03917
 30
0.0
 10
-102.91343
 20
-51.97814
 30
0.0
 10
-102.91343
 20
-51.97814
 30
0.0
 10
-102.93698
 20
-51.91712
 30
0.0
 10
-102.95582
 20
-51.85228
 30
0.0
 10
-102.96995
 20
-51.78935
 30
0.0
 10
-102.96995
 20
-51.78935
 30
0.0
 10
-102.98408
 20
-51.72642
 30
0.0
 10
-102.9935
 20
-51.66539
 30
0.0
 10
-102.99821
 20
-51.63487
 30
0.0
 10
-102.99821
 20
-51.63487
 30
0.0
 10
-103.00292
 20
-51.60436
 30
0.0
 10
-103.00292
 20
-51.60436
 30
0.0
 10
-103.00605
 20
-51.62725
 30
0.0
 10
-103.00605
 20
-51.62725
 30
0.0
 10
-103.0092
 20
-51.65013
 30
0.0
 10
-103.01548
 20
-51.6959
 30
0.0
 10
-103.03274
 20
-51.77218
 30
0.0
 10
-103.03274
 20
-51.77218
 30
0.0
 10
-103.09952
 20
-52.06721
 30
0.0
 10
-103.25657
 20
-52.35807
 30
0.0
 10
-103.44403
 20
-52.5598
 30
0.0
 10
-103.44403
 20
-52.5598
 30
0.0
 10
-103.49897
 20
-52.61892
 30
0.0
 10
-103.56177
 20
-52.67231
 30
0.0
 10
-103.61828
 20
-52.70854
 30
0.0
 10
-103.61828
 20
-52.70854
 30
0.0
 10
-103.68368
 20
-52.75047
 30
0.0
 10
-103.79404
 20
-52.82552
 30
0.0
 10
-103.7627
 20
-52.67803
 30
0.0
 10
-103.7627
 20
-52.67803
 30
0.0
 10
-103.70209
 20
-52.39256
 30
0.0
 10
-103.71623
 20
-52.148
 30
0.0
 10
-103.8773
 20
-51.90567
 30
0.0
 10
-103.8773
 20
-51.90567
 30
0.0
 10
-103.91026
 20
-51.85609
 30
0.0
 10
-103.94166
 20
-51.82177
 30
0.0
 10
-103.97463
 20
-51.77409
 30
0.0
 10
-103.97463
 20
-51.77409
 30
0.0
 10
-104.04945
 20
-51.6659
 30
0.0
 10
-104.11101
 20
-51.51368
 30
0.0
 10
-104.12847
 20
-51.37362
 30
0.0
 10
-104.12847
 20
-51.37362
 30
0.0
 10
-104.1444
 20
-51.24592
 30
0.0
 10
-104.09931
 20
-51.20739
 30
0.0
 10
-104.20383
 20
-51.31258
 30
0.0
 10
-104.20383
 20
-51.31258
 30
0.0
 10
-104.25877
 20
-51.36788
 30
0.0
 10
-104.3561
 20
-51.46324
 30
0.0
 10
-104.36744
 20
-51.67942
 30
0.0
 10
-104.36744
 20
-51.67942
 30
0.0
 10
-104.37878
 20
-51.8956
 30
0.0
 10
-104.30415
 20
-52.23262
 30
0.0
 10
-104.35601
 20
-52.55946
 30
0.0
 10
-104.35601
 20
-52.55946
 30
0.0
 10
-104.40787
 20
-52.8863
 30
0.0
 10
-104.58622
 20
-53.20296
 30
0.0
 10
-104.69826
 20
-53.47695
 30
0.0
 10
-104.69826
 20
-53.47695
 30
0.0
 10
-105.00049
 20
-54.21602
 30
0.0
 10
-105.08149
 20
-55.57938
 30
0.0
 10
-104.75524
 20
-56.31478
 30
0.0
 10
-104.75524
 20
-56.31478
 30
0.0
 10
-104.61848
 20
-56.62302
 30
0.0
 10
-104.44403
 20
-56.92326
 30
0.0
 10
-104.34647
 20
-57.25306
 30
0.0
 10
-104.34647
 20
-57.25306
 30
0.0
 10
-104.19605
 20
-57.76166
 30
0.0
 10
-104.25345
 20
-58.14911
 30
0.0
 10
-104.5539
 20
-58.56258
 30
0.0
 10
-104.5539
 20
-58.56258
 30
0.0
 10
-104.65881
 20
-58.70696
 30
0.0
 10
-104.79742
 20
-58.8633
 30
0.0
 10
-104.936
 20
-59.01963
 30
0.0
 10
-104.936
 20
-59.01963
 30
0.0
 10
-104.936
 20
-59.01963
 30
0.0
 10
-107.06959
 20
-59.01963
 30
0.0
 10
-107.06959
 20
-59.01963
 30
0.0
 10
-107.06959
 20
-59.01963
 30
0.0
 10
-107.06959
 20
-59.01963
 30
0.0
 10
-107.06959
 20
-47.96963
 30
0.0
 10
-107.06959
 20
-47.96963
 30
0.0
 10
-107.06959
 20
-47.96963
 30
0.0
 10
-107.06959
 20
-47.96963
 30
0.0
 10
-108.0696
 20
-47.96963
 30
0.0
 10
-108.0696
 20
-47.96963
 30
0.0
 10
-108.0696
 20
-47.96963
 30
0.0
 10
-108.0696
 20
-47.96963
 30
0.0
 10
-108.0696
 20
-59.01963
 30
0.0
 10
-108.0696
 20
-59.01963
 30
0.0
  0
SPLINE
  5
75
330
1F
100
AcDbEntity
  8
layer 1
 62
   250
370
     9
100
AcDbSpline
210
0.0
220
0.0
230
1.0
 70
    11
 71
     3
 72
   524
 73
   520
 74
     0
 42
0.000000001
 43
0.0000000001
 40
0.0
 40
0.0
 40
0.0
 40
0.0
 40
0.0076335877862595
 40
0.0076335877862595
 40
0.0076335877862595
 40
0.0076335877862595
 40
0.0152671755725191
 40
0.0152671755725191
 40
0.0152671755725191
 40
0.0152671755725191
 40
0.0229007633587786
 40
0.0229007633587786
 40
0.0229007633587786
 40
0.0229007633587786
 40
0.0305343511450382
 40
0.0305343511450382
 40
0.0305343511450382
 40
0.0305343511450382
 40
0.0381679389312977
 40
0.0381679389312977
 40
0.0381679389312977
 40
0.0381679389312977
 40
0.0458015267175573
 40
0.0458015267175573
 40
0.0458015267175573
 40
0.0458015267175573
 40
0.0534351145038168
 40
0.0534351145038168
 40
0.0534351145038168
 40
0.0534351145038168
 40
0.0610687022900763
 40
0.0610687022900763
 40
0.0610687022900763
 40
0.0610687022900763
 40
0.0687022900763359
 40
0.0687022900763359
 40
0.0687022900763359
 40
0.0687022900763359
 40
0.0763358778625954
 40
0.0763358778625954
 40
0.0763358778625954
 40
0.0763358778625954
 40
0.083969465648855
 40
0.083969465648855
 40
0.083969465648855
 40
0.083969465648855
 40
0.0916030534351145
 40
0.0916030534351145
 40
0.0916030534351145
 40
0.0916030534351145
 40
0.099236641221374
 40
0.099236641221374
 40
0.099236641221374
 40
0.099236641221374
 40
0.1068702290076336
 40
0.1068702290076336
 40
0.1068702290076336
 40
0.1068702290076336
 40
0.1145038167938931
 40
0.1145038167938931
 40
0.1145038167938931
 40
0.1145038167938931
 40
0.1221374045801527
 40
0.1221374045801527
 40
0.1221374045801527
 40
0.1221374045801527
 40
0.1297709923664122
 40
0.1297709923664122
 40
0.1297709923664122
 40
0.1297709923664122
 40
0.1374045801526718
 40
0.1374045801526718
 40
0.1374045801526718
 40
0.1374045801526718
 40
0.1450381679389313
 40
0.1450381679389313
 40
0.1450381679389313
 40
0.1450381679389313
 40
0.1526717557251908
 40
0.1526717557251908
 40
0.1526717557251908
 40
0.1526717557251908
 40
0.1603053435114504
 40
0.1603053435114504
 40
0.1603053435114504
 40
0.1603053435114504
 40
0.1679389312977099
 40
0.1679389312977099
 40
0.1679389312977099
 40
0.1679389312977099
 40
0.1755725190839695
 40
0.1755725190839695
 40
0.1755725190839695
 40
0.1755725190839695
 40
0.183206106870229
 40
0.183206106870229
 40
0.183206106870229
 40
0.183206106870229
 40
0.1908396946564886
 40
0.1908396946564886
 40
0.1908396946564886
 40
0.1908396946564886
 40
0.1984732824427481
 40
0.1984732824427481
 40
0.1984732824427481
 40
0.1984732824427481
 40
0.2061068702290076
 40
0.2061068702290076
 40
0.2061068702290076
 40
0.2061068702290076
 40
0.2137404580152672
 40
0.2137404580152672
 40
0.2137404580152672
 40
0.2137404580152672
 40
0.2213740458015267
 40
0.2213740458015267
 40
0.2213740458015267
 40
0.2213740458015267
 40
0.2290076335877863
 40
0.2290076335877863
 40
0.2290076335877863
 40
0.2290076335877863
 40
0.2366412213740458
 40
0.2366412213740458
 40
0.2366412213740458
 40
0.2366412213740458
 40
0.2442748091603053
 40
0.2442748091603053
 40
0.2442748091603053
 40
0.2442748091603053
 40
0.2519083969465649
 40
0.2519083969465649
 40
0.2519083969465649
 40
0.2519083969465649
 40
0.2595419847328244
 40
0.2595419847328244
 40
0.2595419847328244
 40
0.2595419847328244
 40
0.267175572519084
 40
0.267175572519084
 40
0.267175572519084
 40
0.267175572519084
 40
0.2748091603053435
 40
0.2748091603053435
 40
0.2748091603053435
 40
0.2748091603053435
 40
0.2824427480916031
 40
0.2824427480916031
 40
0.2824427480916031
 40
0.2824427480916031
 40
0.2900763358778626
 40
0.2900763358778626
 40
0.2900763358778626
 40
0.2900763358778626
 40
0.2977099236641221
 40
0.2977099236641221
 40
0.2977099236641221
 40
0.2977099236641221
 40
0.3053435114503817
 40
0.3053435114503817
 40
0.3053435114503817
 40
0.3053435114503817
 40
0.3129770992366412
 40
0.3129770992366412
 40
0.3129770992366412
 40
0.3129770992366412
 40
0.3206106870229007
 40
0.3206106870229007
 40
0.3206106870229007
 40
0.3206106870229007
 40
0.3282442748091603
 40
0.3282442748091603
 40
0.3282442748091603
 40
0.3282442748091603
 40
0.3358778625954199
 40
0.3358778625954199
 40
0.3358778625954199
 40
0.3358778625954199
 40
0.3435114503816794
 40
0.3435114503816794
 40
0.3435114503816794
 40
0.3435114503816794
 40
0.3511450381679389
 40
0.3511450381679389
 40
0.3511450381679389
 40
0.3511450381679389
 40
0.3587786259541985
 40
0.3587786259541985
 40
0.3587786259541985
 40
0.3587786259541985
 40
0.366412213740458
 40
0.366412213740458
 40
0.366412213740458
 40
0.366412213740458
 40
0.3740458015267176
 40
0.3740458015267176
 40
0.3740458015267176
 40
0.3740458015267176
 40
0.3816793893129771
 40
0.3816793893129771
 40
0.3816793893129771
 40
0.3816793893129771
 40
0.3893129770992366
 40
0.3893129770992366
 40
0.3893129770992366
 40
0.3893129770992366
 40
0.3969465648854962
 40
0.3969465648854962
 40
0.3969465648854962
 40
0.3969465648854962
 40
0.4045801526717557
 40
0.4045801526717557
 40
0.4045801526717557
 40
0.4045801526717557
 40
0.4122137404580153
 40
0.4122137404580153
 40
0.4122137404580153
 40
0.4122137404580153
 40
0.4198473282442748
 40
0.4198473282442748
 40
0.4198473282442748
 40
0.4198473282442748
 40
0.4274809160305343
 40
0.4274809160305343
 40
0.4274809160305343
 40
0.4274809160305343
 40
0.4351145038167939
 40
0.4351145038167939
 40
0.4351145038167939
 40
0.4351145038167939
 40
0.4427480916030535
 40
0.4427480916030535
 40
0.4427480916030535
 40
0.4427480916030535
 40
0.4503816793893129
 40
0.4503816793893129
 40
0.4503816793893129
 40
0.4503816793893129
 40
0.4580152671755725
 40
0.4580152671755725
 40
0.4580152671755725
 40
0.4580152671755725
 40
0.4656488549618321
 40
0.4656488549618321
 40
0.4656488549618321
 40
0.4656488549618321
 40
0.4732824427480916
 40
0.4732824427480916
 40
0.4732824427480916
 40
0.4732824427480916
 40
0.4809160305343512
 40
0.4809160305343512
 40
0.4809160305343512
 40
0.4809160305343512
 40
0.4885496183206107
 40
0.4885496183206107
 40
0.4885496183206107
 40
0.4885496183206107
 40
0.4961832061068702
 40
0.4961832061068702
 40
0.4961832061068702
 40
0.4961832061068702
 40
0.5038167938931297
 40
0.5038167938931297
 40
0.5038167938931297
 40
0.5038167938931297
 40
0.5114503816793893
 40
0.5114503816793893
 40
0.5114503816793893
 40
0.5114503816793893
 40
0.5190839694656488
 40
0.5190839694656488
 40
0.5190839694656488
 40
0.5190839694656488
 40
0.5267175572519084
 40
0.5267175572519084
 40
0.5267175572519084
 40
0.5267175572519084
 40
0.5343511450381679
 40
0.5343511450381679
 40
0.5343511450381679
 40
0.5343511450381679
 40
0.5419847328244275
 40
0.5419847328244275
 40
0.5419847328244275
 40
0.5419847328244275
 40
0.549618320610687
 40
0.549618320610687
 40
0.549618320610687
 40
0.549618320610687
 40
0.5572519083969466
 40
0.5572519083969466
 40
0.5572519083969466
 40
0.5572519083969466
 40
0.5648854961832062
 40
0.5648854961832062
 40
0.5648854961832062
 40
0.5648854961832062
 40
0.5725190839694656
 40
0.5725190839694656
 40
0.5725190839694656
 40
0.5725190839694656
 40
0.5801526717557252
 40
0.5801526717557252
 40
0.5801526717557252
 40
0.5801526717557252
 40
0.5877862595419847
 40
0.5877862595419847
 40
0.5877862595419847
 40
0.5877862595419847
 40
0.5954198473282443
 40
0.5954198473282443
 40
0.5954198473282443
 40
0.5954198473282443
 40
0.6030534351145038
 40
0.6030534351145038
 40
0.6030534351145038
 40
0.6030534351145038
 40
0.6106870229007634
 40
0.6106870229007634
 40
0.6106870229007634
 40
0.6106870229007634
 40
0.6183206106870229
 40
0.6183206106870229
 40
0.6183206106870229
 40
0.6183206106870229
 40
0.6259541984732825
 40
0.6259541984732825
 40
0.6259541984732825
 40
0.6259541984732825
 40
0.6335877862595419
 40
0.6335877862595419
 40
0.6335877862595419
 40
0.6335877862595419
 40
0.6412213740458015
 40
0.6412213740458015
 40
0.6412213740458015
 40
0.6412213740458015
 40
0.648854961832061
 40
0.648854961832061
 40
0.648854961832061
 40
0.648854961832061
 40
0.6564885496183206
 40
0.6564885496183206
 40
0.6564885496183206
 40
0.6564885496183206
 40
0.6641221374045801
 40
0.6641221374045801
 40
0.6641221374045801
 40
0.6641221374045801
 40
0.6717557251908397
 40
0.6717557251908397
 40
0.6717557251908397
 40
0.6717557251908397
 40
0.6793893129770993
 40
0.6793893129770993
 40
0.6793893129770993
 40
0.6793893129770993
 40
0.6870229007633588
 40
0.6870229007633588
 40
0.6870229007633588
 40
0.6870229007633588
 40
0.6946564885496184
 40
0.6946564885496184
 40
0.6946564885496184
 40
0.6946564885496184
 40
0.7022900763358778
 40
0.7022900763358778
 40
0.7022900763358778
 40
0.7022900763358778
 40
0.7099236641221374
 40
0.7099236641221374
 40
0.7099236641221374
 40
0.7099236641221374
 40
0.7175572519083969
 40
0.7175572519083969
 40
0.7175572519083969
 40
0.7175572519083969
 40
0.7251908396946565
 40
0.7251908396946565
 40
0.7251908396946565
 40
0.7251908396946565
 40
0.732824427480916
 40
0.732824427480916
 40
0.732824427480916
 40
0.732824427480916
 40
0.7404580152671756
 40
0.7404580152671756
 40
0.7404580152671756
 40
0.7404580152671756
 40
0.7480916030534351
 40
0.7480916030534351
 40
0.7480916030534351
 40
0.7480916030534351
 40
0.7557251908396947
 40
0.7557251908396947
 40
0.7557251908396947
 40
0.7557251908396947
 40
0.7633587786259542
 40
0.7633587786259542
 40
0.7633587786259542
 40
0.7633587786259542
 40
0.7709923664122137
 40
0.7709923664122137
 40
0.7709923664122137
 40
0.7709923664122137
 40
0.7786259541984732
 40
0.7786259541984732
 40
0.7786259541984732
 40
0.7786259541984732
 40
0.7862595419847328
 40
0.7862595419847328
 40
0.7862595419847328
 40
0.7862595419847328
 40
0.7938931297709924
 40
0.7938931297709924
 40
0.7938931297709924
 40
0.7938931297709924
 40
0.8015267175572519
 40
0.8015267175572519
 40
0.8015267175572519
 40
0.8015267175572519
 40
0.8091603053435115
 40
0.8091603053435115
 40
0.8091603053435115
 40
0.8091603053435115
 40
0.816793893129771
 40
0.816793893129771
 40
0.816793893129771
 40
0.816793893129771
 40
0.8244274809160306
 40
0.8244274809160306
 40
0.8244274809160306
 40
0.8244274809160306
 40
0.8320610687022901
 40
0.8320610687022901
 40
0.8320610687022901
 40
0.8320610687022901
 40
0.8396946564885496
 40
0.8396946564885496
 40
0.8396946564885496
 40
0.8396946564885496
 40
0.8473282442748091
 40
0.8473282442748091
 40
0.8473282442748091
 40
0.8473282442748091
 40
0.8549618320610687
 40
0.8549618320610687
 40
0.8549618320610687
 40
0.8549618320610687
 40
0.8625954198473282
 40
0.8625954198473282
 40
0.8625954198473282
 40
0.8625954198473282
 40
0.8702290076335878
 40
0.8702290076335878
 40
0.8702290076335878
 40
0.8702290076335878
 40
0.8778625954198473
 40
0.8778625954198473
 40
0.8778625954198473
 40
0.8778625954198473
 40
0.8854961832061069
 40
0.8854961832061069
 40
0.8854961832061069
 40
0.8854961832061069
 40
0.8931297709923665
 40
0.8931297709923665
 40
0.8931297709923665
 40
0.8931297709923665
 40
0.9007633587786259
 40
0.9007633587786259
 40
0.9007633587786259
 40
0.9007633587786259
 40
0.9083969465648855
 40
0.9083969465648855
 40
0.9083969465648855
 40
0.9083969465648855
 40
0.916030534351145
 40
0.916030534351145
 40
0.916030534351145
 40
0.916030534351145
 40
0.9236641221374046
 40
0.9236641221374046
 40
0.9236641221374046
 40
0.9236641221374046
 40
0.9312977099236641
 40
0.9312977099236641
 40
0.9312977099236641
 40
0.9312977099236641
 40
0.9389312977099237
 40
0.9389312977099237
 40
0.9389312977099237
 40
0.9389312977099237
 40
0.9465648854961832
 40
0.9465648854961832
 40
0.9465648854961832
 40
0.9465648854961832
 40
0.9541984732824428
 40
0.9541984732824428
 40
0.9541984732824428
 40
0.9541984732824428
 40
0.9618320610687023
 40
0.9618320610687023
 40
0.9618320610687023
 40
0.9618320610687023
 40
0.9694656488549618
 40
0.9694656488549618
 40
0.9694656488549618
 40
0.9694656488549618
 40
0.9770992366412213
 40
0.9770992366412213
 40
0.9770992366412213
 40
0.9770992366412213
 40
0.9847328244274809
 40
0.9847328244274809
 40
0.9847328244274809
 40
0.9847328244274809
 40
1.0
 40
1.0
 40
1.0
 40
1.0
 10
46.00639
 20
-29.24933
 30
0.0
 10
45.5066
 20
-29.25731
 30
0.0
 10
44.90415
 20
-29.2814
 30
0.0
 10
44.38507
 20
-29.34436
 30
0.0
 10
44.38507
 20
-29.34436
 30
0.0
 10
41.38179
 20
-29.70865
 30
0.0
 10
36.57792
 20
-30.61052
 30
0.0
 10
34.91738
 20
-26.80213
 30
0.0
 10
34.91738
 20
-26.80213
 30
0.0
 10
34.56668
 20
-25.99781
 30
0.0
 10
34.28229
 20
-25.27985
 30
0.0
 10
34.05739
 20
-24.89928
 30
0.0
 10
34.05739
 20
-24.89928
 30
0.0
 10
33.83249
 20
-24.51871
 30
0.0
 10
33.59895
 20
-24.51871
 30
0.0
 10
33.50639
 20
-24.52361
 30
0.0
 10
33.50639
 20
-24.52361
 30
0.0
 10
33.50639
 20
-24.52361
 30
0.0
 10
33.50639
 20
-39.38154
 30
0.0
 10
33.50639
 20
-39.38154
 30
0.0
 10
33.50639
 20
-39.38154
 30
0.0
 10
33.50639
 20
-39.38154
 30
0.0
 10
32.50639
 20
-39.38154
 30
0.0
 10
32.50639
 20
-39.38154
 30
0.0
 10
32.50639
 20
-39.38154
 30
0.0
 10
32.50639
 20
-39.38154
 30
0.0
 10
32.50639
 20
-24.52359
 30
0.0
 10
32.50639
 20
-24.52359
 30
0.0
 10
32.50639
 20
-24.52359
 30
0.0
 10
32.41383
 20
-24.51867
 30
0.0
 10
32.18029
 20
-24.51867
 30
0.0
 10
31.95539
 20
-24.89924
 30
0.0
 10
31.95539
 20
-24.89924
 30
0.0
 10
31.73049
 20
-25.27981
 30
0.0
 10
31.4461
 20
-25.99777
 30
0.0
 10
31.0954
 20
-26.80209
 30
0.0
 10
31.0954
 20
-26.80209
 30
0.0
 10
29.43486
 20
-30.61048
 30
0.0
 10
24.63099
 20
-29.7086
 30
0.0
 10
21.62771
 20
-29.34432
 30
0.0
 10
21.62771
 20
-29.34432
 30
0.0
 10
21.10864
 20
-29.28136
 30
0.0
 10
20.50618
 20
-29.25727
 30
0.0
 10
20.00639
 20
-29.24929
 30
0.0
 10
20.00639
 20
-29.24929
 30
0.0
 10
20.00639
 20
-29.24929
 30
0.0
 10
20.00639
 20
-32.27659
 30
0.0
 10
20.00639
 20
-32.27659
 30
0.0
 10
20.00639
 20
-32.27659
 30
0.0
 10
20.00639
 20
-32.27659
 30
0.0
 10
19.00639
 20
-32.27659
 30
0.0
 10
19.00639
 20
-32.27659
 30
0.0
 10
19.00639
 20
-32.27659
 30
0.0
 10
19.00639
 20
-32.27659
 30
0.0
 10
19.00639
 20
-29.25888
 30
0.0
 10
19.00639
 20
-29.25888
 30
0.0
 10
19.00639
 20
-29.25888
 30
0.0
 10
16.83269
 20
-29.51585
 30
0.0
 10
16.14072
 20
-31.56296
 30
0.0
 10
15.73333
 20
-34.00751
 30
0.0
 10
15.73333
 20
-34.00751
 30
0.0
 10
15.62968
 20
-34.62945
 30
0.0
 10
15.55488
 20
-35.27984
 30
0.0
 10
15.49302
 20
-35.91966
 30
0.0
 10
15.49302
 20
-35.91966
 30
0.0
 10
15.49302
 20
-35.91966
 30
0.0
 10
23.81039
 20
-35.91966
 30
0.0
 10
23.81039
 20
-35.91966
 30
0.0
 10
23.81039
 20
-35.91966
 30
0.0
 10
23.81039
 20
-35.91966
 30
0.0
 10
23.81039
 20
-36.91966
 30
0.0
 10
23.81039
 20
-36.91966
 30
0.0
 10
23.81039
 20
-36.91966
 30
0.0
 10
23.81039
 20
-36.91966
 30
0.0
 10
15.40176
 20
-36.91931
 30
0.0
 10
15.40176
 20
-36.91931
 30
0.0
 10
15.40176
 20
-36.91931
 30
0.0
 10
15.2096
 20
-39.05869
 30
0.0
 10
15.01181
 20
-41.33084
 30
0.0
 10
14.90942
 20
-43.44464
 30
0.0
 10
14.90942
 20
-43.44464
 30
0.0
 10
14.74376
 20
-46.86451
 30
0.0
 10
14.95962
 20
-48.61071
 30
0.0
 10
16.07603
 20
-51.83631
 30
0.0
 10
16.07603
 20
-51.83631
 30
0.0
 10
16.40534
 20
-52.78783
 30
0.0
 10
17.0009
 20
-54.25392
 30
0.0
 10
16.97499
 20
-55.2613
 30
0.0
 10
16.97499
 20
-55.2613
 30
0.0
 10
16.96137
 20
-55.79077
 30
0.0
 10
16.78387
 20
-56.19045
 30
0.0
 10
16.55295
 20
-56.62381
 30
0.0
 10
16.55295
 20
-56.62381
 30
0.0
 10
15.99809
 20
-57.66514
 30
0.0
 10
16.03222
 20
-58.2002
 30
0.0
 10
16.87886
 20
-59.01964
 30
0.0
 10
16.87886
 20
-59.01964
 30
0.0
 10
16.87886
 20
-59.01964
 30
0.0
 10
19.00638
 20
-59.01963
 30
0.0
 10
19.00638
 20
-59.01963
 30
0.0
 10
19.00638
 20
-59.01963
 30
0.0
 10
19.00638
 20
-59.01963
 30
0.0
 10
19.00638
 20
-47.96964
 30
0.0
 10
19.00638
 20
-47.96964
 30
0.0
 10
19.00638
 20
-47.96964
 30
0.0
 10
19.00638
 20
-47.96964
 30
0.0
 10
20.00639
 20
-47.96964
 30
0.0
 10
20.00639
 20
-47.96964
 30
0.0
 10
20.00639
 20
-47.96964
 30
0.0
 10
20.00639
 20
-47.96964
 30
0.0
 10
20.00639
 20
-59.01963
 30
0.0
 10
20.00639
 20
-59.01963
 30
0.0
 10
20.00639
 20
-59.01963
 30
0.0
 10
20.00639
 20
-59.01963
 30
0.0
 10
22.13554
 20
-59.01964
 30
0.0
 10
22.13554
 20
-59.01964
 30
0.0
 10
22.13554
 20
-59.01964
 30
0.0
 10
22.81134
 20
-58.25763
 30
0.0
 10
23.03452
 20
-57.84623
 30
0.0
 10
22.55242
 20
-56.81395
 30
0.0
 10
22.55242
 20
-56.81395
 30
0.0
 10
22.38121
 20
-56.44733
 30
0.0
 10
22.20458
 20
-56.15858
 30
0.0
 10
22.14949
 20
-55.72931
 30
0.0
 10
22.14949
 20
-55.72931
 30
0.0
 10
22.0603
 20
-55.0339
 30
0.0
 10
22.11014
 20
-54.12043
 30
0.0
 10
22.37337
 20
-53.47696
 30
0.0
 10
22.37337
 20
-53.47696
 30
0.0
 10
22.48196
 20
-53.21154
 30
0.0
 10
22.65281
 20
-52.90605
 30
0.0
 10
22.70436
 20
-52.61735
 30
0.0
 10
22.70436
 20
-52.61735
 30
0.0
 10
22.80112
 20
-52.14464
 30
0.0
 10
22.92745
 20
-52.6968
 30
0.0
 10
22.95689
 20
-52.77116
 30
0.0
 10
22.95689
 20
-52.77116
 30
0.0
 10
23.00671
 20
-52.897
 30
0.0
 10
23.07446
 20
-53.01799
 30
0.0
 10
23.19603
 20
-53.14625
 30
0.0
 10
23.19603
 20
-53.14625
 30
0.0
 10
23.31758
 20
-53.27452
 30
0.0
 10
23.49293
 20
-53.41003
 30
0.0
 10
23.62238
 20
-53.50573
 30
0.0
 10
23.62238
 20
-53.50573
 30
0.0
 10
23.87436
 20
-53.69203
 30
0.0
 10
24.04037
 20
-53.77503
 30
0.0
 10
24.11669
 20
-54.1457
 30
0.0
 10
24.11669
 20
-54.1457
 30
0.0
 10
24.13064
 20
-54.21346
 30
0.0
 10
24.13861
 20
-54.27154
 30
0.0
 10
24.15455
 20
-54.28849
 30
0.0
 10
24.15455
 20
-54.28849
 30
0.0
 10
24.22361
 20
-54.36183
 30
0.0
 10
24.37982
 20
-53.84769
 30
0.0
 10
24.39169
 20
-53.79481
 30
0.0
 10
24.39169
 20
-53.79481
 30
0.0
 10
24.40963
 20
-53.71495
 30
0.0
 10
24.42159
 20
-53.63751
 30
0.0
 10
24.42758
 20
-53.59879
 30
0.0
 10
24.42758
 20
-53.59879
 30
0.0
 10
24.42725
 20
-53.62136
 30
0.0
 10
24.42729
 20
-53.65226
 30
0.0
 10
24.43201
 20
-53.69011
 30
0.0
 10
24.43201
 20
-53.69011
 30
0.0
 10
24.4511
 20
-53.84316
 30
0.0
 10
24.5184
 20
-54.00954
 30
0.0
 10
24.6002
 20
-54.12777
 30
0.0
 10
24.6002
 20
-54.12777
 30
0.0
 10
24.83447
 20
-54.46645
 30
0.0
 10
24.93317
 20
-54.63904
 30
0.0
 10
24.8319
 20
-55.11567
 30
0.0
 10
24.8319
 20
-55.11567
 30
0.0
 10
24.79765
 20
-55.27685
 30
0.0
 10
24.9183
 20
-55.19485
 30
0.0
 10
24.9898
 20
-55.14901
 30
0.0
 10
24.9898
 20
-55.14901
 30
0.0
 10
25.05159
 20
-55.10942
 30
0.0
 10
25.12024
 20
-55.05107
 30
0.0
 10
25.18031
 20
-54.98646
 30
0.0
 10
25.18031
 20
-54.98646
 30
0.0
 10
25.38524
 20
-54.76602
 30
0.0
 10
25.55696
 20
-54.44809
 30
0.0
 10
25.62997
 20
-54.12569
 30
0.0
 10
25.62997
 20
-54.12569
 30
0.0
 10
25.64885
 20
-54.04232
 30
0.0
 10
25.65571
 20
-53.9923
 30
0.0
 10
25.65915
 20
-53.96729
 30
0.0
 10
25.65915
 20
-53.96729
 30
0.0
 10
25.66258
 20
-53.94228
 30
0.0
 10
25.66258
 20
-53.94228
 30
0.0
 10
25.66772
 20
-53.97562
 30
0.0
 10
25.66772
 20
-53.97562
 30
0.0
 10
25.67288
 20
-54.00898
 30
0.0
 10
25.68318
 20
-54.07568
 30
0.0
 10
25.69862
 20
-54.14445
 30
0.0
 10
25.69862
 20
-54.14445
 30
0.0
 10
25.72765
 20
-54.27363
 30
0.0
 10
25.77638
 20
-54.41419
 30
0.0
 10
25.84279
 20
-54.52169
 30
0.0
 10
25.84279
 20
-54.52169
 30
0.0
 10
25.86854
 20
-54.56337
 30
0.0
 10
25.88912
 20
-54.5842
 30
0.0
 10
25.90286
 20
-54.56961
 30
0.0
 10
25.90286
 20
-54.56961
 30
0.0
 10
25.9166
 20
-54.55503
 30
0.0
 10
25.92346
 20
-54.50501
 30
0.0
 10
25.93548
 20
-54.44665
 30
0.0
 10
25.93548
 20
-54.44665
 30
0.0
 10
25.96706
 20
-54.29327
 30
0.0
 10
26.01725
 20
-54.17961
 30
0.0
 10
26.12116
 20
-54.08021
 30
0.0
 10
26.12116
 20
-54.08021
 30
0.0
 10
26.17779
 20
-54.02602
 30
0.0
 10
26.24972
 20
-53.9779
 30
0.0
 10
26.36119
 20
-53.89548
 30
0.0
 10
26.36119
 20
-53.89548
 30
0.0
 10
26.78957
 20
-53.57878
 30
0.0
 10
26.82439
 20
-53.53448
 30
0.0
 10
27.01844
 20
-53.0044
 30
0.0
 10
27.01844
 20
-53.0044
 30
0.0
 10
27.03217
 20
-52.96689
 30
0.0
 10
27.03217
 20
-53.0044
 30
0.0
 10
27.03732
 20
-53.07943
 30
0.0
 10
27.03732
 20
-53.07943
 30
0.0
 10
27.04247
 20
-53.15447
 30
0.0
 10
27.05278
 20
-53.267
 30
0.0
 10
27.09225
 20
-53.40872
 30
0.0
 10
27.09225
 20
-53.40872
 30
0.0
 10
27.18621
 20
-53.74611
 30
0.0
 10
27.71906
 20
-54.43493
 30
0.0
 10
27.69809
 20
-54.15487
 30
0.0
 10
27.69809
 20
-54.15487
 30
0.0
 10
27.69466
 20
-54.10902
 30
0.0
 10
27.68779
 20
-54.03816
 30
0.0
 10
27.6998
 20
-53.9277
 30
0.0
 10
27.6998
 20
-53.9277
 30
0.0
 10
27.88473
 20
-52.22738
 30
0.0
 10
30.4498
 20
-52.53646
 30
0.0
 10
30.36157
 20
-54.3514
 30
0.0
 10
30.36157
 20
-54.3514
 30
0.0
 10
30.35843
 20
-54.41592
 30
0.0
 10
30.35843
 20
-54.43969
 30
0.0
 10
30.38389
 20
-54.43494
 30
0.0
 10
30.38389
 20
-54.43494
 30
0.0
 10
30.6537
 20
-54.38448
 30
0.0
 10
30.97041
 20
-53.8108
 30
0.0
 10
31.05352
 20
-53.51237
 30
0.0
 10
31.05352
 20
-53.51237
 30
0.0
 10
31.09855
 20
-53.35069
 30
0.0
 10
31.11031
 20
-53.2223
 30
0.0
 10
31.11618
 20
-53.13671
 30
0.0
 10
31.11618
 20
-53.13671
 30
0.0
 10
31.12206
 20
-53.05111
 30
0.0
 10
31.12206
 20
-53.00831
 30
0.0
 10
31.13771
 20
-53.05111
 30
0.0
 10
31.13771
 20
-53.05111
 30
0.0
 10
31.15338
 20
-53.09391
 30
0.0
 10
31.18472
 20
-53.22232
 30
0.0
 10
31.23366
 20
-53.34594
 30
0.0
 10
31.23366
 20
-53.34594
 30
0.0
 10
31.46457
 20
-53.92922
 30
0.0
 10
31.44575
 20
-53.88479
 30
0.0
 10
31.8656
 20
-54.28906
 30
0.0
 10
31.8656
 20
-54.28906
 30
0.0
 10
31.93727
 20
-54.35808
 30
0.0
 10
32.01856
 20
-54.44626
 30
0.0
 10
32.09601
 20
-54.54311
 30
0.0
 10
32.09601
 20
-54.54311
 30
0.0
 10
32.20986
 20
-54.68548
 30
0.0
 10
32.15986
 20
-54.91047
 30
0.0
 10
32.22155
 20
-54.86087
 30
0.0
 10
32.22155
 20
-54.86087
 30
0.0
 10
32.35002
 20
-54.75755
 30
0.0
 10
32.42037
 20
-54.59667
 30
0.0
 10
32.45896
 20
-54.45247
 30
0.0
 10
32.45896
 20
-54.45247
 30
0.0
 10
32.67143
 20
-54.74791
 30
0.0
 10
32.74261
 20
-55.15586
 30
0.0
 10
32.90226
 20
-55.36612
 30
0.0
 10
32.90226
 20
-55.36612
 30
0.0
 10
32.97899
 20
-55.46717
 30
0.0
 10
33.03379
 20
-55.46717
 30
0.0
 10
33.11052
 20
-55.36612
 30
0.0
 10
33.11052
 20
-55.36612
 30
0.0
 10
33.27013
 20
-55.15591
 30
0.0
 10
33.3414
 20
-54.7479
 30
0.0
 10
33.55381
 20
-54.45247
 30
0.0
 10
33.55381
 20
-54.45247
 30
0.0
 10
33.5924
 20
-54.59668
 30
0.0
 10
33.66274
 20
-54.75758
 30
0.0
 10
33.79123
 20
-54.86091
 30
0.0
 10
33.79123
 20
-54.86091
 30
0.0
 10
33.85292
 20
-54.91052
 30
0.0
 10
33.80292
 20
-54.68552
 30
0.0
 10
33.91677
 20
-54.54315
 30
0.0
 10
33.91677
 20
-54.54315
 30
0.0
 10
33.99422
 20
-54.4463
 30
0.0
 10
34.07551
 20
-54.35812
 30
0.0
 10
34.14718
 20
-54.2891
 30
0.0
 10
34.14718
 20
-54.2891
 30
0.0
 10
34.56703
 20
-53.88483
 30
0.0
 10
34.54821
 20
-53.92926
 30
0.0
 10
34.77912
 20
-53.34598
 30
0.0
 10
34.77912
 20
-53.34598
 30
0.0
 10
34.82806
 20
-53.22236
 30
0.0
 10
34.8594
 20
-53.09395
 30
0.0
 10
34.87507
 20
-53.05115
 30
0.0
 10
34.87507
 20
-53.05115
 30
0.0
 10
34.89072
 20
-53.00835
 30
0.0
 10
34.89072
 20
-53.05115
 30
0.0
 10
34.8966
 20
-53.13675
 30
0.0
 10
34.8966
 20
-53.13675
 30
0.0
 10
34.90247
 20
-53.22234
 30
0.0
 10
34.91423
 20
-53.35073
 30
0.0
 10
34.95926
 20
-53.51241
 30
0.0
 10
34.95926
 20
-53.51241
 30
0.0
 10
35.04237
 20
-53.81084
 30
0.0
 10
35.35908
 20
-54.38452
 30
0.0
 10
35.62889
 20
-54.43498
 30
0.0
 10
35.62889
 20
-54.43498
 30
0.0
 10
35.65435
 20
-54.43973
 30
0.0
 10
35.65435
 20
-54.41596
 30
0.0
 10
35.65121
 20
-54.35144
 30
0.0
 10
35.65121
 20
-54.35144
 30
0.0
 10
35.56298
 20
-52.5365
 30
0.0
 10
38.12805
 20
-52.22742
 30
0.0
 10
38.31298
 20
-53.92774
 30
0.0
 10
38.31298
 20
-53.92774
 30
0.0
 10
38.32499
 20
-54.0382
 30
0.0
 10
38.31812
 20
-54.10906
 30
0.0
 10
38.31469
 20
-54.15491
 30
0.0
 10
38.31469
 20
-54.15491
 30
0.0
 10
38.29372
 20
-54.43497
 30
0.0
 10
38.82657
 20
-53.74615
 30
0.0
 10
38.92053
 20
-53.40876
 30
0.0
 10
38.92053
 20
-53.40876
 30
0.0
 10
38.96
 20
-53.26704
 30
0.0
 10
38.97031
 20
-53.15451
 30
0.0
 10
38.97546
 20
-53.07947
 30
0.0
 10
38.97546
 20
-53.07947
 30
0.0
 10
38.98061
 20
-53.00444
 30
0.0
 10
38.98061
 20
-52.96693
 30
0.0
 10
38.99434
 20
-53.00444
 30
0.0
 10
38.99434
 20
-53.00444
 30
0.0
 10
39.18839
 20
-53.53452
 30
0.0
 10
39.22321
 20
-53.57882
 30
0.0
 10
39.65159
 20
-53.89552
 30
0.0
 10
39.65159
 20
-53.89552
 30
0.0
 10
39.76306
 20
-53.97794
 30
0.0
 10
39.83499
 20
-54.02606
 30
0.0
 10
39.89162
 20
-54.08025
 30
0.0
 10
39.89162
 20
-54.08025
 30
0.0
 10
39.99553
 20
-54.17965
 30
0.0
 10
40.04572
 20
-54.29331
 30
0.0
 10
40.0773
 20
-54.44669
 30
0.0
 10
40.0773
 20
-54.44669
 30
0.0
 10
40.08932
 20
-54.50505
 30
0.0
 10
40.09618
 20
-54.55507
 30
0.0
 10
40.10992
 20
-54.56965
 30
0.0
 10
40.10992
 20
-54.56965
 30
0.0
 10
40.12366
 20
-54.58424
 30
0.0
 10
40.14424
 20
-54.56341
 30
0.0
 10
40.16999
 20
-54.52173
 30
0.0
 10
40.16999
 20
-54.52173
 30
0.0
 10
40.2364
 20
-54.41423
 30
0.0
 10
40.28513
 20
-54.27367
 30
0.0
 10
40.31416
 20
-54.14449
 30
0.0
 10
40.31416
 20
-54.14449
 30
0.0
 10
40.3296
 20
-54.07572
 30
0.0
 10
40.3399
 20
-54.00902
 30
0.0
 10
40.34506
 20
-53.97566
 30
0.0
 10
40.34506
 20
-53.97566
 30
0.0
 10
40.3502
 20
-53.94232
 30
0.0
 10
40.3502
 20
-53.94232
 30
0.0
 10
40.35363
 20
-53.96733
 30
0.0
 10
40.35363
 20
-53.96733
 30
0.0
 10
40.35707
 20
-53.99234
 30
0.0
 10
40.36393
 20
-54.04236
 30
0.0
 10
40.38281
 20
-54.12573
 30
0.0
 10
40.38281
 20
-54.12573
 30
0.0
 10
40.45582
 20
-54.44813
 30
0.0
 10
40.62754
 20
-54.76606
 30
0.0
 10
40.83247
 20
-54.9865
 30
0.0
 10
40.83247
 20
-54.9865
 30
0.0
 10
40.89254
 20
-55.05111
 30
0.0
 10
40.96119
 20
-55.10946
 30
0.0
 10
41.02298
 20
-55.14905
 30
0.0
 10
41.02298
 20
-55.14905
 30
0.0
 10
41.09448
 20
-55.19489
 30
0.0
 10
41.21513
 20
-55.27689
 30
0.0
 10
41.18088
 20
-55.11571
 30
0.0
 10
41.18088
 20
-55.11571
 30
0.0
 10
41.07961
 20
-54.63908
 30
0.0
 10
41.17831
 20
-54.46649
 30
0.0
 10
41.41258
 20
-54.12781
 30
0.0
 10
41.41258
 20
-54.12781
 30
0.0
 10
41.49438
 20
-54.00958
 30
0.0
 10
41.56168
 20
-53.8432
 30
0.0
 10
41.58077
 20
-53.69015
 30
0.0
 10
41.58077
 20
-53.69015
 30
0.0
 10
41.58549
 20
-53.6523
 30
0.0
 10
41.58553
 20
-53.6214
 30
0.0
 10
41.5852
 20
-53.59883
 30
0.0
 10
41.5852
 20
-53.59883
 30
0.0
 10
41.59119
 20
-53.63755
 30
0.0
 10
41.60315
 20
-53.71499
 30
0.0
 10
41.62109
 20
-53.79485
 30
0.0
 10
41.62109
 20
-53.79485
 30
0.0
 10
41.63296
 20
-53.84773
 30
0.0
 10
41.78917
 20
-54.36187
 30
0.0
 10
41.85823
 20
-54.28853
 30
0.0
 10
41.85823
 20
-54.28853
 30
0.0
 10
41.87417
 20
-54.27158
 30
0.0
 10
41.88214
 20
-54.2135
 30
0.0
 10
41.89609
 20
-54.14574
 30
0.0
 10
41.89609
 20
-54.14574
 30
0.0
 10
41.97241
 20
-53.77507
 30
0.0
 10
42.13842
 20
-53.69207
 30
0.0
 10
42.3904
 20
-53.50577
 30
0.0
 10
42.3904
 20
-53.50577
 30
0.0
 10
42.51985
 20
-53.41007
 30
0.0
 10
42.6952
 20
-53.27456
 30
0.0
 10
42.81675
 20
-53.14629
 30
0.0
 10
42.81675
 20
-53.14629
 30
0.0
 10
42.93832
 20
-53.01803
 30
0.0
 10
43.00607
 20
-52.89704
 30
0.0
 10
43.05589
 20
-52.7712
 30
0.0
 10
43.05589
 20
-52.7712
 30
0.0
 10
43.08533
 20
-52.69684
 30
0.0
 10
43.21166
 20
-52.14468
 30
0.0
 10
43.30842
 20
-52.61739
 30
0.0
 10
43.30842
 20
-52.61739
 30
0.0
 10
43.35997
 20
-52.90609
 30
0.0
 10
43.53082
 20
-53.21158
 30
0.0
 10
43.63941
 20
-53.477
 30
0.0
 10
43.63941
 20
-53.477
 30
0.0
 10
43.90264
 20
-54.12047
 30
0.0
 10
43.95248
 20
-55.03394
 30
0.0
 10
43.86329
 20
-55.72935
 30
0.0
 10
43.86329
 20
-55.72935
 30
0.0
 10
43.8082
 20
-56.15862
 30
0.0
 10
43.63157
 20
-56.44737
 30
0.0
 10
43.46036
 20
-56.81399
 30
0.0
 10
43.46036
 20
-56.81399
 30
0.0
 10
42.97826
 20
-57.84627
 30
0.0
 10
43.20144
 20
-58.25767
 30
0.0
 10
43.87724
 20
-59.01968
 30
0.0
 10
43.87724
 20
-59.01968
 30
0.0
 10
43.87724
 20
-59.01968
 30
0.0
 10
46.00638
 20
-59.01965
 30
0.0
 10
46.00638
 20
-59.01965
 30
0.0
 10
46.00638
 20
-59.01965
 30
0.0
 10
46.00638
 20
-59.01965
 30
0.0
 10
46.00638
 20
-47.96964
 30
0.0
 10
46.00638
 20
-47.96964
 30
0.0
 10
46.00638
 20
-47.96964
 30
0.0
 10
46.00638
 20
-47.96964
 30
0.0
 10
47.00639
 20
-47.96964
 30
0.0
 10
47.00639
 20
-47.96964
 30
0.0
 10
47.00639
 20
-47.96964
 30
0.0
 10
47.00639
 20
-47.96964
 30
0.0
 10
47.00639
 20
-59.01965
 30
0.0
 10
47.00639
 20
-59.01965
 30
0.0
 10
47.00639
 20
-59.01965
 30
0.0
 10
47.00639
 20
-59.01965
 30
0.0
 10
49.13392
 20
-59.01968
 30
0.0
 10
49.13392
 20
-59.01968
 30
0.0
 10
49.13392
 20
-59.01968
 30
0.0
 10
49.98056
 20
-58.20024
 30
0.0
 10
50.01469
 20
-57.66518
 30
0.0
 10
49.45983
 20
-56.62385
 30
0.0
 10
49.45983
 20
-56.62385
 30
0.0
 10
49.22891
 20
-56.19049
 30
0.0
 10
49.05141
 20
-55.79081
 30
0.0
 10
49.03779
 20
-55.26134
 30
0.0
 10
49.03779
 20
-55.26134
 30
0.0
 10
49.01188
 20
-54.25396
 30
0.0
 10
49.60744
 20
-52.78787
 30
0.0
 10
49.93675
 20
-51.83635
 30
0.0
 10
49.93675
 20
-51.83635
 30
0.0
 10
51.05316
 20
-48.61075
 30
0.0
 10
51.26901
 20
-46.86455
 30
0.0
 10
51.10336
 20
-43.44468
 30
0.0
 10
51.10336
 20
-43.44468
 30
0.0
 10
51.00098
 20
-41.33099
 30
0.0
 10
50.8032
 20
-39.05895
 30
0.0
 10
50.61105
 20
-36.91966
 30
0.0
 10
50.61105
 20
-36.91966
 30
0.0
 10
50.61105
 20
-36.91966
 30
0.0
 10
42.01307
 20
-36.91966
 30
0.0
 10
42.01307
 20
-36.91966
 30
0.0
 10
42.01307
 20
-36.91966
 30
0.0
 10
42.01307
 20
-36.91966
 30
0.0
 10
42.01307
 20
-35.91966
 30
0.0
 10
42.01307
 20
-35.91966
 30
0.0
 10
42.01307
 20
-35.91966
 30
0.0
 10
42.01307
 20
-35.91966
 30
0.0
 10
50.51975
 20
-35.91966
 30
0.0
 10
50.51975
 20
-35.91966
 30
0.0
 10
50.51975
 20
-35.91966
 30
0.0
 10
50.45793
 20
-35.28044
 30
0.0
 10
50.383
 20
-34.62888
 30
0.0
 10
50.27945
 20
-34.00755
 30
0.0
 10
50.27945
 20
-34.00755
 30
0.0
 10
49.87205
 20
-31.563
 30
0.0
 10
49.18009
 20
-29.51589
 30
0.0
 10
47.00639
 20
-29.25892
 30
0.0
 10
47.00639
 20
-29.25892
 30
0.0
 10
47.00639
 20
-29.25892
 30
0.0
 10
47.00639
 20
-32.27659
 30
0.0
 10
47.00639
 20
-32.27659
 30
0.0
 10
47.00639
 20
-32.27659
 30
0.0
 10
47.00639
 20
-32.27659
 30
0.0
 10
46.00639
 20
-32.27659
 30
0.0
 10
46.00639
 20
-32.27659
 30
0.0
 10
46.00639
 20
-32.27659
 30
0.0
 10
46.00639
 20
-32.27659
 30
0.0
 10
46.00639
 20
-29.24933
 30
0.0
 10
46.00639
 20
-29.24933
 30
0.0
  0
SPLINE
  5
76
330
1F
100
AcDbEntity
  8
layer 1
 62
   250
370
     9
100
AcDbSpline
210
0.0
220
0.0
230
1.0
 70
    11
 71
     3
 72
    88
 73
    84
 74
     0
 42
0.000000001
 43
0.0000000001
 40
0.0
 40
0.0
 40
0.0
 40
0.0
 40
0.0454545454545455
 40
0.0454545454545455
 40
0.0454545454545455
 40
0.0454545454545455
 40
0.0909090909090909
 40
0.0909090909090909
 40
0.0909090909090909
 40
0.0909090909090909
 40
0.1363636363636364
 40
0.1363636363636364
 40
0.1363636363636364
 40
0.1363636363636364
 40
0.1818181818181818
 40
0.1818181818181818
 40
0.1818181818181818
 40
0.1818181818181818
 40
0.2272727272727273
 40
0.2272727272727273
 40
0.2272727272727273
 40
0.2272727272727273
 40
0.2727272727272727
 40
0.2727272727272727
 40
0.2727272727272727
 40
0.2727272727272727
 40
0.3181818181818182
 40
0.3181818181818182
 40
0.3181818181818182
 40
0.3181818181818182
 40
0.3636363636363636
 40
0.3636363636363636
 40
0.3636363636363636
 40
0.3636363636363636
 40
0.4090909090909091
 40
0.4090909090909091
 40
0.4090909090909091
 40
0.4090909090909091
 40
0.4545454545454545
 40
0.4545454545454545
 40
0.4545454545454545
 40
0.4545454545454545
 40
0.5
 40
0.5
 40
0.5
 40
0.5
 40
0.5454545454545454
 40
0.5454545454545454
 40
0.5454545454545454
 40
0.5454545454545454
 40
0.5909090909090909
 40
0.5909090909090909
 40
0.5909090909090909
 40
0.5909090909090909
 40
0.6363636363636364
 40
0.6363636363636364
 40
0.6363636363636364
 40
0.6363636363636364
 40
0.6818181818181818
 40
0.6818181818181818
 40
0.6818181818181818
 40
0.6818181818181818
 40
0.7272727272727273
 40
0.7272727272727273
 40
0.7272727272727273
 40
0.7272727272727273
 40
0.7727272727272727
 40
0.7727272727272727
 40
0.7727272727272727
 40
0.7727272727272727
 40
0.8181818181818182
 40
0.8181818181818182
 40
0.8181818181818182
 40
0.8181818181818182
 40
0.8636363636363636
 40
0.8636363636363636
 40
0.8636363636363636
 40
0.8636363636363636
 40
0.9090909090909091
 40
0.9090909090909091
 40
0.9090909090909091
 40
0.9090909090909091
 40
1.0
 40
1.0
 40
1.0
 40
1.0
 10
-18.1329
 20
-98.13609
 30
0.0
 10
-18.1329
 20
-98.13609
 30
0.0
 10
-6.3204
 20
-98.13609
 30
0.0
 10
-6.3204
 20
-98.13609
 30
0.0
 10
-6.3204
 20
-98.13609
 30
0.0
 10
-6.3204
 20
-98.13609
 30
0.0
 10
-6.3204
 20
-106.8321
 30
0.0
 10
-6.3204
 20
-106.8321
 30
0.0
 10
-6.3204
 20
-106.8321
 30
0.0
 10
-6.3204
 20
-106.8321
 30
0.0
 10
-5.3204
 20
-106.8321
 30
0.0
 10
-5.3204
 20
-106.8321
 30
0.0
 10
-5.3204
 20
-106.8321
 30
0.0
 10
-5.3204
 20
-106.8321
 30
0.0
 10
-5.3204
 20
-98.13609
 30
0.0
 10
-5.3204
 20
-98.13609
 30
0.0
 10
-5.3204
 20
-98.13609
 30
0.0
 10
-5.3204
 20
-98.13609
 30
0.0
 10
0.35719
 20
-98.13609
 30
0.0
 10
0.35719
 20
-98.13609
 30
0.0
 10
0.35719
 20
-98.13609
 30
0.0
 10
0.35719
 20
-102.88312
 30
0.0
 10
1.07221
 20
-107.16902
 30
0.0
 10
1.06689
 20
-111.12633
 30
0.0
 10
1.06689
 20
-111.12633
 30
0.0
 10
1.05603
 20
-119.20651
 30
0.0
 10
-11.66595
 20
-114.81575
 30
0.0
 10
-18.69841
 20
-113.81885
 30
0.0
 10
-18.69841
 20
-113.81885
 30
0.0
 10
-26.94799
 20
-112.43222
 30
0.0
 10
-41.30708
 20
-113.33056
 30
0.0
 10
-49.86788
 20
-115.00088
 30
0.0
 10
-49.86788
 20
-115.00088
 30
0.0
 10
-64.44095
 20
-117.84426
 30
0.0
 10
-57.24095
 20
-108.81575
 30
0.0
 10
-58.92667
 20
-98.13609
 30
0.0
 10
-58.92667
 20
-98.13609
 30
0.0
 10
-58.92667
 20
-98.13609
 30
0.0
 10
-54.5704
 20
-98.13609
 30
0.0
 10
-54.5704
 20
-98.13609
 30
0.0
 10
-54.5704
 20
-98.13609
 30
0.0
 10
-54.5704
 20
-98.13609
 30
0.0
 10
-54.5704
 20
-106.8321
 30
0.0
 10
-54.5704
 20
-106.8321
 30
0.0
 10
-54.5704
 20
-106.8321
 30
0.0
 10
-54.5704
 20
-106.8321
 30
0.0
 10
-53.57039
 20
-106.8321
 30
0.0
 10
-53.57039
 20
-106.8321
 30
0.0
 10
-53.57039
 20
-106.8321
 30
0.0
 10
-53.57039
 20
-106.8321
 30
0.0
 10
-53.5704
 20
-98.13609
 30
0.0
 10
-53.5704
 20
-98.13609
 30
0.0
 10
-53.5704
 20
-98.13609
 30
0.0
 10
-53.5704
 20
-98.13609
 30
0.0
 10
-47.66415
 20
-98.13609
 30
0.0
 10
-47.66415
 20
-98.13609
 30
0.0
 10
-47.66415
 20
-98.13609
 30
0.0
 10
-47.66415
 20
-98.13609
 30
0.0
 10
-47.66415
 20
-97.13609
 30
0.0
 10
-47.66415
 20
-97.13609
 30
0.0
 10
-47.66415
 20
-97.13609
 30
0.0
 10
-47.66415
 20
-97.13609
 30
0.0
 10
-41.7579
 20
-97.13609
 30
0.0
 10
-41.7579
 20
-97.13609
 30
0.0
 10
-41.7579
 20
-97.13609
 30
0.0
 10
-41.7579
 20
-97.13609
 30
0.0
 10
-41.7579
 20
-98.13609
 30
0.0
 10
-41.7579
 20
-98.13609
 30
0.0
 10
-41.7579
 20
-98.13609
 30
0.0
 10
-41.7579
 20
-98.13609
 30
0.0
 10
-24.03915
 20
-98.13609
 30
0.0
 10
-24.03915
 20
-98.13609
 30
0.0
 10
-24.03915
 20
-98.13609
 30
0.0
 10
-24.03915
 20
-98.13609
 30
0.0
 10
-24.03915
 20
-97.13609
 30
0.0
 10
-24.03915
 20
-97.13609
 30
0.0
 10
-24.03915
 20
-97.13609
 30
0.0
 10
-24.03915
 20
-97.13609
 30
0.0
 10
-18.1329
 20
-97.13609
 30
0.0
 10
-18.1329
 20
-97.13609
 30
0.0
 10
-18.1329
 20
-97.13609
 30
0.0
 10
-18.1329
 20
-97.13609
 30
0.0
 10
-18.1329
 20
-98.13609
 30
0.0
 10
-18.1329
 20
-98.13609
 30
0.0
  0
SPLINE
  5
77
330
1F
100
AcDbEntity
  8
layer 1
 62
   250
370
     9
100
AcDbSpline
210
0.0
220
0.0
230
1.0
 70
    11
 71
     3
 72
    20
 73
    16
 74
     0
 42
0.000000001
 43
0.0000000001
 40
0.0
 40
0.0
 40
0.0
 40
0.0
 40
0.2
 40
0.2
 40
0.2
 40
0.2
 40
0.4
 40
0.4
 40
0.4
 40
0.4
 40
0.6
 40
0.6
 40
0.6
 40
0.6
 40
1.0
 40
1.0
 40
1.0
 40
1.0
 10
-47.66415
 20
-110.63609
 30
0.0
 10
-47.66415
 20
-110.63609
 30
0.0
 10
-35.85165
 20
-110.63609
 30
0.0
 10
-35.85165
 20
-110.63609
 30
0.0
 10
-35.85165
 20
-110.63609
 30
0.0
 10
-35.85165
 20
-110.63609
 30
0.0
 10
-35.85165
 20
-111.63608
 30
0.0
 10
-35.85165
 20
-111.63608
 30
0.0
 10
-35.85165
 20
-111.63608
 30
0.0
 10
-35.85165
 20
-111.63608
 30
0.0
 10
-47.66415
 20
-111.63608
 30
0.0
 10
-47.66415
 20
-111.63608
 30
0.0
 10
-47.66415
 20
-111.63608
 30
0.0
 10
-47.66415
 20
-111.63608
 30
0.0
 10
-47.66415
 20
-110.63609
 30
0.0
 10
-47.66415
 20
-110.63609
 30
0.0
  0
SPLINE
  5
78
330
1F
100
AcDbEntity
  8
layer 1
 62
   250
370
     9
100
AcDbSpline
210
0.0
220
0.0
230
1.0
 70
    11
 71
     3
 72
    20
 73
    16
 74
     0
 42
0.000000001
 43
0.0000000001
 40
0.0
 40
0.0
 40
0.0
 40
0.0
 40
0.2
 40
0.2
 40
0.2
 40
0.2
 40
0.4
 40
0.4
 40
0.4
 40
0.4
 40
0.6
 40
0.6
 40
0.6
 40
0.6
 40
1.0
 40
1.0
 40
1.0
 40
1.0
 10
-24.03915
 20
-110.63609
 30
0.0
 10
-24.03915
 20
-110.63609
 30
0.0
 10
-12.22665
 20
-110.63609
 30
0.0
 10
-12.22665
 20
-110.63609
 30
0.0
 10
-12.22665
 20
-110.63609
 30
0.0
 10
-12.22665
 20
-110.63609
 30
0.0
 10
-12.22665
 20
-111.63608
 30
0.0
 10
-12.22665
 20
-111.63608
 30
0.0
 10
-12.22665
 20
-111.63608
 30
0.0
 10
-12.22665
 20
-111.63608
 30
0.0
 10
-24.03915
 20
-111.63608
 30
0.0
 10
-24.03915
 20
-111.63608
 30
0.0
 10
-24.03915
 20
-111.63608
 30
0.0
 10
-24.03915
 20
-111.63608
 30
0.0
 10
-24.03915
 20
-110.63609
 30
0.0
 10
-24.03915
 20
-110.63609
 30
0.0
  0
SPLINE
  5
79
330
1F
100
AcDbEntity
  8
layer 1
 62
   250
370
     9
100
AcDbSpline
210
0.0
220
0.0
230
1.0
 70
    11
 71
     3
 72
    88
 73
    84
 74
     0
 42
0.000000001
 43
0.0000000001
 40
0.0
 40
0.0
 40
0.0
 40
0.0
 40
0.0454545454545455
 40
0.0454545454545455
 40
0.0454545454545455
 40
0.0454545454545455
 40
0.0909090909090909
 40
0.0909090909090909
 40
0.0909090909090909
 40
0.0909090909090909
 40
0.1363636363636364
 40
0.1363636363636364
 40
0.1363636363636364
 40
0.1363636363636364
 40
0.1818181818181818
 40
0.1818181818181818
 40
0.1818181818181818
 40
0.1818181818181818
 40
0.2272727272727273
 40
0.2272727272727273
 40
0.2272727272727273
 40
0.2272727272727273
 40
0.2727272727272727
 40
0.2727272727272727
 40
0.2727272727272727
 40
0.2727272727272727
 40
0.3181818181818182
 40
0.3181818181818182
 40
0.3181818181818182
 40
0.3181818181818182
 40
0.3636363636363636
 40
0.3636363636363636
 40
0.3636363636363636
 40
0.3636363636363636
 40
0.4090909090909091
 40
0.4090909090909091
 40
0.4090909090909091
 40
0.4090909090909091
 40
0.4545454545454545
 40
0.4545454545454545
 40
0.4545454545454545
 40
0.4545454545454545
 40
0.5
 40
0.5
 40
0.5
 40
0.5
 40
0.5454545454545454
 40
0.5454545454545454
 40
0.5454545454545454
 40
0.5454545454545454
 40
0.5909090909090909
 40
0.5909090909090909
 40
0.5909090909090909
 40
0.5909090909090909
 40
0.6363636363636364
 40
0.6363636363636364
 40
0.6363636363636364
 40
0.6363636363636364
 40
0.6818181818181818
 40
0.6818181818181818
 40
0.6818181818181818
 40
0.6818181818181818
 40
0.7272727272727273
 40
0.7272727272727273
 40
0.7272727272727273
 40
0.7272727272727273
 40
0.7727272727272727
 40
0.7727272727272727
 40
0.7727272727272727
 40
0.7727272727272727
 40
0.8181818181818182
 40
0.8181818181818182
 40
0.8181818181818182
 40
0.8181818181818182
 40
0.8636363636363636
 40
0.8636363636363636
 40
0.8636363636363636
 40
0.8636363636363636
 40
0.9090909090909091
 40
0.9090909090909091
 40
0.9090909090909091
 40
0.9090909090909091
 40
1.0
 40
1.0
 40
1.0
 40
1.0
 10
-12.22665
 20
-97.13609
 30
0.0
 10
-12.22665
 20
-97.13609
 30
0.0
 10
-6.3204
 20
-97.13609
 30
0.0
 10
-6.3204
 20
-97.13609
 30
0.0
 10
-6.3204
 20
-97.13609
 30
0.0
 10
-6.3204
 20
-97.13609
 30
0.0
 10
-6.3204
 20
-88.44008
 30
0.0
 10
-6.3204
 20
-88.44008
 30
0.0
 10
-6.3204
 20
-88.44008
 30
0.0
 10
-6.3204
 20
-88.44008
 30
0.0
 10
-5.3204
 20
-88.44008
 30
0.0
 10
-5.3204
 20
-88.44008
 30
0.0
 10
-5.3204
 20
-88.44008
 30
0.0
 10
-5.3204
 20
-88.44008
 30
0.0
 10
-5.3204
 20
-97.13609
 30
0.0
 10
-5.3204
 20
-97.13609
 30
0.0
 10
-5.3204
 20
-97.13609
 30
0.0
 10
-5.3204
 20
-97.13609
 30
0.0
 10
0.35719
 20
-97.13609
 30
0.0
 10
0.35719
 20
-97.13609
 30
0.0
 10
0.35719
 20
-97.13609
 30
0.0
 10
0.35719
 20
-92.38906
 30
0.0
 10
1.07221
 20
-88.10316
 30
0.0
 10
1.06689
 20
-84.14585
 30
0.0
 10
1.06689
 20
-84.14585
 30
0.0
 10
1.05603
 20
-76.06567
 30
0.0
 10
-11.66595
 20
-80.45643
 30
0.0
 10
-18.69841
 20
-81.45333
 30
0.0
 10
-18.69841
 20
-81.45333
 30
0.0
 10
-26.94799
 20
-82.83996
 30
0.0
 10
-41.30708
 20
-81.94162
 30
0.0
 10
-49.86788
 20
-80.2713
 30
0.0
 10
-49.86788
 20
-80.2713
 30
0.0
 10
-64.44095
 20
-77.42792
 30
0.0
 10
-57.24095
 20
-86.45643
 30
0.0
 10
-58.92667
 20
-97.13609
 30
0.0
 10
-58.92667
 20
-97.13609
 30
0.0
 10
-58.92667
 20
-97.13609
 30
0.0
 10
-54.5704
 20
-97.13609
 30
0.0
 10
-54.5704
 20
-97.13609
 30
0.0
 10
-54.5704
 20
-97.13609
 30
0.0
 10
-54.5704
 20
-97.13609
 30
0.0
 10
-54.5704
 20
-88.44008
 30
0.0
 10
-54.5704
 20
-88.44008
 30
0.0
 10
-54.5704
 20
-88.44008
 30
0.0
 10
-54.5704
 20
-88.44008
 30
0.0
 10
-53.57039
 20
-88.44008
 30
0.0
 10
-53.57039
 20
-88.44008
 30
0.0
 10
-53.57039
 20
-88.44008
 30
0.0
 10
-53.57039
 20
-88.44008
 30
0.0
 10
-53.5704
 20
-97.13609
 30
0.0
 10
-53.5704
 20
-97.13609
 30
0.0
 10
-53.5704
 20
-97.13609
 30
0.0
 10
-53.5704
 20
-97.13609
 30
0.0
 10
-41.7579
 20
-97.13609
 30
0.0
 10
-41.7579
 20
-97.13609
 30
0.0
 10
-41.7579
 20
-97.13609
 30
0.0
 10
-41.7579
 20
-97.13609
 30
0.0
 10
-41.7579
 20
-98.13609
 30
0.0
 10
-41.7579
 20
-98.13609
 30
0.0
 10
-41.7579
 20
-98.13609
 30
0.0
 10
-41.7579
 20
-98.13609
 30
0.0
 10
-35.85165
 20
-98.13609
 30
0.0
 10
-35.85165
 20
-98.13609
 30
0.0
 10
-35.85165
 20
-98.13609
 30
0.0
 10
-35.85165
 20
-98.13609
 30
0.0
 10
-35.85165
 20
-97.13609
 30
0.0
 10
-35.85165
 20
-97.13609
 30
0.0
 10
-35.85165
 20
-97.13609
 30
0.0
 10
-35.85165
 20
-97.13609
 30
0.0
 10
-18.1329
 20
-97.13609
 30
0.0
 10
-18.1329
 20
-97.13609
 30
0.0
 10
-18.1329
 20
-97.13609
 30
0.0
 10
-18.1329
 20
-97.13609
 30
0.0
 10
-18.1329
 20
-98.13609
 30
0.0
 10
-18.1329
 20
-98.13609
 30
0.0
 10
-18.1329
 20
-98.13609
 30
0.0
 10
-18.1329
 20
-98.13609
 30
0.0
 10
-12.22665
 20
-98.13609
 30
0.0
 10
-12.22665
 20
-98.13609
 30
0.0
 10
-12.22665
 20
-98.13609
 30
0.0
 10
-12.22665
 20
-98.13609
 30
0.0
 10
-12.22665
 20
-97.13609
 30
0.0
 10
-12.22665
 20
-97.13609
 30
0.0
  0
SPLINE
  5
7A
330
1F
100
AcDbEntity
  8
layer 1
 62
   250
370
     9
100
AcDbSpline
210
0.0
220
0.0
230
1.0
 70
    11
 71
     3
 72
    20
 73
    16
 74
     0
 42
0.000000001
 43
0.0000000001
 40
0.0
 40
0.0
 40
0.0
 40
0.0
 40
0.2
 40
0.2
 40
0.2
 40
0.2
 40
0.4
 40
0.4
 40
0.4
 40
0.4
 40
0.6
 40
0.6
 40
0.6
 40
0.6
 40
1.0
 40
1.0
 40
1.0
 40
1.0
 10
-47.66415
 20
-84.63609
 30
0.0
 10
-47.66415
 20
-84.63609
 30
0.0
 10
-35.85165
 20
-84.63609
 30
0.0
 10
-35.85165
 20
-84.63609
 30
0.0
 10
-35.85165
 20
-84.63609
 30
0.0
 10
-35.85165
 20
-84.63609
 30
0.0
 10
-35.85165
 20
-83.6361
 30
0.0
 10
-35.85165
 20
-83.6361
 30
0.0
 10
-35.85165
 20
-83.6361
 30
0.0
 10
-35.85165
 20
-83.6361
 30
0.0
 10
-47.66415
 20
-83.6361
 30
0.0
 10
-47.66415
 20
-83.6361
 30
0.0
 10
-47.66415
 20
-83.6361
 30
0.0
 10
-47.66415
 20
-83.6361
 30
0.0
 10
-47.66415
 20
-84.63609
 30
0.0
 10
-47.66415
 20
-84.63609
 30
0.0
  0
SPLINE
  5
7B
330
1F
100
AcDbEntity
  8
layer 1
 62
   250
370
     9
100
AcDbSpline
210
0.0
220
0.0
230
1.0
 70
    11
 71
     3
 72
    20
 73
    16
 74
     0
 42
0.000000001
 43
0.0000000001
 40
0.0
 40
0.0
 40
0.0
 40
0.0
 40
0.2
 40
0.2
 40
0.2
 40
0.2
 40
0.4
 40
0.4
 40
0.4
 40
0.4
 40
0.6
 40
0.6
 40
0.6
 40
0.6
 40
1.0
 40
1.0
 40
1.0
 40
1.0
 10
-24.03915
 20
-84.63609
 30
0.0
 10
-24.03915
 20
-84.63609
 30
0.0
 10
-12.22665
 20
-84.63609
 30
0.0
 10
-12.22665
 20
-84.63609
 30
0.0
 10
-12.22665
 20
-84.63609
 30
0.0
 10
-12.22665
 20
-84.63609
 30
0.0
 10
-12.22665
 20
-83.6361
 30
0.0
 10
-12.22665
 20
-83.6361
 30
0.0
 10
-12.22665
 20
-83.6361
 30
0.0
 10
-12.22665
 20
-83.6361
 30
0.0
 10
-24.03915
 20
-83.6361
 30
0.0
 10
-24.03915
 20
-83.6361
 30
0.0
 10
-24.03915
 20
-83.6361
 30
0.0
 10
-24.03915
 20
-83.6361
 30
0.0
 10
-24.03915
 20
-84.63609
 30
0.0
 10
-24.03915
 20
-84.63609
 30
0.0
  0
SPLINE
  5
7C
330
1F
100
AcDbEntity
  8
layer 1
 62
   250
370
     9
100
AcDbSpline
210
0.0
220
0.0
230
1.0
 70
    11
 71
     3
 72
   276
 73
   272
 74
     0
 42
0.000000001
 43
0.0000000001
 40
0.0
 40
0.0
 40
0.0
 40
0.0
 40
0.0144927536231884
 40
0.0144927536231884
 40
0.0144927536231884
 40
0.0144927536231884
 40
0.0289855072463768
 40
0.0289855072463768
 40
0.0289855072463768
 40
0.0289855072463768
 40
0.0434782608695652
 40
0.0434782608695652
 40
0.0434782608695652
 40
0.0434782608695652
 40
0.0579710144927536
 40
0.0579710144927536
 40
0.0579710144927536
 40
0.0579710144927536
 40
0.072463768115942
 40
0.072463768115942
 40
0.072463768115942
 40
0.072463768115942
 40
0.0869565217391304
 40
0.0869565217391304
 40
0.0869565217391304
 40
0.0869565217391304
 40
0.1014492753623188
 40
0.1014492753623188
 40
0.1014492753623188
 40
0.1014492753623188
 40
0.1159420289855072
 40
0.1159420289855072
 40
0.1159420289855072
 40
0.1159420289855072
 40
0.1304347826086956
 40
0.1304347826086956
 40
0.1304347826086956
 40
0.1304347826086956
 40
0.1449275362318841
 40
0.1449275362318841
 40
0.1449275362318841
 40
0.1449275362318841
 40
0.1594202898550725
 40
0.1594202898550725
 40
0.1594202898550725
 40
0.1594202898550725
 40
0.1739130434782609
 40
0.1739130434782609
 40
0.1739130434782609
 40
0.1739130434782609
 40
0.1884057971014493
 40
0.1884057971014493
 40
0.1884057971014493
 40
0.1884057971014493
 40
0.2028985507246377
 40
0.2028985507246377
 40
0.2028985507246377
 40
0.2028985507246377
 40
0.2173913043478261
 40
0.2173913043478261
 40
0.2173913043478261
 40
0.2173913043478261
 40
0.2318840579710145
 40
0.2318840579710145
 40
0.2318840579710145
 40
0.2318840579710145
 40
0.2463768115942029
 40
0.2463768115942029
 40
0.2463768115942029
 40
0.2463768115942029
 40
0.2608695652173913
 40
0.2608695652173913
 40
0.2608695652173913
 40
0.2608695652173913
 40
0.2753623188405797
 40
0.2753623188405797
 40
0.2753623188405797
 40
0.2753623188405797
 40
0.2898550724637681
 40
0.2898550724637681
 40
0.2898550724637681
 40
0.2898550724637681
 40
0.3043478260869565
 40
0.3043478260869565
 40
0.3043478260869565
 40
0.3043478260869565
 40
0.3188405797101449
 40
0.3188405797101449
 40
0.3188405797101449
 40
0.3188405797101449
 40
0.3333333333333333
 40
0.3333333333333333
 40
0.3333333333333333
 40
0.3333333333333333
 40
0.3478260869565217
 40
0.3478260869565217
 40
0.3478260869565217
 40
0.3478260869565217
 40
0.3623188405797101
 40
0.3623188405797101
 40
0.3623188405797101
 40
0.3623188405797101
 40
0.3768115942028986
 40
0.3768115942028986
 40
0.3768115942028986
 40
0.3768115942028986
 40
0.391304347826087
 40
0.391304347826087
 40
0.391304347826087
 40
0.391304347826087
 40
0.4057971014492754
 40
0.4057971014492754
 40
0.4057971014492754
 40
0.4057971014492754
 40
0.4202898550724637
 40
0.4202898550724637
 40
0.4202898550724637
 40
0.4202898550724637
 40
0.4347826086956522
 40
0.4347826086956522
 40
0.4347826086956522
 40
0.4347826086956522
 40
0.4492753623188406
 40
0.4492753623188406
 40
0.4492753623188406
 40
0.4492753623188406
 40
0.463768115942029
 40
0.463768115942029
 40
0.463768115942029
 40
0.463768115942029
 40
0.4782608695652174
 40
0.4782608695652174
 40
0.4782608695652174
 40
0.4782608695652174
 40
0.4927536231884058
 40
0.4927536231884058
 40
0.4927536231884058
 40
0.4927536231884058
 40
0.5072463768115942
 40
0.5072463768115942
 40
0.5072463768115942
 40
0.5072463768115942
 40
0.5217391304347826
 40
0.5217391304347826
 40
0.5217391304347826
 40
0.5217391304347826
 40
0.5362318840579711
 40
0.5362318840579711
 40
0.5362318840579711
 40
0.5362318840579711
 40
0.5507246376811594
 40
0.5507246376811594
 40
0.5507246376811594
 40
0.5507246376811594
 40
0.5652173913043478
 40
0.5652173913043478
 40
0.5652173913043478
 40
0.5652173913043478
 40
0.5797101449275363
 40
0.5797101449275363
 40
0.5797101449275363
 40
0.5797101449275363
 40
0.5942028985507246
 40
0.5942028985507246
 40
0.5942028985507246
 40
0.5942028985507246
 40
0.6086956521739131
 40
0.6086956521739131
 40
0.6086956521739131
 40
0.6086956521739131
 40
0.6231884057971014
 40
0.6231884057971014
 40
0.6231884057971014
 40
0.6231884057971014
 40
0.6376811594202898
 40
0.6376811594202898
 40
0.6376811594202898
 40
0.6376811594202898
 40
0.6521739130434783
 40
0.6521739130434783
 40
0.6521739130434783
 40
0.6521739130434783
 40
0.6666666666666666
 40
0.6666666666666666
 40
0.6666666666666666
 40
0.6666666666666666
 40
0.6811594202898551
 40
0.6811594202898551
 40
0.6811594202898551
 40
0.6811594202898551
 40
0.6956521739130435
 40
0.6956521739130435
 40
0.6956521739130435
 40
0.6956521739130435
 40
0.7101449275362319
 40
0.7101449275362319
 40
0.7101449275362319
 40
0.7101449275362319
 40
0.7246376811594203
 40
0.7246376811594203
 40
0.7246376811594203
 40
0.7246376811594203
 40
0.7391304347826086
 40
0.7391304347826086
 40
0.7391304347826086
 40
0.7391304347826086
 40
0.7536231884057971
 40
0.7536231884057971
 40
0.7536231884057971
 40
0.7536231884057971
 40
0.7681159420289855
 40
0.7681159420289855
 40
0.7681159420289855
 40
0.7681159420289855
 40
0.782608695652174
 40
0.782608695652174
 40
0.782608695652174
 40
0.782608695652174
 40
0.7971014492753623
 40
0.7971014492753623
 40
0.7971014492753623
 40
0.7971014492753623
 40
0.8115942028985508
 40
0.8115942028985508
 40
0.8115942028985508
 40
0.8115942028985508
 40
0.8260869565217391
 40
0.8260869565217391
 40
0.8260869565217391
 40
0.8260869565217391
 40
0.8405797101449275
 40
0.8405797101449275
 40
0.8405797101449275
 40
0.8405797101449275
 40
0.855072463768116
 40
0.855072463768116
 40
0.855072463768116
 40
0.855072463768116
 40
0.8695652173913043
 40
0.8695652173913043
 40
0.8695652173913043
 40
0.8695652173913043
 40
0.8840579710144928
 40
0.8840579710144928
 40
0.8840579710144928
 40
0.8840579710144928
 40
0.8985507246376812
 40
0.8985507246376812
 40
0.8985507246376812
 40
0.8985507246376812
 40
0.9130434782608695
 40
0.9130434782608695
 40
0.9130434782608695
 40
0.9130434782608695
 40
0.927536231884058
 40
0.927536231884058
 40
0.927536231884058
 40
0.927536231884058
 40
0.9420289855072463
 40
0.9420289855072463
 40
0.9420289855072463
 40
0.9420289855072463
 40
0.9565217391304348
 40
0.9565217391304348
 40
0.9565217391304348
 40
0.9565217391304348
 40
0.9710144927536232
 40
0.9710144927536232
 40
0.9710144927536232
 40
0.9710144927536232
 40
1.0
 40
1.0
 40
1.0
 40
1.0
 10
-9.27352
 20
31.82267
 30
0.0
 10
-7.30477
 20
31.82268
 30
0.0
 10
-5.33602
 20
31.82268
 30
0.0
 10
-3.36727
 20
31.82268
 30
0.0
 10
-3.36727
 20
31.82268
 30
0.0
 10
-3.36727
 20
28.13935
 30
0.0
 10
-3.36727
 20
28.13936
 30
0.0
 10
-3.36727
 20
20.7727
 30
0.0
 10
-3.36727
 20
20.7727
 30
0.0
 10
-3.36727
 20
20.7727
 30
0.0
 10
-2.36727
 20
20.7727
 30
0.0
 10
-2.36727
 20
20.7727
 30
0.0
 10
-2.36727
 20
20.7727
 30
0.0
 10
-2.36727
 20
28.13936
 30
0.0
 10
-2.36727
 20
28.13934
 30
0.0
 10
-2.36727
 20
31.82267
 30
0.0
 10
-2.36727
 20
31.82267
 30
0.0
 10
-0.2828
 20
31.82267
 30
0.0
 10
2.86807
 20
31.82267
 30
0.0
 10
3.91031
 20
31.82267
 30
0.0
 10
3.91031
 20
31.82267
 30
0.0
 10
3.99723
 20
31.21969
 30
0.0
 10
4.06724
 20
30.61726
 30
0.0
 10
4.12749
 20
30.00388
 30
0.0
 10
4.12749
 20
30.00388
 30
0.0
 10
4.32617
 20
27.97819
 30
0.0
 10
4.388
 20
26.09838
 30
0.0
 10
4.31108
 20
24.06436
 30
0.0
 10
4.31108
 20
24.06436
 30
0.0
 10
4.24075
 20
22.20446
 30
0.0
 10
4.11673
 20
20.37483
 30
0.0
 10
4.29441
 20
18.51436
 30
0.0
 10
4.29441
 20
18.51436
 30
0.0
 10
4.38664
 20
17.54864
 30
0.0
 10
4.52941
 20
16.45861
 30
0.0
 10
5.23191
 20
15.73103
 30
0.0
 10
5.23191
 20
15.73103
 30
0.0
 10
5.60569
 20
15.34389
 30
0.0
 10
6.03038
 20
15.10731
 30
0.0
 10
6.49858
 20
14.86019
 30
0.0
 10
6.49858
 20
14.86019
 30
0.0
 10
6.64858
 20
14.78102
 30
0.0
 10
6.76524
 20
14.71436
 30
0.0
 10
6.64759
 20
14.65142
 30
0.0
 10
6.64759
 20
14.65142
 30
0.0
 10
6.52993
 20
14.58848
 30
0.0
 10
6.17795
 20
14.52927
 30
0.0
 10
5.78212
 20
14.51261
 30
0.0
 10
5.78212
 20
14.51261
 30
0.0
 10
4.70331
 20
14.46718
 30
0.0
 10
3.78098
 20
14.6971
 30
0.0
 10
3.24441
 20
15.69353
 30
0.0
 10
3.24441
 20
15.69353
 30
0.0
 10
3.21524
 20
15.74769
 30
0.0
 10
3.19858
 20
15.77269
 30
0.0
 10
3.18608
 20
15.72686
 30
0.0
 10
3.18608
 20
15.72686
 30
0.0
 10
3.17358
 20
15.68102
 30
0.0
 10
3.16524
 20
15.56436
 30
0.0
 10
3.20691
 20
15.37269
 30
0.0
 10
3.20691
 20
15.37269
 30
0.0
 10
3.24858
 20
15.18102
 30
0.0
 10
3.34024
 20
14.91436
 30
0.0
 10
3.48608
 20
14.61436
 30
0.0
 10
3.48608
 20
14.61436
 30
0.0
 10
4.23911
 20
13.06522
 30
0.0
 10
5.06219
 20
11.8276
 30
0.0
 10
3.52595
 20
10.33102
 30
0.0
 10
3.52595
 20
10.33102
 30
0.0
 10
3.29499
 20
10.10602
 30
0.0
 10
3.05807
 20
9.91436
 30
0.0
 10
2.82115
 20
9.72269
 30
0.0
 10
2.82115
 20
9.72269
 30
0.0
 10
2.82115
 20
9.72269
 30
0.0
 10
-6.84491
 20
9.72269
 30
0.0
 10
-6.84491
 20
9.72269
 30
0.0
 10
-6.84491
 20
9.72269
 30
0.0
 10
-7.59571
 20
9.94545
 30
0.0
 10
-8.4019
 20
10.14816
 30
0.0
 10
-8.97225
 20
10.71853
 30
0.0
 10
-8.97225
 20
10.71853
 30
0.0
 10
-9.38726
 20
11.13353
 30
0.0
 10
-9.72931
 20
11.69269
 30
0.0
 10
-9.8992
 20
12.25574
 30
0.0
 10
-9.8992
 20
12.25574
 30
0.0
 10
-9.96365
 20
12.46933
 30
0.0
 10
-10.00921
 20
12.67429
 30
0.0
 10
-10.03004
 20
12.81318
 30
0.0
 10
-10.03004
 20
12.81318
 30
0.0
 10
-10.05088
 20
12.95207
 30
0.0
 10
-10.04699
 20
13.02488
 30
0.0
 10
-10.09504
 20
13.01545
 30
0.0
 10
-10.09504
 20
13.01545
 30
0.0
 10
-10.14309
 20
13.00602
 30
0.0
 10
-10.24309
 20
12.91436
 30
0.0
 10
-10.31392
 20
12.77686
 30
0.0
 10
-10.31392
 20
12.77686
 30
0.0
 10
-10.46622
 20
12.48124
 30
0.0
 10
-10.46163
 20
12.08375
 30
0.0
 10
-10.37642
 20
11.76853
 30
0.0
 10
-10.37642
 20
11.76853
 30
0.0
 10
-10.29201
 20
11.45616
 30
0.0
 10
-10.15238
 20
11.31463
 30
0.0
 10
-10.55976
 20
11.43102
 30
0.0
 10
-10.55976
 20
11.43102
 30
0.0
 10
-11.61561
 20
11.73269
 30
0.0
 10
-12.60257
 20
12.40873
 30
0.0
 10
-13.44309
 20
13.09769
 30
0.0
 10
-13.44309
 20
13.09769
 30
0.0
 10
-13.95142
 20
13.51436
 30
0.0
 10
-14.60976
 20
14.10602
 30
0.0
 10
-15.20142
 20
14.56852
 30
0.0
 10
-15.20142
 20
14.56852
 30
0.0
 10
-16.55371
 20
15.62558
 30
0.0
 10
-18.25159
 20
16.40899
 30
0.0
 10
-19.97642
 20
15.86019
 30
0.0
 10
-19.97642
 20
15.86019
 30
0.0
 10
-21.05682
 20
15.51643
 30
0.0
 10
-22.11532
 20
14.71533
 30
0.0
 10
-22.27225
 20
13.52686
 30
0.0
 10
-22.27225
 20
13.52686
 30
0.0
 10
-22.30142
 20
13.30602
 30
0.0
 10
-22.28476
 20
13.16436
 30
0.0
 10
-22.27642
 20
13.07269
 30
0.0
 10
-22.27642
 20
13.07269
 30
0.0
 10
-22.26809
 20
12.98102
 30
0.0
 10
-22.26809
 20
12.93936
 30
0.0
 10
-22.32225
 20
12.94769
 30
0.0
 10
-22.32225
 20
12.94769
 30
0.0
 10
-23.11867
 20
13.07015
 30
0.0
 10
-23.81787
 20
14.47008
 30
0.0
 10
-23.88059
 20
15.22269
 30
0.0
 10
-23.88059
 20
15.22269
 30
0.0
 10
-23.89309
 20
15.37269
 30
0.0
 10
-23.89309
 20
15.44769
 30
0.0
 10
-23.92642
 20
15.37269
 30
0.0
 10
-23.92642
 20
15.37269
 30
0.0
 10
-23.95976
 20
15.29769
 30
0.0
 10
-24.02642
 20
15.07269
 30
0.0
 10
-24.13059
 20
14.85603
 30
0.0
 10
-24.13059
 20
14.85603
 30
0.0
 10
-24.41382
 20
14.26693
 30
0.0
 10
-24.98183
 20
13.92015
 30
0.0
 10
-25.52206
 20
13.59125
 30
0.0
 10
-25.52206
 20
13.59125
 30
0.0
 10
-25.7927
 20
13.42648
 30
0.0
 10
-25.96731
 20
13.33026
 30
0.0
 10
-26.10481
 20
13.22193
 30
0.0
 10
-26.10481
 20
13.22193
 30
0.0
 10
-26.35713
 20
13.02314
 30
0.0
 10
-26.4789
 20
12.79607
 30
0.0
 10
-26.55559
 20
12.48936
 30
0.0
 10
-26.55559
 20
12.48936
 30
0.0
 10
-26.59823
 20
12.31882
 30
0.0
 10
-26.60561
 20
12.10603
 30
0.0
 10
-26.78059
 20
12.33936
 30
0.0
 10
-26.78059
 20
12.33936
 30
0.0
 10
-26.94182
 20
12.55433
 30
0.0
 10
-27.06015
 20
12.83523
 30
0.0
 10
-27.13059
 20
13.09352
 30
0.0
 10
-27.13059
 20
13.09352
 30
0.0
 10
-27.16809
 20
13.23102
 30
0.0
 10
-27.19309
 20
13.36436
 30
0.0
 10
-27.20559
 20
13.43103
 30
0.0
 10
-27.20559
 20
13.43103
 30
0.0
 10
-27.21809
 20
13.49769
 30
0.0
 10
-27.21809
 20
13.49769
 30
0.0
 10
-27.22642
 20
13.44769
 30
0.0
 10
-27.22642
 20
13.44769
 30
0.0
 10
-27.23476
 20
13.39769
 30
0.0
 10
-27.25142
 20
13.29769
 30
0.0
 10
-27.29725
 20
13.13103
 30
0.0
 10
-27.29725
 20
13.13103
 30
0.0
 10
-27.50633
 20
12.37083
 30
0.0
 10
-28.14331
 20
11.45892
 30
0.0
 10
-28.85142
 20
11.08519
 30
0.0
 10
-28.85142
 20
11.08519
 30
0.0
 10
-29.025
 20
10.99357
 30
0.0
 10
-29.31792
 20
10.82964
 30
0.0
 10
-29.23475
 20
11.15186
 30
0.0
 10
-29.23475
 20
11.15186
 30
0.0
 10
-29.07158
 20
11.78414
 30
0.0
 10
-29.11821
 20
12.31844
 30
0.0
 10
-29.53892
 20
12.83936
 30
0.0
 10
-29.53892
 20
12.83936
 30
0.0
 10
-29.85794
 20
13.23432
 30
0.0
 10
-30.12357
 20
13.46041
 30
0.0
 10
-30.20559
 20
14.00186
 30
0.0
 10
-30.20559
 20
14.00186
 30
0.0
 10
-30.24787
 20
14.28092
 30
0.0
 10
-30.12822
 20
14.36501
 30
0.0
 10
-30.40559
 20
14.13519
 30
0.0
 10
-30.40559
 20
14.13519
 30
0.0
 10
-32.3248
 20
12.54501
 30
0.0
 10
-35.66318
 20
12.13189
 30
0.0
 10
-38.08475
 20
11.85602
 30
0.0
 10
-38.08475
 20
11.85602
 30
0.0
 10
-39.26259
 20
11.72183
 30
0.0
 10
-44.54386
 20
10.93355
 30
0.0
 10
-44.84996
 20
9.72269
 30
0.0
 10
-44.84996
 20
9.72269
 30
0.0
 10
-44.84996
 20
9.72269
 30
0.0
 10
-54.28483
 20
9.72269
 30
0.0
 10
-54.28483
 20
9.72269
 30
0.0
 10
-54.28483
 20
9.72269
 30
0.0
 10
-55.31295
 20
10.54213
 30
0.0
 10
-55.35439
 20
11.07719
 30
0.0
 10
-54.68059
 20
12.11852
 30
0.0
 10
-54.68059
 20
12.11852
 30
0.0
 10
-54.40018
 20
12.55188
 30
0.0
 10
-54.18463
 20
12.95156
 30
0.0
 10
-54.16809
 20
13.48103
 30
0.0
 10
-54.16809
 20
13.48103
 30
0.0
 10
-54.13662
 20
14.48841
 30
0.0
 10
-54.85985
 20
15.9545
 30
0.0
 10
-55.25975
 20
16.90602
 30
0.0
 10
-55.25975
 20
16.90602
 30
0.0
 10
-56.61547
 20
20.13162
 30
0.0
 10
-56.8776
 20
21.87782
 30
0.0
 10
-56.67642
 20
25.29769
 30
0.0
 10
-56.67642
 20
25.29769
 30
0.0
 10
-56.55209
 20
27.41138
 30
0.0
 10
-56.31193
 20
29.68338
 30
0.0
 10
-56.07858
 20
31.82267
 30
0.0
 10
-56.07858
 20
31.82267
 30
0.0
 10
-54.58342
 20
31.82267
 30
0.0
 10
-52.36485
 20
31.82267
 30
0.0
 10
-51.61727
 20
31.82267
 30
0.0
 10
-51.61727
 20
31.82267
 30
0.0
 10
-51.61727
 20
24.456
 30
0.0
 10
-51.61727
 20
24.45603
 30
0.0
 10
-51.61727
 20
20.7727
 30
0.0
 10
-51.61727
 20
20.7727
 30
0.0
 10
-51.61727
 20
20.7727
 30
0.0
 10
-50.61727
 20
20.7727
 30
0.0
 10
-50.61727
 20
20.7727
 30
0.0
 10
-50.61727
 20
20.7727
 30
0.0
 10
-50.61727
 20
24.45602
 30
0.0
 10
-50.61727
 20
28.13935
 30
0.0
 10
-50.61727
 20
31.82267
 30
0.0
 10
-50.61727
 20
31.82267
 30
0.0
 10
-48.64852
 20
31.82267
 30
0.0
 10
-46.67977
 20
31.82267
 30
0.0
 10
-44.71102
 20
31.82267
 30
0.0
 10
-44.71102
 20
31.82267
 30
0.0
 10
-44.71102
 20
31.82267
 30
0.0
 10
-44.71102
 20
32.82266
 30
0.0
 10
-44.71102
 20
32.82266
 30
0.0
 10
-44.71102
 20
32.82266
 30
0.0
 10
-44.71102
 20
32.82266
 30
0.0
 10
-38.80477
 20
32.82266
 30
0.0
 10
-38.80477
 20
32.82266
 30
0.0
 10
-38.80477
 20
32.82266
 30
0.0
 10
-38.80477
 20
32.82266
 30
0.0
 10
-38.80477
 20
31.82267
 30
0.0
 10
-38.80477
 20
31.82267
 30
0.0
 10
-38.80477
 20
31.82267
 30
0.0
 10
-30.92977
 20
31.82267
 30
0.0
 10
-23.05477
 20
31.82268
 30
0.0
 10
-15.17977
 20
31.82267
 30
0.0
 10
-15.17977
 20
31.82267
 30
0.0
 10
-15.17977
 20
31.82267
 30
0.0
 10
-15.17977
 20
32.82266
 30
0.0
 10
-15.17977
 20
32.82266
 30
0.0
 10
-15.17977
 20
32.82266
 30
0.0
 10
-15.17977
 20
32.82266
 30
0.0
 10
-9.27352
 20
32.82266
 30
0.0
 10
-9.27352
 20
32.82266
 30
0.0
 10
-9.27352
 20
32.82266
 30
0.0
 10
-9.27352
 20
32.82266
 30
0.0
 10
-9.27352
 20
31.82267
 30
0.0
 10
-9.27352
 20
31.82267
 30
0.0
  0
SPLINE
  5
7D
330
1F
100
AcDbEntity
  8
layer 1
 62
   250
370
     9
100
AcDbSpline
210
0.0
220
0.0
230
1.0
 70
    11
 71
     3
 72
   104
 73
   100
 74
     0
 42
0.000000001
 43
0.0000000001
 40
0.0
 40
0.0
 40
0.0
 40
0.0
 40
0.0384615384615385
 40
0.0384615384615385
 40
0.0384615384615385
 40
0.0384615384615385
 40
0.0769230769230769
 40
0.0769230769230769
 40
0.0769230769230769
 40
0.0769230769230769
 40
0.1153846153846154
 40
0.1153846153846154
 40
0.1153846153846154
 40
0.1153846153846154
 40
0.1538461538461539
 40
0.1538461538461539
 40
0.1538461538461539
 40
0.1538461538461539
 40
0.1923076923076923
 40
0.1923076923076923
 40
0.1923076923076923
 40
0.1923076923076923
 40
0.2307692307692308
 40
0.2307692307692308
 40
0.2307692307692308
 40
0.2307692307692308
 40
0.2692307692307692
 40
0.2692307692307692
 40
0.2692307692307692
 40
0.2692307692307692
 40
0.3076923076923077
 40
0.3076923076923077
 40
0.3076923076923077
 40
0.3076923076923077
 40
0.3461538461538461
 40
0.3461538461538461
 40
0.3461538461538461
 40
0.3461538461538461
 40
0.3846153846153846
 40
0.3846153846153846
 40
0.3846153846153846
 40
0.3846153846153846
 40
0.4230769230769231
 40
0.4230769230769231
 40
0.4230769230769231
 40
0.4230769230769231
 40
0.4615384615384616
 40
0.4615384615384616
 40
0.4615384615384616
 40
0.4615384615384616
 40
0.5
 40
0.5
 40
0.5
 40
0.5
 40
0.5384615384615384
 40
0.5384615384615384
 40
0.5384615384615384
 40
0.5384615384615384
 40
0.5769230769230769
 40
0.5769230769230769
 40
0.5769230769230769
 40
0.5769230769230769
 40
0.6153846153846154
 40
0.6153846153846154
 40
0.6153846153846154
 40
0.6153846153846154
 40
0.6538461538461539
 40
0.6538461538461539
 40
0.6538461538461539
 40
0.6538461538461539
 40
0.6923076923076923
 40
0.6923076923076923
 40
0.6923076923076923
 40
0.6923076923076923
 40
0.7307692307692307
 40
0.7307692307692307
 40
0.7307692307692307
 40
0.7307692307692307
 40
0.7692307692307693
 40
0.7692307692307693
 40
0.7692307692307693
 40
0.7692307692307693
 40
0.8076923076923077
 40
0.8076923076923077
 40
0.8076923076923077
 40
0.8076923076923077
 40
0.8461538461538461
 40
0.8461538461538461
 40
0.8461538461538461
 40
0.8461538461538461
 40
0.8846153846153846
 40
0.8846153846153846
 40
0.8846153846153846
 40
0.8846153846153846
 40
0.9230769230769231
 40
0.9230769230769231
 40
0.9230769230769231
 40
0.9230769230769231
 40
1.0
 40
1.0
 40
1.0
 40
1.0
 10
-15.17977
 20
32.82267
 30
0.0
 10
-15.17977
 20
32.82267
 30
0.0
 10
-15.17977
 20
31.82267
 30
0.0
 10
-15.17977
 20
31.82267
 30
0.0
 10
-15.17977
 20
31.82267
 30
0.0
 10
-15.17977
 20
31.82267
 30
0.0
 10
-21.08602
 20
31.82267
 30
0.0
 10
-21.08602
 20
31.82267
 30
0.0
 10
-21.08602
 20
31.82267
 30
0.0
 10
-21.08602
 20
31.82267
 30
0.0
 10
-21.08602
 20
32.82267
 30
0.0
 10
-21.08602
 20
32.82267
 30
0.0
 10
-21.08602
 20
32.82267
 30
0.0
 10
-25.02352
 20
32.82267
 30
0.0
 10
-28.96102
 20
32.82267
 30
0.0
 10
-32.89852
 20
32.82267
 30
0.0
 10
-32.89852
 20
32.82267
 30
0.0
 10
-32.89852
 20
32.82267
 30
0.0
 10
-32.89852
 20
31.82267
 30
0.0
 10
-32.89852
 20
31.82267
 30
0.0
 10
-32.89852
 20
31.82267
 30
0.0
 10
-32.89852
 20
31.82267
 30
0.0
 10
-38.80477
 20
31.82267
 30
0.0
 10
-38.80477
 20
31.82267
 30
0.0
 10
-38.80477
 20
31.82267
 30
0.0
 10
-38.80477
 20
31.82267
 30
0.0
 10
-38.80477
 20
32.82267
 30
0.0
 10
-38.80477
 20
32.82267
 30
0.0
 10
-38.80477
 20
32.82267
 30
0.0
 10
-42.74227
 20
32.82267
 30
0.0
 10
-46.67977
 20
32.82267
 30
0.0
 10
-50.61727
 20
32.82267
 30
0.0
 10
-50.61727
 20
32.82267
 30
0.0
 10
-50.61727
 20
33.93279
 30
0.0
 10
-50.61727
 20
34.2455
 30
0.0
 10
-50.61727
 20
36.46574
 30
0.0
 10
-50.61727
 20
36.46574
 30
0.0
 10
-50.9506
 20
36.46574
 30
0.0
 10
-51.4506
 20
36.46574
 30
0.0
 10
-51.61727
 20
36.46574
 30
0.0
 10
-51.61727
 20
36.46574
 30
0.0
 10
-51.61727
 20
34.2455
 30
0.0
 10
-51.61727
 20
33.93279
 30
0.0
 10
-51.61727
 20
32.82267
 30
0.0
 10
-51.61727
 20
32.82267
 30
0.0
 10
-53.07548
 20
32.82267
 30
0.0
 10
-55.23862
 20
32.82267
 30
0.0
 10
-55.96772
 20
32.82267
 30
0.0
 10
-55.96772
 20
32.82267
 30
0.0
 10
-55.89265
 20
33.4619
 30
0.0
 10
-55.80167
 20
34.11346
 30
0.0
 10
-55.67591
 20
34.73482
 30
0.0
 10
-55.67591
 20
34.73482
 30
0.0
 10
-55.17448
 20
37.21246
 30
0.0
 10
-53.58483
 20
39.82685
 30
0.0
 10
-51.02643
 20
40.54211
 30
0.0
 10
-51.02643
 20
40.54211
 30
0.0
 10
-49.53687
 20
40.95853
 30
0.0
 10
-46.7365
 20
41.02464
 30
0.0
 10
-45.17643
 20
40.94353
 30
0.0
 10
-45.17643
 20
40.94353
 30
0.0
 10
-41.6917
 20
40.76231
 30
0.0
 10
-39.31778
 20
39.51753
 30
0.0
 10
-36.13476
 20
38.89769
 30
0.0
 10
-36.13476
 20
38.89769
 30
0.0
 10
-30.03754
 20
37.71035
 30
0.0
 10
-23.70137
 20
37.67146
 30
0.0
 10
-17.5931
 20
38.76019
 30
0.0
 10
-17.5931
 20
38.76019
 30
0.0
 10
-12.7752
 20
39.61894
 30
0.0
 10
-6.1906
 20
41.62585
 30
0.0
 10
-1.3868
 20
40.17526
 30
0.0
 10
-1.3868
 20
40.17526
 30
0.0
 10
1.4337
 20
39.32354
 30
0.0
 10
2.20647
 20
38.09515
 30
0.0
 10
3.08584
 20
35.48424
 30
0.0
 10
3.08584
 20
35.48424
 30
0.0
 10
3.37087
 20
34.63791
 30
0.0
 10
3.59331
 20
33.70127
 30
0.0
 10
3.74984
 20
32.82267
 30
0.0
 10
3.74984
 20
32.82267
 30
0.0
 10
1.71886
 20
32.82267
 30
0.0
 10
-1.35178
 20
32.82267
 30
0.0
 10
-2.36727
 20
32.82267
 30
0.0
 10
-2.36727
 20
32.82267
 30
0.0
 10
-2.36727
 20
35.25138
 30
0.0
 10
-2.36727
 20
34.93869
 30
0.0
 10
-2.36727
 20
36.15304
 30
0.0
 10
-2.36727
 20
36.15304
 30
0.0
 10
-2.7006
 20
36.15304
 30
0.0
 10
-3.2006
 20
36.15304
 30
0.0
 10
-3.36727
 20
36.15304
 30
0.0
 10
-3.36727
 20
36.15304
 30
0.0
 10
-3.36727
 20
34.93869
 30
0.0
 10
-3.36727
 20
35.25138
 30
0.0
 10
-3.36727
 20
32.82267
 30
0.0
 10
-3.36727
 20
32.82267
 30
0.0
 10
-7.30477
 20
32.82267
 30
0.0
 10
-11.24227
 20
32.82267
 30
0.0
 10
-15.17977
 20
32.82267
 30
0.0
  0
SPLINE
  5
7E
330
1F
100
AcDbEntity
  8
layer 1
 62
   250
370
     9
100
AcDbSpline
210
0.0
220
0.0
230
1.0
 70
    11
 71
     3
 72
   276
 73
   272
 74
     0
 42
0.000000001
 43
0.0000000001
 40
0.0
 40
0.0
 40
0.0
 40
0.0
 40
0.0144927536231884
 40
0.0144927536231884
 40
0.0144927536231884
 40
0.0144927536231884
 40
0.0289855072463768
 40
0.0289855072463768
 40
0.0289855072463768
 40
0.0289855072463768
 40
0.0434782608695652
 40
0.0434782608695652
 40
0.0434782608695652
 40
0.0434782608695652
 40
0.0579710144927536
 40
0.0579710144927536
 40
0.0579710144927536
 40
0.0579710144927536
 40
0.072463768115942
 40
0.072463768115942
 40
0.072463768115942
 40
0.072463768115942
 40
0.0869565217391304
 40
0.0869565217391304
 40
0.0869565217391304
 40
0.0869565217391304
 40
0.1014492753623188
 40
0.1014492753623188
 40
0.1014492753623188
 40
0.1014492753623188
 40
0.1159420289855072
 40
0.1159420289855072
 40
0.1159420289855072
 40
0.1159420289855072
 40
0.1304347826086956
 40
0.1304347826086956
 40
0.1304347826086956
 40
0.1304347826086956
 40
0.1449275362318841
 40
0.1449275362318841
 40
0.1449275362318841
 40
0.1449275362318841
 40
0.1594202898550725
 40
0.1594202898550725
 40
0.1594202898550725
 40
0.1594202898550725
 40
0.1739130434782609
 40
0.1739130434782609
 40
0.1739130434782609
 40
0.1739130434782609
 40
0.1884057971014493
 40
0.1884057971014493
 40
0.1884057971014493
 40
0.1884057971014493
 40
0.2028985507246377
 40
0.2028985507246377
 40
0.2028985507246377
 40
0.2028985507246377
 40
0.2173913043478261
 40
0.2173913043478261
 40
0.2173913043478261
 40
0.2173913043478261
 40
0.2318840579710145
 40
0.2318840579710145
 40
0.2318840579710145
 40
0.2318840579710145
 40
0.2463768115942029
 40
0.2463768115942029
 40
0.2463768115942029
 40
0.2463768115942029
 40
0.2608695652173913
 40
0.2608695652173913
 40
0.2608695652173913
 40
0.2608695652173913
 40
0.2753623188405797
 40
0.2753623188405797
 40
0.2753623188405797
 40
0.2753623188405797
 40
0.2898550724637681
 40
0.2898550724637681
 40
0.2898550724637681
 40
0.2898550724637681
 40
0.3043478260869565
 40
0.3043478260869565
 40
0.3043478260869565
 40
0.3043478260869565
 40
0.3188405797101449
 40
0.3188405797101449
 40
0.3188405797101449
 40
0.3188405797101449
 40
0.3333333333333333
 40
0.3333333333333333
 40
0.3333333333333333
 40
0.3333333333333333
 40
0.3478260869565217
 40
0.3478260869565217
 40
0.3478260869565217
 40
0.3478260869565217
 40
0.3623188405797101
 40
0.3623188405797101
 40
0.3623188405797101
 40
0.3623188405797101
 40
0.3768115942028986
 40
0.3768115942028986
 40
0.3768115942028986
 40
0.3768115942028986
 40
0.391304347826087
 40
0.391304347826087
 40
0.391304347826087
 40
0.391304347826087
 40
0.4057971014492754
 40
0.4057971014492754
 40
0.4057971014492754
 40
0.4057971014492754
 40
0.4202898550724637
 40
0.4202898550724637
 40
0.4202898550724637
 40
0.4202898550724637
 40
0.4347826086956522
 40
0.4347826086956522
 40
0.4347826086956522
 40
0.4347826086956522
 40
0.4492753623188406
 40
0.4492753623188406
 40
0.4492753623188406
 40
0.4492753623188406
 40
0.463768115942029
 40
0.463768115942029
 40
0.463768115942029
 40
0.463768115942029
 40
0.4782608695652174
 40
0.4782608695652174
 40
0.4782608695652174
 40
0.4782608695652174
 40
0.4927536231884058
 40
0.4927536231884058
 40
0.4927536231884058
 40
0.4927536231884058
 40
0.5072463768115942
 40
0.5072463768115942
 40
0.5072463768115942
 40
0.5072463768115942
 40
0.5217391304347826
 40
0.5217391304347826
 40
0.5217391304347826
 40
0.5217391304347826
 40
0.5362318840579711
 40
0.5362318840579711
 40
0.5362318840579711
 40
0.5362318840579711
 40
0.5507246376811594
 40
0.5507246376811594
 40
0.5507246376811594
 40
0.5507246376811594
 40
0.5652173913043478
 40
0.5652173913043478
 40
0.5652173913043478
 40
0.5652173913043478
 40
0.5797101449275363
 40
0.5797101449275363
 40
0.5797101449275363
 40
0.5797101449275363
 40
0.5942028985507246
 40
0.5942028985507246
 40
0.5942028985507246
 40
0.5942028985507246
 40
0.6086956521739131
 40
0.6086956521739131
 40
0.6086956521739131
 40
0.6086956521739131
 40
0.6231884057971014
 40
0.6231884057971014
 40
0.6231884057971014
 40
0.6231884057971014
 40
0.6376811594202898
 40
0.6376811594202898
 40
0.6376811594202898
 40
0.6376811594202898
 40
0.6521739130434783
 40
0.6521739130434783
 40
0.6521739130434783
 40
0.6521739130434783
 40
0.6666666666666666
 40
0.6666666666666666
 40
0.6666666666666666
 40
0.6666666666666666
 40
0.6811594202898551
 40
0.6811594202898551
 40
0.6811594202898551
 40
0.6811594202898551
 40
0.6956521739130435
 40
0.6956521739130435
 40
0.6956521739130435
 40
0.6956521739130435
 40
0.7101449275362319
 40
0.7101449275362319
 40
0.7101449275362319
 40
0.7101449275362319
 40
0.7246376811594203
 40
0.7246376811594203
 40
0.7246376811594203
 40
0.7246376811594203
 40
0.7391304347826086
 40
0.7391304347826086
 40
0.7391304347826086
 40
0.7391304347826086
 40
0.7536231884057971
 40
0.7536231884057971
 40
0.7536231884057971
 40
0.7536231884057971
 40
0.7681159420289855
 40
0.7681159420289855
 40
0.7681159420289855
 40
0.7681159420289855
 40
0.782608695652174
 40
0.782608695652174
 40
0.782608695652174
 40
0.782608695652174
 40
0.7971014492753623
 40
0.7971014492753623
 40
0.7971014492753623
 40
0.7971014492753623
 40
0.8115942028985508
 40
0.8115942028985508
 40
0.8115942028985508
 40
0.8115942028985508
 40
0.8260869565217391
 40
0.8260869565217391
 40
0.8260869565217391
 40
0.8260869565217391
 40
0.8405797101449275
 40
0.8405797101449275
 40
0.8405797101449275
 40
0.8405797101449275
 40
0.855072463768116
 40
0.855072463768116
 40
0.855072463768116
 40
0.855072463768116
 40
0.8695652173913043
 40
0.8695652173913043
 40
0.8695652173913043
 40
0.8695652173913043
 40
0.8840579710144928
 40
0.8840579710144928
 40
0.8840579710144928
 40
0.8840579710144928
 40
0.8985507246376812
 40
0.8985507246376812
 40
0.8985507246376812
 40
0.8985507246376812
 40
0.9130434782608695
 40
0.9130434782608695
 40
0.9130434782608695
 40
0.9130434782608695
 40
0.927536231884058
 40
0.927536231884058
 40
0.927536231884058
 40
0.927536231884058
 40
0.9420289855072463
 40
0.9420289855072463
 40
0.9420289855072463
 40
0.9420289855072463
 40
0.9565217391304348
 40
0.9565217391304348
 40
0.9565217391304348
 40
0.9565217391304348
 40
0.9710144927536232
 40
0.9710144927536232
 40
0.9710144927536232
 40
0.9710144927536232
 40
1.0
 40
1.0
 40
1.0
 40
1.0
 10
57.0487
 20
31.82267
 30
0.0
 10
59.01745
 20
31.82268
 30
0.0
 10
60.9862
 20
31.82268
 30
0.0
 10
62.95495
 20
31.82268
 30
0.0
 10
62.95495
 20
31.82268
 30
0.0
 10
62.95495
 20
28.13935
 30
0.0
 10
62.95495
 20
28.13936
 30
0.0
 10
62.95495
 20
20.7727
 30
0.0
 10
62.95495
 20
20.7727
 30
0.0
 10
62.95495
 20
20.7727
 30
0.0
 10
63.95495
 20
20.7727
 30
0.0
 10
63.95495
 20
20.7727
 30
0.0
 10
63.95495
 20
20.7727
 30
0.0
 10
63.95495
 20
28.13936
 30
0.0
 10
63.95495
 20
28.13934
 30
0.0
 10
63.95495
 20
31.82267
 30
0.0
 10
63.95495
 20
31.82267
 30
0.0
 10
66.03942
 20
31.82267
 30
0.0
 10
69.19029
 20
31.82267
 30
0.0
 10
70.23253
 20
31.82267
 30
0.0
 10
70.23253
 20
31.82267
 30
0.0
 10
70.31945
 20
31.21969
 30
0.0
 10
70.38946
 20
30.61726
 30
0.0
 10
70.44971
 20
30.00388
 30
0.0
 10
70.44971
 20
30.00388
 30
0.0
 10
70.64839
 20
27.97819
 30
0.0
 10
70.71022
 20
26.09838
 30
0.0
 10
70.6333
 20
24.06436
 30
0.0
 10
70.6333
 20
24.06436
 30
0.0
 10
70.56297
 20
22.20446
 30
0.0
 10
70.43895
 20
20.37483
 30
0.0
 10
70.61663
 20
18.51436
 30
0.0
 10
70.61663
 20
18.51436
 30
0.0
 10
70.70886
 20
17.54864
 30
0.0
 10
70.85163
 20
16.45861
 30
0.0
 10
71.55413
 20
15.73103
 30
0.0
 10
71.55413
 20
15.73103
 30
0.0
 10
71.92791
 20
15.34389
 30
0.0
 10
72.3526
 20
15.10731
 30
0.0
 10
72.8208
 20
14.86019
 30
0.0
 10
72.8208
 20
14.86019
 30
0.0
 10
72.9708
 20
14.78102
 30
0.0
 10
73.08746
 20
14.71436
 30
0.0
 10
72.96981
 20
14.65142
 30
0.0
 10
72.96981
 20
14.65142
 30
0.0
 10
72.85215
 20
14.58848
 30
0.0
 10
72.50017
 20
14.52927
 30
0.0
 10
72.10434
 20
14.51261
 30
0.0
 10
72.10434
 20
14.51261
 30
0.0
 10
71.02553
 20
14.46718
 30
0.0
 10
70.1032
 20
14.6971
 30
0.0
 10
69.56663
 20
15.69353
 30
0.0
 10
69.56663
 20
15.69353
 30
0.0
 10
69.53746
 20
15.74769
 30
0.0
 10
69.5208
 20
15.77269
 30
0.0
 10
69.5083
 20
15.72686
 30
0.0
 10
69.5083
 20
15.72686
 30
0.0
 10
69.4958
 20
15.68102
 30
0.0
 10
69.48746
 20
15.56436
 30
0.0
 10
69.52913
 20
15.37269
 30
0.0
 10
69.52913
 20
15.37269
 30
0.0
 10
69.5708
 20
15.18102
 30
0.0
 10
69.66246
 20
14.91436
 30
0.0
 10
69.8083
 20
14.61436
 30
0.0
 10
69.8083
 20
14.61436
 30
0.0
 10
70.56133
 20
13.06522
 30
0.0
 10
71.38441
 20
11.8276
 30
0.0
 10
69.84817
 20
10.33102
 30
0.0
 10
69.84817
 20
10.33102
 30
0.0
 10
69.61721
 20
10.10602
 30
0.0
 10
69.38029
 20
9.91436
 30
0.0
 10
69.14337
 20
9.72269
 30
0.0
 10
69.14337
 20
9.72269
 30
0.0
 10
69.14337
 20
9.72269
 30
0.0
 10
59.47731
 20
9.72269
 30
0.0
 10
59.47731
 20
9.72269
 30
0.0
 10
59.47731
 20
9.72269
 30
0.0
 10
58.72651
 20
9.94545
 30
0.0
 10
57.92032
 20
10.14816
 30
0.0
 10
57.34997
 20
10.71853
 30
0.0
 10
57.34997
 20
10.71853
 30
0.0
 10
56.93496
 20
11.13353
 30
0.0
 10
56.59291
 20
11.69269
 30
0.0
 10
56.42302
 20
12.25574
 30
0.0
 10
56.42302
 20
12.25574
 30
0.0
 10
56.35857
 20
12.46933
 30
0.0
 10
56.31301
 20
12.67429
 30
0.0
 10
56.29218
 20
12.81318
 30
0.0
 10
56.29218
 20
12.81318
 30
0.0
 10
56.27134
 20
12.95207
 30
0.0
 10
56.27523
 20
13.02488
 30
0.0
 10
56.22718
 20
13.01545
 30
0.0
 10
56.22718
 20
13.01545
 30
0.0
 10
56.17913
 20
13.00602
 30
0.0
 10
56.07913
 20
12.91436
 30
0.0
 10
56.0083
 20
12.77686
 30
0.0
 10
56.0083
 20
12.77686
 30
0.0
 10
55.856
 20
12.48124
 30
0.0
 10
55.86059
 20
12.08375
 30
0.0
 10
55.9458
 20
11.76853
 30
0.0
 10
55.9458
 20
11.76853
 30
0.0
 10
56.03021
 20
11.45616
 30
0.0
 10
56.16984
 20
11.31463
 30
0.0
 10
55.76246
 20
11.43102
 30
0.0
 10
55.76246
 20
11.43102
 30
0.0
 10
54.70661
 20
11.73269
 30
0.0
 10
53.71965
 20
12.40873
 30
0.0
 10
52.87913
 20
13.09769
 30
0.0
 10
52.87913
 20
13.09769
 30
0.0
 10
52.3708
 20
13.51436
 30
0.0
 10
51.71246
 20
14.10602
 30
0.0
 10
51.1208
 20
14.56852
 30
0.0
 10
51.1208
 20
14.56852
 30
0.0
 10
49.76851
 20
15.62558
 30
0.0
 10
48.07063
 20
16.40899
 30
0.0
 10
46.3458
 20
15.86019
 30
0.0
 10
46.3458
 20
15.86019
 30
0.0
 10
45.2654
 20
15.51643
 30
0.0
 10
44.2069
 20
14.71533
 30
0.0
 10
44.04997
 20
13.52686
 30
0.0
 10
44.04997
 20
13.52686
 30
0.0
 10
44.0208
 20
13.30602
 30
0.0
 10
44.03746
 20
13.16436
 30
0.0
 10
44.0458
 20
13.07269
 30
0.0
 10
44.0458
 20
13.07269
 30
0.0
 10
44.05413
 20
12.98102
 30
0.0
 10
44.05413
 20
12.93936
 30
0.0
 10
43.99997
 20
12.94769
 30
0.0
 10
43.99997
 20
12.94769
 30
0.0
 10
43.20355
 20
13.07015
 30
0.0
 10
42.50435
 20
14.47008
 30
0.0
 10
42.44163
 20
15.22269
 30
0.0
 10
42.44163
 20
15.22269
 30
0.0
 10
42.42913
 20
15.37269
 30
0.0
 10
42.42913
 20
15.44769
 30
0.0
 10
42.3958
 20
15.37269
 30
0.0
 10
42.3958
 20
15.37269
 30
0.0
 10
42.36246
 20
15.29769
 30
0.0
 10
42.2958
 20
15.07269
 30
0.0
 10
42.19163
 20
14.85603
 30
0.0
 10
42.19163
 20
14.85603
 30
0.0
 10
41.9084
 20
14.26693
 30
0.0
 10
41.34039
 20
13.92015
 30
0.0
 10
40.80016
 20
13.59125
 30
0.0
 10
40.80016
 20
13.59125
 30
0.0
 10
40.52952
 20
13.42648
 30
0.0
 10
40.35491
 20
13.33026
 30
0.0
 10
40.21741
 20
13.22193
 30
0.0
 10
40.21741
 20
13.22193
 30
0.0
 10
39.96509
 20
13.02314
 30
0.0
 10
39.84332
 20
12.79607
 30
0.0
 10
39.76663
 20
12.48936
 30
0.0
 10
39.76663
 20
12.48936
 30
0.0
 10
39.72399
 20
12.31882
 30
0.0
 10
39.71661
 20
12.10603
 30
0.0
 10
39.54163
 20
12.33936
 30
0.0
 10
39.54163
 20
12.33936
 30
0.0
 10
39.3804
 20
12.55433
 30
0.0
 10
39.26207
 20
12.83523
 30
0.0
 10
39.19163
 20
13.09352
 30
0.0
 10
39.19163
 20
13.09352
 30
0.0
 10
39.15413
 20
13.23102
 30
0.0
 10
39.12913
 20
13.36436
 30
0.0
 10
39.11663
 20
13.43103
 30
0.0
 10
39.11663
 20
13.43103
 30
0.0
 10
39.10413
 20
13.49769
 30
0.0
 10
39.10413
 20
13.49769
 30
0.0
 10
39.0958
 20
13.44769
 30
0.0
 10
39.0958
 20
13.44769
 30
0.0
 10
39.08746
 20
13.39769
 30
0.0
 10
39.0708
 20
13.29769
 30
0.0
 10
39.02497
 20
13.13103
 30
0.0
 10
39.02497
 20
13.13103
 30
0.0
 10
38.81589
 20
12.37083
 30
0.0
 10
38.17891
 20
11.45892
 30
0.0
 10
37.4708
 20
11.08519
 30
0.0
 10
37.4708
 20
11.08519
 30
0.0
 10
37.29722
 20
10.99357
 30
0.0
 10
37.0043
 20
10.82964
 30
0.0
 10
37.08747
 20
11.15186
 30
0.0
 10
37.08747
 20
11.15186
 30
0.0
 10
37.25064
 20
11.78414
 30
0.0
 10
37.20401
 20
12.31844
 30
0.0
 10
36.7833
 20
12.83936
 30
0.0
 10
36.7833
 20
12.83936
 30
0.0
 10
36.46428
 20
13.23432
 30
0.0
 10
36.19865
 20
13.46041
 30
0.0
 10
36.11663
 20
14.00186
 30
0.0
 10
36.11663
 20
14.00186
 30
0.0
 10
36.07435
 20
14.28092
 30
0.0
 10
36.194
 20
14.36501
 30
0.0
 10
35.91663
 20
14.13519
 30
0.0
 10
35.91663
 20
14.13519
 30
0.0
 10
33.99742
 20
12.54501
 30
0.0
 10
30.65904
 20
12.13189
 30
0.0
 10
28.23747
 20
11.85602
 30
0.0
 10
28.23747
 20
11.85602
 30
0.0
 10
27.05963
 20
11.72183
 30
0.0
 10
21.77836
 20
10.93355
 30
0.0
 10
21.47226
 20
9.72269
 30
0.0
 10
21.47226
 20
9.72269
 30
0.0
 10
21.47226
 20
9.72269
 30
0.0
 10
12.03739
 20
9.72269
 30
0.0
 10
12.03739
 20
9.72269
 30
0.0
 10
12.03739
 20
9.72269
 30
0.0
 10
11.00927
 20
10.54213
 30
0.0
 10
10.96783
 20
11.07719
 30
0.0
 10
11.64163
 20
12.11852
 30
0.0
 10
11.64163
 20
12.11852
 30
0.0
 10
11.92204
 20
12.55188
 30
0.0
 10
12.13759
 20
12.95156
 30
0.0
 10
12.15413
 20
13.48103
 30
0.0
 10
12.15413
 20
13.48103
 30
0.0
 10
12.1856
 20
14.48841
 30
0.0
 10
11.46237
 20
15.9545
 30
0.0
 10
11.06247
 20
16.90602
 30
0.0
 10
11.06247
 20
16.90602
 30
0.0
 10
9.70675
 20
20.13162
 30
0.0
 10
9.44462
 20
21.87782
 30
0.0
 10
9.6458
 20
25.29769
 30
0.0
 10
9.6458
 20
25.29769
 30
0.0
 10
9.77013
 20
27.41138
 30
0.0
 10
10.01029
 20
29.68338
 30
0.0
 10
10.24364
 20
31.82267
 30
0.0
 10
10.24364
 20
31.82267
 30
0.0
 10
11.7388
 20
31.82267
 30
0.0
 10
13.95737
 20
31.82267
 30
0.0
 10
14.70495
 20
31.82267
 30
0.0
 10
14.70495
 20
31.82267
 30
0.0
 10
14.70495
 20
24.456
 30
0.0
 10
14.70495
 20
24.45603
 30
0.0
 10
14.70495
 20
20.7727
 30
0.0
 10
14.70495
 20
20.7727
 30
0.0
 10
14.70495
 20
20.7727
 30
0.0
 10
15.70495
 20
20.7727
 30
0.0
 10
15.70495
 20
20.7727
 30
0.0
 10
15.70495
 20
20.7727
 30
0.0
 10
15.70495
 20
24.45602
 30
0.0
 10
15.70495
 20
28.13935
 30
0.0
 10
15.70495
 20
31.82267
 30
0.0
 10
15.70495
 20
31.82267
 30
0.0
 10
17.6737
 20
31.82267
 30
0.0
 10
19.64245
 20
31.82267
 30
0.0
 10
21.6112
 20
31.82267
 30
0.0
 10
21.6112
 20
31.82267
 30
0.0
 10
21.6112
 20
31.82267
 30
0.0
 10
21.6112
 20
32.82266
 30
0.0
 10
21.6112
 20
32.82266
 30
0.0
 10
21.6112
 20
32.82266
 30
0.0
 10
21.6112
 20
32.82266
 30
0.0
 10
27.51745
 20
32.82266
 30
0.0
 10
27.51745
 20
32.82266
 30
0.0
 10
27.51745
 20
32.82266
 30
0.0
 10
27.51745
 20
32.82266
 30
0.0
 10
27.51745
 20
31.82267
 30
0.0
 10
27.51745
 20
31.82267
 30
0.0
 10
27.51745
 20
31.82267
 30
0.0
 10
35.39245
 20
31.82267
 30
0.0
 10
43.26745
 20
31.82268
 30
0.0
 10
51.14245
 20
31.82267
 30
0.0
 10
51.14245
 20
31.82267
 30
0.0
 10
51.14245
 20
31.82267
 30
0.0
 10
51.14245
 20
32.82266
 30
0.0
 10
51.14245
 20
32.82266
 30
0.0
 10
51.14245
 20
32.82266
 30
0.0
 10
51.14245
 20
32.82266
 30
0.0
 10
57.0487
 20
32.82266
 30
0.0
 10
57.0487
 20
32.82266
 30
0.0
 10
57.0487
 20
32.82266
 30
0.0
 10
57.0487
 20
32.82266
 30
0.0
 10
57.0487
 20
31.82267
 30
0.0
 10
57.0487
 20
31.82267
 30
0.0
  0
SPLINE
  5
7F
330
1F
100
AcDbEntity
  8
layer 1
 62
   250
370
     9
100
AcDbSpline
210
0.0
220
0.0
230
1.0
 70
    11
 71
     3
 72
   104
 73
   100
 74
     0
 42
0.000000001
 43
0.0000000001
 40
0.0
 40
0.0
 40
0.0
 40
0.0
 40
0.0384615384615385
 40
0.0384615384615385
 40
0.0384615384615385
 40
0.0384615384615385
 40
0.0769230769230769
 40
0.0769230769230769
 40
0.0769230769230769
 40
0.0769230769230769
 40
0.1153846153846154
 40
0.1153846153846154
 40
0.1153846153846154
 40
0.1153846153846154
 40
0.1538461538461539
 40
0.1538461538461539
 40
0.1538461538461539
 40
0.1538461538461539
 40
0.1923076923076923
 40
0.1923076923076923
 40
0.1923076923076923
 40
0.1923076923076923
 40
0.2307692307692308
 40
0.2307692307692308
 40
0.2307692307692308
 40
0.2307692307692308
 40
0.2692307692307692
 40
0.2692307692307692
 40
0.2692307692307692
 40
0.2692307692307692
 40
0.3076923076923077
 40
0.3076923076923077
 40
0.3076923076923077
 40
0.3076923076923077
 40
0.3461538461538461
 40
0.3461538461538461
 40
0.3461538461538461
 40
0.3461538461538461
 40
0.3846153846153846
 40
0.3846153846153846
 40
0.3846153846153846
 40
0.3846153846153846
 40
0.4230769230769231
 40
0.4230769230769231
 40
0.4230769230769231
 40
0.4230769230769231
 40
0.4615384615384616
 40
0.4615384615384616
 40
0.4615384615384616
 40
0.4615384615384616
 40
0.5
 40
0.5
 40
0.5
 40
0.5
 40
0.5384615384615384
 40
0.5384615384615384
 40
0.5384615384615384
 40
0.5384615384615384
 40
0.5769230769230769
 40
0.5769230769230769
 40
0.5769230769230769
 40
0.5769230769230769
 40
0.6153846153846154
 40
0.6153846153846154
 40
0.6153846153846154
 40
0.6153846153846154
 40
0.6538461538461539
 40
0.6538461538461539
 40
0.6538461538461539
 40
0.6538461538461539
 40
0.6923076923076923
 40
0.6923076923076923
 40
0.6923076923076923
 40
0.6923076923076923
 40
0.7307692307692307
 40
0.7307692307692307
 40
0.7307692307692307
 40
0.7307692307692307
 40
0.7692307692307693
 40
0.7692307692307693
 40
0.7692307692307693
 40
0.7692307692307693
 40
0.8076923076923077
 40
0.8076923076923077
 40
0.8076923076923077
 40
0.8076923076923077
 40
0.8461538461538461
 40
0.8461538461538461
 40
0.8461538461538461
 40
0.8461538461538461
 40
0.8846153846153846
 40
0.8846153846153846
 40
0.8846153846153846
 40
0.8846153846153846
 40
0.9230769230769231
 40
0.9230769230769231
 40
0.9230769230769231
 40
0.9230769230769231
 40
1.0
 40
1.0
 40
1.0
 40
1.0
 10
51.14245
 20
32.82267
 30
0.0
 10
51.14245
 20
32.82267
 30
0.0
 10
51.14245
 20
31.82267
 30
0.0
 10
51.14245
 20
31.82267
 30
0.0
 10
51.14245
 20
31.82267
 30
0.0
 10
51.14245
 20
31.82267
 30
0.0
 10
45.2362
 20
31.82267
 30
0.0
 10
45.2362
 20
31.82267
 30
0.0
 10
45.2362
 20
31.82267
 30
0.0
 10
45.2362
 20
31.82267
 30
0.0
 10
45.2362
 20
32.82267
 30
0.0
 10
45.2362
 20
32.82267
 30
0.0
 10
45.2362
 20
32.82267
 30
0.0
 10
41.2987
 20
32.82267
 30
0.0
 10
37.3612
 20
32.82267
 30
0.0
 10
33.4237
 20
32.82267
 30
0.0
 10
33.4237
 20
32.82267
 30
0.0
 10
33.4237
 20
32.82267
 30
0.0
 10
33.4237
 20
31.82267
 30
0.0
 10
33.4237
 20
31.82267
 30
0.0
 10
33.4237
 20
31.82267
 30
0.0
 10
33.4237
 20
31.82267
 30
0.0
 10
27.51745
 20
31.82267
 30
0.0
 10
27.51745
 20
31.82267
 30
0.0
 10
27.51745
 20
31.82267
 30
0.0
 10
27.51745
 20
31.82267
 30
0.0
 10
27.51745
 20
32.82267
 30
0.0
 10
27.51745
 20
32.82267
 30
0.0
 10
27.51745
 20
32.82267
 30
0.0
 10
23.57995
 20
32.82267
 30
0.0
 10
19.64245
 20
32.82267
 30
0.0
 10
15.70495
 20
32.82267
 30
0.0
 10
15.70495
 20
32.82267
 30
0.0
 10
15.70495
 20
33.93279
 30
0.0
 10
15.70495
 20
34.2455
 30
0.0
 10
15.70495
 20
36.46574
 30
0.0
 10
15.70495
 20
36.46574
 30
0.0
 10
15.37162
 20
36.46574
 30
0.0
 10
14.87162
 20
36.46574
 30
0.0
 10
14.70495
 20
36.46574
 30
0.0
 10
14.70495
 20
36.46574
 30
0.0
 10
14.70495
 20
34.2455
 30
0.0
 10
14.70495
 20
33.93279
 30
0.0
 10
14.70495
 20
32.82267
 30
0.0
 10
14.70495
 20
32.82267
 30
0.0
 10
13.24674
 20
32.82267
 30
0.0
 10
11.0836
 20
32.82267
 30
0.0
 10
10.3545
 20
32.82267
 30
0.0
 10
10.3545
 20
32.82267
 30
0.0
 10
10.42957
 20
33.4619
 30
0.0
 10
10.52055
 20
34.11346
 30
0.0
 10
10.64631
 20
34.73482
 30
0.0
 10
10.64631
 20
34.73482
 30
0.0
 10
11.14774
 20
37.21246
 30
0.0
 10
12.73739
 20
39.82685
 30
0.0
 10
15.29579
 20
40.54211
 30
0.0
 10
15.29579
 20
40.54211
 30
0.0
 10
16.78535
 20
40.95853
 30
0.0
 10
19.58572
 20
41.02464
 30
0.0
 10
21.14579
 20
40.94353
 30
0.0
 10
21.14579
 20
40.94353
 30
0.0
 10
24.63052
 20
40.76231
 30
0.0
 10
27.00444
 20
39.51753
 30
0.0
 10
30.18746
 20
38.89769
 30
0.0
 10
30.18746
 20
38.89769
 30
0.0
 10
36.28468
 20
37.71035
 30
0.0
 10
42.62085
 20
37.67146
 30
0.0
 10
48.72912
 20
38.76019
 30
0.0
 10
48.72912
 20
38.76019
 30
0.0
 10
53.54702
 20
39.61894
 30
0.0
 10
60.13162
 20
41.62585
 30
0.0
 10
64.93542
 20
40.17526
 30
0.0
 10
64.93542
 20
40.17526
 30
0.0
 10
67.75592
 20
39.32354
 30
0.0
 10
68.52869
 20
38.09515
 30
0.0
 10
69.40806
 20
35.48424
 30
0.0
 10
69.40806
 20
35.48424
 30
0.0
 10
69.69309
 20
34.63791
 30
0.0
 10
69.91553
 20
33.70127
 30
0.0
 10
70.07206
 20
32.82267
 30
0.0
 10
70.07206
 20
32.82267
 30
0.0
 10
68.04108
 20
32.82267
 30
0.0
 10
64.97044
 20
32.82267
 30
0.0
 10
63.95495
 20
32.82267
 30
0.0
 10
63.95495
 20
32.82267
 30
0.0
 10
63.95495
 20
35.25138
 30
0.0
 10
63.95495
 20
34.93869
 30
0.0
 10
63.95495
 20
36.15304
 30
0.0
 10
63.95495
 20
36.15304
 30
0.0
 10
63.62162
 20
36.15304
 30
0.0
 10
63.12162
 20
36.15304
 30
0.0
 10
62.95495
 20
36.15304
 30
0.0
 10
62.95495
 20
36.15304
 30
0.0
 10
62.95495
 20
34.93869
 30
0.0
 10
62.95495
 20
35.25138
 30
0.0
 10
62.95495
 20
32.82267
 30
0.0
 10
62.95495
 20
32.82267
 30
0.0
 10
59.01745
 20
32.82267
 30
0.0
 10
55.07995
 20
32.82267
 30
0.0
 10
51.14245
 20
32.82267
 30
0.0
  0
SPLINE
  5
80
330
1F
100
AcDbEntity
  8
layer 1
 62
   250
370
     9
100
AcDbSpline
210
0.0
220
0.0
230
1.0
 70
    11
 71
     3
 72
   164
 73
   160
 74
     0
 42
0.000000001
 43
0.0000000001
 40
0.0
 40
0.0
 40
0.0
 40
0.0
 40
0.024390243902439
 40
0.024390243902439
 40
0.024390243902439
 40
0.024390243902439
 40
0.0487804878048781
 40
0.0487804878048781
 40
0.0487804878048781
 40
0.0487804878048781
 40
0.0731707317073171
 40
0.0731707317073171
 40
0.0731707317073171
 40
0.0731707317073171
 40
0.0975609756097561
 40
0.0975609756097561
 40
0.0975609756097561
 40
0.0975609756097561
 40
0.1219512195121951
 40
0.1219512195121951
 40
0.1219512195121951
 40
0.1219512195121951
 40
0.1463414634146341
 40
0.1463414634146341
 40
0.1463414634146341
 40
0.1463414634146341
 40
0.1707317073170732
 40
0.1707317073170732
 40
0.1707317073170732
 40
0.1707317073170732
 40
0.1951219512195122
 40
0.1951219512195122
 40
0.1951219512195122
 40
0.1951219512195122
 40
0.2195121951219512
 40
0.2195121951219512
 40
0.2195121951219512
 40
0.2195121951219512
 40
0.2439024390243902
 40
0.2439024390243902
 40
0.2439024390243902
 40
0.2439024390243902
 40
0.2682926829268293
 40
0.2682926829268293
 40
0.2682926829268293
 40
0.2682926829268293
 40
0.2926829268292683
 40
0.2926829268292683
 40
0.2926829268292683
 40
0.2926829268292683
 40
0.3170731707317073
 40
0.3170731707317073
 40
0.3170731707317073
 40
0.3170731707317073
 40
0.3414634146341464
 40
0.3414634146341464
 40
0.3414634146341464
 40
0.3414634146341464
 40
0.3658536585365854
 40
0.3658536585365854
 40
0.3658536585365854
 40
0.3658536585365854
 40
0.3902439024390244
 40
0.3902439024390244
 40
0.3902439024390244
 40
0.3902439024390244
 40
0.4146341463414634
 40
0.4146341463414634
 40
0.4146341463414634
 40
0.4146341463414634
 40
0.4390243902439024
 40
0.4390243902439024
 40
0.4390243902439024
 40
0.4390243902439024
 40
0.4634146341463415
 40
0.4634146341463415
 40
0.4634146341463415
 40
0.4634146341463415
 40
0.4878048780487805
 40
0.4878048780487805
 40
0.4878048780487805
 40
0.4878048780487805
 40
0.5121951219512195
 40
0.5121951219512195
 40
0.5121951219512195
 40
0.5121951219512195
 40
0.5365853658536586
 40
0.5365853658536586
 40
0.5365853658536586
 40
0.5365853658536586
 40
0.5609756097560976
 40
0.5609756097560976
 40
0.5609756097560976
 40
0.5609756097560976
 40
0.5853658536585366
 40
0.5853658536585366
 40
0.5853658536585366
 40
0.5853658536585366
 40
0.6097560975609756
 40
0.6097560975609756
 40
0.6097560975609756
 40
0.6097560975609756
 40
0.6341463414634146
 40
0.6341463414634146
 40
0.6341463414634146
 40
0.6341463414634146
 40
0.6585365853658537
 40
0.6585365853658537
 40
0.6585365853658537
 40
0.6585365853658537
 40
0.6829268292682927
 40
0.6829268292682927
 40
0.6829268292682927
 40
0.6829268292682927
 40
0.7073170731707317
 40
0.7073170731707317
 40
0.7073170731707317
 40
0.7073170731707317
 40
0.7317073170731707
 40
0.7317073170731707
 40
0.7317073170731707
 40
0.7317073170731707
 40
0.7560975609756098
 40
0.7560975609756098
 40
0.7560975609756098
 40
0.7560975609756098
 40
0.7804878048780488
 40
0.7804878048780488
 40
0.7804878048780488
 40
0.7804878048780488
 40
0.8048780487804879
 40
0.8048780487804879
 40
0.8048780487804879
 40
0.8048780487804879
 40
0.8292682926829268
 40
0.8292682926829268
 40
0.8292682926829268
 40
0.8292682926829268
 40
0.8536585365853658
 40
0.8536585365853658
 40
0.8536585365853658
 40
0.8536585365853658
 40
0.8780487804878049
 40
0.8780487804878049
 40
0.8780487804878049
 40
0.8780487804878049
 40
0.9024390243902439
 40
0.9024390243902439
 40
0.9024390243902439
 40
0.9024390243902439
 40
0.926829268292683
 40
0.926829268292683
 40
0.926829268292683
 40
0.926829268292683
 40
0.9512195121951219
 40
0.9512195121951219
 40
0.9512195121951219
 40
0.9512195121951219
 40
1.0
 40
1.0
 40
1.0
 40
1.0
 10
101.48812
 20
-63.55669
 30
0.0
 10
101.48812
 20
-63.55669
 30
0.0
 10
101.48812
 20
-52.13019
 30
0.0
 10
101.48812
 20
-52.13019
 30
0.0
 10
101.48812
 20
-52.13019
 30
0.0
 10
101.48812
 20
-52.13019
 30
0.0
 10
100.48812
 20
-52.13019
 30
0.0
 10
100.48812
 20
-52.13019
 30
0.0
 10
100.48812
 20
-52.13019
 30
0.0
 10
100.48812
 20
-52.13019
 30
0.0
 10
100.48815
 20
-63.74414
 30
0.0
 10
100.48815
 20
-63.74414
 30
0.0
 10
100.48815
 20
-63.74414
 30
0.0
 10
99.54341
 20
-63.8907
 30
0.0
 10
98.57459
 20
-63.95837
 30
0.0
 10
97.62003
 20
-63.95837
 30
0.0
 10
97.62003
 20
-63.95837
 30
0.0
 10
93.77966
 20
-63.95837
 30
0.0
 10
88.30275
 20
-61.88308
 30
0.0
 10
87.01758
 20
-57.89111
 30
0.0
 10
87.01758
 20
-57.89111
 30
0.0
 10
87.0008
 20
-57.83909
 30
0.0
 10
86.99063
 20
-57.77977
 30
0.0
 10
86.9916
 20
-57.7251
 30
0.0
 10
86.9916
 20
-57.7251
 30
0.0
 10
86.99371
 20
-57.60585
 30
0.0
 10
87.08426
 20
-57.5338
 30
0.0
 10
87.19854
 20
-57.57245
 30
0.0
 10
87.19854
 20
-57.57245
 30
0.0
 10
87.43202
 20
-57.65142
 30
0.0
 10
87.5522
 20
-57.70221
 30
0.0
 10
87.81312
 20
-57.70221
 30
0.0
 10
87.81312
 20
-57.70221
 30
0.0
 10
88.64155
 20
-57.70221
 30
0.0
 10
89.31312
 20
-57.03064
 30
0.0
 10
89.31312
 20
-56.20221
 30
0.0
 10
89.31312
 20
-56.20221
 30
0.0
 10
89.31312
 20
-55.37378
 30
0.0
 10
88.64155
 20
-54.70221
 30
0.0
 10
87.81312
 20
-54.70221
 30
0.0
 10
87.81312
 20
-54.70221
 30
0.0
 10
87.5088
 20
-54.70221
 30
0.0
 10
87.3268
 20
-54.77161
 30
0.0
 10
87.06231
 20
-54.90211
 30
0.0
 10
87.06231
 20
-54.90211
 30
0.0
 10
86.98962
 20
-54.938
 30
0.0
 10
86.86534
 20
-54.95144
 30
0.0
 10
86.86729
 20
-54.83971
 30
0.0
 10
86.86729
 20
-54.83971
 30
0.0
 10
86.86911
 20
-54.73549
 30
0.0
 10
86.80479
 20
-54.66888
 30
0.0
 10
86.65479
 20
-54.58971
 30
0.0
 10
86.65479
 20
-54.58971
 30
0.0
 10
86.12356
 20
-54.30933
 30
0.0
 10
85.37763
 20
-54.22504
 30
0.0
 10
84.83395
 20
-54.50221
 30
0.0
 10
84.83395
 20
-54.50221
 30
0.0
 10
84.44011
 20
-54.70299
 30
0.0
 10
84.1608
 20
-55.10042
 30
0.0
 10
83.92979
 20
-55.46471
 30
0.0
 10
83.92979
 20
-55.46471
 30
0.0
 10
83.38242
 20
-56.32779
 30
0.0
 10
82.96522
 20
-56.89288
 30
0.0
 10
82.01142
 20
-57.37607
 30
0.0
 10
82.01142
 20
-57.37607
 30
0.0
 10
81.64767
 20
-57.56035
 30
0.0
 10
81.40676
 20
-57.62721
 30
0.0
 10
81.00062
 20
-57.62721
 30
0.0
 10
81.00062
 20
-57.62721
 30
0.0
 10
80.87979
 20
-57.62721
 30
0.0
 10
80.79645
 20
-57.62721
 30
0.0
 10
80.81729
 20
-57.59804
 30
0.0
 10
80.81729
 20
-57.59804
 30
0.0
 10
80.83812
 20
-57.56888
 30
0.0
 10
80.96312
 20
-57.51054
 30
0.0
 10
81.11312
 20
-57.41887
 30
0.0
 10
81.11312
 20
-57.41887
 30
0.0
 10
81.58297
 20
-57.13176
 30
0.0
 10
81.82199
 20
-56.75347
 30
0.0
 10
82.03812
 20
-56.25638
 30
0.0
 10
82.03812
 20
-56.25638
 30
0.0
 10
82.26886
 20
-55.72569
 30
0.0
 10
82.31856
 20
-55.32013
 30
0.0
 10
82.46729
 20
-54.79387
 30
0.0
 10
82.46729
 20
-54.79387
 30
0.0
 10
82.56841
 20
-54.43604
 30
0.0
 10
82.76947
 20
-54.01874
 30
0.0
 10
83.05479
 20
-53.77304
 30
0.0
 10
83.05479
 20
-53.77304
 30
0.0
 10
83.31201
 20
-53.55156
 30
0.0
 10
83.70126
 20
-53.37079
 30
0.0
 10
84.00479
 20
-53.20637
 30
0.0
 10
84.00479
 20
-53.20637
 30
0.0
 10
84.40819
 20
-52.98789
 30
0.0
 10
83.564
 20
-53.07773
 30
0.0
 10
83.45895
 20
-53.10638
 30
0.0
 10
83.45895
 20
-53.10638
 30
0.0
 10
83.11253
 20
-53.20086
 30
0.0
 10
82.71161
 20
-53.49333
 30
0.0
 10
82.49646
 20
-53.77304
 30
0.0
 10
82.49646
 20
-53.77304
 30
0.0
 10
82.45479
 20
-53.82721
 30
0.0
 10
82.44645
 20
-53.85221
 30
0.0
 10
82.44229
 20
-53.80221
 30
0.0
 10
82.44229
 20
-53.80221
 30
0.0
 10
82.43812
 20
-53.75221
 30
0.0
 10
82.43812
 20
-53.62721
 30
0.0
 10
82.51729
 20
-53.44387
 30
0.0
 10
82.51729
 20
-53.44387
 30
0.0
 10
83.0161
 20
-52.28866
 30
0.0
 10
84.70074
 20
-51.6767
 30
0.0
 10
85.87979
 20
-51.47304
 30
0.0
 10
85.87979
 20
-51.47304
 30
0.0
 10
86.33812
 20
-51.39388
 30
0.0
 10
86.86312
 20
-51.33554
 30
0.0
 10
87.32979
 20
-51.28554
 30
0.0
 10
87.32979
 20
-51.28554
 30
0.0
 10
88.33724
 20
-51.1776
 30
0.0
 10
89.33574
 20
-51.03923
 30
0.0
 10
90.29229
 20
-50.68554
 30
0.0
 10
90.29229
 20
-50.68554
 30
0.0
 10
90.78812
 20
-50.50221
 30
0.0
 10
91.18812
 20
-50.27721
 30
0.0
 10
91.59646
 20
-50.05221
 30
0.0
 10
91.59646
 20
-50.05221
 30
0.0
 10
92.55924
 20
-49.52169
 30
0.0
 10
93.33899
 20
-49.23894
 30
0.0
 10
94.34813
 20
-48.84457
 30
0.0
 10
94.34813
 20
-48.84457
 30
0.0
 10
96.54521
 20
-47.98601
 30
0.0
 10
97.57418
 20
-46.9062
 30
0.0
 10
98.72735
 20
-44.94655
 30
0.0
 10
98.72735
 20
-44.94655
 30
0.0
 10
99.4419
 20
-43.73227
 30
0.0
 10
99.98193
 20
-42.68767
 30
0.0
 10
100.25289
 20
-41.29904
 30
0.0
 10
100.25289
 20
-41.29904
 30
0.0
 10
100.62826
 20
-39.37522
 30
0.0
 10
101.06512
 20
-39.55851
 30
0.0
 10
101.94228
 20
-41.28277
 30
0.0
 10
101.94228
 20
-41.28277
 30
0.0
 10
102.32545
 20
-42.03598
 30
0.0
 10
102.60629
 20
-42.88127
 30
0.0
 10
102.80915
 20
-43.76029
 30
0.0
 10
102.80915
 20
-43.76029
 30
0.0
 10
103.012
 20
-44.63931
 30
0.0
 10
103.13686
 20
-45.55205
 30
0.0
 10
103.39536
 20
-46.56049
 30
0.0
 10
103.39536
 20
-46.56049
 30
0.0
 10
103.65386
 20
-47.56893
 30
0.0
 10
104.04599
 20
-48.67307
 30
0.0
 10
104.51065
 20
-49.41194
 30
0.0
 10
104.51065
 20
-49.41194
 30
0.0
 10
105.95982
 20
-51.71634
 30
0.0
 10
107.93207
 20
-52.1955
 30
0.0
 10
108.24878
 20
-55.43941
 30
0.0
 10
108.24878
 20
-55.43941
 30
0.0
 10
108.72051
 20
-60.2703
 30
0.0
 10
105.45289
 20
-62.67891
 30
0.0
 10
101.48812
 20
-63.55669
 30
0.0
  0
ENDSEC
  0
SECTION
  2
OBJECTS
  0
DICTIONARY
  5
C
330
0
100
AcDbDictionary
281
     1
  3
ACAD_DETAILVIEWSTYLE
350
BC
  3
ACAD_GROUP
350
D
  3
ACAD_LAYOUT
350
1A
  3
ACAD_MATERIAL
350
43
  3
ACAD_MLEADERSTYLE
350
6B
  3
ACAD_MLINESTYLE
350
17
  3
ACAD_PLOTSETTINGS
350
19
  3
ACAD_PLOTSTYLENAME
350
E
  3
ACAD_SCALELIST
350
47
  3
ACAD_SECTIONVIEWSTYLE
350
BD
  3
ACAD_TABLESTYLE
350
69
  3
ACAD_VISUALSTYLE
350
2A
  3
ACDB_RECOMPOSE_DATA
350
B9
  3
AcDbVariableDictionary
350
81
  0
SUN
  5
6D
330
29
100
AcDbSun
 90
        1
290
     0
 63
     7
421
 16777215
 40
1.0
291
     1
 91
  2455826
 92
 54000000
292
     0
 70
     2
 71
   256
280
     1
  0
DICTIONARY
  5
BC
102
{ACAD_REACTORS
330
C
102
}
330
C
100
AcDbDictionary
281
     1
  0
DICTIONARY
  5
D
102
{ACAD_REACTORS
330
C
102
}
330
C
100
AcDbDictionary
281
     1
  0
DICTIONARY
  5
1A
102
{ACAD_REACTORS
330
C
102
}
330
C
100
AcDbDictionary
281
     1
  3
Layout1
350
1E
  3
Layout2
350
26
  3
Model
350
22
  0
DICTIONARY
  5
43
102
{ACAD_REACTORS
330
C
102
}
330
C
100
AcDbDictionary
281
     1
  3
ByBlock
350
45
  3
ByLayer
350
44
  3
Global
350
46
  0
DICTIONARY
  5
6B
102
{ACAD_REACTORS
330
C
102
}
330
C
100
AcDbDictionary
281
     1
  3
Standard
350
6C
  0
DICTIONARY
  5
17
102
{ACAD_REACTORS
330
C
102
}
330
C
100
AcDbDictionary
281
     1
  3
Standard
350
18
  0
DICTIONARY
  5
19
102
{ACAD_REACTORS
330
C
102
}
330
C
100
AcDbDictionary
281
     1
  0
ACDBDICTIONARYWDFLT
  5
E
102
{ACAD_REACTORS
330
C
102
}
330
C
100
AcDbDictionary
281
     1
  3
Normal
350
F
100
AcDbDictionaryWithDefault
340
F
  0
DICTIONARY
  5
47
102
{ACAD_REACTORS
330
C
102
}
330
C
100
AcDbDictionary
281
     1
  3
A0
350
48
  3
A1
350
49
  3
A2
350
4A
  3
A3
350
4B
  3
A4
350
4C
  3
A5
350
4D
  3
A6
350
4E
  3
A7
350
4F
  3
A8
350
50
  3
A9
350
51
  3
B0
350
52
  3
B1
350
53
  3
B2
350
54
  3
B3
350
55
  3
B4
350
56
  3
B5
350
57
  3
B6
350
58
  3
B7
350
59
  3
B8
350
5A
  3
B9
350
5B
  3
C0
350
5C
  3
C1
350
5D
  3
C2
350
5E
  3
C3
350
5F
  3
C4
350
60
  3
C5
350
61
  3
C6
350
62
  3
C7
350
63
  3
C8
350
64
  3
C9
350
65
  3
D0
350
66
  3
D1
350
67
  3
D2
350
68
  0
DICTIONARY
  5
BD
102
{ACAD_REACTORS
330
C
102
}
330
C
100
AcDbDictionary
281
     1
  0
DICTIONARY
  5
69
102
{ACAD_REACTORS
330
C
102
}
330
C
100
AcDbDictionary
281
     1
  3
Standard
350
6A
  0
DICTIONARY
  5
2A
102
{ACAD_REACTORS
330
C
102
}
330
C
100
AcDbDictionary
281
     1
  3
2dWireframe
350
2F
  3
Basic
350
32
  3
Brighten
350
36
  3
ColorChange
350
3A
  3
Conceptual
350
34
  3
Dim
350
35
  3
EdgeColorOff
350
3D
  3
Facepattern
350
39
  3
Flat
350
2B
  3
FlatWithEdges
350
2C
  3
Gouraud
350
2D
  3
GouraudWithEdges
350
2E
  3
Hidden
350
31
  3
JitterOff
350
3B
  3
Linepattern
350
38
  3
OverhangOff
350
3C
  3
Realistic
350
33
  3
Shaded
350
42
  3
Shaded with edges
350
41
  3
Shades of Gray
350
3E
  3
Sketchy
350
3F
  3
Thicken
350
37
  3
Wireframe
350
30
  3
X-Ray
350
40
  0
XRECORD
  5
B9
102
{ACAD_REACTORS
330
C
102
}
330
C
100
AcDbXrecord
280
     1
 90
        1
330
6A
  0
DICTIONARY
  5
81
102
{ACAD_REACTORS
330
C
102
}
330
C
100
AcDbDictionary
281
     1
  3
CANNOSCALE
350
82
  3
CMLEADERSTYLE
350
BB
  3
CTABLESTYLE
350
BA
  3
XCLIPFRAME
350
83
  0
LAYOUT
  5
1E
102
{ACAD_REACTORS
330
1A
102
}
330
1A
100
AcDbPlotSettings
  1

  2
none_device
  4

  6

 40
0.0
 41
0.0
 42
0.0
 43
0.0
 44
0.0
 45
0.0
 46
0.0
 47
0.0
 48
0.0
 49
0.0
140
0.0
141
0.0
142
1.0
143
1.0
 70
   688
 72
     0
 73
     0
 74
     5
  7

 75
    16
 76
     0
 77
     2
 78
   300
147
1.0
148
0.0
149
0.0
100
AcDbLayout
  1
Layout1
 70
     1
 71
     1
 10
0.0
 20
0.0
 11
12.0
 21
9.0
 12
0.0
 22
0.0
 32
0.0
 14
1.000000000000000E+20
 24
1.000000000000000E+20
 34
1.000000000000000E+20
 15
-1.000000000000000E+20
 25
-1.000000000000000E+20
 35
-1.000000000000000E+20
146
0.0
 13
0.0
 23
0.0
 33
0.0
 16
1.0
 26
0.0
 36
0.0
 17
0.0
 27
1.0
 37
0.0
 76
     0
330
1B
  0
LAYOUT
  5
26
102
{ACAD_REACTORS
330
1A
102
}
330
1A
100
AcDbPlotSettings
  1

  2
none_device
  4

  6

 40
0.0
 41
0.0
 42
0.0
 43
0.0
 44
0.0
 45
0.0
 46
0.0
 47
0.0
 48
0.0
 49
0.0
140
0.0
141
0.0
142
1.0
143
1.0
 70
   688
 72
     0
 73
     0
 74
     5
  7

 75
    16
 76
     0
 77
     2
 78
   300
147
1.0
148
0.0
149
0.0
100
AcDbLayout
  1
Layout2
 70
     1
 71
     2
 10
0.0
 20
0.0
 11
0.0
 21
0.0
 12
0.0
 22
0.0
 32
0.0
 14
0.0
 24
0.0
 34
0.0
 15
0.0
 25
0.0
 35
0.0
146
0.0
 13
0.0
 23
0.0
 33
0.0
 16
1.0
 26
0.0
 36
0.0
 17
0.0
 27
1.0
 37
0.0
 76
     0
330
23
  0
LAYOUT
  5
22
102
{ACAD_REACTORS
330
1A
102
}
330
1A
100
AcDbPlotSettings
  1

  2
none_device
  4
Letter_(8.50_x_11.00_Inches)
  6

 40
6.35
 41
6.35
 42
6.35000508
 43
6.35000508
 44
215.9
 45
279.4
 46
0.0
 47
0.0
 48
0.0
 49
0.0
140
0.0
141
0.0
142
1.0
143
1.0
 70
  1712
 72
     0
 73
     0
 74
     0
  7

 75
     0
 76
     0
 77
     2
 78
   300
147
1.0
148
0.0
149
0.0
100
AcDbLayout
  1
Model
 70
     1
 71
     0
 10
0.0
 20
0.0
 11
12.0
 21
9.0
 12
0.0
 22
0.0
 32
0.0
 14
-112.21262
 24
-115.90633
 34
0.0
 15
108.29796
 25
40.9774
 35
0.0
146
0.0
 13
0.0
 23
0.0
 33
0.0
 16
1.0
 26
0.0
 36
0.0
 17
0.0
 27
1.0
 37
0.0
 76
     0
330
1F
331
29
  0
MATERIAL
  5
45
102
{ACAD_REACTORS
330
43
102
}
330
43
100
AcDbMaterial
  1
ByBlock
 72
     1
 94
      127
  0
MATERIAL
  5
44
102
{ACAD_REACTORS
330
43
102
}
330
43
100
AcDbMaterial
  1
ByLayer
 72
     1
 94
      127
  0
MATERIAL
  5
46
102
{ACAD_REACTORS
330
43
102
}
330
43
100
AcDbMaterial
  1
Global
 72
     1
 94
      127
  0
MLEADERSTYLE
  5
6C
102
{ACAD_REACTORS
330
6B
102
}
102
{ACAD_XDICTIONARY
360
B7
102
}
330
6B
100
AcDbMLeaderStyle
170
     2
171
     1
172
     0
 90
        2
 40
0.0
 41
0.0
173
     1
 91
-1056964608
340
14
 92
       -2
290
     1
 42
0.09
291
     1
 43
0.36
  3
Standard
341
0
 44
0.18
300

342
11
174
     1
178
     6
175
     1
176
     0
 93
-1056964608
 45
0.18
292
     0
297
     0
 46
0.18
343
0
 94
-1056964608
 47
1.0
 49
1.0
140
1.0
293
     1
141
0.0
294
     1
177
     0
142
1.0
295
     0
296
     0
143
0.125
1001
ACAD_MLEADERVER
1070
     2
  0
MLINESTYLE
  5
18
102
{ACAD_REACTORS
330
17
102
}
330
17
100
AcDbMlineStyle
  2
Standard
 70
     0
  3

 62
   256
 51
90.0
 52
90.0
 71
     2
 49
0.5
 62
   256
  6
BYLAYER
 49
-0.5
 62
   256
  6
BYLAYER
  0
ACDBPLACEHOLDER
  5
F
102
{ACAD_REACTORS
330
E
102
}
330
E
  0
SCALE
  5
48
102
{ACAD_REACTORS
330
47
102
}
330
47
100
AcDbScale
 70
     0
300
1:1
140
1.0
141
1.0
290
     1
  0
SCALE
  5
49
102
{ACAD_REACTORS
330
47
102
}
330
47
100
AcDbScale
 70
     0
300
1:2
140
1.0
141
2.0
290
     0
  0
SCALE
  5
4A
102
{ACAD_REACTORS
330
47
102
}
330
47
100
AcDbScale
 70
     0
300
1:4
140
1.0
141
4.0
290
     0
  0
SCALE
  5
4B
102
{ACAD_REACTORS
330
47
102
}
330
47
100
AcDbScale
 70
     0
300
1:5
140
1.0
141
5.0
290
     0
  0
SCALE
  5
4C
102
{ACAD_REACTORS
330
47
102
}
330
47
100
AcDbScale
 70
     0
300
1:8
140
1.0
141
8.0
290
     0
  0
SCALE
  5
4D
102
{ACAD_REACTORS
330
47
102
}
330
47
100
AcDbScale
 70
     0
300
1:10
140
1.0
141
10.0
290
     0
  0
SCALE
  5
4E
102
{ACAD_REACTORS
330
47
102
}
330
47
100
AcDbScale
 70
     0
300
1:16
140
1.0
141
16.0
290
     0
  0
SCALE
  5
4F
102
{ACAD_REACTORS
330
47
102
}
330
47
100
AcDbScale
 70
     0
300
1:20
140
1.0
141
20.0
290
     0
  0
SCALE
  5
50
102
{ACAD_REACTORS
330
47
102
}
330
47
100
AcDbScale
 70
     0
300
1:30
140
1.0
141
30.0
290
     0
  0
SCALE
  5
51
102
{ACAD_REACTORS
330
47
102
}
330
47
100
AcDbScale
 70
     0
300
1:40
140
1.0
141
40.0
290
     0
  0
SCALE
  5
52
102
{ACAD_REACTORS
330
47
102
}
330
47
100
AcDbScale
 70
     0
300
1:50
140
1.0
141
50.0
290
     0
  0
SCALE
  5
53
102
{ACAD_REACTORS
330
47
102
}
330
47
100
AcDbScale
 70
     0
300
1:100
140
1.0
141
100.0
290
     0
  0
SCALE
  5
54
102
{ACAD_REACTORS
330
47
102
}
330
47
100
AcDbScale
 70
     0
300
2:1
140
2.0
141
1.0
290
     0
  0
SCALE
  5
55
102
{ACAD_REACTORS
330
47
102
}
330
47
100
AcDbScale
 70
     0
300
4:1
140
4.0
141
1.0
290
     0
  0
SCALE
  5
56
102
{ACAD_REACTORS
330
47
102
}
330
47
100
AcDbScale
 70
     0
300
8:1
140
8.0
141
1.0
290
     0
  0
SCALE
  5
57
102
{ACAD_REACTORS
330
47
102
}
330
47
100
AcDbScale
 70
     0
300
10:1
140
10.0
141
1.0
290
     0
  0
SCALE
  5
58
102
{ACAD_REACTORS
330
47
102
}
330
47
100
AcDbScale
 70
     0
300
100:1
140
100.0
141
1.0
290
     0
  0
SCALE
  5
59
102
{ACAD_REACTORS
330
47
102
}
330
47
100
AcDbScale
 70
     0
300
1/128\" = 1\'-0\"
140
0.0078125
141
12.0
290
     0
  0
SCALE
  5
5A
102
{ACAD_REACTORS
330
47
102
}
330
47
100
AcDbScale
 70
     0
300
1/64\" = 1\'-0\"
140
0.015625
141
12.0
290
     0
  0
SCALE
  5
5B
102
{ACAD_REACTORS
330
47
102
}
330
47
100
AcDbScale
 70
     0
300
1/32\" = 1\'-0\"
140
0.03125
141
12.0
290
     0
  0
SCALE
  5
5C
102
{ACAD_REACTORS
330
47
102
}
330
47
100
AcDbScale
 70
     0
300
1/16\" = 1\'-0\"
140
0.0625
141
12.0
290
     0
  0
SCALE
  5
5D
102
{ACAD_REACTORS
330
47
102
}
330
47
100
AcDbScale
 70
     0
300
3/32\" = 1\'-0\"
140
0.09375
141
12.0
290
     0
  0
SCALE
  5
5E
102
{ACAD_REACTORS
330
47
102
}
330
47
100
AcDbScale
 70
     0
300
1/8\" = 1\'-0\"
140
0.125
141
12.0
290
     0
  0
SCALE
  5
5F
102
{ACAD_REACTORS
330
47
102
}
330
47
100
AcDbScale
 70
     0
300
3/16\" = 1\'-0\"
140
0.1875
141
12.0
290
     0
  0
SCALE
  5
60
102
{ACAD_REACTORS
330
47
102
}
330
47
100
AcDbScale
 70
     0
300
1/4\" = 1\'-0\"
140
0.25
141
12.0
290
     0
  0
SCALE
  5
61
102
{ACAD_REACTORS
330
47
102
}
330
47
100
AcDbScale
 70
     0
300
3/8\" = 1\'-0\"
140
0.375
141
12.0
290
     0
  0
SCALE
  5
62
102
{ACAD_REACTORS
330
47
102
}
330
47
100
AcDbScale
 70
     0
300
1/2\" = 1\'-0\"
140
0.5
141
12.0
290
     0
  0
SCALE
  5
63
102
{ACAD_REACTORS
330
47
102
}
330
47
100
AcDbScale
 70
     0
300
3/4\" = 1\'-0\"
140
0.75
141
12.0
290
     0
  0
SCALE
  5
64
102
{ACAD_REACTORS
330
47
102
}
330
47
100
AcDbScale
 70
     0
300
1\" = 1\'-0\"
140
1.0
141
12.0
290
     0
  0
SCALE
  5
65
102
{ACAD_REACTORS
330
47
102
}
330
47
100
AcDbScale
 70
     0
300
1-1/2\" = 1\'-0\"
140
1.5
141
12.0
290
     0
  0
SCALE
  5
66
102
{ACAD_REACTORS
330
47
102
}
330
47
100
AcDbScale
 70
     0
300
3\" = 1\'-0\"
140
3.0
141
12.0
290
     0
  0
SCALE
  5
67
102
{ACAD_REACTORS
330
47
102
}
330
47
100
AcDbScale
 70
     0
300
6\" = 1\'-0\"
140
6.0
141
12.0
290
     0
  0
SCALE
  5
68
102
{ACAD_REACTORS
330
47
102
}
330
47
100
AcDbScale
 70
     0
300
1\'-0\" = 1\'-0\"
140
12.0
141
12.0
290
     0
  0
TABLESTYLE
  5
6A
102
{ACAD_REACTORS
330
69
102
}
102
{ACAD_XDICTIONARY
360
B4
102
}
330
69
100
AcDbTableStyle
  3
Standard
 70
     0
 71
     0
 40
0.06
 41
0.06
280
     0
281
     0
  7
Standard
140
0.18
170
     2
 62
     0
 63
   257
283
     0
 90
        4
 91
        0
  1

274
    -2
284
     1
 64
     0
275
    -2
285
     1
 65
     0
276
    -2
286
     1
 66
     0
277
    -2
287
     1
 67
     0
278
    -2
288
     1
 68
     0
279
    -2
289
     1
 69
     0
  7
Standard
140
0.25
170
     5
 62
     0
 63
   257
283
     0
 90
        4
 91
        0
  1

274
    -2
284
     1
 64
     0
275
    -2
285
     1
 65
     0
276
    -2
286
     1
 66
     0
277
    -2
287
     1
 67
     0
278
    -2
288
     1
 68
     0
279
    -2
289
     1
 69
     0
  7
Standard
140
0.18
170
     5
 62
     0
 63
   257
283
     0
 90
        4
 91
        0
  1

274
    -2
284
     1
 64
     0
275
    -2
285
     1
 65
     0
276
    -2
286
     1
 66
     0
277
    -2
287
     1
 67
     0
278
    -2
288
     1
 68
     0
279
    -2
289
     1
 69
     0
  0
VISUALSTYLE
  5
2F
102
{ACAD_REACTORS
330
2A
102
}
102
{ACAD_XDICTIONARY
360
8C
102
}
330
2A
100
AcDbVisualStyle
  2
2dWireframe
 70
     4
 71
     0
 72
     2
 73
     0
 90
        0
 40
0.6
 41
30.0
 62
     5
 63
     7
421
 16777215
 74
     1
 91
        4
 64
     7
 65
   257
 75
     1
175
     1
 42
1.0
 92
        0
 66
   257
 43
1.0
 76
     1
 77
     6
 78
     2
 67
     7
 79
     5
170
     0
171
     0
290
     0
174
     0
 93
        1
 44
0.0
173
     0
291
     0
 45
0.0
  0
VISUALSTYLE
  5
32
102
{ACAD_REACTORS
330
2A
102
}
102
{ACAD_XDICTIONARY
360
92
102
}
330
2A
100
AcDbVisualStyle
  2
Basic
 70
     7
 71
     1
 72
     0
 73
     1
 90
        0
 40
0.6
 41
30.0
 62
     5
 63
     7
421
 16777215
 74
     0
 91
        4
 64
     7
 65
   257
 75
     1
175
     1
 42
1.0
 92
        8
 66
     7
 43
1.0
 76
     1
 77
     6
 78
     2
 67
     7
 79
     5
170
     0
171
     0
290
     0
174
     0
 93
        1
 44
0.0
173
     0
291
     1
 45
0.0
  0
VISUALSTYLE
  5
36
102
{ACAD_REACTORS
330
2A
102
}
102
{ACAD_XDICTIONARY
360
9A
102
}
330
2A
100
AcDbVisualStyle
  2
Brighten
 70
    12
 71
     2
 72
     2
 73
     0
 90
        0
 40
0.6
 41
30.0
 62
     5
 63
     7
421
 16777215
 74
     1
 91
        4
 64
     7
 65
   257
 75
     1
175
     1
 42
1.0
 92
        8
 66
     7
 43
1.0
 76
     1
 77
     6
 78
     2
 67
     7
 79
     5
170
     0
171
     0
290
     0
174
     0
 93
        1
 44
50.0
173
     0
291
     1
 45
0.0
  0
VISUALSTYLE
  5
3A
102
{ACAD_REACTORS
330
2A
102
}
102
{ACAD_XDICTIONARY
360
A2
102
}
330
2A
100
AcDbVisualStyle
  2
ColorChange
 70
    16
 71
     2
 72
     2
 73
     3
 90
        0
 40
0.6
 41
30.0
 62
     5
 63
     8
421
  8421504
 74
     1
 91
        4
 64
     7
 65
   257
 75
     1
175
     1
 42
1.0
 92
        8
 66
     8
424
  8421504
 43
1.0
 76
     1
 77
     6
 78
     2
 67
     7
 79
     5
170
     0
171
     0
290
     0
174
     0
 93
        1
 44
0.0
173
     0
291
     1
 45
0.0
  0
VISUALSTYLE
  5
34
102
{ACAD_REACTORS
330
2A
102
}
102
{ACAD_XDICTIONARY
360
96
102
}
330
2A
100
AcDbVisualStyle
  2
Conceptual
 70
     9
 71
     3
 72
     2
 73
     0
 90
        0
 40
0.6
 41
30.0
 62
     5
 63
     7
421
 16777215
 74
     2
 91
        2
 64
     7
 65
   257
 75
     1
175
     1
 42
179.0
 92
        8
 66
     7
 43
1.0
 76
     1
 77
     6
 78
     2
 67
     7
 79
     3
170
     0
171
     0
290
     0
174
     0
 93
        1
 44
0.0
173
     0
291
     0
 45
0.0
  0
VISUALSTYLE
  5
35
102
{ACAD_REACTORS
330
2A
102
}
102
{ACAD_XDICTIONARY
360
98
102
}
330
2A
100
AcDbVisualStyle
  2
Dim
 70
    11
 71
     2
 72
     2
 73
     0
 90
        0
 40
0.6
 41
30.0
 62
     5
 63
     7
421
 16777215
 74
     1
 91
        4
 64
     7
 65
   257
 75
     1
175
     1
 42
1.0
 92
        8
 66
     7
 43
1.0
 76
     1
 77
     6
 78
     2
 67
     7
 79
     5
170
     0
171
     0
290
     0
174
     0
 93
        1
 44
-50.0
173
     0
291
     1
 45
0.0
  0
VISUALSTYLE
  5
3D
102
{ACAD_REACTORS
330
2A
102
}
102
{ACAD_XDICTIONARY
360
A8
102
}
330
2A
100
AcDbVisualStyle
  2
EdgeColorOff
 70
    22
 71
     2
 72
     2
 73
     0
 90
        0
 40
0.6
 41
30.0
 62
     5
 63
     7
421
 16777215
 74
     1
 91
        4
 64
     7
 65
   257
 75
     1
175
     1
 42
1.0
 92
        8
 66
     7
 43
1.0
 76
     1
 77
     6
 78
     2
 67
     7
 79
     5
170
     0
171
     0
290
     0
174
     0
 93
        1
 44
0.0
173
     0
291
     1
 45
0.0
  0
VISUALSTYLE
  5
39
102
{ACAD_REACTORS
330
2A
102
}
102
{ACAD_XDICTIONARY
360
A0
102
}
330
2A
100
AcDbVisualStyle
  2
Facepattern
 70
    15
 71
     2
 72
     2
 73
     0
 90
        0
 40
0.6
 41
30.0
 62
     5
 63
     7
421
 16777215
 74
     1
 91
        4
 64
     7
 65
   257
 75
     1
175
     1
 42
1.0
 92
        8
 66
     7
 43
1.0
 76
     1
 77
     6
 78
     2
 67
     7
 79
     5
170
     0
171
     0
290
     0
174
     0
 93
        1
 44
0.0
173
     0
291
     1
 45
0.0
  0
VISUALSTYLE
  5
2B
102
{ACAD_REACTORS
330
2A
102
}
102
{ACAD_XDICTIONARY
360
84
102
}
330
2A
100
AcDbVisualStyle
  2
Flat
 70
     0
 71
     2
 72
     1
 73
     1
 90
        2
 40
0.6
 41
30.0
 62
     5
 63
     7
421
 16777215
 74
     0
 91
        0
 64
     7
 65
   257
 75
     1
175
     1
 42
1.0
 92
        8
 66
     7
 43
1.0
 76
     1
 77
     6
 78
     2
 67
     7
 79
     5
170
     0
171
     0
290
     0
174
     0
 93
       13
 44
0.0
173
     0
291
     1
 45
0.0
  0
VISUALSTYLE
  5
2C
102
{ACAD_REACTORS
330
2A
102
}
102
{ACAD_XDICTIONARY
360
86
102
}
330
2A
100
AcDbVisualStyle
  2
FlatWithEdges
 70
     1
 71
     2
 72
     1
 73
     1
 90
        2
 40
0.6
 41
30.0
 62
     5
 63
     7
421
 16777215
 74
     1
 91
        0
 64
     7
 65
   257
 75
     1
175
     1
 42
1.0
 92
        0
 66
   257
 43
1.0
 76
     1
 77
     6
 78
     2
 67
     7
 79
     5
170
     0
171
     0
290
     0
174
     0
 93
       13
 44
0.0
173
     0
291
     1
 45
0.0
  0
VISUALSTYLE
  5
2D
102
{ACAD_REACTORS
330
2A
102
}
102
{ACAD_XDICTIONARY
360
88
102
}
330
2A
100
AcDbVisualStyle
  2
Gouraud
 70
     2
 71
     2
 72
     2
 73
     1
 90
        2
 40
0.6
 41
30.0
 62
     5
 63
     7
421
 16777215
 74
     0
 91
        0
 64
     7
 65
   257
 75
     1
175
     1
 42
1.0
 92
        0
 66
     7
 43
1.0
 76
     1
 77
     6
 78
     2
 67
     7
 79
     5
170
     0
171
     0
290
     0
174
     0
 93
       13
 44
0.0
173
     0
291
     1
 45
0.0
  0
VISUALSTYLE
  5
2E
102
{ACAD_REACTORS
330
2A
102
}
102
{ACAD_XDICTIONARY
360
8A
102
}
330
2A
100
AcDbVisualStyle
  2
GouraudWithEdges
 70
     3
 71
     2
 72
     2
 73
     1
 90
        2
 40
0.6
 41
30.0
 62
     5
 63
     7
421
 16777215
 74
     1
 91
        0
 64
     7
 65
   257
 75
     1
175
     1
 42
1.0
 92
        0
 66
   257
 43
1.0
 76
     1
 77
     6
 78
     2
 67
     7
 79
     5
170
     0
171
     0
290
     0
174
     0
 93
       13
 44
0.0
173
     0
291
     1
 45
0.0
  0
VISUALSTYLE
  5
31
102
{ACAD_REACTORS
330
2A
102
}
102
{ACAD_XDICTIONARY
360
90
102
}
330
2A
100
AcDbVisualStyle
  2
Hidden
 70
     6
 71
     1
 72
     2
 73
     2
 90
        0
 40
0.6
 41
30.0
 62
     5
 63
     7
421
 16777215
 74
     2
 91
        2
 64
     7
 65
   257
 75
     2
175
     1
 42
40.0
 92
        0
 66
   257
 43
1.0
 76
     1
 77
     6
 78
     2
 67
     7
 79
     3
170
     0
171
     0
290
     0
174
     0
 93
        1
 44
0.0
173
     0
291
     0
 45
0.0
  0
VISUALSTYLE
  5
3B
102
{ACAD_REACTORS
330
2A
102
}
102
{ACAD_XDICTIONARY
360
A4
102
}
330
2A
100
AcDbVisualStyle
  2
JitterOff
 70
    20
 71
     2
 72
     2
 73
     0
 90
        0
 40
0.6
 41
30.0
 62
     5
 63
     7
421
 16777215
 74
     1
 91
        4
 64
     7
 65
   257
 75
     1
175
     1
 42
1.0
 92
       10
 66
     7
 43
1.0
 76
     1
 77
     6
 78
     2
 67
     7
 79
     5
170
     0
171
     0
290
     0
174
     0
 93
        1
 44
0.0
173
     0
291
     1
 45
0.0
  0
VISUALSTYLE
  5
38
102
{ACAD_REACTORS
330
2A
102
}
102
{ACAD_XDICTIONARY
360
9E
102
}
330
2A
100
AcDbVisualStyle
  2
Linepattern
 70
    14
 71
     2
 72
     2
 73
     0
 90
        0
 40
0.6
 41
30.0
 62
     5
 63
     7
421
 16777215
 74
     1
 91
        4
 64
     7
 65
   257
 75
     7
175
     7
 42
1.0
 92
        8
 66
     7
 43
1.0
 76
     1
 77
     6
 78
     2
 67
     7
 79
     5
170
     0
171
     0
290
     0
174
     0
 93
        1
 44
0.0
173
     0
291
     1
 45
0.0
  0
VISUALSTYLE
  5
3C
102
{ACAD_REACTORS
330
2A
102
}
102
{ACAD_XDICTIONARY
360
A6
102
}
330
2A
100
AcDbVisualStyle
  2
OverhangOff
 70
    21
 71
     2
 72
     2
 73
     0
 90
        0
 40
0.6
 41
30.0
 62
     5
 63
     7
421
 16777215
 74
     1
 91
        4
 64
     7
 65
   257
 75
     1
175
     1
 42
1.0
 92
        9
 66
     7
 43
1.0
 76
     1
 77
     6
 78
     2
 67
     7
 79
     5
170
     0
171
     0
290
     0
174
     0
 93
        1
 44
0.0
173
     0
291
     1
 45
0.0
  0
VISUALSTYLE
  5
33
102
{ACAD_REACTORS
330
2A
102
}
102
{ACAD_XDICTIONARY
360
94
102
}
330
2A
100
AcDbVisualStyle
  2
Realistic
 70
     8
 71
     2
 72
     3
 73
     0
 90
        2
 40
0.6
 41
30.0
 62
     5
 63
     7
421
 16777215
 74
     0
 91
        0
 64
     7
 65
   257
 75
     1
175
     1
 42
1.0
 92
        8
 66
   257
 43
1.0
 76
     1
 77
     6
 78
     2
 67
     7
 79
     3
170
     0
171
     0
290
     0
174
     0
 93
       13
 44
0.0
173
     0
291
     0
 45
0.0
  0
VISUALSTYLE
  5
42
102
{ACAD_REACTORS
330
2A
102
}
102
{ACAD_XDICTIONARY
360
B2
102
}
330
2A
100
AcDbVisualStyle
  2
Shaded
 70
    27
 71
     2
 72
     2
 73
     1
 90
        2
 40
0.6
 41
30.0
 62
     5
 63
     7
421
 16777215
 74
     0
 91
        4
 64
     7
 65
   257
 75
     1
175
     1
 42
1.0
 92
        8
 66
   257
 43
1.0
 76
     1
 77
     6
 78
     2
 67
     8
425
  7895160
 79
     3
170
     0
171
     0
290
     0
174
     0
 93
        5
 44
0.0
173
     0
291
     0
 45
0.0
  0
VISUALSTYLE
  5
41
102
{ACAD_REACTORS
330
2A
102
}
102
{ACAD_XDICTIONARY
360
B0
102
}
330
2A
100
AcDbVisualStyle
  2
Shaded with edges
 70
    26
 71
     2
 72
     2
 73
     1
 90
        2
 40
0.6
 41
30.0
 62
     5
 63
     7
421
 16777215
 74
     1
 91
       10
 64
     7
 65
   257
 75
     2
175
     1
 42
1.0
 92
        8
 66
   257
 43
1.0
 76
     1
 77
     6
 78
     2
 67
     7
 79
     3
170
     0
171
     0
290
     0
174
     0
 93
        5
 44
0.0
173
     0
291
     0
 45
0.0
  0
VISUALSTYLE
  5
3E
102
{ACAD_REACTORS
330
2A
102
}
102
{ACAD_XDICTIONARY
360
AA
102
}
330
2A
100
AcDbVisualStyle
  2
Shades of Gray
 70
    23
 71
     2
 72
     2
 73
     3
 90
        0
 40
0.6
 41
30.0
 62
     5
 63
     7
421
 16777215
 74
     2
 91
        2
 64
     7
 65
     7
 75
     1
175
     1
 42
40.0
 92
        8
 66
     7
 43
1.0
 76
     1
 77
     6
 78
     2
 67
     7
 79
     3
170
     0
171
     0
290
     0
174
     0
 93
        1
 44
0.0
173
     0
291
     0
 45
0.0
  0
VISUALSTYLE
  5
3F
102
{ACAD_REACTORS
330
2A
102
}
102
{ACAD_XDICTIONARY
360
AC
102
}
330
2A
100
AcDbVisualStyle
  2
Sketchy
 70
    24
 71
     1
 72
     2
 73
     2
 90
        0
 40
0.6
 41
30.0
 62
     5
 63
     7
421
 16777215
 74
     2
 91
        2
 64
     7
 65
     7
 75
     1
175
     1
 42
40.0
 92
       11
 66
     7
 43
1.0
 76
     1
 77
     6
 78
     2
 67
     7
 79
     6
170
     0
171
     0
290
     0
174
     0
 93
        1
 44
0.0
173
     0
291
     0
 45
0.0
  0
VISUALSTYLE
  5
37
102
{ACAD_REACTORS
330
2A
102
}
102
{ACAD_XDICTIONARY
360
9C
102
}
330
2A
100
AcDbVisualStyle
  2
Thicken
 70
    13
 71
     2
 72
     2
 73
     0
 90
        0
 40
0.6
 41
30.0
 62
     5
 63
     7
421
 16777215
 74
     1
 91
        4
 64
     7
 65
   257
 75
     1
175
     1
 42
1.0
 92
       12
 66
     7
 43
1.0
 76
     1
 77
     6
 78
     2
 67
     7
 79
     5
170
     0
171
     0
290
     0
174
     0
 93
        1
 44
0.0
173
     0
291
     1
 45
0.0
  0
VISUALSTYLE
  5
30
102
{ACAD_REACTORS
330
2A
102
}
102
{ACAD_XDICTIONARY
360
8E
102
}
330
2A
100
AcDbVisualStyle
  2
Wireframe
 70
     5
 71
     0
 72
     2
 73
     0
 90
        0
 40
0.6
 41
30.0
 62
     5
 63
     7
421
 16777215
 74
     1
 91
        4
 64
     7
 65
   257
 75
     1
175
     1
 42
1.0
 92
        0
 66
   257
 43
1.0
 76
     1
 77
     6
 78
     2
 67
     7
 79
     3
170
     0
171
     0
290
     0
174
     0
 93
        1
 44
0.0
173
     0
291
     0
 45
0.0
  0
VISUALSTYLE
  5
40
102
{ACAD_REACTORS
330
2A
102
}
102
{ACAD_XDICTIONARY
360
AE
102
}
330
2A
100
AcDbVisualStyle
  2
X-Ray
 70
    25
 71
     2
 72
     2
 73
     1
 90
        1
 40
0.5
 41
30.0
 62
     5
 63
     7
421
 16777215
 74
     1
 91
        0
 64
     7
 65
   257
 75
     1
175
     1
 42
1.0
 92
        8
 66
     7
 43
1.0
 76
     1
 77
     6
 78
     2
 67
     7
 79
     3
170
     0
171
     0
290
     0
174
     0
 93
       13
 44
0.0
173
     0
291
     0
 45
0.0
  0
DICTIONARYVAR
  5
82
102
{ACAD_REACTORS
330
81
102
}
330
81
100
DictionaryVariables
280
     0
  1
1:1
  0
DICTIONARYVAR
  5
BB
102
{ACAD_REACTORS
330
81
102
}
330
81
100
DictionaryVariables
280
     0
  1
Standard
  0
DICTIONARYVAR
  5
BA
102
{ACAD_REACTORS
330
81
102
}
330
81
100
DictionaryVariables
280
     0
  1
Standard
  0
DICTIONARYVAR
  5
83
102
{ACAD_REACTORS
330
81
102
}
330
81
100
DictionaryVariables
280
     0
  1
2
  0
DICTIONARY
  5
B7
330
6C
100
AcDbDictionary
280
     1
281
     1
  3
ACAD_XREC_ROUNDTRIP
360
B8
  0
DICTIONARY
  5
B4
330
6A
100
AcDbDictionary
280
     1
281
     1
  3
ACAD_ROUNDTRIP_2008_TABLESTYLE_CELLSTYLEMAP
360
B5
  0
DICTIONARY
  5
8C
330
2F
100
AcDbDictionary
280
     1
281
     1
  3
ACAD_XREC_ROUNDTRIP
360
8D
  0
DICTIONARY
  5
92
330
32
100
AcDbDictionary
280
     1
281
     1
  3
ACAD_XREC_ROUNDTRIP
360
93
  0
DICTIONARY
  5
9A
330
36
100
AcDbDictionary
280
     1
281
     1
  3
ACAD_XREC_ROUNDTRIP
360
9B
  0
DICTIONARY
  5
A2
330
3A
100
AcDbDictionary
280
     1
281
     1
  3
ACAD_XREC_ROUNDTRIP
360
A3
  0
DICTIONARY
  5
96
330
34
100
AcDbDictionary
280
     1
281
     1
  3
ACAD_XREC_ROUNDTRIP
360
97
  0
DICTIONARY
  5
98
330
35
100
AcDbDictionary
280
     1
281
     1
  3
ACAD_XREC_ROUNDTRIP
360
99
  0
DICTIONARY
  5
A8
330
3D
100
AcDbDictionary
280
     1
281
     1
  3
ACAD_XREC_ROUNDTRIP
360
A9
  0
DICTIONARY
  5
A0
330
39
100
AcDbDictionary
280
     1
281
     1
  3
ACAD_XREC_ROUNDTRIP
360
A1
  0
DICTIONARY
  5
84
330
2B
100
AcDbDictionary
280
     1
281
     1
  3
ACAD_XREC_ROUNDTRIP
360
85
  0
DICTIONARY
  5
86
330
2C
100
AcDbDictionary
280
     1
281
     1
  3
ACAD_XREC_ROUNDTRIP
360
87
  0
DICTIONARY
  5
88
330
2D
100
AcDbDictionary
280
     1
281
     1
  3
ACAD_XREC_ROUNDTRIP
360
89
  0
DICTIONARY
  5
8A
330
2E
100
AcDbDictionary
280
     1
281
     1
  3
ACAD_XREC_ROUNDTRIP
360
8B
  0
DICTIONARY
  5
90
330
31
100
AcDbDictionary
280
     1
281
     1
  3
ACAD_XREC_ROUNDTRIP
360
91
  0
DICTIONARY
  5
A4
330
3B
100
AcDbDictionary
280
     1
281
     1
  3
ACAD_XREC_ROUNDTRIP
360
A5
  0
DICTIONARY
  5
9E
330
38
100
AcDbDictionary
280
     1
281
     1
  3
ACAD_XREC_ROUNDTRIP
360
9F
  0
DICTIONARY
  5
A6
330
3C
100
AcDbDictionary
280
     1
281
     1
  3
ACAD_XREC_ROUNDTRIP
360
A7
  0
DICTIONARY
  5
94
330
33
100
AcDbDictionary
280
     1
281
     1
  3
ACAD_XREC_ROUNDTRIP
360
95
  0
DICTIONARY
  5
B2
330
42
100
AcDbDictionary
280
     1
281
     1
  3
ACAD_XREC_ROUNDTRIP
360
B3
  0
DICTIONARY
  5
B0
330
41
100
AcDbDictionary
280
     1
281
     1
  3
ACAD_XREC_ROUNDTRIP
360
B1
  0
DICTIONARY
  5
AA
330
3E
100
AcDbDictionary
280
     1
281
     1
  3
ACAD_XREC_ROUNDTRIP
360
AB
  0
DICTIONARY
  5
AC
330
3F
100
AcDbDictionary
280
     1
281
     1
  3
ACAD_XREC_ROUNDTRIP
360
AD
  0
DICTIONARY
  5
9C
330
37
100
AcDbDictionary
280
     1
281
     1
  3
ACAD_XREC_ROUNDTRIP
360
9D
  0
DICTIONARY
  5
8E
330
30
100
AcDbDictionary
280
     1
281
     1
  3
ACAD_XREC_ROUNDTRIP
360
8F
  0
DICTIONARY
  5
AE
330
40
100
AcDbDictionary
280
     1
281
     1
  3
ACAD_XREC_ROUNDTRIP
360
AF
  0
XRECORD
  5
B8
102
{ACAD_REACTORS
330
B7
102
}
330
B7
100
AcDbXrecord
280
     1
102
ACAD_ROUNDTRIP_2010_MLEADER_STYLE
  0
CELLSTYLEMAP
  5
B5
102
{ACAD_REACTORS
330
B4
102
}
330
B4
100
AcDbCellStyleMap
 90
        3
300
CELLSTYLE
  1
TABLEFORMAT_BEGIN
 90
        5
170
     1
 91
        0
 92
    32768
 62
   257
 93
        1
300
CONTENTFORMAT
  1
CONTENTFORMAT_BEGIN
 90
        0
 91
        0
 92
        4
 93
        0
300

 40
0.0
140
1.0
 94
        5
 62
     0
340
11
144
0.25
309
CONTENTFORMAT_END
171
     1
301
MARGIN
  1
CELLMARGIN_BEGIN
 40
0.06
 40
0.06
 40
0.06
 40
0.06
 40
0.06
 40
0.06
309
CELLMARGIN_END
 94
        6
 95
        1
302
GRIDFORMAT
  1
GRIDFORMAT_BEGIN
 90
        0
 91
        1
 62
     0
 92
       -2
340
14
 93
        0
 40
0.045
309
GRIDFORMAT_END
 95
        2
302
GRIDFORMAT
  1
GRIDFORMAT_BEGIN
 90
        0
 91
        1
 62
     0
 92
       -2
340
14
 93
        0
 40
0.045
309
GRIDFORMAT_END
 95
        4
302
GRIDFORMAT
  1
GRIDFORMAT_BEGIN
 90
        0
 91
        1
 62
     0
 92
       -2
340
14
 93
        0
 40
0.045
309
GRIDFORMAT_END
 95
        8
302
GRIDFORMAT
  1
GRIDFORMAT_BEGIN
 90
        0
 91
        1
 62
     0
 92
       -2
340
14
 93
        0
 40
0.045
309
GRIDFORMAT_END
 95
       16
302
GRIDFORMAT
  1
GRIDFORMAT_BEGIN
 90
        0
 91
        1
 62
     0
 92
       -2
340
14
 93
        0
 40
0.045
309
GRIDFORMAT_END
 95
       32
302
GRIDFORMAT
  1
GRIDFORMAT_BEGIN
 90
        0
 91
        1
 62
     0
 92
       -2
340
14
 93
        0
 40
0.045
309
GRIDFORMAT_END
309
TABLEFORMAT_END
  1
CELLSTYLE_BEGIN
 90
        1
 91
        1
300
_TITLE
309
CELLSTYLE_END
300
CELLSTYLE
  1
TABLEFORMAT_BEGIN
 90
        5
170
     1
 91
        0
 92
        0
 62
   257
 93
        1
300
CONTENTFORMAT
  1
CONTENTFORMAT_BEGIN
 90
        0
 91
        0
 92
        4
 93
        0
300

 40
0.0
140
1.0
 94
        5
 62
     0
340
11
144
0.18
309
CONTENTFORMAT_END
171
     1
301
MARGIN
  1
CELLMARGIN_BEGIN
 40
0.06
 40
0.06
 40
0.06
 40
0.06
 40
0.06
 40
0.06
309
CELLMARGIN_END
 94
        6
 95
        1
302
GRIDFORMAT
  1
GRIDFORMAT_BEGIN
 90
        0
 91
        1
 62
     0
 92
       -2
340
14
 93
        0
 40
0.045
309
GRIDFORMAT_END
 95
        2
302
GRIDFORMAT
  1
GRIDFORMAT_BEGIN
 90
        0
 91
        1
 62
     0
 92
       -2
340
14
 93
        0
 40
0.045
309
GRIDFORMAT_END
 95
        4
302
GRIDFORMAT
  1
GRIDFORMAT_BEGIN
 90
        0
 91
        1
 62
     0
 92
       -2
340
14
 93
        0
 40
0.045
309
GRIDFORMAT_END
 95
        8
302
GRIDFORMAT
  1
GRIDFORMAT_BEGIN
 90
        0
 91
        1
 62
     0
 92
       -2
340
14
 93
        0
 40
0.045
309
GRIDFORMAT_END
 95
       16
302
GRIDFORMAT
  1
GRIDFORMAT_BEGIN
 90
        0
 91
        1
 62
     0
 92
       -2
340
14
 93
        0
 40
0.045
309
GRIDFORMAT_END
 95
       32
302
GRIDFORMAT
  1
GRIDFORMAT_BEGIN
 90
        0
 91
        1
 62
     0
 92
       -2
340
14
 93
        0
 40
0.045
309
GRIDFORMAT_END
309
TABLEFORMAT_END
  1
CELLSTYLE_BEGIN
 90
        2
 91
        1
300
_HEADER
309
CELLSTYLE_END
300
CELLSTYLE
  1
TABLEFORMAT_BEGIN
 90
        5
170
     1
 91
        0
 92
        0
 62
   257
 93
        1
300
CONTENTFORMAT
  1
CONTENTFORMAT_BEGIN
 90
        0
 91
        0
 92
        4
 93
        0
300

 40
0.0
140
1.0
 94
        2
 62
     0
340
11
144
0.18
309
CONTENTFORMAT_END
171
     1
301
MARGIN
  1
CELLMARGIN_BEGIN
 40
0.06
 40
0.06
 40
0.06
 40
0.06
 40
0.06
 40
0.06
309
CELLMARGIN_END
 94
        6
 95
        1
302
GRIDFORMAT
  1
GRIDFORMAT_BEGIN
 90
        0
 91
        1
 62
     0
 92
       -2
340
14
 93
        0
 40
0.045
309
GRIDFORMAT_END
 95
        2
302
GRIDFORMAT
  1
GRIDFORMAT_BEGIN
 90
        0
 91
        1
 62
     0
 92
       -2
340
14
 93
        0
 40
0.045
309
GRIDFORMAT_END
 95
        4
302
GRIDFORMAT
  1
GRIDFORMAT_BEGIN
 90
        0
 91
        1
 62
     0
 92
       -2
340
14
 93
        0
 40
0.045
309
GRIDFORMAT_END
 95
        8
302
GRIDFORMAT
  1
GRIDFORMAT_BEGIN
 90
        0
 91
        1
 62
     0
 92
       -2
340
14
 93
        0
 40
0.045
309
GRIDFORMAT_END
 95
       16
302
GRIDFORMAT
  1
GRIDFORMAT_BEGIN
 90
        0
 91
        1
 62
     0
 92
       -2
340
14
 93
        0
 40
0.045
309
GRIDFORMAT_END
 95
       32
302
GRIDFORMAT
  1
GRIDFORMAT_BEGIN
 90
        0
 91
        1
 62
     0
 92
       -2
340
14
 93
        0
 40
0.045
309
GRIDFORMAT_END
309
TABLEFORMAT_END
  1
CELLSTYLE_BEGIN
 90
        3
 91
        2
300
_DATA
309
CELLSTYLE_END
  0
XRECORD
  5
8D
102
{ACAD_REACTORS
330
8C
102
}
330
8C
100
AcDbXrecord
280
     1
102
RTVSPropertyOp0
 70
     1
102
RTVSPropertyOp1
 70
     1
102
RTVSPropertyOp2
 70
     1
102
RTVSPropertyOp3
 70
     1
102
RTVSPropertyOp4
 70
     1
102
RTVSPropertyOp5
 70
     1
102
RTVSPropertyOp6
 70
     1
102
RTVSPropertyOp7
 70
     1
102
RTVSPropertyOp8
 70
     1
102
RTVSPropertyOp9
 70
     1
102
RTVSPropertyOp10
 70
     1
102
RTVSPropertyOp11
 70
     1
102
RTVSPropertyOp12
 70
     1
102
RTVSPropertyOp13
 70
     1
102
RTVSPropertyOp14
 70
     1
102
RTVSPropertyOp15
 70
     1
102
RTVSPropertyOp16
 70
     1
102
RTVSPropertyOp17
 70
     1
102
RTVSPropertyOp18
 70
     1
102
RTVSPropertyOp19
 70
     1
102
RTVSPropertyOp20
 70
     1
102
RTVSPropertyOp21
 70
     1
102
RTVSPropertyOp22
 70
     1
102
RTVSPropertyOp23
 70
     1
102
RTVSPropertyOp24
 70
     1
102
RTVSPropertyOp25
 70
     1
102
RTVSPropertyOp26
 70
     1
102
RTVSPropertyOp27
 70
     1
102
RTVSPropertyOp28
 70
     1
102
RTVSPropertyOp29
 70
     1
102
RTVSPropertyOp30
 70
     1
102
RTVSPropertyOp31
 70
     1
102
RTVSPropertyOp32
 70
     1
102
RTVSPropertyOp33
 70
     1
102
RTVSPropertyOp34
 70
     1
102
RTVSPropertyOp35
 70
     1
102
RTVSPropertyOp36
 70
     1
102
RTVSPropertyOp37
 70
     1
102
RTVSPropertyOp38
 70
     1
102
RTVSPropertyOp39
 70
     1
102
RTVSPropertyOp40
 70
     1
102
RTVSPropertyOp41
 70
     1
102
RTVSPropertyOp42
 70
     1
102
RTVSPropertyOp43
 70
     1
102
RTVSPropertyOp44
 70
     1
102
RTVSPropertyOp45
 70
     1
102
RTVSPropertyOp46
 70
     1
102
RTVSPropertyOp47
 70
     1
102
RTVSPropertyOp48
 70
     1
102
RTVSPropertyOp49
 70
     1
102
RTVSPropertyOp50
 70
     1
102
RTVSPropertyOp51
 70
     0
102
RTVSPropertyOp52
 70
     0
102
RTVSPropertyOp53
 70
     1
102
RTVSPropertyOp54
 70
     1
102
RTVSPropertyOp55
 70
     1
102
RTVSPropertyOp56
 70
     1
102
RTVSPropertyOp57
 70
     1
102
RTVSPost2010Prop28
280
     1
102
RTVSPost2010PropOp28
 70
     1
102
RTVSPost2010Prop29
280
     1
102
RTVSPost2010PropOp29
 70
     1
102
RTVSPost2010Prop30
280
     0
102
RTVSPost2010PropOp30
 70
     1
102
RTVSPost2010Prop31
280
     0
102
RTVSPost2010PropOp31
 70
     1
102
RTVSPost2010Prop32
280
     0
102
RTVSPost2010PropOp32
 70
     1
102
RTVSPost2010Prop33
280
     0
102
RTVSPost2010PropOp33
 70
     1
102
RTVSPost2010Prop34
280
     0
102
RTVSPost2010PropOp34
 70
     1
102
RTVSPost2010Prop35
280
     0
102
RTVSPost2010PropOp35
 70
     1
102
RTVSPost2010Prop36
280
     0
102
RTVSPost2010PropOp36
 70
     1
102
RTVSPost2010Prop37
 90
       50
102
RTVSPost2010PropOp37
 70
     1
102
RTVSPost2010Prop38
140
0.0
102
RTVSPost2010PropOp38
 70
     1
102
RTVSPost2010Prop39
140
1.0
102
RTVSPost2010PropOp39
 70
     1
102
RTVSPost2010Prop40
 90
        0
102
RTVSPost2010PropOp40
 70
     1
102
RTVSPost2010Prop41ColorIndex
 90
       18
102
RTVSPost2010Prop41ColorRGB
 90
        0
102
RTVSPost2010PropOp41
 70
     1
102
RTVSPost2010Prop42
 90
       50
102
RTVSPost2010PropOp42
 70
     1
102
RTVSPost2010Prop43
 90
        3
102
RTVSPost2010PropOp43
 70
     1
102
RTVSPost2010Prop44ColorIndex
 90
        5
102
RTVSPost2010Prop44ColorRGB
 90
      255
102
RTVSPost2010PropOp44
 70
     1
102
RTVSPost2010Prop45
280
     0
102
RTVSPost2010PropOp45
 70
     1
102
RTVSPost2010Prop46
 90
       50
102
RTVSPost2010PropOp46
 70
     1
102
RTVSPost2010Prop47
 90
       50
102
RTVSPost2010PropOp47
 70
     1
102
RTVSPost2010Prop48
 90
       50
102
RTVSPost2010PropOp48
 70
     1
102
RTVSPost2010Prop49
280
     0
102
RTVSPost2010PropOp49
 70
     1
102
RTVSPost2010Prop50
 90
       50
102
RTVSPost2010PropOp50
 70
     1
102
RTVSPost2010Prop51ColorIndex
 90
      256
102
RTVSPost2010Prop51ColorRGB
 90
-16777216
102
RTVSPost2010PropOp51
 70
     0
102
RTVSPost2010Prop52
140
1.0
102
RTVSPost2010PropOp52
 70
     0
102
RTVSPost2010Prop53
 90
        2
102
RTVSPost2010PropOp53
 70
     1
102
RTVSPost2010Prop54
  1
strokes_ogs.tif
102
RTVSPost2010PropOp54
 70
     1
102
RTVSPost2010Prop55
280
     0
102
RTVSPost2010PropOp55
 70
     1
102
RTVSPost2010Prop56
140
1.0
102
RTVSPost2010PropOp56
 70
     1
102
RTVSPost2010Prop57
140
1.0
102
RTVSPost2010PropOp57
 70
     1
  0
XRECORD
  5
93
102
{ACAD_REACTORS
330
92
102
}
330
92
100
AcDbXrecord
280
     1
102
RTVSPropertyOp0
 70
     1
102
RTVSPropertyOp1
 70
     1
102
RTVSPropertyOp2
 70
     1
102
RTVSPropertyOp3
 70
     1
102
RTVSPropertyOp4
 70
     1
102
RTVSPropertyOp5
 70
     1
102
RTVSPropertyOp6
 70
     1
102
RTVSPropertyOp7
 70
     1
102
RTVSPropertyOp8
 70
     1
102
RTVSPropertyOp9
 70
     1
102
RTVSPropertyOp10
 70
     1
102
RTVSPropertyOp11
 70
     1
102
RTVSPropertyOp12
 70
     1
102
RTVSPropertyOp13
 70
     1
102
RTVSPropertyOp14
 70
     1
102
RTVSPropertyOp15
 70
     1
102
RTVSPropertyOp16
 70
     1
102
RTVSPropertyOp17
 70
     1
102
RTVSPropertyOp18
 70
     1
102
RTVSPropertyOp19
 70
     1
102
RTVSPropertyOp20
 70
     1
102
RTVSPropertyOp21
 70
     1
102
RTVSPropertyOp22
 70
     1
102
RTVSPropertyOp23
 70
     1
102
RTVSPropertyOp24
 70
     1
102
RTVSPropertyOp25
 70
     1
102
RTVSPropertyOp26
 70
     1
102
RTVSPropertyOp27
 70
     1
102
RTVSPropertyOp28
 70
     1
102
RTVSPropertyOp29
 70
     1
102
RTVSPropertyOp30
 70
     1
102
RTVSPropertyOp31
 70
     1
102
RTVSPropertyOp32
 70
     1
102
RTVSPropertyOp33
 70
     1
102
RTVSPropertyOp34
 70
     1
102
RTVSPropertyOp35
 70
     1
102
RTVSPropertyOp36
 70
     1
102
RTVSPropertyOp37
 70
     1
102
RTVSPropertyOp38
 70
     1
102
RTVSPropertyOp39
 70
     1
102
RTVSPropertyOp40
 70
     1
102
RTVSPropertyOp41
 70
     1
102
RTVSPropertyOp42
 70
     1
102
RTVSPropertyOp43
 70
     1
102
RTVSPropertyOp44
 70
     1
102
RTVSPropertyOp45
 70
     1
102
RTVSPropertyOp46
 70
     1
102
RTVSPropertyOp47
 70
     1
102
RTVSPropertyOp48
 70
     1
102
RTVSPropertyOp49
 70
     1
102
RTVSPropertyOp50
 70
     1
102
RTVSPropertyOp51
 70
     0
102
RTVSPropertyOp52
 70
     0
102
RTVSPropertyOp53
 70
     1
102
RTVSPropertyOp54
 70
     1
102
RTVSPropertyOp55
 70
     1
102
RTVSPropertyOp56
 70
     1
102
RTVSPropertyOp57
 70
     1
102
RTVSPost2010Prop28
280
     0
102
RTVSPost2010PropOp28
 70
     1
102
RTVSPost2010Prop29
280
     1
102
RTVSPost2010PropOp29
 70
     1
102
RTVSPost2010Prop30
280
     1
102
RTVSPost2010PropOp30
 70
     1
102
RTVSPost2010Prop31
280
     0
102
RTVSPost2010PropOp31
 70
     1
102
RTVSPost2010Prop32
280
     0
102
RTVSPost2010PropOp32
 70
     1
102
RTVSPost2010Prop33
280
     0
102
RTVSPost2010PropOp33
 70
     1
102
RTVSPost2010Prop34
280
     0
102
RTVSPost2010PropOp34
 70
     1
102
RTVSPost2010Prop35
280
     0
102
RTVSPost2010PropOp35
 70
     1
102
RTVSPost2010Prop36
280
     0
102
RTVSPost2010PropOp36
 70
     1
102
RTVSPost2010Prop37
 90
       50
102
RTVSPost2010PropOp37
 70
     1
102
RTVSPost2010Prop38
140
0.0
102
RTVSPost2010PropOp38
 70
     1
102
RTVSPost2010Prop39
140
1.0
102
RTVSPost2010PropOp39
 70
     1
102
RTVSPost2010Prop40
 90
        0
102
RTVSPost2010PropOp40
 70
     1
102
RTVSPost2010Prop41ColorIndex
 90
       18
102
RTVSPost2010Prop41ColorRGB
 90
        0
102
RTVSPost2010PropOp41
 70
     1
102
RTVSPost2010Prop42
 90
       50
102
RTVSPost2010PropOp42
 70
     1
102
RTVSPost2010Prop43
 90
        3
102
RTVSPost2010PropOp43
 70
     1
102
RTVSPost2010Prop44ColorIndex
 90
        5
102
RTVSPost2010Prop44ColorRGB
 90
      255
102
RTVSPost2010PropOp44
 70
     1
102
RTVSPost2010Prop45
280
     0
102
RTVSPost2010PropOp45
 70
     1
102
RTVSPost2010Prop46
 90
       50
102
RTVSPost2010PropOp46
 70
     1
102
RTVSPost2010Prop47
 90
       50
102
RTVSPost2010PropOp47
 70
     1
102
RTVSPost2010Prop48
 90
       50
102
RTVSPost2010PropOp48
 70
     1
102
RTVSPost2010Prop49
280
     0
102
RTVSPost2010PropOp49
 70
     1
102
RTVSPost2010Prop50
 90
       50
102
RTVSPost2010PropOp50
 70
     1
102
RTVSPost2010Prop51ColorIndex
 90
      256
102
RTVSPost2010Prop51ColorRGB
 90
-16777216
102
RTVSPost2010PropOp51
 70
     0
102
RTVSPost2010Prop52
140
1.0
102
RTVSPost2010PropOp52
 70
     0
102
RTVSPost2010Prop53
 90
        2
102
RTVSPost2010PropOp53
 70
     1
102
RTVSPost2010Prop54
  1
strokes_ogs.tif
102
RTVSPost2010PropOp54
 70
     1
102
RTVSPost2010Prop55
280
     0
102
RTVSPost2010PropOp55
 70
     1
102
RTVSPost2010Prop56
140
1.0
102
RTVSPost2010PropOp56
 70
     1
102
RTVSPost2010Prop57
140
1.0
102
RTVSPost2010PropOp57
 70
     1
  0
XRECORD
  5
9B
102
{ACAD_REACTORS
330
9A
102
}
330
9A
100
AcDbXrecord
280
     1
102
RTVSPropertyOp0
 70
     1
102
RTVSPropertyOp1
 70
     1
102
RTVSPropertyOp2
 70
     1
102
RTVSPropertyOp3
 70
     1
102
RTVSPropertyOp4
 70
     1
102
RTVSPropertyOp5
 70
     1
102
RTVSPropertyOp6
 70
     1
102
RTVSPropertyOp7
 70
     1
102
RTVSPropertyOp8
 70
     1
102
RTVSPropertyOp9
 70
     1
102
RTVSPropertyOp10
 70
     1
102
RTVSPropertyOp11
 70
     1
102
RTVSPropertyOp12
 70
     1
102
RTVSPropertyOp13
 70
     1
102
RTVSPropertyOp14
 70
     1
102
RTVSPropertyOp15
 70
     1
102
RTVSPropertyOp16
 70
     1
102
RTVSPropertyOp17
 70
     1
102
RTVSPropertyOp18
 70
     1
102
RTVSPropertyOp19
 70
     1
102
RTVSPropertyOp20
 70
     1
102
RTVSPropertyOp21
 70
     1
102
RTVSPropertyOp22
 70
     1
102
RTVSPropertyOp23
 70
     1
102
RTVSPropertyOp24
 70
     1
102
RTVSPropertyOp25
 70
     1
102
RTVSPropertyOp26
 70
     1
102
RTVSPropertyOp27
 70
     1
102
RTVSPropertyOp28
 70
     1
102
RTVSPropertyOp29
 70
     1
102
RTVSPropertyOp30
 70
     1
102
RTVSPropertyOp31
 70
     1
102
RTVSPropertyOp32
 70
     1
102
RTVSPropertyOp33
 70
     1
102
RTVSPropertyOp34
 70
     1
102
RTVSPropertyOp35
 70
     1
102
RTVSPropertyOp36
 70
     1
102
RTVSPropertyOp37
 70
     1
102
RTVSPropertyOp38
 70
     1
102
RTVSPropertyOp39
 70
     1
102
RTVSPropertyOp40
 70
     1
102
RTVSPropertyOp41
 70
     1
102
RTVSPropertyOp42
 70
     1
102
RTVSPropertyOp43
 70
     1
102
RTVSPropertyOp44
 70
     1
102
RTVSPropertyOp45
 70
     1
102
RTVSPropertyOp46
 70
     1
102
RTVSPropertyOp47
 70
     1
102
RTVSPropertyOp48
 70
     1
102
RTVSPropertyOp49
 70
     1
102
RTVSPropertyOp50
 70
     1
102
RTVSPropertyOp51
 70
     0
102
RTVSPropertyOp52
 70
     0
102
RTVSPropertyOp53
 70
     1
102
RTVSPropertyOp54
 70
     1
102
RTVSPropertyOp55
 70
     1
102
RTVSPropertyOp56
 70
     1
102
RTVSPropertyOp57
 70
     1
102
RTVSPost2010Prop28
280
     0
102
RTVSPost2010PropOp28
 70
     1
102
RTVSPost2010Prop29
280
     1
102
RTVSPost2010PropOp29
 70
     1
102
RTVSPost2010Prop30
280
     1
102
RTVSPost2010PropOp30
 70
     1
102
RTVSPost2010Prop31
280
     0
102
RTVSPost2010PropOp31
 70
     1
102
RTVSPost2010Prop32
280
     0
102
RTVSPost2010PropOp32
 70
     1
102
RTVSPost2010Prop33
280
     0
102
RTVSPost2010PropOp33
 70
     1
102
RTVSPost2010Prop34
280
     0
102
RTVSPost2010PropOp34
 70
     1
102
RTVSPost2010Prop35
280
     0
102
RTVSPost2010PropOp35
 70
     1
102
RTVSPost2010Prop36
280
     0
102
RTVSPost2010PropOp36
 70
     1
102
RTVSPost2010Prop37
 90
       50
102
RTVSPost2010PropOp37
 70
     1
102
RTVSPost2010Prop38
140
0.0
102
RTVSPost2010PropOp38
 70
     1
102
RTVSPost2010Prop39
140
1.0
102
RTVSPost2010PropOp39
 70
     1
102
RTVSPost2010Prop40
 90
        0
102
RTVSPost2010PropOp40
 70
     1
102
RTVSPost2010Prop41ColorIndex
 90
       18
102
RTVSPost2010Prop41ColorRGB
 90
        0
102
RTVSPost2010PropOp41
 70
     1
102
RTVSPost2010Prop42
 90
       50
102
RTVSPost2010PropOp42
 70
     1
102
RTVSPost2010Prop43
 90
        3
102
RTVSPost2010PropOp43
 70
     1
102
RTVSPost2010Prop44ColorIndex
 90
        5
102
RTVSPost2010Prop44ColorRGB
 90
      255
102
RTVSPost2010PropOp44
 70
     1
102
RTVSPost2010Prop45
280
     0
102
RTVSPost2010PropOp45
 70
     1
102
RTVSPost2010Prop46
 90
       50
102
RTVSPost2010PropOp46
 70
     1
102
RTVSPost2010Prop47
 90
       50
102
RTVSPost2010PropOp47
 70
     1
102
RTVSPost2010Prop48
 90
       50
102
RTVSPost2010PropOp48
 70
     1
102
RTVSPost2010Prop49
280
     0
102
RTVSPost2010PropOp49
 70
     1
102
RTVSPost2010Prop50
 90
       50
102
RTVSPost2010PropOp50
 70
     1
102
RTVSPost2010Prop51ColorIndex
 90
      256
102
RTVSPost2010Prop51ColorRGB
 90
-16777216
102
RTVSPost2010PropOp51
 70
     0
102
RTVSPost2010Prop52
140
1.0
102
RTVSPost2010PropOp52
 70
     0
102
RTVSPost2010Prop53
 90
        2
102
RTVSPost2010PropOp53
 70
     1
102
RTVSPost2010Prop54
  1
strokes_ogs.tif
102
RTVSPost2010PropOp54
 70
     1
102
RTVSPost2010Prop55
280
     0
102
RTVSPost2010PropOp55
 70
     1
102
RTVSPost2010Prop56
140
1.0
102
RTVSPost2010PropOp56
 70
     1
102
RTVSPost2010Prop57
140
1.0
102
RTVSPost2010PropOp57
 70
     1
  0
XRECORD
  5
A3
102
{ACAD_REACTORS
330
A2
102
}
330
A2
100
AcDbXrecord
280
     1
102
RTVSPropertyOp0
 70
     1
102
RTVSPropertyOp1
 70
     1
102
RTVSPropertyOp2
 70
     1
102
RTVSPropertyOp3
 70
     1
102
RTVSPropertyOp4
 70
     1
102
RTVSPropertyOp5
 70
     1
102
RTVSPropertyOp6
 70
     1
102
RTVSPropertyOp7
 70
     1
102
RTVSPropertyOp8
 70
     1
102
RTVSPropertyOp9
 70
     1
102
RTVSPropertyOp10
 70
     1
102
RTVSPropertyOp11
 70
     1
102
RTVSPropertyOp12
 70
     1
102
RTVSPropertyOp13
 70
     1
102
RTVSPropertyOp14
 70
     1
102
RTVSPropertyOp15
 70
     1
102
RTVSPropertyOp16
 70
     1
102
RTVSPropertyOp17
 70
     1
102
RTVSPropertyOp18
 70
     1
102
RTVSPropertyOp19
 70
     1
102
RTVSPropertyOp20
 70
     1
102
RTVSPropertyOp21
 70
     1
102
RTVSPropertyOp22
 70
     1
102
RTVSPropertyOp23
 70
     1
102
RTVSPropertyOp24
 70
     1
102
RTVSPropertyOp25
 70
     1
102
RTVSPropertyOp26
 70
     1
102
RTVSPropertyOp27
 70
     1
102
RTVSPropertyOp28
 70
     1
102
RTVSPropertyOp29
 70
     1
102
RTVSPropertyOp30
 70
     1
102
RTVSPropertyOp31
 70
     1
102
RTVSPropertyOp32
 70
     1
102
RTVSPropertyOp33
 70
     1
102
RTVSPropertyOp34
 70
     1
102
RTVSPropertyOp35
 70
     1
102
RTVSPropertyOp36
 70
     1
102
RTVSPropertyOp37
 70
     1
102
RTVSPropertyOp38
 70
     1
102
RTVSPropertyOp39
 70
     1
102
RTVSPropertyOp40
 70
     1
102
RTVSPropertyOp41
 70
     1
102
RTVSPropertyOp42
 70
     1
102
RTVSPropertyOp43
 70
     1
102
RTVSPropertyOp44
 70
     1
102
RTVSPropertyOp45
 70
     1
102
RTVSPropertyOp46
 70
     1
102
RTVSPropertyOp47
 70
     1
102
RTVSPropertyOp48
 70
     1
102
RTVSPropertyOp49
 70
     1
102
RTVSPropertyOp50
 70
     1
102
RTVSPropertyOp51
 70
     0
102
RTVSPropertyOp52
 70
     0
102
RTVSPropertyOp53
 70
     1
102
RTVSPropertyOp54
 70
     1
102
RTVSPropertyOp55
 70
     1
102
RTVSPropertyOp56
 70
     1
102
RTVSPropertyOp57
 70
     1
102
RTVSPost2010Prop28
280
     0
102
RTVSPost2010PropOp28
 70
     1
102
RTVSPost2010Prop29
280
     1
102
RTVSPost2010PropOp29
 70
     1
102
RTVSPost2010Prop30
280
     1
102
RTVSPost2010PropOp30
 70
     1
102
RTVSPost2010Prop31
280
     0
102
RTVSPost2010PropOp31
 70
     1
102
RTVSPost2010Prop32
280
     0
102
RTVSPost2010PropOp32
 70
     1
102
RTVSPost2010Prop33
280
     0
102
RTVSPost2010PropOp33
 70
     1
102
RTVSPost2010Prop34
280
     0
102
RTVSPost2010PropOp34
 70
     1
102
RTVSPost2010Prop35
280
     0
102
RTVSPost2010PropOp35
 70
     1
102
RTVSPost2010Prop36
280
     0
102
RTVSPost2010PropOp36
 70
     1
102
RTVSPost2010Prop37
 90
       50
102
RTVSPost2010PropOp37
 70
     1
102
RTVSPost2010Prop38
140
0.0
102
RTVSPost2010PropOp38
 70
     1
102
RTVSPost2010Prop39
140
1.0
102
RTVSPost2010PropOp39
 70
     1
102
RTVSPost2010Prop40
 90
        0
102
RTVSPost2010PropOp40
 70
     1
102
RTVSPost2010Prop41ColorIndex
 90
       18
102
RTVSPost2010Prop41ColorRGB
 90
        0
102
RTVSPost2010PropOp41
 70
     1
102
RTVSPost2010Prop42
 90
       50
102
RTVSPost2010PropOp42
 70
     1
102
RTVSPost2010Prop43
 90
        3
102
RTVSPost2010PropOp43
 70
     1
102
RTVSPost2010Prop44ColorIndex
 90
        5
102
RTVSPost2010Prop44ColorRGB
 90
      255
102
RTVSPost2010PropOp44
 70
     1
102
RTVSPost2010Prop45
280
     0
102
RTVSPost2010PropOp45
 70
     1
102
RTVSPost2010Prop46
 90
       50
102
RTVSPost2010PropOp46
 70
     1
102
RTVSPost2010Prop47
 90
       50
102
RTVSPost2010PropOp47
 70
     1
102
RTVSPost2010Prop48
 90
       50
102
RTVSPost2010PropOp48
 70
     1
102
RTVSPost2010Prop49
280
     0
102
RTVSPost2010PropOp49
 70
     1
102
RTVSPost2010Prop50
 90
       50
102
RTVSPost2010PropOp50
 70
     1
102
RTVSPost2010Prop51ColorIndex
 90
      256
102
RTVSPost2010Prop51ColorRGB
 90
-16777216
102
RTVSPost2010PropOp51
 70
     0
102
RTVSPost2010Prop52
140
1.0
102
RTVSPost2010PropOp52
 70
     0
102
RTVSPost2010Prop53
 90
        2
102
RTVSPost2010PropOp53
 70
     1
102
RTVSPost2010Prop54
  1
strokes_ogs.tif
102
RTVSPost2010PropOp54
 70
     1
102
RTVSPost2010Prop55
280
     0
102
RTVSPost2010PropOp55
 70
     1
102
RTVSPost2010Prop56
140
1.0
102
RTVSPost2010PropOp56
 70
     1
102
RTVSPost2010Prop57
140
1.0
102
RTVSPost2010PropOp57
 70
     1
  0
XRECORD
  5
97
102
{ACAD_REACTORS
330
96
102
}
330
96
100
AcDbXrecord
280
     1
102
RTVSPropertyOp0
 70
     1
102
RTVSPropertyOp1
 70
     1
102
RTVSPropertyOp2
 70
     1
102
RTVSPropertyOp3
 70
     1
102
RTVSPropertyOp4
 70
     1
102
RTVSPropertyOp5
 70
     1
102
RTVSPropertyOp6
 70
     1
102
RTVSPropertyOp7
 70
     1
102
RTVSPropertyOp8
 70
     1
102
RTVSPropertyOp9
 70
     1
102
RTVSPropertyOp10
 70
     1
102
RTVSPropertyOp11
 70
     1
102
RTVSPropertyOp12
 70
     1
102
RTVSPropertyOp13
 70
     1
102
RTVSPropertyOp14
 70
     1
102
RTVSPropertyOp15
 70
     1
102
RTVSPropertyOp16
 70
     1
102
RTVSPropertyOp17
 70
     1
102
RTVSPropertyOp18
 70
     1
102
RTVSPropertyOp19
 70
     1
102
RTVSPropertyOp20
 70
     1
102
RTVSPropertyOp21
 70
     1
102
RTVSPropertyOp22
 70
     1
102
RTVSPropertyOp23
 70
     1
102
RTVSPropertyOp24
 70
     1
102
RTVSPropertyOp25
 70
     1
102
RTVSPropertyOp26
 70
     1
102
RTVSPropertyOp27
 70
     1
102
RTVSPropertyOp28
 70
     1
102
RTVSPropertyOp29
 70
     1
102
RTVSPropertyOp30
 70
     1
102
RTVSPropertyOp31
 70
     1
102
RTVSPropertyOp32
 70
     1
102
RTVSPropertyOp33
 70
     1
102
RTVSPropertyOp34
 70
     1
102
RTVSPropertyOp35
 70
     1
102
RTVSPropertyOp36
 70
     1
102
RTVSPropertyOp37
 70
     1
102
RTVSPropertyOp38
 70
     1
102
RTVSPropertyOp39
 70
     1
102
RTVSPropertyOp40
 70
     1
102
RTVSPropertyOp41
 70
     1
102
RTVSPropertyOp42
 70
     1
102
RTVSPropertyOp43
 70
     1
102
RTVSPropertyOp44
 70
     1
102
RTVSPropertyOp45
 70
     1
102
RTVSPropertyOp46
 70
     1
102
RTVSPropertyOp47
 70
     1
102
RTVSPropertyOp48
 70
     1
102
RTVSPropertyOp49
 70
     1
102
RTVSPropertyOp50
 70
     1
102
RTVSPropertyOp51
 70
     0
102
RTVSPropertyOp52
 70
     0
102
RTVSPropertyOp53
 70
     1
102
RTVSPropertyOp54
 70
     1
102
RTVSPropertyOp55
 70
     1
102
RTVSPropertyOp56
 70
     1
102
RTVSPropertyOp57
 70
     1
102
RTVSPost2010Prop28
280
     0
102
RTVSPost2010PropOp28
 70
     1
102
RTVSPost2010Prop29
280
     1
102
RTVSPost2010PropOp29
 70
     1
102
RTVSPost2010Prop30
280
     1
102
RTVSPost2010PropOp30
 70
     1
102
RTVSPost2010Prop31
280
     0
102
RTVSPost2010PropOp31
 70
     1
102
RTVSPost2010Prop32
280
     0
102
RTVSPost2010PropOp32
 70
     1
102
RTVSPost2010Prop33
280
     0
102
RTVSPost2010PropOp33
 70
     1
102
RTVSPost2010Prop34
280
     0
102
RTVSPost2010PropOp34
 70
     1
102
RTVSPost2010Prop35
280
     0
102
RTVSPost2010PropOp35
 70
     1
102
RTVSPost2010Prop36
280
     0
102
RTVSPost2010PropOp36
 70
     1
102
RTVSPost2010Prop37
 90
       50
102
RTVSPost2010PropOp37
 70
     1
102
RTVSPost2010Prop38
140
0.0
102
RTVSPost2010PropOp38
 70
     1
102
RTVSPost2010Prop39
140
1.0
102
RTVSPost2010PropOp39
 70
     1
102
RTVSPost2010Prop40
 90
        0
102
RTVSPost2010PropOp40
 70
     1
102
RTVSPost2010Prop41ColorIndex
 90
       18
102
RTVSPost2010Prop41ColorRGB
 90
        0
102
RTVSPost2010PropOp41
 70
     1
102
RTVSPost2010Prop42
 90
       50
102
RTVSPost2010PropOp42
 70
     1
102
RTVSPost2010Prop43
 90
        3
102
RTVSPost2010PropOp43
 70
     1
102
RTVSPost2010Prop44ColorIndex
 90
        5
102
RTVSPost2010Prop44ColorRGB
 90
      255
102
RTVSPost2010PropOp44
 70
     1
102
RTVSPost2010Prop45
280
     0
102
RTVSPost2010PropOp45
 70
     1
102
RTVSPost2010Prop46
 90
       50
102
RTVSPost2010PropOp46
 70
     1
102
RTVSPost2010Prop47
 90
       50
102
RTVSPost2010PropOp47
 70
     1
102
RTVSPost2010Prop48
 90
       50
102
RTVSPost2010PropOp48
 70
     1
102
RTVSPost2010Prop49
280
     0
102
RTVSPost2010PropOp49
 70
     1
102
RTVSPost2010Prop50
 90
       50
102
RTVSPost2010PropOp50
 70
     1
102
RTVSPost2010Prop51ColorIndex
 90
      256
102
RTVSPost2010Prop51ColorRGB
 90
-16777216
102
RTVSPost2010PropOp51
 70
     0
102
RTVSPost2010Prop52
140
1.0
102
RTVSPost2010PropOp52
 70
     0
102
RTVSPost2010Prop53
 90
        2
102
RTVSPost2010PropOp53
 70
     1
102
RTVSPost2010Prop54
  1
strokes_ogs.tif
102
RTVSPost2010PropOp54
 70
     1
102
RTVSPost2010Prop55
280
     0
102
RTVSPost2010PropOp55
 70
     1
102
RTVSPost2010Prop56
140
1.0
102
RTVSPost2010PropOp56
 70
     1
102
RTVSPost2010Prop57
140
1.0
102
RTVSPost2010PropOp57
 70
     1
  0
XRECORD
  5
99
102
{ACAD_REACTORS
330
98
102
}
330
98
100
AcDbXrecord
280
     1
102
RTVSPropertyOp0
 70
     1
102
RTVSPropertyOp1
 70
     1
102
RTVSPropertyOp2
 70
     1
102
RTVSPropertyOp3
 70
     1
102
RTVSPropertyOp4
 70
     1
102
RTVSPropertyOp5
 70
     1
102
RTVSPropertyOp6
 70
     1
102
RTVSPropertyOp7
 70
     1
102
RTVSPropertyOp8
 70
     1
102
RTVSPropertyOp9
 70
     1
102
RTVSPropertyOp10
 70
     1
102
RTVSPropertyOp11
 70
     1
102
RTVSPropertyOp12
 70
     1
102
RTVSPropertyOp13
 70
     1
102
RTVSPropertyOp14
 70
     1
102
RTVSPropertyOp15
 70
     1
102
RTVSPropertyOp16
 70
     1
102
RTVSPropertyOp17
 70
     1
102
RTVSPropertyOp18
 70
     1
102
RTVSPropertyOp19
 70
     1
102
RTVSPropertyOp20
 70
     1
102
RTVSPropertyOp21
 70
     1
102
RTVSPropertyOp22
 70
     1
102
RTVSPropertyOp23
 70
     1
102
RTVSPropertyOp24
 70
     1
102
RTVSPropertyOp25
 70
     1
102
RTVSPropertyOp26
 70
     1
102
RTVSPropertyOp27
 70
     1
102
RTVSPropertyOp28
 70
     1
102
RTVSPropertyOp29
 70
     1
102
RTVSPropertyOp30
 70
     1
102
RTVSPropertyOp31
 70
     1
102
RTVSPropertyOp32
 70
     1
102
RTVSPropertyOp33
 70
     1
102
RTVSPropertyOp34
 70
     1
102
RTVSPropertyOp35
 70
     1
102
RTVSPropertyOp36
 70
     1
102
RTVSPropertyOp37
 70
     1
102
RTVSPropertyOp38
 70
     1
102
RTVSPropertyOp39
 70
     1
102
RTVSPropertyOp40
 70
     1
102
RTVSPropertyOp41
 70
     1
102
RTVSPropertyOp42
 70
     1
102
RTVSPropertyOp43
 70
     1
102
RTVSPropertyOp44
 70
     1
102
RTVSPropertyOp45
 70
     1
102
RTVSPropertyOp46
 70
     1
102
RTVSPropertyOp47
 70
     1
102
RTVSPropertyOp48
 70
     1
102
RTVSPropertyOp49
 70
     1
102
RTVSPropertyOp50
 70
     1
102
RTVSPropertyOp51
 70
     0
102
RTVSPropertyOp52
 70
     0
102
RTVSPropertyOp53
 70
     1
102
RTVSPropertyOp54
 70
     1
102
RTVSPropertyOp55
 70
     1
102
RTVSPropertyOp56
 70
     1
102
RTVSPropertyOp57
 70
     1
102
RTVSPost2010Prop28
280
     0
102
RTVSPost2010PropOp28
 70
     1
102
RTVSPost2010Prop29
280
     1
102
RTVSPost2010PropOp29
 70
     1
102
RTVSPost2010Prop30
280
     1
102
RTVSPost2010PropOp30
 70
     1
102
RTVSPost2010Prop31
280
     0
102
RTVSPost2010PropOp31
 70
     1
102
RTVSPost2010Prop32
280
     0
102
RTVSPost2010PropOp32
 70
     1
102
RTVSPost2010Prop33
280
     0
102
RTVSPost2010PropOp33
 70
     1
102
RTVSPost2010Prop34
280
     0
102
RTVSPost2010PropOp34
 70
     1
102
RTVSPost2010Prop35
280
     0
102
RTVSPost2010PropOp35
 70
     1
102
RTVSPost2010Prop36
280
     0
102
RTVSPost2010PropOp36
 70
     1
102
RTVSPost2010Prop37
 90
       50
102
RTVSPost2010PropOp37
 70
     1
102
RTVSPost2010Prop38
140
0.0
102
RTVSPost2010PropOp38
 70
     1
102
RTVSPost2010Prop39
140
1.0
102
RTVSPost2010PropOp39
 70
     1
102
RTVSPost2010Prop40
 90
        0
102
RTVSPost2010PropOp40
 70
     1
102
RTVSPost2010Prop41ColorIndex
 90
       18
102
RTVSPost2010Prop41ColorRGB
 90
        0
102
RTVSPost2010PropOp41
 70
     1
102
RTVSPost2010Prop42
 90
       50
102
RTVSPost2010PropOp42
 70
     1
102
RTVSPost2010Prop43
 90
        3
102
RTVSPost2010PropOp43
 70
     1
102
RTVSPost2010Prop44ColorIndex
 90
        5
102
RTVSPost2010Prop44ColorRGB
 90
      255
102
RTVSPost2010PropOp44
 70
     1
102
RTVSPost2010Prop45
280
     0
102
RTVSPost2010PropOp45
 70
     1
102
RTVSPost2010Prop46
 90
       50
102
RTVSPost2010PropOp46
 70
     1
102
RTVSPost2010Prop47
 90
       50
102
RTVSPost2010PropOp47
 70
     1
102
RTVSPost2010Prop48
 90
       50
102
RTVSPost2010PropOp48
 70
     1
102
RTVSPost2010Prop49
280
     0
102
RTVSPost2010PropOp49
 70
     1
102
RTVSPost2010Prop50
 90
       50
102
RTVSPost2010PropOp50
 70
     1
102
RTVSPost2010Prop51ColorIndex
 90
      256
102
RTVSPost2010Prop51ColorRGB
 90
-16777216
102
RTVSPost2010PropOp51
 70
     0
102
RTVSPost2010Prop52
140
1.0
102
RTVSPost2010PropOp52
 70
     0
102
RTVSPost2010Prop53
 90
        2
102
RTVSPost2010PropOp53
 70
     1
102
RTVSPost2010Prop54
  1
strokes_ogs.tif
102
RTVSPost2010PropOp54
 70
     1
102
RTVSPost2010Prop55
280
     0
102
RTVSPost2010PropOp55
 70
     1
102
RTVSPost2010Prop56
140
1.0
102
RTVSPost2010PropOp56
 70
     1
102
RTVSPost2010Prop57
140
1.0
102
RTVSPost2010PropOp57
 70
     1
  0
XRECORD
  5
A9
102
{ACAD_REACTORS
330
A8
102
}
330
A8
100
AcDbXrecord
280
     1
102
RTVSPropertyOp0
 70
     0
102
RTVSPropertyOp1
 70
     0
102
RTVSPropertyOp2
 70
     0
102
RTVSPropertyOp3
 70
     0
102
RTVSPropertyOp4
 70
     0
102
RTVSPropertyOp5
 70
     0
102
RTVSPropertyOp6
 70
     0
102
RTVSPropertyOp7
 70
     0
102
RTVSPropertyOp8
 70
     0
102
RTVSPropertyOp9
 70
     0
102
RTVSPropertyOp10
 70
     0
102
RTVSPropertyOp11
 70
     0
102
RTVSPropertyOp12
 70
     0
102
RTVSPropertyOp13
 70
     0
102
RTVSPropertyOp14
 70
     2
102
RTVSPropertyOp15
 70
     0
102
RTVSPropertyOp16
 70
     0
102
RTVSPropertyOp17
 70
     0
102
RTVSPropertyOp18
 70
     0
102
RTVSPropertyOp19
 70
     0
102
RTVSPropertyOp20
 70
     0
102
RTVSPropertyOp21
 70
     0
102
RTVSPropertyOp22
 70
     0
102
RTVSPropertyOp23
 70
     0
102
RTVSPropertyOp24
 70
     0
102
RTVSPropertyOp25
 70
     0
102
RTVSPropertyOp26
 70
     0
102
RTVSPropertyOp27
 70
     0
102
RTVSPropertyOp28
 70
     0
102
RTVSPropertyOp29
 70
     0
102
RTVSPropertyOp30
 70
     0
102
RTVSPropertyOp31
 70
     0
102
RTVSPropertyOp32
 70
     0
102
RTVSPropertyOp33
 70
     0
102
RTVSPropertyOp34
 70
     0
102
RTVSPropertyOp35
 70
     0
102
RTVSPropertyOp36
 70
     0
102
RTVSPropertyOp37
 70
     0
102
RTVSPropertyOp38
 70
     0
102
RTVSPropertyOp39
 70
     0
102
RTVSPropertyOp40
 70
     0
102
RTVSPropertyOp41
 70
     0
102
RTVSPropertyOp42
 70
     0
102
RTVSPropertyOp43
 70
     0
102
RTVSPropertyOp44
 70
     0
102
RTVSPropertyOp45
 70
     0
102
RTVSPropertyOp46
 70
     0
102
RTVSPropertyOp47
 70
     0
102
RTVSPropertyOp48
 70
     0
102
RTVSPropertyOp49
 70
     0
102
RTVSPropertyOp50
 70
     0
102
RTVSPropertyOp51
 70
     0
102
RTVSPropertyOp52
 70
     0
102
RTVSPropertyOp53
 70
     0
102
RTVSPropertyOp54
 70
     0
102
RTVSPropertyOp55
 70
     0
102
RTVSPropertyOp56
 70
     0
102
RTVSPropertyOp57
 70
     0
102
RTVSPost2010Prop28
280
     0
102
RTVSPost2010PropOp28
 70
     0
102
RTVSPost2010Prop29
280
     1
102
RTVSPost2010PropOp29
 70
     0
102
RTVSPost2010Prop30
280
     1
102
RTVSPost2010PropOp30
 70
     0
102
RTVSPost2010Prop31
280
     0
102
RTVSPost2010PropOp31
 70
     0
102
RTVSPost2010Prop32
280
     0
102
RTVSPost2010PropOp32
 70
     0
102
RTVSPost2010Prop33
280
     0
102
RTVSPost2010PropOp33
 70
     0
102
RTVSPost2010Prop34
280
     0
102
RTVSPost2010PropOp34
 70
     0
102
RTVSPost2010Prop35
280
     0
102
RTVSPost2010PropOp35
 70
     0
102
RTVSPost2010Prop36
280
     0
102
RTVSPost2010PropOp36
 70
     0
102
RTVSPost2010Prop37
 90
       50
102
RTVSPost2010PropOp37
 70
     0
102
RTVSPost2010Prop38
140
0.0
102
RTVSPost2010PropOp38
 70
     0
102
RTVSPost2010Prop39
140
1.0
102
RTVSPost2010PropOp39
 70
     0
102
RTVSPost2010Prop40
 90
        0
102
RTVSPost2010PropOp40
 70
     0
102
RTVSPost2010Prop41ColorIndex
 90
       18
102
RTVSPost2010Prop41ColorRGB
 90
        0
102
RTVSPost2010PropOp41
 70
     0
102
RTVSPost2010Prop42
 90
       50
102
RTVSPost2010PropOp42
 70
     0
102
RTVSPost2010Prop43
 90
        3
102
RTVSPost2010PropOp43
 70
     0
102
RTVSPost2010Prop44ColorIndex
 90
        5
102
RTVSPost2010Prop44ColorRGB
 90
      255
102
RTVSPost2010PropOp44
 70
     0
102
RTVSPost2010Prop45
280
     0
102
RTVSPost2010PropOp45
 70
     0
102
RTVSPost2010Prop46
 90
       50
102
RTVSPost2010PropOp46
 70
     0
102
RTVSPost2010Prop47
 90
       50
102
RTVSPost2010PropOp47
 70
     0
102
RTVSPost2010Prop48
 90
       50
102
RTVSPost2010PropOp48
 70
     0
102
RTVSPost2010Prop49
280
     0
102
RTVSPost2010PropOp49
 70
     0
102
RTVSPost2010Prop50
 90
       50
102
RTVSPost2010PropOp50
 70
     0
102
RTVSPost2010Prop51ColorIndex
 90
      256
102
RTVSPost2010Prop51ColorRGB
 90
-16777216
102
RTVSPost2010PropOp51
 70
     0
102
RTVSPost2010Prop52
140
1.0
102
RTVSPost2010PropOp52
 70
     0
102
RTVSPost2010Prop53
 90
        2
102
RTVSPost2010PropOp53
 70
     0
102
RTVSPost2010Prop54
  1
strokes_ogs.tif
102
RTVSPost2010PropOp54
 70
     0
102
RTVSPost2010Prop55
280
     0
102
RTVSPost2010PropOp55
 70
     0
102
RTVSPost2010Prop56
140
1.0
102
RTVSPost2010PropOp56
 70
     0
102
RTVSPost2010Prop57
140
1.0
102
RTVSPost2010PropOp57
 70
     0
  0
XRECORD
  5
A1
102
{ACAD_REACTORS
330
A0
102
}
330
A0
100
AcDbXrecord
280
     1
102
RTVSPropertyOp0
 70
     1
102
RTVSPropertyOp1
 70
     1
102
RTVSPropertyOp2
 70
     1
102
RTVSPropertyOp3
 70
     1
102
RTVSPropertyOp4
 70
     1
102
RTVSPropertyOp5
 70
     1
102
RTVSPropertyOp6
 70
     1
102
RTVSPropertyOp7
 70
     1
102
RTVSPropertyOp8
 70
     1
102
RTVSPropertyOp9
 70
     1
102
RTVSPropertyOp10
 70
     1
102
RTVSPropertyOp11
 70
     1
102
RTVSPropertyOp12
 70
     1
102
RTVSPropertyOp13
 70
     1
102
RTVSPropertyOp14
 70
     1
102
RTVSPropertyOp15
 70
     1
102
RTVSPropertyOp16
 70
     1
102
RTVSPropertyOp17
 70
     1
102
RTVSPropertyOp18
 70
     1
102
RTVSPropertyOp19
 70
     1
102
RTVSPropertyOp20
 70
     1
102
RTVSPropertyOp21
 70
     1
102
RTVSPropertyOp22
 70
     1
102
RTVSPropertyOp23
 70
     1
102
RTVSPropertyOp24
 70
     1
102
RTVSPropertyOp25
 70
     1
102
RTVSPropertyOp26
 70
     1
102
RTVSPropertyOp27
 70
     1
102
RTVSPropertyOp28
 70
     1
102
RTVSPropertyOp29
 70
     1
102
RTVSPropertyOp30
 70
     1
102
RTVSPropertyOp31
 70
     1
102
RTVSPropertyOp32
 70
     1
102
RTVSPropertyOp33
 70
     1
102
RTVSPropertyOp34
 70
     1
102
RTVSPropertyOp35
 70
     1
102
RTVSPropertyOp36
 70
     1
102
RTVSPropertyOp37
 70
     1
102
RTVSPropertyOp38
 70
     1
102
RTVSPropertyOp39
 70
     1
102
RTVSPropertyOp40
 70
     1
102
RTVSPropertyOp41
 70
     1
102
RTVSPropertyOp42
 70
     1
102
RTVSPropertyOp43
 70
     1
102
RTVSPropertyOp44
 70
     1
102
RTVSPropertyOp45
 70
     1
102
RTVSPropertyOp46
 70
     1
102
RTVSPropertyOp47
 70
     1
102
RTVSPropertyOp48
 70
     1
102
RTVSPropertyOp49
 70
     1
102
RTVSPropertyOp50
 70
     1
102
RTVSPropertyOp51
 70
     0
102
RTVSPropertyOp52
 70
     0
102
RTVSPropertyOp53
 70
     1
102
RTVSPropertyOp54
 70
     1
102
RTVSPropertyOp55
 70
     1
102
RTVSPropertyOp56
 70
     1
102
RTVSPropertyOp57
 70
     1
102
RTVSPost2010Prop28
280
     0
102
RTVSPost2010PropOp28
 70
     1
102
RTVSPost2010Prop29
280
     1
102
RTVSPost2010PropOp29
 70
     1
102
RTVSPost2010Prop30
280
     1
102
RTVSPost2010PropOp30
 70
     1
102
RTVSPost2010Prop31
280
     0
102
RTVSPost2010PropOp31
 70
     1
102
RTVSPost2010Prop32
280
     0
102
RTVSPost2010PropOp32
 70
     1
102
RTVSPost2010Prop33
280
     0
102
RTVSPost2010PropOp33
 70
     1
102
RTVSPost2010Prop34
280
     0
102
RTVSPost2010PropOp34
 70
     1
102
RTVSPost2010Prop35
280
     0
102
RTVSPost2010PropOp35
 70
     1
102
RTVSPost2010Prop36
280
     0
102
RTVSPost2010PropOp36
 70
     1
102
RTVSPost2010Prop37
 90
       50
102
RTVSPost2010PropOp37
 70
     1
102
RTVSPost2010Prop38
140
0.0
102
RTVSPost2010PropOp38
 70
     1
102
RTVSPost2010Prop39
140
1.0
102
RTVSPost2010PropOp39
 70
     1
102
RTVSPost2010Prop40
 90
        0
102
RTVSPost2010PropOp40
 70
     1
102
RTVSPost2010Prop41ColorIndex
 90
       18
102
RTVSPost2010Prop41ColorRGB
 90
        0
102
RTVSPost2010PropOp41
 70
     1
102
RTVSPost2010Prop42
 90
       50
102
RTVSPost2010PropOp42
 70
     1
102
RTVSPost2010Prop43
 90
        3
102
RTVSPost2010PropOp43
 70
     1
102
RTVSPost2010Prop44ColorIndex
 90
        5
102
RTVSPost2010Prop44ColorRGB
 90
      255
102
RTVSPost2010PropOp44
 70
     1
102
RTVSPost2010Prop45
280
     0
102
RTVSPost2010PropOp45
 70
     1
102
RTVSPost2010Prop46
 90
       50
102
RTVSPost2010PropOp46
 70
     1
102
RTVSPost2010Prop47
 90
       50
102
RTVSPost2010PropOp47
 70
     1
102
RTVSPost2010Prop48
 90
       50
102
RTVSPost2010PropOp48
 70
     1
102
RTVSPost2010Prop49
280
     0
102
RTVSPost2010PropOp49
 70
     1
102
RTVSPost2010Prop50
 90
       50
102
RTVSPost2010PropOp50
 70
     1
102
RTVSPost2010Prop51ColorIndex
 90
      256
102
RTVSPost2010Prop51ColorRGB
 90
-16777216
102
RTVSPost2010PropOp51
 70
     0
102
RTVSPost2010Prop52
140
1.0
102
RTVSPost2010PropOp52
 70
     0
102
RTVSPost2010Prop53
 90
        2
102
RTVSPost2010PropOp53
 70
     1
102
RTVSPost2010Prop54
  1
strokes_ogs.tif
102
RTVSPost2010PropOp54
 70
     1
102
RTVSPost2010Prop55
280
     0
102
RTVSPost2010PropOp55
 70
     1
102
RTVSPost2010Prop56
140
1.0
102
RTVSPost2010PropOp56
 70
     1
102
RTVSPost2010Prop57
140
1.0
102
RTVSPost2010PropOp57
 70
     1
  0
XRECORD
  5
85
102
{ACAD_REACTORS
330
84
102
}
330
84
100
AcDbXrecord
280
     1
102
RTVSPropertyOp0
 70
     1
102
RTVSPropertyOp1
 70
     1
102
RTVSPropertyOp2
 70
     1
102
RTVSPropertyOp3
 70
     1
102
RTVSPropertyOp4
 70
     1
102
RTVSPropertyOp5
 70
     1
102
RTVSPropertyOp6
 70
     1
102
RTVSPropertyOp7
 70
     1
102
RTVSPropertyOp8
 70
     1
102
RTVSPropertyOp9
 70
     1
102
RTVSPropertyOp10
 70
     1
102
RTVSPropertyOp11
 70
     1
102
RTVSPropertyOp12
 70
     1
102
RTVSPropertyOp13
 70
     1
102
RTVSPropertyOp14
 70
     1
102
RTVSPropertyOp15
 70
     1
102
RTVSPropertyOp16
 70
     1
102
RTVSPropertyOp17
 70
     1
102
RTVSPropertyOp18
 70
     1
102
RTVSPropertyOp19
 70
     1
102
RTVSPropertyOp20
 70
     1
102
RTVSPropertyOp21
 70
     1
102
RTVSPropertyOp22
 70
     1
102
RTVSPropertyOp23
 70
     1
102
RTVSPropertyOp24
 70
     1
102
RTVSPropertyOp25
 70
     1
102
RTVSPropertyOp26
 70
     1
102
RTVSPropertyOp27
 70
     1
102
RTVSPropertyOp28
 70
     1
102
RTVSPropertyOp29
 70
     1
102
RTVSPropertyOp30
 70
     1
102
RTVSPropertyOp31
 70
     1
102
RTVSPropertyOp32
 70
     1
102
RTVSPropertyOp33
 70
     1
102
RTVSPropertyOp34
 70
     1
102
RTVSPropertyOp35
 70
     1
102
RTVSPropertyOp36
 70
     1
102
RTVSPropertyOp37
 70
     1
102
RTVSPropertyOp38
 70
     1
102
RTVSPropertyOp39
 70
     1
102
RTVSPropertyOp40
 70
     1
102
RTVSPropertyOp41
 70
     1
102
RTVSPropertyOp42
 70
     1
102
RTVSPropertyOp43
 70
     1
102
RTVSPropertyOp44
 70
     1
102
RTVSPropertyOp45
 70
     1
102
RTVSPropertyOp46
 70
     1
102
RTVSPropertyOp47
 70
     1
102
RTVSPropertyOp48
 70
     1
102
RTVSPropertyOp49
 70
     1
102
RTVSPropertyOp50
 70
     1
102
RTVSPropertyOp51
 70
     0
102
RTVSPropertyOp52
 70
     0
102
RTVSPropertyOp53
 70
     1
102
RTVSPropertyOp54
 70
     1
102
RTVSPropertyOp55
 70
     1
102
RTVSPropertyOp56
 70
     1
102
RTVSPropertyOp57
 70
     1
102
RTVSPost2010Prop28
280
     0
102
RTVSPost2010PropOp28
 70
     1
102
RTVSPost2010Prop29
280
     1
102
RTVSPost2010PropOp29
 70
     1
102
RTVSPost2010Prop30
280
     1
102
RTVSPost2010PropOp30
 70
     1
102
RTVSPost2010Prop31
280
     0
102
RTVSPost2010PropOp31
 70
     1
102
RTVSPost2010Prop32
280
     0
102
RTVSPost2010PropOp32
 70
     1
102
RTVSPost2010Prop33
280
     0
102
RTVSPost2010PropOp33
 70
     1
102
RTVSPost2010Prop34
280
     0
102
RTVSPost2010PropOp34
 70
     1
102
RTVSPost2010Prop35
280
     0
102
RTVSPost2010PropOp35
 70
     1
102
RTVSPost2010Prop36
280
     0
102
RTVSPost2010PropOp36
 70
     1
102
RTVSPost2010Prop37
 90
       50
102
RTVSPost2010PropOp37
 70
     1
102
RTVSPost2010Prop38
140
0.0
102
RTVSPost2010PropOp38
 70
     1
102
RTVSPost2010Prop39
140
1.0
102
RTVSPost2010PropOp39
 70
     1
102
RTVSPost2010Prop40
 90
        0
102
RTVSPost2010PropOp40
 70
     1
102
RTVSPost2010Prop41ColorIndex
 90
       18
102
RTVSPost2010Prop41ColorRGB
 90
        0
102
RTVSPost2010PropOp41
 70
     1
102
RTVSPost2010Prop42
 90
       50
102
RTVSPost2010PropOp42
 70
     1
102
RTVSPost2010Prop43
 90
        3
102
RTVSPost2010PropOp43
 70
     1
102
RTVSPost2010Prop44ColorIndex
 90
        5
102
RTVSPost2010Prop44ColorRGB
 90
      255
102
RTVSPost2010PropOp44
 70
     1
102
RTVSPost2010Prop45
280
     0
102
RTVSPost2010PropOp45
 70
     1
102
RTVSPost2010Prop46
 90
       50
102
RTVSPost2010PropOp46
 70
     1
102
RTVSPost2010Prop47
 90
       50
102
RTVSPost2010PropOp47
 70
     1
102
RTVSPost2010Prop48
 90
       50
102
RTVSPost2010PropOp48
 70
     1
102
RTVSPost2010Prop49
280
     0
102
RTVSPost2010PropOp49
 70
     1
102
RTVSPost2010Prop50
 90
       50
102
RTVSPost2010PropOp50
 70
     1
102
RTVSPost2010Prop51ColorIndex
 90
      256
102
RTVSPost2010Prop51ColorRGB
 90
-16777216
102
RTVSPost2010PropOp51
 70
     0
102
RTVSPost2010Prop52
140
1.0
102
RTVSPost2010PropOp52
 70
     0
102
RTVSPost2010Prop53
 90
        2
102
RTVSPost2010PropOp53
 70
     1
102
RTVSPost2010Prop54
  1
strokes_ogs.tif
102
RTVSPost2010PropOp54
 70
     1
102
RTVSPost2010Prop55
280
     0
102
RTVSPost2010PropOp55
 70
     1
102
RTVSPost2010Prop56
140
1.0
102
RTVSPost2010PropOp56
 70
     1
102
RTVSPost2010Prop57
140
1.0
102
RTVSPost2010PropOp57
 70
     1
  0
XRECORD
  5
87
102
{ACAD_REACTORS
330
86
102
}
330
86
100
AcDbXrecord
280
     1
102
RTVSPropertyOp0
 70
     1
102
RTVSPropertyOp1
 70
     1
102
RTVSPropertyOp2
 70
     1
102
RTVSPropertyOp3
 70
     1
102
RTVSPropertyOp4
 70
     1
102
RTVSPropertyOp5
 70
     1
102
RTVSPropertyOp6
 70
     1
102
RTVSPropertyOp7
 70
     1
102
RTVSPropertyOp8
 70
     1
102
RTVSPropertyOp9
 70
     1
102
RTVSPropertyOp10
 70
     1
102
RTVSPropertyOp11
 70
     1
102
RTVSPropertyOp12
 70
     1
102
RTVSPropertyOp13
 70
     1
102
RTVSPropertyOp14
 70
     1
102
RTVSPropertyOp15
 70
     1
102
RTVSPropertyOp16
 70
     1
102
RTVSPropertyOp17
 70
     1
102
RTVSPropertyOp18
 70
     1
102
RTVSPropertyOp19
 70
     1
102
RTVSPropertyOp20
 70
     1
102
RTVSPropertyOp21
 70
     1
102
RTVSPropertyOp22
 70
     1
102
RTVSPropertyOp23
 70
     1
102
RTVSPropertyOp24
 70
     1
102
RTVSPropertyOp25
 70
     1
102
RTVSPropertyOp26
 70
     1
102
RTVSPropertyOp27
 70
     1
102
RTVSPropertyOp28
 70
     1
102
RTVSPropertyOp29
 70
     1
102
RTVSPropertyOp30
 70
     1
102
RTVSPropertyOp31
 70
     1
102
RTVSPropertyOp32
 70
     1
102
RTVSPropertyOp33
 70
     1
102
RTVSPropertyOp34
 70
     1
102
RTVSPropertyOp35
 70
     1
102
RTVSPropertyOp36
 70
     1
102
RTVSPropertyOp37
 70
     1
102
RTVSPropertyOp38
 70
     1
102
RTVSPropertyOp39
 70
     1
102
RTVSPropertyOp40
 70
     1
102
RTVSPropertyOp41
 70
     1
102
RTVSPropertyOp42
 70
     1
102
RTVSPropertyOp43
 70
     1
102
RTVSPropertyOp44
 70
     1
102
RTVSPropertyOp45
 70
     1
102
RTVSPropertyOp46
 70
     1
102
RTVSPropertyOp47
 70
     1
102
RTVSPropertyOp48
 70
     1
102
RTVSPropertyOp49
 70
     1
102
RTVSPropertyOp50
 70
     1
102
RTVSPropertyOp51
 70
     0
102
RTVSPropertyOp52
 70
     0
102
RTVSPropertyOp53
 70
     1
102
RTVSPropertyOp54
 70
     1
102
RTVSPropertyOp55
 70
     1
102
RTVSPropertyOp56
 70
     1
102
RTVSPropertyOp57
 70
     1
102
RTVSPost2010Prop28
280
     0
102
RTVSPost2010PropOp28
 70
     1
102
RTVSPost2010Prop29
280
     1
102
RTVSPost2010PropOp29
 70
     1
102
RTVSPost2010Prop30
280
     1
102
RTVSPost2010PropOp30
 70
     1
102
RTVSPost2010Prop31
280
     0
102
RTVSPost2010PropOp31
 70
     1
102
RTVSPost2010Prop32
280
     0
102
RTVSPost2010PropOp32
 70
     1
102
RTVSPost2010Prop33
280
     0
102
RTVSPost2010PropOp33
 70
     1
102
RTVSPost2010Prop34
280
     0
102
RTVSPost2010PropOp34
 70
     1
102
RTVSPost2010Prop35
280
     0
102
RTVSPost2010PropOp35
 70
     1
102
RTVSPost2010Prop36
280
     0
102
RTVSPost2010PropOp36
 70
     1
102
RTVSPost2010Prop37
 90
       50
102
RTVSPost2010PropOp37
 70
     1
102
RTVSPost2010Prop38
140
0.0
102
RTVSPost2010PropOp38
 70
     1
102
RTVSPost2010Prop39
140
1.0
102
RTVSPost2010PropOp39
 70
     1
102
RTVSPost2010Prop40
 90
        0
102
RTVSPost2010PropOp40
 70
     1
102
RTVSPost2010Prop41ColorIndex
 90
       18
102
RTVSPost2010Prop41ColorRGB
 90
        0
102
RTVSPost2010PropOp41
 70
     1
102
RTVSPost2010Prop42
 90
       50
102
RTVSPost2010PropOp42
 70
     1
102
RTVSPost2010Prop43
 90
        3
102
RTVSPost2010PropOp43
 70
     1
102
RTVSPost2010Prop44ColorIndex
 90
        5
102
RTVSPost2010Prop44ColorRGB
 90
      255
102
RTVSPost2010PropOp44
 70
     1
102
RTVSPost2010Prop45
280
     0
102
RTVSPost2010PropOp45
 70
     1
102
RTVSPost2010Prop46
 90
       50
102
RTVSPost2010PropOp46
 70
     1
102
RTVSPost2010Prop47
 90
       50
102
RTVSPost2010PropOp47
 70
     1
102
RTVSPost2010Prop48
 90
       50
102
RTVSPost2010PropOp48
 70
     1
102
RTVSPost2010Prop49
280
     0
102
RTVSPost2010PropOp49
 70
     1
102
RTVSPost2010Prop50
 90
       50
102
RTVSPost2010PropOp50
 70
     1
102
RTVSPost2010Prop51ColorIndex
 90
      256
102
RTVSPost2010Prop51ColorRGB
 90
-16777216
102
RTVSPost2010PropOp51
 70
     0
102
RTVSPost2010Prop52
140
1.0
102
RTVSPost2010PropOp52
 70
     0
102
RTVSPost2010Prop53
 90
        2
102
RTVSPost2010PropOp53
 70
     1
102
RTVSPost2010Prop54
  1
strokes_ogs.tif
102
RTVSPost2010PropOp54
 70
     1
102
RTVSPost2010Prop55
280
     0
102
RTVSPost2010PropOp55
 70
     1
102
RTVSPost2010Prop56
140
1.0
102
RTVSPost2010PropOp56
 70
     1
102
RTVSPost2010Prop57
140
1.0
102
RTVSPost2010PropOp57
 70
     1
  0
XRECORD
  5
89
102
{ACAD_REACTORS
330
88
102
}
330
88
100
AcDbXrecord
280
     1
102
RTVSPropertyOp0
 70
     1
102
RTVSPropertyOp1
 70
     1
102
RTVSPropertyOp2
 70
     1
102
RTVSPropertyOp3
 70
     1
102
RTVSPropertyOp4
 70
     1
102
RTVSPropertyOp5
 70
     1
102
RTVSPropertyOp6
 70
     1
102
RTVSPropertyOp7
 70
     1
102
RTVSPropertyOp8
 70
     1
102
RTVSPropertyOp9
 70
     1
102
RTVSPropertyOp10
 70
     1
102
RTVSPropertyOp11
 70
     1
102
RTVSPropertyOp12
 70
     1
102
RTVSPropertyOp13
 70
     1
102
RTVSPropertyOp14
 70
     1
102
RTVSPropertyOp15
 70
     1
102
RTVSPropertyOp16
 70
     1
102
RTVSPropertyOp17
 70
     1
102
RTVSPropertyOp18
 70
     1
102
RTVSPropertyOp19
 70
     1
102
RTVSPropertyOp20
 70
     1
102
RTVSPropertyOp21
 70
     1
102
RTVSPropertyOp22
 70
     1
102
RTVSPropertyOp23
 70
     1
102
RTVSPropertyOp24
 70
     1
102
RTVSPropertyOp25
 70
     1
102
RTVSPropertyOp26
 70
     1
102
RTVSPropertyOp27
 70
     1
102
RTVSPropertyOp28
 70
     1
102
RTVSPropertyOp29
 70
     1
102
RTVSPropertyOp30
 70
     1
102
RTVSPropertyOp31
 70
     1
102
RTVSPropertyOp32
 70
     1
102
RTVSPropertyOp33
 70
     1
102
RTVSPropertyOp34
 70
     1
102
RTVSPropertyOp35
 70
     1
102
RTVSPropertyOp36
 70
     1
102
RTVSPropertyOp37
 70
     1
102
RTVSPropertyOp38
 70
     1
102
RTVSPropertyOp39
 70
     1
102
RTVSPropertyOp40
 70
     1
102
RTVSPropertyOp41
 70
     1
102
RTVSPropertyOp42
 70
     1
102
RTVSPropertyOp43
 70
     1
102
RTVSPropertyOp44
 70
     1
102
RTVSPropertyOp45
 70
     1
102
RTVSPropertyOp46
 70
     1
102
RTVSPropertyOp47
 70
     1
102
RTVSPropertyOp48
 70
     1
102
RTVSPropertyOp49
 70
     1
102
RTVSPropertyOp50
 70
     1
102
RTVSPropertyOp51
 70
     0
102
RTVSPropertyOp52
 70
     0
102
RTVSPropertyOp53
 70
     1
102
RTVSPropertyOp54
 70
     1
102
RTVSPropertyOp55
 70
     1
102
RTVSPropertyOp56
 70
     1
102
RTVSPropertyOp57
 70
     1
102
RTVSPost2010Prop28
280
     0
102
RTVSPost2010PropOp28
 70
     1
102
RTVSPost2010Prop29
280
     1
102
RTVSPost2010PropOp29
 70
     1
102
RTVSPost2010Prop30
280
     1
102
RTVSPost2010PropOp30
 70
     1
102
RTVSPost2010Prop31
280
     0
102
RTVSPost2010PropOp31
 70
     1
102
RTVSPost2010Prop32
280
     0
102
RTVSPost2010PropOp32
 70
     1
102
RTVSPost2010Prop33
280
     0
102
RTVSPost2010PropOp33
 70
     1
102
RTVSPost2010Prop34
280
     0
102
RTVSPost2010PropOp34
 70
     1
102
RTVSPost2010Prop35
280
     0
102
RTVSPost2010PropOp35
 70
     1
102
RTVSPost2010Prop36
280
     0
102
RTVSPost2010PropOp36
 70
     1
102
RTVSPost2010Prop37
 90
       50
102
RTVSPost2010PropOp37
 70
     1
102
RTVSPost2010Prop38
140
0.0
102
RTVSPost2010PropOp38
 70
     1
102
RTVSPost2010Prop39
140
1.0
102
RTVSPost2010PropOp39
 70
     1
102
RTVSPost2010Prop40
 90
        0
102
RTVSPost2010PropOp40
 70
     1
102
RTVSPost2010Prop41ColorIndex
 90
       18
102
RTVSPost2010Prop41ColorRGB
 90
        0
102
RTVSPost2010PropOp41
 70
     1
102
RTVSPost2010Prop42
 90
       50
102
RTVSPost2010PropOp42
 70
     1
102
RTVSPost2010Prop43
 90
        3
102
RTVSPost2010PropOp43
 70
     1
102
RTVSPost2010Prop44ColorIndex
 90
        5
102
RTVSPost2010Prop44ColorRGB
 90
      255
102
RTVSPost2010PropOp44
 70
     1
102
RTVSPost2010Prop45
280
     0
102
RTVSPost2010PropOp45
 70
     1
102
RTVSPost2010Prop46
 90
       50
102
RTVSPost2010PropOp46
 70
     1
102
RTVSPost2010Prop47
 90
       50
102
RTVSPost2010PropOp47
 70
     1
102
RTVSPost2010Prop48
 90
       50
102
RTVSPost2010PropOp48
 70
     1
102
RTVSPost2010Prop49
280
     0
102
RTVSPost2010PropOp49
 70
     1
102
RTVSPost2010Prop50
 90
       50
102
RTVSPost2010PropOp50
 70
     1
102
RTVSPost2010Prop51ColorIndex
 90
      256
102
RTVSPost2010Prop51ColorRGB
 90
-16777216
102
RTVSPost2010PropOp51
 70
     0
102
RTVSPost2010Prop52
140
1.0
102
RTVSPost2010PropOp52
 70
     0
102
RTVSPost2010Prop53
 90
        2
102
RTVSPost2010PropOp53
 70
     1
102
RTVSPost2010Prop54
  1
strokes_ogs.tif
102
RTVSPost2010PropOp54
 70
     1
102
RTVSPost2010Prop55
280
     0
102
RTVSPost2010PropOp55
 70
     1
102
RTVSPost2010Prop56
140
1.0
102
RTVSPost2010PropOp56
 70
     1
102
RTVSPost2010Prop57
140
1.0
102
RTVSPost2010PropOp57
 70
     1
  0
XRECORD
  5
8B
102
{ACAD_REACTORS
330
8A
102
}
330
8A
100
AcDbXrecord
280
     1
102
RTVSPropertyOp0
 70
     1
102
RTVSPropertyOp1
 70
     1
102
RTVSPropertyOp2
 70
     1
102
RTVSPropertyOp3
 70
     1
102
RTVSPropertyOp4
 70
     1
102
RTVSPropertyOp5
 70
     1
102
RTVSPropertyOp6
 70
     1
102
RTVSPropertyOp7
 70
     1
102
RTVSPropertyOp8
 70
     1
102
RTVSPropertyOp9
 70
     1
102
RTVSPropertyOp10
 70
     1
102
RTVSPropertyOp11
 70
     1
102
RTVSPropertyOp12
 70
     1
102
RTVSPropertyOp13
 70
     1
102
RTVSPropertyOp14
 70
     1
102
RTVSPropertyOp15
 70
     1
102
RTVSPropertyOp16
 70
     1
102
RTVSPropertyOp17
 70
     1
102
RTVSPropertyOp18
 70
     1
102
RTVSPropertyOp19
 70
     1
102
RTVSPropertyOp20
 70
     1
102
RTVSPropertyOp21
 70
     1
102
RTVSPropertyOp22
 70
     1
102
RTVSPropertyOp23
 70
     1
102
RTVSPropertyOp24
 70
     1
102
RTVSPropertyOp25
 70
     1
102
RTVSPropertyOp26
 70
     1
102
RTVSPropertyOp27
 70
     1
102
RTVSPropertyOp28
 70
     1
102
RTVSPropertyOp29
 70
     1
102
RTVSPropertyOp30
 70
     1
102
RTVSPropertyOp31
 70
     1
102
RTVSPropertyOp32
 70
     1
102
RTVSPropertyOp33
 70
     1
102
RTVSPropertyOp34
 70
     1
102
RTVSPropertyOp35
 70
     1
102
RTVSPropertyOp36
 70
     1
102
RTVSPropertyOp37
 70
     1
102
RTVSPropertyOp38
 70
     1
102
RTVSPropertyOp39
 70
     1
102
RTVSPropertyOp40
 70
     1
102
RTVSPropertyOp41
 70
     1
102
RTVSPropertyOp42
 70
     1
102
RTVSPropertyOp43
 70
     1
102
RTVSPropertyOp44
 70
     1
102
RTVSPropertyOp45
 70
     1
102
RTVSPropertyOp46
 70
     1
102
RTVSPropertyOp47
 70
     1
102
RTVSPropertyOp48
 70
     1
102
RTVSPropertyOp49
 70
     1
102
RTVSPropertyOp50
 70
     1
102
RTVSPropertyOp51
 70
     0
102
RTVSPropertyOp52
 70
     0
102
RTVSPropertyOp53
 70
     1
102
RTVSPropertyOp54
 70
     1
102
RTVSPropertyOp55
 70
     1
102
RTVSPropertyOp56
 70
     1
102
RTVSPropertyOp57
 70
     1
102
RTVSPost2010Prop28
280
     0
102
RTVSPost2010PropOp28
 70
     1
102
RTVSPost2010Prop29
280
     1
102
RTVSPost2010PropOp29
 70
     1
102
RTVSPost2010Prop30
280
     1
102
RTVSPost2010PropOp30
 70
     1
102
RTVSPost2010Prop31
280
     0
102
RTVSPost2010PropOp31
 70
     1
102
RTVSPost2010Prop32
280
     0
102
RTVSPost2010PropOp32
 70
     1
102
RTVSPost2010Prop33
280
     0
102
RTVSPost2010PropOp33
 70
     1
102
RTVSPost2010Prop34
280
     0
102
RTVSPost2010PropOp34
 70
     1
102
RTVSPost2010Prop35
280
     0
102
RTVSPost2010PropOp35
 70
     1
102
RTVSPost2010Prop36
280
     0
102
RTVSPost2010PropOp36
 70
     1
102
RTVSPost2010Prop37
 90
       50
102
RTVSPost2010PropOp37
 70
     1
102
RTVSPost2010Prop38
140
0.0
102
RTVSPost2010PropOp38
 70
     1
102
RTVSPost2010Prop39
140
1.0
102
RTVSPost2010PropOp39
 70
     1
102
RTVSPost2010Prop40
 90
        0
102
RTVSPost2010PropOp40
 70
     1
102
RTVSPost2010Prop41ColorIndex
 90
       18
102
RTVSPost2010Prop41ColorRGB
 90
        0
102
RTVSPost2010PropOp41
 70
     1
102
RTVSPost2010Prop42
 90
       50
102
RTVSPost2010PropOp42
 70
     1
102
RTVSPost2010Prop43
 90
        3
102
RTVSPost2010PropOp43
 70
     1
102
RTVSPost2010Prop44ColorIndex
 90
        5
102
RTVSPost2010Prop44ColorRGB
 90
      255
102
RTVSPost2010PropOp44
 70
     1
102
RTVSPost2010Prop45
280
     0
102
RTVSPost2010PropOp45
 70
     1
102
RTVSPost2010Prop46
 90
       50
102
RTVSPost2010PropOp46
 70
     1
102
RTVSPost2010Prop47
 90
       50
102
RTVSPost2010PropOp47
 70
     1
102
RTVSPost2010Prop48
 90
       50
102
RTVSPost2010PropOp48
 70
     1
102
RTVSPost2010Prop49
280
     0
102
RTVSPost2010PropOp49
 70
     1
102
RTVSPost2010Prop50
 90
       50
102
RTVSPost2010PropOp50
 70
     1
102
RTVSPost2010Prop51ColorIndex
 90
      256
102
RTVSPost2010Prop51ColorRGB
 90
-16777216
102
RTVSPost2010PropOp51
 70
     0
102
RTVSPost2010Prop52
140
1.0
102
RTVSPost2010PropOp52
 70
     0
102
RTVSPost2010Prop53
 90
        2
102
RTVSPost2010PropOp53
 70
     1
102
RTVSPost2010Prop54
  1
strokes_ogs.tif
102
RTVSPost2010PropOp54
 70
     1
102
RTVSPost2010Prop55
280
     0
102
RTVSPost2010PropOp55
 70
     1
102
RTVSPost2010Prop56
140
1.0
102
RTVSPost2010PropOp56
 70
     1
102
RTVSPost2010Prop57
140
1.0
102
RTVSPost2010PropOp57
 70
     1
  0
XRECORD
  5
91
102
{ACAD_REACTORS
330
90
102
}
330
90
100
AcDbXrecord
280
     1
102
RTVSPropertyOp0
 70
     1
102
RTVSPropertyOp1
 70
     1
102
RTVSPropertyOp2
 70
     1
102
RTVSPropertyOp3
 70
     1
102
RTVSPropertyOp4
 70
     1
102
RTVSPropertyOp5
 70
     1
102
RTVSPropertyOp6
 70
     1
102
RTVSPropertyOp7
 70
     1
102
RTVSPropertyOp8
 70
     1
102
RTVSPropertyOp9
 70
     1
102
RTVSPropertyOp10
 70
     1
102
RTVSPropertyOp11
 70
     1
102
RTVSPropertyOp12
 70
     1
102
RTVSPropertyOp13
 70
     1
102
RTVSPropertyOp14
 70
     1
102
RTVSPropertyOp15
 70
     1
102
RTVSPropertyOp16
 70
     1
102
RTVSPropertyOp17
 70
     1
102
RTVSPropertyOp18
 70
     1
102
RTVSPropertyOp19
 70
     1
102
RTVSPropertyOp20
 70
     1
102
RTVSPropertyOp21
 70
     1
102
RTVSPropertyOp22
 70
     1
102
RTVSPropertyOp23
 70
     1
102
RTVSPropertyOp24
 70
     1
102
RTVSPropertyOp25
 70
     1
102
RTVSPropertyOp26
 70
     1
102
RTVSPropertyOp27
 70
     1
102
RTVSPropertyOp28
 70
     1
102
RTVSPropertyOp29
 70
     1
102
RTVSPropertyOp30
 70
     1
102
RTVSPropertyOp31
 70
     1
102
RTVSPropertyOp32
 70
     1
102
RTVSPropertyOp33
 70
     1
102
RTVSPropertyOp34
 70
     1
102
RTVSPropertyOp35
 70
     1
102
RTVSPropertyOp36
 70
     1
102
RTVSPropertyOp37
 70
     1
102
RTVSPropertyOp38
 70
     1
102
RTVSPropertyOp39
 70
     1
102
RTVSPropertyOp40
 70
     1
102
RTVSPropertyOp41
 70
     1
102
RTVSPropertyOp42
 70
     1
102
RTVSPropertyOp43
 70
     1
102
RTVSPropertyOp44
 70
     1
102
RTVSPropertyOp45
 70
     1
102
RTVSPropertyOp46
 70
     1
102
RTVSPropertyOp47
 70
     1
102
RTVSPropertyOp48
 70
     1
102
RTVSPropertyOp49
 70
     1
102
RTVSPropertyOp50
 70
     1
102
RTVSPropertyOp51
 70
     0
102
RTVSPropertyOp52
 70
     0
102
RTVSPropertyOp53
 70
     1
102
RTVSPropertyOp54
 70
     1
102
RTVSPropertyOp55
 70
     1
102
RTVSPropertyOp56
 70
     1
102
RTVSPropertyOp57
 70
     1
102
RTVSPost2010Prop28
280
     0
102
RTVSPost2010PropOp28
 70
     1
102
RTVSPost2010Prop29
280
     1
102
RTVSPost2010PropOp29
 70
     1
102
RTVSPost2010Prop30
280
     1
102
RTVSPost2010PropOp30
 70
     1
102
RTVSPost2010Prop31
280
     0
102
RTVSPost2010PropOp31
 70
     1
102
RTVSPost2010Prop32
280
     0
102
RTVSPost2010PropOp32
 70
     1
102
RTVSPost2010Prop33
280
     0
102
RTVSPost2010PropOp33
 70
     1
102
RTVSPost2010Prop34
280
     0
102
RTVSPost2010PropOp34
 70
     1
102
RTVSPost2010Prop35
280
     0
102
RTVSPost2010PropOp35
 70
     1
102
RTVSPost2010Prop36
280
     0
102
RTVSPost2010PropOp36
 70
     1
102
RTVSPost2010Prop37
 90
       50
102
RTVSPost2010PropOp37
 70
     1
102
RTVSPost2010Prop38
140
0.0
102
RTVSPost2010PropOp38
 70
     1
102
RTVSPost2010Prop39
140
1.0
102
RTVSPost2010PropOp39
 70
     1
102
RTVSPost2010Prop40
 90
        0
102
RTVSPost2010PropOp40
 70
     1
102
RTVSPost2010Prop41ColorIndex
 90
       18
102
RTVSPost2010Prop41ColorRGB
 90
        0
102
RTVSPost2010PropOp41
 70
     1
102
RTVSPost2010Prop42
 90
       50
102
RTVSPost2010PropOp42
 70
     1
102
RTVSPost2010Prop43
 90
        3
102
RTVSPost2010PropOp43
 70
     1
102
RTVSPost2010Prop44ColorIndex
 90
        5
102
RTVSPost2010Prop44ColorRGB
 90
      255
102
RTVSPost2010PropOp44
 70
     1
102
RTVSPost2010Prop45
280
     0
102
RTVSPost2010PropOp45
 70
     1
102
RTVSPost2010Prop46
 90
       50
102
RTVSPost2010PropOp46
 70
     1
102
RTVSPost2010Prop47
 90
       50
102
RTVSPost2010PropOp47
 70
     1
102
RTVSPost2010Prop48
 90
       50
102
RTVSPost2010PropOp48
 70
     1
102
RTVSPost2010Prop49
280
     0
102
RTVSPost2010PropOp49
 70
     1
102
RTVSPost2010Prop50
 90
       50
102
RTVSPost2010PropOp50
 70
     1
102
RTVSPost2010Prop51ColorIndex
 90
      256
102
RTVSPost2010Prop51ColorRGB
 90
-16777216
102
RTVSPost2010PropOp51
 70
     0
102
RTVSPost2010Prop52
140
1.0
102
RTVSPost2010PropOp52
 70
     0
102
RTVSPost2010Prop53
 90
        2
102
RTVSPost2010PropOp53
 70
     1
102
RTVSPost2010Prop54
  1
strokes_ogs.tif
102
RTVSPost2010PropOp54
 70
     1
102
RTVSPost2010Prop55
280
     0
102
RTVSPost2010PropOp55
 70
     1
102
RTVSPost2010Prop56
140
1.0
102
RTVSPost2010PropOp56
 70
     1
102
RTVSPost2010Prop57
140
1.0
102
RTVSPost2010PropOp57
 70
     1
  0
XRECORD
  5
A5
102
{ACAD_REACTORS
330
A4
102
}
330
A4
100
AcDbXrecord
280
     1
102
RTVSPropertyOp0
 70
     0
102
RTVSPropertyOp1
 70
     0
102
RTVSPropertyOp2
 70
     0
102
RTVSPropertyOp3
 70
     0
102
RTVSPropertyOp4
 70
     0
102
RTVSPropertyOp5
 70
     0
102
RTVSPropertyOp6
 70
     0
102
RTVSPropertyOp7
 70
     0
102
RTVSPropertyOp8
 70
     0
102
RTVSPropertyOp9
 70
     0
102
RTVSPropertyOp10
 70
     0
102
RTVSPropertyOp11
 70
     0
102
RTVSPropertyOp12
 70
     0
102
RTVSPropertyOp13
 70
     0
102
RTVSPropertyOp14
 70
     2
102
RTVSPropertyOp15
 70
     0
102
RTVSPropertyOp16
 70
     0
102
RTVSPropertyOp17
 70
     0
102
RTVSPropertyOp18
 70
     0
102
RTVSPropertyOp19
 70
     0
102
RTVSPropertyOp20
 70
     0
102
RTVSPropertyOp21
 70
     0
102
RTVSPropertyOp22
 70
     0
102
RTVSPropertyOp23
 70
     0
102
RTVSPropertyOp24
 70
     0
102
RTVSPropertyOp25
 70
     0
102
RTVSPropertyOp26
 70
     0
102
RTVSPropertyOp27
 70
     0
102
RTVSPropertyOp28
 70
     0
102
RTVSPropertyOp29
 70
     0
102
RTVSPropertyOp30
 70
     0
102
RTVSPropertyOp31
 70
     0
102
RTVSPropertyOp32
 70
     0
102
RTVSPropertyOp33
 70
     0
102
RTVSPropertyOp34
 70
     0
102
RTVSPropertyOp35
 70
     0
102
RTVSPropertyOp36
 70
     0
102
RTVSPropertyOp37
 70
     0
102
RTVSPropertyOp38
 70
     0
102
RTVSPropertyOp39
 70
     0
102
RTVSPropertyOp40
 70
     0
102
RTVSPropertyOp41
 70
     0
102
RTVSPropertyOp42
 70
     0
102
RTVSPropertyOp43
 70
     0
102
RTVSPropertyOp44
 70
     0
102
RTVSPropertyOp45
 70
     0
102
RTVSPropertyOp46
 70
     0
102
RTVSPropertyOp47
 70
     0
102
RTVSPropertyOp48
 70
     0
102
RTVSPropertyOp49
 70
     0
102
RTVSPropertyOp50
 70
     0
102
RTVSPropertyOp51
 70
     0
102
RTVSPropertyOp52
 70
     0
102
RTVSPropertyOp53
 70
     0
102
RTVSPropertyOp54
 70
     0
102
RTVSPropertyOp55
 70
     0
102
RTVSPropertyOp56
 70
     0
102
RTVSPropertyOp57
 70
     0
102
RTVSPost2010Prop28
280
     0
102
RTVSPost2010PropOp28
 70
     0
102
RTVSPost2010Prop29
280
     1
102
RTVSPost2010PropOp29
 70
     0
102
RTVSPost2010Prop30
280
     1
102
RTVSPost2010PropOp30
 70
     0
102
RTVSPost2010Prop31
280
     0
102
RTVSPost2010PropOp31
 70
     0
102
RTVSPost2010Prop32
280
     0
102
RTVSPost2010PropOp32
 70
     0
102
RTVSPost2010Prop33
280
     0
102
RTVSPost2010PropOp33
 70
     0
102
RTVSPost2010Prop34
280
     0
102
RTVSPost2010PropOp34
 70
     0
102
RTVSPost2010Prop35
280
     0
102
RTVSPost2010PropOp35
 70
     0
102
RTVSPost2010Prop36
280
     0
102
RTVSPost2010PropOp36
 70
     0
102
RTVSPost2010Prop37
 90
       50
102
RTVSPost2010PropOp37
 70
     0
102
RTVSPost2010Prop38
140
0.0
102
RTVSPost2010PropOp38
 70
     0
102
RTVSPost2010Prop39
140
1.0
102
RTVSPost2010PropOp39
 70
     0
102
RTVSPost2010Prop40
 90
        0
102
RTVSPost2010PropOp40
 70
     0
102
RTVSPost2010Prop41ColorIndex
 90
       18
102
RTVSPost2010Prop41ColorRGB
 90
        0
102
RTVSPost2010PropOp41
 70
     0
102
RTVSPost2010Prop42
 90
       50
102
RTVSPost2010PropOp42
 70
     0
102
RTVSPost2010Prop43
 90
        3
102
RTVSPost2010PropOp43
 70
     0
102
RTVSPost2010Prop44ColorIndex
 90
        5
102
RTVSPost2010Prop44ColorRGB
 90
      255
102
RTVSPost2010PropOp44
 70
     0
102
RTVSPost2010Prop45
280
     0
102
RTVSPost2010PropOp45
 70
     0
102
RTVSPost2010Prop46
 90
       50
102
RTVSPost2010PropOp46
 70
     0
102
RTVSPost2010Prop47
 90
       50
102
RTVSPost2010PropOp47
 70
     0
102
RTVSPost2010Prop48
 90
       50
102
RTVSPost2010PropOp48
 70
     0
102
RTVSPost2010Prop49
280
     0
102
RTVSPost2010PropOp49
 70
     0
102
RTVSPost2010Prop50
 90
       50
102
RTVSPost2010PropOp50
 70
     0
102
RTVSPost2010Prop51ColorIndex
 90
      256
102
RTVSPost2010Prop51ColorRGB
 90
-16777216
102
RTVSPost2010PropOp51
 70
     0
102
RTVSPost2010Prop52
140
1.0
102
RTVSPost2010PropOp52
 70
     0
102
RTVSPost2010Prop53
 90
        2
102
RTVSPost2010PropOp53
 70
     0
102
RTVSPost2010Prop54
  1
strokes_ogs.tif
102
RTVSPost2010PropOp54
 70
     0
102
RTVSPost2010Prop55
280
     0
102
RTVSPost2010PropOp55
 70
     0
102
RTVSPost2010Prop56
140
1.0
102
RTVSPost2010PropOp56
 70
     0
102
RTVSPost2010Prop57
140
1.0
102
RTVSPost2010PropOp57
 70
     0
  0
XRECORD
  5
9F
102
{ACAD_REACTORS
330
9E
102
}
330
9E
100
AcDbXrecord
280
     1
102
RTVSPropertyOp0
 70
     1
102
RTVSPropertyOp1
 70
     1
102
RTVSPropertyOp2
 70
     1
102
RTVSPropertyOp3
 70
     1
102
RTVSPropertyOp4
 70
     1
102
RTVSPropertyOp5
 70
     1
102
RTVSPropertyOp6
 70
     1
102
RTVSPropertyOp7
 70
     1
102
RTVSPropertyOp8
 70
     1
102
RTVSPropertyOp9
 70
     1
102
RTVSPropertyOp10
 70
     1
102
RTVSPropertyOp11
 70
     1
102
RTVSPropertyOp12
 70
     1
102
RTVSPropertyOp13
 70
     1
102
RTVSPropertyOp14
 70
     1
102
RTVSPropertyOp15
 70
     1
102
RTVSPropertyOp16
 70
     1
102
RTVSPropertyOp17
 70
     1
102
RTVSPropertyOp18
 70
     1
102
RTVSPropertyOp19
 70
     1
102
RTVSPropertyOp20
 70
     1
102
RTVSPropertyOp21
 70
     1
102
RTVSPropertyOp22
 70
     1
102
RTVSPropertyOp23
 70
     1
102
RTVSPropertyOp24
 70
     1
102
RTVSPropertyOp25
 70
     1
102
RTVSPropertyOp26
 70
     1
102
RTVSPropertyOp27
 70
     1
102
RTVSPropertyOp28
 70
     1
102
RTVSPropertyOp29
 70
     1
102
RTVSPropertyOp30
 70
     1
102
RTVSPropertyOp31
 70
     1
102
RTVSPropertyOp32
 70
     1
102
RTVSPropertyOp33
 70
     1
102
RTVSPropertyOp34
 70
     1
102
RTVSPropertyOp35
 70
     1
102
RTVSPropertyOp36
 70
     1
102
RTVSPropertyOp37
 70
     1
102
RTVSPropertyOp38
 70
     1
102
RTVSPropertyOp39
 70
     1
102
RTVSPropertyOp40
 70
     1
102
RTVSPropertyOp41
 70
     1
102
RTVSPropertyOp42
 70
     1
102
RTVSPropertyOp43
 70
     1
102
RTVSPropertyOp44
 70
     1
102
RTVSPropertyOp45
 70
     1
102
RTVSPropertyOp46
 70
     1
102
RTVSPropertyOp47
 70
     1
102
RTVSPropertyOp48
 70
     1
102
RTVSPropertyOp49
 70
     1
102
RTVSPropertyOp50
 70
     1
102
RTVSPropertyOp51
 70
     0
102
RTVSPropertyOp52
 70
     0
102
RTVSPropertyOp53
 70
     1
102
RTVSPropertyOp54
 70
     1
102
RTVSPropertyOp55
 70
     1
102
RTVSPropertyOp56
 70
     1
102
RTVSPropertyOp57
 70
     1
102
RTVSPost2010Prop28
280
     0
102
RTVSPost2010PropOp28
 70
     1
102
RTVSPost2010Prop29
280
     1
102
RTVSPost2010PropOp29
 70
     1
102
RTVSPost2010Prop30
280
     1
102
RTVSPost2010PropOp30
 70
     1
102
RTVSPost2010Prop31
280
     0
102
RTVSPost2010PropOp31
 70
     1
102
RTVSPost2010Prop32
280
     0
102
RTVSPost2010PropOp32
 70
     1
102
RTVSPost2010Prop33
280
     0
102
RTVSPost2010PropOp33
 70
     1
102
RTVSPost2010Prop34
280
     0
102
RTVSPost2010PropOp34
 70
     1
102
RTVSPost2010Prop35
280
     0
102
RTVSPost2010PropOp35
 70
     1
102
RTVSPost2010Prop36
280
     0
102
RTVSPost2010PropOp36
 70
     1
102
RTVSPost2010Prop37
 90
       50
102
RTVSPost2010PropOp37
 70
     1
102
RTVSPost2010Prop38
140
0.0
102
RTVSPost2010PropOp38
 70
     1
102
RTVSPost2010Prop39
140
1.0
102
RTVSPost2010PropOp39
 70
     1
102
RTVSPost2010Prop40
 90
        0
102
RTVSPost2010PropOp40
 70
     1
102
RTVSPost2010Prop41ColorIndex
 90
       18
102
RTVSPost2010Prop41ColorRGB
 90
        0
102
RTVSPost2010PropOp41
 70
     1
102
RTVSPost2010Prop42
 90
       50
102
RTVSPost2010PropOp42
 70
     1
102
RTVSPost2010Prop43
 90
        3
102
RTVSPost2010PropOp43
 70
     1
102
RTVSPost2010Prop44ColorIndex
 90
        5
102
RTVSPost2010Prop44ColorRGB
 90
      255
102
RTVSPost2010PropOp44
 70
     1
102
RTVSPost2010Prop45
280
     0
102
RTVSPost2010PropOp45
 70
     1
102
RTVSPost2010Prop46
 90
       50
102
RTVSPost2010PropOp46
 70
     1
102
RTVSPost2010Prop47
 90
       50
102
RTVSPost2010PropOp47
 70
     1
102
RTVSPost2010Prop48
 90
       50
102
RTVSPost2010PropOp48
 70
     1
102
RTVSPost2010Prop49
280
     0
102
RTVSPost2010PropOp49
 70
     1
102
RTVSPost2010Prop50
 90
       50
102
RTVSPost2010PropOp50
 70
     1
102
RTVSPost2010Prop51ColorIndex
 90
      256
102
RTVSPost2010Prop51ColorRGB
 90
-16777216
102
RTVSPost2010PropOp51
 70
     0
102
RTVSPost2010Prop52
140
1.0
102
RTVSPost2010PropOp52
 70
     0
102
RTVSPost2010Prop53
 90
        2
102
RTVSPost2010PropOp53
 70
     1
102
RTVSPost2010Prop54
  1
strokes_ogs.tif
102
RTVSPost2010PropOp54
 70
     1
102
RTVSPost2010Prop55
280
     0
102
RTVSPost2010PropOp55
 70
     1
102
RTVSPost2010Prop56
140
1.0
102
RTVSPost2010PropOp56
 70
     1
102
RTVSPost2010Prop57
140
1.0
102
RTVSPost2010PropOp57
 70
     1
  0
XRECORD
  5
A7
102
{ACAD_REACTORS
330
A6
102
}
330
A6
100
AcDbXrecord
280
     1
102
RTVSPropertyOp0
 70
     0
102
RTVSPropertyOp1
 70
     0
102
RTVSPropertyOp2
 70
     0
102
RTVSPropertyOp3
 70
     0
102
RTVSPropertyOp4
 70
     0
102
RTVSPropertyOp5
 70
     0
102
RTVSPropertyOp6
 70
     0
102
RTVSPropertyOp7
 70
     0
102
RTVSPropertyOp8
 70
     0
102
RTVSPropertyOp9
 70
     0
102
RTVSPropertyOp10
 70
     0
102
RTVSPropertyOp11
 70
     0
102
RTVSPropertyOp12
 70
     0
102
RTVSPropertyOp13
 70
     0
102
RTVSPropertyOp14
 70
     2
102
RTVSPropertyOp15
 70
     0
102
RTVSPropertyOp16
 70
     0
102
RTVSPropertyOp17
 70
     0
102
RTVSPropertyOp18
 70
     0
102
RTVSPropertyOp19
 70
     0
102
RTVSPropertyOp20
 70
     0
102
RTVSPropertyOp21
 70
     0
102
RTVSPropertyOp22
 70
     0
102
RTVSPropertyOp23
 70
     0
102
RTVSPropertyOp24
 70
     0
102
RTVSPropertyOp25
 70
     0
102
RTVSPropertyOp26
 70
     0
102
RTVSPropertyOp27
 70
     0
102
RTVSPropertyOp28
 70
     0
102
RTVSPropertyOp29
 70
     0
102
RTVSPropertyOp30
 70
     0
102
RTVSPropertyOp31
 70
     0
102
RTVSPropertyOp32
 70
     0
102
RTVSPropertyOp33
 70
     0
102
RTVSPropertyOp34
 70
     0
102
RTVSPropertyOp35
 70
     0
102
RTVSPropertyOp36
 70
     0
102
RTVSPropertyOp37
 70
     0
102
RTVSPropertyOp38
 70
     0
102
RTVSPropertyOp39
 70
     0
102
RTVSPropertyOp40
 70
     0
102
RTVSPropertyOp41
 70
     0
102
RTVSPropertyOp42
 70
     0
102
RTVSPropertyOp43
 70
     0
102
RTVSPropertyOp44
 70
     0
102
RTVSPropertyOp45
 70
     0
102
RTVSPropertyOp46
 70
     0
102
RTVSPropertyOp47
 70
     0
102
RTVSPropertyOp48
 70
     0
102
RTVSPropertyOp49
 70
     0
102
RTVSPropertyOp50
 70
     0
102
RTVSPropertyOp51
 70
     0
102
RTVSPropertyOp52
 70
     0
102
RTVSPropertyOp53
 70
     0
102
RTVSPropertyOp54
 70
     0
102
RTVSPropertyOp55
 70
     0
102
RTVSPropertyOp56
 70
     0
102
RTVSPropertyOp57
 70
     0
102
RTVSPost2010Prop28
280
     0
102
RTVSPost2010PropOp28
 70
     0
102
RTVSPost2010Prop29
280
     1
102
RTVSPost2010PropOp29
 70
     0
102
RTVSPost2010Prop30
280
     1
102
RTVSPost2010PropOp30
 70
     0
102
RTVSPost2010Prop31
280
     0
102
RTVSPost2010PropOp31
 70
     0
102
RTVSPost2010Prop32
280
     0
102
RTVSPost2010PropOp32
 70
     0
102
RTVSPost2010Prop33
280
     0
102
RTVSPost2010PropOp33
 70
     0
102
RTVSPost2010Prop34
280
     0
102
RTVSPost2010PropOp34
 70
     0
102
RTVSPost2010Prop35
280
     0
102
RTVSPost2010PropOp35
 70
     0
102
RTVSPost2010Prop36
280
     0
102
RTVSPost2010PropOp36
 70
     0
102
RTVSPost2010Prop37
 90
       50
102
RTVSPost2010PropOp37
 70
     0
102
RTVSPost2010Prop38
140
0.0
102
RTVSPost2010PropOp38
 70
     0
102
RTVSPost2010Prop39
140
1.0
102
RTVSPost2010PropOp39
 70
     0
102
RTVSPost2010Prop40
 90
        0
102
RTVSPost2010PropOp40
 70
     0
102
RTVSPost2010Prop41ColorIndex
 90
       18
102
RTVSPost2010Prop41ColorRGB
 90
        0
102
RTVSPost2010PropOp41
 70
     0
102
RTVSPost2010Prop42
 90
       50
102
RTVSPost2010PropOp42
 70
     0
102
RTVSPost2010Prop43
 90
        3
102
RTVSPost2010PropOp43
 70
     0
102
RTVSPost2010Prop44ColorIndex
 90
        5
102
RTVSPost2010Prop44ColorRGB
 90
      255
102
RTVSPost2010PropOp44
 70
     0
102
RTVSPost2010Prop45
280
     0
102
RTVSPost2010PropOp45
 70
     0
102
RTVSPost2010Prop46
 90
       50
102
RTVSPost2010PropOp46
 70
     0
102
RTVSPost2010Prop47
 90
       50
102
RTVSPost2010PropOp47
 70
     0
102
RTVSPost2010Prop48
 90
       50
102
RTVSPost2010PropOp48
 70
     0
102
RTVSPost2010Prop49
280
     0
102
RTVSPost2010PropOp49
 70
     0
102
RTVSPost2010Prop50
 90
       50
102
RTVSPost2010PropOp50
 70
     0
102
RTVSPost2010Prop51ColorIndex
 90
      256
102
RTVSPost2010Prop51ColorRGB
 90
-16777216
102
RTVSPost2010PropOp51
 70
     0
102
RTVSPost2010Prop52
140
1.0
102
RTVSPost2010PropOp52
 70
     0
102
RTVSPost2010Prop53
 90
        2
102
RTVSPost2010PropOp53
 70
     0
102
RTVSPost2010Prop54
  1
strokes_ogs.tif
102
RTVSPost2010PropOp54
 70
     0
102
RTVSPost2010Prop55
280
     0
102
RTVSPost2010PropOp55
 70
     0
102
RTVSPost2010Prop56
140
1.0
102
RTVSPost2010PropOp56
 70
     0
102
RTVSPost2010Prop57
140
1.0
102
RTVSPost2010PropOp57
 70
     0
  0
XRECORD
  5
95
102
{ACAD_REACTORS
330
94
102
}
330
94
100
AcDbXrecord
280
     1
102
RTVSPropertyOp0
 70
     1
102
RTVSPropertyOp1
 70
     1
102
RTVSPropertyOp2
 70
     1
102
RTVSPropertyOp3
 70
     1
102
RTVSPropertyOp4
 70
     1
102
RTVSPropertyOp5
 70
     1
102
RTVSPropertyOp6
 70
     1
102
RTVSPropertyOp7
 70
     1
102
RTVSPropertyOp8
 70
     1
102
RTVSPropertyOp9
 70
     1
102
RTVSPropertyOp10
 70
     1
102
RTVSPropertyOp11
 70
     1
102
RTVSPropertyOp12
 70
     1
102
RTVSPropertyOp13
 70
     1
102
RTVSPropertyOp14
 70
     1
102
RTVSPropertyOp15
 70
     1
102
RTVSPropertyOp16
 70
     1
102
RTVSPropertyOp17
 70
     1
102
RTVSPropertyOp18
 70
     1
102
RTVSPropertyOp19
 70
     1
102
RTVSPropertyOp20
 70
     1
102
RTVSPropertyOp21
 70
     1
102
RTVSPropertyOp22
 70
     1
102
RTVSPropertyOp23
 70
     1
102
RTVSPropertyOp24
 70
     1
102
RTVSPropertyOp25
 70
     1
102
RTVSPropertyOp26
 70
     1
102
RTVSPropertyOp27
 70
     1
102
RTVSPropertyOp28
 70
     1
102
RTVSPropertyOp29
 70
     1
102
RTVSPropertyOp30
 70
     1
102
RTVSPropertyOp31
 70
     1
102
RTVSPropertyOp32
 70
     1
102
RTVSPropertyOp33
 70
     1
102
RTVSPropertyOp34
 70
     1
102
RTVSPropertyOp35
 70
     1
102
RTVSPropertyOp36
 70
     1
102
RTVSPropertyOp37
 70
     1
102
RTVSPropertyOp38
 70
     1
102
RTVSPropertyOp39
 70
     1
102
RTVSPropertyOp40
 70
     1
102
RTVSPropertyOp41
 70
     1
102
RTVSPropertyOp42
 70
     1
102
RTVSPropertyOp43
 70
     1
102
RTVSPropertyOp44
 70
     1
102
RTVSPropertyOp45
 70
     1
102
RTVSPropertyOp46
 70
     1
102
RTVSPropertyOp47
 70
     1
102
RTVSPropertyOp48
 70
     1
102
RTVSPropertyOp49
 70
     1
102
RTVSPropertyOp50
 70
     1
102
RTVSPropertyOp51
 70
     0
102
RTVSPropertyOp52
 70
     0
102
RTVSPropertyOp53
 70
     1
102
RTVSPropertyOp54
 70
     1
102
RTVSPropertyOp55
 70
     1
102
RTVSPropertyOp56
 70
     1
102
RTVSPropertyOp57
 70
     1
102
RTVSPost2010Prop28
280
     0
102
RTVSPost2010PropOp28
 70
     1
102
RTVSPost2010Prop29
280
     1
102
RTVSPost2010PropOp29
 70
     1
102
RTVSPost2010Prop30
280
     1
102
RTVSPost2010PropOp30
 70
     1
102
RTVSPost2010Prop31
280
     0
102
RTVSPost2010PropOp31
 70
     1
102
RTVSPost2010Prop32
280
     0
102
RTVSPost2010PropOp32
 70
     1
102
RTVSPost2010Prop33
280
     0
102
RTVSPost2010PropOp33
 70
     1
102
RTVSPost2010Prop34
280
     0
102
RTVSPost2010PropOp34
 70
     1
102
RTVSPost2010Prop35
280
     0
102
RTVSPost2010PropOp35
 70
     1
102
RTVSPost2010Prop36
280
     0
102
RTVSPost2010PropOp36
 70
     1
102
RTVSPost2010Prop37
 90
       50
102
RTVSPost2010PropOp37
 70
     1
102
RTVSPost2010Prop38
140
0.0
102
RTVSPost2010PropOp38
 70
     1
102
RTVSPost2010Prop39
140
1.0
102
RTVSPost2010PropOp39
 70
     1
102
RTVSPost2010Prop40
 90
        0
102
RTVSPost2010PropOp40
 70
     1
102
RTVSPost2010Prop41ColorIndex
 90
       18
102
RTVSPost2010Prop41ColorRGB
 90
        0
102
RTVSPost2010PropOp41
 70
     1
102
RTVSPost2010Prop42
 90
       50
102
RTVSPost2010PropOp42
 70
     1
102
RTVSPost2010Prop43
 90
        3
102
RTVSPost2010PropOp43
 70
     1
102
RTVSPost2010Prop44ColorIndex
 90
        5
102
RTVSPost2010Prop44ColorRGB
 90
      255
102
RTVSPost2010PropOp44
 70
     1
102
RTVSPost2010Prop45
280
     0
102
RTVSPost2010PropOp45
 70
     1
102
RTVSPost2010Prop46
 90
       50
102
RTVSPost2010PropOp46
 70
     1
102
RTVSPost2010Prop47
 90
       50
102
RTVSPost2010PropOp47
 70
     1
102
RTVSPost2010Prop48
 90
       50
102
RTVSPost2010PropOp48
 70
     1
102
RTVSPost2010Prop49
280
     0
102
RTVSPost2010PropOp49
 70
     1
102
RTVSPost2010Prop50
 90
       50
102
RTVSPost2010PropOp50
 70
     1
102
RTVSPost2010Prop51ColorIndex
 90
      256
102
RTVSPost2010Prop51ColorRGB
 90
-16777216
102
RTVSPost2010PropOp51
 70
     0
102
RTVSPost2010Prop52
140
1.0
102
RTVSPost2010PropOp52
 70
     0
102
RTVSPost2010Prop53
 90
        2
102
RTVSPost2010PropOp53
 70
     1
102
RTVSPost2010Prop54
  1
strokes_ogs.tif
102
RTVSPost2010PropOp54
 70
     1
102
RTVSPost2010Prop55
280
     0
102
RTVSPost2010PropOp55
 70
     1
102
RTVSPost2010Prop56
140
1.0
102
RTVSPost2010PropOp56
 70
     1
102
RTVSPost2010Prop57
140
1.0
102
RTVSPost2010PropOp57
 70
     1
  0
XRECORD
  5
B3
102
{ACAD_REACTORS
330
B2
102
}
330
B2
100
AcDbXrecord
280
     1
102
RTVSPropertyOp0
 70
     1
102
RTVSPropertyOp1
 70
     1
102
RTVSPropertyOp2
 70
     1
102
RTVSPropertyOp3
 70
     1
102
RTVSPropertyOp4
 70
     1
102
RTVSPropertyOp5
 70
     1
102
RTVSPropertyOp6
 70
     1
102
RTVSPropertyOp7
 70
     1
102
RTVSPropertyOp8
 70
     1
102
RTVSPropertyOp9
 70
     1
102
RTVSPropertyOp10
 70
     1
102
RTVSPropertyOp11
 70
     1
102
RTVSPropertyOp12
 70
     1
102
RTVSPropertyOp13
 70
     1
102
RTVSPropertyOp14
 70
     1
102
RTVSPropertyOp15
 70
     1
102
RTVSPropertyOp16
 70
     1
102
RTVSPropertyOp17
 70
     1
102
RTVSPropertyOp18
 70
     1
102
RTVSPropertyOp19
 70
     1
102
RTVSPropertyOp20
 70
     1
102
RTVSPropertyOp21
 70
     1
102
RTVSPropertyOp22
 70
     1
102
RTVSPropertyOp23
 70
     1
102
RTVSPropertyOp24
 70
     1
102
RTVSPropertyOp25
 70
     1
102
RTVSPropertyOp26
 70
     1
102
RTVSPropertyOp27
 70
     1
102
RTVSPropertyOp28
 70
     1
102
RTVSPropertyOp29
 70
     1
102
RTVSPropertyOp30
 70
     1
102
RTVSPropertyOp31
 70
     1
102
RTVSPropertyOp32
 70
     1
102
RTVSPropertyOp33
 70
     1
102
RTVSPropertyOp34
 70
     1
102
RTVSPropertyOp35
 70
     1
102
RTVSPropertyOp36
 70
     1
102
RTVSPropertyOp37
 70
     1
102
RTVSPropertyOp38
 70
     1
102
RTVSPropertyOp39
 70
     1
102
RTVSPropertyOp40
 70
     1
102
RTVSPropertyOp41
 70
     1
102
RTVSPropertyOp42
 70
     1
102
RTVSPropertyOp43
 70
     1
102
RTVSPropertyOp44
 70
     1
102
RTVSPropertyOp45
 70
     1
102
RTVSPropertyOp46
 70
     1
102
RTVSPropertyOp47
 70
     1
102
RTVSPropertyOp48
 70
     1
102
RTVSPropertyOp49
 70
     1
102
RTVSPropertyOp50
 70
     1
102
RTVSPropertyOp51
 70
     0
102
RTVSPropertyOp52
 70
     0
102
RTVSPropertyOp53
 70
     1
102
RTVSPropertyOp54
 70
     1
102
RTVSPropertyOp55
 70
     1
102
RTVSPropertyOp56
 70
     1
102
RTVSPropertyOp57
 70
     1
102
RTVSPost2010Prop28
280
     0
102
RTVSPost2010PropOp28
 70
     1
102
RTVSPost2010Prop29
280
     1
102
RTVSPost2010PropOp29
 70
     1
102
RTVSPost2010Prop30
280
     1
102
RTVSPost2010PropOp30
 70
     1
102
RTVSPost2010Prop31
280
     0
102
RTVSPost2010PropOp31
 70
     1
102
RTVSPost2010Prop32
280
     0
102
RTVSPost2010PropOp32
 70
     1
102
RTVSPost2010Prop33
280
     0
102
RTVSPost2010PropOp33
 70
     1
102
RTVSPost2010Prop34
280
     0
102
RTVSPost2010PropOp34
 70
     1
102
RTVSPost2010Prop35
280
     0
102
RTVSPost2010PropOp35
 70
     1
102
RTVSPost2010Prop36
280
     0
102
RTVSPost2010PropOp36
 70
     1
102
RTVSPost2010Prop37
 90
       50
102
RTVSPost2010PropOp37
 70
     1
102
RTVSPost2010Prop38
140
0.0
102
RTVSPost2010PropOp38
 70
     1
102
RTVSPost2010Prop39
140
1.0
102
RTVSPost2010PropOp39
 70
     1
102
RTVSPost2010Prop40
 90
        0
102
RTVSPost2010PropOp40
 70
     1
102
RTVSPost2010Prop41ColorIndex
 90
       18
102
RTVSPost2010Prop41ColorRGB
 90
        0
102
RTVSPost2010PropOp41
 70
     1
102
RTVSPost2010Prop42
 90
       50
102
RTVSPost2010PropOp42
 70
     1
102
RTVSPost2010Prop43
 90
        3
102
RTVSPost2010PropOp43
 70
     1
102
RTVSPost2010Prop44ColorIndex
 90
        5
102
RTVSPost2010Prop44ColorRGB
 90
      255
102
RTVSPost2010PropOp44
 70
     1
102
RTVSPost2010Prop45
280
     0
102
RTVSPost2010PropOp45
 70
     1
102
RTVSPost2010Prop46
 90
       50
102
RTVSPost2010PropOp46
 70
     1
102
RTVSPost2010Prop47
 90
       50
102
RTVSPost2010PropOp47
 70
     1
102
RTVSPost2010Prop48
 90
       50
102
RTVSPost2010PropOp48
 70
     1
102
RTVSPost2010Prop49
280
     0
102
RTVSPost2010PropOp49
 70
     1
102
RTVSPost2010Prop50
 90
       50
102
RTVSPost2010PropOp50
 70
     1
102
RTVSPost2010Prop51ColorIndex
 90
      256
102
RTVSPost2010Prop51ColorRGB
 90
-16777216
102
RTVSPost2010PropOp51
 70
     0
102
RTVSPost2010Prop52
140
1.0
102
RTVSPost2010PropOp52
 70
     0
102
RTVSPost2010Prop53
 90
        2
102
RTVSPost2010PropOp53
 70
     1
102
RTVSPost2010Prop54
  1
strokes_ogs.tif
102
RTVSPost2010PropOp54
 70
     1
102
RTVSPost2010Prop55
280
     0
102
RTVSPost2010PropOp55
 70
     1
102
RTVSPost2010Prop56
140
1.0
102
RTVSPost2010PropOp56
 70
     1
102
RTVSPost2010Prop57
140
1.0
102
RTVSPost2010PropOp57
 70
     1
  0
XRECORD
  5
B1
102
{ACAD_REACTORS
330
B0
102
}
330
B0
100
AcDbXrecord
280
     1
102
RTVSPropertyOp0
 70
     1
102
RTVSPropertyOp1
 70
     1
102
RTVSPropertyOp2
 70
     1
102
RTVSPropertyOp3
 70
     1
102
RTVSPropertyOp4
 70
     1
102
RTVSPropertyOp5
 70
     1
102
RTVSPropertyOp6
 70
     1
102
RTVSPropertyOp7
 70
     1
102
RTVSPropertyOp8
 70
     1
102
RTVSPropertyOp9
 70
     1
102
RTVSPropertyOp10
 70
     1
102
RTVSPropertyOp11
 70
     1
102
RTVSPropertyOp12
 70
     1
102
RTVSPropertyOp13
 70
     1
102
RTVSPropertyOp14
 70
     1
102
RTVSPropertyOp15
 70
     1
102
RTVSPropertyOp16
 70
     1
102
RTVSPropertyOp17
 70
     1
102
RTVSPropertyOp18
 70
     1
102
RTVSPropertyOp19
 70
     1
102
RTVSPropertyOp20
 70
     1
102
RTVSPropertyOp21
 70
     1
102
RTVSPropertyOp22
 70
     1
102
RTVSPropertyOp23
 70
     1
102
RTVSPropertyOp24
 70
     1
102
RTVSPropertyOp25
 70
     1
102
RTVSPropertyOp26
 70
     1
102
RTVSPropertyOp27
 70
     1
102
RTVSPropertyOp28
 70
     1
102
RTVSPropertyOp29
 70
     1
102
RTVSPropertyOp30
 70
     1
102
RTVSPropertyOp31
 70
     1
102
RTVSPropertyOp32
 70
     1
102
RTVSPropertyOp33
 70
     1
102
RTVSPropertyOp34
 70
     1
102
RTVSPropertyOp35
 70
     1
102
RTVSPropertyOp36
 70
     1
102
RTVSPropertyOp37
 70
     1
102
RTVSPropertyOp38
 70
     1
102
RTVSPropertyOp39
 70
     1
102
RTVSPropertyOp40
 70
     1
102
RTVSPropertyOp41
 70
     1
102
RTVSPropertyOp42
 70
     1
102
RTVSPropertyOp43
 70
     1
102
RTVSPropertyOp44
 70
     1
102
RTVSPropertyOp45
 70
     1
102
RTVSPropertyOp46
 70
     1
102
RTVSPropertyOp47
 70
     1
102
RTVSPropertyOp48
 70
     1
102
RTVSPropertyOp49
 70
     1
102
RTVSPropertyOp50
 70
     1
102
RTVSPropertyOp51
 70
     0
102
RTVSPropertyOp52
 70
     0
102
RTVSPropertyOp53
 70
     1
102
RTVSPropertyOp54
 70
     1
102
RTVSPropertyOp55
 70
     1
102
RTVSPropertyOp56
 70
     1
102
RTVSPropertyOp57
 70
     1
102
RTVSPost2010Prop28
280
     0
102
RTVSPost2010PropOp28
 70
     1
102
RTVSPost2010Prop29
280
     1
102
RTVSPost2010PropOp29
 70
     1
102
RTVSPost2010Prop30
280
     1
102
RTVSPost2010PropOp30
 70
     1
102
RTVSPost2010Prop31
280
     0
102
RTVSPost2010PropOp31
 70
     1
102
RTVSPost2010Prop32
280
     0
102
RTVSPost2010PropOp32
 70
     1
102
RTVSPost2010Prop33
280
     0
102
RTVSPost2010PropOp33
 70
     1
102
RTVSPost2010Prop34
280
     0
102
RTVSPost2010PropOp34
 70
     1
102
RTVSPost2010Prop35
280
     0
102
RTVSPost2010PropOp35
 70
     1
102
RTVSPost2010Prop36
280
     0
102
RTVSPost2010PropOp36
 70
     1
102
RTVSPost2010Prop37
 90
       50
102
RTVSPost2010PropOp37
 70
     1
102
RTVSPost2010Prop38
140
0.0
102
RTVSPost2010PropOp38
 70
     1
102
RTVSPost2010Prop39
140
1.0
102
RTVSPost2010PropOp39
 70
     1
102
RTVSPost2010Prop40
 90
        0
102
RTVSPost2010PropOp40
 70
     1
102
RTVSPost2010Prop41ColorIndex
 90
       18
102
RTVSPost2010Prop41ColorRGB
 90
        0
102
RTVSPost2010PropOp41
 70
     1
102
RTVSPost2010Prop42
 90
       50
102
RTVSPost2010PropOp42
 70
     1
102
RTVSPost2010Prop43
 90
        3
102
RTVSPost2010PropOp43
 70
     1
102
RTVSPost2010Prop44ColorIndex
 90
        5
102
RTVSPost2010Prop44ColorRGB
 90
      255
102
RTVSPost2010PropOp44
 70
     1
102
RTVSPost2010Prop45
280
     0
102
RTVSPost2010PropOp45
 70
     1
102
RTVSPost2010Prop46
 90
       50
102
RTVSPost2010PropOp46
 70
     1
102
RTVSPost2010Prop47
 90
       50
102
RTVSPost2010PropOp47
 70
     1
102
RTVSPost2010Prop48
 90
       50
102
RTVSPost2010PropOp48
 70
     1
102
RTVSPost2010Prop49
280
     0
102
RTVSPost2010PropOp49
 70
     1
102
RTVSPost2010Prop50
 90
       50
102
RTVSPost2010PropOp50
 70
     1
102
RTVSPost2010Prop51ColorIndex
 90
      256
102
RTVSPost2010Prop51ColorRGB
 90
-16777216
102
RTVSPost2010PropOp51
 70
     0
102
RTVSPost2010Prop52
140
1.0
102
RTVSPost2010PropOp52
 70
     0
102
RTVSPost2010Prop53
 90
        2
102
RTVSPost2010PropOp53
 70
     1
102
RTVSPost2010Prop54
  1
strokes_ogs.tif
102
RTVSPost2010PropOp54
 70
     1
102
RTVSPost2010Prop55
280
     0
102
RTVSPost2010PropOp55
 70
     1
102
RTVSPost2010Prop56
140
1.0
102
RTVSPost2010PropOp56
 70
     1
102
RTVSPost2010Prop57
140
1.0
102
RTVSPost2010PropOp57
 70
     1
  0
XRECORD
  5
AB
102
{ACAD_REACTORS
330
AA
102
}
330
AA
100
AcDbXrecord
280
     1
102
RTVSPropertyOp0
 70
     1
102
RTVSPropertyOp1
 70
     1
102
RTVSPropertyOp2
 70
     1
102
RTVSPropertyOp3
 70
     1
102
RTVSPropertyOp4
 70
     1
102
RTVSPropertyOp5
 70
     1
102
RTVSPropertyOp6
 70
     1
102
RTVSPropertyOp7
 70
     1
102
RTVSPropertyOp8
 70
     1
102
RTVSPropertyOp9
 70
     1
102
RTVSPropertyOp10
 70
     1
102
RTVSPropertyOp11
 70
     1
102
RTVSPropertyOp12
 70
     1
102
RTVSPropertyOp13
 70
     1
102
RTVSPropertyOp14
 70
     1
102
RTVSPropertyOp15
 70
     1
102
RTVSPropertyOp16
 70
     1
102
RTVSPropertyOp17
 70
     1
102
RTVSPropertyOp18
 70
     1
102
RTVSPropertyOp19
 70
     1
102
RTVSPropertyOp20
 70
     1
102
RTVSPropertyOp21
 70
     1
102
RTVSPropertyOp22
 70
     1
102
RTVSPropertyOp23
 70
     1
102
RTVSPropertyOp24
 70
     1
102
RTVSPropertyOp25
 70
     1
102
RTVSPropertyOp26
 70
     1
102
RTVSPropertyOp27
 70
     1
102
RTVSPropertyOp28
 70
     1
102
RTVSPropertyOp29
 70
     1
102
RTVSPropertyOp30
 70
     1
102
RTVSPropertyOp31
 70
     1
102
RTVSPropertyOp32
 70
     1
102
RTVSPropertyOp33
 70
     1
102
RTVSPropertyOp34
 70
     1
102
RTVSPropertyOp35
 70
     1
102
RTVSPropertyOp36
 70
     1
102
RTVSPropertyOp37
 70
     1
102
RTVSPropertyOp38
 70
     1
102
RTVSPropertyOp39
 70
     1
102
RTVSPropertyOp40
 70
     1
102
RTVSPropertyOp41
 70
     1
102
RTVSPropertyOp42
 70
     1
102
RTVSPropertyOp43
 70
     1
102
RTVSPropertyOp44
 70
     1
102
RTVSPropertyOp45
 70
     1
102
RTVSPropertyOp46
 70
     1
102
RTVSPropertyOp47
 70
     1
102
RTVSPropertyOp48
 70
     1
102
RTVSPropertyOp49
 70
     1
102
RTVSPropertyOp50
 70
     1
102
RTVSPropertyOp51
 70
     0
102
RTVSPropertyOp52
 70
     0
102
RTVSPropertyOp53
 70
     1
102
RTVSPropertyOp54
 70
     1
102
RTVSPropertyOp55
 70
     1
102
RTVSPropertyOp56
 70
     1
102
RTVSPropertyOp57
 70
     1
102
RTVSPost2010Prop28
280
     0
102
RTVSPost2010PropOp28
 70
     1
102
RTVSPost2010Prop29
280
     1
102
RTVSPost2010PropOp29
 70
     1
102
RTVSPost2010Prop30
280
     1
102
RTVSPost2010PropOp30
 70
     1
102
RTVSPost2010Prop31
280
     0
102
RTVSPost2010PropOp31
 70
     1
102
RTVSPost2010Prop32
280
     0
102
RTVSPost2010PropOp32
 70
     1
102
RTVSPost2010Prop33
280
     0
102
RTVSPost2010PropOp33
 70
     1
102
RTVSPost2010Prop34
280
     0
102
RTVSPost2010PropOp34
 70
     1
102
RTVSPost2010Prop35
280
     0
102
RTVSPost2010PropOp35
 70
     1
102
RTVSPost2010Prop36
280
     0
102
RTVSPost2010PropOp36
 70
     1
102
RTVSPost2010Prop37
 90
       50
102
RTVSPost2010PropOp37
 70
     1
102
RTVSPost2010Prop38
140
0.0
102
RTVSPost2010PropOp38
 70
     1
102
RTVSPost2010Prop39
140
1.0
102
RTVSPost2010PropOp39
 70
     1
102
RTVSPost2010Prop40
 90
        0
102
RTVSPost2010PropOp40
 70
     1
102
RTVSPost2010Prop41ColorIndex
 90
       18
102
RTVSPost2010Prop41ColorRGB
 90
        0
102
RTVSPost2010PropOp41
 70
     1
102
RTVSPost2010Prop42
 90
       50
102
RTVSPost2010PropOp42
 70
     1
102
RTVSPost2010Prop43
 90
        3
102
RTVSPost2010PropOp43
 70
     1
102
RTVSPost2010Prop44ColorIndex
 90
        5
102
RTVSPost2010Prop44ColorRGB
 90
      255
102
RTVSPost2010PropOp44
 70
     1
102
RTVSPost2010Prop45
280
     0
102
RTVSPost2010PropOp45
 70
     1
102
RTVSPost2010Prop46
 90
       50
102
RTVSPost2010PropOp46
 70
     1
102
RTVSPost2010Prop47
 90
       50
102
RTVSPost2010PropOp47
 70
     1
102
RTVSPost2010Prop48
 90
       50
102
RTVSPost2010PropOp48
 70
     1
102
RTVSPost2010Prop49
280
     0
102
RTVSPost2010PropOp49
 70
     1
102
RTVSPost2010Prop50
 90
       50
102
RTVSPost2010PropOp50
 70
     1
102
RTVSPost2010Prop51ColorIndex
 90
      256
102
RTVSPost2010Prop51ColorRGB
 90
-16777216
102
RTVSPost2010PropOp51
 70
     0
102
RTVSPost2010Prop52
140
1.0
102
RTVSPost2010PropOp52
 70
     0
102
RTVSPost2010Prop53
 90
        2
102
RTVSPost2010PropOp53
 70
     1
102
RTVSPost2010Prop54
  1
strokes_ogs.tif
102
RTVSPost2010PropOp54
 70
     1
102
RTVSPost2010Prop55
280
     0
102
RTVSPost2010PropOp55
 70
     1
102
RTVSPost2010Prop56
140
1.0
102
RTVSPost2010PropOp56
 70
     1
102
RTVSPost2010Prop57
140
1.0
102
RTVSPost2010PropOp57
 70
     1
  0
XRECORD
  5
AD
102
{ACAD_REACTORS
330
AC
102
}
330
AC
100
AcDbXrecord
280
     1
102
RTVSPropertyOp0
 70
     1
102
RTVSPropertyOp1
 70
     1
102
RTVSPropertyOp2
 70
     1
102
RTVSPropertyOp3
 70
     1
102
RTVSPropertyOp4
 70
     1
102
RTVSPropertyOp5
 70
     1
102
RTVSPropertyOp6
 70
     1
102
RTVSPropertyOp7
 70
     1
102
RTVSPropertyOp8
 70
     1
102
RTVSPropertyOp9
 70
     1
102
RTVSPropertyOp10
 70
     1
102
RTVSPropertyOp11
 70
     1
102
RTVSPropertyOp12
 70
     1
102
RTVSPropertyOp13
 70
     1
102
RTVSPropertyOp14
 70
     1
102
RTVSPropertyOp15
 70
     1
102
RTVSPropertyOp16
 70
     1
102
RTVSPropertyOp17
 70
     1
102
RTVSPropertyOp18
 70
     1
102
RTVSPropertyOp19
 70
     1
102
RTVSPropertyOp20
 70
     1
102
RTVSPropertyOp21
 70
     1
102
RTVSPropertyOp22
 70
     1
102
RTVSPropertyOp23
 70
     1
102
RTVSPropertyOp24
 70
     1
102
RTVSPropertyOp25
 70
     1
102
RTVSPropertyOp26
 70
     1
102
RTVSPropertyOp27
 70
     1
102
RTVSPropertyOp28
 70
     1
102
RTVSPropertyOp29
 70
     1
102
RTVSPropertyOp30
 70
     1
102
RTVSPropertyOp31
 70
     1
102
RTVSPropertyOp32
 70
     1
102
RTVSPropertyOp33
 70
     1
102
RTVSPropertyOp34
 70
     1
102
RTVSPropertyOp35
 70
     1
102
RTVSPropertyOp36
 70
     1
102
RTVSPropertyOp37
 70
     1
102
RTVSPropertyOp38
 70
     1
102
RTVSPropertyOp39
 70
     1
102
RTVSPropertyOp40
 70
     1
102
RTVSPropertyOp41
 70
     1
102
RTVSPropertyOp42
 70
     1
102
RTVSPropertyOp43
 70
     1
102
RTVSPropertyOp44
 70
     1
102
RTVSPropertyOp45
 70
     1
102
RTVSPropertyOp46
 70
     1
102
RTVSPropertyOp47
 70
     1
102
RTVSPropertyOp48
 70
     1
102
RTVSPropertyOp49
 70
     1
102
RTVSPropertyOp50
 70
     1
102
RTVSPropertyOp51
 70
     0
102
RTVSPropertyOp52
 70
     0
102
RTVSPropertyOp53
 70
     1
102
RTVSPropertyOp54
 70
     1
102
RTVSPropertyOp55
 70
     1
102
RTVSPropertyOp56
 70
     1
102
RTVSPropertyOp57
 70
     1
102
RTVSPost2010Prop28
280
     0
102
RTVSPost2010PropOp28
 70
     1
102
RTVSPost2010Prop29
280
     1
102
RTVSPost2010PropOp29
 70
     1
102
RTVSPost2010Prop30
280
     1
102
RTVSPost2010PropOp30
 70
     1
102
RTVSPost2010Prop31
280
     0
102
RTVSPost2010PropOp31
 70
     1
102
RTVSPost2010Prop32
280
     0
102
RTVSPost2010PropOp32
 70
     1
102
RTVSPost2010Prop33
280
     0
102
RTVSPost2010PropOp33
 70
     1
102
RTVSPost2010Prop34
280
     0
102
RTVSPost2010PropOp34
 70
     1
102
RTVSPost2010Prop35
280
     0
102
RTVSPost2010PropOp35
 70
     1
102
RTVSPost2010Prop36
280
     0
102
RTVSPost2010PropOp36
 70
     1
102
RTVSPost2010Prop37
 90
       50
102
RTVSPost2010PropOp37
 70
     1
102
RTVSPost2010Prop38
140
0.0
102
RTVSPost2010PropOp38
 70
     1
102
RTVSPost2010Prop39
140
1.0
102
RTVSPost2010PropOp39
 70
     1
102
RTVSPost2010Prop40
 90
        0
102
RTVSPost2010PropOp40
 70
     1
102
RTVSPost2010Prop41ColorIndex
 90
       18
102
RTVSPost2010Prop41ColorRGB
 90
        0
102
RTVSPost2010PropOp41
 70
     1
102
RTVSPost2010Prop42
 90
       50
102
RTVSPost2010PropOp42
 70
     1
102
RTVSPost2010Prop43
 90
        3
102
RTVSPost2010PropOp43
 70
     1
102
RTVSPost2010Prop44ColorIndex
 90
        5
102
RTVSPost2010Prop44ColorRGB
 90
      255
102
RTVSPost2010PropOp44
 70
     1
102
RTVSPost2010Prop45
280
     0
102
RTVSPost2010PropOp45
 70
     1
102
RTVSPost2010Prop46
 90
       50
102
RTVSPost2010PropOp46
 70
     1
102
RTVSPost2010Prop47
 90
       50
102
RTVSPost2010PropOp47
 70
     1
102
RTVSPost2010Prop48
 90
       50
102
RTVSPost2010PropOp48
 70
     1
102
RTVSPost2010Prop49
280
     0
102
RTVSPost2010PropOp49
 70
     1
102
RTVSPost2010Prop50
 90
       50
102
RTVSPost2010PropOp50
 70
     1
102
RTVSPost2010Prop51ColorIndex
 90
      256
102
RTVSPost2010Prop51ColorRGB
 90
-16777216
102
RTVSPost2010PropOp51
 70
     0
102
RTVSPost2010Prop52
140
1.0
102
RTVSPost2010PropOp52
 70
     0
102
RTVSPost2010Prop53
 90
        2
102
RTVSPost2010PropOp53
 70
     1
102
RTVSPost2010Prop54
  1
strokes_ogs.tif
102
RTVSPost2010PropOp54
 70
     1
102
RTVSPost2010Prop55
280
     0
102
RTVSPost2010PropOp55
 70
     1
102
RTVSPost2010Prop56
140
1.0
102
RTVSPost2010PropOp56
 70
     1
102
RTVSPost2010Prop57
140
1.0
102
RTVSPost2010PropOp57
 70
     1
  0
XRECORD
  5
9D
102
{ACAD_REACTORS
330
9C
102
}
330
9C
100
AcDbXrecord
280
     1
102
RTVSPropertyOp0
 70
     1
102
RTVSPropertyOp1
 70
     1
102
RTVSPropertyOp2
 70
     1
102
RTVSPropertyOp3
 70
     1
102
RTVSPropertyOp4
 70
     1
102
RTVSPropertyOp5
 70
     1
102
RTVSPropertyOp6
 70
     1
102
RTVSPropertyOp7
 70
     1
102
RTVSPropertyOp8
 70
     1
102
RTVSPropertyOp9
 70
     1
102
RTVSPropertyOp10
 70
     1
102
RTVSPropertyOp11
 70
     1
102
RTVSPropertyOp12
 70
     1
102
RTVSPropertyOp13
 70
     1
102
RTVSPropertyOp14
 70
     1
102
RTVSPropertyOp15
 70
     1
102
RTVSPropertyOp16
 70
     1
102
RTVSPropertyOp17
 70
     1
102
RTVSPropertyOp18
 70
     1
102
RTVSPropertyOp19
 70
     1
102
RTVSPropertyOp20
 70
     1
102
RTVSPropertyOp21
 70
     1
102
RTVSPropertyOp22
 70
     1
102
RTVSPropertyOp23
 70
     1
102
RTVSPropertyOp24
 70
     1
102
RTVSPropertyOp25
 70
     1
102
RTVSPropertyOp26
 70
     1
102
RTVSPropertyOp27
 70
     1
102
RTVSPropertyOp28
 70
     1
102
RTVSPropertyOp29
 70
     1
102
RTVSPropertyOp30
 70
     1
102
RTVSPropertyOp31
 70
     1
102
RTVSPropertyOp32
 70
     1
102
RTVSPropertyOp33
 70
     1
102
RTVSPropertyOp34
 70
     1
102
RTVSPropertyOp35
 70
     1
102
RTVSPropertyOp36
 70
     1
102
RTVSPropertyOp37
 70
     1
102
RTVSPropertyOp38
 70
     1
102
RTVSPropertyOp39
 70
     1
102
RTVSPropertyOp40
 70
     1
102
RTVSPropertyOp41
 70
     1
102
RTVSPropertyOp42
 70
     1
102
RTVSPropertyOp43
 70
     1
102
RTVSPropertyOp44
 70
     1
102
RTVSPropertyOp45
 70
     1
102
RTVSPropertyOp46
 70
     1
102
RTVSPropertyOp47
 70
     1
102
RTVSPropertyOp48
 70
     1
102
RTVSPropertyOp49
 70
     1
102
RTVSPropertyOp50
 70
     1
102
RTVSPropertyOp51
 70
     0
102
RTVSPropertyOp52
 70
     0
102
RTVSPropertyOp53
 70
     1
102
RTVSPropertyOp54
 70
     1
102
RTVSPropertyOp55
 70
     1
102
RTVSPropertyOp56
 70
     1
102
RTVSPropertyOp57
 70
     1
102
RTVSPost2010Prop28
280
     0
102
RTVSPost2010PropOp28
 70
     1
102
RTVSPost2010Prop29
280
     1
102
RTVSPost2010PropOp29
 70
     1
102
RTVSPost2010Prop30
280
     1
102
RTVSPost2010PropOp30
 70
     1
102
RTVSPost2010Prop31
280
     0
102
RTVSPost2010PropOp31
 70
     1
102
RTVSPost2010Prop32
280
     0
102
RTVSPost2010PropOp32
 70
     1
102
RTVSPost2010Prop33
280
     0
102
RTVSPost2010PropOp33
 70
     1
102
RTVSPost2010Prop34
280
     0
102
RTVSPost2010PropOp34
 70
     1
102
RTVSPost2010Prop35
280
     0
102
RTVSPost2010PropOp35
 70
     1
102
RTVSPost2010Prop36
280
     0
102
RTVSPost2010PropOp36
 70
     1
102
RTVSPost2010Prop37
 90
       50
102
RTVSPost2010PropOp37
 70
     1
102
RTVSPost2010Prop38
140
0.0
102
RTVSPost2010PropOp38
 70
     1
102
RTVSPost2010Prop39
140
1.0
102
RTVSPost2010PropOp39
 70
     1
102
RTVSPost2010Prop40
 90
        0
102
RTVSPost2010PropOp40
 70
     1
102
RTVSPost2010Prop41ColorIndex
 90
       18
102
RTVSPost2010Prop41ColorRGB
 90
        0
102
RTVSPost2010PropOp41
 70
     1
102
RTVSPost2010Prop42
 90
       50
102
RTVSPost2010PropOp42
 70
     1
102
RTVSPost2010Prop43
 90
        3
102
RTVSPost2010PropOp43
 70
     1
102
RTVSPost2010Prop44ColorIndex
 90
        5
102
RTVSPost2010Prop44ColorRGB
 90
      255
102
RTVSPost2010PropOp44
 70
     1
102
RTVSPost2010Prop45
280
     0
102
RTVSPost2010PropOp45
 70
     1
102
RTVSPost2010Prop46
 90
       50
102
RTVSPost2010PropOp46
 70
     1
102
RTVSPost2010Prop47
 90
       50
102
RTVSPost2010PropOp47
 70
     1
102
RTVSPost2010Prop48
 90
       50
102
RTVSPost2010PropOp48
 70
     1
102
RTVSPost2010Prop49
280
     0
102
RTVSPost2010PropOp49
 70
     1
102
RTVSPost2010Prop50
 90
       50
102
RTVSPost2010PropOp50
 70
     1
102
RTVSPost2010Prop51ColorIndex
 90
      256
102
RTVSPost2010Prop51ColorRGB
 90
-16777216
102
RTVSPost2010PropOp51
 70
     0
102
RTVSPost2010Prop52
140
1.0
102
RTVSPost2010PropOp52
 70
     0
102
RTVSPost2010Prop53
 90
        2
102
RTVSPost2010PropOp53
 70
     1
102
RTVSPost2010Prop54
  1
strokes_ogs.tif
102
RTVSPost2010PropOp54
 70
     1
102
RTVSPost2010Prop55
280
     0
102
RTVSPost2010PropOp55
 70
     1
102
RTVSPost2010Prop56
140
1.0
102
RTVSPost2010PropOp56
 70
     1
102
RTVSPost2010Prop57
140
1.0
102
RTVSPost2010PropOp57
 70
     1
  0
XRECORD
  5
8F
102
{ACAD_REACTORS
330
8E
102
}
330
8E
100
AcDbXrecord
280
     1
102
RTVSPropertyOp0
 70
     1
102
RTVSPropertyOp1
 70
     1
102
RTVSPropertyOp2
 70
     1
102
RTVSPropertyOp3
 70
     1
102
RTVSPropertyOp4
 70
     1
102
RTVSPropertyOp5
 70
     1
102
RTVSPropertyOp6
 70
     1
102
RTVSPropertyOp7
 70
     1
102
RTVSPropertyOp8
 70
     1
102
RTVSPropertyOp9
 70
     1
102
RTVSPropertyOp10
 70
     1
102
RTVSPropertyOp11
 70
     1
102
RTVSPropertyOp12
 70
     1
102
RTVSPropertyOp13
 70
     1
102
RTVSPropertyOp14
 70
     1
102
RTVSPropertyOp15
 70
     1
102
RTVSPropertyOp16
 70
     1
102
RTVSPropertyOp17
 70
     1
102
RTVSPropertyOp18
 70
     1
102
RTVSPropertyOp19
 70
     1
102
RTVSPropertyOp20
 70
     1
102
RTVSPropertyOp21
 70
     1
102
RTVSPropertyOp22
 70
     1
102
RTVSPropertyOp23
 70
     1
102
RTVSPropertyOp24
 70
     1
102
RTVSPropertyOp25
 70
     1
102
RTVSPropertyOp26
 70
     1
102
RTVSPropertyOp27
 70
     1
102
RTVSPropertyOp28
 70
     1
102
RTVSPropertyOp29
 70
     1
102
RTVSPropertyOp30
 70
     1
102
RTVSPropertyOp31
 70
     1
102
RTVSPropertyOp32
 70
     1
102
RTVSPropertyOp33
 70
     1
102
RTVSPropertyOp34
 70
     1
102
RTVSPropertyOp35
 70
     1
102
RTVSPropertyOp36
 70
     1
102
RTVSPropertyOp37
 70
     1
102
RTVSPropertyOp38
 70
     1
102
RTVSPropertyOp39
 70
     1
102
RTVSPropertyOp40
 70
     1
102
RTVSPropertyOp41
 70
     1
102
RTVSPropertyOp42
 70
     1
102
RTVSPropertyOp43
 70
     1
102
RTVSPropertyOp44
 70
     1
102
RTVSPropertyOp45
 70
     1
102
RTVSPropertyOp46
 70
     1
102
RTVSPropertyOp47
 70
     1
102
RTVSPropertyOp48
 70
     1
102
RTVSPropertyOp49
 70
     1
102
RTVSPropertyOp50
 70
     1
102
RTVSPropertyOp51
 70
     0
102
RTVSPropertyOp52
 70
     0
102
RTVSPropertyOp53
 70
     1
102
RTVSPropertyOp54
 70
     1
102
RTVSPropertyOp55
 70
     1
102
RTVSPropertyOp56
 70
     1
102
RTVSPropertyOp57
 70
     1
102
RTVSPost2010Prop28
280
     0
102
RTVSPost2010PropOp28
 70
     1
102
RTVSPost2010Prop29
280
     1
102
RTVSPost2010PropOp29
 70
     1
102
RTVSPost2010Prop30
280
     1
102
RTVSPost2010PropOp30
 70
     1
102
RTVSPost2010Prop31
280
     0
102
RTVSPost2010PropOp31
 70
     1
102
RTVSPost2010Prop32
280
     0
102
RTVSPost2010PropOp32
 70
     1
102
RTVSPost2010Prop33
280
     0
102
RTVSPost2010PropOp33
 70
     1
102
RTVSPost2010Prop34
280
     0
102
RTVSPost2010PropOp34
 70
     1
102
RTVSPost2010Prop35
280
     0
102
RTVSPost2010PropOp35
 70
     1
102
RTVSPost2010Prop36
280
     0
102
RTVSPost2010PropOp36
 70
     1
102
RTVSPost2010Prop37
 90
       50
102
RTVSPost2010PropOp37
 70
     1
102
RTVSPost2010Prop38
140
0.0
102
RTVSPost2010PropOp38
 70
     1
102
RTVSPost2010Prop39
140
1.0
102
RTVSPost2010PropOp39
 70
     1
102
RTVSPost2010Prop40
 90
        0
102
RTVSPost2010PropOp40
 70
     1
102
RTVSPost2010Prop41ColorIndex
 90
       18
102
RTVSPost2010Prop41ColorRGB
 90
        0
102
RTVSPost2010PropOp41
 70
     1
102
RTVSPost2010Prop42
 90
       50
102
RTVSPost2010PropOp42
 70
     1
102
RTVSPost2010Prop43
 90
        3
102
RTVSPost2010PropOp43
 70
     1
102
RTVSPost2010Prop44ColorIndex
 90
        5
102
RTVSPost2010Prop44ColorRGB
 90
      255
102
RTVSPost2010PropOp44
 70
     1
102
RTVSPost2010Prop45
280
     0
102
RTVSPost2010PropOp45
 70
     1
102
RTVSPost2010Prop46
 90
       50
102
RTVSPost2010PropOp46
 70
     1
102
RTVSPost2010Prop47
 90
       50
102
RTVSPost2010PropOp47
 70
     1
102
RTVSPost2010Prop48
 90
       50
102
RTVSPost2010PropOp48
 70
     1
102
RTVSPost2010Prop49
280
     0
102
RTVSPost2010PropOp49
 70
     1
102
RTVSPost2010Prop50
 90
       50
102
RTVSPost2010PropOp50
 70
     1
102
RTVSPost2010Prop51ColorIndex
 90
      256
102
RTVSPost2010Prop51ColorRGB
 90
-16777216
102
RTVSPost2010PropOp51
 70
     0
102
RTVSPost2010Prop52
140
1.0
102
RTVSPost2010PropOp52
 70
     0
102
RTVSPost2010Prop53
 90
        2
102
RTVSPost2010PropOp53
 70
     1
102
RTVSPost2010Prop54
  1
strokes_ogs.tif
102
RTVSPost2010PropOp54
 70
     1
102
RTVSPost2010Prop55
280
     0
102
RTVSPost2010PropOp55
 70
     1
102
RTVSPost2010Prop56
140
1.0
102
RTVSPost2010PropOp56
 70
     1
102
RTVSPost2010Prop57
140
1.0
102
RTVSPost2010PropOp57
 70
     1
  0
XRECORD
  5
AF
102
{ACAD_REACTORS
330
AE
102
}
330
AE
100
AcDbXrecord
280
     1
102
RTVSPropertyOp0
 70
     1
102
RTVSPropertyOp1
 70
     1
102
RTVSPropertyOp2
 70
     1
102
RTVSPropertyOp3
 70
     1
102
RTVSPropertyOp4
 70
     1
102
RTVSPropertyOp5
 70
     1
102
RTVSPropertyOp6
 70
     1
102
RTVSPropertyOp7
 70
     1
102
RTVSPropertyOp8
 70
     1
102
RTVSPropertyOp9
 70
     1
102
RTVSPropertyOp10
 70
     1
102
RTVSPropertyOp11
 70
     1
102
RTVSPropertyOp12
 70
     1
102
RTVSPropertyOp13
 70
     1
102
RTVSPropertyOp14
 70
     1
102
RTVSPropertyOp15
 70
     1
102
RTVSPropertyOp16
 70
     1
102
RTVSPropertyOp17
 70
     1
102
RTVSPropertyOp18
 70
     1
102
RTVSPropertyOp19
 70
     1
102
RTVSPropertyOp20
 70
     1
102
RTVSPropertyOp21
 70
     1
102
RTVSPropertyOp22
 70
     1
102
RTVSPropertyOp23
 70
     1
102
RTVSPropertyOp24
 70
     1
102
RTVSPropertyOp25
 70
     1
102
RTVSPropertyOp26
 70
     1
102
RTVSPropertyOp27
 70
     1
102
RTVSPropertyOp28
 70
     1
102
RTVSPropertyOp29
 70
     1
102
RTVSPropertyOp30
 70
     1
102
RTVSPropertyOp31
 70
     1
102
RTVSPropertyOp32
 70
     1
102
RTVSPropertyOp33
 70
     1
102
RTVSPropertyOp34
 70
     1
102
RTVSPropertyOp35
 70
     1
102
RTVSPropertyOp36
 70
     1
102
RTVSPropertyOp37
 70
     1
102
RTVSPropertyOp38
 70
     1
102
RTVSPropertyOp39
 70
     1
102
RTVSPropertyOp40
 70
     1
102
RTVSPropertyOp41
 70
     1
102
RTVSPropertyOp42
 70
     1
102
RTVSPropertyOp43
 70
     1
102
RTVSPropertyOp44
 70
     1
102
RTVSPropertyOp45
 70
     1
102
RTVSPropertyOp46
 70
     1
102
RTVSPropertyOp47
 70
     1
102
RTVSPropertyOp48
 70
     1
102
RTVSPropertyOp49
 70
     1
102
RTVSPropertyOp50
 70
     1
102
RTVSPropertyOp51
 70
     0
102
RTVSPropertyOp52
 70
     0
102
RTVSPropertyOp53
 70
     1
102
RTVSPropertyOp54
 70
     1
102
RTVSPropertyOp55
 70
     1
102
RTVSPropertyOp56
 70
     1
102
RTVSPropertyOp57
 70
     1
102
RTVSPost2010Prop28
280
     0
102
RTVSPost2010PropOp28
 70
     1
102
RTVSPost2010Prop29
280
     1
102
RTVSPost2010PropOp29
 70
     1
102
RTVSPost2010Prop30
280
     1
102
RTVSPost2010PropOp30
 70
     1
102
RTVSPost2010Prop31
280
     0
102
RTVSPost2010PropOp31
 70
     1
102
RTVSPost2010Prop32
280
     0
102
RTVSPost2010PropOp32
 70
     1
102
RTVSPost2010Prop33
280
     0
102
RTVSPost2010PropOp33
 70
     1
102
RTVSPost2010Prop34
280
     0
102
RTVSPost2010PropOp34
 70
     1
102
RTVSPost2010Prop35
280
     0
102
RTVSPost2010PropOp35
 70
     1
102
RTVSPost2010Prop36
280
     0
102
RTVSPost2010PropOp36
 70
     1
102
RTVSPost2010Prop37
 90
       50
102
RTVSPost2010PropOp37
 70
     1
102
RTVSPost2010Prop38
140
0.0
102
RTVSPost2010PropOp38
 70
     1
102
RTVSPost2010Prop39
140
1.0
102
RTVSPost2010PropOp39
 70
     1
102
RTVSPost2010Prop40
 90
        0
102
RTVSPost2010PropOp40
 70
     1
102
RTVSPost2010Prop41ColorIndex
 90
       18
102
RTVSPost2010Prop41ColorRGB
 90
        0
102
RTVSPost2010PropOp41
 70
     1
102
RTVSPost2010Prop42
 90
       50
102
RTVSPost2010PropOp42
 70
     1
102
RTVSPost2010Prop43
 90
        3
102
RTVSPost2010PropOp43
 70
     1
102
RTVSPost2010Prop44ColorIndex
 90
        5
102
RTVSPost2010Prop44ColorRGB
 90
      255
102
RTVSPost2010PropOp44
 70
     1
102
RTVSPost2010Prop45
280
     0
102
RTVSPost2010PropOp45
 70
     1
102
RTVSPost2010Prop46
 90
       50
102
RTVSPost2010PropOp46
 70
     1
102
RTVSPost2010Prop47
 90
       50
102
RTVSPost2010PropOp47
 70
     1
102
RTVSPost2010Prop48
 90
       50
102
RTVSPost2010PropOp48
 70
     1
102
RTVSPost2010Prop49
280
     0
102
RTVSPost2010PropOp49
 70
     1
102
RTVSPost2010Prop50
 90
       50
102
RTVSPost2010PropOp50
 70
     1
102
RTVSPost2010Prop51ColorIndex
 90
      256
102
RTVSPost2010Prop51ColorRGB
 90
-16777216
102
RTVSPost2010PropOp51
 70
     0
102
RTVSPost2010Prop52
140
1.0
102
RTVSPost2010PropOp52
 70
     0
102
RTVSPost2010Prop53
 90
        2
102
RTVSPost2010PropOp53
 70
     1
102
RTVSPost2010Prop54
  1
strokes_ogs.tif
102
RTVSPost2010PropOp54
 70
     1
102
RTVSPost2010Prop55
280
     0
102
RTVSPost2010PropOp55
 70
     1
102
RTVSPost2010Prop56
140
1.0
102
RTVSPost2010PropOp56
 70
     1
102
RTVSPost2010Prop57
140
1.0
102
RTVSPost2010PropOp57
 70
     1
  0
ENDSEC
  0
EOF
