  0
SECTION
  2
HEADER
  9
$ACADVER
  1
AC1014
  9
$HANDSEED
  5
FFFF
  9
$MEASUREMENT
 70
     1
  0
ENDSEC
  0
SECTION
  2
TABLES
  0
TABLE
  2
VPORT
  5
8
330
0
100
AcDbSymbolTable
 70
     4
  0
VPORT
  5
2E
330
8
100
AcDbSymbolTableRecord
100
AcDbViewportTableRecord
  2
*ACTIVE
 70
     0
 10
0.0
 20
0.0
 11
1.0
 21
1.0
 12
210.0
 22
148.5
 13
0.0
 23
0.0
 14
10.0
 24
10.0
 15
10.0
 25
10.0
 16
0.0
 26
0.0
 36
1.0
 17
0.0
 27
0.0
 37
0.0
 40
341.0
 41
1.24
 42
50.0
 43
0.0
 44
0.0
 50
0.0
 51
0.0
 71
     0
 72
   100
 73
     1
 74
     3
 75
     0
 76
     0
 77
     0
 78
     0
  0
ENDTAB
  0
TABLE
  2
LTYPE
  5
5
330
0
100
AcDbSymbolTable
 70
     1
  0
LTYPE
  5
14
330
5
100
AcDbSymbolTableRecord
100
AcDbLinetypeTableRecord
  2
BYBLOCK
 70
     0
  3

 72
    65
 73
     0
 40
0.0
  0
LTYPE
  5
15
330
5
100
AcDbSymbolTableRecord
100
AcDbLinetypeTableRecord
  2
BYLAYER
 70
     0
  3

 72
    65
 73
     0
 40
0.0
  0
LTYPE
  5
16
330
5
100
AcDbSymbolTableRecord
100
AcDbLinetypeTableRecord
  2
CONTINUOUS
 70
     0
  3
Solid line
 72
    65
 73
     0
 40
0.0
  0
ENDTAB
  0
TABLE
  2
LAYER
  5
2
100
AcDbSymbolTable
 70
2
  0
LAYER
  5
50
100
AcDbSymbolTableRecord
100
AcDbLayerTableRecord
  2
0
 70
0
  6
CONTINUOUS
  0
LAYER
  5
51
100
AcDbSymbolTableRecord
100
AcDbLayerTableRecord
  2
Layer_1
 70
0
  6
CONTINUOUS
  0
ENDTAB
  0
TABLE
  2
STYLE
  5
3
330
0
100
AcDbSymbolTable
 70
     1
  0
STYLE
  5
11
330
3
100
AcDbSymbolTableRecord
100
AcDbTextStyleTableRecord
  2
STANDARD
 70
     0
 40
0.0
 41
1.0
 50
0.0
 71
     0
 42
2.5
  3
txt
  4

  0
ENDTAB
  0
TABLE
  2
VIEW
  5
6
330
0
100
AcDbSymbolTable
 70
     0
  0
ENDTAB
  0
TABLE
  2
UCS
  5
7
330
0
100
AcDbSymbolTable
 70
     0
  0
ENDTAB
  0
TABLE
  2
APPID
  5
9
330
0
100
AcDbSymbolTable
 70
     2
  0
APPID
  5
12
330
9
100
AcDbSymbolTableRecord
100
AcDbRegAppTableRecord
  2
ACAD
 70
     0
  0
ENDTAB
  0
TABLE
  2
DIMSTYLE
  5
A
330
0
100
AcDbSymbolTable
 70
     1
  0
DIMSTYLE
105
27
330
A
100
AcDbSymbolTableRecord
100
AcDbDimStyleTableRecord
  2
ISO-25
 70
     0
  3

  4

  5

  6

  7

 40
1.0
 41
2.5
 42
0.625
 43
3.75
 44
1.25
 45
0.0
 46
0.0
 47
0.0
 48
0.0
140
2.5
141
2.5
142
0.0
143
0.03937007874016
144
1.0
145
0.0
146
1.0
147
0.625
 71
     0
 72
     0
 73
     0
 74
     0
 75
     0
 76
     0
 77
     1
 78
     8
170
     0
171
     3
172
     1
173
     0
174
     0
175
     0
176
     0
177
     0
178
     0
270
     2
271
     2
272
     2
273
     2
274
     3
340
11
275
     0
280
     0
281
     0
282
     0
283
     0
284
     8
285
     0
286
     0
287
     3
288
     0
  0
ENDTAB
  0
TABLE
  2
BLOCK_RECORD
  5
1
330
0
100
AcDbSymbolTable
 70
     1
  0
BLOCK_RECORD
  5
1F
330
1
100
AcDbSymbolTableRecord
100
AcDbBlockTableRecord
  2
*MODEL_SPACE
  0
BLOCK_RECORD
  5
1B
330
1
100
AcDbSymbolTableRecord
100
AcDbBlockTableRecord
  2
*PAPER_SPACE
  0
ENDTAB
  0
ENDSEC
  0
SECTION
  2
BLOCKS
  0
BLOCK
  5
20
330
1F
100
AcDbEntity
  8
0
100
AcDbBlockBegin
  2
*MODEL_SPACE
 70
     0
 10
0.0
 20
0.0
 30
0.0
  3
*MODEL_SPACE
  1

  0
ENDBLK
  5
21
330
1F
100
AcDbEntity
  8
0
100
AcDbBlockEnd
  0
BLOCK
  5
1C
330
1B
100
AcDbEntity
 67
     1
  8
0
100
AcDbBlockBegin
  2
*PAPER_SPACE
  1

  0
ENDBLK
  5
1D
330
1B
100
AcDbEntity
 67
     1
  8
0
100
AcDbBlockEnd
  0
ENDSEC
  0
SECTION
  2
ENTITIES
  0
SPLINE
  5
100
100
AcDbEntity
  8
Layer_1
 62
7
100
AcDbSpline
 70
8
 71
3
 72
8
 73
4
 74
0
 40
0
 40
0
 40
0
 40
0
 40
1
 40
1
 40
1
 40
1
 10
-700.785120
 20
-79.620076
 30
0.0
 10
-702.328608
 20
-78.613996
 30
0.0
 10
-706.180448
 20
-77.947196
 30
0.0
 10
-709.344744
 20
-78.138236
 30
0.0
  0
SPLINE
  5
101
100
AcDbEntity
  8
Layer_1
 62
7
100
AcDbSpline
 70
8
 71
3
 72
8
 73
4
 74
0
 40
0
 40
0
 40
0
 40
0
 40
1
 40
1
 40
1
 40
1
 10
-709.344744
 20
-78.138236
 30
0.0
 10
-714.884552
 20
-78.472636
 30
0.0
 10
-726.977720
 20
-71.858076
 30
0.0
 10
-726.977720
 20
-68.493596
 30
0.0
  0
SPLINE
  5
102
100
AcDbEntity
  8
Layer_1
 62
7
100
AcDbSpline
 70
8
 71
3
 72
8
 73
4
 74
0
 40
0
 40
0
 40
0
 40
0
 40
1
 40
1
 40
1
 40
1
 10
-726.977720
 20
-68.493596
 30
0.0
 10
-726.977720
 20
-67.650556
 30
0.0
 10
-718.769144
 20
-59.573836
 30
0.0
 10
-708.736440
 20
-50.545276
 30
0.0
  0
SPLINE
  5
103
100
AcDbEntity
  8
Layer_1
 62
7
100
AcDbSpline
 70
8
 71
3
 72
8
 73
4
 74
0
 40
0
 40
0
 40
0
 40
0
 40
1
 40
1
 40
1
 40
1
 10
-708.736440
 20
-50.545276
 30
0.0
 10
-698.703744
 20
-41.516796
 30
0.0
 10
-680.508816
 20
-24.794396
 30
0.0
 10
-668.303272
 20
-13.384476
 30
0.0
  0
SPLINE
  5
104
100
AcDbEntity
  8
Layer_1
 62
7
100
AcDbSpline
 70
8
 71
3
 72
8
 73
4
 74
0
 40
0
 40
0
 40
0
 40
0
 40
1
 40
1
 40
1
 40
1
 10
-668.303272
 20
-13.384476
 30
0.0
 10
-656.097728
 20
-1.974316
 30
0.0
 10
-645.363440
 20
7.641764
 30
0.0
 10
-644.449296
 20
7.984724
 30
0.0
  0
SPLINE
  5
105
100
AcDbEntity
  8
Layer_1
 62
7
100
AcDbSpline
 70
8
 71
3
 72
8
 73
4
 74
0
 40
0
 40
0
 40
0
 40
0
 40
1
 40
1
 40
1
 40
1
 10
-644.449296
 20
7.984724
 30
0.0
 10
-642.062160
 20
8.880404
 30
0.0
 10
-642.396808
 20
12.038324
 30
0.0
 10
-644.878856
 20
12.038324
 30
0.0
  0
SPLINE
  5
106
100
AcDbEntity
  8
Layer_1
 62
7
100
AcDbSpline
 70
8
 71
3
 72
8
 73
4
 74
0
 40
0
 40
0
 40
0
 40
0
 40
1
 40
1
 40
1
 40
1
 10
-644.878856
 20
12.038324
 30
0.0
 10
-647.457000
 20
12.038324
 30
0.0
 10
-652.723320
 20
7.501044
 30
0.0
 10
-690.495176
 20
-27.263916
 30
0.0
  0
SPLINE
  5
107
100
AcDbEntity
  8
Layer_1
 62
7
100
AcDbSpline
 70
8
 71
3
 72
8
 73
4
 74
0
 40
0
 40
0
 40
0
 40
0
 40
1
 40
1
 40
1
 40
1
 10
-690.495176
 20
-27.263916
 30
0.0
 10
-706.959080
 20
-42.417196
 30
0.0
 10
-723.080680
 20
-57.035596
 30
0.0
 10
-726.320936
 20
-59.749116
 30
0.0
  0
SPLINE
  5
108
100
AcDbEntity
  8
Layer_1
 62
7
100
AcDbSpline
 70
8
 71
3
 72
8
 73
4
 74
0
 40
0
 40
0
 40
0
 40
0
 40
1
 40
1
 40
1
 40
1
 10
-736.143160
 20
-58.020636
 30
0.0
 10
-738.305136
 20
-54.356476
 30
0.0
 10
-740.074016
 20
-48.199756
 30
0.0
 10
-740.074016
 20
-44.339276
 30
0.0
  0
SPLINE
  5
109
100
AcDbEntity
  8
Layer_1
 62
7
100
AcDbSpline
 70
8
 71
3
 72
8
 73
4
 74
0
 40
0
 40
0
 40
0
 40
0
 40
1
 40
1
 40
1
 40
1
 10
-740.074016
 20
-44.339276
 30
0.0
 10
-740.074016
 20
-40.478796
 30
0.0
 10
-741.310104
 20
-35.685996
 30
0.0
 10
-742.820872
 20
-33.688636
 30
0.0
  0
SPLINE
  5
10a
100
AcDbEntity
  8
Layer_1
 62
7
100
AcDbSpline
 70
8
 71
3
 72
8
 73
4
 74
0
 40
0
 40
0
 40
0
 40
0
 40
1
 40
1
 40
1
 40
1
 10
-742.820872
 20
-33.688636
 30
0.0
 10
-746.847376
 20
-28.365036
 30
0.0
 10
-746.340224
 20
-26.768396
 30
0.0
 10
-739.141656
 20
-22.105676
 30
0.0
  0
SPLINE
  5
10b
100
AcDbEntity
  8
Layer_1
 62
7
100
AcDbSpline
 70
8
 71
3
 72
8
 73
4
 74
0
 40
0
 40
0
 40
0
 40
0
 40
1
 40
1
 40
1
 40
1
 10
-739.141656
 20
-22.105676
 30
0.0
 10
-732.087896
 20
-17.536556
 30
0.0
 10
-728.631120
 20
-16.556076
 30
0.0
 10
-732.216240
 20
-20.141036
 30
0.0
  0
SPLINE
  5
10c
100
AcDbEntity
  8
Layer_1
 62
7
100
AcDbSpline
 70
8
 71
3
 72
8
 73
4
 74
0
 40
0
 40
0
 40
0
 40
0
 40
1
 40
1
 40
1
 40
1
 10
-732.216240
 20
-20.141036
 30
0.0
 10
-735.648896
 20
-23.573756
 30
0.0
 10
-734.892152
 20
-25.768556
 30
0.0
 10
-730.731296
 20
-24.447916
 30
0.0
  0
SPLINE
  5
10d
100
AcDbEntity
  8
Layer_1
 62
7
100
AcDbSpline
 70
8
 71
3
 72
8
 73
4
 74
0
 40
0
 40
0
 40
0
 40
0
 40
1
 40
1
 40
1
 40
1
 10
-730.731296
 20
-24.447916
 30
0.0
 10
-728.035320
 20
-23.592316
 30
0.0
 10
-727.275624
 20
-23.979036
 30
0.0
 10
-727.990936
 20
-25.843116
 30
0.0
  0
SPLINE
  5
10e
100
AcDbEntity
  8
Layer_1
 62
7
100
AcDbSpline
 70
8
 71
3
 72
8
 73
4
 74
0
 40
0
 40
0
 40
0
 40
0
 40
1
 40
1
 40
1
 40
1
 10
-727.990936
 20
-25.843116
 30
0.0
 10
-728.535232
 20
-27.261516
 30
0.0
 10
-727.337120
 20
-29.909436
 30
0.0
 10
-725.328440
 20
-31.727196
 30
0.0
  0
SPLINE
  5
10f
100
AcDbEntity
  8
Layer_1
 62
7
100
AcDbSpline
 70
8
 71
3
 72
8
 73
4
 74
0
 40
0
 40
0
 40
0
 40
0
 40
1
 40
1
 40
1
 40
1
 10
-725.328440
 20
-31.727196
 30
0.0
 10
-722.259288
 20
-34.504796
 30
0.0
 10
-720.979480
 20
-34.665196
 30
0.0
 10
-717.311128
 20
-32.732236
 30
0.0
  0
SPLINE
  5
110
100
AcDbEntity
  8
Layer_1
 62
7
100
AcDbSpline
 70
8
 71
3
 72
8
 73
4
 74
0
 40
0
 40
0
 40
0
 40
0
 40
1
 40
1
 40
1
 40
1
 10
-717.311128
 20
-32.732236
 30
0.0
 10
-711.918192
 20
-29.890636
 30
0.0
 10
-710.021096
 20
-27.160316
 30
0.0
 10
-710.902152
 20
-23.508796
 30
0.0
  0
SPLINE
  5
111
100
AcDbEntity
  8
Layer_1
 62
7
100
AcDbSpline
 70
8
 71
3
 72
8
 73
4
 74
0
 40
0
 40
0
 40
0
 40
0
 40
1
 40
1
 40
1
 40
1
 10
-710.902152
 20
-23.508796
 30
0.0
 10
-711.295640
 20
-21.877916
 30
0.0
 10
-706.274024
 20
-16.000236
 30
0.0
 10
-698.914224
 20
-9.476956
 30
0.0
  0
SPLINE
  5
112
100
AcDbEntity
  8
Layer_1
 62
7
100
AcDbSpline
 70
8
 71
3
 72
8
 73
4
 74
0
 40
0
 40
0
 40
0
 40
0
 40
1
 40
1
 40
1
 40
1
 10
-698.914224
 20
-9.476956
 30
0.0
 10
-690.260880
 20
-1.807276
 30
0.0
 10
-686.513960
 20
2.775524
 30
0.0
 10
-687.085144
 20
4.991204
 30
0.0
  0
SPLINE
  5
113
100
AcDbEntity
  8
Layer_1
 62
7
100
AcDbSpline
 70
8
 71
3
 72
8
 73
4
 74
0
 40
0
 40
0
 40
0
 40
0
 40
1
 40
1
 40
1
 40
1
 10
-687.085144
 20
4.991204
 30
0.0
 10
-688.014688
 20
8.596964
 30
0.0
 10
-662.268816
 20
35.268884
 30
0.0
 10
-655.910816
 20
37.286804
 30
0.0
  0
SPLINE
  5
114
100
AcDbEntity
  8
Layer_1
 62
7
100
AcDbSpline
 70
8
 71
3
 72
8
 73
4
 74
0
 40
0
 40
0
 40
0
 40
0
 40
1
 40
1
 40
1
 40
1
 10
-655.910816
 20
37.286804
 30
0.0
 10
-652.778888
 20
38.280884
 30
0.0
 10
-652.578728
 20
38.993924
 30
0.0
 10
-654.532824
 20
42.196188
 30
0.0
  0
SPLINE
  5
115
100
AcDbEntity
  8
Layer_1
 62
7
100
AcDbSpline
 70
8
 71
3
 72
8
 73
4
 74
0
 40
0
 40
0
 40
0
 40
0
 40
1
 40
1
 40
1
 40
1
 10
-654.532824
 20
42.196188
 30
0.0
 10
-656.434696
 20
45.312716
 30
0.0
 10
-656.268648
 20
46.351004
 30
0.0
 10
-653.544888
 20
48.373380
 30
0.0
  0
SPLINE
  5
116
100
AcDbEntity
  8
Layer_1
 62
7
100
AcDbSpline
 70
8
 71
3
 72
8
 73
4
 74
0
 40
0
 40
0
 40
0
 40
0
 40
1
 40
1
 40
1
 40
1
 10
-653.544888
 20
48.373380
 30
0.0
 10
-650.225896
 20
50.837692
 30
0.0
 10
-649.069768
 20
55.069092
 30
0.0
 10
-651.715448
 20
55.069092
 30
0.0
  0
SPLINE
  5
117
100
AcDbEntity
  8
Layer_1
 62
7
100
AcDbSpline
 70
8
 71
3
 72
8
 73
4
 74
0
 40
0
 40
0
 40
0
 40
0
 40
1
 40
1
 40
1
 40
1
 10
-651.715448
 20
55.069092
 30
0.0
 10
-652.509984
 20
55.069092
 30
0.0
 10
-656.298560
 20
52.482068
 30
0.0
 10
-660.134496
 20
49.320132
 30
0.0
  0
SPLINE
  5
118
100
AcDbEntity
  8
Layer_1
 62
7
100
AcDbSpline
 70
8
 71
3
 72
8
 73
4
 74
0
 40
0
 40
0
 40
0
 40
0
 40
1
 40
1
 40
1
 40
1
 10
-660.134496
 20
49.320132
 30
0.0
 10
-664.945880
 20
45.354212
 30
0.0
 10
-667.108920
 20
44.429436
 30
0.0
 10
-667.108920
 20
46.338300
 30
0.0
  0
SPLINE
  5
119
100
AcDbEntity
  8
Layer_1
 62
7
100
AcDbSpline
 70
8
 71
3
 72
8
 73
4
 74
0
 40
0
 40
0
 40
0
 40
0
 40
1
 40
1
 40
1
 40
1
 10
-667.108920
 20
46.338300
 30
0.0
 10
-667.108920
 20
47.860156
 30
0.0
 10
-662.933344
 20
52.105188
 30
0.0
 10
-657.829856
 20
55.771740
 30
0.0
  0
LWPOLYLINE
  5
11a
100
AcDbEntity
  8
Layer_1
 62
7
100
AcDbPolyline
 90
3
 70
0
 10
-726.320936
 20
-59.749116
 30
0.0
 10
-732.212304
 20
-64.682956
 30
0.0
 10
-736.143160
 20
-58.020636
 30
0.0
  0
SPLINE
  5
11b
100
AcDbEntity
  8
Layer_1
 62
7
100
AcDbSpline
 70
8
 71
3
 72
8
 73
4
 74
0
 40
0
 40
0
 40
0
 40
0
 40
1
 40
1
 40
1
 40
1
 10
-643.096880
 20
57.848852
 30
0.0
 10
-638.579456
 20
54.047676
 30
0.0
 10
-637.495752
 20
51.484484
 30
0.0
 10
-636.785568
 20
42.920548
 30
0.0
  0
SPLINE
  5
11c
100
AcDbEntity
  8
Layer_1
 62
7
100
AcDbSpline
 70
8
 71
3
 72
8
 73
4
 74
0
 40
0
 40
0
 40
0
 40
0
 40
1
 40
1
 40
1
 40
1
 10
-636.785568
 20
42.920548
 30
0.0
 10
-636.129944
 20
35.014564
 30
0.0
 10
-634.601960
 20
30.934724
 30
0.0
 10
-630.292832
 20
25.584004
 30
0.0
  0
SPLINE
  5
11d
100
AcDbEntity
  8
Layer_1
 62
7
100
AcDbSpline
 70
8
 71
3
 72
8
 73
4
 74
0
 40
0
 40
0
 40
0
 40
0
 40
1
 40
1
 40
1
 40
1
 10
-630.292832
 20
25.584004
 30
0.0
 10
-622.545504
 20
15.964004
 30
0.0
 10
-610.520800
 20
7.820484
 30
0.0
 10
-604.137624
 20
7.870644
 30
0.0
  0
SPLINE
  5
11e
100
AcDbEntity
  8
Layer_1
 62
7
100
AcDbSpline
 70
8
 71
3
 72
8
 73
4
 74
0
 40
0
 40
0
 40
0
 40
0
 40
1
 40
1
 40
1
 40
1
 10
-604.137624
 20
7.870644
 30
0.0
 10
-596.664552
 20
7.929844
 30
0.0
 10
-590.402008
 20
1.597364
 30
0.0
 10
-590.402008
 20
-6.017596
 30
0.0
  0
SPLINE
  5
11f
100
AcDbEntity
  8
Layer_1
 62
7
100
AcDbSpline
 70
8
 71
3
 72
8
 73
4
 74
0
 40
0
 40
0
 40
0
 40
0
 40
1
 40
1
 40
1
 40
1
 10
-590.402008
 20
-6.017596
 30
0.0
 10
-590.402008
 20
-11.418636
 30
0.0
 10
-591.384416
 20
-12.670636
 30
0.0
 10
-598.210328
 20
-15.968556
 30
0.0
  0
SPLINE
  5
120
100
AcDbEntity
  8
Layer_1
 62
7
100
AcDbSpline
 70
8
 71
3
 72
8
 73
4
 74
0
 40
0
 40
0
 40
0
 40
0
 40
1
 40
1
 40
1
 40
1
 10
-598.210328
 20
-15.968556
 30
0.0
 10
-602.504904
 20
-18.043436
 30
0.0
 10
-606.270200
 20
-19.489596
 30
0.0
 10
-606.577664
 20
-19.182156
 30
0.0
  0
SPLINE
  5
121
100
AcDbEntity
  8
Layer_1
 62
7
100
AcDbSpline
 70
8
 71
3
 72
8
 73
4
 74
0
 40
0
 40
0
 40
0
 40
0
 40
1
 40
1
 40
1
 40
1
 10
-606.577664
 20
-19.182156
 30
0.0
 10
-606.885128
 20
-18.874716
 30
0.0
 10
-604.620760
 20
-15.570876
 30
0.0
 10
-601.545752
 20
-11.840316
 30
0.0
  0
SPLINE
  5
122
100
AcDbEntity
  8
Layer_1
 62
7
100
AcDbSpline
 70
8
 71
3
 72
8
 73
4
 74
0
 40
0
 40
0
 40
0
 40
0
 40
1
 40
1
 40
1
 40
1
 10
-601.545752
 20
-11.840316
 30
0.0
 10
-597.941496
 20
-7.467756
 30
0.0
 10
-596.683392
 20
-4.607356
 30
0.0
 10
-598.005184
 20
-3.790396
 30
0.0
  0
SPLINE
  5
123
100
AcDbEntity
  8
Layer_1
 62
7
100
AcDbSpline
 70
8
 71
3
 72
8
 73
4
 74
0
 40
0
 40
0
 40
0
 40
0
 40
1
 40
1
 40
1
 40
1
 10
-598.005184
 20
-3.790396
 30
0.0
 10
-599.132880
 20
-3.093436
 30
0.0
 10
-601.250224
 20
-4.228876
 30
0.0
 10
-602.710368
 20
-6.313516
 30
0.0
  0
LWPOLYLINE
  5
124
100
AcDbEntity
  8
Layer_1
 62
7
100
AcDbPolyline
 90
3
 70
0
 10
-657.829856
 20
55.771740
 30
0.0
 10
-648.550792
 20
62.437996
 30
0.0
 10
-643.096880
 20
57.848852
 30
0.0
  0
SPLINE
  5
125
100
AcDbEntity
  8
Layer_1
 62
7
100
AcDbSpline
 70
8
 71
3
 72
8
 73
4
 74
0
 40
0
 40
0
 40
0
 40
0
 40
1
 40
1
 40
1
 40
1
 10
-631.983536
 20
-13.395116
 30
0.0
 10
-645.607760
 20
-26.139916
 30
0.0
 10
-655.249424
 20
-31.303756
 30
0.0
 10
-657.779168
 20
-27.210476
 30
0.0
  0
SPLINE
  5
126
100
AcDbEntity
  8
Layer_1
 62
7
100
AcDbSpline
 70
8
 71
3
 72
8
 73
4
 74
0
 40
0
 40
0
 40
0
 40
0
 40
1
 40
1
 40
1
 40
1
 10
-657.779168
 20
-27.210476
 30
0.0
 10
-658.942224
 20
-25.328636
 30
0.0
 10
-662.220040
 20
-27.378876
 30
0.0
 10
-670.908144
 20
-35.422476
 30
0.0
  0
SPLINE
  5
127
100
AcDbEntity
  8
Layer_1
 62
7
100
AcDbSpline
 70
8
 71
3
 72
8
 73
4
 74
0
 40
0
 40
0
 40
0
 40
0
 40
1
 40
1
 40
1
 40
1
 10
-670.908144
 20
-35.422476
 30
0.0
 10
-677.276552
 20
-41.318476
 30
0.0
 10
-684.440872
 20
-47.422716
 30
0.0
 10
-686.828848
 20
-48.987436
 30
0.0
  0
SPLINE
  5
128
100
AcDbEntity
  8
Layer_1
 62
7
100
AcDbSpline
 70
8
 71
3
 72
8
 73
4
 74
0
 40
0
 40
0
 40
0
 40
0
 40
1
 40
1
 40
1
 40
1
 10
-686.828848
 20
-48.987436
 30
0.0
 10
-689.216832
 20
-50.552076
 30
0.0
 10
-692.482488
 20
-53.834316
 30
0.0
 10
-694.085872
 20
-56.281516
 30
0.0
  0
SPLINE
  5
129
100
AcDbEntity
  8
Layer_1
 62
7
100
AcDbSpline
 70
8
 71
3
 72
8
 73
4
 74
0
 40
0
 40
0
 40
0
 40
0
 40
1
 40
1
 40
1
 40
1
 10
-694.085872
 20
-56.281516
 30
0.0
 10
-697.338432
 20
-61.245516
 30
0.0
 10
-696.088800
 20
-67.291356
 30
0.0
 10
-692.124648
 20
-65.770156
 30
0.0
  0
SPLINE
  5
12a
100
AcDbEntity
  8
Layer_1
 62
7
100
AcDbSpline
 70
8
 71
3
 72
8
 73
4
 74
0
 40
0
 40
0
 40
0
 40
0
 40
1
 40
1
 40
1
 40
1
 10
-692.124648
 20
-65.770156
 30
0.0
 10
-690.713936
 20
-65.228876
 30
0.0
 10
-689.559720
 20
-65.531276
 30
0.0
 10
-689.559720
 20
-66.442236
 30
0.0
  0
SPLINE
  5
12b
100
AcDbEntity
  8
Layer_1
 62
7
100
AcDbSpline
 70
8
 71
3
 72
8
 73
4
 74
0
 40
0
 40
0
 40
0
 40
0
 40
1
 40
1
 40
1
 40
1
 10
-689.559720
 20
-66.442236
 30
0.0
 10
-689.559720
 20
-67.353196
 30
0.0
 10
-690.550680
 20
-68.428796
 30
0.0
 10
-691.761864
 20
-68.832636
 30
0.0
  0
SPLINE
  5
12c
100
AcDbEntity
  8
Layer_1
 62
7
100
AcDbSpline
 70
8
 71
3
 72
8
 73
4
 74
0
 40
0
 40
0
 40
0
 40
0
 40
1
 40
1
 40
1
 40
1
 10
-691.761864
 20
-68.832636
 30
0.0
 10
-693.010888
 20
-69.248956
 30
0.0
 10
-693.335368
 20
-70.583756
 30
0.0
 10
-692.511576
 20
-71.916716
 30
0.0
  0
SPLINE
  5
12d
100
AcDbEntity
  8
Layer_1
 62
7
100
AcDbSpline
 70
8
 71
3
 72
8
 73
4
 74
0
 40
0
 40
0
 40
0
 40
0
 40
1
 40
1
 40
1
 40
1
 10
-692.511576
 20
-71.916716
 30
0.0
 10
-691.391944
 20
-73.728316
 30
0.0
 10
-690.244320
 20
-73.529436
 30
0.0
 10
-687.503080
 20
-71.048716
 30
0.0
  0
SPLINE
  5
12e
100
AcDbEntity
  8
Layer_1
 62
7
100
AcDbSpline
 70
8
 71
3
 72
8
 73
4
 74
0
 40
0
 40
0
 40
0
 40
0
 40
1
 40
1
 40
1
 40
1
 10
-687.503080
 20
-71.048716
 30
0.0
 10
-682.822392
 20
-66.812556
 30
0.0
 10
-682.975872
 20
-69.275276
 30
0.0
 10
-687.816216
 20
-76.072796
 30
0.0
  0
SPLINE
  5
12f
100
AcDbEntity
  8
Layer_1
 62
7
100
AcDbSpline
 70
8
 71
3
 72
8
 73
4
 74
0
 40
0
 40
0
 40
0
 40
0
 40
1
 40
1
 40
1
 40
1
 10
-687.816216
 20
-76.072796
 30
0.0
 10
-691.807944
 20
-81.678636
 30
0.0
 10
-695.906864
 20
-82.799836
 30
0.0
 10
-700.785120
 20
-79.620076
 30
0.0
  0
LWPOLYLINE
  5
130
100
AcDbEntity
  8
Layer_1
 62
7
100
AcDbPolyline
 90
5
 70
0
 10
-602.710368
 20
-6.313516
 30
0.0
 10
-605.365192
 20
-10.103756
 30
0.0
 10
-612.649688
 20
-6.113676
 30
0.0
 10
-619.934184
 20
-2.123516
 30
0.0
 10
-631.983536
 20
-13.395116
 30
0.0
  0
SPLINE
  5
131
100
AcDbEntity
  8
Layer_1
 62
7
100
AcDbSpline
 70
8
 71
3
 72
8
 73
4
 74
0
 40
0
 40
0
 40
0
 40
0
 40
1
 40
1
 40
1
 40
1
 10
-592.272904
 20
-9.366476
 30
0.0
 10
-592.272904
 20
-8.912876
 30
0.0
 10
-593.114816
 20
-8.541596
 30
0.0
 10
-594.143816
 20
-8.541596
 30
0.0
  0
SPLINE
  5
132
100
AcDbEntity
  8
Layer_1
 62
7
100
AcDbSpline
 70
8
 71
3
 72
8
 73
4
 74
0
 40
0
 40
0
 40
0
 40
0
 40
1
 40
1
 40
1
 40
1
 10
-594.143816
 20
-8.541596
 30
0.0
 10
-595.172816
 20
-8.541596
 30
0.0
 10
-596.014712
 20
-9.433196
 30
0.0
 10
-596.014712
 20
-10.522876
 30
0.0
  0
SPLINE
  5
133
100
AcDbEntity
  8
Layer_1
 62
7
100
AcDbSpline
 70
8
 71
3
 72
8
 73
4
 74
0
 40
0
 40
0
 40
0
 40
0
 40
1
 40
1
 40
1
 40
1
 10
-596.014712
 20
-10.522876
 30
0.0
 10
-596.014712
 20
-11.612556
 30
0.0
 10
-595.172816
 20
-11.983836
 30
0.0
 10
-594.143816
 20
-11.347916
 30
0.0
  0
SPLINE
  5
134
100
AcDbEntity
  8
Layer_1
 62
7
100
AcDbSpline
 70
8
 71
3
 72
8
 73
4
 74
0
 40
0
 40
0
 40
0
 40
0
 40
1
 40
1
 40
1
 40
1
 10
-594.143816
 20
-11.347916
 30
0.0
 10
-593.114816
 20
-10.711996
 30
0.0
 10
-592.272904
 20
-9.820316
 30
0.0
 10
-592.272904
 20
-9.366476
 30
0.0
  0
LWPOLYLINE
  5
135
100
AcDbEntity
  8
Layer_1
 62
7
100
AcDbPolyline
 90
2
 70
0
 10
-700.785120
 20
-79.620076
 30
0.0
 10
-700.785120
 20
-79.620076
 30
0.0
  0
SPLINE
  5
136
100
AcDbEntity
  8
Layer_1
 62
7
100
AcDbSpline
 70
8
 71
3
 72
8
 73
4
 74
0
 40
0
 40
0
 40
0
 40
0
 40
1
 40
1
 40
1
 40
1
 10
-300.276704
 20
-76.577116
 30
0.0
 10
-302.409376
 20
-73.865836
 30
0.0
 10
-304.128696
 20
-70.708716
 30
0.0
 10
-304.097400
 20
-69.561196
 30
0.0
  0
SPLINE
  5
137
100
AcDbEntity
  8
Layer_1
 62
7
100
AcDbSpline
 70
8
 71
3
 72
8
 73
4
 74
0
 40
0
 40
0
 40
0
 40
0
 40
1
 40
1
 40
1
 40
1
 10
-304.097400
 20
-69.561196
 30
0.0
 10
-304.066120
 20
-68.413756
 30
0.0
 10
-303.172464
 20
-68.965916
 30
0.0
 10
-302.111504
 20
-70.788316
 30
0.0
  0
SPLINE
  5
138
100
AcDbEntity
  8
Layer_1
 62
7
100
AcDbSpline
 70
8
 71
3
 72
8
 73
4
 74
0
 40
0
 40
0
 40
0
 40
0
 40
1
 40
1
 40
1
 40
1
 10
-302.111504
 20
-70.788316
 30
0.0
 10
-299.591616
 20
-75.116716
 30
0.0
 10
-296.165160
 20
-72.950556
 30
0.0
 10
-297.730488
 20
-68.018556
 30
0.0
  0
SPLINE
  5
139
100
AcDbEntity
  8
Layer_1
 62
7
100
AcDbSpline
 70
8
 71
3
 72
8
 73
4
 74
0
 40
0
 40
0
 40
0
 40
0
 40
1
 40
1
 40
1
 40
1
 10
-297.730488
 20
-68.018556
 30
0.0
 10
-298.467952
 20
-65.695036
 30
0.0
 10
-298.214504
 20
-64.649916
 30
0.0
 10
-297.083112
 20
-65.349116
 30
0.0
  0
SPLINE
  5
13a
100
AcDbEntity
  8
Layer_1
 62
7
100
AcDbSpline
 70
8
 71
3
 72
8
 73
4
 74
0
 40
0
 40
0
 40
0
 40
0
 40
1
 40
1
 40
1
 40
1
 10
-297.083112
 20
-65.349116
 30
0.0
 10
-296.060480
 20
-65.981116
 30
0.0
 10
-294.282160
 20
-65.364316
 30
0.0
 10
-293.131304
 20
-63.977036
 30
0.0
  0
SPLINE
  5
13b
100
AcDbEntity
  8
Layer_1
 62
7
100
AcDbSpline
 70
8
 71
3
 72
8
 73
4
 74
0
 40
0
 40
0
 40
0
 40
0
 40
1
 40
1
 40
1
 40
1
 10
-293.131304
 20
-63.977036
 30
0.0
 10
-291.537448
 20
-62.056476
 30
0.0
 10
-292.036040
 20
-60.166716
 30
0.0
 10
-295.223744
 20
-56.046316
 30
0.0
  0
SPLINE
  5
13c
100
AcDbEntity
  8
Layer_1
 62
7
100
AcDbSpline
 70
8
 71
3
 72
8
 73
4
 74
0
 40
0
 40
0
 40
0
 40
0
 40
1
 40
1
 40
1
 40
1
 10
-295.223744
 20
-56.046316
 30
0.0
 10
-297.525432
 20
-53.071036
 30
0.0
 10
-300.222920
 20
-50.300316
 30
0.0
 10
-301.218152
 20
-49.889036
 30
0.0
  0
SPLINE
  5
13d
100
AcDbEntity
  8
Layer_1
 62
7
100
AcDbSpline
 70
8
 71
3
 72
8
 73
4
 74
0
 40
0
 40
0
 40
0
 40
0
 40
1
 40
1
 40
1
 40
1
 10
-301.218152
 20
-49.889036
 30
0.0
 10
-302.213384
 20
-49.477916
 30
0.0
 10
-308.843032
 20
-43.679676
 30
0.0
 10
-315.950712
 20
-37.004236
 30
0.0
  0
SPLINE
  5
13e
100
AcDbEntity
  8
Layer_1
 62
7
100
AcDbSpline
 70
8
 71
3
 72
8
 73
4
 74
0
 40
0
 40
0
 40
0
 40
0
 40
1
 40
1
 40
1
 40
1
 10
-315.950712
 20
-37.004236
 30
0.0
 10
-325.493616
 20
-28.041676
 30
0.0
 10
-329.273936
 20
-25.514476
 30
0.0
 10
-330.403680
 20
-27.342396
 30
0.0
  0
SPLINE
  5
13f
100
AcDbEntity
  8
Layer_1
 62
7
100
AcDbSpline
 70
8
 71
3
 72
8
 73
4
 74
0
 40
0
 40
0
 40
0
 40
0
 40
1
 40
1
 40
1
 40
1
 10
-330.403680
 20
-27.342396
 30
0.0
 10
-332.919144
 20
-31.412556
 30
0.0
 10
-345.792336
 20
-24.348156
 30
0.0
 10
-357.507616
 20
-12.468716
 30
0.0
  0
LWPOLYLINE
  5
140
100
AcDbEntity
  8
Layer_1
 62
7
100
AcDbPolyline
 90
2
 70
0
 10
-592.272904
 20
-9.366476
 30
0.0
 10
-592.272904
 20
-9.366476
 30
0.0
  0
SPLINE
  5
141
100
AcDbEntity
  8
Layer_1
 62
7
100
AcDbSpline
 70
8
 71
3
 72
8
 73
4
 74
0
 40
0
 40
0
 40
0
 40
0
 40
1
 40
1
 40
1
 40
1
 10
-375.116944
 20
-5.955356
 30
0.0
 10
-382.356952
 20
-9.896236
 30
0.0
 10
-382.415320
 20
-9.897756
 30
0.0
 10
-386.078648
 20
-6.234396
 30
0.0
  0
SPLINE
  5
142
100
AcDbEntity
  8
Layer_1
 62
7
100
AcDbSpline
 70
8
 71
3
 72
8
 73
4
 74
0
 40
0
 40
0
 40
0
 40
0
 40
1
 40
1
 40
1
 40
1
 10
-386.078648
 20
-6.234396
 30
0.0
 10
-392.189456
 20
-0.123516
 30
0.0
 10
-392.328504
 20
-5.524556
 30
0.0
 10
-386.250216
 20
-12.898636
 30
0.0
  0
SPLINE
  5
143
100
AcDbEntity
  8
Layer_1
 62
7
100
AcDbSpline
 70
8
 71
3
 72
8
 73
4
 74
0
 40
0
 40
0
 40
0
 40
0
 40
1
 40
1
 40
1
 40
1
 10
-386.250216
 20
-12.898636
 30
0.0
 10
-383.136416
 20
-16.676156
 30
0.0
 10
-381.388864
 20
-19.766956
 30
0.0
 10
-382.366784
 20
-19.766956
 30
0.0
  0
SPLINE
  5
144
100
AcDbEntity
  8
Layer_1
 62
7
100
AcDbSpline
 70
8
 71
3
 72
8
 73
4
 74
0
 40
0
 40
0
 40
0
 40
0
 40
1
 40
1
 40
1
 40
1
 10
-382.366784
 20
-19.766956
 30
0.0
 10
-383.344712
 20
-19.766956
 30
0.0
 10
-385.151360
 20
-18.554156
 30
0.0
 10
-386.381600
 20
-17.071836
 30
0.0
  0
SPLINE
  5
145
100
AcDbEntity
  8
Layer_1
 62
7
100
AcDbSpline
 70
8
 71
3
 72
8
 73
4
 74
0
 40
0
 40
0
 40
0
 40
0
 40
1
 40
1
 40
1
 40
1
 10
-386.381600
 20
-17.071836
 30
0.0
 10
-387.611816
 20
-15.589436
 30
0.0
 10
-389.711104
 20
-14.795916
 30
0.0
 10
-391.046680
 20
-15.308476
 30
0.0
  0
SPLINE
  5
146
100
AcDbEntity
  8
Layer_1
 62
7
100
AcDbSpline
 70
8
 71
3
 72
8
 73
4
 74
0
 40
0
 40
0
 40
0
 40
0
 40
1
 40
1
 40
1
 40
1
 10
-391.046680
 20
-15.308476
 30
0.0
 10
-392.382280
 20
-15.820956
 30
0.0
 10
-394.788744
 20
-14.926556
 30
0.0
 10
-396.394392
 20
-13.320956
 30
0.0
  0
SPLINE
  5
147
100
AcDbEntity
  8
Layer_1
 62
7
100
AcDbSpline
 70
8
 71
3
 72
8
 73
4
 74
0
 40
0
 40
0
 40
0
 40
0
 40
1
 40
1
 40
1
 40
1
 10
-396.394392
 20
-13.320956
 30
0.0
 10
-403.154648
 20
-6.560636
 30
0.0
 10
-394.561224
 20
8.242644
 30
0.0
 10
-383.809136
 20
8.358724
 30
0.0
  0
SPLINE
  5
148
100
AcDbEntity
  8
Layer_1
 62
7
100
AcDbSpline
 70
8
 71
3
 72
8
 73
4
 74
0
 40
0
 40
0
 40
0
 40
0
 40
1
 40
1
 40
1
 40
1
 10
-383.809136
 20
8.358724
 30
0.0
 10
-370.560288
 20
8.501764
 30
0.0
 10
-353.104824
 20
27.262164
 30
0.0
 10
-351.424096
 20
43.164716
 30
0.0
  0
SPLINE
  5
149
100
AcDbEntity
  8
Layer_1
 62
7
100
AcDbSpline
 70
8
 71
3
 72
8
 73
4
 74
0
 40
0
 40
0
 40
0
 40
0
 40
1
 40
1
 40
1
 40
1
 10
-351.424096
 20
43.164716
 30
0.0
 10
-350.450056
 20
52.380868
 30
0.0
 10
-345.164720
 20
60.681764
 30
0.0
 10
-340.270600
 20
60.681764
 30
0.0
  0
SPLINE
  5
14a
100
AcDbEntity
  8
Layer_1
 62
7
100
AcDbSpline
 70
8
 71
3
 72
8
 73
4
 74
0
 40
0
 40
0
 40
0
 40
0
 40
1
 40
1
 40
1
 40
1
 10
-340.270600
 20
60.681764
 30
0.0
 10
-336.762616
 20
60.681764
 30
0.0
 10
-323.362648
 20
51.585420
 30
0.0
 10
-322.126960
 20
48.365236
 30
0.0
  0
SPLINE
  5
14b
100
AcDbEntity
  8
Layer_1
 62
7
100
AcDbSpline
 70
8
 71
3
 72
8
 73
4
 74
0
 40
0
 40
0
 40
0
 40
0
 40
1
 40
1
 40
1
 40
1
 10
-322.126960
 20
48.365236
 30
0.0
 10
-320.641128
 20
44.493172
 30
0.0
 10
-323.183968
 20
45.107204
 30
0.0
 10
-330.262632
 20
50.329636
 30
0.0
  0
SPLINE
  5
14c
100
AcDbEntity
  8
Layer_1
 62
7
100
AcDbSpline
 70
8
 71
3
 72
8
 73
4
 74
0
 40
0
 40
0
 40
0
 40
0
 40
1
 40
1
 40
1
 40
1
 10
-330.262632
 20
50.329636
 30
0.0
 10
-337.435608
 20
55.621692
 30
0.0
 10
-342.634704
 20
54.485380
 30
0.0
 10
-335.963792
 20
49.083580
 30
0.0
  0
SPLINE
  5
14d
100
AcDbEntity
  8
Layer_1
 62
7
100
AcDbSpline
 70
8
 71
3
 72
8
 73
4
 74
0
 40
0
 40
0
 40
0
 40
0
 40
1
 40
1
 40
1
 40
1
 10
-335.963792
 20
49.083580
 30
0.0
 10
-332.667408
 20
46.414284
 30
0.0
 10
-332.142584
 20
45.041412
 30
0.0
 10
-333.789184
 20
43.394788
 30
0.0
  0
SPLINE
  5
14e
100
AcDbEntity
  8
Layer_1
 62
7
100
AcDbSpline
 70
8
 71
3
 72
8
 73
4
 74
0
 40
0
 40
0
 40
0
 40
0
 40
1
 40
1
 40
1
 40
1
 10
-333.789184
 20
43.394788
 30
0.0
 10
-337.015288
 20
40.168724
 30
0.0
 10
-336.475344
 20
38.620724
 30
0.0
 10
-331.150848
 20
35.830964
 30
0.0
  0
SPLINE
  5
14f
100
AcDbEntity
  8
Layer_1
 62
7
100
AcDbSpline
 70
8
 71
3
 72
8
 73
4
 74
0
 40
0
 40
0
 40
0
 40
0
 40
1
 40
1
 40
1
 40
1
 10
-331.150848
 20
35.830964
 30
0.0
 10
-322.912384
 20
31.514324
 30
0.0
 10
-300.293656
 20
7.876484
 30
0.0
 10
-301.316848
 20
4.652564
 30
0.0
  0
SPLINE
  5
150
100
AcDbEntity
  8
Layer_1
 62
7
100
AcDbSpline
 70
8
 71
3
 72
8
 73
4
 74
0
 40
0
 40
0
 40
0
 40
0
 40
1
 40
1
 40
1
 40
1
 10
-301.316848
 20
4.652564
 30
0.0
 10
-301.922160
 20
2.745524
 30
0.0
 10
-298.006160
 20
-2.071196
 30
0.0
 10
-290.104360
 20
-9.138876
 30
0.0
  0
SPLINE
  5
151
100
AcDbEntity
  8
Layer_1
 62
7
100
AcDbSpline
 70
8
 71
3
 72
8
 73
4
 74
0
 40
0
 40
0
 40
0
 40
0
 40
1
 40
1
 40
1
 40
1
 10
-290.104360
 20
-9.138876
 30
0.0
 10
-281.519040
 20
-16.817756
 30
0.0
 10
-277.961672
 20
-21.321676
 30
0.0
 10
-277.961672
 20
-24.512476
 30
0.0
  0
SPLINE
  5
152
100
AcDbEntity
  8
Layer_1
 62
7
100
AcDbSpline
 70
8
 71
3
 72
8
 73
4
 74
0
 40
0
 40
0
 40
0
 40
0
 40
1
 40
1
 40
1
 40
1
 10
-277.961672
 20
-24.512476
 30
0.0
 10
-277.961672
 20
-27.664076
 30
0.0
 10
-276.217280
 20
-29.927436
 30
0.0
 10
-272.178848
 20
-32.015756
 30
0.0
  0
SPLINE
  5
153
100
AcDbEntity
  8
Layer_1
 62
7
100
AcDbSpline
 70
8
 71
3
 72
8
 73
4
 74
0
 40
0
 40
0
 40
0
 40
0
 40
1
 40
1
 40
1
 40
1
 10
-272.178848
 20
-32.015756
 30
0.0
 10
-266.850024
 20
-34.771436
 30
0.0
 10
-266.125552
 20
-34.761356
 30
0.0
 10
-262.950520
 20
-31.887996
 30
0.0
  0
SPLINE
  5
154
100
AcDbEntity
  8
Layer_1
 62
7
100
AcDbSpline
 70
8
 71
3
 72
8
 73
4
 74
0
 40
0
 40
0
 40
0
 40
0
 40
1
 40
1
 40
1
 40
1
 10
-262.950520
 20
-31.887996
 30
0.0
 10
-261.055488
 20
-30.173036
 30
0.0
 10
-259.935704
 20
-27.647516
 30
0.0
 10
-260.462072
 20
-26.275756
 30
0.0
  0
SPLINE
  5
155
100
AcDbEntity
  8
Layer_1
 62
7
100
AcDbSpline
 70
8
 71
3
 72
8
 73
4
 74
0
 40
0
 40
0
 40
0
 40
0
 40
1
 40
1
 40
1
 40
1
 10
-260.462072
 20
-26.275756
 30
0.0
 10
-261.135040
 20
-24.522076
 30
0.0
 10
-260.264560
 20
-24.083596
 30
0.0
 10
-257.529552
 20
-24.798876
 30
0.0
  0
SPLINE
  5
156
100
AcDbEntity
  8
Layer_1
 62
7
100
AcDbSpline
 70
8
 71
3
 72
8
 73
4
 74
0
 40
0
 40
0
 40
0
 40
0
 40
1
 40
1
 40
1
 40
1
 10
-257.529552
 20
-24.798876
 30
0.0
 10
-253.406776
 20
-25.876956
 30
0.0
 10
-252.000088
 20
-22.535356
 30
0.0
 10
-255.978592
 20
-21.114396
 30
0.0
  0
SPLINE
  5
157
100
AcDbEntity
  8
Layer_1
 62
7
100
AcDbSpline
 70
8
 71
3
 72
8
 73
4
 74
0
 40
0
 40
0
 40
0
 40
0
 40
1
 40
1
 40
1
 40
1
 10
-255.978592
 20
-21.114396
 30
0.0
 10
-257.264840
 20
-20.655036
 30
0.0
 10
-257.874152
 20
-19.791036
 30
0.0
 10
-257.332640
 20
-19.194396
 30
0.0
  0
SPLINE
  5
158
100
AcDbEntity
  8
Layer_1
 62
7
100
AcDbSpline
 70
8
 71
3
 72
8
 73
4
 74
0
 40
0
 40
0
 40
0
 40
0
 40
1
 40
1
 40
1
 40
1
 10
-257.332640
 20
-19.194396
 30
0.0
 10
-256.791128
 20
-18.597676
 30
0.0
 10
-253.633984
 20
-19.827996
 30
0.0
 10
-250.316768
 20
-21.928316
 30
0.0
  0
SPLINE
  5
159
100
AcDbEntity
  8
Layer_1
 62
7
100
AcDbSpline
 70
8
 71
3
 72
8
 73
4
 74
0
 40
0
 40
0
 40
0
 40
0
 40
1
 40
1
 40
1
 40
1
 10
-250.316768
 20
-21.928316
 30
0.0
 10
-244.436680
 20
-25.651436
 30
0.0
 10
-242.395744
 20
-31.474476
 30
0.0
 10
-246.156368
 20
-33.798636
 30
0.0
  0
SPLINE
  5
15a
100
AcDbEntity
  8
Layer_1
 62
7
100
AcDbSpline
 70
8
 71
3
 72
8
 73
4
 74
0
 40
0
 40
0
 40
0
 40
0
 40
1
 40
1
 40
1
 40
1
 10
-246.156368
 20
-33.798636
 30
0.0
 10
-247.185368
 20
-34.434556
 30
0.0
 10
-248.027272
 20
-38.368716
 30
0.0
 10
-248.027272
 20
-42.541116
 30
0.0
  0
SPLINE
  5
15b
100
AcDbEntity
  8
Layer_1
 62
7
100
AcDbSpline
 70
8
 71
3
 72
8
 73
4
 74
0
 40
0
 40
0
 40
0
 40
0
 40
1
 40
1
 40
1
 40
1
 10
-248.027272
 20
-42.541116
 30
0.0
 10
-248.027272
 20
-49.603756
 30
0.0
 10
-254.474560
 20
-64.668476
 30
0.0
 10
-257.497200
 20
-64.668476
 30
0.0
  0
SPLINE
  5
15c
100
AcDbEntity
  8
Layer_1
 62
7
100
AcDbSpline
 70
8
 71
3
 72
8
 73
4
 74
0
 40
0
 40
0
 40
0
 40
0
 40
1
 40
1
 40
1
 40
1
 10
-257.497200
 20
-64.668476
 30
0.0
 10
-258.210712
 20
-64.668476
 30
0.0
 10
-259.949976
 20
-63.271916
 30
0.0
 10
-261.362224
 20
-61.564956
 30
0.0
  0
SPLINE
  5
15d
100
AcDbEntity
  8
Layer_1
 62
7
100
AcDbSpline
 70
8
 71
3
 72
8
 73
4
 74
0
 40
0
 40
0
 40
0
 40
0
 40
1
 40
1
 40
1
 40
1
 10
-261.362224
 20
-61.564956
 30
0.0
 10
-262.774464
 20
-59.858076
 30
0.0
 10
-275.716608
 20
-47.735036
 30
0.0
 10
-290.122536
 20
-34.624876
 30
0.0
  0
SPLINE
  5
15e
100
AcDbEntity
  8
Layer_1
 62
7
100
AcDbSpline
 70
8
 71
3
 72
8
 73
4
 74
0
 40
0
 40
0
 40
0
 40
0
 40
1
 40
1
 40
1
 40
1
 10
-290.122536
 20
-34.624876
 30
0.0
 10
-304.528472
 20
-21.514796
 30
0.0
 10
-321.787536
 20
-5.686556
 30
0.0
 10
-328.475992
 20
0.549044
 30
0.0
  0
SPLINE
  5
15f
100
AcDbEntity
  8
Layer_1
 62
7
100
AcDbSpline
 70
8
 71
3
 72
8
 73
4
 74
0
 40
0
 40
0
 40
0
 40
0
 40
1
 40
1
 40
1
 40
1
 10
-328.475992
 20
0.549044
 30
0.0
 10
-339.302672
 20
10.642484
 30
0.0
 10
-345.314096
 20
14.329044
 30
0.0
 10
-345.314096
 20
10.875124
 30
0.0
  0
SPLINE
  5
160
100
AcDbEntity
  8
Layer_1
 62
7
100
AcDbSpline
 70
8
 71
3
 72
8
 73
4
 74
0
 40
0
 40
0
 40
0
 40
0
 40
1
 40
1
 40
1
 40
1
 10
-345.314096
 20
10.875124
 30
0.0
 10
-345.314096
 20
9.646804
 30
0.0
 10
-328.887928
 20
-5.912876
 30
0.0
 10
-287.316192
 20
-44.063116
 30
0.0
  0
SPLINE
  5
161
100
AcDbEntity
  8
Layer_1
 62
7
100
AcDbSpline
 70
8
 71
3
 72
8
 73
4
 74
0
 40
0
 40
0
 40
0
 40
0
 40
1
 40
1
 40
1
 40
1
 10
-287.316192
 20
-44.063116
 30
0.0
 10
-273.424760
 20
-56.811276
 30
0.0
 10
-261.834624
 20
-67.756876
 30
0.0
 10
-261.560328
 20
-68.386636
 30
0.0
  0
SPLINE
  5
162
100
AcDbEntity
  8
Layer_1
 62
7
100
AcDbSpline
 70
8
 71
3
 72
8
 73
4
 74
0
 40
0
 40
0
 40
0
 40
0
 40
1
 40
1
 40
1
 40
1
 10
-261.560328
 20
-68.386636
 30
0.0
 10
-261.286024
 20
-69.016476
 30
0.0
 10
-263.775872
 20
-71.538476
 30
0.0
 10
-267.093312
 20
-73.991196
 30
0.0
  0
SPLINE
  5
163
100
AcDbEntity
  8
Layer_1
 62
7
100
AcDbSpline
 70
8
 71
3
 72
8
 73
4
 74
0
 40
0
 40
0
 40
0
 40
0
 40
1
 40
1
 40
1
 40
1
 10
-267.093312
 20
-73.991196
 30
0.0
 10
-271.304984
 20
-77.105036
 30
0.0
 10
-275.220280
 20
-78.326876
 30
0.0
 10
-280.068880
 20
-78.040876
 30
0.0
  0
SPLINE
  5
164
100
AcDbEntity
  8
Layer_1
 62
7
100
AcDbSpline
 70
8
 71
3
 72
8
 73
4
 74
0
 40
0
 40
0
 40
0
 40
0
 40
1
 40
1
 40
1
 40
1
 10
-280.068880
 20
-78.040876
 30
0.0
 10
-283.888008
 20
-77.815516
 30
0.0
 10
-287.551664
 20
-78.503196
 30
0.0
 10
-288.210336
 20
-79.568956
 30
0.0
  0
SPLINE
  5
165
100
AcDbEntity
  8
Layer_1
 62
7
100
AcDbSpline
 70
8
 71
3
 72
8
 73
4
 74
0
 40
0
 40
0
 40
0
 40
0
 40
1
 40
1
 40
1
 40
1
 10
-288.210336
 20
-79.568956
 30
0.0
 10
-290.375360
 20
-83.071916
 30
0.0
 10
-296.328992
 20
-81.595756
 30
0.0
 10
-300.276704
 20
-76.577116
 30
0.0
  0
LWPOLYLINE
  5
166
100
AcDbEntity
  8
Layer_1
 62
7
100
AcDbPolyline
 90
3
 70
0
 10
-357.507616
 20
-12.468716
 30
0.0
 10
-367.838168
 20
-1.993436
 30
0.0
 10
-375.116944
 20
-5.955356
 30
0.0
  0
SPLINE
  5
167
100
AcDbEntity
  8
Layer_1
 62
7
100
AcDbSpline
 70
8
 71
3
 72
8
 73
4
 74
0
 40
0
 40
0
 40
0
 40
0
 40
1
 40
1
 40
1
 40
1
 10
-392.086600
 20
-10.412476
 30
0.0
 10
-392.086600
 20
-9.383436
 30
0.0
 10
-392.928512
 20
-8.541596
 30
0.0
 10
-393.957496
 20
-8.541596
 30
0.0
  0
SPLINE
  5
168
100
AcDbEntity
  8
Layer_1
 62
7
100
AcDbSpline
 70
8
 71
3
 72
8
 73
4
 74
0
 40
0
 40
0
 40
0
 40
0
 40
1
 40
1
 40
1
 40
1
 10
-393.957496
 20
-8.541596
 30
0.0
 10
-394.986488
 20
-8.541596
 30
0.0
 10
-395.828392
 20
-9.383436
 30
0.0
 10
-395.828392
 20
-10.412476
 30
0.0
  0
SPLINE
  5
169
100
AcDbEntity
  8
Layer_1
 62
7
100
AcDbSpline
 70
8
 71
3
 72
8
 73
4
 74
0
 40
0
 40
0
 40
0
 40
0
 40
1
 40
1
 40
1
 40
1
 10
-395.828392
 20
-10.412476
 30
0.0
 10
-395.828392
 20
-11.441436
 30
0.0
 10
-394.986488
 20
-12.283436
 30
0.0
 10
-393.957496
 20
-12.283436
 30
0.0
  0
SPLINE
  5
16a
100
AcDbEntity
  8
Layer_1
 62
7
100
AcDbSpline
 70
8
 71
3
 72
8
 73
4
 74
0
 40
0
 40
0
 40
0
 40
0
 40
1
 40
1
 40
1
 40
1
 10
-393.957496
 20
-12.283436
 30
0.0
 10
-392.928512
 20
-12.283436
 30
0.0
 10
-392.086600
 20
-11.441436
 30
0.0
 10
-392.086600
 20
-10.412476
 30
0.0
  0
LWPOLYLINE
  5
16b
100
AcDbEntity
  8
Layer_1
 62
7
100
AcDbPolyline
 90
2
 70
0
 10
-300.276704
 20
-76.577116
 30
0.0
 10
-300.276704
 20
-76.577116
 30
0.0
  0
SPLINE
  5
16c
100
AcDbEntity
  8
Layer_1
 62
7
100
AcDbSpline
 70
8
 71
3
 72
8
 73
4
 74
0
 40
0
 40
0
 40
0
 40
0
 40
1
 40
1
 40
1
 40
1
 10
147.597768
 20
-68.453676
 30
0.0
 10
133.461728
 20
-61.894316
 30
0.0
 10
122.410936
 20
-52.562956
 30
0.0
 10
122.410936
 20
-47.185756
 30
0.0
  0
SPLINE
  5
16d
100
AcDbEntity
  8
Layer_1
 62
7
100
AcDbSpline
 70
8
 71
3
 72
8
 73
4
 74
0
 40
0
 40
0
 40
0
 40
0
 40
1
 40
1
 40
1
 40
1
 10
122.410936
 20
-47.185756
 30
0.0
 10
122.410936
 20
-41.094476
 30
0.0
 10
132.510872
 20
-30.804636
 30
0.0
 10
144.858816
 20
-24.316076
 30
0.0
  0
SPLINE
  5
16e
100
AcDbEntity
  8
Layer_1
 62
7
100
AcDbSpline
 70
8
 71
3
 72
8
 73
4
 74
0
 40
0
 40
0
 40
0
 40
0
 40
1
 40
1
 40
1
 40
1
 10
144.858816
 20
-24.316076
 30
0.0
 10
152.063392
 20
-20.530076
 30
0.0
 10
157.958032
 20
-16.694956
 30
0.0
 10
157.958032
 20
-15.793436
 30
0.0
  0
SPLINE
  5
16f
100
AcDbEntity
  8
Layer_1
 62
7
100
AcDbSpline
 70
8
 71
3
 72
8
 73
4
 74
0
 40
0
 40
0
 40
0
 40
0
 40
1
 40
1
 40
1
 40
1
 10
157.958032
 20
-15.793436
 30
0.0
 10
157.958032
 20
-14.891916
 30
0.0
 10
158.799944
 20
-14.154316
 30
0.0
 10
159.828944
 20
-14.154316
 30
0.0
  0
SPLINE
  5
170
100
AcDbEntity
  8
Layer_1
 62
7
100
AcDbSpline
 70
8
 71
3
 72
8
 73
4
 74
0
 40
0
 40
0
 40
0
 40
0
 40
1
 40
1
 40
1
 40
1
 10
159.828944
 20
-14.154316
 30
0.0
 10
160.857928
 20
-14.154316
 30
0.0
 10
161.699840
 20
-16.209276
 30
0.0
 10
161.699840
 20
-18.721116
 30
0.0
  0
SPLINE
  5
171
100
AcDbEntity
  8
Layer_1
 62
7
100
AcDbSpline
 70
8
 71
3
 72
8
 73
4
 74
0
 40
0
 40
0
 40
0
 40
0
 40
1
 40
1
 40
1
 40
1
 10
161.699840
 20
-18.721116
 30
0.0
 10
161.699840
 20
-21.232796
 30
0.0
 10
160.857928
 20
-23.808156
 30
0.0
 10
159.828944
 20
-24.444156
 30
0.0
  0
SPLINE
  5
172
100
AcDbEntity
  8
Layer_1
 62
7
100
AcDbSpline
 70
8
 71
3
 72
8
 73
4
 74
0
 40
0
 40
0
 40
0
 40
0
 40
1
 40
1
 40
1
 40
1
 10
159.828944
 20
-24.444156
 30
0.0
 10
158.799944
 20
-25.080156
 30
0.0
 10
157.958032
 20
-27.164476
 30
0.0
 10
157.958032
 20
-29.075996
 30
0.0
  0
SPLINE
  5
173
100
AcDbEntity
  8
Layer_1
 62
7
100
AcDbSpline
 70
8
 71
3
 72
8
 73
4
 74
0
 40
0
 40
0
 40
0
 40
0
 40
1
 40
1
 40
1
 40
1
 10
157.958032
 20
-29.075996
 30
0.0
 10
157.958032
 20
-33.448796
 30
0.0
 10
153.900064
 20
-34.967116
 30
0.0
 10
151.373120
 20
-31.539596
 30
0.0
  0
SPLINE
  5
174
100
AcDbEntity
  8
Layer_1
 62
7
100
AcDbSpline
 70
8
 71
3
 72
8
 73
4
 74
0
 40
0
 40
0
 40
0
 40
0
 40
1
 40
1
 40
1
 40
1
 10
151.373120
 20
-31.539596
 30
0.0
 10
148.507688
 20
-27.653276
 30
0.0
 10
137.635872
 20
-32.804876
 30
0.0
 10
130.070120
 20
-41.634396
 30
0.0
  0
SPLINE
  5
175
100
AcDbEntity
  8
Layer_1
 62
7
100
AcDbSpline
 70
8
 71
3
 72
8
 73
4
 74
0
 40
0
 40
0
 40
0
 40
0
 40
1
 40
1
 40
1
 40
1
 10
130.070120
 20
-41.634396
 30
0.0
 10
124.701688
 20
-47.899436
 30
0.0
 10
124.383552
 20
-48.831996
 30
0.0
 10
127.451568
 20
-49.309996
 30
0.0
  0
SPLINE
  5
176
100
AcDbEntity
  8
Layer_1
 62
7
100
AcDbSpline
 70
8
 71
3
 72
8
 73
4
 74
0
 40
0
 40
0
 40
0
 40
0
 40
1
 40
1
 40
1
 40
1
 10
127.451568
 20
-49.309996
 30
0.0
 10
129.372312
 20
-49.609036
 30
0.0
 10
131.760136
 20
-51.659356
 30
0.0
 10
132.757816
 20
-53.866156
 30
0.0
  0
SPLINE
  5
177
100
AcDbEntity
  8
Layer_1
 62
7
100
AcDbSpline
 70
8
 71
3
 72
8
 73
4
 74
0
 40
0
 40
0
 40
0
 40
0
 40
1
 40
1
 40
1
 40
1
 10
132.757816
 20
-53.866156
 30
0.0
 10
133.828416
 20
-56.234156
 30
0.0
 10
137.955048
 20
-58.991836
 30
0.0
 10
142.827696
 20
-60.595436
 30
0.0
  0
SPLINE
  5
178
100
AcDbEntity
  8
Layer_1
 62
7
100
AcDbSpline
 70
8
 71
3
 72
8
 73
4
 74
0
 40
0
 40
0
 40
0
 40
0
 40
1
 40
1
 40
1
 40
1
 10
142.827696
 20
-60.595436
 30
0.0
 10
150.277648
 20
-63.047196
 30
0.0
 10
151.302304
 20
-63.013356
 30
0.0
 10
153.323888
 20
-60.248716
 30
0.0
  0
SPLINE
  5
179
100
AcDbEntity
  8
Layer_1
 62
7
100
AcDbSpline
 70
8
 71
3
 72
8
 73
4
 74
0
 40
0
 40
0
 40
0
 40
0
 40
1
 40
1
 40
1
 40
1
 10
153.323888
 20
-60.248716
 30
0.0
 10
156.325296
 20
-56.143996
 30
0.0
 10
157.704976
 20
-56.385516
 30
0.0
 10
159.870768
 20
-61.394476
 30
0.0
  0
SPLINE
  5
17a
100
AcDbEntity
  8
Layer_1
 62
7
100
AcDbSpline
 70
8
 71
3
 72
8
 73
4
 74
0
 40
0
 40
0
 40
0
 40
0
 40
1
 40
1
 40
1
 40
1
 10
159.870768
 20
-61.394476
 30
0.0
 10
160.871848
 20
-63.709676
 30
0.0
 10
162.726368
 20
-67.054076
 30
0.0
 10
163.991952
 20
-68.826636
 30
0.0
  0
SPLINE
  5
17b
100
AcDbEntity
  8
Layer_1
 62
7
100
AcDbSpline
 70
8
 71
3
 72
8
 73
4
 74
0
 40
0
 40
0
 40
0
 40
0
 40
1
 40
1
 40
1
 40
1
 10
163.991952
 20
-68.826636
 30
0.0
 10
168.821104
 20
-75.589756
 30
0.0
 10
162.675232
 20
-75.449996
 30
0.0
 10
147.597768
 20
-68.453676
 30
0.0
  0
LWPOLYLINE
  5
17c
100
AcDbEntity
  8
Layer_1
 62
7
100
AcDbPolyline
 90
2
 70
0
 10
-392.086600
 20
-10.412476
 30
0.0
 10
-392.086600
 20
-10.412476
 30
0.0
  0
SPLINE
  5
17d
100
AcDbEntity
  8
Layer_1
 62
7
100
AcDbSpline
 70
8
 71
3
 72
8
 73
4
 74
0
 40
0
 40
0
 40
0
 40
0
 40
1
 40
1
 40
1
 40
1
 10
-39.163047
 20
-59.991276
 30
0.0
 10
-38.344751
 20
-57.858876
 30
0.0
 10
-39.516656
 20
-57.185036
 30
0.0
 10
-44.042922
 20
-57.185036
 30
0.0
  0
SPLINE
  5
17e
100
AcDbEntity
  8
Layer_1
 62
7
100
AcDbSpline
 70
8
 71
3
 72
8
 73
4
 74
0
 40
0
 40
0
 40
0
 40
0
 40
1
 40
1
 40
1
 40
1
 10
-44.042922
 20
-57.185036
 30
0.0
 10
-50.976326
 20
-57.185036
 30
0.0
 10
-60.937274
 20
-48.497036
 30
0.0
 10
-60.937274
 20
-42.449676
 30
0.0
  0
SPLINE
  5
17f
100
AcDbEntity
  8
Layer_1
 62
7
100
AcDbSpline
 70
8
 71
3
 72
8
 73
4
 74
0
 40
0
 40
0
 40
0
 40
0
 40
1
 40
1
 40
1
 40
1
 10
-60.937274
 20
-42.449676
 30
0.0
 10
-60.937274
 20
-32.653596
 30
0.0
 10
-51.896001
 20
-23.508796
 30
0.0
 10
-42.210766
 20
-23.508796
 30
0.0
  0
SPLINE
  5
180
100
AcDbEntity
  8
Layer_1
 62
7
100
AcDbSpline
 70
8
 71
3
 72
8
 73
4
 74
0
 40
0
 40
0
 40
0
 40
0
 40
1
 40
1
 40
1
 40
1
 10
-42.210766
 20
-23.508796
 30
0.0
 10
-40.040951
 20
-23.508796
 30
0.0
 10
-38.785974
 20
-22.666796
 30
0.0
 10
-39.421922
 20
-21.637916
 30
0.0
  0
SPLINE
  5
181
100
AcDbEntity
  8
Layer_1
 62
7
100
AcDbSpline
 70
8
 71
3
 72
8
 73
4
 74
0
 40
0
 40
0
 40
0
 40
0
 40
1
 40
1
 40
1
 40
1
 10
-39.421922
 20
-21.637916
 30
0.0
 10
-40.057882
 20
-20.608796
 30
0.0
 10
-39.897098
 20
-19.773516
 30
0.0
 10
-39.064626
 20
-19.781516
 30
0.0
  0
SPLINE
  5
182
100
AcDbEntity
  8
Layer_1
 62
7
100
AcDbSpline
 70
8
 71
3
 72
8
 73
4
 74
0
 40
0
 40
0
 40
0
 40
0
 40
1
 40
1
 40
1
 40
1
 10
-39.064626
 20
-19.781516
 30
0.0
 10
-38.232153
 20
-19.791116
 30
0.0
 10
-36.577863
 20
-21.894316
 30
0.0
 10
-35.388438
 20
-24.458796
 30
0.0
  0
SPLINE
  5
183
100
AcDbEntity
  8
Layer_1
 62
7
100
AcDbSpline
 70
8
 71
3
 72
8
 73
4
 74
0
 40
0
 40
0
 40
0
 40
0
 40
1
 40
1
 40
1
 40
1
 10
-35.388438
 20
-24.458796
 30
0.0
 10
-33.633306
 20
-28.242876
 30
0.0
 10
-33.721428
 20
-29.121436
 30
0.0
 10
-35.856162
 20
-29.121436
 30
0.0
  0
SPLINE
  5
184
100
AcDbEntity
  8
Layer_1
 62
7
100
AcDbSpline
 70
8
 71
3
 72
8
 73
4
 74
0
 40
0
 40
0
 40
0
 40
0
 40
1
 40
1
 40
1
 40
1
 10
-35.856162
 20
-29.121436
 30
0.0
 10
-40.616614
 20
-29.121436
 30
0.0
 10
-38.597345
 20
-32.601596
 30
0.0
 10
-33.485792
 20
-33.206796
 30
0.0
  0
SPLINE
  5
185
100
AcDbEntity
  8
Layer_1
 62
7
100
AcDbSpline
 70
8
 71
3
 72
8
 73
4
 74
0
 40
0
 40
0
 40
0
 40
0
 40
1
 40
1
 40
1
 40
1
 10
-33.485792
 20
-33.206796
 30
0.0
 10
-26.202128
 20
-34.068956
 30
0.0
 10
-25.559866
 20
-38.475916
 30
0.0
 10
-32.717879
 20
-38.475916
 30
0.0
  0
SPLINE
  5
186
100
AcDbEntity
  8
Layer_1
 62
7
100
AcDbSpline
 70
8
 71
3
 72
8
 73
4
 74
0
 40
0
 40
0
 40
0
 40
0
 40
1
 40
1
 40
1
 40
1
 10
-32.717879
 20
-38.475916
 30
0.0
 10
-36.778611
 20
-38.475916
 30
0.0
 10
-38.486474
 20
-39.369756
 30
0.0
 10
-38.486474
 20
-41.494716
 30
0.0
  0
SPLINE
  5
187
100
AcDbEntity
  8
Layer_1
 62
7
100
AcDbSpline
 70
8
 71
3
 72
8
 73
4
 74
0
 40
0
 40
0
 40
0
 40
0
 40
1
 40
1
 40
1
 40
1
 10
-38.486474
 20
-41.494716
 30
0.0
 10
-38.486474
 20
-43.784556
 30
0.0
 10
-37.131420
 20
-44.314396
 30
0.0
 10
-32.873778
 20
-43.689596
 30
0.0
  0
SPLINE
  5
188
100
AcDbEntity
  8
Layer_1
 62
7
100
AcDbSpline
 70
8
 71
3
 72
8
 73
4
 74
0
 40
0
 40
0
 40
0
 40
0
 40
1
 40
1
 40
1
 40
1
 10
-32.873778
 20
-43.689596
 30
0.0
 10
-29.043691
 20
-43.127436
 30
0.0
 10
-27.261083
 20
-43.653596
 30
0.0
 10
-27.261083
 20
-45.348156
 30
0.0
  0
SPLINE
  5
189
100
AcDbEntity
  8
Layer_1
 62
7
100
AcDbSpline
 70
8
 71
3
 72
8
 73
4
 74
0
 40
0
 40
0
 40
0
 40
0
 40
1
 40
1
 40
1
 40
1
 10
-27.261083
 20
-45.348156
 30
0.0
 10
-27.261083
 20
-46.859036
 30
0.0
 10
-29.457585
 20
-47.830396
 30
0.0
 10
-32.873778
 20
-47.830396
 30
0.0
  0
SPLINE
  5
18a
100
AcDbEntity
  8
Layer_1
 62
7
100
AcDbSpline
 70
8
 71
3
 72
8
 73
4
 74
0
 40
0
 40
0
 40
0
 40
0
 40
1
 40
1
 40
1
 40
1
 10
-32.873778
 20
-47.830396
 30
0.0
 10
-36.562276
 20
-47.830396
 30
0.0
 10
-38.486474
 20
-48.772476
 30
0.0
 10
-38.486474
 20
-50.578076
 30
0.0
  0
SPLINE
  5
18b
100
AcDbEntity
  8
Layer_1
 62
7
100
AcDbSpline
 70
8
 71
3
 72
8
 73
4
 74
0
 40
0
 40
0
 40
0
 40
0
 40
1
 40
1
 40
1
 40
1
 10
-38.486474
 20
-50.578076
 30
0.0
 10
-38.486474
 20
-52.251756
 30
0.0
 10
-37.389593
 20
-52.904796
 30
0.0
 10
-35.680129
 20
-52.248876
 30
0.0
  0
SPLINE
  5
18c
100
AcDbEntity
  8
Layer_1
 62
7
100
AcDbSpline
 70
8
 71
3
 72
8
 73
4
 74
0
 40
0
 40
0
 40
0
 40
0
 40
1
 40
1
 40
1
 40
1
 10
-35.680129
 20
-52.248876
 30
0.0
 10
-34.136632
 20
-51.656556
 30
0.0
 10
-32.873778
 20
-52.103756
 30
0.0
 10
-32.873778
 20
-53.242956
 30
0.0
  0
SPLINE
  5
18d
100
AcDbEntity
  8
Layer_1
 62
7
100
AcDbSpline
 70
8
 71
3
 72
8
 73
4
 74
0
 40
0
 40
0
 40
0
 40
0
 40
1
 40
1
 40
1
 40
1
 10
-32.873778
 20
-53.242956
 30
0.0
 10
-32.873778
 20
-54.382076
 30
0.0
 10
-33.715690
 20
-55.314076
 30
0.0
 10
-34.744674
 20
-55.314076
 30
0.0
  0
SPLINE
  5
18e
100
AcDbEntity
  8
Layer_1
 62
7
100
AcDbSpline
 70
8
 71
3
 72
8
 73
4
 74
0
 40
0
 40
0
 40
0
 40
0
 40
1
 40
1
 40
1
 40
1
 10
-34.744674
 20
-55.314076
 30
0.0
 10
-35.773673
 20
-55.314076
 30
0.0
 10
-36.615577
 20
-56.997836
 30
0.0
 10
-36.615577
 20
-59.055916
 30
0.0
  0
SPLINE
  5
18f
100
AcDbEntity
  8
Layer_1
 62
7
100
AcDbSpline
 70
8
 71
3
 72
8
 73
4
 74
0
 40
0
 40
0
 40
0
 40
0
 40
1
 40
1
 40
1
 40
1
 10
-36.615577
 20
-59.055916
 30
0.0
 10
-36.615577
 20
-61.113836
 30
0.0
 10
-37.431059
 20
-62.797676
 30
0.0
 10
-38.427765
 20
-62.797676
 30
0.0
  0
SPLINE
  5
190
100
AcDbEntity
  8
Layer_1
 62
7
100
AcDbSpline
 70
8
 71
3
 72
8
 73
4
 74
0
 40
0
 40
0
 40
0
 40
0
 40
1
 40
1
 40
1
 40
1
 10
-38.427765
 20
-62.797676
 30
0.0
 10
-39.424450
 20
-62.797676
 30
0.0
 10
-39.755343
 20
-61.534716
 30
0.0
 10
-39.163047
 20
-59.991276
 30
0.0
  0
LWPOLYLINE
  5
191
100
AcDbEntity
  8
Layer_1
 62
7
100
AcDbPolyline
 90
2
 70
0
 10
147.597768
 20
-68.453676
 30
0.0
 10
147.597768
 20
-68.453676
 30
0.0
  0
SPLINE
  5
192
100
AcDbEntity
  8
Layer_1
 62
7
100
AcDbSpline
 70
8
 71
3
 72
8
 73
4
 74
0
 40
0
 40
0
 40
0
 40
0
 40
1
 40
1
 40
1
 40
1
 10
-3.619707
 20
-52.252636
 30
0.0
 10
-9.927184
 20
-45.945116
 30
0.0
 10
-10.241590
 20
-36.932796
 30
0.0
 10
-4.342553
 20
-31.533516
 30
0.0
  0
SPLINE
  5
193
100
AcDbEntity
  8
Layer_1
 62
7
100
AcDbSpline
 70
8
 71
3
 72
8
 73
4
 74
0
 40
0
 40
0
 40
0
 40
0
 40
1
 40
1
 40
1
 40
1
 10
-4.342553
 20
-31.533516
 30
0.0
 10
2.885745
 20
-24.917676
 30
0.0
 10
12.767300
 20
-23.891836
 30
0.0
 10
6.222328
 20
-30.436796
 30
0.0
  0
SPLINE
  5
194
100
AcDbEntity
  8
Layer_1
 62
7
100
AcDbSpline
 70
8
 71
3
 72
8
 73
4
 74
0
 40
0
 40
0
 40
0
 40
0
 40
1
 40
1
 40
1
 40
1
 10
6.222328
 20
-30.436796
 30
0.0
 10
4.033074
 20
-32.625996
 30
0.0
 10
4.697899
 20
-48.286236
 30
0.0
 10
7.218900
 20
-53.910796
 30
0.0
  0
SPLINE
  5
195
100
AcDbEntity
  8
Layer_1
 62
7
100
AcDbSpline
 70
8
 71
3
 72
8
 73
4
 74
0
 40
0
 40
0
 40
0
 40
0
 40
1
 40
1
 40
1
 40
1
 10
7.218900
 20
-53.910796
 30
0.0
 10
9.567740
 20
-59.151436
 30
0.0
 10
2.143188
 20
-58.015436
 30
0.0
 10
-3.619707
 20
-52.252636
 30
0.0
  0
LWPOLYLINE
  5
196
100
AcDbEntity
  8
Layer_1
 62
7
100
AcDbPolyline
 90
2
 70
0
 10
-39.163047
 20
-59.991276
 30
0.0
 10
-39.163047
 20
-59.991276
 30
0.0
  0
SPLINE
  5
197
100
AcDbEntity
  8
Layer_1
 62
7
100
AcDbSpline
 70
8
 71
3
 72
8
 73
4
 74
0
 40
0
 40
0
 40
0
 40
0
 40
1
 40
1
 40
1
 40
1
 10
59.019526
 20
-52.348476
 30
0.0
 10
47.306641
 20
-50.040316
 30
0.0
 10
34.888543
 20
-46.625276
 30
0.0
 10
31.423754
 20
-44.759356
 30
0.0
  0
SPLINE
  5
198
100
AcDbEntity
  8
Layer_1
 62
7
100
AcDbSpline
 70
8
 71
3
 72
8
 73
4
 74
0
 40
0
 40
0
 40
0
 40
0
 40
1
 40
1
 40
1
 40
1
 10
31.423754
 20
-44.759356
 30
0.0
 10
25.693689
 20
-41.673436
 30
0.0
 10
25.125994
 20
-40.601676
 30
0.0
 10
25.144718
 20
-32.905436
 30
0.0
  0
SPLINE
  5
199
100
AcDbEntity
  8
Layer_1
 62
7
100
AcDbSpline
 70
8
 71
3
 72
8
 73
4
 74
0
 40
0
 40
0
 40
0
 40
0
 40
1
 40
1
 40
1
 40
1
 10
25.144718
 20
-32.905436
 30
0.0
 10
25.155974
 20
-28.251756
 30
0.0
 10
25.667326
 20
-21.409116
 30
0.0
 10
26.280902
 20
-17.699676
 30
0.0
  0
SPLINE
  5
19a
100
AcDbEntity
  8
Layer_1
 62
7
100
AcDbSpline
 70
8
 71
3
 72
8
 73
4
 74
0
 40
0
 40
0
 40
0
 40
0
 40
1
 40
1
 40
1
 40
1
 10
26.280902
 20
-17.699676
 30
0.0
 10
27.846420
 20
-8.235276
 30
0.0
 10
35.277444
 20
-5.492716
 30
0.0
 10
63.481754
 20
-3.969916
 30
0.0
  0
LWPOLYLINE
  5
19b
100
AcDbEntity
  8
Layer_1
 62
7
100
AcDbPolyline
 90
2
 70
0
 10
-3.619707
 20
-52.252636
 30
0.0
 10
-3.619707
 20
-52.252636
 30
0.0
  0
SPLINE
  5
19c
100
AcDbEntity
  8
Layer_1
 62
7
100
AcDbSpline
 70
8
 71
3
 72
8
 73
4
 74
0
 40
0
 40
0
 40
0
 40
0
 40
1
 40
1
 40
1
 40
1
 10
84.349232
 20
-28.568076
 30
0.0
 10
83.476096
 20
-42.763756
 30
0.0
 10
82.211376
 20
-54.865916
 30
0.0
 10
81.538704
 20
-55.461756
 30
0.0
  0
SPLINE
  5
19d
100
AcDbEntity
  8
Layer_1
 62
7
100
AcDbSpline
 70
8
 71
3
 72
8
 73
4
 74
0
 40
0
 40
0
 40
0
 40
0
 40
1
 40
1
 40
1
 40
1
 10
81.538704
 20
-55.461756
 30
0.0
 10
80.866048
 20
-56.057516
 30
0.0
 10
70.732410
 20
-54.656476
 30
0.0
 10
59.019526
 20
-52.348476
 30
0.0
  0
LWPOLYLINE
  5
19e
100
AcDbEntity
  8
Layer_1
 62
7
100
AcDbPolyline
 90
3
 70
0
 10
63.481754
 20
-3.969916
 30
0.0
 10
85.936728
 20
-2.757596
 30
0.0
 10
84.349232
 20
-28.568076
 30
0.0
  0
SPLINE
  5
19f
100
AcDbEntity
  8
Layer_1
 62
7
100
AcDbSpline
 70
8
 71
3
 72
8
 73
4
 74
0
 40
0
 40
0
 40
0
 40
0
 40
1
 40
1
 40
1
 40
1
 10
36.684210
 20
-26.315036
 30
0.0
 10
36.191778
 20
-23.562316
 30
0.0
 10
32.119642
 20
-24.037436
 30
0.0
 10
31.144998
 20
-26.961516
 30
0.0
  0
SPLINE
  5
1a0
100
AcDbEntity
  8
Layer_1
 62
7
100
AcDbSpline
 70
8
 71
3
 72
8
 73
4
 74
0
 40
0
 40
0
 40
0
 40
0
 40
1
 40
1
 40
1
 40
1
 10
31.144998
 20
-26.961516
 30
0.0
 10
30.607048
 20
-28.575356
 30
0.0
 10
31.510521
 20
-29.246796
 30
0.0
 10
33.662391
 20
-28.832396
 30
0.0
  0
SPLINE
  5
1a1
100
AcDbEntity
  8
Layer_1
 62
7
100
AcDbSpline
 70
8
 71
3
 72
8
 73
4
 74
0
 40
0
 40
0
 40
0
 40
0
 40
1
 40
1
 40
1
 40
1
 10
33.662391
 20
-28.832396
 30
0.0
 10
35.508460
 20
-28.476796
 30
0.0
 10
36.868293
 20
-27.344076
 30
0.0
 10
36.684210
 20
-26.315036
 30
0.0
  0
LWPOLYLINE
  5
1a2
100
AcDbEntity
  8
Layer_1
 62
7
100
AcDbPolyline
 90
2
 70
0
 10
59.019526
 20
-52.348476
 30
0.0
 10
59.019526
 20
-52.348476
 30
0.0
  0
SPLINE
  5
1a3
100
AcDbEntity
  8
Layer_1
 62
7
100
AcDbSpline
 70
8
 71
3
 72
8
 73
4
 74
0
 40
0
 40
0
 40
0
 40
0
 40
1
 40
1
 40
1
 40
1
 10
98.540104
 20
-50.118796
 30
0.0
 10
91.527384
 20
-44.259196
 30
0.0
 10
90.927480
 20
-42.217756
 30
0.0
 10
96.218336
 20
-42.217756
 30
0.0
  0
SPLINE
  5
1a4
100
AcDbEntity
  8
Layer_1
 62
7
100
AcDbSpline
 70
8
 71
3
 72
8
 73
4
 74
0
 40
0
 40
0
 40
0
 40
0
 40
1
 40
1
 40
1
 40
1
 10
96.218336
 20
-42.217756
 30
0.0
 10
98.276320
 20
-42.217756
 30
0.0
 10
99.960136
 20
-41.375836
 30
0.0
 10
99.960136
 20
-40.346796
 30
0.0
  0
SPLINE
  5
1a5
100
AcDbEntity
  8
Layer_1
 62
7
100
AcDbSpline
 70
8
 71
3
 72
8
 73
4
 74
0
 40
0
 40
0
 40
0
 40
0
 40
1
 40
1
 40
1
 40
1
 10
99.960136
 20
-40.346796
 30
0.0
 10
99.960136
 20
-39.317916
 30
0.0
 10
98.276320
 20
-38.475916
 30
0.0
 10
96.218336
 20
-38.475916
 30
0.0
  0
SPLINE
  5
1a6
100
AcDbEntity
  8
Layer_1
 62
7
100
AcDbSpline
 70
8
 71
3
 72
8
 73
4
 74
0
 40
0
 40
0
 40
0
 40
0
 40
1
 40
1
 40
1
 40
1
 10
96.218336
 20
-38.475916
 30
0.0
 10
94.160336
 20
-38.475916
 30
0.0
 10
92.476536
 20
-37.799196
 30
0.0
 10
92.476536
 20
-36.972156
 30
0.0
  0
SPLINE
  5
1a7
100
AcDbEntity
  8
Layer_1
 62
7
100
AcDbSpline
 70
8
 71
3
 72
8
 73
4
 74
0
 40
0
 40
0
 40
0
 40
0
 40
1
 40
1
 40
1
 40
1
 10
92.476536
 20
-36.972156
 30
0.0
 10
92.476536
 20
-34.129596
 30
0.0
 10
104.641272
 20
-23.982636
 30
0.0
 10
109.373792
 20
-22.877596
 30
0.0
  0
LWPOLYLINE
  5
1a8
100
AcDbEntity
  8
Layer_1
 62
7
100
AcDbPolyline
 90
2
 70
0
 10
36.684210
 20
-26.315036
 30
0.0
 10
36.684210
 20
-26.315036
 30
0.0
  0
SPLINE
  5
1a9
100
AcDbEntity
  8
Layer_1
 62
7
100
AcDbSpline
 70
8
 71
3
 72
8
 73
4
 74
0
 40
0
 40
0
 40
0
 40
0
 40
1
 40
1
 40
1
 40
1
 10
113.769360
 20
-35.268796
 30
0.0
 10
113.581896
 20
-42.692236
 30
0.0
 10
114.216320
 20
-50.239276
 30
0.0
 10
115.179184
 20
-52.039916
 30
0.0
  0
SPLINE
  5
1aa
100
AcDbEntity
  8
Layer_1
 62
7
100
AcDbSpline
 70
8
 71
3
 72
8
 73
4
 74
0
 40
0
 40
0
 40
0
 40
0
 40
1
 40
1
 40
1
 40
1
 10
115.179184
 20
-52.039916
 30
0.0
 10
118.174224
 20
-57.641196
 30
0.0
 10
105.838256
 20
-56.216716
 30
0.0
 10
98.540104
 20
-50.118796
 30
0.0
  0
LWPOLYLINE
  5
1ab
100
AcDbEntity
  8
Layer_1
 62
7
100
AcDbPolyline
 90
3
 70
0
 10
109.373792
 20
-22.877596
 30
0.0
 10
114.110176
 20
-21.771676
 30
0.0
 10
113.769360
 20
-35.268796
 30
0.0
  0
SPLINE
  5
1ac
100
AcDbEntity
  8
Layer_1
 62
7
100
AcDbSpline
 70
8
 71
3
 72
8
 73
4
 74
0
 40
0
 40
0
 40
0
 40
0
 40
1
 40
1
 40
1
 40
1
 10
110.295512
 20
-39.879036
 30
0.0
 10
109.852632
 20
-33.833436
 30
0.0
 10
108.880640
 20
-31.799196
 30
0.0
 10
106.239752
 20
-31.391196
 30
0.0
  0
SPLINE
  5
1ad
100
AcDbEntity
  8
Layer_1
 62
7
100
AcDbSpline
 70
8
 71
3
 72
8
 73
4
 74
0
 40
0
 40
0
 40
0
 40
0
 40
1
 40
1
 40
1
 40
1
 10
106.239752
 20
-31.391196
 30
0.0
 10
103.287536
 20
-30.935116
 30
0.0
 10
102.766480
 20
-32.127996
 30
0.0
 10
102.766480
 20
-39.342556
 30
0.0
  0
SPLINE
  5
1ae
100
AcDbEntity
  8
Layer_1
 62
7
100
AcDbSpline
 70
8
 71
3
 72
8
 73
4
 74
0
 40
0
 40
0
 40
0
 40
0
 40
1
 40
1
 40
1
 40
1
 10
102.766480
 20
-39.342556
 30
0.0
 10
102.766480
 20
-46.802156
 30
0.0
 10
103.257824
 20
-47.830396
 30
0.0
 10
106.822248
 20
-47.830396
 30
0.0
  0
SPLINE
  5
1af
100
AcDbEntity
  8
Layer_1
 62
7
100
AcDbSpline
 70
8
 71
3
 72
8
 73
4
 74
0
 40
0
 40
0
 40
0
 40
0
 40
1
 40
1
 40
1
 40
1
 10
106.822248
 20
-47.830396
 30
0.0
 10
110.437824
 20
-47.830396
 30
0.0
 10
110.814776
 20
-46.967516
 30
0.0
 10
110.295512
 20
-39.879036
 30
0.0
  0
LWPOLYLINE
  5
1b0
100
AcDbEntity
  8
Layer_1
 62
7
100
AcDbPolyline
 90
2
 70
0
 10
98.540104
 20
-50.118796
 30
0.0
 10
98.540104
 20
-50.118796
 30
0.0
  0
SPLINE
  5
1b1
100
AcDbEntity
  8
Layer_1
 62
7
100
AcDbSpline
 70
8
 71
3
 72
8
 73
4
 74
0
 40
0
 40
0
 40
0
 40
0
 40
1
 40
1
 40
1
 40
1
 10
135.645944
 20
-49.931036
 30
0.0
 10
129.496392
 20
-48.212476
 30
0.0
 10
128.364008
 20
-44.088556
 30
0.0
 10
134.041696
 20
-44.088556
 30
0.0
  0
SPLINE
  5
1b2
100
AcDbEntity
  8
Layer_1
 62
7
100
AcDbSpline
 70
8
 71
3
 72
8
 73
4
 74
0
 40
0
 40
0
 40
0
 40
0
 40
1
 40
1
 40
1
 40
1
 10
134.041696
 20
-44.088556
 30
0.0
 10
136.494128
 20
-44.088556
 30
0.0
 10
139.396704
 20
-43.192636
 30
0.0
 10
140.491856
 20
-42.097436
 30
0.0
  0
SPLINE
  5
1b3
100
AcDbEntity
  8
Layer_1
 62
7
100
AcDbSpline
 70
8
 71
3
 72
8
 73
4
 74
0
 40
0
 40
0
 40
0
 40
0
 40
1
 40
1
 40
1
 40
1
 10
140.491856
 20
-42.097436
 30
0.0
 10
143.624152
 20
-38.965196
 30
0.0
 10
149.425536
 20
-45.521116
 30
0.0
 10
146.568128
 20
-48.964076
 30
0.0
  0
SPLINE
  5
1b4
100
AcDbEntity
  8
Layer_1
 62
7
100
AcDbSpline
 70
8
 71
3
 72
8
 73
4
 74
0
 40
0
 40
0
 40
0
 40
0
 40
1
 40
1
 40
1
 40
1
 10
146.568128
 20
-48.964076
 30
0.0
 10
144.242728
 20
-51.766076
 30
0.0
 10
142.701088
 20
-51.902556
 30
0.0
 10
135.645944
 20
-49.931036
 30
0.0
  0
LWPOLYLINE
  5
1b5
100
AcDbEntity
  8
Layer_1
 62
7
100
AcDbPolyline
 90
2
 70
0
 10
110.295512
 20
-39.879036
 30
0.0
 10
110.295512
 20
-39.879036
 30
0.0
  0
SPLINE
  5
1b6
100
AcDbEntity
  8
Layer_1
 62
7
100
AcDbSpline
 70
8
 71
3
 72
8
 73
4
 74
0
 40
0
 40
0
 40
0
 40
0
 40
1
 40
1
 40
1
 40
1
 10
-422.351560
 20
-24.444156
 30
0.0
 10
-422.997224
 20
-21.357196
 30
0.0
 10
-425.464800
 20
-4.729676
 30
0.0
 10
-427.835064
 20
12.506084
 30
0.0
  0
SPLINE
  5
1b7
100
AcDbEntity
  8
Layer_1
 62
7
100
AcDbSpline
 70
8
 71
3
 72
8
 73
4
 74
0
 40
0
 40
0
 40
0
 40
0
 40
1
 40
1
 40
1
 40
1
 10
-427.835064
 20
12.506084
 30
0.0
 10
-430.884904
 20
34.683284
 30
0.0
 10
-432.852536
 20
43.843676
 30
0.0
 10
-434.566408
 20
43.843676
 30
0.0
  0
SPLINE
  5
1b8
100
AcDbEntity
  8
Layer_1
 62
7
100
AcDbSpline
 70
8
 71
3
 72
8
 73
4
 74
0
 40
0
 40
0
 40
0
 40
0
 40
1
 40
1
 40
1
 40
1
 10
-434.566408
 20
43.843676
 30
0.0
 10
-437.703328
 20
43.843676
 30
0.0
 10
-437.672184
 20
43.166836
 30
0.0
 10
-433.177912
 20
13.664484
 30
0.0
  0
SPLINE
  5
1b9
100
AcDbEntity
  8
Layer_1
 62
7
100
AcDbSpline
 70
8
 71
3
 72
8
 73
4
 74
0
 40
0
 40
0
 40
0
 40
0
 40
1
 40
1
 40
1
 40
1
 10
-433.177912
 20
13.664484
 30
0.0
 10
-426.940384
 20
-27.281116
 30
0.0
 10
-426.943320
 20
-27.250556
 30
0.0
 10
-429.250304
 20
-27.250556
 30
0.0
  0
SPLINE
  5
1ba
100
AcDbEntity
  8
Layer_1
 62
7
100
AcDbSpline
 70
8
 71
3
 72
8
 73
4
 74
0
 40
0
 40
0
 40
0
 40
0
 40
1
 40
1
 40
1
 40
1
 10
-429.250304
 20
-27.250556
 30
0.0
 10
-430.419152
 20
-27.250556
 30
0.0
 10
-431.375512
 20
-25.987596
 30
0.0
 10
-431.375512
 20
-24.444156
 30
0.0
  0
SPLINE
  5
1bb
100
AcDbEntity
  8
Layer_1
 62
7
100
AcDbSpline
 70
8
 71
3
 72
8
 73
4
 74
0
 40
0
 40
0
 40
0
 40
0
 40
1
 40
1
 40
1
 40
1
 10
-431.375512
 20
-24.444156
 30
0.0
 10
-431.375512
 20
-20.528156
 30
0.0
 10
-436.531400
 20
-20.919116
 30
0.0
 10
-437.544832
 20
-24.911916
 30
0.0
  0
SPLINE
  5
1bc
100
AcDbEntity
  8
Layer_1
 62
7
100
AcDbSpline
 70
8
 71
3
 72
8
 73
4
 74
0
 40
0
 40
0
 40
0
 40
0
 40
1
 40
1
 40
1
 40
1
 10
-437.544832
 20
-24.911916
 30
0.0
 10
-438.001896
 20
-26.712636
 30
0.0
 10
-438.391856
 20
-20.608796
 30
0.0
 10
-438.411432
 20
-11.347916
 30
0.0
  0
SPLINE
  5
1bd
100
AcDbEntity
  8
Layer_1
 62
7
100
AcDbSpline
 70
8
 71
3
 72
8
 73
4
 74
0
 40
0
 40
0
 40
0
 40
0
 40
1
 40
1
 40
1
 40
1
 10
-438.411432
 20
-11.347916
 30
0.0
 10
-438.449992
 20
6.916644
 30
0.0
 10
-442.993984
 20
21.763124
 30
0.0
 10
-453.296912
 20
37.287924
 30
0.0
  0
SPLINE
  5
1be
100
AcDbEntity
  8
Layer_1
 62
7
100
AcDbSpline
 70
8
 71
3
 72
8
 73
4
 74
0
 40
0
 40
0
 40
0
 40
0
 40
1
 40
1
 40
1
 40
1
 10
-453.296912
 20
37.287924
 30
0.0
 10
-459.659488
 20
46.875284
 30
0.0
 10
-461.611416
 20
70.569852
 30
0.0
 10
-456.956432
 20
81.710812
 30
0.0
  0
SPLINE
  5
1bf
100
AcDbEntity
  8
Layer_1
 62
7
100
AcDbSpline
 70
8
 71
3
 72
8
 73
4
 74
0
 40
0
 40
0
 40
0
 40
0
 40
1
 40
1
 40
1
 40
1
 10
-456.956432
 20
81.710812
 30
0.0
 10
-455.196216
 20
85.923612
 30
0.0
 10
-454.759776
 20
89.101364
 30
0.0
 10
-455.848944
 20
89.774492
 30
0.0
  0
SPLINE
  5
1c0
100
AcDbEntity
  8
Layer_1
 62
7
100
AcDbSpline
 70
8
 71
3
 72
8
 73
4
 74
0
 40
0
 40
0
 40
0
 40
0
 40
1
 40
1
 40
1
 40
1
 10
-455.848944
 20
89.774492
 30
0.0
 10
-456.837608
 20
90.385476
 30
0.0
 10
-458.927384
 20
87.819900
 30
0.0
 10
-460.492888
 20
84.073196
 30
0.0
  0
SPLINE
  5
1c1
100
AcDbEntity
  8
Layer_1
 62
7
100
AcDbSpline
 70
8
 71
3
 72
8
 73
4
 74
0
 40
0
 40
0
 40
0
 40
0
 40
1
 40
1
 40
1
 40
1
 10
-460.492888
 20
84.073196
 30
0.0
 10
-464.741512
 20
73.904668
 30
0.0
 10
-467.770312
 20
76.752012
 30
0.0
 10
-468.417864
 20
91.523116
 30
0.0
  0
SPLINE
  5
1c2
100
AcDbEntity
  8
Layer_1
 62
7
100
AcDbSpline
 70
8
 71
3
 72
8
 73
4
 74
0
 40
0
 40
0
 40
0
 40
0
 40
1
 40
1
 40
1
 40
1
 10
-468.417864
 20
91.523116
 30
0.0
 10
-468.877752
 20
102.012916
 30
0.0
 10
-469.935520
 20
105.660460
 30
0.0
 10
-474.342840
 20
111.953868
 30
0.0
  0
SPLINE
  5
1c3
100
AcDbEntity
  8
Layer_1
 62
7
100
AcDbSpline
 70
8
 71
3
 72
8
 73
4
 74
0
 40
0
 40
0
 40
0
 40
0
 40
1
 40
1
 40
1
 40
1
 10
-474.342840
 20
111.953868
 30
0.0
 10
-479.148016
 20
118.815580
 30
0.0
 10
-487.502512
 20
145.683124
 30
0.0
 10
-487.502512
 20
154.274684
 30
0.0
  0
SPLINE
  5
1c4
100
AcDbEntity
  8
Layer_1
 62
7
100
AcDbSpline
 70
8
 71
3
 72
8
 73
4
 74
0
 40
0
 40
0
 40
0
 40
0
 40
1
 40
1
 40
1
 40
1
 10
-487.502512
 20
154.274684
 30
0.0
 10
-487.502512
 20
155.967292
 30
0.0
 10
-483.713928
 20
161.194940
 30
0.0
 10
-479.083456
 20
165.891716
 30
0.0
  0
SPLINE
  5
1c5
100
AcDbEntity
  8
Layer_1
 62
7
100
AcDbSpline
 70
8
 71
3
 72
8
 73
4
 74
0
 40
0
 40
0
 40
0
 40
0
 40
1
 40
1
 40
1
 40
1
 10
-479.083456
 20
165.891716
 30
0.0
 10
-474.452976
 20
170.588588
 30
0.0
 10
-470.664408
 20
174.936836
 30
0.0
 10
-470.664408
 20
175.554524
 30
0.0
  0
SPLINE
  5
1c6
100
AcDbEntity
  8
Layer_1
 62
7
100
AcDbSpline
 70
8
 71
3
 72
8
 73
4
 74
0
 40
0
 40
0
 40
0
 40
0
 40
1
 40
1
 40
1
 40
1
 10
-470.664408
 20
175.554524
 30
0.0
 10
-470.664408
 20
178.386516
 30
0.0
 10
-474.760944
 20
175.994732
 30
0.0
 10
-483.744504
 20
167.917740
 30
0.0
  0
SPLINE
  5
1c7
100
AcDbEntity
  8
Layer_1
 62
7
100
AcDbSpline
 70
8
 71
3
 72
8
 73
4
 74
0
 40
0
 40
0
 40
0
 40
0
 40
1
 40
1
 40
1
 40
1
 10
-483.744504
 20
167.917740
 30
0.0
 10
-490.649056
 20
161.710020
 30
0.0
 10
-494.197040
 20
159.666036
 30
0.0
 10
-495.923000
 20
160.901916
 30
0.0
  0
SPLINE
  5
1c8
100
AcDbEntity
  8
Layer_1
 62
7
100
AcDbSpline
 70
8
 71
3
 72
8
 73
4
 74
0
 40
0
 40
0
 40
0
 40
0
 40
1
 40
1
 40
1
 40
1
 10
-495.923000
 20
160.901916
 30
0.0
 10
-497.262536
 20
161.861068
 30
0.0
 10
-502.251560
 20
165.921900
 30
0.0
 10
-507.009760
 20
169.926028
 30
0.0
  0
SPLINE
  5
1c9
100
AcDbEntity
  8
Layer_1
 62
7
100
AcDbSpline
 70
8
 71
3
 72
8
 73
4
 74
0
 40
0
 40
0
 40
0
 40
0
 40
1
 40
1
 40
1
 40
1
 10
-507.009760
 20
169.926028
 30
0.0
 10
-518.762888
 20
179.816492
 30
0.0
 10
-520.262264
 20
176.868220
 30
0.0
 10
-509.194056
 20
165.631116
 30
0.0
  0
LWPOLYLINE
  5
1ca
100
AcDbEntity
  8
Layer_1
 62
7
100
AcDbPolyline
 90
2
 70
0
 10
135.645944
 20
-49.931036
 30
0.0
 10
135.645944
 20
-49.931036
 30
0.0
  0
SPLINE
  5
1cb
100
AcDbEntity
  8
Layer_1
 62
7
100
AcDbSpline
 70
8
 71
3
 72
8
 73
4
 74
0
 40
0
 40
0
 40
0
 40
0
 40
1
 40
1
 40
1
 40
1
 10
-502.440776
 20
145.561956
 30
0.0
 10
-506.263952
 20
126.476636
 30
0.0
 10
-509.587320
 20
117.039948
 30
0.0
 10
-514.993848
 20
109.917628
 30
0.0
  0
SPLINE
  5
1cc
100
AcDbEntity
  8
Layer_1
 62
7
100
AcDbSpline
 70
8
 71
3
 72
8
 73
4
 74
0
 40
0
 40
0
 40
0
 40
0
 40
1
 40
1
 40
1
 40
1
 10
-514.993848
 20
109.917628
 30
0.0
 10
-519.490984
 20
103.993348
 30
0.0
 10
-520.243256
 20
101.269572
 30
0.0
 10
-520.243256
 20
90.910748
 30
0.0
  0
SPLINE
  5
1cd
100
AcDbEntity
  8
Layer_1
 62
7
100
AcDbSpline
 70
8
 71
3
 72
8
 73
4
 74
0
 40
0
 40
0
 40
0
 40
0
 40
1
 40
1
 40
1
 40
1
 10
-520.243256
 20
90.910748
 30
0.0
 10
-520.243256
 20
76.748836
 30
0.0
 10
-523.344992
 20
73.869324
 30
0.0
 10
-527.608424
 20
84.073196
 30
0.0
  0
SPLINE
  5
1ce
100
AcDbEntity
  8
Layer_1
 62
7
100
AcDbSpline
 70
8
 71
3
 72
8
 73
4
 74
0
 40
0
 40
0
 40
0
 40
0
 40
1
 40
1
 40
1
 40
1
 10
-527.608424
 20
84.073196
 30
0.0
 10
-529.173920
 20
87.819900
 30
0.0
 10
-531.263696
 20
90.385476
 30
0.0
 10
-532.252352
 20
89.774492
 30
0.0
  0
SPLINE
  5
1cf
100
AcDbEntity
  8
Layer_1
 62
7
100
AcDbSpline
 70
8
 71
3
 72
8
 73
4
 74
0
 40
0
 40
0
 40
0
 40
0
 40
1
 40
1
 40
1
 40
1
 10
-532.252352
 20
89.774492
 30
0.0
 10
-533.341544
 20
89.101364
 30
0.0
 10
-532.905096
 20
85.923612
 30
0.0
 10
-531.144888
 20
81.710812
 30
0.0
  0
SPLINE
  5
1d0
100
AcDbEntity
  8
Layer_1
 62
7
100
AcDbSpline
 70
8
 71
3
 72
8
 73
4
 74
0
 40
0
 40
0
 40
0
 40
0
 40
1
 40
1
 40
1
 40
1
 10
-531.144888
 20
81.710812
 30
0.0
 10
-529.020808
 20
76.627180
 30
0.0
 10
-528.475816
 20
70.728436
 30
0.0
 10
-529.117656
 20
59.768572
 30
0.0
  0
SPLINE
  5
1d1
100
AcDbEntity
  8
Layer_1
 62
7
100
AcDbSpline
 70
8
 71
3
 72
8
 73
4
 74
0
 40
0
 40
0
 40
0
 40
0
 40
1
 40
1
 40
1
 40
1
 10
-529.117656
 20
59.768572
 30
0.0
 10
-529.885728
 20
46.652428
 30
0.0
 10
-530.838616
 20
43.404580
 30
0.0
 10
-536.742096
 20
33.780644
 30
0.0
  0
SPLINE
  5
1d2
100
AcDbEntity
  8
Layer_1
 62
7
100
AcDbSpline
 70
8
 71
3
 72
8
 73
4
 74
0
 40
0
 40
0
 40
0
 40
0
 40
1
 40
1
 40
1
 40
1
 10
-536.742096
 20
33.780644
 30
0.0
 10
-546.946840
 20
17.144724
 30
0.0
 10
-552.243728
 20
-2.652236
 30
0.0
 10
-549.317272
 20
-13.218796
 30
0.0
  0
SPLINE
  5
1d3
100
AcDbEntity
  8
Layer_1
 62
7
100
AcDbSpline
 70
8
 71
3
 72
8
 73
4
 74
0
 40
0
 40
0
 40
0
 40
0
 40
1
 40
1
 40
1
 40
1
 10
-549.317272
 20
-13.218796
 30
0.0
 10
-549.032280
 20
-14.247836
 30
0.0
 10
-548.924400
 20
-18.036316
 30
0.0
 10
-549.077552
 20
-21.637916
 30
0.0
  0
SPLINE
  5
1d4
100
AcDbEntity
  8
Layer_1
 62
7
100
AcDbSpline
 70
8
 71
3
 72
8
 73
4
 74
0
 40
0
 40
0
 40
0
 40
0
 40
1
 40
1
 40
1
 40
1
 10
-549.077552
 20
-21.637916
 30
0.0
 10
-549.307296
 20
-27.040796
 30
0.0
 10
-549.689488
 20
-27.613436
 30
0.0
 10
-551.262976
 20
-24.911916
 30
0.0
  0
SPLINE
  5
1d5
100
AcDbEntity
  8
Layer_1
 62
7
100
AcDbSpline
 70
8
 71
3
 72
8
 73
4
 74
0
 40
0
 40
0
 40
0
 40
0
 40
1
 40
1
 40
1
 40
1
 10
-551.262976
 20
-24.911916
 30
0.0
 10
-553.599704
 20
-20.899996
 30
0.0
 10
-556.725808
 20
-20.632316
 30
0.0
 10
-556.725808
 20
-24.444156
 30
0.0
  0
SPLINE
  5
1d6
100
AcDbEntity
  8
Layer_1
 62
7
100
AcDbSpline
 70
8
 71
3
 72
8
 73
4
 74
0
 40
0
 40
0
 40
0
 40
0
 40
1
 40
1
 40
1
 40
1
 10
-556.725808
 20
-24.444156
 30
0.0
 10
-556.725808
 20
-25.987596
 30
0.0
 10
-557.567720
 20
-27.250556
 30
0.0
 10
-558.596720
 20
-27.250556
 30
0.0
  0
SPLINE
  5
1d7
100
AcDbEntity
  8
Layer_1
 62
7
100
AcDbSpline
 70
8
 71
3
 72
8
 73
4
 74
0
 40
0
 40
0
 40
0
 40
0
 40
1
 40
1
 40
1
 40
1
 10
-558.596720
 20
-27.250556
 30
0.0
 10
-561.188472
 20
-27.250556
 30
0.0
 10
-561.086080
 20
-25.960476
 30
0.0
 10
-555.624112
 20
10.198884
 30
0.0
  0
SPLINE
  5
1d8
100
AcDbEntity
  8
Layer_1
 62
7
100
AcDbSpline
 70
8
 71
3
 72
8
 73
4
 74
0
 40
0
 40
0
 40
0
 40
0
 40
1
 40
1
 40
1
 40
1
 10
-555.624112
 20
10.198884
 30
0.0
 10
-552.960176
 20
27.834644
 30
0.0
 10
-551.290400
 20
42.773676
 30
0.0
 10
-551.913480
 20
43.396772
 30
0.0
  0
SPLINE
  5
1d9
100
AcDbEntity
  8
Layer_1
 62
7
100
AcDbSpline
 70
8
 71
3
 72
8
 73
4
 74
0
 40
0
 40
0
 40
0
 40
0
 40
1
 40
1
 40
1
 40
1
 10
-551.913480
 20
43.396772
 30
0.0
 10
-554.739752
 20
46.223068
 30
0.0
 10
-556.670080
 20
38.762884
 30
0.0
 10
-561.192848
 20
7.534644
 30
0.0
  0
SPLINE
  5
1da
100
AcDbEntity
  8
Layer_1
 62
7
100
AcDbSpline
 70
8
 71
3
 72
8
 73
4
 74
0
 40
0
 40
0
 40
0
 40
0
 40
1
 40
1
 40
1
 40
1
 10
-561.192848
 20
7.534644
 30
0.0
 10
-565.516176
 20
-22.316476
 30
0.0
 10
-567.951216
 20
-33.950796
 30
0.0
 10
-567.951216
 20
-24.756076
 30
0.0
  0
SPLINE
  5
1db
100
AcDbEntity
  8
Layer_1
 62
7
100
AcDbSpline
 70
8
 71
3
 72
8
 73
4
 74
0
 40
0
 40
0
 40
0
 40
0
 40
1
 40
1
 40
1
 40
1
 10
-567.951216
 20
-24.756076
 30
0.0
 10
-567.951216
 20
-20.612476
 30
0.0
 10
-573.055176
 20
-20.741036
 30
0.0
 10
-574.145144
 20
-24.911916
 30
0.0
  0
SPLINE
  5
1dc
100
AcDbEntity
  8
Layer_1
 62
7
100
AcDbSpline
 70
8
 71
3
 72
8
 73
4
 74
0
 40
0
 40
0
 40
0
 40
0
 40
1
 40
1
 40
1
 40
1
 10
-574.145144
 20
-24.911916
 30
0.0
 10
-574.655448
 20
-26.864636
 30
0.0
 10
-575.088344
 20
-26.046476
 30
0.0
 10
-575.217792
 20
-22.884956
 30
0.0
  0
SPLINE
  5
1dd
100
AcDbEntity
  8
Layer_1
 62
7
100
AcDbSpline
 70
8
 71
3
 72
8
 73
4
 74
0
 40
0
 40
0
 40
0
 40
0
 40
1
 40
1
 40
1
 40
1
 10
-575.217792
 20
-22.884956
 30
0.0
 10
-575.337152
 20
-19.969436
 30
0.0
 10
-573.663480
 20
-10.708476
 30
0.0
 10
-571.498512
 20
-2.304956
 30
0.0
  0
SPLINE
  5
1de
100
AcDbEntity
  8
Layer_1
 62
7
100
AcDbSpline
 70
8
 71
3
 72
8
 73
4
 74
0
 40
0
 40
0
 40
0
 40
0
 40
1
 40
1
 40
1
 40
1
 10
-571.498512
 20
-2.304956
 30
0.0
 10
-568.049640
 20
11.081844
 30
0.0
 10
-567.719008
 20
16.010244
 30
0.0
 10
-568.828512
 20
37.494964
 30
0.0
  0
SPLINE
  5
1df
100
AcDbEntity
  8
Layer_1
 62
7
100
AcDbSpline
 70
8
 71
3
 72
8
 73
4
 74
0
 40
0
 40
0
 40
0
 40
0
 40
1
 40
1
 40
1
 40
1
 10
-568.828512
 20
37.494964
 30
0.0
 10
-570.028888
 20
60.739612
 30
0.0
 10
-569.840672
 20
62.773172
 30
0.0
 10
-565.212736
 20
76.559532
 30
0.0
  0
SPLINE
  5
1e0
100
AcDbEntity
  8
Layer_1
 62
7
100
AcDbSpline
 70
8
 71
3
 72
8
 73
4
 74
0
 40
0
 40
0
 40
0
 40
0
 40
1
 40
1
 40
1
 40
1
 10
-565.212736
 20
76.559532
 30
0.0
 10
-560.043888
 20
91.957244
 30
0.0
 10
-560.166624
 20
95.032572
 30
0.0
 10
-565.748432
 20
89.981132
 30
0.0
  0
SPLINE
  5
1e1
100
AcDbEntity
  8
Layer_1
 62
7
100
AcDbSpline
 70
8
 71
3
 72
8
 73
4
 74
0
 40
0
 40
0
 40
0
 40
0
 40
1
 40
1
 40
1
 40
1
 10
-565.748432
 20
89.981132
 30
0.0
 10
-567.636504
 20
88.272428
 30
0.0
 10
-569.656344
 20
86.874404
 30
0.0
 10
-570.236984
 20
86.874404
 30
0.0
  0
SPLINE
  5
1e2
100
AcDbEntity
  8
Layer_1
 62
7
100
AcDbSpline
 70
8
 71
3
 72
8
 73
4
 74
0
 40
0
 40
0
 40
0
 40
0
 40
1
 40
1
 40
1
 40
1
 10
-570.236984
 20
86.874404
 30
0.0
 10
-572.821656
 20
86.874404
 30
0.0
 10
-573.378320
 20
93.438196
 30
0.0
 10
-571.444848
 20
101.116580
 30
0.0
  0
SPLINE
  5
1e3
100
AcDbEntity
  8
Layer_1
 62
7
100
AcDbSpline
 70
8
 71
3
 72
8
 73
4
 74
0
 40
0
 40
0
 40
0
 40
0
 40
1
 40
1
 40
1
 40
1
 10
-571.444848
 20
101.116580
 30
0.0
 10
-569.773200
 20
107.755340
 30
0.0
 10
-568.137568
 20
109.993924
 30
0.0
 10
-563.500528
 20
111.989460
 30
0.0
  0
SPLINE
  5
1e4
100
AcDbEntity
  8
Layer_1
 62
7
100
AcDbSpline
 70
8
 71
3
 72
8
 73
4
 74
0
 40
0
 40
0
 40
0
 40
0
 40
1
 40
1
 40
1
 40
1
 10
-563.500528
 20
111.989460
 30
0.0
 10
-556.952168
 20
114.807588
 30
0.0
 10
-541.558072
 20
129.905100
 30
0.0
 10
-545.232944
 20
129.905100
 30
0.0
  0
SPLINE
  5
1e5
100
AcDbEntity
  8
Layer_1
 62
7
100
AcDbSpline
 70
8
 71
3
 72
8
 73
4
 74
0
 40
0
 40
0
 40
0
 40
0
 40
1
 40
1
 40
1
 40
1
 10
-545.232944
 20
129.905100
 30
0.0
 10
-546.532512
 20
129.905100
 30
0.0
 10
-551.544344
 20
126.882580
 30
0.0
 10
-556.370320
 20
123.188316
 30
0.0
  0
LWPOLYLINE
  5
1e6
100
AcDbEntity
  8
Layer_1
 62
7
100
AcDbPolyline
 90
3
 70
0
 10
-509.194056
 20
165.631116
 30
0.0
 10
-500.241360
 20
156.541620
 30
0.0
 10
-502.440776
 20
145.561956
 30
0.0
  0
SPLINE
  5
1e7
100
AcDbEntity
  8
Layer_1
 62
7
100
AcDbSpline
 70
8
 71
3
 72
8
 73
4
 74
0
 40
0
 40
0
 40
0
 40
0
 40
1
 40
1
 40
1
 40
1
 10
-565.738232
 20
123.401684
 30
0.0
 10
-566.167008
 20
128.409236
 30
0.0
 10
-565.258624
 20
131.474084
 30
0.0
 10
-562.464168
 20
134.448676
 30
0.0
  0
SPLINE
  5
1e8
100
AcDbEntity
  8
Layer_1
 62
7
100
AcDbSpline
 70
8
 71
3
 72
8
 73
4
 74
0
 40
0
 40
0
 40
0
 40
0
 40
1
 40
1
 40
1
 40
1
 10
-562.464168
 20
134.448676
 30
0.0
 10
-560.055312
 20
137.012732
 30
0.0
 10
-558.596720
 20
141.068356
 30
0.0
 10
-558.596720
 20
145.202220
 30
0.0
  0
SPLINE
  5
1e9
100
AcDbEntity
  8
Layer_1
 62
7
100
AcDbSpline
 70
8
 71
3
 72
8
 73
4
 74
0
 40
0
 40
0
 40
0
 40
0
 40
1
 40
1
 40
1
 40
1
 10
-558.596720
 20
145.202220
 30
0.0
 10
-558.596720
 20
149.298340
 30
0.0
 10
-555.682744
 20
157.488644
 30
0.0
 10
-550.984872
 20
166.596908
 30
0.0
  0
SPLINE
  5
1ea
100
AcDbEntity
  8
Layer_1
 62
7
100
AcDbSpline
 70
8
 71
3
 72
8
 73
4
 74
0
 40
0
 40
0
 40
0
 40
0
 40
1
 40
1
 40
1
 40
1
 10
-550.984872
 20
166.596908
 30
0.0
 10
-544.248608
 20
179.657276
 30
0.0
 10
-538.016816
 20
197.638908
 30
0.0
 10
-538.016816
 20
204.015636
 30
0.0
  0
SPLINE
  5
1eb
100
AcDbEntity
  8
Layer_1
 62
7
100
AcDbSpline
 70
8
 71
3
 72
8
 73
4
 74
0
 40
0
 40
0
 40
0
 40
0
 40
1
 40
1
 40
1
 40
1
 10
-538.016816
 20
204.015636
 30
0.0
 10
-538.016816
 20
205.242332
 30
0.0
 10
-540.679048
 20
207.174020
 30
0.0
 10
-543.932896
 20
208.308308
 30
0.0
  0
SPLINE
  5
1ec
100
AcDbEntity
  8
Layer_1
 62
7
100
AcDbSpline
 70
8
 71
3
 72
8
 73
4
 74
0
 40
0
 40
0
 40
0
 40
0
 40
1
 40
1
 40
1
 40
1
 10
-543.932896
 20
208.308308
 30
0.0
 10
-547.186728
 20
209.442588
 30
0.0
 10
-549.408256
 20
210.811364
 30
0.0
 10
-548.869616
 20
211.350004
 30
0.0
  0
SPLINE
  5
1ed
100
AcDbEntity
  8
Layer_1
 62
7
100
AcDbSpline
 70
8
 71
3
 72
8
 73
4
 74
0
 40
0
 40
0
 40
0
 40
0
 40
1
 40
1
 40
1
 40
1
 10
-548.869616
 20
211.350004
 30
0.0
 10
-548.330976
 20
211.888636
 30
0.0
 10
-545.733936
 20
211.509524
 30
0.0
 10
-543.098456
 20
210.507524
 30
0.0
  0
SPLINE
  5
1ee
100
AcDbEntity
  8
Layer_1
 62
7
100
AcDbSpline
 70
8
 71
3
 72
8
 73
4
 74
0
 40
0
 40
0
 40
0
 40
0
 40
1
 40
1
 40
1
 40
1
 10
-543.098456
 20
210.507524
 30
0.0
 10
-537.611808
 20
208.421524
 30
0.0
 10
-536.740480
 20
209.165060
 30
0.0
 10
-530.759632
 20
221.036876
 30
0.0
  0
SPLINE
  5
1ef
100
AcDbEntity
  8
Layer_1
 62
7
100
AcDbSpline
 70
8
 71
3
 72
8
 73
4
 74
0
 40
0
 40
0
 40
0
 40
0
 40
1
 40
1
 40
1
 40
1
 10
-530.759632
 20
221.036876
 30
0.0
 10
-526.117496
 20
230.251428
 30
0.0
 10
-525.826832
 20
236.436508
 30
0.0
 10
-529.397576
 20
250.019092
 30
0.0
  0
SPLINE
  5
1f0
100
AcDbEntity
  8
Layer_1
 62
7
100
AcDbSpline
 70
8
 71
3
 72
8
 73
4
 74
0
 40
0
 40
0
 40
0
 40
0
 40
1
 40
1
 40
1
 40
1
 10
-529.397576
 20
250.019092
 30
0.0
 10
-532.709704
 20
262.617924
 30
0.0
 10
-536.269056
 20
270.367308
 30
0.0
 10
-538.196504
 20
269.176108
 30
0.0
  0
SPLINE
  5
1f1
100
AcDbEntity
  8
Layer_1
 62
7
100
AcDbSpline
 70
8
 71
3
 72
8
 73
4
 74
0
 40
0
 40
0
 40
0
 40
0
 40
1
 40
1
 40
1
 40
1
 10
-538.196504
 20
269.176108
 30
0.0
 10
-539.023416
 20
268.665012
 30
0.0
 10
-540.613728
 20
269.954228
 30
0.0
 10
-541.730568
 20
272.041052
 30
0.0
  0
SPLINE
  5
1f2
100
AcDbEntity
  8
Layer_1
 62
7
100
AcDbSpline
 70
8
 71
3
 72
8
 73
4
 74
0
 40
0
 40
0
 40
0
 40
0
 40
1
 40
1
 40
1
 40
1
 10
-541.730568
 20
272.041052
 30
0.0
 10
-542.847408
 20
274.127868
 30
0.0
 10
-544.994392
 20
275.835260
 30
0.0
 10
-546.501680
 20
275.835260
 30
0.0
  0
SPLINE
  5
1f3
100
AcDbEntity
  8
Layer_1
 62
7
100
AcDbSpline
 70
8
 71
3
 72
8
 73
4
 74
0
 40
0
 40
0
 40
0
 40
0
 40
1
 40
1
 40
1
 40
1
 10
-546.501680
 20
275.835260
 30
0.0
 10
-550.038056
 20
275.835260
 30
0.0
 10
-550.006976
 20
273.186348
 30
0.0
 10
-546.435760
 20
270.222572
 30
0.0
  0
SPLINE
  5
1f4
100
AcDbEntity
  8
Layer_1
 62
7
100
AcDbSpline
 70
8
 71
3
 72
8
 73
4
 74
0
 40
0
 40
0
 40
0
 40
0
 40
1
 40
1
 40
1
 40
1
 10
-546.435760
 20
270.222572
 30
0.0
 10
-544.892272
 20
268.941620
 30
0.0
 10
-543.629408
 20
266.792076
 30
0.0
 10
-543.629408
 20
265.445948
 30
0.0
  0
SPLINE
  5
1f5
100
AcDbEntity
  8
Layer_1
 62
7
100
AcDbSpline
 70
8
 71
3
 72
8
 73
4
 74
0
 40
0
 40
0
 40
0
 40
0
 40
1
 40
1
 40
1
 40
1
 10
-543.629408
 20
265.445948
 30
0.0
 10
-543.629408
 20
262.203524
 30
0.0
 10
-550.762216
 20
250.717140
 30
0.0
 10
-557.241408
 20
243.525668
 30
0.0
  0
SPLINE
  5
1f6
100
AcDbEntity
  8
Layer_1
 62
7
100
AcDbSpline
 70
8
 71
3
 72
8
 73
4
 74
0
 40
0
 40
0
 40
0
 40
0
 40
1
 40
1
 40
1
 40
1
 10
-557.241408
 20
243.525668
 30
0.0
 10
-561.020584
 20
239.331124
 30
0.0
 10
-561.804848
 20
237.372924
 30
0.0
 10
-560.122144
 20
236.332876
 30
0.0
  0
SPLINE
  5
1f7
100
AcDbEntity
  8
Layer_1
 62
7
100
AcDbSpline
 70
8
 71
3
 72
8
 73
4
 74
0
 40
0
 40
0
 40
0
 40
0
 40
1
 40
1
 40
1
 40
1
 10
-560.122144
 20
236.332876
 30
0.0
 10
-556.749168
 20
234.248308
 30
0.0
 10
-563.637024
 20
227.191876
 30
0.0
 10
-569.044856
 20
227.191876
 30
0.0
  0
LWPOLYLINE
  5
1f8
100
AcDbEntity
  8
Layer_1
 62
7
100
AcDbPolyline
 90
3
 70
0
 10
-556.370320
 20
123.188316
 30
0.0
 10
-565.144864
 20
116.471532
 30
0.0
 10
-565.738232
 20
123.401684
 30
0.0
  0
SPLINE
  5
1f9
100
AcDbEntity
  8
Layer_1
 62
7
100
AcDbSpline
 70
8
 71
3
 72
8
 73
4
 74
0
 40
0
 40
0
 40
0
 40
0
 40
1
 40
1
 40
1
 40
1
 10
-568.611872
 20
235.580660
 30
0.0
 10
-566.033152
 20
240.194412
 30
0.0
 10
-564.244992
 20
245.456340
 30
0.0
 10
-564.638160
 20
247.273788
 30
0.0
  0
SPLINE
  5
1fa
100
AcDbEntity
  8
Layer_1
 62
7
100
AcDbSpline
 70
8
 71
3
 72
8
 73
4
 74
0
 40
0
 40
0
 40
0
 40
0
 40
1
 40
1
 40
1
 40
1
 10
-564.638160
 20
247.273788
 30
0.0
 10
-565.135016
 20
249.570516
 30
0.0
 10
-566.828376
 20
247.725732
 30
0.0
 10
-570.191648
 20
241.223644
 30
0.0
  0
SPLINE
  5
1fb
100
AcDbEntity
  8
Layer_1
 62
7
100
AcDbSpline
 70
8
 71
3
 72
8
 73
4
 74
0
 40
0
 40
0
 40
0
 40
0
 40
1
 40
1
 40
1
 40
1
 10
-570.191648
 20
241.223644
 30
0.0
 10
-578.035448
 20
226.059324
 30
0.0
 10
-580.686200
 20
224.524300
 30
0.0
 10
-600.883616
 20
223.450084
 30
0.0
  0
SPLINE
  5
1fc
100
AcDbEntity
  8
Layer_1
 62
7
100
AcDbSpline
 70
8
 71
3
 72
8
 73
4
 74
0
 40
0
 40
0
 40
0
 40
0
 40
1
 40
1
 40
1
 40
1
 10
-600.883616
 20
223.450084
 30
0.0
 10
-610.557104
 20
222.935620
 30
0.0
 10
-618.470360
 20
223.079132
 30
0.0
 10
-618.468616
 20
223.769124
 30
0.0
  0
SPLINE
  5
1fd
100
AcDbEntity
  8
Layer_1
 62
7
100
AcDbSpline
 70
8
 71
3
 72
8
 73
4
 74
0
 40
0
 40
0
 40
0
 40
0
 40
1
 40
1
 40
1
 40
1
 10
-618.468616
 20
223.769124
 30
0.0
 10
-618.465416
 20
224.995308
 30
0.0
 10
-615.406856
 20
225.758132
 30
0.0
 10
-601.159624
 20
228.085964
 30
0.0
  0
SPLINE
  5
1fe
100
AcDbEntity
  8
Layer_1
 62
7
100
AcDbSpline
 70
8
 71
3
 72
8
 73
4
 74
0
 40
0
 40
0
 40
0
 40
0
 40
1
 40
1
 40
1
 40
1
 10
-601.159624
 20
228.085964
 30
0.0
 10
-595.054192
 20
229.083580
 30
0.0
 10
-594.147480
 20
229.888932
 30
0.0
 10
-594.172392
 20
234.292572
 30
0.0
  0
SPLINE
  5
1ff
100
AcDbEntity
  8
Layer_1
 62
7
100
AcDbSpline
 70
8
 71
3
 72
8
 73
4
 74
0
 40
0
 40
0
 40
0
 40
0
 40
1
 40
1
 40
1
 40
1
 10
-594.172392
 20
234.292572
 30
0.0
 10
-594.228152
 20
244.155292
 30
0.0
 10
-596.043552
 20
244.987164
 30
0.0
 10
-612.071824
 20
242.495324
 30
0.0
  0
SPLINE
  5
200
100
AcDbEntity
  8
Layer_1
 62
7
100
AcDbSpline
 70
8
 71
3
 72
8
 73
4
 74
0
 40
0
 40
0
 40
0
 40
0
 40
1
 40
1
 40
1
 40
1
 10
-612.071824
 20
242.495324
 30
0.0
 10
-626.246112
 20
240.291716
 30
0.0
 10
-633.401312
 20
240.635852
 30
0.0
 10
-622.624256
 20
243.002948
 30
0.0
  0
SPLINE
  5
201
100
AcDbEntity
  8
Layer_1
 62
7
100
AcDbSpline
 70
8
 71
3
 72
8
 73
4
 74
0
 40
0
 40
0
 40
0
 40
0
 40
1
 40
1
 40
1
 40
1
 10
-622.624256
 20
243.002948
 30
0.0
 10
-619.619464
 20
243.662860
 30
0.0
 10
-614.380376
 20
247.071740
 30
0.0
 10
-610.981856
 20
250.578116
 30
0.0
  0
SPLINE
  5
202
100
AcDbEntity
  8
Layer_1
 62
7
100
AcDbSpline
 70
8
 71
3
 72
8
 73
4
 74
0
 40
0
 40
0
 40
0
 40
0
 40
1
 40
1
 40
1
 40
1
 10
-610.981856
 20
250.578116
 30
0.0
 10
-603.471480
 20
258.326892
 30
0.0
 10
-598.163736
 20
259.669148
 30
0.0
 10
-584.954152
 20
257.160372
 30
0.0
  0
SPLINE
  5
203
100
AcDbEntity
  8
Layer_1
 62
7
100
AcDbSpline
 70
8
 71
3
 72
8
 73
4
 74
0
 40
0
 40
0
 40
0
 40
0
 40
1
 40
1
 40
1
 40
1
 10
-584.954152
 20
257.160372
 30
0.0
 10
-579.385376
 20
256.102684
 30
0.0
 10
-574.424464
 20
255.642076
 30
0.0
 10
-573.929864
 20
256.136652
 30
0.0
  0
SPLINE
  5
204
100
AcDbEntity
  8
Layer_1
 62
7
100
AcDbSpline
 70
8
 71
3
 72
8
 73
4
 74
0
 40
0
 40
0
 40
0
 40
0
 40
1
 40
1
 40
1
 40
1
 10
-573.929864
 20
256.136652
 30
0.0
 10
-571.683632
 20
258.382884
 30
0.0
 10
-578.382408
 20
262.738996
 30
0.0
 10
-584.082880
 20
262.738996
 30
0.0
  0
SPLINE
  5
205
100
AcDbEntity
  8
Layer_1
 62
7
100
AcDbSpline
 70
8
 71
3
 72
8
 73
4
 74
0
 40
0
 40
0
 40
0
 40
0
 40
1
 40
1
 40
1
 40
1
 10
-584.082880
 20
262.738996
 30
0.0
 10
-591.189208
 20
262.738996
 30
0.0
 10
-591.689600
 20
263.809836
 30
0.0
 10
-587.427024
 20
269.895484
 30
0.0
  0
SPLINE
  5
206
100
AcDbEntity
  8
Layer_1
 62
7
100
AcDbSpline
 70
8
 71
3
 72
8
 73
4
 74
0
 40
0
 40
0
 40
0
 40
0
 40
1
 40
1
 40
1
 40
1
 10
-587.427024
 20
269.895484
 30
0.0
 10
-585.041600
 20
273.301196
 30
0.0
 10
-583.920496
 20
273.701532
 30
0.0
 10
-581.769128
 20
271.916100
 30
0.0
  0
SPLINE
  5
207
100
AcDbEntity
  8
Layer_1
 62
7
100
AcDbSpline
 70
8
 71
3
 72
8
 73
4
 74
0
 40
0
 40
0
 40
0
 40
0
 40
1
 40
1
 40
1
 40
1
 10
-581.769128
 20
271.916100
 30
0.0
 10
-578.346288
 20
269.075340
 30
0.0
 10
-576.082752
 20
271.172052
 30
0.0
 10
-578.903344
 20
274.570628
 30
0.0
  0
SPLINE
  5
208
100
AcDbEntity
  8
Layer_1
 62
7
100
AcDbSpline
 70
8
 71
3
 72
8
 73
4
 74
0
 40
0
 40
0
 40
0
 40
0
 40
1
 40
1
 40
1
 40
1
 10
-578.903344
 20
274.570628
 30
0.0
 10
-580.548912
 20
276.553412
 30
0.0
 10
-580.188368
 20
277.903724
 30
0.0
 10
-577.320408
 20
280.499196
 30
0.0
  0
SPLINE
  5
209
100
AcDbEntity
  8
Layer_1
 62
7
100
AcDbSpline
 70
8
 71
3
 72
8
 73
4
 74
0
 40
0
 40
0
 40
0
 40
0
 40
1
 40
1
 40
1
 40
1
 10
-577.320408
 20
280.499196
 30
0.0
 10
-575.277816
 20
282.347652
 30
0.0
 10
-570.983504
 20
287.947892
 30
0.0
 10
-567.777496
 20
292.944020
 30
0.0
  0
SPLINE
  5
20a
100
AcDbEntity
  8
Layer_1
 62
7
100
AcDbSpline
 70
8
 71
3
 72
8
 73
4
 74
0
 40
0
 40
0
 40
0
 40
0
 40
1
 40
1
 40
1
 40
1
 10
-567.777496
 20
292.944020
 30
0.0
 10
-562.204720
 20
301.628388
 30
0.0
 10
-556.624000
 20
304.533108
 30
0.0
 10
-553.919392
 20
300.157012
 30
0.0
  0
SPLINE
  5
20b
100
AcDbEntity
  8
Layer_1
 62
7
100
AcDbSpline
 70
8
 71
3
 72
8
 73
4
 74
0
 40
0
 40
0
 40
0
 40
0
 40
1
 40
1
 40
1
 40
1
 10
-553.919392
 20
300.157012
 30
0.0
 10
-552.202896
 20
297.379580
 30
0.0
 10
-549.242144
 20
297.892004
 30
0.0
 10
-549.242144
 20
300.966340
 30
0.0
  0
SPLINE
  5
20c
100
AcDbEntity
  8
Layer_1
 62
7
100
AcDbSpline
 70
8
 71
3
 72
8
 73
4
 74
0
 40
0
 40
0
 40
0
 40
0
 40
1
 40
1
 40
1
 40
1
 10
-549.242144
 20
300.966340
 30
0.0
 10
-549.242144
 20
302.440476
 30
0.0
 10
-550.925960
 20
304.181020
 30
0.0
 10
-552.983944
 20
304.834196
 30
0.0
  0
SPLINE
  5
20d
100
AcDbEntity
  8
Layer_1
 62
7
100
AcDbSpline
 70
8
 71
3
 72
8
 73
4
 74
0
 40
0
 40
0
 40
0
 40
0
 40
1
 40
1
 40
1
 40
1
 10
-552.983944
 20
304.834196
 30
0.0
 10
-557.240752
 20
306.185332
 30
0.0
 10
-557.607800
 20
308.109364
 30
0.0
 10
-554.659624
 20
313.618012
 30
0.0
  0
SPLINE
  5
20e
100
AcDbEntity
  8
Layer_1
 62
7
100
AcDbSpline
 70
8
 71
3
 72
8
 73
4
 74
0
 40
0
 40
0
 40
0
 40
0
 40
1
 40
1
 40
1
 40
1
 10
-554.659624
 20
313.618012
 30
0.0
 10
-552.904848
 20
316.896852
 30
0.0
 10
-553.398200
 20
318.136908
 30
0.0
 10
-557.933696
 20
321.846876
 30
0.0
  0
SPLINE
  5
20f
100
AcDbEntity
  8
Layer_1
 62
7
100
AcDbSpline
 70
8
 71
3
 72
8
 73
4
 74
0
 40
0
 40
0
 40
0
 40
0
 40
1
 40
1
 40
1
 40
1
 10
-557.933696
 20
321.846876
 30
0.0
 10
-560.870800
 20
324.249364
 30
0.0
 10
-562.498280
 20
326.245316
 30
0.0
 10
-561.550312
 20
326.282332
 30
0.0
  0
SPLINE
  5
210
100
AcDbEntity
  8
Layer_1
 62
7
100
AcDbSpline
 70
8
 71
3
 72
8
 73
4
 74
0
 40
0
 40
0
 40
0
 40
0
 40
1
 40
1
 40
1
 40
1
 10
-561.550312
 20
326.282332
 30
0.0
 10
-560.602344
 20
326.319052
 30
0.0
 10
-558.455792
 20
325.108876
 30
0.0
 10
-556.780192
 20
323.592516
 30
0.0
  0
SPLINE
  5
211
100
AcDbEntity
  8
Layer_1
 62
7
100
AcDbSpline
 70
8
 71
3
 72
8
 73
4
 74
0
 40
0
 40
0
 40
0
 40
0
 40
1
 40
1
 40
1
 40
1
 10
-556.780192
 20
323.592516
 30
0.0
 10
-554.082208
 20
321.150860
 30
0.0
 10
-552.815664
 20
321.289572
 30
0.0
 10
-545.710112
 20
324.805140
 30
0.0
  0
SPLINE
  5
212
100
AcDbEntity
  8
Layer_1
 62
7
100
AcDbSpline
 70
8
 71
3
 72
8
 73
4
 74
0
 40
0
 40
0
 40
0
 40
0
 40
1
 40
1
 40
1
 40
1
 10
-545.710112
 20
324.805140
 30
0.0
 10
-541.297168
 20
326.988444
 30
0.0
 10
-537.249824
 20
329.912948
 30
0.0
 10
-536.716032
 20
331.304060
 30
0.0
  0
SPLINE
  5
213
100
AcDbEntity
  8
Layer_1
 62
7
100
AcDbSpline
 70
8
 71
3
 72
8
 73
4
 74
0
 40
0
 40
0
 40
0
 40
0
 40
1
 40
1
 40
1
 40
1
 10
-536.716032
 20
331.304060
 30
0.0
 10
-534.563984
 20
336.912260
 30
0.0
 10
-532.666872
 20
333.275932
 30
0.0
 10
-532.993208
 20
324.168284
 30
0.0
  0
SPLINE
  5
214
100
AcDbEntity
  8
Layer_1
 62
7
100
AcDbSpline
 70
8
 71
3
 72
8
 73
4
 74
0
 40
0
 40
0
 40
0
 40
0
 40
1
 40
1
 40
1
 40
1
 10
-532.993208
 20
324.168284
 30
0.0
 10
-533.220056
 20
317.836932
 30
0.0
 10
-532.532864
 20
314.233956
 30
0.0
 10
-531.000872
 20
313.722356
 30
0.0
  0
SPLINE
  5
215
100
AcDbEntity
  8
Layer_1
 62
7
100
AcDbSpline
 70
8
 71
3
 72
8
 73
4
 74
0
 40
0
 40
0
 40
0
 40
0
 40
1
 40
1
 40
1
 40
1
 10
-531.000872
 20
313.722356
 30
0.0
 10
-529.312256
 20
313.158524
 30
0.0
 10
-528.662240
 20
315.903932
 30
0.0
 10
-528.662240
 20
323.599756
 30
0.0
  0
LWPOLYLINE
  5
216
100
AcDbEntity
  8
Layer_1
 62
7
100
AcDbPolyline
 90
3
 70
0
 10
-569.044856
 20
227.191876
 30
0.0
 10
-573.300448
 20
227.191876
 30
0.0
 10
-568.611872
 20
235.580660
 30
0.0
  0
SPLINE
  5
217
100
AcDbEntity
  8
Layer_1
 62
7
100
AcDbSpline
 70
8
 71
3
 72
8
 73
4
 74
0
 40
0
 40
0
 40
0
 40
0
 40
1
 40
1
 40
1
 40
1
 10
-519.981024
 20
332.956180
 30
0.0
 10
-510.553408
 20
331.542420
 30
0.0
 10
-508.163528
 20
333.131612
 30
0.0
 10
-508.110992
 20
340.849068
 30
0.0
  0
SPLINE
  5
218
100
AcDbEntity
  8
Layer_1
 62
7
100
AcDbSpline
 70
8
 71
3
 72
8
 73
4
 74
0
 40
0
 40
0
 40
0
 40
0
 40
1
 40
1
 40
1
 40
1
 10
-508.110992
 20
340.849068
 30
0.0
 10
-508.087792
 20
344.272628
 30
0.0
 10
-507.034472
 20
345.058604
 30
0.0
 10
-502.469640
 20
345.058604
 30
0.0
  0
LWPOLYLINE
  5
219
100
AcDbEntity
  8
Layer_1
 62
7
100
AcDbPolyline
 90
3
 70
0
 10
-528.662240
 20
323.599756
 30
0.0
 10
-528.662240
 20
334.258044
 30
0.0
 10
-519.981024
 20
332.956180
 30
0.0
  0
SPLINE
  5
21a
100
AcDbEntity
  8
Layer_1
 62
7
100
AcDbSpline
 70
8
 71
3
 72
8
 73
4
 74
0
 40
0
 40
0
 40
0
 40
0
 40
1
 40
1
 40
1
 40
1
 10
-496.856944
 20
332.897732
 30
0.0
 10
-496.856944
 20
323.335388
 30
0.0
 10
-496.257304
 20
320.736860
 30
0.0
 10
-494.050592
 20
320.736860
 30
0.0
  0
SPLINE
  5
21b
100
AcDbEntity
  8
Layer_1
 62
7
100
AcDbSpline
 70
8
 71
3
 72
8
 73
4
 74
0
 40
0
 40
0
 40
0
 40
0
 40
1
 40
1
 40
1
 40
1
 10
-494.050592
 20
320.736860
 30
0.0
 10
-491.849136
 20
320.736860
 30
0.0
 10
-491.244248
 20
323.311116
 30
0.0
 10
-491.244248
 20
332.679668
 30
0.0
  0
SPLINE
  5
21c
100
AcDbEntity
  8
Layer_1
 62
7
100
AcDbSpline
 70
8
 71
3
 72
8
 73
4
 74
0
 40
0
 40
0
 40
0
 40
0
 40
1
 40
1
 40
1
 40
1
 10
-491.244248
 20
332.679668
 30
0.0
 10
-491.244248
 20
343.785708
 30
0.0
 10
-490.931040
 20
344.682244
 30
0.0
 10
-486.773576
 20
345.476996
 30
0.0
  0
SPLINE
  5
21d
100
AcDbEntity
  8
Layer_1
 62
7
100
AcDbSpline
 70
8
 71
3
 72
8
 73
4
 74
0
 40
0
 40
0
 40
0
 40
0
 40
1
 40
1
 40
1
 40
1
 10
-486.773576
 20
345.476996
 30
0.0
 10
-482.926744
 20
346.212372
 30
0.0
 10
-481.995896
 20
345.306964
 30
0.0
 10
-480.102776
 20
338.988268
 30
0.0
  0
LWPOLYLINE
  5
21e
100
AcDbEntity
  8
Layer_1
 62
7
100
AcDbPolyline
 90
3
 70
0
 10
-502.469640
 20
345.058604
 30
0.0
 10
-496.856944
 20
345.058604
 30
0.0
 10
-496.856944
 20
332.897732
 30
0.0
  0
SPLINE
  5
21f
100
AcDbEntity
  8
Layer_1
 62
7
100
AcDbSpline
 70
8
 71
3
 72
8
 73
4
 74
0
 40
0
 40
0
 40
0
 40
0
 40
1
 40
1
 40
1
 40
1
 10
-459.438936
 20
323.562836
 30
0.0
 10
-459.438936
 20
316.128620
 30
0.0
 10
-458.764720
 20
313.166172
 30
0.0
 10
-457.192080
 20
313.690428
 30
0.0
  0
SPLINE
  5
220
100
AcDbEntity
  8
Layer_1
 62
7
100
AcDbSpline
 70
8
 71
3
 72
8
 73
4
 74
0
 40
0
 40
0
 40
0
 40
0
 40
1
 40
1
 40
1
 40
1
 10
-457.192080
 20
313.690428
 30
0.0
 10
-455.735432
 20
314.175924
 30
0.0
 10
-455.126224
 20
317.849788
 30
0.0
 10
-455.459872
 20
324.136260
 30
0.0
  0
SPLINE
  5
221
100
AcDbEntity
  8
Layer_1
 62
7
100
AcDbSpline
 70
8
 71
3
 72
8
 73
4
 74
0
 40
0
 40
0
 40
0
 40
0
 40
1
 40
1
 40
1
 40
1
 10
-455.459872
 20
324.136260
 30
0.0
 10
-455.937368
 20
333.132532
 30
0.0
 10
-453.638536
 20
337.176324
 30
0.0
 10
-451.385144
 20
331.304060
 30
0.0
  0
SPLINE
  5
222
100
AcDbEntity
  8
Layer_1
 62
7
100
AcDbSpline
 70
8
 71
3
 72
8
 73
4
 74
0
 40
0
 40
0
 40
0
 40
0
 40
1
 40
1
 40
1
 40
1
 10
-451.385144
 20
331.304060
 30
0.0
 10
-450.851360
 20
329.912948
 30
0.0
 10
-446.982520
 20
327.076772
 30
0.0
 10
-442.787744
 20
325.001372
 30
0.0
  0
SPLINE
  5
223
100
AcDbEntity
  8
Layer_1
 62
7
100
AcDbSpline
 70
8
 71
3
 72
8
 73
4
 74
0
 40
0
 40
0
 40
0
 40
0
 40
1
 40
1
 40
1
 40
1
 10
-442.787744
 20
325.001372
 30
0.0
 10
-436.299680
 20
321.791388
 30
0.0
 10
-434.668744
 20
321.601372
 30
0.0
 10
-431.864984
 20
323.729292
 30
0.0
  0
SPLINE
  5
224
100
AcDbEntity
  8
Layer_1
 62
7
100
AcDbSpline
 70
8
 71
3
 72
8
 73
4
 74
0
 40
0
 40
0
 40
0
 40
0
 40
1
 40
1
 40
1
 40
1
 10
-431.864984
 20
323.729292
 30
0.0
 10
-426.183824
 20
328.040836
 30
0.0
 10
-424.558664
 20
326.434924
 30
0.0
 10
-430.052688
 20
321.938364
 30
0.0
  0
SPLINE
  5
225
100
AcDbEntity
  8
Layer_1
 62
7
100
AcDbSpline
 70
8
 71
3
 72
8
 73
4
 74
0
 40
0
 40
0
 40
0
 40
0
 40
1
 40
1
 40
1
 40
1
 10
-430.052688
 20
321.938364
 30
0.0
 10
-434.732208
 20
318.108444
 30
0.0
 10
-435.066664
 20
317.105628
 30
0.0
 10
-433.254256
 20
312.338684
 30
0.0
  0
SPLINE
  5
226
100
AcDbEntity
  8
Layer_1
 62
7
100
AcDbSpline
 70
8
 71
3
 72
8
 73
4
 74
0
 40
0
 40
0
 40
0
 40
0
 40
1
 40
1
 40
1
 40
1
 10
-433.254256
 20
312.338684
 30
0.0
 10
-431.238728
 20
307.037396
 30
0.0
 10
-432.004304
 20
305.543580
 30
0.0
 10
-437.923584
 20
303.227572
 30
0.0
  0
SPLINE
  5
227
100
AcDbEntity
  8
Layer_1
 62
7
100
AcDbSpline
 70
8
 71
3
 72
8
 73
4
 74
0
 40
0
 40
0
 40
0
 40
0
 40
1
 40
1
 40
1
 40
1
 10
-437.923584
 20
303.227572
 30
0.0
 10
-439.108016
 20
302.764212
 30
0.0
 10
-439.013872
 20
301.663476
 30
0.0
 10
-437.667024
 20
300.227796
 30
0.0
  0
SPLINE
  5
228
100
AcDbEntity
  8
Layer_1
 62
7
100
AcDbSpline
 70
8
 71
3
 72
8
 73
4
 74
0
 40
0
 40
0
 40
0
 40
0
 40
1
 40
1
 40
1
 40
1
 10
-437.667024
 20
300.227796
 30
0.0
 10
-436.168072
 20
298.630044
 30
0.0
 10
-435.168216
 20
298.560892
 30
0.0
 10
-434.282536
 20
299.993916
 30
0.0
  0
SPLINE
  5
229
100
AcDbEntity
  8
Layer_1
 62
7
100
AcDbSpline
 70
8
 71
3
 72
8
 73
4
 74
0
 40
0
 40
0
 40
0
 40
0
 40
1
 40
1
 40
1
 40
1
 10
-434.282536
 20
299.993916
 30
0.0
 10
-431.558808
 20
304.401028
 30
0.0
 10
-426.010256
 20
301.844212
 30
0.0
 10
-421.441296
 20
294.076572
 30
0.0
  0
SPLINE
  5
22a
100
AcDbEntity
  8
Layer_1
 62
7
100
AcDbSpline
 70
8
 71
3
 72
8
 73
4
 74
0
 40
0
 40
0
 40
0
 40
0
 40
1
 40
1
 40
1
 40
1
 10
-421.441296
 20
294.076572
 30
0.0
 10
-418.868960
 20
289.703324
 30
0.0
 10
-414.589952
 20
284.094116
 30
0.0
 10
-411.932392
 20
281.611548
 30
0.0
  0
SPLINE
  5
22b
100
AcDbEntity
  8
Layer_1
 62
7
100
AcDbSpline
 70
8
 71
3
 72
8
 73
4
 74
0
 40
0
 40
0
 40
0
 40
0
 40
1
 40
1
 40
1
 40
1
 10
-411.932392
 20
281.611548
 30
0.0
 10
-408.186864
 20
278.112716
 30
0.0
 10
-407.575808
 20
276.525052
 30
0.0
 10
-409.214608
 20
274.550436
 30
0.0
  0
SPLINE
  5
22c
100
AcDbEntity
  8
Layer_1
 62
7
100
AcDbSpline
 70
8
 71
3
 72
8
 73
4
 74
0
 40
0
 40
0
 40
0
 40
0
 40
1
 40
1
 40
1
 40
1
 10
-409.214608
 20
274.550436
 30
0.0
 10
-412.022608
 20
271.167052
 30
0.0
 10
-409.743896
 20
269.084516
 30
0.0
 10
-406.332056
 20
271.916100
 30
0.0
  0
SPLINE
  5
22d
100
AcDbEntity
  8
Layer_1
 62
7
100
AcDbSpline
 70
8
 71
3
 72
8
 73
4
 74
0
 40
0
 40
0
 40
0
 40
0
 40
1
 40
1
 40
1
 40
1
 10
-406.332056
 20
271.916100
 30
0.0
 10
-404.180688
 20
273.701532
 30
0.0
 10
-403.059592
 20
273.301196
 30
0.0
 10
-400.674152
 20
269.895484
 30
0.0
  0
SPLINE
  5
22e
100
AcDbEntity
  8
Layer_1
 62
7
100
AcDbSpline
 70
8
 71
3
 72
8
 73
4
 74
0
 40
0
 40
0
 40
0
 40
0
 40
1
 40
1
 40
1
 40
1
 10
-400.674152
 20
269.895484
 30
0.0
 10
-396.411592
 20
263.809836
 30
0.0
 10
-396.911976
 20
262.738996
 30
0.0
 10
-404.018312
 20
262.738996
 30
0.0
  0
SPLINE
  5
22f
100
AcDbEntity
  8
Layer_1
 62
7
100
AcDbSpline
 70
8
 71
3
 72
8
 73
4
 74
0
 40
0
 40
0
 40
0
 40
0
 40
1
 40
1
 40
1
 40
1
 10
-404.018312
 20
262.738996
 30
0.0
 10
-409.701224
 20
262.738996
 30
0.0
 10
-416.419856
 20
258.385132
 30
0.0
 10
-414.185280
 20
256.150628
 30
0.0
  0
SPLINE
  5
230
100
AcDbEntity
  8
Layer_1
 62
7
100
AcDbSpline
 70
8
 71
3
 72
8
 73
4
 74
0
 40
0
 40
0
 40
0
 40
0
 40
1
 40
1
 40
1
 40
1
 10
-414.185280
 20
256.150628
 30
0.0
 10
-413.698368
 20
255.663700
 30
0.0
 10
-408.498944
 20
256.150628
 30
0.0
 10
-402.631040
 20
257.237580
 30
0.0
  0
SPLINE
  5
231
100
AcDbEntity
  8
Layer_1
 62
7
100
AcDbSpline
 70
8
 71
3
 72
8
 73
4
 74
0
 40
0
 40
0
 40
0
 40
0
 40
1
 40
1
 40
1
 40
1
 10
-402.631040
 20
257.237580
 30
0.0
 10
-390.068824
 20
259.559812
 30
0.0
 10
-385.630776
 20
258.528228
 30
0.0
 10
-378.054784
 20
251.525348
 30
0.0
  0
SPLINE
  5
232
100
AcDbEntity
  8
Layer_1
 62
7
100
AcDbSpline
 70
8
 71
3
 72
8
 73
4
 74
0
 40
0
 40
0
 40
0
 40
0
 40
1
 40
1
 40
1
 40
1
 10
-378.054784
 20
251.525348
 30
0.0
 10
-374.967800
 20
248.671940
 30
0.0
 10
-369.916376
 20
244.932492
 30
0.0
 10
-366.829384
 20
243.215604
 30
0.0
  0
SPLINE
  5
233
100
AcDbEntity
  8
Layer_1
 62
7
100
AcDbSpline
 70
8
 71
3
 72
8
 73
4
 74
0
 40
0
 40
0
 40
0
 40
0
 40
1
 40
1
 40
1
 40
1
 10
-366.829384
 20
243.215604
 30
0.0
 10
-361.656424
 20
240.338532
 30
0.0
 10
-361.583144
 20
240.164012
 30
0.0
 10
-365.893936
 20
240.987828
 30
0.0
  0
SPLINE
  5
234
100
AcDbEntity
  8
Layer_1
 62
7
100
AcDbSpline
 70
8
 71
3
 72
8
 73
4
 74
0
 40
0
 40
0
 40
0
 40
0
 40
1
 40
1
 40
1
 40
1
 10
-365.893936
 20
240.987828
 30
0.0
 10
-368.466424
 20
241.479452
 30
0.0
 10
-375.357080
 20
242.455228
 30
0.0
 10
-381.206504
 20
243.156140
 30
0.0
  0
LWPOLYLINE
  5
235
100
AcDbEntity
  8
Layer_1
 62
7
100
AcDbPolyline
 90
5
 70
0
 10
-480.102776
 20
338.988268
 30
0.0
 10
-477.902648
 20
331.644932
 30
0.0
 10
-468.670800
 20
332.914564
 30
0.0
 10
-459.438936
 20
334.184300
 30
0.0
 10
-459.438936
 20
323.562836
 30
0.0
  0
SPLINE
  5
236
100
AcDbEntity
  8
Layer_1
 62
7
100
AcDbSpline
 70
8
 71
3
 72
8
 73
4
 74
0
 40
0
 40
0
 40
0
 40
0
 40
1
 40
1
 40
1
 40
1
 10
-393.124216
 20
237.594860
 30
0.0
 10
-393.829528
 20
233.835228
 30
0.0
 10
-393.999464
 20
230.352092
 30
0.0
 10
-393.501856
 20
229.854452
 30
0.0
  0
SPLINE
  5
237
100
AcDbEntity
  8
Layer_1
 62
7
100
AcDbSpline
 70
8
 71
3
 72
8
 73
4
 74
0
 40
0
 40
0
 40
0
 40
0
 40
1
 40
1
 40
1
 40
1
 10
-393.501856
 20
229.854452
 30
0.0
 10
-393.004232
 20
229.356820
 30
0.0
 10
-387.736864
 20
228.158684
 30
0.0
 10
-381.796592
 20
227.191876
 30
0.0
  0
SPLINE
  5
238
100
AcDbEntity
  8
Layer_1
 62
7
100
AcDbSpline
 70
8
 71
3
 72
8
 73
4
 74
0
 40
0
 40
0
 40
0
 40
0
 40
1
 40
1
 40
1
 40
1
 10
-381.796592
 20
227.191876
 30
0.0
 10
-371.703336
 20
225.549148
 30
0.0
 10
-367.941912
 20
224.204540
 30
0.0
 10
-369.791640
 20
222.900532
 30
0.0
  0
SPLINE
  5
239
100
AcDbEntity
  8
Layer_1
 62
7
100
AcDbSpline
 70
8
 71
3
 72
8
 73
4
 74
0
 40
0
 40
0
 40
0
 40
0
 40
1
 40
1
 40
1
 40
1
 10
-369.791640
 20
222.900532
 30
0.0
 10
-370.220392
 20
222.598220
 30
0.0
 10
-378.273608
 20
222.808740
 30
0.0
 10
-387.687680
 20
223.368188
 30
0.0
  0
SPLINE
  5
23a
100
AcDbEntity
  8
Layer_1
 62
7
100
AcDbSpline
 70
8
 71
3
 72
8
 73
4
 74
0
 40
0
 40
0
 40
0
 40
0
 40
1
 40
1
 40
1
 40
1
 10
-387.687680
 20
223.368188
 30
0.0
 10
-407.349056
 20
224.536740
 30
0.0
 10
-410.127160
 20
226.178148
 30
0.0
 10
-417.909544
 20
241.223644
 30
0.0
  0
SPLINE
  5
23b
100
AcDbEntity
  8
Layer_1
 62
7
100
AcDbSpline
 70
8
 71
3
 72
8
 73
4
 74
0
 40
0
 40
0
 40
0
 40
0
 40
1
 40
1
 40
1
 40
1
 10
-417.909544
 20
241.223644
 30
0.0
 10
-421.272800
 20
247.725732
 30
0.0
 10
-422.966176
 20
249.570516
 30
0.0
 10
-423.463032
 20
247.273788
 30
0.0
  0
SPLINE
  5
23c
100
AcDbEntity
  8
Layer_1
 62
7
100
AcDbSpline
 70
8
 71
3
 72
8
 73
4
 74
0
 40
0
 40
0
 40
0
 40
0
 40
1
 40
1
 40
1
 40
1
 10
-423.463032
 20
247.273788
 30
0.0
 10
-423.856192
 20
245.456340
 30
0.0
 10
-422.068024
 20
240.194412
 30
0.0
 10
-419.489320
 20
235.580660
 30
0.0
  0
LWPOLYLINE
  5
23d
100
AcDbEntity
  8
Layer_1
 62
7
100
AcDbPolyline
 90
3
 70
0
 10
-381.206504
 20
243.156140
 30
0.0
 10
-391.841832
 20
244.430572
 30
0.0
 10
-393.124216
 20
237.594860
 30
0.0
  0
SPLINE
  5
23e
100
AcDbEntity
  8
Layer_1
 62
7
100
AcDbSpline
 70
8
 71
3
 72
8
 73
4
 74
0
 40
0
 40
0
 40
0
 40
0
 40
1
 40
1
 40
1
 40
1
 10
-419.212664
 20
227.191876
 30
0.0
 10
-425.473160
 20
227.191876
 30
0.0
 10
-429.759480
 20
232.072748
 30
0.0
 10
-428.367944
 20
237.617100
 30
0.0
  0
SPLINE
  5
23f
100
AcDbEntity
  8
Layer_1
 62
7
100
AcDbSpline
 70
8
 71
3
 72
8
 73
4
 74
0
 40
0
 40
0
 40
0
 40
0
 40
1
 40
1
 40
1
 40
1
 10
-428.367944
 20
237.617100
 30
0.0
 10
-427.716032
 20
240.214500
 30
0.0
 10
-428.049536
 20
242.159044
 30
0.0
 10
-429.146912
 20
242.159044
 30
0.0
  0
SPLINE
  5
240
100
AcDbEntity
  8
Layer_1
 62
7
100
AcDbSpline
 70
8
 71
3
 72
8
 73
4
 74
0
 40
0
 40
0
 40
0
 40
0
 40
1
 40
1
 40
1
 40
1
 10
-429.146912
 20
242.159044
 30
0.0
 10
-430.202328
 20
242.159044
 30
0.0
 10
-434.526656
 20
247.341716
 30
0.0
 10
-438.756512
 20
253.675916
 30
0.0
  0
LWPOLYLINE
  5
241
100
AcDbEntity
  8
Layer_1
 62
7
100
AcDbPolyline
 90
3
 70
0
 10
-419.489320
 20
235.580660
 30
0.0
 10
-414.800744
 20
227.191876
 30
0.0
 10
-419.212664
 20
227.191876
 30
0.0
  0
SPLINE
  5
242
100
AcDbEntity
  8
Layer_1
 62
7
100
AcDbSpline
 70
8
 71
3
 72
8
 73
4
 74
0
 40
0
 40
0
 40
0
 40
0
 40
1
 40
1
 40
1
 40
1
 10
-442.653128
 20
269.231492
 30
0.0
 10
-438.141016
 20
274.034332
 30
0.0
 10
-437.867328
 20
275.835260
 30
0.0
 10
-441.649536
 20
275.835260
 30
0.0
  0
SPLINE
  5
243
100
AcDbEntity
  8
Layer_1
 62
7
100
AcDbSpline
 70
8
 71
3
 72
8
 73
4
 74
0
 40
0
 40
0
 40
0
 40
0
 40
1
 40
1
 40
1
 40
1
 10
-441.649536
 20
275.835260
 30
0.0
 10
-443.184320
 20
275.835260
 30
0.0
 10
-445.491576
 20
274.151428
 30
0.0
 10
-446.776824
 20
272.093468
 30
0.0
  0
SPLINE
  5
244
100
AcDbEntity
  8
Layer_1
 62
7
100
AcDbSpline
 70
8
 71
3
 72
8
 73
4
 74
0
 40
0
 40
0
 40
0
 40
0
 40
1
 40
1
 40
1
 40
1
 10
-446.776824
 20
272.093468
 30
0.0
 10
-448.062048
 20
270.035524
 30
0.0
 10
-450.039200
 20
268.351676
 30
0.0
 10
-451.170472
 20
268.351676
 30
0.0
  0
SPLINE
  5
245
100
AcDbEntity
  8
Layer_1
 62
7
100
AcDbSpline
 70
8
 71
3
 72
8
 73
4
 74
0
 40
0
 40
0
 40
0
 40
0
 40
1
 40
1
 40
1
 40
1
 10
-451.170472
 20
268.351676
 30
0.0
 10
-452.301744
 20
268.351676
 30
0.0
 10
-454.301648
 20
264.773596
 30
0.0
 10
-455.614672
 20
260.400348
 30
0.0
  0
SPLINE
  5
246
100
AcDbEntity
  8
Layer_1
 62
7
100
AcDbSpline
 70
8
 71
3
 72
8
 73
4
 74
0
 40
0
 40
0
 40
0
 40
0
 40
1
 40
1
 40
1
 40
1
 10
-455.614672
 20
260.400348
 30
0.0
 10
-456.927704
 20
256.027108
 30
0.0
 10
-458.852448
 20
250.124044
 30
0.0
 10
-459.891872
 20
247.282356
 30
0.0
  0
SPLINE
  5
247
100
AcDbEntity
  8
Layer_1
 62
7
100
AcDbSpline
 70
8
 71
3
 72
8
 73
4
 74
0
 40
0
 40
0
 40
0
 40
0
 40
1
 40
1
 40
1
 40
1
 10
-459.891872
 20
247.282356
 30
0.0
 10
-462.831928
 20
239.244628
 30
0.0
 10
-460.656600
 20
225.303028
 30
0.0
 10
-455.085568
 20
216.478724
 30
0.0
  0
SPLINE
  5
248
100
AcDbEntity
  8
Layer_1
 62
7
100
AcDbSpline
 70
8
 71
3
 72
8
 73
4
 74
0
 40
0
 40
0
 40
0
 40
0
 40
1
 40
1
 40
1
 40
1
 10
-455.085568
 20
216.478724
 30
0.0
 10
-450.480976
 20
209.185364
 30
0.0
 10
-449.710392
 20
208.717708
 30
0.0
 10
-445.152376
 20
210.450604
 30
0.0
  0
SPLINE
  5
249
100
AcDbEntity
  8
Layer_1
 62
7
100
AcDbSpline
 70
8
 71
3
 72
8
 73
4
 74
0
 40
0
 40
0
 40
0
 40
0
 40
1
 40
1
 40
1
 40
1
 10
-445.152376
 20
210.450604
 30
0.0
 10
-442.434608
 20
211.483916
 30
0.0
 10
-439.770280
 20
211.888636
 30
0.0
 10
-439.231624
 20
211.350004
 30
0.0
  0
SPLINE
  5
24a
100
AcDbEntity
  8
Layer_1
 62
7
100
AcDbSpline
 70
8
 71
3
 72
8
 73
4
 74
0
 40
0
 40
0
 40
0
 40
0
 40
1
 40
1
 40
1
 40
1
 10
-439.231624
 20
211.350004
 30
0.0
 10
-438.693000
 20
210.811364
 30
0.0
 10
-440.914520
 20
209.442588
 30
0.0
 10
-444.168360
 20
208.308308
 30
0.0
  0
SPLINE
  5
24b
100
AcDbEntity
  8
Layer_1
 62
7
100
AcDbSpline
 70
8
 71
3
 72
8
 73
4
 74
0
 40
0
 40
0
 40
0
 40
0
 40
1
 40
1
 40
1
 40
1
 10
-444.168360
 20
208.308308
 30
0.0
 10
-447.717992
 20
207.070900
 30
0.0
 10
-450.084440
 20
204.958276
 30
0.0
 10
-450.084440
 20
203.026700
 30
0.0
  0
SPLINE
  5
24c
100
AcDbEntity
  8
Layer_1
 62
7
100
AcDbSpline
 70
8
 71
3
 72
8
 73
4
 74
0
 40
0
 40
0
 40
0
 40
0
 40
1
 40
1
 40
1
 40
1
 10
-450.084440
 20
203.026700
 30
0.0
 10
-450.084440
 20
196.559596
 30
0.0
 10
-444.001776
 20
179.186260
 30
0.0
 10
-437.647472
 20
167.504260
 30
0.0
  0
SPLINE
  5
24d
100
AcDbEntity
  8
Layer_1
 62
7
100
AcDbSpline
 70
8
 71
3
 72
8
 73
4
 74
0
 40
0
 40
0
 40
0
 40
0
 40
1
 40
1
 40
1
 40
1
 10
-437.647472
 20
167.504260
 30
0.0
 10
-434.016496
 20
160.828988
 30
0.0
 10
-430.658936
 20
151.536420
 30
0.0
 10
-430.064504
 20
146.517348
 30
0.0
  0
SPLINE
  5
24e
100
AcDbEntity
  8
Layer_1
 62
7
100
AcDbSpline
 70
8
 71
3
 72
8
 73
4
 74
0
 40
0
 40
0
 40
0
 40
0
 40
1
 40
1
 40
1
 40
1
 10
-430.064504
 20
146.517348
 30
0.0
 10
-429.435112
 20
141.203196
 30
0.0
 10
-427.567392
 20
136.215532
 30
0.0
 10
-425.509328
 20
134.352996
 30
0.0
  0
SPLINE
  5
24f
100
AcDbEntity
  8
Layer_1
 62
7
100
AcDbSpline
 70
8
 71
3
 72
8
 73
4
 74
0
 40
0
 40
0
 40
0
 40
0
 40
1
 40
1
 40
1
 40
1
 10
-425.509328
 20
134.352996
 30
0.0
 10
-423.230176
 20
132.290356
 30
0.0
 10
-422.020936
 20
128.641588
 30
0.0
 10
-422.020936
 20
123.826908
 30
0.0
  0
LWPOLYLINE
  5
250
100
AcDbEntity
  8
Layer_1
 62
7
100
AcDbPolyline
 90
3
 70
0
 10
-438.756512
 20
253.675916
 30
0.0
 10
-446.447200
 20
265.192900
 30
0.0
 10
-442.653128
 20
269.231492
 30
0.0
  0
SPLINE
  5
251
100
AcDbEntity
  8
Layer_1
 62
7
100
AcDbSpline
 70
8
 71
3
 72
8
 73
4
 74
0
 40
0
 40
0
 40
0
 40
0
 40
1
 40
1
 40
1
 40
1
 10
-431.558712
 20
123.309996
 30
0.0
 10
-436.804480
 20
127.078716
 30
0.0
 10
-441.590720
 20
129.667964
 30
0.0
 10
-442.194816
 20
129.063844
 30
0.0
  0
SPLINE
  5
252
100
AcDbEntity
  8
Layer_1
 62
7
100
AcDbSpline
 70
8
 71
3
 72
8
 73
4
 74
0
 40
0
 40
0
 40
0
 40
0
 40
1
 40
1
 40
1
 40
1
 10
-442.194816
 20
129.063844
 30
0.0
 10
-443.877496
 20
127.381124
 30
0.0
 10
-429.131296
 20
113.044596
 30
0.0
 10
-424.529984
 20
111.889708
 30
0.0
  0
SPLINE
  5
253
100
AcDbEntity
  8
Layer_1
 62
7
100
AcDbSpline
 70
8
 71
3
 72
8
 73
4
 74
0
 40
0
 40
0
 40
0
 40
0
 40
1
 40
1
 40
1
 40
1
 10
-424.529984
 20
111.889708
 30
0.0
 10
-419.957768
 20
110.742164
 30
0.0
 10
-415.784608
 20
102.278516
 30
0.0
 10
-415.784608
 20
94.153164
 30
0.0
  0
SPLINE
  5
254
100
AcDbEntity
  8
Layer_1
 62
7
100
AcDbSpline
 70
8
 71
3
 72
8
 73
4
 74
0
 40
0
 40
0
 40
0
 40
0
 40
1
 40
1
 40
1
 40
1
 10
-415.784608
 20
94.153164
 30
0.0
 10
-415.784608
 20
86.857396
 30
0.0
 10
-417.523312
 20
85.610476
 30
0.0
 10
-422.020936
 20
89.680708
 30
0.0
  0
SPLINE
  5
255
100
AcDbEntity
  8
Layer_1
 62
7
100
AcDbSpline
 70
8
 71
3
 72
8
 73
4
 74
0
 40
0
 40
0
 40
0
 40
0
 40
1
 40
1
 40
1
 40
1
 10
-422.020936
 20
89.680708
 30
0.0
 10
-427.096952
 20
94.274420
 30
0.0
 10
-428.947592
 20
91.807924
 30
0.0
 10
-425.934768
 20
84.464364
 30
0.0
  0
SPLINE
  5
256
100
AcDbEntity
  8
Layer_1
 62
7
100
AcDbSpline
 70
8
 71
3
 72
8
 73
4
 74
0
 40
0
 40
0
 40
0
 40
0
 40
1
 40
1
 40
1
 40
1
 10
-425.934768
 20
84.464364
 30
0.0
 10
-419.391952
 20
68.516700
 30
0.0
 10
-418.211760
 20
59.887444
 30
0.0
 10
-419.355840
 20
36.360164
 30
0.0
  0
SPLINE
  5
257
100
AcDbEntity
  8
Layer_1
 62
7
100
AcDbSpline
 70
8
 71
3
 72
8
 73
4
 74
0
 40
0
 40
0
 40
0
 40
0
 40
1
 40
1
 40
1
 40
1
 10
-419.355840
 20
36.360164
 30
0.0
 10
-420.326408
 20
16.401204
 30
0.0
 10
-419.921464
 20
10.643204
 30
0.0
 10
-416.592856
 20
-2.928796
 30
0.0
  0
SPLINE
  5
258
100
AcDbEntity
  8
Layer_1
 62
7
100
AcDbSpline
 70
8
 71
3
 72
8
 73
4
 74
0
 40
0
 40
0
 40
0
 40
0
 40
1
 40
1
 40
1
 40
1
 10
-416.592856
 20
-2.928796
 30
0.0
 10
-414.447736
 20
-11.675276
 30
0.0
 10
-412.784416
 20
-20.936236
 30
0.0
 10
-412.896576
 20
-23.508796
 30
0.0
  0
SPLINE
  5
259
100
AcDbEntity
  8
Layer_1
 62
7
100
AcDbSpline
 70
8
 71
3
 72
8
 73
4
 74
0
 40
0
 40
0
 40
0
 40
0
 40
1
 40
1
 40
1
 40
1
 10
-412.896576
 20
-23.508796
 30
0.0
 10
-413.034272
 20
-26.668396
 30
0.0
 10
-413.378104
 20
-27.123676
 30
0.0
 10
-413.956104
 20
-24.911916
 30
0.0
  0
SPLINE
  5
25a
100
AcDbEntity
  8
Layer_1
 62
7
100
AcDbSpline
 70
8
 71
3
 72
8
 73
4
 74
0
 40
0
 40
0
 40
0
 40
0
 40
1
 40
1
 40
1
 40
1
 10
-413.956104
 20
-24.911916
 30
0.0
 10
-415.182912
 20
-20.217356
 30
0.0
 10
-419.772360
 20
-20.870076
 30
0.0
 10
-420.533648
 20
-25.847356
 30
0.0
  0
SPLINE
  5
25b
100
AcDbEntity
  8
Layer_1
 62
7
100
AcDbSpline
 70
8
 71
3
 72
8
 73
4
 74
0
 40
0
 40
0
 40
0
 40
0
 40
1
 40
1
 40
1
 40
1
 10
-420.533648
 20
-25.847356
 30
0.0
 10
-421.089808
 20
-29.483436
 30
0.0
 10
-421.337464
 20
-29.292236
 30
0.0
 10
-422.351488
 20
-24.444156
 30
0.0
  0
LWPOLYLINE
  5
25c
100
AcDbEntity
  8
Layer_1
 62
7
100
AcDbPolyline
 90
3
 70
0
 10
-422.020936
 20
123.826908
 30
0.0
 10
-422.020936
 20
116.457756
 30
0.0
 10
-431.558712
 20
123.309996
 30
0.0
  0
SPLINE
  5
25d
100
AcDbEntity
  8
Layer_1
 62
7
100
AcDbSpline
 70
8
 71
3
 72
8
 73
4
 74
0
 40
0
 40
0
 40
0
 40
0
 40
1
 40
1
 40
1
 40
1
 10
-83.020768
 20
-24.231596
 30
0.0
 10
-84.374160
 20
-21.813196
 30
0.0
 10
-85.484816
 20
-21.627036
 30
0.0
 10
-88.603432
 20
-23.296076
 30
0.0
  0
SPLINE
  5
25e
100
AcDbEntity
  8
Layer_1
 62
7
100
AcDbSpline
 70
8
 71
3
 72
8
 73
4
 74
0
 40
0
 40
0
 40
0
 40
0
 40
1
 40
1
 40
1
 40
1
 10
-88.603432
 20
-23.296076
 30
0.0
 10
-94.402680
 20
-26.399756
 30
0.0
 10
-96.484384
 20
-25.848716
 30
0.0
 10
-96.484384
 20
-21.210156
 30
0.0
  0
SPLINE
  5
25f
100
AcDbEntity
  8
Layer_1
 62
7
100
AcDbSpline
 70
8
 71
3
 72
8
 73
4
 74
0
 40
0
 40
0
 40
0
 40
0
 40
1
 40
1
 40
1
 40
1
 10
-96.484384
 20
-21.210156
 30
0.0
 10
-96.484384
 20
-18.519596
 30
0.0
 10
-92.783680
 20
-13.707996
 30
0.0
 10
-86.051928
 20
-7.646076
 30
0.0
  0
SPLINE
  5
260
100
AcDbEntity
  8
Layer_1
 62
7
100
AcDbSpline
 70
8
 71
3
 72
8
 73
4
 74
0
 40
0
 40
0
 40
0
 40
0
 40
1
 40
1
 40
1
 40
1
 10
-86.051928
 20
-7.646076
 30
0.0
 10
-76.666534
 20
0.805524
 30
0.0
 10
-75.612034
 20
2.517844
 30
0.0
 10
-75.545363
 20
9.414484
 30
0.0
  0
SPLINE
  5
261
100
AcDbEntity
  8
Layer_1
 62
7
100
AcDbSpline
 70
8
 71
3
 72
8
 73
4
 74
0
 40
0
 40
0
 40
0
 40
0
 40
1
 40
1
 40
1
 40
1
 10
-75.545363
 20
9.414484
 30
0.0
 10
-75.504595
 20
13.630804
 30
0.0
 10
-76.024677
 20
18.824244
 30
0.0
 10
-76.701091
 20
20.955444
 30
0.0
  0
SPLINE
  5
262
100
AcDbEntity
  8
Layer_1
 62
7
100
AcDbSpline
 70
8
 71
3
 72
8
 73
4
 74
0
 40
0
 40
0
 40
0
 40
0
 40
1
 40
1
 40
1
 40
1
 10
-76.701091
 20
20.955444
 30
0.0
 10
-78.790918
 20
27.539844
 30
0.0
 10
-71.699590
 20
27.262164
 30
0.0
 10
-68.841420
 20
20.647524
 30
0.0
  0
SPLINE
  5
263
100
AcDbEntity
  8
Layer_1
 62
7
100
AcDbSpline
 70
8
 71
3
 72
8
 73
4
 74
0
 40
0
 40
0
 40
0
 40
0
 40
1
 40
1
 40
1
 40
1
 10
-68.841420
 20
20.647524
 30
0.0
 10
-65.730522
 20
13.448004
 30
0.0
 10
-61.742331
 20
16.474964
 30
0.0
 10
-64.563250
 20
23.894564
 30
0.0
  0
SPLINE
  5
264
100
AcDbEntity
  8
Layer_1
 62
7
100
AcDbSpline
 70
8
 71
3
 72
8
 73
4
 74
0
 40
0
 40
0
 40
0
 40
0
 40
1
 40
1
 40
1
 40
1
 10
-64.563250
 20
23.894564
 30
0.0
 10
-67.311865
 20
31.123844
 30
0.0
 10
-63.879455
 20
30.081044
 30
0.0
 10
-57.868560
 20
21.860564
 30
0.0
  0
SPLINE
  5
265
100
AcDbEntity
  8
Layer_1
 62
7
100
AcDbSpline
 70
8
 71
3
 72
8
 73
4
 74
0
 40
0
 40
0
 40
0
 40
0
 40
1
 40
1
 40
1
 40
1
 10
-57.868560
 20
21.860564
 30
0.0
 10
-55.047046
 20
18.001844
 30
0.0
 10
-50.398524
 20
12.304484
 30
0.0
 10
-47.538508
 20
9.199844
 30
0.0
  0
SPLINE
  5
266
100
AcDbEntity
  8
Layer_1
 62
7
100
AcDbSpline
 70
8
 71
3
 72
8
 73
4
 74
0
 40
0
 40
0
 40
0
 40
0
 40
1
 40
1
 40
1
 40
1
 10
-47.538508
 20
9.199844
 30
0.0
 10
-44.678505
 20
6.095124
 30
0.0
 10
-42.103230
 20
1.543764
 30
0.0
 10
-41.815670
 20
-0.914316
 30
0.0
  0
SPLINE
  5
267
100
AcDbEntity
  8
Layer_1
 62
7
100
AcDbSpline
 70
8
 71
3
 72
8
 73
4
 74
0
 40
0
 40
0
 40
0
 40
0
 40
1
 40
1
 40
1
 40
1
 10
-41.815670
 20
-0.914316
 30
0.0
 10
-41.338083
 20
-4.996556
 30
0.0
 10
-43.035005
 20
-6.035596
 30
0.0
 10
-61.422067
 20
-12.918716
 30
0.0
  0
SPLINE
  5
268
100
AcDbEntity
  8
Layer_1
 62
7
100
AcDbSpline
 70
8
 71
3
 72
8
 73
4
 74
0
 40
0
 40
0
 40
0
 40
0
 40
1
 40
1
 40
1
 40
1
 10
-61.422067
 20
-12.918716
 30
0.0
 10
-78.424726
 20
-19.283516
 30
0.0
 10
-81.383768
 20
-20.981676
 30
0.0
 10
-80.472712
 20
-23.852236
 30
0.0
  0
SPLINE
  5
269
100
AcDbEntity
  8
Layer_1
 62
7
100
AcDbSpline
 70
8
 71
3
 72
8
 73
4
 74
0
 40
0
 40
0
 40
0
 40
0
 40
1
 40
1
 40
1
 40
1
 10
-80.472712
 20
-23.852236
 30
0.0
 10
-79.136121
 20
-28.063436
 30
0.0
 10
-80.742488
 20
-28.302636
 30
0.0
 10
-83.020768
 20
-24.231596
 30
0.0
  0
LWPOLYLINE
  5
26a
100
AcDbEntity
  8
Layer_1
 62
7
100
AcDbPolyline
 90
2
 70
0
 10
-422.351488
 20
-24.444156
 30
0.0
 10
-422.351560
 20
-24.444156
 30
0.0
  0
SPLINE
  5
26b
100
AcDbEntity
  8
Layer_1
 62
7
100
AcDbSpline
 70
8
 71
3
 72
8
 73
4
 74
0
 40
0
 40
0
 40
0
 40
0
 40
1
 40
1
 40
1
 40
1
 10
197.246936
 20
-24.133676
 30
0.0
 10
197.246936
 20
-20.429116
 30
0.0
 10
191.067880
 20
-17.443516
 30
0.0
 10
161.303784
 20
-6.766476
 30
0.0
  0
SPLINE
  5
26c
100
AcDbEntity
  8
Layer_1
 62
7
100
AcDbSpline
 70
8
 71
3
 72
8
 73
4
 74
0
 40
0
 40
0
 40
0
 40
0
 40
1
 40
1
 40
1
 40
1
 10
161.303784
 20
-6.766476
 30
0.0
 10
156.598624
 20
-5.078636
 30
0.0
 10
156.375072
 20
-4.531836
 30
0.0
 10
158.222936
 20
0.768964
 30
0.0
  0
SPLINE
  5
26d
100
AcDbEntity
  8
Layer_1
 62
7
100
AcDbSpline
 70
8
 71
3
 72
8
 73
4
 74
0
 40
0
 40
0
 40
0
 40
0
 40
1
 40
1
 40
1
 40
1
 10
158.222936
 20
0.768964
 30
0.0
 10
159.318784
 20
3.912564
 30
0.0
 10
161.650520
 20
7.523684
 30
0.0
 10
163.404584
 20
8.793844
 30
0.0
  0
SPLINE
  5
26e
100
AcDbEntity
  8
Layer_1
 62
7
100
AcDbSpline
 70
8
 71
3
 72
8
 73
4
 74
0
 40
0
 40
0
 40
0
 40
0
 40
1
 40
1
 40
1
 40
1
 10
163.404584
 20
8.793844
 30
0.0
 10
165.158664
 20
10.064004
 30
0.0
 10
169.321680
 20
15.102244
 30
0.0
 10
172.655752
 20
19.990004
 30
0.0
  0
SPLINE
  5
26f
100
AcDbEntity
  8
Layer_1
 62
7
100
AcDbSpline
 70
8
 71
3
 72
8
 73
4
 74
0
 40
0
 40
0
 40
0
 40
0
 40
1
 40
1
 40
1
 40
1
 10
172.655752
 20
19.990004
 30
0.0
 10
179.086488
 20
29.417444
 30
0.0
 10
183.409160
 20
31.768564
 30
0.0
 10
181.254856
 20
24.667284
 30
0.0
  0
SPLINE
  5
270
100
AcDbEntity
  8
Layer_1
 62
7
100
AcDbSpline
 70
8
 71
3
 72
8
 73
4
 74
0
 40
0
 40
0
 40
0
 40
0
 40
1
 40
1
 40
1
 40
1
 10
181.254856
 20
24.667284
 30
0.0
 10
179.279040
 20
18.154164
 30
0.0
 10
179.317080
 20
17.241524
 30
0.0
 10
181.599344
 20
16.397044
 30
0.0
  0
SPLINE
  5
271
100
AcDbEntity
  8
Layer_1
 62
7
100
AcDbSpline
 70
8
 71
3
 72
8
 73
4
 74
0
 40
0
 40
0
 40
0
 40
0
 40
1
 40
1
 40
1
 40
1
 10
181.599344
 20
16.397044
 30
0.0
 10
182.768648
 20
15.964404
 30
0.0
 10
184.616168
 20
18.165924
 30
0.0
 10
185.704976
 20
21.289284
 30
0.0
  0
SPLINE
  5
272
100
AcDbEntity
  8
Layer_1
 62
7
100
AcDbSpline
 70
8
 71
3
 72
8
 73
4
 74
0
 40
0
 40
0
 40
0
 40
0
 40
1
 40
1
 40
1
 40
1
 10
185.704976
 20
21.289284
 30
0.0
 10
187.096608
 20
25.281284
 30
0.0
 10
188.547072
 20
26.637284
 30
0.0
 10
190.588032
 20
25.854004
 30
0.0
  0
SPLINE
  5
273
100
AcDbEntity
  8
Layer_1
 62
7
100
AcDbSpline
 70
8
 71
3
 72
8
 73
4
 74
0
 40
0
 40
0
 40
0
 40
0
 40
1
 40
1
 40
1
 40
1
 10
190.588032
 20
25.854004
 30
0.0
 10
192.928344
 20
24.955924
 30
0.0
 10
193.262608
 20
22.793284
 30
0.0
 10
192.311672
 20
14.702324
 30
0.0
  0
SPLINE
  5
274
100
AcDbEntity
  8
Layer_1
 62
7
100
AcDbSpline
 70
8
 71
3
 72
8
 73
4
 74
0
 40
0
 40
0
 40
0
 40
0
 40
1
 40
1
 40
1
 40
1
 10
192.311672
 20
14.702324
 30
0.0
 10
190.912504
 20
2.797524
 30
0.0
 10
193.481824
 20
-2.254716
 30
0.0
 10
204.716272
 20
-9.689356
 30
0.0
  0
SPLINE
  5
275
100
AcDbEntity
  8
Layer_1
 62
7
100
AcDbSpline
 70
8
 71
3
 72
8
 73
4
 74
0
 40
0
 40
0
 40
0
 40
0
 40
1
 40
1
 40
1
 40
1
 10
204.716272
 20
-9.689356
 30
0.0
 10
212.449744
 20
-14.807036
 30
0.0
 10
215.742208
 20
-20.728796
 30
0.0
 10
212.600856
 20
-23.870156
 30
0.0
  0
SPLINE
  5
276
100
AcDbEntity
  8
Layer_1
 62
7
100
AcDbSpline
 70
8
 71
3
 72
8
 73
4
 74
0
 40
0
 40
0
 40
0
 40
0
 40
1
 40
1
 40
1
 40
1
 10
212.600856
 20
-23.870156
 30
0.0
 10
211.373600
 20
-25.097356
 30
0.0
 10
209.301224
 20
-24.953276
 30
0.0
 10
206.482672
 20
-23.444876
 30
0.0
  0
SPLINE
  5
277
100
AcDbEntity
  8
Layer_1
 62
7
100
AcDbSpline
 70
8
 71
3
 72
8
 73
4
 74
0
 40
0
 40
0
 40
0
 40
0
 40
1
 40
1
 40
1
 40
1
 10
206.482672
 20
-23.444876
 30
0.0
 10
202.873840
 20
-21.513516
 30
0.0
 10
201.839168
 20
-21.685196
 30
0.0
 10
199.733688
 20
-24.564556
 30
0.0
  0
SPLINE
  5
278
100
AcDbEntity
  8
Layer_1
 62
7
100
AcDbSpline
 70
8
 71
3
 72
8
 73
4
 74
0
 40
0
 40
0
 40
0
 40
0
 40
1
 40
1
 40
1
 40
1
 10
199.733688
 20
-24.564556
 30
0.0
 10
197.367752
 20
-27.800156
 30
0.0
 10
197.246936
 20
-27.779276
 30
0.0
 10
197.246936
 20
-24.133676
 30
0.0
  0
LWPOLYLINE
  5
279
100
AcDbEntity
  8
Layer_1
 62
7
100
AcDbPolyline
 90
2
 70
0
 10
-83.020768
 20
-24.231596
 30
0.0
 10
-83.020768
 20
-24.231596
 30
0.0
  0
SPLINE
  5
27a
100
AcDbEntity
  8
Layer_1
 62
7
100
AcDbSpline
 70
8
 71
3
 72
8
 73
4
 74
0
 40
0
 40
0
 40
0
 40
0
 40
1
 40
1
 40
1
 40
1
 10
-24.162307
 20
2.034484
 30
0.0
 10
-29.092650
 20
11.959764
 30
0.0
 10
-32.371961
 20
20.586164
 30
0.0
 10
-31.449684
 20
21.204324
 30
0.0
  0
SPLINE
  5
27b
100
AcDbEntity
  8
Layer_1
 62
7
100
AcDbSpline
 70
8
 71
3
 72
8
 73
4
 74
0
 40
0
 40
0
 40
0
 40
0
 40
1
 40
1
 40
1
 40
1
 10
-31.449684
 20
21.204324
 30
0.0
 10
-30.527394
 20
21.822564
 30
0.0
 10
-25.978281
 20
25.473604
 30
0.0
 10
-21.340542
 20
29.317844
 30
0.0
  0
LWPOLYLINE
  5
27c
100
AcDbEntity
  8
Layer_1
 62
7
100
AcDbPolyline
 90
2
 70
0
 10
197.246936
 20
-24.133676
 30
0.0
 10
197.246936
 20
-24.133676
 30
0.0
  0
SPLINE
  5
27d
100
AcDbEntity
  8
Layer_1
 62
7
100
AcDbSpline
 70
8
 71
3
 72
8
 73
4
 74
0
 40
0
 40
0
 40
0
 40
0
 40
1
 40
1
 40
1
 40
1
 10
-3.950243
 20
27.724084
 30
0.0
 10
0.976678
 20
23.003284
 30
0.0
 10
9.814515
 20
16.034004
 30
0.0
 10
15.689421
 20
12.236884
 30
0.0
  0
LWPOLYLINE
  5
27e
100
AcDbEntity
  8
Layer_1
 62
7
100
AcDbPolyline
 90
3
 70
0
 10
-21.340542
 20
29.317844
 30
0.0
 10
-12.908278
 20
36.307364
 30
0.0
 10
-3.950243
 20
27.724084
 30
0.0
  0
SPLINE
  5
27f
100
AcDbEntity
  8
Layer_1
 62
7
100
AcDbSpline
 70
8
 71
3
 72
8
 73
4
 74
0
 40
0
 40
0
 40
0
 40
0
 40
1
 40
1
 40
1
 40
1
 10
17.796263
 20
-0.572316
 30
0.0
 10
9.684602
 20
-6.158716
 30
0.0
 10
-3.025326
 20
-12.386796
 30
0.0
 10
-11.407333
 20
-14.882716
 30
0.0
  0
SPLINE
  5
280
100
AcDbEntity
  8
Layer_1
 62
7
100
AcDbSpline
 70
8
 71
3
 72
8
 73
4
 74
0
 40
0
 40
0
 40
0
 40
0
 40
1
 40
1
 40
1
 40
1
 10
-11.407333
 20
-14.882716
 30
0.0
 10
-14.675007
 20
-15.855676
 30
0.0
 10
-16.434834
 20
-13.521596
 30
0.0
 10
-24.162307
 20
2.034484
 30
0.0
  0
LWPOLYLINE
  5
281
100
AcDbEntity
  8
Layer_1
 62
7
100
AcDbPolyline
 90
3
 70
0
 10
15.689421
 20
12.236884
 30
0.0
 10
26.371050
 20
5.332964
 30
0.0
 10
17.796263
 20
-0.572316
 30
0.0
  0
SPLINE
  5
282
100
AcDbEntity
  8
Layer_1
 62
7
100
AcDbSpline
 70
8
 71
3
 72
8
 73
4
 74
0
 40
0
 40
0
 40
0
 40
0
 40
1
 40
1
 40
1
 40
1
 10
-12.293874
 20
29.922324
 30
0.0
 10
-12.293874
 20
33.009524
 30
0.0
 10
-15.250723
 20
33.530964
 30
0.0
 10
-16.971128
 20
30.747284
 30
0.0
  0
SPLINE
  5
283
100
AcDbEntity
  8
Layer_1
 62
7
100
AcDbSpline
 70
8
 71
3
 72
8
 73
4
 74
0
 40
0
 40
0
 40
0
 40
0
 40
1
 40
1
 40
1
 40
1
 10
-16.971128
 20
30.747284
 30
0.0
 10
-18.496861
 20
28.278644
 30
0.0
 10
-16.259793
 20
24.775284
 30
0.0
 10
-14.035499
 20
26.150004
 30
0.0
  0
SPLINE
  5
284
100
AcDbEntity
  8
Layer_1
 62
7
100
AcDbSpline
 70
8
 71
3
 72
8
 73
4
 74
0
 40
0
 40
0
 40
0
 40
0
 40
1
 40
1
 40
1
 40
1
 10
-14.035499
 20
26.150004
 30
0.0
 10
-13.077613
 20
26.742084
 30
0.0
 10
-12.293874
 20
28.439604
 30
0.0
 10
-12.293874
 20
29.922324
 30
0.0
  0
LWPOLYLINE
  5
285
100
AcDbEntity
  8
Layer_1
 62
7
100
AcDbPolyline
 90
2
 70
0
 10
-24.162307
 20
2.034484
 30
0.0
 10
-24.162307
 20
2.034484
 30
0.0
  0
SPLINE
  5
286
100
AcDbEntity
  8
Layer_1
 62
7
100
AcDbSpline
 70
8
 71
3
 72
8
 73
4
 74
0
 40
0
 40
0
 40
0
 40
0
 40
1
 40
1
 40
1
 40
1
 10
111.869904
 20
-8.559756
 30
0.0
 10
103.776032
 20
-4.453836
 30
0.0
 10
95.113808
 20
0.500644
 30
0.0
 10
92.620496
 20
2.450244
 30
0.0
  0
LWPOLYLINE
  5
287
100
AcDbEntity
  8
Layer_1
 62
7
100
AcDbPolyline
 90
2
 70
0
 10
-12.293874
 20
29.922324
 30
0.0
 10
-12.293874
 20
29.922324
 30
0.0
  0
SPLINE
  5
288
100
AcDbEntity
  8
Layer_1
 62
7
100
AcDbSpline
 70
8
 71
3
 72
8
 73
4
 74
0
 40
0
 40
0
 40
0
 40
0
 40
1
 40
1
 40
1
 40
1
 10
94.491392
 20
9.281124
 30
0.0
 10
102.515704
 20
13.398804
 30
0.0
 10
107.896976
 20
17.539604
 30
0.0
 10
119.098008
 20
28.215284
 30
0.0
  0
LWPOLYLINE
  5
289
100
AcDbEntity
  8
Layer_1
 62
7
100
AcDbPolyline
 90
3
 70
0
 10
92.620496
 20
2.450244
 30
0.0
 10
88.087216
 20
5.994724
 30
0.0
 10
94.491392
 20
9.281124
 30
0.0
  0
SPLINE
  5
28a
100
AcDbEntity
  8
Layer_1
 62
7
100
AcDbSpline
 70
8
 71
3
 72
8
 73
4
 74
0
 40
0
 40
0
 40
0
 40
0
 40
1
 40
1
 40
1
 40
1
 10
137.339272
 20
28.727764
 30
0.0
 10
142.505616
 20
24.371444
 30
0.0
 10
146.742136
 20
20.307524
 30
0.0
 10
146.753752
 20
19.696804
 30
0.0
  0
SPLINE
  5
28b
100
AcDbEntity
  8
Layer_1
 62
7
100
AcDbSpline
 70
8
 71
3
 72
8
 73
4
 74
0
 40
0
 40
0
 40
0
 40
0
 40
1
 40
1
 40
1
 40
1
 10
146.753752
 20
19.696804
 30
0.0
 10
146.817912
 20
16.324404
 30
0.0
 10
130.489920
 20
-15.970076
 30
0.0
 10
128.708008
 20
-15.995196
 30
0.0
  0
SPLINE
  5
28c
100
AcDbEntity
  8
Layer_1
 62
7
100
AcDbSpline
 70
8
 71
3
 72
8
 73
4
 74
0
 40
0
 40
0
 40
0
 40
0
 40
1
 40
1
 40
1
 40
1
 10
128.708008
 20
-15.995196
 30
0.0
 10
127.540896
 20
-16.011996
 30
0.0
 10
119.963760
 20
-12.665756
 30
0.0
 10
111.869904
 20
-8.559756
 30
0.0
  0
LWPOLYLINE
  5
28d
100
AcDbEntity
  8
Layer_1
 62
7
100
AcDbPolyline
 90
3
 70
0
 10
119.098008
 20
28.215284
 30
0.0
 10
127.945904
 20
36.648404
 30
0.0
 10
137.339272
 20
28.727764
 30
0.0
  0
SPLINE
  5
28e
100
AcDbEntity
  8
Layer_1
 62
7
100
AcDbSpline
 70
8
 71
3
 72
8
 73
4
 74
0
 40
0
 40
0
 40
0
 40
0
 40
1
 40
1
 40
1
 40
1
 10
131.297712
 20
29.344164
 30
0.0
 10
130.414848
 20
31.992804
 30
0.0
 10
127.406280
 20
31.701604
 30
0.0
 10
126.464552
 20
28.876484
 30
0.0
  0
SPLINE
  5
28f
100
AcDbEntity
  8
Layer_1
 62
7
100
AcDbSpline
 70
8
 71
3
 72
8
 73
4
 74
0
 40
0
 40
0
 40
0
 40
0
 40
1
 40
1
 40
1
 40
1
 10
126.464552
 20
28.876484
 30
0.0
 10
126.121552
 20
27.847524
 30
0.0
 10
127.244088
 20
27.005524
 30
0.0
 10
128.959080
 20
27.005524
 30
0.0
  0
SPLINE
  5
290
100
AcDbEntity
  8
Layer_1
 62
7
100
AcDbSpline
 70
8
 71
3
 72
8
 73
4
 74
0
 40
0
 40
0
 40
0
 40
0
 40
1
 40
1
 40
1
 40
1
 10
128.959080
 20
27.005524
 30
0.0
 10
130.674088
 20
27.005524
 30
0.0
 10
131.726464
 20
28.057924
 30
0.0
 10
131.297712
 20
29.344164
 30
0.0
  0
LWPOLYLINE
  5
291
100
AcDbEntity
  8
Layer_1
 62
7
100
AcDbPolyline
 90
2
 70
0
 10
111.869904
 20
-8.559756
 30
0.0
 10
111.869904
 20
-8.559756
 30
0.0
  0
SPLINE
  5
292
100
AcDbEntity
  8
Layer_1
 62
7
100
AcDbSpline
 70
8
 71
3
 72
8
 73
4
 74
0
 40
0
 40
0
 40
0
 40
0
 40
1
 40
1
 40
1
 40
1
 10
-750.745936
 20
-6.821836
 30
0.0
 10
-767.097240
 20
-5.664236
 30
0.0
 10
-769.331960
 20
-4.595596
 30
0.0
 10
-770.317736
 20
2.537364
 30
0.0
  0
SPLINE
  5
293
100
AcDbEntity
  8
Layer_1
 62
7
100
AcDbSpline
 70
8
 71
3
 72
8
 73
4
 74
0
 40
0
 40
0
 40
0
 40
0
 40
1
 40
1
 40
1
 40
1
 10
-770.317736
 20
2.537364
 30
0.0
 10
-770.662112
 20
5.029204
 30
0.0
 10
-772.110240
 20
7.452564
 30
0.0
 10
-773.535800
 20
7.922644
 30
0.0
  0
SPLINE
  5
294
100
AcDbEntity
  8
Layer_1
 62
7
100
AcDbSpline
 70
8
 71
3
 72
8
 73
4
 74
0
 40
0
 40
0
 40
0
 40
0
 40
1
 40
1
 40
1
 40
1
 10
-773.535800
 20
7.922644
 30
0.0
 10
-775.569952
 20
8.593444
 30
0.0
 10
-775.854808
 20
7.322404
 30
0.0
 10
-774.859496
 20
2.016964
 30
0.0
  0
SPLINE
  5
295
100
AcDbEntity
  8
Layer_1
 62
7
100
AcDbSpline
 70
8
 71
3
 72
8
 73
4
 74
0
 40
0
 40
0
 40
0
 40
0
 40
1
 40
1
 40
1
 40
1
 10
-774.859496
 20
2.016964
 30
0.0
 10
-773.844600
 20
-3.392876
 30
0.0
 10
-774.122504
 20
-4.539436
 30
0.0
 10
-776.250688
 20
-3.722876
 30
0.0
  0
SPLINE
  5
296
100
AcDbEntity
  8
Layer_1
 62
7
100
AcDbSpline
 70
8
 71
3
 72
8
 73
4
 74
0
 40
0
 40
0
 40
0
 40
0
 40
1
 40
1
 40
1
 40
1
 10
-776.250688
 20
-3.722876
 30
0.0
 10
-777.713368
 20
-3.161596
 30
0.0
 10
-779.423680
 20
0.403924
 30
0.0
 10
-780.051376
 20
4.200404
 30
0.0
  0
SPLINE
  5
297
100
AcDbEntity
  8
Layer_1
 62
7
100
AcDbSpline
 70
8
 71
3
 72
8
 73
4
 74
0
 40
0
 40
0
 40
0
 40
0
 40
1
 40
1
 40
1
 40
1
 10
-780.051376
 20
4.200404
 30
0.0
 10
-781.976816
 20
15.845604
 30
0.0
 10
-781.472848
 20
19.023124
 30
0.0
 10
-777.537088
 20
20.052164
 30
0.0
  0
SPLINE
  5
298
100
AcDbEntity
  8
Layer_1
 62
7
100
AcDbSpline
 70
8
 71
3
 72
8
 73
4
 74
0
 40
0
 40
0
 40
0
 40
0
 40
1
 40
1
 40
1
 40
1
 10
-777.537088
 20
20.052164
 30
0.0
 10
-775.503888
 20
20.583924
 30
0.0
 10
-772.807696
 20
23.418404
 30
0.0
 10
-771.545568
 20
26.350884
 30
0.0
  0
SPLINE
  5
299
100
AcDbEntity
  8
Layer_1
 62
7
100
AcDbSpline
 70
8
 71
3
 72
8
 73
4
 74
0
 40
0
 40
0
 40
0
 40
0
 40
1
 40
1
 40
1
 40
1
 10
-771.545568
 20
26.350884
 30
0.0
 10
-770.283432
 20
29.283524
 30
0.0
 10
-769.148552
 20
31.885364
 30
0.0
 10
-769.023616
 20
32.132884
 30
0.0
  0
SPLINE
  5
29a
100
AcDbEntity
  8
Layer_1
 62
7
100
AcDbSpline
 70
8
 71
3
 72
8
 73
4
 74
0
 40
0
 40
0
 40
0
 40
0
 40
1
 40
1
 40
1
 40
1
 10
-769.023616
 20
32.132884
 30
0.0
 10
-768.581392
 20
33.009044
 30
0.0
 10
-723.413160
 20
41.972804
 30
0.0
 10
-719.440544
 20
41.972804
 30
0.0
  0
SPLINE
  5
29b
100
AcDbEntity
  8
Layer_1
 62
7
100
AcDbSpline
 70
8
 71
3
 72
8
 73
4
 74
0
 40
0
 40
0
 40
0
 40
0
 40
1
 40
1
 40
1
 40
1
 10
-719.440544
 20
41.972804
 30
0.0
 10
-717.222128
 20
41.972804
 30
0.0
 10
-713.266440
 20
40.288964
 30
0.0
 10
-710.650136
 20
38.230964
 30
0.0
  0
SPLINE
  5
29c
100
AcDbEntity
  8
Layer_1
 62
7
100
AcDbSpline
 70
8
 71
3
 72
8
 73
4
 74
0
 40
0
 40
0
 40
0
 40
0
 40
1
 40
1
 40
1
 40
1
 10
-710.650136
 20
38.230964
 30
0.0
 10
-708.033816
 20
36.172964
 30
0.0
 10
-704.076600
 20
34.489124
 30
0.0
 10
-701.856296
 20
34.489124
 30
0.0
  0
SPLINE
  5
29d
100
AcDbEntity
  8
Layer_1
 62
7
100
AcDbSpline
 70
8
 71
3
 72
8
 73
4
 74
0
 40
0
 40
0
 40
0
 40
0
 40
1
 40
1
 40
1
 40
1
 10
-701.856296
 20
34.489124
 30
0.0
 10
-698.650768
 20
34.489124
 30
0.0
 10
-697.354168
 20
32.749764
 30
0.0
 10
-695.560456
 20
26.043364
 30
0.0
  0
SPLINE
  5
29e
100
AcDbEntity
  8
Layer_1
 62
7
100
AcDbSpline
 70
8
 71
3
 72
8
 73
4
 74
0
 40
0
 40
0
 40
0
 40
0
 40
1
 40
1
 40
1
 40
1
 10
-695.560456
 20
26.043364
 30
0.0
 10
-694.318048
 20
21.398084
 30
0.0
 10
-693.301520
 20
16.346644
 30
0.0
 10
-693.301520
 20
14.817844
 30
0.0
  0
SPLINE
  5
29f
100
AcDbEntity
  8
Layer_1
 62
7
100
AcDbSpline
 70
8
 71
3
 72
8
 73
4
 74
0
 40
0
 40
0
 40
0
 40
0
 40
1
 40
1
 40
1
 40
1
 10
-693.301520
 20
14.817844
 30
0.0
 10
-693.301520
 20
10.289444
 30
0.0
 10
-696.540824
 20
11.652404
 30
0.0
 10
-697.811600
 20
16.715684
 30
0.0
  0
SPLINE
  5
2a0
100
AcDbEntity
  8
Layer_1
 62
7
100
AcDbSpline
 70
8
 71
3
 72
8
 73
4
 74
0
 40
0
 40
0
 40
0
 40
0
 40
1
 40
1
 40
1
 40
1
 10
-697.811600
 20
16.715684
 30
0.0
 10
-699.650296
 20
24.041524
 30
0.0
 10
-703.021488
 20
22.297364
 30
0.0
 10
-702.331640
 20
14.376964
 30
0.0
  0
LWPOLYLINE
  5
2a1
100
AcDbEntity
  8
Layer_1
 62
7
100
AcDbPolyline
 90
2
 70
0
 10
131.297712
 20
29.344164
 30
0.0
 10
131.297712
 20
29.344164
 30
0.0
  0
SPLINE
  5
2a2
100
AcDbEntity
  8
Layer_1
 62
7
100
AcDbSpline
 70
8
 71
3
 72
8
 73
4
 74
0
 40
0
 40
0
 40
0
 40
0
 40
1
 40
1
 40
1
 40
1
 10
-717.623216
 20
-0.496156
 30
0.0
 10
-726.369680
 20
-4.817516
 30
0.0
 10
-733.946832
 20
-8.253196
 30
0.0
 10
-734.461328
 20
-8.130876
 30
0.0
  0
SPLINE
  5
2a3
100
AcDbEntity
  8
Layer_1
 62
7
100
AcDbSpline
 70
8
 71
3
 72
8
 73
4
 74
0
 40
0
 40
0
 40
0
 40
0
 40
1
 40
1
 40
1
 40
1
 10
-734.461328
 20
-8.130876
 30
0.0
 10
-734.975816
 20
-8.008556
 30
0.0
 10
-742.303896
 20
-7.419436
 30
0.0
 10
-750.745936
 20
-6.821836
 30
0.0
  0
LWPOLYLINE
  5
2a4
100
AcDbEntity
  8
Layer_1
 62
7
100
AcDbPolyline
 90
3
 70
0
 10
-702.331640
 20
14.376964
 30
0.0
 10
-701.720568
 20
7.361044
 30
0.0
 10
-717.623216
 20
-0.496156
 30
0.0
  0
SPLINE
  5
2a5
100
AcDbEntity
  8
Layer_1
 62
7
100
AcDbSpline
 70
8
 71
3
 72
8
 73
4
 74
0
 40
0
 40
0
 40
0
 40
0
 40
1
 40
1
 40
1
 40
1
 10
-736.332224
 20
24.199204
 30
0.0
 10
-736.332224
 20
25.742724
 30
0.0
 10
-737.595080
 20
27.005524
 30
0.0
 10
-739.138568
 20
27.005524
 30
0.0
  0
SPLINE
  5
2a6
100
AcDbEntity
  8
Layer_1
 62
7
100
AcDbSpline
 70
8
 71
3
 72
8
 73
4
 74
0
 40
0
 40
0
 40
0
 40
0
 40
1
 40
1
 40
1
 40
1
 10
-739.138568
 20
27.005524
 30
0.0
 10
-740.682064
 20
27.005524
 30
0.0
 10
-741.944928
 20
25.742724
 30
0.0
 10
-741.944928
 20
24.199204
 30
0.0
  0
SPLINE
  5
2a7
100
AcDbEntity
  8
Layer_1
 62
7
100
AcDbSpline
 70
8
 71
3
 72
8
 73
4
 74
0
 40
0
 40
0
 40
0
 40
0
 40
1
 40
1
 40
1
 40
1
 10
-741.944928
 20
24.199204
 30
0.0
 10
-741.944928
 20
22.655764
 30
0.0
 10
-740.682064
 20
21.392804
 30
0.0
 10
-739.138568
 20
21.392804
 30
0.0
  0
SPLINE
  5
2a8
100
AcDbEntity
  8
Layer_1
 62
7
100
AcDbSpline
 70
8
 71
3
 72
8
 73
4
 74
0
 40
0
 40
0
 40
0
 40
0
 40
1
 40
1
 40
1
 40
1
 10
-739.138568
 20
21.392804
 30
0.0
 10
-737.595080
 20
21.392804
 30
0.0
 10
-736.332224
 20
22.655764
 30
0.0
 10
-736.332224
 20
24.199204
 30
0.0
  0
LWPOLYLINE
  5
2a9
100
AcDbEntity
  8
Layer_1
 62
7
100
AcDbPolyline
 90
2
 70
0
 10
-750.745936
 20
-6.821836
 30
0.0
 10
-750.745936
 20
-6.821836
 30
0.0
  0
SPLINE
  5
2aa
100
AcDbEntity
  8
Layer_1
 62
7
100
AcDbSpline
 70
8
 71
3
 72
8
 73
4
 74
0
 40
0
 40
0
 40
0
 40
0
 40
1
 40
1
 40
1
 40
1
 10
222.156880
 20
-1.551676
 30
0.0
 10
211.451856
 20
3.845604
 30
0.0
 10
211.237304
 20
4.293924
 30
0.0
 10
209.383488
 20
25.134644
 30
0.0
  0
LWPOLYLINE
  5
2ab
100
AcDbEntity
  8
Layer_1
 62
7
100
AcDbPolyline
 90
2
 70
0
 10
-736.332224
 20
24.199204
 30
0.0
 10
-736.332224
 20
24.199204
 30
0.0
  0
SPLINE
  5
2ac
100
AcDbEntity
  8
Layer_1
 62
7
100
AcDbSpline
 70
8
 71
3
 72
8
 73
4
 74
0
 40
0
 40
0
 40
0
 40
0
 40
1
 40
1
 40
1
 40
1
 10
265.756904
 20
55.941844
 30
0.0
 10
301.548968
 20
57.276924
 30
0.0
 10
302.403336
 20
57.221460
 30
0.0
 10
305.088896
 20
53.387252
 30
0.0
  0
SPLINE
  5
2ad
100
AcDbEntity
  8
Layer_1
 62
7
100
AcDbSpline
 70
8
 71
3
 72
8
 73
4
 74
0
 40
0
 40
0
 40
0
 40
0
 40
1
 40
1
 40
1
 40
1
 10
305.088896
 20
53.387252
 30
0.0
 10
306.706760
 20
51.077492
 30
0.0
 10
310.821536
 20
48.990252
 30
0.0
 10
315.108800
 20
48.304676
 30
0.0
  0
LWPOLYLINE
  5
2ae
100
AcDbEntity
  8
Layer_1
 62
7
100
AcDbPolyline
 90
5
 70
0
 10
209.383488
 20
25.134644
 30
0.0
 10
208.135336
 20
39.166404
 30
0.0
 10
218.652736
 20
46.871708
 30
0.0
 10
229.170112
 20
54.577044
 30
0.0
 10
265.756904
 20
55.941844
 30
0.0
  0
SPLINE
  5
2af
100
AcDbEntity
  8
Layer_1
 62
7
100
AcDbSpline
 70
8
 71
3
 72
8
 73
4
 74
0
 40
0
 40
0
 40
0
 40
0
 40
1
 40
1
 40
1
 40
1
 10
323.524200
 20
36.605844
 30
0.0
 10
324.151592
 20
30.811204
 30
0.0
 10
325.057632
 20
24.175764
 30
0.0
 10
325.537640
 20
21.860564
 30
0.0
  0
SPLINE
  5
2b0
100
AcDbEntity
  8
Layer_1
 62
7
100
AcDbSpline
 70
8
 71
3
 72
8
 73
4
 74
0
 40
0
 40
0
 40
0
 40
0
 40
1
 40
1
 40
1
 40
1
 10
325.537640
 20
21.860564
 30
0.0
 10
326.221440
 20
18.562164
 30
0.0
 10
325.566120
 20
17.651044
 30
0.0
 10
322.509896
 20
17.651044
 30
0.0
  0
SPLINE
  5
2b1
100
AcDbEntity
  8
Layer_1
 62
7
100
AcDbSpline
 70
8
 71
3
 72
8
 73
4
 74
0
 40
0
 40
0
 40
0
 40
0
 40
1
 40
1
 40
1
 40
1
 10
322.509896
 20
17.651044
 30
0.0
 10
316.780712
 20
17.651044
 30
0.0
 10
311.412272
 20
14.259204
 30
0.0
 10
309.600928
 20
9.494884
 30
0.0
  0
SPLINE
  5
2b2
100
AcDbEntity
  8
Layer_1
 62
7
100
AcDbSpline
 70
8
 71
3
 72
8
 73
4
 74
0
 40
0
 40
0
 40
0
 40
0
 40
1
 40
1
 40
1
 40
1
 10
309.600928
 20
9.494884
 30
0.0
 10
308.155344
 20
5.692724
 30
0.0
 10
304.769008
 20
4.754804
 30
0.0
 10
272.740184
 20
-0.715196
 30
0.0
  0
SPLINE
  5
2b3
100
AcDbEntity
  8
Layer_1
 62
7
100
AcDbSpline
 70
8
 71
3
 72
8
 73
4
 74
0
 40
0
 40
0
 40
0
 40
0
 40
1
 40
1
 40
1
 40
1
 10
272.740184
 20
-0.715196
 30
0.0
 10
253.342304
 20
-4.027996
 30
0.0
 10
236.208432
 20
-6.671996
 30
0.0
 10
234.664936
 20
-6.590716
 30
0.0
  0
SPLINE
  5
2b4
100
AcDbEntity
  8
Layer_1
 62
7
100
AcDbSpline
 70
8
 71
3
 72
8
 73
4
 74
0
 40
0
 40
0
 40
0
 40
0
 40
1
 40
1
 40
1
 40
1
 10
234.664936
 20
-6.590716
 30
0.0
 10
233.121448
 20
-6.509116
 30
0.0
 10
227.492824
 20
-4.241916
 30
0.0
 10
222.156880
 20
-1.551676
 30
0.0
  0
LWPOLYLINE
  5
2b5
100
AcDbEntity
  8
Layer_1
 62
7
100
AcDbPolyline
 90
3
 70
0
 10
315.108800
 20
48.304676
 30
0.0
 10
322.383472
 20
47.141420
 30
0.0
 10
323.524200
 20
36.605844
 30
0.0
  0
SPLINE
  5
2b6
100
AcDbEntity
  8
Layer_1
 62
7
100
AcDbSpline
 70
8
 71
3
 72
8
 73
4
 74
0
 40
0
 40
0
 40
0
 40
0
 40
1
 40
1
 40
1
 40
1
 10
297.846784
 20
30.396564
 30
0.0
 10
298.254104
 20
31.618484
 30
0.0
 10
297.254352
 20
32.618164
 30
0.0
 10
295.625104
 20
32.618164
 30
0.0
  0
SPLINE
  5
2b7
100
AcDbEntity
  8
Layer_1
 62
7
100
AcDbSpline
 70
8
 71
3
 72
8
 73
4
 74
0
 40
0
 40
0
 40
0
 40
0
 40
1
 40
1
 40
1
 40
1
 10
295.625104
 20
32.618164
 30
0.0
 10
293.995864
 20
32.618164
 30
0.0
 10
292.662840
 20
31.285204
 30
0.0
 10
292.662840
 20
29.655924
 30
0.0
  0
SPLINE
  5
2b8
100
AcDbEntity
  8
Layer_1
 62
7
100
AcDbSpline
 70
8
 71
3
 72
8
 73
4
 74
0
 40
0
 40
0
 40
0
 40
0
 40
1
 40
1
 40
1
 40
1
 10
292.662840
 20
29.655924
 30
0.0
 10
292.662840
 20
26.352164
 30
0.0
 10
296.690448
 20
26.927444
 30
0.0
 10
297.846784
 20
30.396564
 30
0.0
  0
LWPOLYLINE
  5
2b9
100
AcDbEntity
  8
Layer_1
 62
7
100
AcDbPolyline
 90
2
 70
0
 10
222.156880
 20
-1.551676
 30
0.0
 10
222.156880
 20
-1.551676
 30
0.0
  0
SPLINE
  5
2ba
100
AcDbEntity
  8
Layer_1
 62
7
100
AcDbSpline
 70
8
 71
3
 72
8
 73
4
 74
0
 40
0
 40
0
 40
0
 40
0
 40
1
 40
1
 40
1
 40
1
 10
-149.422472
 20
1.713284
 30
0.0
 10
-167.733960
 20
5.084804
 30
0.0
 10
-182.984696
 20
8.155684
 30
0.0
 10
-183.312968
 20
8.537604
 30
0.0
  0
SPLINE
  5
2bb
100
AcDbEntity
  8
Layer_1
 62
7
100
AcDbSpline
 70
8
 71
3
 72
8
 73
4
 74
0
 40
0
 40
0
 40
0
 40
0
 40
1
 40
1
 40
1
 40
1
 10
-183.312968
 20
8.537604
 30
0.0
 10
-183.641248
 20
8.919604
 30
0.0
 10
-184.859320
 20
11.058884
 30
0.0
 10
-186.019808
 20
13.291684
 30
0.0
  0
SPLINE
  5
2bc
100
AcDbEntity
  8
Layer_1
 62
7
100
AcDbSpline
 70
8
 71
3
 72
8
 73
4
 74
0
 40
0
 40
0
 40
0
 40
0
 40
1
 40
1
 40
1
 40
1
 10
-186.019808
 20
13.291684
 30
0.0
 10
-187.180288
 20
15.524564
 30
0.0
 10
-191.046240
 20
18.313924
 30
0.0
 10
-194.610840
 20
19.490324
 30
0.0
  0
LWPOLYLINE
  5
2bd
100
AcDbEntity
  8
Layer_1
 62
7
100
AcDbPolyline
 90
2
 70
0
 10
297.846784
 20
30.396564
 30
0.0
 10
297.846784
 20
30.396564
 30
0.0
  0
SPLINE
  5
2be
100
AcDbEntity
  8
Layer_1
 62
7
100
AcDbSpline
 70
8
 71
3
 72
8
 73
4
 74
0
 40
0
 40
0
 40
0
 40
0
 40
1
 40
1
 40
1
 40
1
 10
-200.080376
 20
34.139684
 30
0.0
 10
-198.717768
 20
50.991708
 30
0.0
 10
-198.546640
 20
51.327284
 30
0.0
 10
-191.313512
 20
51.327284
 30
0.0
  0
SPLINE
  5
2bf
100
AcDbEntity
  8
Layer_1
 62
7
100
AcDbSpline
 70
8
 71
3
 72
8
 73
4
 74
0
 40
0
 40
0
 40
0
 40
0
 40
1
 40
1
 40
1
 40
1
 10
-191.313512
 20
51.327284
 30
0.0
 10
-187.222152
 20
51.327284
 30
0.0
 10
-183.740952
 20
52.735236
 30
0.0
 10
-181.432576
 20
55.323516
 30
0.0
  0
SPLINE
  5
2c0
100
AcDbEntity
  8
Layer_1
 62
7
100
AcDbSpline
 70
8
 71
3
 72
8
 73
4
 74
0
 40
0
 40
0
 40
0
 40
0
 40
1
 40
1
 40
1
 40
1
 10
-181.432576
 20
55.323516
 30
0.0
 10
-177.953768
 20
59.224236
 30
0.0
 10
-177.000008
 20
59.292476
 30
0.0
 10
-141.555752
 20
58.177876
 30
0.0
  0
SPLINE
  5
2c1
100
AcDbEntity
  8
Layer_1
 62
7
100
AcDbSpline
 70
8
 71
3
 72
8
 73
4
 74
0
 40
0
 40
0
 40
0
 40
0
 40
1
 40
1
 40
1
 40
1
 10
-141.555752
 20
58.177876
 30
0.0
 10
-106.606512
 20
57.078756
 30
0.0
 10
-104.990688
 20
56.857884
 30
0.0
 10
-98.525048
 20
52.294684
 30
0.0
  0
SPLINE
  5
2c2
100
AcDbEntity
  8
Layer_1
 62
7
100
AcDbSpline
 70
8
 71
3
 72
8
 73
4
 74
0
 40
0
 40
0
 40
0
 40
0
 40
1
 40
1
 40
1
 40
1
 10
-98.525048
 20
52.294684
 30
0.0
 10
-81.778544
 20
40.475604
 30
0.0
 10
-82.928976
 20
42.999708
 30
0.0
 10
-85.423368
 20
23.549524
 30
0.0
  0
LWPOLYLINE
  5
2c3
100
AcDbEntity
  8
Layer_1
 62
7
100
AcDbPolyline
 90
3
 70
0
 10
-194.610840
 20
19.490324
 30
0.0
 10
-201.091928
 20
21.629284
 30
0.0
 10
-200.080376
 20
34.139684
 30
0.0
  0
SPLINE
  5
2c4
100
AcDbEntity
  8
Layer_1
 62
7
100
AcDbSpline
 70
8
 71
3
 72
8
 73
4
 74
0
 40
0
 40
0
 40
0
 40
0
 40
1
 40
1
 40
1
 40
1
 10
-98.559936
 20
0.709684
 30
0.0
 10
-104.562664
 20
-2.320556
 30
0.0
 10
-110.971328
 20
-4.713516
 30
0.0
 10
-112.801400
 20
-4.608156
 30
0.0
  0
SPLINE
  5
2c5
100
AcDbEntity
  8
Layer_1
 62
7
100
AcDbSpline
 70
8
 71
3
 72
8
 73
4
 74
0
 40
0
 40
0
 40
0
 40
0
 40
1
 40
1
 40
1
 40
1
 10
-112.801400
 20
-4.608156
 30
0.0
 10
-114.631496
 20
-4.502876
 30
0.0
 10
-131.110968
 20
-1.658156
 30
0.0
 10
-149.422472
 20
1.713284
 30
0.0
  0
LWPOLYLINE
  5
2c6
100
AcDbEntity
  8
Layer_1
 62
7
100
AcDbPolyline
 90
3
 70
0
 10
-85.423368
 20
23.549524
 30
0.0
 10
-87.645904
 20
6.219044
 30
0.0
 10
-98.559936
 20
0.709684
 30
0.0
  0
SPLINE
  5
2c7
100
AcDbEntity
  8
Layer_1
 62
7
100
AcDbSpline
 70
8
 71
3
 72
8
 73
4
 74
0
 40
0
 40
0
 40
0
 40
0
 40
1
 40
1
 40
1
 40
1
 10
-169.410936
 20
34.465364
 30
0.0
 10
-172.894768
 20
36.618484
 30
0.0
 10
-173.988864
 20
35.524404
 30
0.0
 10
-172.425640
 20
31.450724
 30
0.0
  0
SPLINE
  5
2c8
100
AcDbEntity
  8
Layer_1
 62
7
100
AcDbSpline
 70
8
 71
3
 72
8
 73
4
 74
0
 40
0
 40
0
 40
0
 40
0
 40
1
 40
1
 40
1
 40
1
 10
-172.425640
 20
31.450724
 30
0.0
 10
-171.465592
 20
28.948884
 30
0.0
 10
-170.704336
 20
28.744164
 30
0.0
 10
-168.936072
 20
30.512404
 30
0.0
  0
SPLINE
  5
2c9
100
AcDbEntity
  8
Layer_1
 62
7
100
AcDbSpline
 70
8
 71
3
 72
8
 73
4
 74
0
 40
0
 40
0
 40
0
 40
0
 40
1
 40
1
 40
1
 40
1
 10
-168.936072
 20
30.512404
 30
0.0
 10
-167.167792
 20
32.280724
 30
0.0
 10
-167.271376
 20
33.142964
 30
0.0
 10
-169.410936
 20
34.465364
 30
0.0
  0
LWPOLYLINE
  5
2ca
100
AcDbEntity
  8
Layer_1
 62
7
100
AcDbPolyline
 90
2
 70
0
 10
-149.422472
 20
1.713284
 30
0.0
 10
-149.422472
 20
1.713284
 30
0.0
  0
SPLINE
  5
2cb
100
AcDbEntity
  8
Layer_1
 62
7
100
AcDbSpline
 70
8
 71
3
 72
8
 73
4
 74
0
 40
0
 40
0
 40
0
 40
0
 40
1
 40
1
 40
1
 40
1
 10
-532.404104
 20
2.733444
 30
0.0
 10
-532.404104
 20
3.376404
 30
0.0
 10
-530.299344
 20
5.879844
 30
0.0
 10
-527.726856
 20
8.296564
 30
0.0
  0
SPLINE
  5
2cc
100
AcDbEntity
  8
Layer_1
 62
7
100
AcDbSpline
 70
8
 71
3
 72
8
 73
4
 74
0
 40
0
 40
0
 40
0
 40
0
 40
1
 40
1
 40
1
 40
1
 10
-527.726856
 20
8.296564
 30
0.0
 10
-525.154368
 20
10.713364
 30
0.0
 10
-523.049608
 20
13.385764
 30
0.0
 10
-523.049608
 20
14.235364
 30
0.0
  0
SPLINE
  5
2cd
100
AcDbEntity
  8
Layer_1
 62
7
100
AcDbSpline
 70
8
 71
3
 72
8
 73
4
 74
0
 40
0
 40
0
 40
0
 40
0
 40
1
 40
1
 40
1
 40
1
 10
-523.049608
 20
14.235364
 30
0.0
 10
-523.049608
 20
17.499044
 30
0.0
 10
-527.768864
 20
15.557204
 30
0.0
 10
-531.798816
 20
10.635204
 30
0.0
  0
LWPOLYLINE
  5
2ce
100
AcDbEntity
  8
Layer_1
 62
7
100
AcDbPolyline
 90
2
 70
0
 10
-169.410936
 20
34.465364
 30
0.0
 10
-169.410936
 20
34.465364
 30
0.0
  0
SPLINE
  5
2cf
100
AcDbEntity
  8
Layer_1
 62
7
100
AcDbSpline
 70
8
 71
3
 72
8
 73
4
 74
0
 40
0
 40
0
 40
0
 40
0
 40
1
 40
1
 40
1
 40
1
 10
-536.078616
 20
12.458084
 30
0.0
 10
-536.134536
 20
18.253924
 30
0.0
 10
-535.252184
 20
19.888004
 30
0.0
 10
-530.832088
 20
22.173764
 30
0.0
  0
SPLINE
  5
2d0
100
AcDbEntity
  8
Layer_1
 62
7
100
AcDbSpline
 70
8
 71
3
 72
8
 73
4
 74
0
 40
0
 40
0
 40
0
 40
0
 40
1
 40
1
 40
1
 40
1
 10
-530.832088
 20
22.173764
 30
0.0
 10
-527.909480
 20
23.685044
 30
0.0
 10
-523.489480
 20
27.059764
 30
0.0
 10
-521.009856
 20
29.673124
 30
0.0
  0
SPLINE
  5
2d1
100
AcDbEntity
  8
Layer_1
 62
7
100
AcDbSpline
 70
8
 71
3
 72
8
 73
4
 74
0
 40
0
 40
0
 40
0
 40
0
 40
1
 40
1
 40
1
 40
1
 10
-521.009856
 20
29.673124
 30
0.0
 10
-515.357552
 20
35.630004
 30
0.0
 10
-513.563544
 20
35.646324
 30
0.0
 10
-508.062256
 20
29.790644
 30
0.0
  0
LWPOLYLINE
  5
2d2
100
AcDbEntity
  8
Layer_1
 62
7
100
AcDbPolyline
 90
3
 70
0
 10
-531.798816
 20
10.635204
 30
0.0
 10
-536.011336
 20
5.490164
 30
0.0
 10
-536.078616
 20
12.458084
 30
0.0
  0
SPLINE
  5
2d3
100
AcDbEntity
  8
Layer_1
 62
7
100
AcDbSpline
 70
8
 71
3
 72
8
 73
4
 74
0
 40
0
 40
0
 40
0
 40
0
 40
1
 40
1
 40
1
 40
1
 10
-509.492304
 20
19.032884
 30
0.0
 10
-512.706600
 20
15.700404
 30
0.0
 10
-516.171584
 20
10.757604
 30
0.0
 10
-517.192256
 20
8.048724
 30
0.0
  0
SPLINE
  5
2d4
100
AcDbEntity
  8
Layer_1
 62
7
100
AcDbSpline
 70
8
 71
3
 72
8
 73
4
 74
0
 40
0
 40
0
 40
0
 40
0
 40
1
 40
1
 40
1
 40
1
 10
-517.192256
 20
8.048724
 30
0.0
 10
-518.618456
 20
4.263684
 30
0.0
 10
-520.593760
 20
2.943124
 30
0.0
 10
-525.726048
 20
2.344084
 30
0.0
  0
SPLINE
  5
2d5
100
AcDbEntity
  8
Layer_1
 62
7
100
AcDbSpline
 70
8
 71
3
 72
8
 73
4
 74
0
 40
0
 40
0
 40
0
 40
0
 40
1
 40
1
 40
1
 40
1
 10
-525.726048
 20
2.344084
 30
0.0
 10
-529.398920
 20
1.915204
 30
0.0
 10
-532.404032
 20
2.090404
 30
0.0
 10
-532.404032
 20
2.733444
 30
0.0
  0
LWPOLYLINE
  5
2d6
100
AcDbEntity
  8
Layer_1
 62
7
100
AcDbPolyline
 90
3
 70
0
 10
-508.062256
 20
29.790644
 30
0.0
 10
-503.648096
 20
25.091924
 30
0.0
 10
-509.492304
 20
19.032884
 30
0.0
  0
SPLINE
  5
2d7
100
AcDbEntity
  8
Layer_1
 62
7
100
AcDbSpline
 70
8
 71
3
 72
8
 73
4
 74
0
 40
0
 40
0
 40
0
 40
0
 40
1
 40
1
 40
1
 40
1
 10
-464.684784
 20
2.303764
 30
0.0
 10
-467.290312
 20
2.706884
 30
0.0
 10
-469.740592
 20
4.948804
 30
0.0
 10
-470.879952
 20
7.972084
 30
0.0
  0
SPLINE
  5
2d8
100
AcDbEntity
  8
Layer_1
 62
7
100
AcDbSpline
 70
8
 71
3
 72
8
 73
4
 74
0
 40
0
 40
0
 40
0
 40
0
 40
1
 40
1
 40
1
 40
1
 10
-470.879952
 20
7.972084
 30
0.0
 10
-471.916624
 20
10.723044
 30
0.0
 10
-475.307936
 20
15.610884
 30
0.0
 10
-478.416216
 20
18.833844
 30
0.0
  0
SPLINE
  5
2d9
100
AcDbEntity
  8
Layer_1
 62
7
100
AcDbSpline
 70
8
 71
3
 72
8
 73
4
 74
0
 40
0
 40
0
 40
0
 40
0
 40
1
 40
1
 40
1
 40
1
 10
-478.416216
 20
18.833844
 30
0.0
 10
-483.479232
 20
24.083924
 30
0.0
 10
-483.808632
 20
25.108644
 30
0.0
 10
-481.580176
 20
28.677044
 30
0.0
  0
SPLINE
  5
2da
100
AcDbEntity
  8
Layer_1
 62
7
100
AcDbSpline
 70
8
 71
3
 72
8
 73
4
 74
0
 40
0
 40
0
 40
0
 40
0
 40
1
 40
1
 40
1
 40
1
 10
-481.580176
 20
28.677044
 30
0.0
 10
-477.628168
 20
35.005204
 30
0.0
 10
-472.624176
 20
35.560164
 30
0.0
 10
-468.088824
 20
30.173284
 30
0.0
  0
SPLINE
  5
2db
100
AcDbEntity
  8
Layer_1
 62
7
100
AcDbSpline
 70
8
 71
3
 72
8
 73
4
 74
0
 40
0
 40
0
 40
0
 40
0
 40
1
 40
1
 40
1
 40
1
 10
-468.088824
 20
30.173284
 30
0.0
 10
-465.903920
 20
27.578084
 30
0.0
 10
-461.380056
 20
24.098244
 30
0.0
 10
-458.035824
 20
22.440324
 30
0.0
  0
SPLINE
  5
2dc
100
AcDbEntity
  8
Layer_1
 62
7
100
AcDbSpline
 70
8
 71
3
 72
8
 73
4
 74
0
 40
0
 40
0
 40
0
 40
0
 40
1
 40
1
 40
1
 40
1
 10
-458.035824
 20
22.440324
 30
0.0
 10
-452.831840
 20
19.860404
 30
0.0
 10
-451.955400
 20
18.438484
 30
0.0
 10
-451.955400
 20
12.575844
 30
0.0
  0
LWPOLYLINE
  5
2dd
100
AcDbEntity
  8
Layer_1
 62
7
100
AcDbPolyline
 90
2
 70
0
 10
-532.404032
 20
2.733444
 30
0.0
 10
-532.404104
 20
2.733444
 30
0.0
  0
SPLINE
  5
2de
100
AcDbEntity
  8
Layer_1
 62
7
100
AcDbSpline
 70
8
 71
3
 72
8
 73
4
 74
0
 40
0
 40
0
 40
0
 40
0
 40
1
 40
1
 40
1
 40
1
 10
-457.548592
 20
11.084164
 30
0.0
 10
-464.621168
 20
17.860084
 30
0.0
 10
-467.444768
 20
15.676484
 30
0.0
 10
-460.705792
 20
8.642484
 30
0.0
  0
SPLINE
  5
2df
100
AcDbEntity
  8
Layer_1
 62
7
100
AcDbSpline
 70
8
 71
3
 72
8
 73
4
 74
0
 40
0
 40
0
 40
0
 40
0
 40
1
 40
1
 40
1
 40
1
 10
-460.705792
 20
8.642484
 30
0.0
 10
-453.626008
 20
1.252724
 30
0.0
 10
-454.003400
 20
0.651444
 30
0.0
 10
-464.684784
 20
2.303764
 30
0.0
  0
LWPOLYLINE
  5
2e0
100
AcDbEntity
  8
Layer_1
 62
7
100
AcDbPolyline
 90
3
 70
0
 10
-451.955400
 20
12.575844
 30
0.0
 10
-451.955400
 20
5.725604
 30
0.0
 10
-457.548592
 20
11.084164
 30
0.0
  0
SPLINE
  5
2e1
100
AcDbEntity
  8
Layer_1
 62
7
100
AcDbSpline
 70
8
 71
3
 72
8
 73
4
 74
0
 40
0
 40
0
 40
0
 40
0
 40
1
 40
1
 40
1
 40
1
 10
28.215080
 20
20.385124
 30
0.0
 10
21.370078
 20
27.063684
 30
0.0
 10
15.769627
 20
32.322644
 30
0.0
 10
15.769627
 20
32.071764
 30
0.0
  0
SPLINE
  5
2e2
100
AcDbEntity
  8
Layer_1
 62
7
100
AcDbSpline
 70
8
 71
3
 72
8
 73
4
 74
0
 40
0
 40
0
 40
0
 40
0
 40
1
 40
1
 40
1
 40
1
 10
15.769627
 20
32.071764
 30
0.0
 10
15.769627
 20
31.820724
 30
0.0
 10
5.035339
 20
42.179772
 30
0.0
 10
-8.084351
 20
55.091724
 30
0.0
  0
SPLINE
  5
2e3
100
AcDbEntity
  8
Layer_1
 62
7
100
AcDbSpline
 70
8
 71
3
 72
8
 73
4
 74
0
 40
0
 40
0
 40
0
 40
0
 40
1
 40
1
 40
1
 40
1
 10
-8.084351
 20
55.091724
 30
0.0
 10
-21.204042
 20
68.003548
 30
0.0
 10
-48.355479
 20
94.421220
 30
0.0
 10
-68.420878
 20
113.797324
 30
0.0
  0
SPLINE
  5
2e4
100
AcDbEntity
  8
Layer_1
 62
7
100
AcDbSpline
 70
8
 71
3
 72
8
 73
4
 74
0
 40
0
 40
0
 40
0
 40
0
 40
1
 40
1
 40
1
 40
1
 10
-68.420878
 20
113.797324
 30
0.0
 10
-88.486288
 20
133.173532
 30
0.0
 10
-102.798672
 20
147.965876
 30
0.0
 10
-100.226184
 20
146.669212
 30
0.0
  0
SPLINE
  5
2e5
100
AcDbEntity
  8
Layer_1
 62
7
100
AcDbSpline
 70
8
 71
3
 72
8
 73
4
 74
0
 40
0
 40
0
 40
0
 40
0
 40
1
 40
1
 40
1
 40
1
 10
-100.226184
 20
146.669212
 30
0.0
 10
-97.653696
 20
145.372548
 30
0.0
 10
-82.545520
 20
131.598724
 30
0.0
 10
-66.652447
 20
116.060700
 30
0.0
  0
SPLINE
  5
2e6
100
AcDbEntity
  8
Layer_1
 62
7
100
AcDbSpline
 70
8
 71
3
 72
8
 73
4
 74
0
 40
0
 40
0
 40
0
 40
0
 40
1
 40
1
 40
1
 40
1
 10
-66.652447
 20
116.060700
 30
0.0
 10
-50.759381
 20
100.522764
 30
0.0
 10
-34.217626
 20
84.442196
 30
0.0
 10
-29.892962
 20
80.326228
 30
0.0
  0
SPLINE
  5
2e7
100
AcDbEntity
  8
Layer_1
 62
7
100
AcDbSpline
 70
8
 71
3
 72
8
 73
4
 74
0
 40
0
 40
0
 40
0
 40
0
 40
1
 40
1
 40
1
 40
1
 10
-29.892962
 20
80.326228
 30
0.0
 10
-7.551499
 20
59.062804
 30
0.0
 10
41.890234
 20
9.471844
 30
0.0
 10
41.318376
 20
8.900004
 30
0.0
  0
SPLINE
  5
2e8
100
AcDbEntity
  8
Layer_1
 62
7
100
AcDbSpline
 70
8
 71
3
 72
8
 73
4
 74
0
 40
0
 40
0
 40
0
 40
0
 40
1
 40
1
 40
1
 40
1
 10
41.318376
 20
8.900004
 30
0.0
 10
40.956566
 20
8.538244
 30
0.0
 10
35.060083
 20
13.706484
 30
0.0
 10
28.215080
 20
20.385124
 30
0.0
  0
LWPOLYLINE
  5
2e9
100
AcDbEntity
  8
Layer_1
 62
7
100
AcDbPolyline
 90
2
 70
0
 10
-464.684784
 20
2.303764
 30
0.0
 10
-464.684784
 20
2.303764
 30
0.0
  0
SPLINE
  5
2ea
100
AcDbEntity
  8
Layer_1
 62
7
100
AcDbSpline
 70
8
 71
3
 72
8
 73
4
 74
0
 40
0
 40
0
 40
0
 40
0
 40
1
 40
1
 40
1
 40
1
 10
-22.854453
 20
90.629444
 30
0.0
 10
-67.981390
 20
135.912604
 30
0.0
 10
-105.114784
 20
173.590508
 30
0.0
 10
-105.373120
 20
174.358220
 30
0.0
  0
SPLINE
  5
2eb
100
AcDbEntity
  8
Layer_1
 62
7
100
AcDbSpline
 70
8
 71
3
 72
8
 73
4
 74
0
 40
0
 40
0
 40
0
 40
0
 40
1
 40
1
 40
1
 40
1
 10
-105.373120
 20
174.358220
 30
0.0
 10
-105.631448
 20
175.125836
 30
0.0
 10
-68.580742
 20
213.008948
 30
0.0
 10
-23.038210
 20
258.542916
 30
0.0
  0
LWPOLYLINE
  5
2ec
100
AcDbEntity
  8
Layer_1
 62
7
100
AcDbPolyline
 90
2
 70
0
 10
28.215080
 20
20.385124
 30
0.0
 10
28.215080
 20
20.385124
 30
0.0
  0
SPLINE
  5
2ed
100
AcDbEntity
  8
Layer_1
 62
7
100
AcDbSpline
 70
8
 71
3
 72
8
 73
4
 74
0
 40
0
 40
0
 40
0
 40
0
 40
1
 40
1
 40
1
 40
1
 10
144.410096
 20
91.099980
 30
0.0
 10
98.876896
 20
45.558004
 30
0.0
 10
61.076165
 20
8.296564
 30
0.0
 10
60.408500
 20
8.296564
 30
0.0
  0
SPLINE
  5
2ee
100
AcDbEntity
  8
Layer_1
 62
7
100
AcDbSpline
 70
8
 71
3
 72
8
 73
4
 74
0
 40
0
 40
0
 40
0
 40
0
 40
1
 40
1
 40
1
 40
1
 10
60.408500
 20
8.296564
 30
0.0
 10
59.740809
 20
8.296564
 30
0.0
 10
22.272498
 20
45.346404
 30
0.0
 10
-22.854453
 20
90.629444
 30
0.0
  0
LWPOLYLINE
  5
2ef
100
AcDbEntity
  8
Layer_1
 62
7
100
AcDbPolyline
 90
5
 70
0
 10
-23.038210
 20
258.542916
 30
0.0
 10
59.766384
 20
341.331812
 30
0.0
 10
143.482080
 20
257.617516
 30
0.0
 10
227.197768
 20
173.903220
 30
0.0
 10
144.410096
 20
91.099980
 30
0.0
  0
SPLINE
  5
2f0
100
AcDbEntity
  8
Layer_1
 62
7
100
AcDbSpline
 70
8
 71
3
 72
8
 73
4
 74
0
 40
0
 40
0
 40
0
 40
0
 40
1
 40
1
 40
1
 40
1
 10
2.673328
 20
125.383756
 30
0.0
 10
2.673328
 20
127.012932
 30
0.0
 10
1.673552
 20
128.012676
 30
0.0
 10
0.451629
 20
127.605420
 30
0.0
  0
SPLINE
  5
2f1
100
AcDbEntity
  8
Layer_1
 62
7
100
AcDbSpline
 70
8
 71
3
 72
8
 73
4
 74
0
 40
0
 40
0
 40
0
 40
0
 40
1
 40
1
 40
1
 40
1
 10
0.451629
 20
127.605420
 30
0.0
 10
-3.017429
 20
126.449100
 30
0.0
 10
-3.592808
 20
122.421516
 30
0.0
 10
-0.288929
 20
122.421516
 30
0.0
  0
SPLINE
  5
2f2
100
AcDbEntity
  8
Layer_1
 62
7
100
AcDbSpline
 70
8
 71
3
 72
8
 73
4
 74
0
 40
0
 40
0
 40
0
 40
0
 40
1
 40
1
 40
1
 40
1
 10
-0.288929
 20
122.421516
 30
0.0
 10
1.340308
 20
122.421516
 30
0.0
 10
2.673328
 20
123.754492
 30
0.0
 10
2.673328
 20
125.383756
 30
0.0
  0
LWPOLYLINE
  5
2f3
100
AcDbEntity
  8
Layer_1
 62
7
100
AcDbPolyline
 90
2
 70
0
 10
-22.854453
 20
90.629444
 30
0.0
 10
-22.854453
 20
90.629444
 30
0.0
  0
SPLINE
  5
2f4
100
AcDbEntity
  8
Layer_1
 62
7
100
AcDbSpline
 70
8
 71
3
 72
8
 73
4
 74
0
 40
0
 40
0
 40
0
 40
0
 40
1
 40
1
 40
1
 40
1
 10
14.911110
 20
135.642220
 30
0.0
 10
16.632977
 20
138.428316
 30
0.0
 10
14.636588
 20
139.943044
 30
0.0
 10
11.054494
 20
138.568460
 30
0.0
  0
SPLINE
  5
2f5
100
AcDbEntity
  8
Layer_1
 62
7
100
AcDbSpline
 70
8
 71
3
 72
8
 73
4
 74
0
 40
0
 40
0
 40
0
 40
0
 40
1
 40
1
 40
1
 40
1
 10
11.054494
 20
138.568460
 30
0.0
 10
9.401403
 20
137.934156
 30
0.0
 10
8.572875
 20
136.567212
 30
0.0
 10
9.213303
 20
135.530940
 30
0.0
  0
SPLINE
  5
2f6
100
AcDbEntity
  8
Layer_1
 62
7
100
AcDbSpline
 70
8
 71
3
 72
8
 73
4
 74
0
 40
0
 40
0
 40
0
 40
0
 40
1
 40
1
 40
1
 40
1
 10
9.213303
 20
135.530940
 30
0.0
 10
10.729815
 20
133.077244
 30
0.0
 10
13.357551
 20
133.128556
 30
0.0
 10
14.911110
 20
135.642324
 30
0.0
  0
LWPOLYLINE
  5
2f7
100
AcDbEntity
  8
Layer_1
 62
7
100
AcDbPolyline
 90
2
 70
0
 10
2.673328
 20
125.383756
 30
0.0
 10
2.673328
 20
125.383756
 30
0.0
  0
SPLINE
  5
2f8
100
AcDbEntity
  8
Layer_1
 62
7
100
AcDbSpline
 70
8
 71
3
 72
8
 73
4
 74
0
 40
0
 40
0
 40
0
 40
0
 40
1
 40
1
 40
1
 40
1
 10
99.960136
 20
222.670540
 30
0.0
 10
99.960136
 20
224.299804
 30
0.0
 10
98.960360
 20
225.299564
 30
0.0
 10
97.738440
 20
224.892196
 30
0.0
  0
SPLINE
  5
2f9
100
AcDbEntity
  8
Layer_1
 62
7
100
AcDbSpline
 70
8
 71
3
 72
8
 73
4
 74
0
 40
0
 40
0
 40
0
 40
0
 40
1
 40
1
 40
1
 40
1
 10
97.738440
 20
224.892196
 30
0.0
 10
94.269376
 20
223.735876
 30
0.0
 10
93.693992
 20
219.708292
 30
0.0
 10
96.997880
 20
219.708292
 30
0.0
  0
SPLINE
  5
2fa
100
AcDbEntity
  8
Layer_1
 62
7
100
AcDbSpline
 70
8
 71
3
 72
8
 73
4
 74
0
 40
0
 40
0
 40
0
 40
0
 40
1
 40
1
 40
1
 40
1
 10
96.997880
 20
219.708292
 30
0.0
 10
98.627112
 20
219.708292
 30
0.0
 10
99.960136
 20
221.041268
 30
0.0
 10
99.960136
 20
222.670540
 30
0.0
  0
LWPOLYLINE
  5
2fb
100
AcDbEntity
  8
Layer_1
 62
7
100
AcDbPolyline
 90
2
 70
0
 10
14.911110
 20
135.642324
 30
0.0
 10
14.911110
 20
135.642220
 30
0.0
  0
SPLINE
  5
2fc
100
AcDbEntity
  8
Layer_1
 62
7
100
AcDbSpline
 70
8
 71
3
 72
8
 73
4
 74
0
 40
0
 40
0
 40
0
 40
0
 40
1
 40
1
 40
1
 40
1
 10
112.041072
 20
232.675332
 30
0.0
 10
113.424704
 20
234.914020
 30
0.0
 10
109.905216
 20
237.132212
 30
0.0
 10
107.413224
 20
235.592084
 30
0.0
  0
SPLINE
  5
2fd
100
AcDbEntity
  8
Layer_1
 62
7
100
AcDbSpline
 70
8
 71
3
 72
8
 73
4
 74
0
 40
0
 40
0
 40
0
 40
0
 40
1
 40
1
 40
1
 40
1
 10
107.413224
 20
235.592084
 30
0.0
 10
105.320872
 20
234.298892
 30
0.0
 10
106.694472
 20
230.933668
 30
0.0
 10
109.314632
 20
230.933668
 30
0.0
  0
SPLINE
  5
2fe
100
AcDbEntity
  8
Layer_1
 62
7
100
AcDbSpline
 70
8
 71
3
 72
8
 73
4
 74
0
 40
0
 40
0
 40
0
 40
0
 40
1
 40
1
 40
1
 40
1
 10
109.314632
 20
230.933668
 30
0.0
 10
110.222168
 20
230.933668
 30
0.0
 10
111.449064
 20
231.717396
 30
0.0
 10
112.041072
 20
232.675332
 30
0.0
  0
LWPOLYLINE
  5
2ff
100
AcDbEntity
  8
Layer_1
 62
7
100
AcDbPolyline
 90
2
 70
0
 10
99.960136
 20
222.670540
 30
0.0
 10
99.960136
 20
222.670540
 30
0.0
  0
SPLINE
  5
300
100
AcDbEntity
  8
Layer_1
 62
7
100
AcDbSpline
 70
8
 71
3
 72
8
 73
4
 74
0
 40
0
 40
0
 40
0
 40
0
 40
1
 40
1
 40
1
 40
1
 10
85.978560
 20
21.590804
 30
0.0
 10
93.153920
 20
28.902644
 30
0.0
 10
103.634312
 20
39.215924
 30
0.0
 10
109.268328
 20
44.509324
 30
0.0
  0
SPLINE
  5
301
100
AcDbEntity
  8
Layer_1
 62
7
100
AcDbSpline
 70
8
 71
3
 72
8
 73
4
 74
0
 40
0
 40
0
 40
0
 40
0
 40
1
 40
1
 40
1
 40
1
 10
109.268328
 20
44.509324
 30
0.0
 10
114.902336
 20
49.802644
 30
0.0
 10
131.740432
 20
66.065228
 30
0.0
 10
146.686336
 20
80.648428
 30
0.0
  0
SPLINE
  5
302
100
AcDbEntity
  8
Layer_1
 62
7
100
AcDbSpline
 70
8
 71
3
 72
8
 73
4
 74
0
 40
0
 40
0
 40
0
 40
0
 40
1
 40
1
 40
1
 40
1
 10
146.686336
 20
80.648428
 30
0.0
 10
189.031024
 20
121.965492
 30
0.0
 10
214.209976
 20
145.665580
 30
0.0
 10
217.562128
 20
147.361356
 30
0.0
  0
SPLINE
  5
303
100
AcDbEntity
  8
Layer_1
 62
7
100
AcDbSpline
 70
8
 71
3
 72
8
 73
4
 74
0
 40
0
 40
0
 40
0
 40
0
 40
1
 40
1
 40
1
 40
1
 10
217.562128
 20
147.361356
 30
0.0
 10
220.554880
 20
148.875364
 30
0.0
 10
195.921568
 20
124.280172
 30
0.0
 10
134.104056
 20
64.032596
 30
0.0
  0
SPLINE
  5
304
100
AcDbEntity
  8
Layer_1
 62
7
100
AcDbSpline
 70
8
 71
3
 72
8
 73
4
 74
0
 40
0
 40
0
 40
0
 40
0
 40
1
 40
1
 40
1
 40
1
 10
134.104056
 20
64.032596
 30
0.0
 10
117.382896
 20
47.736124
 30
0.0
 10
103.701928
 20
33.530484
 30
0.0
 10
103.701928
 20
32.464644
 30
0.0
  0
SPLINE
  5
305
100
AcDbEntity
  8
Layer_1
 62
7
100
AcDbSpline
 70
8
 71
3
 72
8
 73
4
 74
0
 40
0
 40
0
 40
0
 40
0
 40
1
 40
1
 40
1
 40
1
 10
103.701928
 20
32.464644
 30
0.0
 10
103.701928
 20
31.398644
 30
0.0
 10
103.006016
 20
30.956644
 30
0.0
 10
102.155432
 20
31.482244
 30
0.0
  0
SPLINE
  5
306
100
AcDbEntity
  8
Layer_1
 62
7
100
AcDbSpline
 70
8
 71
3
 72
8
 73
4
 74
0
 40
0
 40
0
 40
0
 40
0
 40
1
 40
1
 40
1
 40
1
 10
102.155432
 20
31.482244
 30
0.0
 10
101.304856
 20
32.008004
 30
0.0
 10
95.225376
 20
27.006244
 30
0.0
 10
88.645456
 20
20.367284
 30
0.0
  0
SPLINE
  5
307
100
AcDbEntity
  8
Layer_1
 62
7
100
AcDbSpline
 70
8
 71
3
 72
8
 73
4
 74
0
 40
0
 40
0
 40
0
 40
0
 40
1
 40
1
 40
1
 40
1
 10
88.645456
 20
20.367284
 30
0.0
 10
82.065528
 20
13.728404
 30
0.0
 10
75.838330
 20
8.296564
 30
0.0
 10
74.807214
 20
8.296564
 30
0.0
  0
SPLINE
  5
308
100
AcDbEntity
  8
Layer_1
 62
7
100
AcDbSpline
 70
8
 71
3
 72
8
 73
4
 74
0
 40
0
 40
0
 40
0
 40
0
 40
1
 40
1
 40
1
 40
1
 10
74.807214
 20
8.296564
 30
0.0
 10
73.776085
 20
8.296564
 30
0.0
 10
78.803188
 20
14.279044
 30
0.0
 10
85.978560
 20
21.590804
 30
0.0
  0
LWPOLYLINE
  5
309
100
AcDbEntity
  8
Layer_1
 62
7
100
AcDbPolyline
 90
2
 70
0
 10
112.041072
 20
232.675332
 30
0.0
 10
112.041072
 20
232.675332
 30
0.0
  0
SPLINE
  5
30a
100
AcDbEntity
  8
Layer_1
 62
7
100
AcDbSpline
 70
8
 71
3
 72
8
 73
4
 74
0
 40
0
 40
0
 40
0
 40
0
 40
1
 40
1
 40
1
 40
1
 10
-622.691296
 20
50.774748
 30
0.0
 10
-638.282264
 20
65.025220
 30
0.0
 10
-653.285976
 20
90.123172
 30
0.0
 10
-654.560784
 20
104.085348
 30
0.0
  0
SPLINE
  5
30b
100
AcDbEntity
  8
Layer_1
 62
7
100
AcDbSpline
 70
8
 71
3
 72
8
 73
4
 74
0
 40
0
 40
0
 40
0
 40
0
 40
1
 40
1
 40
1
 40
1
 10
-654.560784
 20
104.085348
 30
0.0
 10
-655.058800
 20
109.539748
 30
0.0
 10
-655.770624
 20
115.616100
 30
0.0
 10
-656.142624
 20
117.588484
 30
0.0
  0
SPLINE
  5
30c
100
AcDbEntity
  8
Layer_1
 62
7
100
AcDbSpline
 70
8
 71
3
 72
8
 73
4
 74
0
 40
0
 40
0
 40
0
 40
0
 40
1
 40
1
 40
1
 40
1
 10
-656.142624
 20
117.588484
 30
0.0
 10
-656.670064
 20
120.384988
 30
0.0
 10
-653.365288
 20
123.177100
 30
0.0
 10
-641.130664
 20
130.271572
 30
0.0
  0
SPLINE
  5
30d
100
AcDbEntity
  8
Layer_1
 62
7
100
AcDbSpline
 70
8
 71
3
 72
8
 73
4
 74
0
 40
0
 40
0
 40
0
 40
0
 40
1
 40
1
 40
1
 40
1
 10
-641.130664
 20
130.271572
 30
0.0
 10
-625.781784
 20
139.171860
 30
0.0
 10
-625.385256
 20
139.287116
 30
0.0
 10
-622.803136
 20
135.600604
 30
0.0
  0
SPLINE
  5
30e
100
AcDbEntity
  8
Layer_1
 62
7
100
AcDbSpline
 70
8
 71
3
 72
8
 73
4
 74
0
 40
0
 40
0
 40
0
 40
0
 40
1
 40
1
 40
1
 40
1
 10
-622.803136
 20
135.600604
 30
0.0
 10
-621.351560
 20
133.528172
 30
0.0
 10
-616.571712
 20
129.727428
 30
0.0
 10
-612.181256
 20
127.154492
 30
0.0
  0
SPLINE
  5
30f
100
AcDbEntity
  8
Layer_1
 62
7
100
AcDbSpline
 70
8
 71
3
 72
8
 73
4
 74
0
 40
0
 40
0
 40
0
 40
0
 40
1
 40
1
 40
1
 40
1
 10
-612.181256
 20
127.154492
 30
0.0
 10
-605.886048
 20
123.465236
 30
0.0
 10
-602.246008
 20
119.009988
 30
0.0
 10
-594.961672
 20
106.078540
 30
0.0
  0
SPLINE
  5
310
100
AcDbEntity
  8
Layer_1
 62
7
100
AcDbSpline
 70
8
 71
3
 72
8
 73
4
 74
0
 40
0
 40
0
 40
0
 40
0
 40
1
 40
1
 40
1
 40
1
 10
-594.961672
 20
106.078540
 30
0.0
 10
-586.814264
 20
91.614788
 30
0.0
 10
-579.498848
 20
70.274524
 30
0.0
 10
-579.255176
 20
60.259684
 30
0.0
  0
SPLINE
  5
311
100
AcDbEntity
  8
Layer_1
 62
7
100
AcDbSpline
 70
8
 71
3
 72
8
 73
4
 74
0
 40
0
 40
0
 40
0
 40
0
 40
1
 40
1
 40
1
 40
1
 10
-579.255176
 20
60.259684
 30
0.0
 10
-579.204456
 20
58.172780
 30
0.0
 10
-584.288960
 20
54.038740
 30
0.0
 10
-593.636968
 20
48.566580
 30
0.0
  0
SPLINE
  5
312
100
AcDbEntity
  8
Layer_1
 62
7
100
AcDbSpline
 70
8
 71
3
 72
8
 73
4
 74
0
 40
0
 40
0
 40
0
 40
0
 40
1
 40
1
 40
1
 40
1
 10
-593.636968
 20
48.566580
 30
0.0
 10
-601.590168
 20
43.910988
 30
0.0
 10
-608.753672
 20
40.101924
 30
0.0
 10
-609.555872
 20
40.101924
 30
0.0
  0
SPLINE
  5
313
100
AcDbEntity
  8
Layer_1
 62
7
100
AcDbSpline
 70
8
 71
3
 72
8
 73
4
 74
0
 40
0
 40
0
 40
0
 40
0
 40
1
 40
1
 40
1
 40
1
 10
-609.555872
 20
40.101924
 30
0.0
 10
-610.358072
 20
40.101924
 30
0.0
 10
-616.269016
 20
44.904668
 30
0.0
 10
-622.691296
 20
50.774748
 30
0.0
  0
LWPOLYLINE
  5
314
100
AcDbEntity
  8
Layer_1
 62
7
100
AcDbPolyline
 90
2
 70
0
 10
85.978560
 20
21.590804
 30
0.0
 10
85.978560
 20
21.590804
 30
0.0
  0
SPLINE
  5
315
100
AcDbEntity
  8
Layer_1
 62
7
100
AcDbSpline
 70
8
 71
3
 72
8
 73
4
 74
0
 40
0
 40
0
 40
0
 40
0
 40
1
 40
1
 40
1
 40
1
 10
-609.111008
 20
79.501196
 30
0.0
 10
-609.111008
 20
80.469388
 30
0.0
 10
-610.373872
 20
81.261724
 30
0.0
 10
-611.917360
 20
81.261724
 30
0.0
  0
SPLINE
  5
316
100
AcDbEntity
  8
Layer_1
 62
7
100
AcDbSpline
 70
8
 71
3
 72
8
 73
4
 74
0
 40
0
 40
0
 40
0
 40
0
 40
1
 40
1
 40
1
 40
1
 10
-611.917360
 20
81.261724
 30
0.0
 10
-614.810544
 20
81.261724
 30
0.0
 10
-615.634288
 20
79.054092
 30
0.0
 10
-613.527312
 20
76.947132
 30
0.0
  0
SPLINE
  5
317
100
AcDbEntity
  8
Layer_1
 62
7
100
AcDbSpline
 70
8
 71
3
 72
8
 73
4
 74
0
 40
0
 40
0
 40
0
 40
0
 40
1
 40
1
 40
1
 40
1
 10
-613.527312
 20
76.947132
 30
0.0
 10
-612.032592
 20
75.452340
 30
0.0
 10
-609.111008
 20
77.142052
 30
0.0
 10
-609.111008
 20
79.501196
 30
0.0
  0
LWPOLYLINE
  5
318
100
AcDbEntity
  8
Layer_1
 62
7
100
AcDbPolyline
 90
2
 70
0
 10
-622.691296
 20
50.774748
 30
0.0
 10
-622.691296
 20
50.774748
 30
0.0
  0
SPLINE
  5
319
100
AcDbEntity
  8
Layer_1
 62
7
100
AcDbSpline
 70
8
 71
3
 72
8
 73
4
 74
0
 40
0
 40
0
 40
0
 40
0
 40
1
 40
1
 40
1
 40
1
 10
-508.884216
 20
44.912676
 30
0.0
 10
-510.501216
 20
46.529716
 30
0.0
 10
-511.824200
 20
50.375036
 30
0.0
 10
-511.824200
 20
53.457876
 30
0.0
  0
SPLINE
  5
31a
100
AcDbEntity
  8
Layer_1
 62
7
100
AcDbSpline
 70
8
 71
3
 72
8
 73
4
 74
0
 40
0
 40
0
 40
0
 40
0
 40
1
 40
1
 40
1
 40
1
 10
-511.824200
 20
53.457876
 30
0.0
 10
-511.824200
 20
57.912588
 30
0.0
 10
-511.152240
 20
58.867092
 30
0.0
 10
-508.550136
 20
58.107980
 30
0.0
  0
SPLINE
  5
31b
100
AcDbEntity
  8
Layer_1
 62
7
100
AcDbSpline
 70
8
 71
3
 72
8
 73
4
 74
0
 40
0
 40
0
 40
0
 40
0
 40
1
 40
1
 40
1
 40
1
 10
-508.550136
 20
58.107980
 30
0.0
 10
-500.380440
 20
55.725212
 30
0.0
 10
-487.502512
 20
54.758076
 30
0.0
 10
-487.502512
 20
56.527412
 30
0.0
  0
SPLINE
  5
31c
100
AcDbEntity
  8
Layer_1
 62
7
100
AcDbSpline
 70
8
 71
3
 72
8
 73
4
 74
0
 40
0
 40
0
 40
0
 40
0
 40
1
 40
1
 40
1
 40
1
 10
-487.502512
 20
56.527412
 30
0.0
 10
-487.502512
 20
58.932548
 30
0.0
 10
-490.536480
 20
60.065820
 30
0.0
 10
-501.295056
 20
61.679148
 30
0.0
  0
SPLINE
  5
31d
100
AcDbEntity
  8
Layer_1
 62
7
100
AcDbSpline
 70
8
 71
3
 72
8
 73
4
 74
0
 40
0
 40
0
 40
0
 40
0
 40
1
 40
1
 40
1
 40
1
 10
-501.295056
 20
61.679148
 30
0.0
 10
-510.946872
 20
63.126548
 30
0.0
 10
-511.918408
 20
64.705860
 30
0.0
 10
-505.795208
 20
68.994780
 30
0.0
  0
SPLINE
  5
31e
100
AcDbEntity
  8
Layer_1
 62
7
100
AcDbSpline
 70
8
 71
3
 72
8
 73
4
 74
0
 40
0
 40
0
 40
0
 40
0
 40
1
 40
1
 40
1
 40
1
 10
-505.795208
 20
68.994780
 30
0.0
 10
-499.314216
 20
73.534148
 30
0.0
 10
-495.336776
 20
72.787148
 30
0.0
 10
-496.399096
 20
67.229940
 30
0.0
  0
SPLINE
  5
31f
100
AcDbEntity
  8
Layer_1
 62
7
100
AcDbSpline
 70
8
 71
3
 72
8
 73
4
 74
0
 40
0
 40
0
 40
0
 40
0
 40
1
 40
1
 40
1
 40
1
 10
-496.399096
 20
67.229940
 30
0.0
 10
-497.054568
 20
63.800940
 30
0.0
 10
-496.486104
 20
62.552636
 30
0.0
 10
-494.268768
 20
62.552636
 30
0.0
  0
SPLINE
  5
320
100
AcDbEntity
  8
Layer_1
 62
7
100
AcDbSpline
 70
8
 71
3
 72
8
 73
4
 74
0
 40
0
 40
0
 40
0
 40
0
 40
1
 40
1
 40
1
 40
1
 10
-494.268768
 20
62.552636
 30
0.0
 10
-492.254480
 20
62.552636
 30
0.0
 10
-491.244312
 20
64.186684
 30
0.0
 10
-491.244312
 20
67.445052
 30
0.0
  0
LWPOLYLINE
  5
321
100
AcDbEntity
  8
Layer_1
 62
7
100
AcDbPolyline
 90
2
 70
0
 10
-609.111008
 20
79.501196
 30
0.0
 10
-609.111008
 20
79.501196
 30
0.0
  0
SPLINE
  5
322
100
AcDbEntity
  8
Layer_1
 62
7
100
AcDbSpline
 70
8
 71
3
 72
8
 73
4
 74
0
 40
0
 40
0
 40
0
 40
0
 40
1
 40
1
 40
1
 40
1
 10
-486.099336
 20
68.988820
 30
0.0
 10
-478.889128
 20
64.295956
 30
0.0
 10
-476.405448
 20
60.584868
 30
0.0
 10
-476.336600
 20
54.401188
 30
0.0
  0
SPLINE
  5
323
100
AcDbEntity
  8
Layer_1
 62
7
100
AcDbSpline
 70
8
 71
3
 72
8
 73
4
 74
0
 40
0
 40
0
 40
0
 40
0
 40
1
 40
1
 40
1
 40
1
 10
-476.336600
 20
54.401188
 30
0.0
 10
-476.293400
 20
50.522772
 30
0.0
 10
-477.010720
 20
49.337540
 30
0.0
 10
-478.950600
 20
50.081892
 30
0.0
  0
SPLINE
  5
324
100
AcDbEntity
  8
Layer_1
 62
7
100
AcDbSpline
 70
8
 71
3
 72
8
 73
4
 74
0
 40
0
 40
0
 40
0
 40
0
 40
1
 40
1
 40
1
 40
1
 10
-478.950600
 20
50.081892
 30
0.0
 10
-480.421016
 20
50.646140
 30
0.0
 10
-484.665816
 20
51.678412
 30
0.0
 10
-488.383472
 20
52.375900
 30
0.0
  0
SPLINE
  5
325
100
AcDbEntity
  8
Layer_1
 62
7
100
AcDbSpline
 70
8
 71
3
 72
8
 73
4
 74
0
 40
0
 40
0
 40
0
 40
0
 40
1
 40
1
 40
1
 40
1
 10
-488.383472
 20
52.375900
 30
0.0
 10
-494.695464
 20
53.560068
 30
0.0
 10
-495.288632
 20
53.257724
 30
0.0
 10
-497.345552
 20
47.808332
 30
0.0
  0
SPLINE
  5
326
100
AcDbEntity
  8
Layer_1
 62
7
100
AcDbSpline
 70
8
 71
3
 72
8
 73
4
 74
0
 40
0
 40
0
 40
0
 40
0
 40
1
 40
1
 40
1
 40
1
 10
-497.345552
 20
47.808332
 30
0.0
 10
-499.770752
 20
41.383284
 30
0.0
 10
-504.234560
 20
40.263044
 30
0.0
 10
-508.884216
 20
44.912676
 30
0.0
  0
LWPOLYLINE
  5
327
100
AcDbEntity
  8
Layer_1
 62
7
100
AcDbPolyline
 90
3
 70
0
 10
-491.244312
 20
67.445052
 30
0.0
 10
-491.244312
 20
72.337532
 30
0.0
 10
-486.099336
 20
68.988820
 30
0.0
  0
SPLINE
  5
328
100
AcDbEntity
  8
Layer_1
 62
7
100
AcDbSpline
 70
8
 71
3
 72
8
 73
4
 74
0
 40
0
 40
0
 40
0
 40
0
 40
1
 40
1
 40
1
 40
1
 10
-38.954204
 20
43.993524
 30
0.0
 10
-42.955062
 20
46.323804
 30
0.0
 10
-43.238579
 20
53.772404
 30
0.0
 10
-39.446226
 20
56.919772
 30
0.0
  0
SPLINE
  5
329
100
AcDbEntity
  8
Layer_1
 62
7
100
AcDbSpline
 70
8
 71
3
 72
8
 73
4
 74
0
 40
0
 40
0
 40
0
 40
0
 40
1
 40
1
 40
1
 40
1
 10
-39.446226
 20
56.919772
 30
0.0
 10
-37.850579
 20
58.244060
 30
0.0
 10
-34.659179
 20
58.725516
 30
0.0
 10
-31.962628
 20
58.048676
 30
0.0
  0
SPLINE
  5
32a
100
AcDbEntity
  8
Layer_1
 62
7
100
AcDbSpline
 70
8
 71
3
 72
8
 73
4
 74
0
 40
0
 40
0
 40
0
 40
0
 40
1
 40
1
 40
1
 40
1
 10
-31.962628
 20
58.048676
 30
0.0
 10
-28.272237
 20
57.122436
 30
0.0
 10
-27.261083
 20
55.683380
 30
0.0
 10
-27.261083
 20
51.357468
 30
0.0
  0
SPLINE
  5
32b
100
AcDbEntity
  8
Layer_1
 62
7
100
AcDbSpline
 70
8
 71
3
 72
8
 73
4
 74
0
 40
0
 40
0
 40
0
 40
0
 40
1
 40
1
 40
1
 40
1
 10
-27.261083
 20
51.357468
 30
0.0
 10
-27.261083
 20
47.823428
 30
0.0
 10
-28.559367
 20
45.151348
 30
0.0
 10
-30.879885
 20
43.909460
 30
0.0
  0
SPLINE
  5
32c
100
AcDbEntity
  8
Layer_1
 62
7
100
AcDbSpline
 70
8
 71
3
 72
8
 73
4
 74
0
 40
0
 40
0
 40
0
 40
0
 40
1
 40
1
 40
1
 40
1
 10
-30.879885
 20
43.909460
 30
0.0
 10
-35.186750
 20
41.604484
 30
0.0
 10
-34.846458
 20
41.601044
 30
0.0
 10
-38.954204
 20
43.993124
 30
0.0
  0
LWPOLYLINE
  5
32d
100
AcDbEntity
  8
Layer_1
 62
7
100
AcDbPolyline
 90
2
 70
0
 10
-508.884216
 20
44.912676
 30
0.0
 10
-508.884216
 20
44.912676
 30
0.0
  0
SPLINE
  5
32e
100
AcDbEntity
  8
Layer_1
 62
7
100
AcDbSpline
 70
8
 71
3
 72
8
 73
4
 74
0
 40
0
 40
0
 40
0
 40
0
 40
1
 40
1
 40
1
 40
1
 10
-32.018232
 20
49.327020
 30
0.0
 10
-30.634612
 20
51.565828
 30
0.0
 10
-34.154092
 20
53.784052
 30
0.0
 10
-36.646097
 20
52.243924
 30
0.0
  0
SPLINE
  5
32f
100
AcDbEntity
  8
Layer_1
 62
7
100
AcDbSpline
 70
8
 71
3
 72
8
 73
4
 74
0
 40
0
 40
0
 40
0
 40
0
 40
1
 40
1
 40
1
 40
1
 10
-36.646097
 20
52.243924
 30
0.0
 10
-38.738431
 20
50.950740
 30
0.0
 10
-37.364838
 20
47.585476
 30
0.0
 10
-34.744674
 20
47.585476
 30
0.0
  0
SPLINE
  5
330
100
AcDbEntity
  8
Layer_1
 62
7
100
AcDbSpline
 70
8
 71
3
 72
8
 73
4
 74
0
 40
0
 40
0
 40
0
 40
0
 40
1
 40
1
 40
1
 40
1
 10
-34.744674
 20
47.585476
 30
0.0
 10
-33.837145
 20
47.585476
 30
0.0
 10
-32.610244
 20
48.369212
 30
0.0
 10
-32.018232
 20
49.327020
 30
0.0
  0
LWPOLYLINE
  5
331
100
AcDbEntity
  8
Layer_1
 62
7
100
AcDbPolyline
 90
2
 70
0
 10
-38.954204
 20
43.993124
 30
0.0
 10
-38.954204
 20
43.993524
 30
0.0
  0
SPLINE
  5
332
100
AcDbEntity
  8
Layer_1
 62
7
100
AcDbSpline
 70
8
 71
3
 72
8
 73
4
 74
0
 40
0
 40
0
 40
0
 40
0
 40
1
 40
1
 40
1
 40
1
 10
145.973552
 20
45.519684
 30
0.0
 10
139.879640
 20
52.253388
 30
0.0
 10
144.573672
 20
60.227980
 30
0.0
 10
153.336592
 20
58.028556
 30
0.0
  0
SPLINE
  5
333
100
AcDbEntity
  8
Layer_1
 62
7
100
AcDbSpline
 70
8
 71
3
 72
8
 73
4
 74
0
 40
0
 40
0
 40
0
 40
0
 40
1
 40
1
 40
1
 40
1
 10
153.336592
 20
58.028556
 30
0.0
 10
161.922784
 20
55.873604
 30
0.0
 10
161.650160
 20
46.919564
 30
0.0
 10
152.899792
 20
43.682636
 30
0.0
  0
SPLINE
  5
334
100
AcDbEntity
  8
Layer_1
 62
7
100
AcDbSpline
 70
8
 71
3
 72
8
 73
4
 74
0
 40
0
 40
0
 40
0
 40
0
 40
1
 40
1
 40
1
 40
1
 10
152.899792
 20
43.682636
 30
0.0
 10
150.126328
 20
42.656660
 30
0.0
 10
148.071288
 20
43.201716
 30
0.0
 10
145.973552
 20
45.519684
 30
0.0
  0
LWPOLYLINE
  5
335
100
AcDbEntity
  8
Layer_1
 62
7
100
AcDbPolyline
 90
2
 70
0
 10
-32.018232
 20
49.327020
 30
0.0
 10
-32.018232
 20
49.327020
 30
0.0
  0
SPLINE
  5
336
100
AcDbEntity
  8
Layer_1
 62
7
100
AcDbSpline
 70
8
 71
3
 72
8
 73
4
 74
0
 40
0
 40
0
 40
0
 40
0
 40
1
 40
1
 40
1
 40
1
 10
153.280784
 20
51.015476
 30
0.0
 10
153.280784
 20
54.677916
 30
0.0
 10
149.635272
 20
54.367564
 30
0.0
 10
148.918200
 20
50.644092
 30
0.0
  0
SPLINE
  5
337
100
AcDbEntity
  8
Layer_1
 62
7
100
AcDbSpline
 70
8
 71
3
 72
8
 73
4
 74
0
 40
0
 40
0
 40
0
 40
0
 40
1
 40
1
 40
1
 40
1
 10
148.918200
 20
50.644092
 30
0.0
 10
148.480576
 20
48.371660
 30
0.0
 10
149.124208
 20
47.447212
 30
0.0
 10
150.763480
 20
47.993660
 30
0.0
  0
SPLINE
  5
338
100
AcDbEntity
  8
Layer_1
 62
7
100
AcDbSpline
 70
8
 71
3
 72
8
 73
4
 74
0
 40
0
 40
0
 40
0
 40
0
 40
1
 40
1
 40
1
 40
1
 10
150.763480
 20
47.993660
 30
0.0
 10
152.148000
 20
48.455124
 30
0.0
 10
153.280784
 20
49.815020
 30
0.0
 10
153.280784
 20
51.015476
 30
0.0
  0
LWPOLYLINE
  5
339
100
AcDbEntity
  8
Layer_1
 62
7
100
AcDbPolyline
 90
2
 70
0
 10
145.973552
 20
45.519684
 30
0.0
 10
145.973552
 20
45.519684
 30
0.0
  0
SPLINE
  5
33a
100
AcDbEntity
  8
Layer_1
 62
7
100
AcDbSpline
 70
8
 71
3
 72
8
 73
4
 74
0
 40
0
 40
0
 40
0
 40
0
 40
1
 40
1
 40
1
 40
1
 10
-732.138888
 20
66.089652
 30
0.0
 10
-735.492016
 20
75.225844
 30
0.0
 10
-738.968680
 20
86.625540
 30
0.0
 10
-739.864808
 20
91.422180
 30
0.0
  0
SPLINE
  5
33b
100
AcDbEntity
  8
Layer_1
 62
7
100
AcDbSpline
 70
8
 71
3
 72
8
 73
4
 74
0
 40
0
 40
0
 40
0
 40
0
 40
1
 40
1
 40
1
 40
1
 10
-739.864808
 20
91.422180
 30
0.0
 10
-741.660224
 20
101.032644
 30
0.0
 10
-742.660960
 20
102.776148
 30
0.0
 10
-745.407384
 20
101.078740
 30
0.0
  0
SPLINE
  5
33c
100
AcDbEntity
  8
Layer_1
 62
7
100
AcDbSpline
 70
8
 71
3
 72
8
 73
4
 74
0
 40
0
 40
0
 40
0
 40
0
 40
1
 40
1
 40
1
 40
1
 10
-745.407384
 20
101.078740
 30
0.0
 10
-746.612168
 20
100.334180
 30
0.0
 10
-746.614768
 20
97.648340
 30
0.0
 10
-745.414584
 20
93.302716
 30
0.0
  0
SPLINE
  5
33d
100
AcDbEntity
  8
Layer_1
 62
7
100
AcDbSpline
 70
8
 71
3
 72
8
 73
4
 74
0
 40
0
 40
0
 40
0
 40
0
 40
1
 40
1
 40
1
 40
1
 10
-745.414584
 20
93.302716
 30
0.0
 10
-742.619512
 20
83.179852
 30
0.0
 10
-744.193296
 20
78.993132
 30
0.0
 10
-747.831064
 20
86.874404
 30
0.0
  0
SPLINE
  5
33e
100
AcDbEntity
  8
Layer_1
 62
7
100
AcDbSpline
 70
8
 71
3
 72
8
 73
4
 74
0
 40
0
 40
0
 40
0
 40
0
 40
1
 40
1
 40
1
 40
1
 10
-747.831064
 20
86.874404
 30
0.0
 10
-751.815272
 20
95.506140
 30
0.0
 10
-753.511168
 20
111.196036
 30
0.0
 10
-750.459960
 20
111.196036
 30
0.0
  0
SPLINE
  5
33f
100
AcDbEntity
  8
Layer_1
 62
7
100
AcDbSpline
 70
8
 71
3
 72
8
 73
4
 74
0
 40
0
 40
0
 40
0
 40
0
 40
1
 40
1
 40
1
 40
1
 10
-750.459960
 20
111.196036
 30
0.0
 10
-747.303240
 20
111.196036
 30
0.0
 10
-740.073736
 20
119.260892
 30
0.0
 10
-740.073736
 20
122.782372
 30
0.0
  0
SPLINE
  5
340
100
AcDbEntity
  8
Layer_1
 62
7
100
AcDbSpline
 70
8
 71
3
 72
8
 73
4
 74
0
 40
0
 40
0
 40
0
 40
0
 40
1
 40
1
 40
1
 40
1
 10
-740.073736
 20
122.782372
 30
0.0
 10
-740.073736
 20
126.031732
 30
0.0
 10
-726.828136
 20
129.869708
 30
0.0
 10
-702.278136
 20
133.733996
 30
0.0
  0
SPLINE
  5
341
100
AcDbEntity
  8
Layer_1
 62
7
100
AcDbSpline
 70
8
 71
3
 72
8
 73
4
 74
0
 40
0
 40
0
 40
0
 40
0
 40
1
 40
1
 40
1
 40
1
 10
-702.278136
 20
133.733996
 30
0.0
 10
-687.958304
 20
135.987980
 30
0.0
 10
-687.832456
 20
135.971460
 30
0.0
 10
-682.022408
 20
131.082628
 30
0.0
  0
SPLINE
  5
342
100
AcDbEntity
  8
Layer_1
 62
7
100
AcDbSpline
 70
8
 71
3
 72
8
 73
4
 74
0
 40
0
 40
0
 40
0
 40
0
 40
1
 40
1
 40
1
 40
1
 10
-682.022408
 20
131.082628
 30
0.0
 10
-678.806904
 20
128.377012
 30
0.0
 10
-674.310496
 20
126.163308
 30
0.0
 10
-672.030376
 20
126.163308
 30
0.0
  0
SPLINE
  5
343
100
AcDbEntity
  8
Layer_1
 62
7
100
AcDbSpline
 70
8
 71
3
 72
8
 73
4
 74
0
 40
0
 40
0
 40
0
 40
0
 40
1
 40
1
 40
1
 40
1
 10
-672.030376
 20
126.163308
 30
0.0
 10
-668.695888
 20
126.163308
 30
0.0
 10
-667.442688
 20
124.510676
 30
0.0
 10
-665.625768
 20
117.717404
 30
0.0
  0
SPLINE
  5
344
100
AcDbEntity
  8
Layer_1
 62
7
100
AcDbSpline
 70
8
 71
3
 72
8
 73
4
 74
0
 40
0
 40
0
 40
0
 40
0
 40
1
 40
1
 40
1
 40
1
 10
-665.625768
 20
117.717404
 30
0.0
 10
-662.920120
 20
107.601228
 30
0.0
 10
-662.728568
 20
100.586004
 30
0.0
 10
-665.117672
 20
99.109420
 30
0.0
  0
SPLINE
  5
345
100
AcDbEntity
  8
Layer_1
 62
7
100
AcDbSpline
 70
8
 71
3
 72
8
 73
4
 74
0
 40
0
 40
0
 40
0
 40
0
 40
1
 40
1
 40
1
 40
1
 10
-665.117672
 20
99.109420
 30
0.0
 10
-666.080624
 20
98.514284
 30
0.0
 10
-667.439080
 20
101.832180
 30
0.0
 10
-668.136448
 20
106.482644
 30
0.0
  0
SPLINE
  5
346
100
AcDbEntity
  8
Layer_1
 62
7
100
AcDbSpline
 70
8
 71
3
 72
8
 73
4
 74
0
 40
0
 40
0
 40
0
 40
0
 40
1
 40
1
 40
1
 40
1
 10
-668.136448
 20
106.482644
 30
0.0
 10
-668.993296
 20
112.196508
 30
0.0
 10
-670.316152
 20
114.937828
 30
0.0
 10
-672.216512
 20
114.937828
 30
0.0
  0
SPLINE
  5
347
100
AcDbEntity
  8
Layer_1
 62
7
100
AcDbSpline
 70
8
 71
3
 72
8
 73
4
 74
0
 40
0
 40
0
 40
0
 40
0
 40
1
 40
1
 40
1
 40
1
 10
-672.216512
 20
114.937828
 30
0.0
 10
-674.269096
 20
114.937828
 30
0.0
 10
-674.678992
 20
113.800892
 30
0.0
 10
-673.734120
 20
110.728396
 30
0.0
  0
SPLINE
  5
348
100
AcDbEntity
  8
Layer_1
 62
7
100
AcDbSpline
 70
8
 71
3
 72
8
 73
4
 74
0
 40
0
 40
0
 40
0
 40
0
 40
1
 40
1
 40
1
 40
1
 10
-673.734120
 20
110.728396
 30
0.0
 10
-673.022136
 20
108.413108
 30
0.0
 10
-671.976656
 20
95.960628
 30
0.0
 10
-671.410832
 20
83.056084
 30
0.0
  0
LWPOLYLINE
  5
349
100
AcDbEntity
  8
Layer_1
 62
7
100
AcDbPolyline
 90
2
 70
0
 10
153.280784
 20
51.015476
 30
0.0
 10
153.280784
 20
51.015476
 30
0.0
  0
SPLINE
  5
34a
100
AcDbEntity
  8
Layer_1
 62
7
100
AcDbSpline
 70
8
 71
3
 72
8
 73
4
 74
0
 40
0
 40
0
 40
0
 40
0
 40
1
 40
1
 40
1
 40
1
 10
-697.276568
 20
54.507484
 30
0.0
 10
-712.068552
 20
51.710180
 30
0.0
 10
-724.592040
 20
49.434372
 30
0.0
 10
-725.106544
 20
49.449924
 30
0.0
  0
SPLINE
  5
34b
100
AcDbEntity
  8
Layer_1
 62
7
100
AcDbSpline
 70
8
 71
3
 72
8
 73
4
 74
0
 40
0
 40
0
 40
0
 40
0
 40
1
 40
1
 40
1
 40
1
 10
-725.106544
 20
49.449924
 30
0.0
 10
-725.621032
 20
49.465124
 30
0.0
 10
-728.785464
 20
56.953396
 30
0.0
 10
-732.138600
 20
66.089652
 30
0.0
  0
LWPOLYLINE
  5
34c
100
AcDbEntity
  8
Layer_1
 62
7
100
AcDbPolyline
 90
3
 70
0
 10
-671.410832
 20
83.056084
 30
0.0
 10
-670.382056
 20
59.593372
 30
0.0
 10
-697.276568
 20
54.507484
 30
0.0
  0
SPLINE
  5
34d
100
AcDbEntity
  8
Layer_1
 62
7
100
AcDbSpline
 70
8
 71
3
 72
8
 73
4
 74
0
 40
0
 40
0
 40
0
 40
0
 40
1
 40
1
 40
1
 40
1
 10
-74.854731
 20
58.693876
 30
0.0
 10
-85.280704
 20
69.370988
 30
0.0
 10
-90.672400
 20
71.161308
 30
0.0
 10
-101.583232
 20
67.569356
 30
0.0
  0
SPLINE
  5
34e
100
AcDbEntity
  8
Layer_1
 62
7
100
AcDbSpline
 70
8
 71
3
 72
8
 73
4
 74
0
 40
0
 40
0
 40
0
 40
0
 40
1
 40
1
 40
1
 40
1
 10
-101.583232
 20
67.569356
 30
0.0
 10
-108.305064
 20
65.356420
 30
0.0
 10
-110.778384
 20
65.189828
 30
0.0
 10
-111.851536
 20
66.877556
 30
0.0
  0
SPLINE
  5
34f
100
AcDbEntity
  8
Layer_1
 62
7
100
AcDbSpline
 70
8
 71
3
 72
8
 73
4
 74
0
 40
0
 40
0
 40
0
 40
0
 40
1
 40
1
 40
1
 40
1
 10
-111.851536
 20
66.877556
 30
0.0
 10
-114.053952
 20
70.341308
 30
0.0
 10
-113.656584
 20
71.154292
 30
0.0
 10
-108.645232
 20
73.437644
 30
0.0
  0
SPLINE
  5
350
100
AcDbEntity
  8
Layer_1
 62
7
100
AcDbSpline
 70
8
 71
3
 72
8
 73
4
 74
0
 40
0
 40
0
 40
0
 40
0
 40
1
 40
1
 40
1
 40
1
 10
-108.645232
 20
73.437644
 30
0.0
 10
-106.072744
 20
74.609772
 30
0.0
 10
-103.967984
 20
76.526908
 30
0.0
 10
-103.967984
 20
77.697972
 30
0.0
  0
SPLINE
  5
351
100
AcDbEntity
  8
Layer_1
 62
7
100
AcDbSpline
 70
8
 71
3
 72
8
 73
4
 74
0
 40
0
 40
0
 40
0
 40
0
 40
1
 40
1
 40
1
 40
1
 10
-103.967984
 20
77.697972
 30
0.0
 10
-103.967984
 20
79.753900
 30
0.0
 10
-106.926656
 20
79.422100
 30
0.0
 10
-113.790200
 20
76.596468
 30
0.0
  0
SPLINE
  5
352
100
AcDbEntity
  8
Layer_1
 62
7
100
AcDbSpline
 70
8
 71
3
 72
8
 73
4
 74
0
 40
0
 40
0
 40
0
 40
0
 40
1
 40
1
 40
1
 40
1
 10
-113.790200
 20
76.596468
 30
0.0
 10
-115.590944
 20
75.855164
 30
0.0
 10
-117.053336
 20
75.970132
 30
0.0
 10
-117.039960
 20
76.851956
 30
0.0
  0
SPLINE
  5
353
100
AcDbEntity
  8
Layer_1
 62
7
100
AcDbSpline
 70
8
 71
3
 72
8
 73
4
 74
0
 40
0
 40
0
 40
0
 40
0
 40
1
 40
1
 40
1
 40
1
 10
-117.039960
 20
76.851956
 30
0.0
 10
-116.996520
 20
79.712068
 30
0.0
 10
-90.730576
 20
105.848140
 30
0.0
 10
-88.609984
 20
105.141308
 30
0.0
  0
SPLINE
  5
354
100
AcDbEntity
  8
Layer_1
 62
7
100
AcDbSpline
 70
8
 71
3
 72
8
 73
4
 74
0
 40
0
 40
0
 40
0
 40
0
 40
1
 40
1
 40
1
 40
1
 10
-88.609984
 20
105.141308
 30
0.0
 10
-87.478952
 20
104.764228
 30
0.0
 10
-81.846960
 20
96.246116
 30
0.0
 10
-76.094452
 20
86.211924
 30
0.0
  0
SPLINE
  5
355
100
AcDbEntity
  8
Layer_1
 62
7
100
AcDbSpline
 70
8
 71
3
 72
8
 73
4
 74
0
 40
0
 40
0
 40
0
 40
0
 40
1
 40
1
 40
1
 40
1
 10
-76.094452
 20
86.211924
 30
0.0
 10
-67.870981
 20
71.867868
 30
0.0
 10
-64.910379
 20
68.157700
 30
0.0
 10
-62.243910
 20
68.855052
 30
0.0
  0
SPLINE
  5
356
100
AcDbEntity
  8
Layer_1
 62
7
100
AcDbSpline
 70
8
 71
3
 72
8
 73
4
 74
0
 40
0
 40
0
 40
0
 40
0
 40
1
 40
1
 40
1
 40
1
 10
-62.243910
 20
68.855052
 30
0.0
 10
-59.462730
 20
69.582332
 30
0.0
 10
-59.257886
 20
69.253436
 30
0.0
 10
-61.105410
 20
67.027276
 30
0.0
  0
SPLINE
  5
357
100
AcDbEntity
  8
Layer_1
 62
7
100
AcDbSpline
 70
8
 71
3
 72
8
 73
4
 74
0
 40
0
 40
0
 40
0
 40
0
 40
1
 40
1
 40
1
 40
1
 10
-61.105410
 20
67.027276
 30
0.0
 10
-62.831004
 20
64.948108
 30
0.0
 10
-62.850457
 20
63.198164
 30
0.0
 10
-61.188437
 20
59.550748
 30
0.0
  0
SPLINE
  5
358
100
AcDbEntity
  8
Layer_1
 62
7
100
AcDbSpline
 70
8
 71
3
 72
8
 73
4
 74
0
 40
0
 40
0
 40
0
 40
0
 40
1
 40
1
 40
1
 40
1
 10
-61.188437
 20
59.550748
 30
0.0
 10
-56.369528
 20
48.974364
 30
0.0
 10
-64.844886
 20
48.442940
 30
0.0
 10
-74.854599
 20
58.693876
 30
0.0
  0
LWPOLYLINE
  5
359
100
AcDbEntity
  8
Layer_1
 62
7
100
AcDbPolyline
 90
2
 70
0
 10
-732.138600
 20
66.089652
 30
0.0
 10
-732.138888
 20
66.089652
 30
0.0
  0
SPLINE
  5
35a
100
AcDbEntity
  8
Layer_1
 62
7
100
AcDbSpline
 70
8
 71
3
 72
8
 73
4
 74
0
 40
0
 40
0
 40
0
 40
0
 40
1
 40
1
 40
1
 40
1
 10
176.937424
 20
52.991452
 30
0.0
 10
174.850656
 20
54.313820
 30
0.0
 10
174.979784
 20
55.481044
 30
0.0
 10
177.666448
 20
59.581324
 30
0.0
  0
SPLINE
  5
35b
100
AcDbEntity
  8
Layer_1
 62
7
100
AcDbSpline
 70
8
 71
3
 72
8
 73
4
 74
0
 40
0
 40
0
 40
0
 40
0
 40
1
 40
1
 40
1
 40
1
 10
177.666448
 20
59.581324
 30
0.0
 10
180.794392
 20
64.355196
 30
0.0
 10
180.783032
 20
64.678196
 30
0.0
 10
177.396072
 20
67.276076
 30
0.0
  0
SPLINE
  5
35c
100
AcDbEntity
  8
Layer_1
 62
7
100
AcDbSpline
 70
8
 71
3
 72
8
 73
4
 74
0
 40
0
 40
0
 40
0
 40
0
 40
1
 40
1
 40
1
 40
1
 10
177.396072
 20
67.276076
 30
0.0
 10
174.014120
 20
69.870116
 30
0.0
 10
174.051032
 20
69.968532
 30
0.0
 10
178.246568
 20
69.544340
 30
0.0
  0
SPLINE
  5
35d
100
AcDbEntity
  8
Layer_1
 62
7
100
AcDbSpline
 70
8
 71
3
 72
8
 73
4
 74
0
 40
0
 40
0
 40
0
 40
0
 40
1
 40
1
 40
1
 40
1
 10
178.246568
 20
69.544340
 30
0.0
 10
181.981760
 20
69.166604
 30
0.0
 10
184.192320
 20
71.807036
 30
0.0
 10
193.146848
 20
87.342020
 30
0.0
  0
SPLINE
  5
35e
100
AcDbEntity
  8
Layer_1
 62
7
100
AcDbSpline
 70
8
 71
3
 72
8
 73
4
 74
0
 40
0
 40
0
 40
0
 40
0
 40
1
 40
1
 40
1
 40
1
 10
193.146848
 20
87.342020
 30
0.0
 10
198.929776
 20
97.374788
 30
0.0
 10
204.453792
 20
105.583348
 30
0.0
 10
205.422472
 20
105.583348
 30
0.0
  0
SPLINE
  5
35f
100
AcDbEntity
  8
Layer_1
 62
7
100
AcDbSpline
 70
8
 71
3
 72
8
 73
4
 74
0
 40
0
 40
0
 40
0
 40
0
 40
1
 40
1
 40
1
 40
1
 10
205.422472
 20
105.583348
 30
0.0
 10
206.391152
 20
105.583348
 30
0.0
 10
213.483096
 20
99.097284
 30
0.0
 10
221.182376
 20
91.169940
 30
0.0
  0
SPLINE
  5
360
100
AcDbEntity
  8
Layer_1
 62
7
100
AcDbSpline
 70
8
 71
3
 72
8
 73
4
 74
0
 40
0
 40
0
 40
0
 40
0
 40
1
 40
1
 40
1
 40
1
 10
221.182376
 20
91.169940
 30
0.0
 10
234.248760
 20
77.716372
 30
0.0
 10
236.513624
 20
72.525444
 30
0.0
 10
227.124824
 20
77.550108
 30
0.0
  0
SPLINE
  5
361
100
AcDbEntity
  8
Layer_1
 62
7
100
AcDbSpline
 70
8
 71
3
 72
8
 73
4
 74
0
 40
0
 40
0
 40
0
 40
0
 40
1
 40
1
 40
1
 40
1
 10
227.124824
 20
77.550108
 30
0.0
 10
221.586824
 20
80.514004
 30
0.0
 10
219.665448
 20
77.761444
 30
0.0
 10
224.842712
 20
74.280884
 30
0.0
  0
SPLINE
  5
362
100
AcDbEntity
  8
Layer_1
 62
7
100
AcDbSpline
 70
8
 71
3
 72
8
 73
4
 74
0
 40
0
 40
0
 40
0
 40
0
 40
1
 40
1
 40
1
 40
1
 10
224.842712
 20
74.280884
 30
0.0
 10
229.085072
 20
71.428644
 30
0.0
 10
230.350312
 20
67.317572
 30
0.0
 10
227.523400
 20
65.570412
 30
0.0
  0
SPLINE
  5
363
100
AcDbEntity
  8
Layer_1
 62
7
100
AcDbSpline
 70
8
 71
3
 72
8
 73
4
 74
0
 40
0
 40
0
 40
0
 40
0
 40
1
 40
1
 40
1
 40
1
 10
227.523400
 20
65.570412
 30
0.0
 10
226.682520
 20
65.050700
 30
0.0
 10
222.439120
 20
65.850452
 30
0.0
 10
218.093576
 20
67.347620
 30
0.0
  0
SPLINE
  5
364
100
AcDbEntity
  8
Layer_1
 62
7
100
AcDbSpline
 70
8
 71
3
 72
8
 73
4
 74
0
 40
0
 40
0
 40
0
 40
0
 40
1
 40
1
 40
1
 40
1
 10
218.093576
 20
67.347620
 30
0.0
 10
207.726040
 20
70.919524
 30
0.0
 10
202.822616
 20
69.451012
 30
0.0
 10
192.102016
 20
59.563452
 30
0.0
  0
SPLINE
  5
365
100
AcDbEntity
  8
Layer_1
 62
7
100
AcDbSpline
 70
8
 71
3
 72
8
 73
4
 74
0
 40
0
 40
0
 40
0
 40
0
 40
1
 40
1
 40
1
 40
1
 10
192.102016
 20
59.563452
 30
0.0
 10
182.864976
 20
51.044132
 30
0.0
 10
181.169904
 20
50.309580
 30
0.0
 10
176.937424
 20
52.991452
 30
0.0
  0
LWPOLYLINE
  5
366
100
AcDbEntity
  8
Layer_1
 62
7
100
AcDbPolyline
 90
2
 70
0
 10
-74.854599
 20
58.693876
 30
0.0
 10
-74.854731
 20
58.693876
 30
0.0
  0
SPLINE
  5
367
100
AcDbEntity
  8
Layer_1
 62
7
100
AcDbSpline
 70
8
 71
3
 72
8
 73
4
 74
0
 40
0
 40
0
 40
0
 40
0
 40
1
 40
1
 40
1
 40
1
 10
-298.053896
 20
68.693156
 30
0.0
 10
-304.474128
 20
77.149332
 30
0.0
 10
-316.439952
 20
92.811396
 30
0.0
 10
-324.644640
 20
103.497764
 30
0.0
  0
SPLINE
  5
368
100
AcDbEntity
  8
Layer_1
 62
7
100
AcDbSpline
 70
8
 71
3
 72
8
 73
4
 74
0
 40
0
 40
0
 40
0
 40
0
 40
1
 40
1
 40
1
 40
1
 10
-324.644640
 20
103.497764
 30
0.0
 10
-337.101032
 20
119.721916
 30
0.0
 10
-339.247904
 20
123.514804
 30
0.0
 10
-337.657248
 20
126.486940
 30
0.0
  0
SPLINE
  5
369
100
AcDbEntity
  8
Layer_1
 62
7
100
AcDbSpline
 70
8
 71
3
 72
8
 73
4
 74
0
 40
0
 40
0
 40
0
 40
0
 40
1
 40
1
 40
1
 40
1
 10
-337.657248
 20
126.486940
 30
0.0
 10
-336.609528
 20
128.444628
 30
0.0
 10
-336.238560
 20
131.578532
 30
0.0
 10
-336.832920
 20
133.451060
 30
0.0
  0
SPLINE
  5
36a
100
AcDbEntity
  8
Layer_1
 62
7
100
AcDbSpline
 70
8
 71
3
 72
8
 73
4
 74
0
 40
0
 40
0
 40
0
 40
0
 40
1
 40
1
 40
1
 40
1
 10
-336.832920
 20
133.451060
 30
0.0
 10
-337.639336
 20
135.991956
 30
0.0
 10
-334.287904
 20
140.100628
 30
0.0
 10
-323.622800
 20
149.645836
 30
0.0
  0
SPLINE
  5
36b
100
AcDbEntity
  8
Layer_1
 62
7
100
AcDbSpline
 70
8
 71
3
 72
8
 73
4
 74
0
 40
0
 40
0
 40
0
 40
0
 40
1
 40
1
 40
1
 40
1
 10
-323.622800
 20
149.645836
 30
0.0
 10
-310.550320
 20
161.345692
 30
0.0
 10
-308.606944
 20
162.449588
 30
0.0
 10
-300.825160
 20
162.595844
 30
0.0
  0
SPLINE
  5
36c
100
AcDbEntity
  8
Layer_1
 62
7
100
AcDbSpline
 70
8
 71
3
 72
8
 73
4
 74
0
 40
0
 40
0
 40
0
 40
0
 40
1
 40
1
 40
1
 40
1
 10
-300.825160
 20
162.595844
 30
0.0
 10
-292.347896
 20
162.755268
 30
0.0
 10
-292.208384
 20
162.652004
 30
0.0
 10
-260.818256
 20
133.088156
 30
0.0
  0
SPLINE
  5
36d
100
AcDbEntity
  8
Layer_1
 62
7
100
AcDbSpline
 70
8
 71
3
 72
8
 73
4
 74
0
 40
0
 40
0
 40
0
 40
0
 40
1
 40
1
 40
1
 40
1
 10
-260.818256
 20
133.088156
 30
0.0
 10
-237.668000
 20
111.284572
 30
0.0
 10
-229.318288
 20
102.271780
 30
0.0
 10
-229.318288
 20
99.086468
 30
0.0
  0
SPLINE
  5
36e
100
AcDbEntity
  8
Layer_1
 62
7
100
AcDbSpline
 70
8
 71
3
 72
8
 73
4
 74
0
 40
0
 40
0
 40
0
 40
0
 40
1
 40
1
 40
1
 40
1
 10
-229.318288
 20
99.086468
 30
0.0
 10
-229.318288
 20
95.920140
 30
0.0
 10
-235.494152
 20
89.159412
 30
0.0
 10
-252.236816
 20
73.997332
 30
0.0
  0
SPLINE
  5
36f
100
AcDbEntity
  8
Layer_1
 62
7
100
AcDbSpline
 70
8
 71
3
 72
8
 73
4
 74
0
 40
0
 40
0
 40
0
 40
0
 40
1
 40
1
 40
1
 40
1
 10
-252.236816
 20
73.997332
 30
0.0
 10
-281.603712
 20
47.402732
 30
0.0
 10
-281.866216
 20
47.372284
 30
0.0
 10
-298.053896
 20
68.693156
 30
0.0
  0
LWPOLYLINE
  5
370
100
AcDbEntity
  8
Layer_1
 62
7
100
AcDbPolyline
 90
2
 70
0
 10
176.937424
 20
52.991452
 30
0.0
 10
176.937424
 20
52.991452
 30
0.0
  0
SPLINE
  5
371
100
AcDbEntity
  8
Layer_1
 62
7
100
AcDbSpline
 70
8
 71
3
 72
8
 73
4
 74
0
 40
0
 40
0
 40
0
 40
0
 40
1
 40
1
 40
1
 40
1
 10
-315.847424
 20
145.340012
 30
0.0
 10
-316.730280
 20
147.988628
 30
0.0
 10
-319.738856
 20
147.697428
 30
0.0
 10
-320.680568
 20
144.872260
 30
0.0
  0
SPLINE
  5
372
100
AcDbEntity
  8
Layer_1
 62
7
100
AcDbSpline
 70
8
 71
3
 72
8
 73
4
 74
0
 40
0
 40
0
 40
0
 40
0
 40
1
 40
1
 40
1
 40
1
 10
-320.680568
 20
144.872260
 30
0.0
 10
-321.023576
 20
143.843236
 30
0.0
 10
-319.901048
 20
143.001364
 30
0.0
 10
-318.186048
 20
143.001364
 30
0.0
  0
SPLINE
  5
373
100
AcDbEntity
  8
Layer_1
 62
7
100
AcDbSpline
 70
8
 71
3
 72
8
 73
4
 74
0
 40
0
 40
0
 40
0
 40
0
 40
1
 40
1
 40
1
 40
1
 10
-318.186048
 20
143.001364
 30
0.0
 10
-316.471048
 20
143.001364
 30
0.0
 10
-315.418664
 20
144.053756
 30
0.0
 10
-315.847424
 20
145.340012
 30
0.0
  0
LWPOLYLINE
  5
374
100
AcDbEntity
  8
Layer_1
 62
7
100
AcDbPolyline
 90
2
 70
0
 10
-298.053896
 20
68.693156
 30
0.0
 10
-298.053896
 20
68.693156
 30
0.0
  0
SPLINE
  5
375
100
AcDbEntity
  8
Layer_1
 62
7
100
AcDbSpline
 70
8
 71
3
 72
8
 73
4
 74
0
 40
0
 40
0
 40
0
 40
0
 40
1
 40
1
 40
1
 40
1
 10
-489.373400
 20
82.903524
 30
0.0
 10
-489.373400
 20
84.835484
 30
0.0
 10
-490.720960
 20
87.534628
 30
0.0
 10
-492.367992
 20
88.901476
 30
0.0
  0
SPLINE
  5
376
100
AcDbEntity
  8
Layer_1
 62
7
100
AcDbSpline
 70
8
 71
3
 72
8
 73
4
 74
0
 40
0
 40
0
 40
0
 40
0
 40
1
 40
1
 40
1
 40
1
 10
-492.367992
 20
88.901476
 30
0.0
 10
-494.870264
 20
90.978188
 30
0.0
 10
-496.715640
 20
90.900156
 30
0.0
 10
-503.593384
 20
88.426972
 30
0.0
  0
LWPOLYLINE
  5
377
100
AcDbEntity
  8
Layer_1
 62
7
100
AcDbPolyline
 90
2
 70
0
 10
-315.847424
 20
145.340012
 30
0.0
 10
-315.847424
 20
145.340012
 30
0.0
  0
SPLINE
  5
378
100
AcDbEntity
  8
Layer_1
 62
7
100
AcDbSpline
 70
8
 71
3
 72
8
 73
4
 74
0
 40
0
 40
0
 40
0
 40
0
 40
1
 40
1
 40
1
 40
1
 10
-511.824200
 20
90.704500
 30
0.0
 10
-511.824200
 20
96.296188
 30
0.0
 10
-503.757656
 20
107.454244
 30
0.0
 10
-499.715256
 20
107.454244
 30
0.0
  0
SPLINE
  5
379
100
AcDbEntity
  8
Layer_1
 62
7
100
AcDbSpline
 70
8
 71
3
 72
8
 73
4
 74
0
 40
0
 40
0
 40
0
 40
0
 40
1
 40
1
 40
1
 40
1
 10
-499.715256
 20
107.454244
 30
0.0
 10
-498.383256
 20
107.454244
 30
0.0
 10
-496.853104
 20
105.770412
 30
0.0
 10
-496.314912
 20
103.712452
 30
0.0
  0
SPLINE
  5
37a
100
AcDbEntity
  8
Layer_1
 62
7
100
AcDbSpline
 70
8
 71
3
 72
8
 73
4
 74
0
 40
0
 40
0
 40
0
 40
0
 40
1
 40
1
 40
1
 40
1
 10
-496.314912
 20
103.712452
 30
0.0
 10
-494.923552
 20
98.391884
 30
0.0
 10
-491.244312
 20
99.070668
 30
0.0
 10
-491.244312
 20
104.647956
 30
0.0
  0
SPLINE
  5
37b
100
AcDbEntity
  8
Layer_1
 62
7
100
AcDbSpline
 70
8
 71
3
 72
8
 73
4
 74
0
 40
0
 40
0
 40
0
 40
0
 40
1
 40
1
 40
1
 40
1
 10
-491.244312
 20
104.647956
 30
0.0
 10
-491.244312
 20
110.011164
 30
0.0
 10
-488.279344
 20
110.596516
 30
0.0
 10
-482.306104
 20
106.412780
 30
0.0
  0
SPLINE
  5
37c
100
AcDbEntity
  8
Layer_1
 62
7
100
AcDbSpline
 70
8
 71
3
 72
8
 73
4
 74
0
 40
0
 40
0
 40
0
 40
0
 40
1
 40
1
 40
1
 40
1
 10
-482.306104
 20
106.412780
 30
0.0
 10
-476.378416
 20
102.260868
 30
0.0
 10
-477.134392
 20
100.303172
 30
0.0
 10
-485.163888
 20
99.012220
 30
0.0
  0
SPLINE
  5
37d
100
AcDbEntity
  8
Layer_1
 62
7
100
AcDbSpline
 70
8
 71
3
 72
8
 73
4
 74
0
 40
0
 40
0
 40
0
 40
0
 40
1
 40
1
 40
1
 40
1
 10
-485.163888
 20
99.012220
 30
0.0
 10
-498.451128
 20
96.875828
 30
0.0
 10
-500.748424
 20
96.113628
 30
0.0
 10
-499.583000
 20
94.227956
 30
0.0
  0
SPLINE
  5
37e
100
AcDbEntity
  8
Layer_1
 62
7
100
AcDbSpline
 70
8
 71
3
 72
8
 73
4
 74
0
 40
0
 40
0
 40
0
 40
0
 40
1
 40
1
 40
1
 40
1
 10
-499.583000
 20
94.227956
 30
0.0
 10
-498.862720
 20
93.062516
 30
0.0
 10
-494.166632
 20
92.817356
 30
0.0
 10
-487.345656
 20
93.589044
 30
0.0
  0
LWPOLYLINE
  5
37f
100
AcDbEntity
  8
Layer_1
 62
7
100
AcDbPolyline
 90
3
 70
0
 10
-503.593384
 20
88.426972
 30
0.0
 10
-511.824200
 20
85.467180
 30
0.0
 10
-511.824200
 20
90.704500
 30
0.0
  0
SPLINE
  5
380
100
AcDbEntity
  8
Layer_1
 62
7
100
AcDbSpline
 70
8
 71
3
 72
8
 73
4
 74
0
 40
0
 40
0
 40
0
 40
0
 40
1
 40
1
 40
1
 40
1
 10
-476.277104
 20
89.361156
 30
0.0
 10
-476.277104
 20
82.770748
 30
0.0
 10
-479.258064
 20
79.390796
 30
0.0
 10
-485.070336
 20
79.390796
 30
0.0
  0
SPLINE
  5
381
100
AcDbEntity
  8
Layer_1
 62
7
100
AcDbSpline
 70
8
 71
3
 72
8
 73
4
 74
0
 40
0
 40
0
 40
0
 40
0
 40
1
 40
1
 40
1
 40
1
 10
-485.070336
 20
79.390796
 30
0.0
 10
-488.032608
 20
79.390796
 30
0.0
 10
-489.373400
 20
80.485340
 30
0.0
 10
-489.373400
 20
82.903524
 30
0.0
  0
LWPOLYLINE
  5
382
100
AcDbEntity
  8
Layer_1
 62
7
100
AcDbPolyline
 90
3
 70
0
 10
-487.345656
 20
93.589044
 30
0.0
 10
-476.277104
 20
94.841236
 30
0.0
 10
-476.277104
 20
89.361156
 30
0.0
  0
SPLINE
  5
383
100
AcDbEntity
  8
Layer_1
 62
7
100
AcDbSpline
 70
8
 71
3
 72
8
 73
4
 74
0
 40
0
 40
0
 40
0
 40
0
 40
1
 40
1
 40
1
 40
1
 10
-199.851616
 20
85.146828
 30
0.0
 10
-202.143152
 20
86.486012
 30
0.0
 10
-203.128808
 20
89.418540
 30
0.0
 10
-203.136120
 20
94.918644
 30
0.0
  0
SPLINE
  5
384
100
AcDbEntity
  8
Layer_1
 62
7
100
AcDbSpline
 70
8
 71
3
 72
8
 73
4
 74
0
 40
0
 40
0
 40
0
 40
0
 40
1
 40
1
 40
1
 40
1
 10
-203.136120
 20
94.918644
 30
0.0
 10
-203.149160
 20
105.213932
 30
0.0
 10
-206.182304
 20
115.797756
 30
0.0
 10
-211.558776
 20
124.314644
 30
0.0
  0
SPLINE
  5
385
100
AcDbEntity
  8
Layer_1
 62
7
100
AcDbSpline
 70
8
 71
3
 72
8
 73
4
 74
0
 40
0
 40
0
 40
0
 40
0
 40
1
 40
1
 40
1
 40
1
 10
-211.558776
 20
124.314644
 30
0.0
 10
-215.775216
 20
130.993900
 30
0.0
 10
-215.815248
 20
131.453380
 30
0.0
 10
-212.941600
 20
140.182220
 30
0.0
  0
SPLINE
  5
386
100
AcDbEntity
  8
Layer_1
 62
7
100
AcDbSpline
 70
8
 71
3
 72
8
 73
4
 74
0
 40
0
 40
0
 40
0
 40
0
 40
1
 40
1
 40
1
 40
1
 10
-212.941600
 20
140.182220
 30
0.0
 10
-210.506720
 20
147.578292
 30
0.0
 10
-210.369400
 20
150.618772
 30
0.0
 10
-212.166688
 20
157.338612
 30
0.0
  0
SPLINE
  5
387
100
AcDbEntity
  8
Layer_1
 62
7
100
AcDbSpline
 70
8
 71
3
 72
8
 73
4
 74
0
 40
0
 40
0
 40
0
 40
0
 40
1
 40
1
 40
1
 40
1
 10
-212.166688
 20
157.338612
 30
0.0
 10
-215.074512
 20
168.210676
 30
0.0
 10
-214.958984
 20
169.194012
 30
0.0
 10
-210.773736
 20
169.194012
 30
0.0
  0
SPLINE
  5
388
100
AcDbEntity
  8
Layer_1
 62
7
100
AcDbSpline
 70
8
 71
3
 72
8
 73
4
 74
0
 40
0
 40
0
 40
0
 40
0
 40
1
 40
1
 40
1
 40
1
 10
-210.773736
 20
169.194012
 30
0.0
 10
-208.058144
 20
169.194012
 30
0.0
 10
-206.891800
 20
170.996772
 30
0.0
 10
-205.932032
 20
176.677588
 30
0.0
  0
SPLINE
  5
389
100
AcDbEntity
  8
Layer_1
 62
7
100
AcDbSpline
 70
8
 71
3
 72
8
 73
4
 74
0
 40
0
 40
0
 40
0
 40
0
 40
1
 40
1
 40
1
 40
1
 10
-205.932032
 20
176.677588
 30
0.0
 10
-204.727960
 20
183.804396
 30
0.0
 10
-201.254784
 20
187.277532
 30
0.0
 10
-201.254784
 20
181.354780
 30
0.0
  0
SPLINE
  5
38a
100
AcDbEntity
  8
Layer_1
 62
7
100
AcDbSpline
 70
8
 71
3
 72
8
 73
4
 74
0
 40
0
 40
0
 40
0
 40
0
 40
1
 40
1
 40
1
 40
1
 10
-201.254784
 20
181.354780
 30
0.0
 10
-201.254784
 20
179.811284
 30
0.0
 10
-200.412880
 20
178.548484
 30
0.0
 10
-199.383888
 20
178.548484
 30
0.0
  0
SPLINE
  5
38b
100
AcDbEntity
  8
Layer_1
 62
7
100
AcDbSpline
 70
8
 71
3
 72
8
 73
4
 74
0
 40
0
 40
0
 40
0
 40
0
 40
1
 40
1
 40
1
 40
1
 10
-199.383888
 20
178.548484
 30
0.0
 10
-198.354888
 20
178.548484
 30
0.0
 10
-197.512976
 20
179.881460
 30
0.0
 10
-197.512976
 20
181.510732
 30
0.0
  0
SPLINE
  5
38c
100
AcDbEntity
  8
Layer_1
 62
7
100
AcDbSpline
 70
8
 71
3
 72
8
 73
4
 74
0
 40
0
 40
0
 40
0
 40
0
 40
1
 40
1
 40
1
 40
1
 10
-197.512976
 20
181.510732
 30
0.0
 10
-197.512976
 20
186.893108
 30
0.0
 10
-192.847392
 20
183.054628
 30
0.0
 10
-192.263712
 20
177.192156
 30
0.0
  0
SPLINE
  5
38d
100
AcDbEntity
  8
Layer_1
 62
7
100
AcDbSpline
 70
8
 71
3
 72
8
 73
4
 74
0
 40
0
 40
0
 40
0
 40
0
 40
1
 40
1
 40
1
 40
1
 10
-192.263712
 20
177.192156
 30
0.0
 10
-191.537024
 20
169.893284
 30
0.0
 10
-189.142040
 20
169.245108
 30
0.0
 10
-162.901328
 20
169.245108
 30
0.0
  0
SPLINE
  5
38e
100
AcDbEntity
  8
Layer_1
 62
7
100
AcDbSpline
 70
8
 71
3
 72
8
 73
4
 74
0
 40
0
 40
0
 40
0
 40
0
 40
1
 40
1
 40
1
 40
1
 10
-162.901328
 20
169.245108
 30
0.0
 10
-136.518008
 20
169.245108
 30
0.0
 10
-134.554816
 20
169.806900
 30
0.0
 10
-133.058056
 20
177.785260
 30
0.0
  0
SPLINE
  5
38f
100
AcDbEntity
  8
Layer_1
 62
7
100
AcDbSpline
 70
8
 71
3
 72
8
 73
4
 74
0
 40
0
 40
0
 40
0
 40
0
 40
1
 40
1
 40
1
 40
1
 10
-133.058056
 20
177.785260
 30
0.0
 10
-131.874984
 20
184.091612
 30
0.0
 10
-128.289680
 20
186.775516
 30
0.0
 10
-128.289680
 20
181.354780
 30
0.0
  0
SPLINE
  5
390
100
AcDbEntity
  8
Layer_1
 62
7
100
AcDbSpline
 70
8
 71
3
 72
8
 73
4
 74
0
 40
0
 40
0
 40
0
 40
0
 40
1
 40
1
 40
1
 40
1
 10
-128.289680
 20
181.354780
 30
0.0
 10
-128.289680
 20
179.811284
 30
0.0
 10
-127.026824
 20
178.548484
 30
0.0
 10
-125.483336
 20
178.548484
 30
0.0
  0
SPLINE
  5
391
100
AcDbEntity
  8
Layer_1
 62
7
100
AcDbSpline
 70
8
 71
3
 72
8
 73
4
 74
0
 40
0
 40
0
 40
0
 40
0
 40
1
 40
1
 40
1
 40
1
 10
-125.483336
 20
178.548484
 30
0.0
 10
-123.939840
 20
178.548484
 30
0.0
 10
-122.676984
 20
179.979684
 30
0.0
 10
-122.676984
 20
181.728996
 30
0.0
  0
SPLINE
  5
392
100
AcDbEntity
  8
Layer_1
 62
7
100
AcDbSpline
 70
8
 71
3
 72
8
 73
4
 74
0
 40
0
 40
0
 40
0
 40
0
 40
1
 40
1
 40
1
 40
1
 10
-122.676984
 20
181.728996
 30
0.0
 10
-122.676984
 20
186.949308
 30
0.0
 10
-119.289104
 20
181.960420
 30
0.0
 10
-118.611424
 20
175.742092
 30
0.0
  0
SPLINE
  5
393
100
AcDbEntity
  8
Layer_1
 62
7
100
AcDbSpline
 70
8
 71
3
 72
8
 73
4
 74
0
 40
0
 40
0
 40
0
 40
0
 40
1
 40
1
 40
1
 40
1
 10
-118.611424
 20
175.742092
 30
0.0
 10
-118.150896
 20
171.516436
 30
0.0
 10
-116.924136
 20
169.977028
 30
0.0
 10
-113.647176
 20
169.512844
 30
0.0
  0
SPLINE
  5
394
100
AcDbEntity
  8
Layer_1
 62
7
100
AcDbSpline
 70
8
 71
3
 72
8
 73
4
 74
0
 40
0
 40
0
 40
0
 40
0
 40
1
 40
1
 40
1
 40
1
 10
-113.647176
 20
169.512844
 30
0.0
 10
-110.340008
 20
169.044380
 30
0.0
 10
-109.638848
 20
168.145604
 30
0.0
 10
-110.727856
 20
165.771052
 30
0.0
  0
SPLINE
  5
395
100
AcDbEntity
  8
Layer_1
 62
7
100
AcDbSpline
 70
8
 71
3
 72
8
 73
4
 74
0
 40
0
 40
0
 40
0
 40
0
 40
1
 40
1
 40
1
 40
1
 10
-110.727856
 20
165.771052
 30
0.0
 10
-113.266088
 20
160.236492
 30
0.0
 10
-113.727768
 20
141.641772
 30
0.0
 10
-111.433408
 20
137.354716
 30
0.0
  0
SPLINE
  5
396
100
AcDbEntity
  8
Layer_1
 62
7
100
AcDbSpline
 70
8
 71
3
 72
8
 73
4
 74
0
 40
0
 40
0
 40
0
 40
0
 40
1
 40
1
 40
1
 40
1
 10
-111.433408
 20
137.354716
 30
0.0
 10
-109.566600
 20
133.866588
 30
0.0
 10
-110.120304
 20
131.478172
 30
0.0
 10
-115.051416
 20
121.748452
 30
0.0
  0
SPLINE
  5
397
100
AcDbEntity
  8
Layer_1
 62
7
100
AcDbSpline
 70
8
 71
3
 72
8
 73
4
 74
0
 40
0
 40
0
 40
0
 40
0
 40
1
 40
1
 40
1
 40
1
 10
-115.051416
 20
121.748452
 30
0.0
 10
-119.045792
 20
113.867092
 30
0.0
 10
-121.240368
 20
106.309052
 30
0.0
 10
-122.041944
 20
97.673532
 30
0.0
  0
SPLINE
  5
398
100
AcDbEntity
  8
Layer_1
 62
7
100
AcDbSpline
 70
8
 71
3
 72
8
 73
4
 74
0
 40
0
 40
0
 40
0
 40
0
 40
1
 40
1
 40
1
 40
1
 10
-122.041944
 20
97.673532
 30
0.0
 10
-123.289944
 20
84.228540
 30
0.0
 10
-126.237720
 20
80.901468
 30
0.0
 10
-133.471792
 20
84.773004
 30
0.0
  0
SPLINE
  5
399
100
AcDbEntity
  8
Layer_1
 62
7
100
AcDbSpline
 70
8
 71
3
 72
8
 73
4
 74
0
 40
0
 40
0
 40
0
 40
0
 40
1
 40
1
 40
1
 40
1
 10
-133.471792
 20
84.773004
 30
0.0
 10
-141.899656
 20
89.283516
 30
0.0
 10
-182.341672
 20
89.015188
 30
0.0
 10
-193.771184
 20
84.373092
 30
0.0
  0
SPLINE
  5
39a
100
AcDbEntity
  8
Layer_1
 62
7
100
AcDbSpline
 70
8
 71
3
 72
8
 73
4
 74
0
 40
0
 40
0
 40
0
 40
0
 40
1
 40
1
 40
1
 40
1
 10
-193.771184
 20
84.373092
 30
0.0
 10
-195.314680
 20
83.746092
 30
0.0
 10
-198.050872
 20
84.094308
 30
0.0
 10
-199.851616
 20
85.146828
 30
0.0
  0
LWPOLYLINE
  5
39b
100
AcDbEntity
  8
Layer_1
 62
7
100
AcDbPolyline
 90
2
 70
0
 10
-489.373400
 20
82.903524
 30
0.0
 10
-489.373400
 20
82.903524
 30
0.0
  0
SPLINE
  5
39c
100
AcDbEntity
  8
Layer_1
 62
7
100
AcDbSpline
 70
8
 71
3
 72
8
 73
4
 74
0
 40
0
 40
0
 40
0
 40
0
 40
1
 40
1
 40
1
 40
1
 10
249.151432
 20
84.236876
 30
0.0
 10
248.386840
 20
85.001548
 30
0.0
 10
247.761240
 20
88.256540
 30
0.0
 10
247.761240
 20
91.470364
 30
0.0
  0
SPLINE
  5
39d
100
AcDbEntity
  8
Layer_1
 62
7
100
AcDbSpline
 70
8
 71
3
 72
8
 73
4
 74
0
 40
0
 40
0
 40
0
 40
0
 40
1
 40
1
 40
1
 40
1
 10
247.761240
 20
91.470364
 30
0.0
 10
247.761240
 20
100.457692
 30
0.0
 10
242.524968
 20
118.508884
 30
0.0
 10
238.125784
 20
124.686932
 30
0.0
  0
SPLINE
  5
39e
100
AcDbEntity
  8
Layer_1
 62
7
100
AcDbSpline
 70
8
 71
3
 72
8
 73
4
 74
0
 40
0
 40
0
 40
0
 40
0
 40
1
 40
1
 40
1
 40
1
 10
238.125784
 20
124.686932
 30
0.0
 10
234.577832
 20
129.669588
 30
0.0
 10
234.412168
 20
130.953812
 30
0.0
 10
236.500840
 20
137.282604
 30
0.0
  0
SPLINE
  5
39f
100
AcDbEntity
  8
Layer_1
 62
7
100
AcDbSpline
 70
8
 71
3
 72
8
 73
4
 74
0
 40
0
 40
0
 40
0
 40
0
 40
1
 40
1
 40
1
 40
1
 10
236.500840
 20
137.282604
 30
0.0
 10
238.773088
 20
144.167580
 30
0.0
 10
238.374512
 20
156.557228
 30
0.0
 10
235.609640
 20
164.984468
 30
0.0
  0
SPLINE
  5
3a0
100
AcDbEntity
  8
Layer_1
 62
7
100
AcDbSpline
 70
8
 71
3
 72
8
 73
4
 74
0
 40
0
 40
0
 40
0
 40
0
 40
1
 40
1
 40
1
 40
1
 10
235.609640
 20
164.984468
 30
0.0
 10
234.413808
 20
168.629260
 30
0.0
 10
234.885280
 20
169.194012
 30
0.0
 10
239.123992
 20
169.194012
 30
0.0
  0
SPLINE
  5
3a1
100
AcDbEntity
  8
Layer_1
 62
7
100
AcDbSpline
 70
8
 71
3
 72
8
 73
4
 74
0
 40
0
 40
0
 40
0
 40
0
 40
1
 40
1
 40
1
 40
1
 10
239.123992
 20
169.194012
 30
0.0
 10
243.455536
 20
169.194012
 30
0.0
 10
244.019440
 20
169.935516
 30
0.0
 10
244.019440
 20
175.631732
 30
0.0
  0
SPLINE
  5
3a2
100
AcDbEntity
  8
Layer_1
 62
7
100
AcDbSpline
 70
8
 71
3
 72
8
 73
4
 74
0
 40
0
 40
0
 40
0
 40
0
 40
1
 40
1
 40
1
 40
1
 10
244.019440
 20
175.631732
 30
0.0
 10
244.019440
 20
183.227612
 30
0.0
 10
246.830208
 20
185.915484
 30
0.0
 10
248.514728
 20
179.930620
 30
0.0
  0
SPLINE
  5
3a3
100
AcDbEntity
  8
Layer_1
 62
7
100
AcDbSpline
 70
8
 71
3
 72
8
 73
4
 74
0
 40
0
 40
0
 40
0
 40
0
 40
1
 40
1
 40
1
 40
1
 10
248.514728
 20
179.930620
 30
0.0
 10
249.665968
 20
175.840420
 30
0.0
 10
249.758336
 20
175.826748
 30
0.0
 10
252.449904
 20
179.347316
 30
0.0
  0
SPLINE
  5
3a4
100
AcDbEntity
  8
Layer_1
 62
7
100
AcDbSpline
 70
8
 71
3
 72
8
 73
4
 74
0
 40
0
 40
0
 40
0
 40
0
 40
1
 40
1
 40
1
 40
1
 10
252.449904
 20
179.347316
 30
0.0
 10
255.744544
 20
183.656708
 30
0.0
 10
257.135312
 20
182.667460
 30
0.0
 10
257.885920
 20
175.480580
 30
0.0
  0
SPLINE
  5
3a5
100
AcDbEntity
  8
Layer_1
 62
7
100
AcDbSpline
 70
8
 71
3
 72
8
 73
4
 74
0
 40
0
 40
0
 40
0
 40
0
 40
1
 40
1
 40
1
 40
1
 10
257.885920
 20
175.480580
 30
0.0
 10
258.433176
 20
170.240684
 30
0.0
 10
258.757456
 20
170.095340
 30
0.0
 10
273.488384
 20
168.488204
 30
0.0
  0
SPLINE
  5
3a6
100
AcDbEntity
  8
Layer_1
 62
7
100
AcDbSpline
 70
8
 71
3
 72
8
 73
4
 74
0
 40
0
 40
0
 40
0
 40
0
 40
1
 40
1
 40
1
 40
1
 10
273.488384
 20
168.488204
 30
0.0
 10
281.762368
 20
167.585548
 30
0.0
 10
294.933800
 20
167.446932
 30
0.0
 10
302.758256
 20
168.180076
 30
0.0
  0
SPLINE
  5
3a7
100
AcDbEntity
  8
Layer_1
 62
7
100
AcDbSpline
 70
8
 71
3
 72
8
 73
4
 74
0
 40
0
 40
0
 40
0
 40
0
 40
1
 40
1
 40
1
 40
1
 10
302.758256
 20
168.180076
 30
0.0
 10
316.576696
 20
169.475004
 30
0.0
 10
316.985368
 20
169.656148
 30
0.0
 10
317.013192
 20
174.498572
 30
0.0
  0
SPLINE
  5
3a8
100
AcDbEntity
  8
Layer_1
 62
7
100
AcDbSpline
 70
8
 71
3
 72
8
 73
4
 74
0
 40
0
 40
0
 40
0
 40
0
 40
1
 40
1
 40
1
 40
1
 10
317.013192
 20
174.498572
 30
0.0
 10
317.055992
 20
181.953900
 30
0.0
 10
319.901576
 20
185.566564
 30
0.0
 10
321.432984
 20
180.109828
 30
0.0
  0
SPLINE
  5
3a9
100
AcDbEntity
  8
Layer_1
 62
7
100
AcDbSpline
 70
8
 71
3
 72
8
 73
4
 74
0
 40
0
 40
0
 40
0
 40
0
 40
1
 40
1
 40
1
 40
1
 10
321.432984
 20
180.109828
 30
0.0
 10
322.574496
 20
176.042364
 30
0.0
 10
322.831544
 20
175.967196
 30
0.0
 10
325.172880
 20
179.016236
 30
0.0
  0
SPLINE
  5
3aa
100
AcDbEntity
  8
Layer_1
 62
7
100
AcDbSpline
 70
8
 71
3
 72
8
 73
4
 74
0
 40
0
 40
0
 40
0
 40
0
 40
1
 40
1
 40
1
 40
1
 10
325.172880
 20
179.016236
 30
0.0
 10
328.759528
 20
183.686996
 30
0.0
 10
329.751368
 20
183.142756
 30
0.0
 10
331.139744
 20
175.742092
 30
0.0
  0
SPLINE
  5
3ab
100
AcDbEntity
  8
Layer_1
 62
7
100
AcDbSpline
 70
8
 71
3
 72
8
 73
4
 74
0
 40
0
 40
0
 40
0
 40
0
 40
1
 40
1
 40
1
 40
1
 10
331.139744
 20
175.742092
 30
0.0
 10
332.028712
 20
171.003508
 30
0.0
 10
333.344632
 20
169.194012
 30
0.0
 10
335.901760
 20
169.194012
 30
0.0
  0
SPLINE
  5
3ac
100
AcDbEntity
  8
Layer_1
 62
7
100
AcDbSpline
 70
8
 71
3
 72
8
 73
4
 74
0
 40
0
 40
0
 40
0
 40
0
 40
1
 40
1
 40
1
 40
1
 10
335.901760
 20
169.194012
 30
0.0
 10
339.980560
 20
169.194012
 30
0.0
 10
340.297104
 20
166.611700
 30
0.0
 10
337.279400
 20
157.955076
 30
0.0
  0
SPLINE
  5
3ad
100
AcDbEntity
  8
Layer_1
 62
7
100
AcDbSpline
 70
8
 71
3
 72
8
 73
4
 74
0
 40
0
 40
0
 40
0
 40
0
 40
1
 40
1
 40
1
 40
1
 10
337.279400
 20
157.955076
 30
0.0
 10
335.637080
 20
153.243916
 30
0.0
 10
335.664528
 20
149.048252
 30
0.0
 10
337.394648
 20
140.344188
 30
0.0
  0
SPLINE
  5
3ae
100
AcDbEntity
  8
Layer_1
 62
7
100
AcDbSpline
 70
8
 71
3
 72
8
 73
4
 74
0
 40
0
 40
0
 40
0
 40
0
 40
1
 40
1
 40
1
 40
1
 10
337.394648
 20
140.344188
 30
0.0
 10
339.588848
 20
129.305164
 30
0.0
 10
339.490656
 20
128.604356
 30
0.0
 10
334.497888
 20
119.671316
 30
0.0
  0
SPLINE
  5
3af
100
AcDbEntity
  8
Layer_1
 62
7
100
AcDbSpline
 70
8
 71
3
 72
8
 73
4
 74
0
 40
0
 40
0
 40
0
 40
0
 40
1
 40
1
 40
1
 40
1
 10
334.497888
 20
119.671316
 30
0.0
 10
330.755304
 20
112.975140
 30
0.0
 10
329.046488
 20
106.790156
 30
0.0
 10
328.302224
 20
97.246476
 30
0.0
  0
LWPOLYLINE
  5
3b0
100
AcDbEntity
  8
Layer_1
 62
7
100
AcDbPolyline
 90
2
 70
0
 10
-199.851616
 20
85.146828
 30
0.0
 10
-199.851616
 20
85.146828
 30
0.0
  0
SPLINE
  5
3b1
100
AcDbEntity
  8
Layer_1
 62
7
100
AcDbSpline
 70
8
 71
3
 72
8
 73
4
 74
0
 40
0
 40
0
 40
0
 40
0
 40
1
 40
1
 40
1
 40
1
 10
320.726352
 20
84.688412
 30
0.0
 10
306.438216
 20
86.042020
 30
0.0
 10
261.463288
 20
85.829364
 30
0.0
 10
256.167304
 20
84.383084
 30
0.0
  0
SPLINE
  5
3b2
100
AcDbEntity
  8
Layer_1
 62
7
100
AcDbSpline
 70
8
 71
3
 72
8
 73
4
 74
0
 40
0
 40
0
 40
0
 40
0
 40
1
 40
1
 40
1
 40
1
 10
256.167304
 20
84.383084
 30
0.0
 10
253.073176
 20
83.538068
 30
0.0
 10
249.916040
 20
83.472340
 30
0.0
 10
249.151432
 20
84.236876
 30
0.0
  0
LWPOLYLINE
  5
3b3
100
AcDbEntity
  8
Layer_1
 62
7
100
AcDbPolyline
 90
3
 70
0
 10
328.302224
 20
97.246476
 30
0.0
 10
327.274496
 20
84.068036
 30
0.0
 10
320.726352
 20
84.688412
 30
0.0
  0
SPLINE
  5
3b4
100
AcDbEntity
  8
Layer_1
 62
7
100
AcDbSpline
 70
8
 71
3
 72
8
 73
4
 74
0
 40
0
 40
0
 40
0
 40
0
 40
1
 40
1
 40
1
 40
1
 10
-403.642456
 20
124.760060
 30
0.0
 10
-409.922864
 20
135.436388
 30
0.0
 10
-412.463824
 20
142.506284
 30
0.0
 10
-415.577808
 20
157.968532
 30
0.0
  0
SPLINE
  5
3b5
100
AcDbEntity
  8
Layer_1
 62
7
100
AcDbSpline
 70
8
 71
3
 72
8
 73
4
 74
0
 40
0
 40
0
 40
0
 40
0
 40
1
 40
1
 40
1
 40
1
 10
-415.577808
 20
157.968532
 30
0.0
 10
-418.007272
 20
170.031900
 30
0.0
 10
-418.883896
 20
178.465668
 30
0.0
 10
-417.849336
 20
179.822404
 30
0.0
  0
SPLINE
  5
3b6
100
AcDbEntity
  8
Layer_1
 62
7
100
AcDbSpline
 70
8
 71
3
 72
8
 73
4
 74
0
 40
0
 40
0
 40
0
 40
0
 40
1
 40
1
 40
1
 40
1
 10
-417.849336
 20
179.822404
 30
0.0
 10
-416.922744
 20
181.037580
 30
0.0
 10
-415.679296
 20
186.734308
 30
0.0
 10
-415.086072
 20
192.481828
 30
0.0
  0
SPLINE
  5
3b7
100
AcDbEntity
  8
Layer_1
 62
7
100
AcDbSpline
 70
8
 71
3
 72
8
 73
4
 74
0
 40
0
 40
0
 40
0
 40
0
 40
1
 40
1
 40
1
 40
1
 10
-415.086072
 20
192.481828
 30
0.0
 10
-414.195744
 20
201.108468
 30
0.0
 10
-413.319240
 20
203.090748
 30
0.0
 10
-410.062952
 20
203.842148
 30
0.0
  0
SPLINE
  5
3b8
100
AcDbEntity
  8
Layer_1
 62
7
100
AcDbSpline
 70
8
 71
3
 72
8
 73
4
 74
0
 40
0
 40
0
 40
0
 40
0
 40
1
 40
1
 40
1
 40
1
 10
-410.062952
 20
203.842148
 30
0.0
 10
-379.438064
 20
210.909380
 30
0.0
 10
-375.371088
 20
210.858076
 30
0.0
 10
-375.277144
 20
203.402956
 30
0.0
  0
SPLINE
  5
3b9
100
AcDbEntity
  8
Layer_1
 62
7
100
AcDbSpline
 70
8
 71
3
 72
8
 73
4
 74
0
 40
0
 40
0
 40
0
 40
0
 40
1
 40
1
 40
1
 40
1
 10
-375.277144
 20
203.402956
 30
0.0
 10
-375.262184
 20
202.152596
 30
0.0
 10
-372.724576
 20
198.254852
 30
0.0
 10
-369.639768
 20
194.741532
 30
0.0
  0
SPLINE
  5
3ba
100
AcDbEntity
  8
Layer_1
 62
7
100
AcDbSpline
 70
8
 71
3
 72
8
 73
4
 74
0
 40
0
 40
0
 40
0
 40
0
 40
1
 40
1
 40
1
 40
1
 10
-369.639768
 20
194.741532
 30
0.0
 10
-362.126792
 20
186.184652
 30
0.0
 10
-355.773104
 20
157.284860
 30
0.0
 10
-357.441936
 20
139.259572
 30
0.0
  0
SPLINE
  5
3bb
100
AcDbEntity
  8
Layer_1
 62
7
100
AcDbSpline
 70
8
 71
3
 72
8
 73
4
 74
0
 40
0
 40
0
 40
0
 40
0
 40
1
 40
1
 40
1
 40
1
 10
-357.441936
 20
139.259572
 30
0.0
 10
-359.573664
 20
116.234700
 30
0.0
 10
-358.519528
 20
117.670484
 30
0.0
 10
-375.812856
 20
114.237844
 30
0.0
  0
SPLINE
  5
3bc
100
AcDbEntity
  8
Layer_1
 62
7
100
AcDbSpline
 70
8
 71
3
 72
8
 73
4
 74
0
 40
0
 40
0
 40
0
 40
0
 40
1
 40
1
 40
1
 40
1
 10
-375.812856
 20
114.237844
 30
0.0
 10
-384.248904
 20
112.563284
 30
0.0
 10
-392.166400
 20
111.193796
 30
0.0
 10
-393.407256
 20
111.194612
 30
0.0
  0
SPLINE
  5
3bd
100
AcDbEntity
  8
Layer_1
 62
7
100
AcDbSpline
 70
8
 71
3
 72
8
 73
4
 74
0
 40
0
 40
0
 40
0
 40
0
 40
1
 40
1
 40
1
 40
1
 10
-393.407256
 20
111.194612
 30
0.0
 10
-394.648096
 20
111.195268
 30
0.0
 10
-399.253944
 20
117.299836
 30
0.0
 10
-403.642456
 20
124.760060
 30
0.0
  0
LWPOLYLINE
  5
3be
100
AcDbEntity
  8
Layer_1
 62
7
100
AcDbPolyline
 90
2
 70
0
 10
249.151432
 20
84.236876
 30
0.0
 10
249.151432
 20
84.236876
 30
0.0
  0
SPLINE
  5
3bf
100
AcDbEntity
  8
Layer_1
 62
7
100
AcDbSpline
 70
8
 71
3
 72
8
 73
4
 74
0
 40
0
 40
0
 40
0
 40
0
 40
1
 40
1
 40
1
 40
1
 10
-382.397408
 20
149.549556
 30
0.0
 10
-382.889856
 20
152.302300
 30
0.0
 10
-386.961976
 20
151.827108
 30
0.0
 10
-387.936624
 20
148.903108
 30
0.0
  0
SPLINE
  5
3c0
100
AcDbEntity
  8
Layer_1
 62
7
100
AcDbSpline
 70
8
 71
3
 72
8
 73
4
 74
0
 40
0
 40
0
 40
0
 40
0
 40
1
 40
1
 40
1
 40
1
 10
-387.936624
 20
148.903108
 30
0.0
 10
-388.474584
 20
147.289244
 30
0.0
 10
-387.571112
 20
146.617804
 30
0.0
 10
-385.419240
 20
147.032212
 30
0.0
  0
SPLINE
  5
3c1
100
AcDbEntity
  8
Layer_1
 62
7
100
AcDbSpline
 70
8
 71
3
 72
8
 73
4
 74
0
 40
0
 40
0
 40
0
 40
0
 40
1
 40
1
 40
1
 40
1
 10
-385.419240
 20
147.032212
 30
0.0
 10
-383.573160
 20
147.387772
 30
0.0
 10
-382.213344
 20
148.520524
 30
0.0
 10
-382.397408
 20
149.549556
 30
0.0
  0
LWPOLYLINE
  5
3c2
100
AcDbEntity
  8
Layer_1
 62
7
100
AcDbPolyline
 90
2
 70
0
 10
-403.642456
 20
124.760060
 30
0.0
 10
-403.642456
 20
124.760060
 30
0.0
  0
SPLINE
  5
3c3
100
AcDbEntity
  8
Layer_1
 62
7
100
AcDbSpline
 70
8
 71
3
 72
8
 73
4
 74
0
 40
0
 40
0
 40
0
 40
0
 40
1
 40
1
 40
1
 40
1
 10
-680.263760
 20
146.180756
 30
0.0
 10
-685.795040
 20
148.576932
 30
0.0
 10
-688.913784
 20
148.651892
 30
0.0
 10
-701.383224
 20
146.688388
 30
0.0
  0
SPLINE
  5
3c4
100
AcDbEntity
  8
Layer_1
 62
7
100
AcDbSpline
 70
8
 71
3
 72
8
 73
4
 74
0
 40
0
 40
0
 40
0
 40
0
 40
1
 40
1
 40
1
 40
1
 10
-701.383224
 20
146.688388
 30
0.0
 10
-709.767896
 20
145.368060
 30
0.0
 10
-716.647472
 20
145.087676
 30
0.0
 10
-717.499232
 20
146.031644
 30
0.0
  0
SPLINE
  5
3c5
100
AcDbEntity
  8
Layer_1
 62
7
100
AcDbSpline
 70
8
 71
3
 72
8
 73
4
 74
0
 40
0
 40
0
 40
0
 40
0
 40
1
 40
1
 40
1
 40
1
 10
-717.499232
 20
146.031644
 30
0.0
 10
-719.103112
 20
147.809108
 30
0.0
 10
-723.763216
 20
165.567060
 30
0.0
 10
-722.852440
 20
166.430756
 30
0.0
  0
SPLINE
  5
3c6
100
AcDbEntity
  8
Layer_1
 62
7
100
AcDbSpline
 70
8
 71
3
 72
8
 73
4
 74
0
 40
0
 40
0
 40
0
 40
0
 40
1
 40
1
 40
1
 40
1
 10
-722.852440
 20
166.430756
 30
0.0
 10
-722.275424
 20
166.977964
 30
0.0
 10
-637.977384
 20
176.694524
 30
0.0
 10
-633.900448
 20
176.683716
 30
0.0
  0
SPLINE
  5
3c7
100
AcDbEntity
  8
Layer_1
 62
7
100
AcDbSpline
 70
8
 71
3
 72
8
 73
4
 74
0
 40
0
 40
0
 40
0
 40
0
 40
1
 40
1
 40
1
 40
1
 10
-633.900448
 20
176.683716
 30
0.0
 10
-632.614192
 20
176.683716
 30
0.0
 10
-631.561816
 20
177.940388
 30
0.0
 10
-631.561816
 20
179.483884
 30
0.0
  0
SPLINE
  5
3c8
100
AcDbEntity
  8
Layer_1
 62
7
100
AcDbSpline
 70
8
 71
3
 72
8
 73
4
 74
0
 40
0
 40
0
 40
0
 40
0
 40
1
 40
1
 40
1
 40
1
 10
-631.561816
 20
179.483884
 30
0.0
 10
-631.561816
 20
182.951820
 30
0.0
 10
-627.327664
 20
183.140812
 30
0.0
 10
-673.471024
 20
177.612988
 30
0.0
  0
SPLINE
  5
3c9
100
AcDbEntity
  8
Layer_1
 62
7
100
AcDbSpline
 70
8
 71
3
 72
8
 73
4
 74
0
 40
0
 40
0
 40
0
 40
0
 40
1
 40
1
 40
1
 40
1
 10
-673.471024
 20
177.612988
 30
0.0
 10
-694.945000
 20
175.040572
 30
0.0
 10
-715.347872
 20
172.935804
 30
0.0
 10
-718.810720
 20
172.935804
 30
0.0
  0
SPLINE
  5
3ca
100
AcDbEntity
  8
Layer_1
 62
7
100
AcDbSpline
 70
8
 71
3
 72
8
 73
4
 74
0
 40
0
 40
0
 40
0
 40
0
 40
1
 40
1
 40
1
 40
1
 10
-718.810720
 20
172.935804
 30
0.0
 10
-724.992384
 20
172.935804
 30
0.0
 10
-725.104312
 20
173.080324
 30
0.0
 10
-724.968136
 20
180.887132
 30
0.0
  0
SPLINE
  5
3cb
100
AcDbEntity
  8
Layer_1
 62
7
100
AcDbSpline
 70
8
 71
3
 72
8
 73
4
 74
0
 40
0
 40
0
 40
0
 40
0
 40
1
 40
1
 40
1
 40
1
 10
-724.968136
 20
180.887132
 30
0.0
 10
-724.794912
 20
190.819412
 30
0.0
 10
-721.931016
 20
207.722140
 30
0.0
 10
-721.599192
 20
200.770668
 30
0.0
  0
SPLINE
  5
3cc
100
AcDbEntity
  8
Layer_1
 62
7
100
AcDbSpline
 70
8
 71
3
 72
8
 73
4
 74
0
 40
0
 40
0
 40
0
 40
0
 40
1
 40
1
 40
1
 40
1
 10
-721.599192
 20
200.770668
 30
0.0
 10
-721.399088
 20
196.578564
 30
0.0
 10
-720.310352
 20
195.696204
 30
0.0
 10
-714.116296
 20
194.705732
 30
0.0
  0
SPLINE
  5
3cd
100
AcDbEntity
  8
Layer_1
 62
7
100
AcDbSpline
 70
8
 71
3
 72
8
 73
4
 74
0
 40
0
 40
0
 40
0
 40
0
 40
1
 40
1
 40
1
 40
1
 10
-714.116296
 20
194.705732
 30
0.0
 10
-705.938504
 20
193.398052
 30
0.0
 10
-695.988328
 20
196.174460
 30
0.0
 10
-694.445688
 20
200.194596
 30
0.0
  0
SPLINE
  5
3ce
100
AcDbEntity
  8
Layer_1
 62
7
100
AcDbSpline
 70
8
 71
3
 72
8
 73
4
 74
0
 40
0
 40
0
 40
0
 40
0
 40
1
 40
1
 40
1
 40
1
 10
-694.445688
 20
200.194596
 30
0.0
 10
-693.831920
 20
201.793980
 30
0.0
 10
-690.842088
 20
202.870132
 30
0.0
 10
-687.012256
 20
202.870132
 30
0.0
  0
SPLINE
  5
3cf
100
AcDbEntity
  8
Layer_1
 62
7
100
AcDbSpline
 70
8
 71
3
 72
8
 73
4
 74
0
 40
0
 40
0
 40
0
 40
0
 40
1
 40
1
 40
1
 40
1
 10
-687.012256
 20
202.870132
 30
0.0
 10
-683.166616
 20
202.870132
 30
0.0
 10
-680.192936
 20
203.945468
 30
0.0
 10
-679.573360
 20
205.560052
 30
0.0
  0
SPLINE
  5
3d0
100
AcDbEntity
  8
Layer_1
 62
7
100
AcDbSpline
 70
8
 71
3
 72
8
 73
4
 74
0
 40
0
 40
0
 40
0
 40
0
 40
1
 40
1
 40
1
 40
1
 10
-679.573360
 20
205.560052
 30
0.0
 10
-678.205392
 20
209.124876
 30
0.0
 10
-666.638304
 20
212.201348
 30
0.0
 10
-654.554112
 20
212.214204
 30
0.0
  0
SPLINE
  5
3d1
100
AcDbEntity
  8
Layer_1
 62
7
100
AcDbSpline
 70
8
 71
3
 72
8
 73
4
 74
0
 40
0
 40
0
 40
0
 40
0
 40
1
 40
1
 40
1
 40
1
 10
-654.554112
 20
212.214204
 30
0.0
 10
-644.247392
 20
212.225484
 30
0.0
 10
-644.044888
 20
212.093956
 30
0.0
 10
-635.409336
 20
199.803852
 30
0.0
  0
SPLINE
  5
3d2
100
AcDbEntity
  8
Layer_1
 62
7
100
AcDbSpline
 70
8
 71
3
 72
8
 73
4
 74
0
 40
0
 40
0
 40
0
 40
0
 40
1
 40
1
 40
1
 40
1
 10
-635.409336
 20
199.803852
 30
0.0
 10
-627.418960
 20
188.431812
 30
0.0
 10
-605.605112
 20
180.734652
 30
0.0
 10
-612.455904
 20
191.704428
 30
0.0
  0
SPLINE
  5
3d3
100
AcDbEntity
  8
Layer_1
 62
7
100
AcDbSpline
 70
8
 71
3
 72
8
 73
4
 74
0
 40
0
 40
0
 40
0
 40
0
 40
1
 40
1
 40
1
 40
1
 10
-612.455904
 20
191.704428
 30
0.0
 10
-615.535568
 20
196.635780
 30
0.0
 10
-615.306072
 20
200.375428
 30
0.0
 10
-611.842216
 20
201.704628
 30
0.0
  0
SPLINE
  5
3d4
100
AcDbEntity
  8
Layer_1
 62
7
100
AcDbSpline
 70
8
 71
3
 72
8
 73
4
 74
0
 40
0
 40
0
 40
0
 40
0
 40
1
 40
1
 40
1
 40
1
 10
-611.842216
 20
201.704628
 30
0.0
 10
-610.118840
 20
202.365972
 30
0.0
 10
-609.148680
 20
201.882508
 30
0.0
 10
-609.428392
 20
200.501708
 30
0.0
  0
SPLINE
  5
3d5
100
AcDbEntity
  8
Layer_1
 62
7
100
AcDbSpline
 70
8
 71
3
 72
8
 73
4
 74
0
 40
0
 40
0
 40
0
 40
0
 40
1
 40
1
 40
1
 40
1
 10
-609.428392
 20
200.501708
 30
0.0
 10
-610.739304
 20
194.030116
 30
0.0
 10
-599.307536
 20
184.161172
 30
0.0
 10
-590.500296
 20
184.161172
 30
0.0
  0
SPLINE
  5
3d6
100
AcDbEntity
  8
Layer_1
 62
7
100
AcDbSpline
 70
8
 71
3
 72
8
 73
4
 74
0
 40
0
 40
0
 40
0
 40
0
 40
1
 40
1
 40
1
 40
1
 10
-590.500296
 20
184.161172
 30
0.0
 10
-584.909472
 20
184.161172
 30
0.0
 10
-580.768528
 20
194.665852
 30
0.0
 10
-583.862672
 20
200.999236
 30
0.0
  0
SPLINE
  5
3d7
100
AcDbEntity
  8
Layer_1
 62
7
100
AcDbSpline
 70
8
 71
3
 72
8
 73
4
 74
0
 40
0
 40
0
 40
0
 40
0
 40
1
 40
1
 40
1
 40
1
 10
-583.862672
 20
200.999236
 30
0.0
 10
-585.784240
 20
204.932572
 30
0.0
 10
-585.594864
 20
206.569180
 30
0.0
 10
-582.672000
 20
211.289212
 30
0.0
  0
LWPOLYLINE
  5
3d8
100
AcDbEntity
  8
Layer_1
 62
7
100
AcDbPolyline
 90
2
 70
0
 10
-382.397408
 20
149.549556
 30
0.0
 10
-382.397408
 20
149.549556
 30
0.0
  0
SPLINE
  5
3d9
100
AcDbEntity
  8
Layer_1
 62
7
100
AcDbSpline
 70
8
 71
3
 72
8
 73
4
 74
0
 40
0
 40
0
 40
0
 40
0
 40
1
 40
1
 40
1
 40
1
 10
-579.187112
 20
211.990836
 30
0.0
 10
-579.179912
 20
208.054948
 30
0.0
 10
-578.083664
 20
206.860996
 30
0.0
 10
-573.670048
 20
205.978228
 30
0.0
  0
SPLINE
  5
3da
100
AcDbEntity
  8
Layer_1
 62
7
100
AcDbSpline
 70
8
 71
3
 72
8
 73
4
 74
0
 40
0
 40
0
 40
0
 40
0
 40
1
 40
1
 40
1
 40
1
 10
-573.670048
 20
205.978228
 30
0.0
 10
-570.641048
 20
205.372476
 30
0.0
 10
-565.387440
 20
202.396980
 30
0.0
 10
-561.995328
 20
199.366188
 30
0.0
  0
LWPOLYLINE
  5
3db
100
AcDbEntity
  8
Layer_1
 62
7
100
AcDbPolyline
 90
3
 70
0
 10
-582.672000
 20
211.289212
 30
0.0
 10
-579.196312
 20
216.901900
 30
0.0
 10
-579.187112
 20
211.990836
 30
0.0
  0
SPLINE
  5
3dc
100
AcDbEntity
  8
Layer_1
 62
7
100
AcDbSpline
 70
8
 71
3
 72
8
 73
4
 74
0
 40
0
 40
0
 40
0
 40
0
 40
1
 40
1
 40
1
 40
1
 10
-562.230320
 20
192.196452
 30
0.0
 10
-572.001888
 20
189.664420
 30
0.0
 10
-572.277872
 20
185.288420
 30
0.0
 10
-562.562448
 20
186.929828
 30
0.0
  0
SPLINE
  5
3dd
100
AcDbEntity
  8
Layer_1
 62
7
100
AcDbSpline
 70
8
 71
3
 72
8
 73
4
 74
0
 40
0
 40
0
 40
0
 40
0
 40
1
 40
1
 40
1
 40
1
 10
-562.562448
 20
186.929828
 30
0.0
 10
-553.523392
 20
188.456900
 30
0.0
 10
-552.445000
 20
185.859396
 30
0.0
 10
-558.776424
 20
177.810348
 30
0.0
  0
SPLINE
  5
3de
100
AcDbEntity
  8
Layer_1
 62
7
100
AcDbSpline
 70
8
 71
3
 72
8
 73
4
 74
0
 40
0
 40
0
 40
0
 40
0
 40
1
 40
1
 40
1
 40
1
 10
-558.776424
 20
177.810348
 30
0.0
 10
-560.932896
 20
175.068828
 30
0.0
 10
-562.222176
 20
171.587628
 30
0.0
 10
-561.641488
 20
170.074428
 30
0.0
  0
SPLINE
  5
3df
100
AcDbEntity
  8
Layer_1
 62
7
100
AcDbSpline
 70
8
 71
3
 72
8
 73
4
 74
0
 40
0
 40
0
 40
0
 40
0
 40
1
 40
1
 40
1
 40
1
 10
-561.641488
 20
170.074428
 30
0.0
 10
-560.237768
 20
166.416380
 30
0.0
 10
-561.741040
 20
166.600276
 30
0.0
 10
-565.913952
 20
170.597156
 30
0.0
  0
SPLINE
  5
3e0
100
AcDbEntity
  8
Layer_1
 62
7
100
AcDbSpline
 70
8
 71
3
 72
8
 73
4
 74
0
 40
0
 40
0
 40
0
 40
0
 40
1
 40
1
 40
1
 40
1
 10
-565.913952
 20
170.597156
 30
0.0
 10
-567.794032
 20
172.397884
 30
0.0
 10
-570.443688
 20
178.291252
 30
0.0
 10
-571.802128
 20
183.693420
 30
0.0
  0
SPLINE
  5
3e1
100
AcDbEntity
  8
Layer_1
 62
7
100
AcDbSpline
 70
8
 71
3
 72
8
 73
4
 74
0
 40
0
 40
0
 40
0
 40
0
 40
1
 40
1
 40
1
 40
1
 10
-571.802128
 20
183.693420
 30
0.0
 10
-573.231784
 20
189.381076
 30
0.0
 10
-575.318888
 20
193.515652
 30
0.0
 10
-576.759744
 20
193.515652
 30
0.0
  0
SPLINE
  5
3e2
100
AcDbEntity
  8
Layer_1
 62
7
100
AcDbSpline
 70
8
 71
3
 72
8
 73
4
 74
0
 40
0
 40
0
 40
0
 40
0
 40
1
 40
1
 40
1
 40
1
 10
-576.759744
 20
193.515652
 30
0.0
 10
-579.290224
 20
193.515652
 30
0.0
 10
-578.758312
 20
188.651204
 30
0.0
 10
-575.161008
 20
178.894348
 30
0.0
  0
SPLINE
  5
3e3
100
AcDbEntity
  8
Layer_1
 62
7
100
AcDbSpline
 70
8
 71
3
 72
8
 73
4
 74
0
 40
0
 40
0
 40
0
 40
0
 40
1
 40
1
 40
1
 40
1
 10
-575.161008
 20
178.894348
 30
0.0
 10
-571.939216
 20
170.156124
 30
0.0
 10
-572.869968
 20
169.107316
 30
0.0
 10
-583.453488
 20
169.550172
 30
0.0
  0
SPLINE
  5
3e4
100
AcDbEntity
  8
Layer_1
 62
7
100
AcDbSpline
 70
8
 71
3
 72
8
 73
4
 74
0
 40
0
 40
0
 40
0
 40
0
 40
1
 40
1
 40
1
 40
1
 10
-583.453488
 20
169.550172
 30
0.0
 10
-591.945224
 20
169.905524
 30
0.0
 10
-595.184328
 20
168.918004
 30
0.0
 10
-606.372024
 20
162.563108
 30
0.0
  0
SPLINE
  5
3e5
100
AcDbEntity
  8
Layer_1
 62
7
100
AcDbSpline
 70
8
 71
3
 72
8
 73
4
 74
0
 40
0
 40
0
 40
0
 40
0
 40
1
 40
1
 40
1
 40
1
 10
-606.372024
 20
162.563108
 30
0.0
 10
-621.105080
 20
154.194308
 30
0.0
 10
-622.680336
 20
153.627828
 30
0.0
 10
-644.658264
 20
148.793260
 30
0.0
  0
SPLINE
  5
3e6
100
AcDbEntity
  8
Layer_1
 62
7
100
AcDbSpline
 70
8
 71
3
 72
8
 73
4
 74
0
 40
0
 40
0
 40
0
 40
0
 40
1
 40
1
 40
1
 40
1
 10
-644.658264
 20
148.793260
 30
0.0
 10
-669.121520
 20
143.412100
 30
0.0
 10
-673.184728
 20
143.113972
 30
0.0
 10
-680.263912
 20
146.180756
 30
0.0
  0
LWPOLYLINE
  5
3e7
100
AcDbEntity
  8
Layer_1
 62
7
100
AcDbPolyline
 90
3
 70
0
 10
-561.995328
 20
199.366188
 30
0.0
 10
-555.827832
 20
193.855500
 30
0.0
 10
-562.230320
 20
192.196452
 30
0.0
  0
SPLINE
  5
3e8
100
AcDbEntity
  8
Layer_1
 62
7
100
AcDbSpline
 70
8
 71
3
 72
8
 73
4
 74
0
 40
0
 40
0
 40
0
 40
0
 40
1
 40
1
 40
1
 40
1
 10
-132.914960
 20
195.150740
 30
0.0
 10
-130.885560
 20
197.078948
 30
0.0
 10
-119.543224
 20
207.343124
 30
0.0
 10
-107.709784
 20
217.959796
 30
0.0
  0
SPLINE
  5
3e9
100
AcDbEntity
  8
Layer_1
 62
7
100
AcDbSpline
 70
8
 71
3
 72
8
 73
4
 74
0
 40
0
 40
0
 40
0
 40
0
 40
1
 40
1
 40
1
 40
1
 10
-107.709784
 20
217.959796
 30
0.0
 10
-88.157320
 20
235.501820
 30
0.0
 10
-82.259808
 20
242.227684
 30
0.0
 10
-86.524976
 20
242.120284
 30
0.0
  0
SPLINE
  5
3ea
100
AcDbEntity
  8
Layer_1
 62
7
100
AcDbSpline
 70
8
 71
3
 72
8
 73
4
 74
0
 40
0
 40
0
 40
0
 40
0
 40
1
 40
1
 40
1
 40
1
 10
-86.524976
 20
242.120284
 30
0.0
 10
-87.372160
 20
242.098844
 30
0.0
 10
-95.539792
 20
235.363716
 30
0.0
 10
-104.675264
 20
227.153116
 30
0.0
  0
SPLINE
  5
3eb
100
AcDbEntity
  8
Layer_1
 62
7
100
AcDbSpline
 70
8
 71
3
 72
8
 73
4
 74
0
 40
0
 40
0
 40
0
 40
0
 40
1
 40
1
 40
1
 40
1
 10
-104.675264
 20
227.153116
 30
0.0
 10
-113.810728
 20
218.942412
 30
0.0
 10
-121.749056
 20
212.224708
 30
0.0
 10
-122.315984
 20
212.224708
 30
0.0
  0
SPLINE
  5
3ec
100
AcDbEntity
  8
Layer_1
 62
7
100
AcDbSpline
 70
8
 71
3
 72
8
 73
4
 74
0
 40
0
 40
0
 40
0
 40
0
 40
1
 40
1
 40
1
 40
1
 10
-122.315984
 20
212.224708
 30
0.0
 10
-126.373896
 20
212.224708
 30
0.0
 10
-135.773280
 20
217.209620
 30
0.0
 10
-135.773280
 20
219.361612
 30
0.0
  0
SPLINE
  5
3ed
100
AcDbEntity
  8
Layer_1
 62
7
100
AcDbSpline
 70
8
 71
3
 72
8
 73
4
 74
0
 40
0
 40
0
 40
0
 40
0
 40
1
 40
1
 40
1
 40
1
 10
-135.773280
 20
219.361612
 30
0.0
 10
-135.773280
 20
230.064668
 30
0.0
 10
-115.988592
 20
248.359012
 30
0.0
 10
-100.717736
 20
251.776460
 30
0.0
  0
SPLINE
  5
3ee
100
AcDbEntity
  8
Layer_1
 62
7
100
AcDbSpline
 70
8
 71
3
 72
8
 73
4
 74
0
 40
0
 40
0
 40
0
 40
0
 40
1
 40
1
 40
1
 40
1
 10
-100.717736
 20
251.776460
 30
0.0
 10
-92.618144
 20
253.589020
 30
0.0
 10
-87.186920
 20
256.942308
 30
0.0
 10
-71.102753
 20
270.060716
 30
0.0
  0
SPLINE
  5
3ef
100
AcDbEntity
  8
Layer_1
 62
7
100
AcDbSpline
 70
8
 71
3
 72
8
 73
4
 74
0
 40
0
 40
0
 40
0
 40
0
 40
1
 40
1
 40
1
 40
1
 10
-71.102753
 20
270.060716
 30
0.0
 10
-45.531298
 20
290.916972
 30
0.0
 10
-40.240170
 20
294.692628
 30
0.0
 10
-38.280906
 20
293.481732
 30
0.0
  0
SPLINE
  5
3f0
100
AcDbEntity
  8
Layer_1
 62
7
100
AcDbSpline
 70
8
 71
3
 72
8
 73
4
 74
0
 40
0
 40
0
 40
0
 40
0
 40
1
 40
1
 40
1
 40
1
 10
-38.280906
 20
293.481732
 30
0.0
 10
-34.482769
 20
291.134428
 30
0.0
 10
-25.489628
 20
275.882188
 30
0.0
 10
-26.441345
 20
273.402068
 30
0.0
  0
SPLINE
  5
3f1
100
AcDbEntity
  8
Layer_1
 62
7
100
AcDbSpline
 70
8
 71
3
 72
8
 73
4
 74
0
 40
0
 40
0
 40
0
 40
0
 40
1
 40
1
 40
1
 40
1
 10
-26.441345
 20
273.402068
 30
0.0
 10
-27.013408
 20
271.911212
 30
0.0
 10
-30.809163
 20
269.190900
 30
0.0
 10
-34.876349
 20
267.356820
 30
0.0
  0
SPLINE
  5
3f2
100
AcDbEntity
  8
Layer_1
 62
7
100
AcDbSpline
 70
8
 71
3
 72
8
 73
4
 74
0
 40
0
 40
0
 40
0
 40
0
 40
1
 40
1
 40
1
 40
1
 10
-34.876349
 20
267.356820
 30
0.0
 10
-42.074358
 20
264.111036
 30
0.0
 10
-76.523668
 20
230.315172
 30
0.0
 10
-94.598936
 20
208.767284
 30
0.0
  0
SPLINE
  5
3f3
100
AcDbEntity
  8
Layer_1
 62
7
100
AcDbSpline
 70
8
 71
3
 72
8
 73
4
 74
0
 40
0
 40
0
 40
0
 40
0
 40
1
 40
1
 40
1
 40
1
 10
-94.598936
 20
208.767284
 30
0.0
 10
-99.215128
 20
203.264140
 30
0.0
 10
-105.392448
 20
197.520388
 30
0.0
 10
-108.326312
 20
196.003212
 30
0.0
  0
SPLINE
  5
3f4
100
AcDbEntity
  8
Layer_1
 62
7
100
AcDbSpline
 70
8
 71
3
 72
8
 73
4
 74
0
 40
0
 40
0
 40
0
 40
0
 40
1
 40
1
 40
1
 40
1
 10
-108.326312
 20
196.003212
 30
0.0
 10
-113.428848
 20
193.364604
 30
0.0
 10
-113.607160
 20
193.413148
 30
0.0
 10
-112.430024
 20
197.121996
 30
0.0
  0
SPLINE
  5
3f5
100
AcDbEntity
  8
Layer_1
 62
7
100
AcDbSpline
 70
8
 71
3
 72
8
 73
4
 74
0
 40
0
 40
0
 40
0
 40
0
 40
1
 40
1
 40
1
 40
1
 10
-112.430024
 20
197.121996
 30
0.0
 10
-110.623200
 20
202.814852
 30
0.0
 10
-115.951488
 20
202.123420
 30
0.0
 10
-118.594768
 20
196.322044
 30
0.0
  0
SPLINE
  5
3f6
100
AcDbEntity
  8
Layer_1
 62
7
100
AcDbSpline
 70
8
 71
3
 72
8
 73
4
 74
0
 40
0
 40
0
 40
0
 40
0
 40
1
 40
1
 40
1
 40
1
 10
-118.594768
 20
196.322044
 30
0.0
 10
-120.380600
 20
192.402476
 30
0.0
 10
-122.012120
 20
191.644756
 30
0.0
 10
-128.665328
 20
191.644756
 30
0.0
  0
SPLINE
  5
3f7
100
AcDbEntity
  8
Layer_1
 62
7
100
AcDbSpline
 70
8
 71
3
 72
8
 73
4
 74
0
 40
0
 40
0
 40
0
 40
0
 40
1
 40
1
 40
1
 40
1
 10
-128.665328
 20
191.644756
 30
0.0
 10
-136.492176
 20
191.644756
 30
0.0
 10
-136.552456
 20
191.694756
 30
0.0
 10
-132.914960
 20
195.150740
 30
0.0
  0
LWPOLYLINE
  5
3f8
100
AcDbEntity
  8
Layer_1
 62
7
100
AcDbPolyline
 90
2
 70
0
 10
-680.263912
 20
146.180756
 30
0.0
 10
-680.263760
 20
146.180756
 30
0.0
  0
SPLINE
  5
3f9
100
AcDbEntity
  8
Layer_1
 62
7
100
AcDbSpline
 70
8
 71
3
 72
8
 73
4
 74
0
 40
0
 40
0
 40
0
 40
0
 40
1
 40
1
 40
1
 40
1
 10
238.747152
 20
196.322044
 30
0.0
 10
236.177880
 20
201.960948
 30
0.0
 10
232.794040
 20
202.458684
 30
0.0
 10
232.794040
 20
197.197676
 30
0.0
  0
SPLINE
  5
3fa
100
AcDbEntity
  8
Layer_1
 62
7
100
AcDbSpline
 70
8
 71
3
 72
8
 73
4
 74
0
 40
0
 40
0
 40
0
 40
0
 40
1
 40
1
 40
1
 40
1
 10
232.794040
 20
197.197676
 30
0.0
 10
232.794040
 20
193.756772
 30
0.0
 10
232.359032
 20
193.624068
 30
0.0
 10
228.208720
 20
195.798612
 30
0.0
  0
SPLINE
  5
3fb
100
AcDbEntity
  8
Layer_1
 62
7
100
AcDbSpline
 70
8
 71
3
 72
8
 73
4
 74
0
 40
0
 40
0
 40
0
 40
0
 40
1
 40
1
 40
1
 40
1
 10
228.208720
 20
195.798612
 30
0.0
 10
225.686816
 20
197.120052
 30
0.0
 10
219.717552
 20
202.829740
 30
0.0
 10
214.943728
 20
208.487004
 30
0.0
  0
SPLINE
  5
3fc
100
AcDbEntity
  8
Layer_1
 62
7
100
AcDbSpline
 70
8
 71
3
 72
8
 73
4
 74
0
 40
0
 40
0
 40
0
 40
0
 40
1
 40
1
 40
1
 40
1
 10
214.943728
 20
208.487004
 30
0.0
 10
199.796640
 20
226.437012
 30
0.0
 10
164.789008
 20
261.198660
 30
0.0
 10
157.022584
 20
266.001108
 30
0.0
  0
SPLINE
  5
3fd
100
AcDbEntity
  8
Layer_1
 62
7
100
AcDbSpline
 70
8
 71
3
 72
8
 73
4
 74
0
 40
0
 40
0
 40
0
 40
0
 40
1
 40
1
 40
1
 40
1
 10
157.022584
 20
266.001108
 30
0.0
 10
145.185904
 20
273.320468
 30
0.0
 10
144.195096
 20
275.438300
 30
0.0
 10
149.601544
 20
281.863580
 30
0.0
  0
SPLINE
  5
3fe
100
AcDbEntity
  8
Layer_1
 62
7
100
AcDbSpline
 70
8
 71
3
 72
8
 73
4
 74
0
 40
0
 40
0
 40
0
 40
0
 40
1
 40
1
 40
1
 40
1
 10
149.601544
 20
281.863580
 30
0.0
 10
152.139632
 20
284.879876
 30
0.0
 10
154.216232
 20
288.095484
 30
0.0
 10
154.216232
 20
289.009252
 30
0.0
  0
SPLINE
  5
3ff
100
AcDbEntity
  8
Layer_1
 62
7
100
AcDbSpline
 70
8
 71
3
 72
8
 73
4
 74
0
 40
0
 40
0
 40
0
 40
0
 40
1
 40
1
 40
1
 40
1
 10
154.216232
 20
289.009252
 30
0.0
 10
154.216232
 20
289.923132
 30
0.0
 10
155.920256
 20
291.582796
 30
0.0
 10
158.002952
 20
292.697396
 30
0.0
  0
SPLINE
  5
400
100
AcDbEntity
  8
Layer_1
 62
7
100
AcDbSpline
 70
8
 71
3
 72
8
 73
4
 74
0
 40
0
 40
0
 40
0
 40
0
 40
1
 40
1
 40
1
 40
1
 10
158.002952
 20
292.697396
 30
0.0
 10
161.280584
 20
294.451508
 30
0.0
 10
163.660328
 20
293.092524
 30
0.0
 10
175.704152
 20
282.588564
 30
0.0
  0
SPLINE
  5
401
100
AcDbEntity
  8
Layer_1
 62
7
100
AcDbSpline
 70
8
 71
3
 72
8
 73
4
 74
0
 40
0
 40
0
 40
0
 40
0
 40
1
 40
1
 40
1
 40
1
 10
175.704152
 20
282.588564
 30
0.0
 10
198.311896
 20
262.871284
 30
0.0
 10
209.193912
 20
255.394436
 30
0.0
 10
219.894880
 20
252.226164
 30
0.0
  0
SPLINE
  5
402
100
AcDbEntity
  8
Layer_1
 62
7
100
AcDbSpline
 70
8
 71
3
 72
8
 73
4
 74
0
 40
0
 40
0
 40
0
 40
0
 40
1
 40
1
 40
1
 40
1
 10
219.894880
 20
252.226164
 30
0.0
 10
225.445928
 20
250.582612
 30
0.0
 10
233.283304
 20
247.013700
 30
0.0
 10
237.311272
 20
244.295332
 30
0.0
  0
SPLINE
  5
403
100
AcDbEntity
  8
Layer_1
 62
7
100
AcDbSpline
 70
8
 71
3
 72
8
 73
4
 74
0
 40
0
 40
0
 40
0
 40
0
 40
1
 40
1
 40
1
 40
1
 10
237.311272
 20
244.295332
 30
0.0
 10
245.522808
 20
238.753420
 30
0.0
 10
257.426800
 20
222.695836
 30
0.0
 10
256.027280
 20
219.048692
 30
0.0
  0
SPLINE
  5
404
100
AcDbEntity
  8
Layer_1
 62
7
100
AcDbSpline
 70
8
 71
3
 72
8
 73
4
 74
0
 40
0
 40
0
 40
0
 40
0
 40
1
 40
1
 40
1
 40
1
 10
256.027280
 20
219.048692
 30
0.0
 10
255.525480
 20
217.741012
 30
0.0
 10
252.145736
 20
215.597484
 30
0.0
 10
248.516696
 20
214.285212
 30
0.0
  0
LWPOLYLINE
  5
405
100
AcDbEntity
  8
Layer_1
 62
7
100
AcDbPolyline
 90
2
 70
0
 10
-132.914960
 20
195.150740
 30
0.0
 10
-132.914960
 20
195.150740
 30
0.0
  0
SPLINE
  5
406
100
AcDbEntity
  8
Layer_1
 62
7
100
AcDbSpline
 70
8
 71
3
 72
8
 73
4
 74
0
 40
0
 40
0
 40
0
 40
0
 40
1
 40
1
 40
1
 40
1
 10
226.598576
 20
225.600244
 30
0.0
 10
218.172648
 20
233.135740
 30
0.0
 10
210.682320
 20
240.147700
 30
0.0
 10
209.953424
 20
241.182228
 30
0.0
  0
SPLINE
  5
407
100
AcDbEntity
  8
Layer_1
 62
7
100
AcDbSpline
 70
8
 71
3
 72
8
 73
4
 74
0
 40
0
 40
0
 40
0
 40
0
 40
1
 40
1
 40
1
 40
1
 10
209.953424
 20
241.182228
 30
0.0
 10
209.076304
 20
242.427188
 30
0.0
 10
207.941768
 20
242.376908
 30
0.0
 10
206.598408
 20
241.033524
 30
0.0
  0
SPLINE
  5
408
100
AcDbEntity
  8
Layer_1
 62
7
100
AcDbSpline
 70
8
 71
3
 72
8
 73
4
 74
0
 40
0
 40
0
 40
0
 40
0
 40
1
 40
1
 40
1
 40
1
 10
206.598408
 20
241.033524
 30
0.0
 10
205.139360
 20
239.574484
 30
0.0
 10
208.912248
 20
235.107612
 30
0.0
 10
220.017368
 20
225.146460
 30
0.0
  0
SPLINE
  5
409
100
AcDbEntity
  8
Layer_1
 62
7
100
AcDbSpline
 70
8
 71
3
 72
8
 73
4
 74
0
 40
0
 40
0
 40
0
 40
0
 40
1
 40
1
 40
1
 40
1
 10
220.017368
 20
225.146460
 30
0.0
 10
228.514152
 20
217.524988
 30
0.0
 10
240.329928
 20
206.869252
 30
0.0
 10
246.274664
 20
201.466980
 30
0.0
  0
LWPOLYLINE
  5
40a
100
AcDbEntity
  8
Layer_1
 62
7
100
AcDbPolyline
 90
3
 70
0
 10
248.516696
 20
214.285212
 30
0.0
 10
241.918456
 20
211.899244
 30
0.0
 10
226.598576
 20
225.600244
 30
0.0
  0
SPLINE
  5
40b
100
AcDbEntity
  8
Layer_1
 62
7
100
AcDbSpline
 70
8
 71
3
 72
8
 73
4
 74
0
 40
0
 40
0
 40
0
 40
0
 40
1
 40
1
 40
1
 40
1
 10
248.980752
 20
191.644756
 30
0.0
 10
242.153656
 20
191.644756
 30
0.0
 10
240.542800
 20
192.380956
 30
0.0
 10
238.747152
 20
196.322044
 30
0.0
  0
LWPOLYLINE
  5
40c
100
AcDbEntity
  8
Layer_1
 62
7
100
AcDbPolyline
 90
3
 70
0
 10
246.274664
 20
201.466980
 30
0.0
 10
257.083232
 20
191.644756
 30
0.0
 10
248.980752
 20
191.644756
 30
0.0
  0
SPLINE
  5
40d
100
AcDbEntity
  8
Layer_1
 62
7
100
AcDbSpline
 70
8
 71
3
 72
8
 73
4
 74
0
 40
0
 40
0
 40
0
 40
0
 40
1
 40
1
 40
1
 40
1
 10
-754.573496
 20
198.496580
 30
0.0
 10
-755.859752
 20
199.015532
 30
0.0
 10
-756.912128
 20
201.486260
 30
0.0
 10
-756.912128
 20
203.986876
 30
0.0
  0
SPLINE
  5
40e
100
AcDbEntity
  8
Layer_1
 62
7
100
AcDbSpline
 70
8
 71
3
 72
8
 73
4
 74
0
 40
0
 40
0
 40
0
 40
0
 40
1
 40
1
 40
1
 40
1
 10
-756.912128
 20
203.986876
 30
0.0
 10
-756.912128
 20
206.487588
 30
0.0
 10
-757.921080
 20
210.149212
 30
0.0
 10
-759.154248
 20
212.123836
 30
0.0
  0
SPLINE
  5
40f
100
AcDbEntity
  8
Layer_1
 62
7
100
AcDbSpline
 70
8
 71
3
 72
8
 73
4
 74
0
 40
0
 40
0
 40
0
 40
0
 40
1
 40
1
 40
1
 40
1
 10
-759.154248
 20
212.123836
 30
0.0
 10
-761.091696
 20
215.226220
 30
0.0
 10
-759.901608
 20
217.892164
 30
0.0
 10
-750.396192
 20
231.742900
 30
0.0
  0
SPLINE
  5
410
100
AcDbEntity
  8
Layer_1
 62
7
100
AcDbSpline
 70
8
 71
3
 72
8
 73
4
 74
0
 40
0
 40
0
 40
0
 40
0
 40
1
 40
1
 40
1
 40
1
 10
-750.396192
 20
231.742900
 30
0.0
 10
-737.967344
 20
249.853556
 30
0.0
 10
-733.329608
 20
253.035484
 30
0.0
 10
-742.155584
 20
237.396692
 30
0.0
  0
SPLINE
  5
411
100
AcDbEntity
  8
Layer_1
 62
7
100
AcDbSpline
 70
8
 71
3
 72
8
 73
4
 74
0
 40
0
 40
0
 40
0
 40
0
 40
1
 40
1
 40
1
 40
1
 10
-742.155584
 20
237.396692
 30
0.0
 10
-745.376024
 20
231.690372
 30
0.0
 10
-747.698456
 20
226.805108
 30
0.0
 10
-747.316560
 20
226.540436
 30
0.0
  0
SPLINE
  5
412
100
AcDbEntity
  8
Layer_1
 62
7
100
AcDbSpline
 70
8
 71
3
 72
8
 73
4
 74
0
 40
0
 40
0
 40
0
 40
0
 40
1
 40
1
 40
1
 40
1
 10
-747.316560
 20
226.540436
 30
0.0
 10
-742.165424
 20
222.971628
 30
0.0
 10
-736.071688
 20
219.708292
 30
0.0
 10
-734.558664
 20
219.708292
 30
0.0
  0
SPLINE
  5
413
100
AcDbEntity
  8
Layer_1
 62
7
100
AcDbSpline
 70
8
 71
3
 72
8
 73
4
 74
0
 40
0
 40
0
 40
0
 40
0
 40
1
 40
1
 40
1
 40
1
 10
-734.558664
 20
219.708292
 30
0.0
 10
-733.510800
 20
219.708292
 30
0.0
 10
-730.520328
 20
223.917836
 30
0.0
 10
-727.913168
 20
229.062772
 30
0.0
  0
SPLINE
  5
414
100
AcDbEntity
  8
Layer_1
 62
7
100
AcDbSpline
 70
8
 71
3
 72
8
 73
4
 74
0
 40
0
 40
0
 40
0
 40
0
 40
1
 40
1
 40
1
 40
1
 10
-727.913168
 20
229.062772
 30
0.0
 10
-719.529328
 20
245.607492
 30
0.0
 10
-719.441264
 20
239.024532
 30
0.0
 10
-727.794296
 20
220.176044
 30
0.0
  0
SPLINE
  5
415
100
AcDbEntity
  8
Layer_1
 62
7
100
AcDbSpline
 70
8
 71
3
 72
8
 73
4
 74
0
 40
0
 40
0
 40
0
 40
0
 40
1
 40
1
 40
1
 40
1
 10
-727.794296
 20
220.176044
 30
0.0
 10
-735.011200
 20
203.891100
 30
0.0
 10
-736.403464
 20
201.925452
 30
0.0
 10
-740.775760
 20
201.847932
 30
0.0
  0
SPLINE
  5
416
100
AcDbEntity
  8
Layer_1
 62
7
100
AcDbSpline
 70
8
 71
3
 72
8
 73
4
 74
0
 40
0
 40
0
 40
0
 40
0
 40
1
 40
1
 40
1
 40
1
 10
-740.775760
 20
201.847932
 30
0.0
 10
-743.469416
 20
201.800012
 30
0.0
 10
-746.686632
 20
200.747716
 30
0.0
 10
-747.925096
 20
199.509292
 30
0.0
  0
SPLINE
  5
417
100
AcDbEntity
  8
Layer_1
 62
7
100
AcDbSpline
 70
8
 71
3
 72
8
 73
4
 74
0
 40
0
 40
0
 40
0
 40
0
 40
1
 40
1
 40
1
 40
1
 10
-747.925096
 20
199.509292
 30
0.0
 10
-750.324728
 20
197.109652
 30
0.0
 10
-750.913976
 20
197.019900
 30
0.0
 10
-754.573512
 20
198.496580
 30
0.0
  0
LWPOLYLINE
  5
418
100
AcDbEntity
  8
Layer_1
 62
7
100
AcDbPolyline
 90
2
 70
0
 10
238.747152
 20
196.322044
 30
0.0
 10
238.747152
 20
196.322044
 30
0.0
  0
SPLINE
  5
419
100
AcDbEntity
  8
Layer_1
 62
7
100
AcDbSpline
 70
8
 71
3
 72
8
 73
4
 74
0
 40
0
 40
0
 40
0
 40
0
 40
1
 40
1
 40
1
 40
1
 10
-238.726984
 20
200.129116
 30
0.0
 10
-240.180640
 20
201.880676
 30
0.0
 10
-243.024576
 20
202.832084
 30
0.0
 10
-245.431208
 20
202.372092
 30
0.0
  0
SPLINE
  5
41a
100
AcDbEntity
  8
Layer_1
 62
7
100
AcDbSpline
 70
8
 71
3
 72
8
 73
4
 74
0
 40
0
 40
0
 40
0
 40
0
 40
1
 40
1
 40
1
 40
1
 10
-245.431208
 20
202.372092
 30
0.0
 10
-249.115632
 20
201.667708
 30
0.0
 10
-250.548400
 20
203.648148
 30
0.0
 10
-257.523392
 20
219.086228
 30
0.0
  0
SPLINE
  5
41b
100
AcDbEntity
  8
Layer_1
 62
7
100
AcDbSpline
 70
8
 71
3
 72
8
 73
4
 74
0
 40
0
 40
0
 40
0
 40
0
 40
1
 40
1
 40
1
 40
1
 10
-257.523392
 20
219.086228
 30
0.0
 10
-266.106768
 20
238.084236
 30
0.0
 10
-266.540048
 20
244.502588
 30
0.0
 10
-258.205416
 20
229.189044
 30
0.0
  0
SPLINE
  5
41c
100
AcDbEntity
  8
Layer_1
 62
7
100
AcDbSpline
 70
8
 71
3
 72
8
 73
4
 74
0
 40
0
 40
0
 40
0
 40
0
 40
1
 40
1
 40
1
 40
1
 10
-258.205416
 20
229.189044
 30
0.0
 10
-255.367344
 20
223.974644
 30
0.0
 10
-252.103592
 20
219.708292
 30
0.0
 10
-250.952592
 20
219.708292
 30
0.0
  0
SPLINE
  5
41d
100
AcDbEntity
  8
Layer_1
 62
7
100
AcDbSpline
 70
8
 71
3
 72
8
 73
4
 74
0
 40
0
 40
0
 40
0
 40
0
 40
1
 40
1
 40
1
 40
1
 10
-250.952592
 20
219.708292
 30
0.0
 10
-249.279432
 20
219.708292
 30
0.0
 10
-243.447984
 20
222.991516
 30
0.0
 10
-238.913856
 20
226.486372
 30
0.0
  0
SPLINE
  5
41e
100
AcDbEntity
  8
Layer_1
 62
7
100
AcDbSpline
 70
8
 71
3
 72
8
 73
4
 74
0
 40
0
 40
0
 40
0
 40
0
 40
1
 40
1
 40
1
 40
1
 10
-238.913856
 20
226.486372
 30
0.0
 10
-238.531952
 20
226.780732
 30
0.0
 10
-240.854384
 20
231.690372
 30
0.0
 10
-244.074824
 20
237.396692
 30
0.0
  0
SPLINE
  5
41f
100
AcDbEntity
  8
Layer_1
 62
7
100
AcDbSpline
 70
8
 71
3
 72
8
 73
4
 74
0
 40
0
 40
0
 40
0
 40
0
 40
1
 40
1
 40
1
 40
1
 10
-244.074824
 20
237.396692
 30
0.0
 10
-252.913080
 20
253.057220
 30
0.0
 10
-248.146512
 20
249.842228
 30
0.0
 10
-235.753896
 20
231.784412
 30
0.0
  0
SPLINE
  5
420
100
AcDbEntity
  8
Layer_1
 62
7
100
AcDbSpline
 70
8
 71
3
 72
8
 73
4
 74
0
 40
0
 40
0
 40
0
 40
0
 40
1
 40
1
 40
1
 40
1
 10
-235.753896
 20
231.784412
 30
0.0
 10
-226.217696
 20
217.888804
 30
0.0
 10
-225.078952
 20
215.321900
 30
0.0
 10
-227.050248
 20
212.165348
 30
0.0
  0
SPLINE
  5
421
100
AcDbEntity
  8
Layer_1
 62
7
100
AcDbSpline
 70
8
 71
3
 72
8
 73
4
 74
0
 40
0
 40
0
 40
0
 40
0
 40
1
 40
1
 40
1
 40
1
 10
-227.050248
 20
212.165348
 30
0.0
 10
-228.297672
 20
210.167876
 30
0.0
 10
-229.318288
 20
206.417412
 30
0.0
 10
-229.318288
 20
203.831028
 30
0.0
  0
SPLINE
  5
422
100
AcDbEntity
  8
Layer_1
 62
7
100
AcDbSpline
 70
8
 71
3
 72
8
 73
4
 74
0
 40
0
 40
0
 40
0
 40
0
 40
1
 40
1
 40
1
 40
1
 10
-229.318288
 20
203.831028
 30
0.0
 10
-229.318288
 20
201.244532
 30
0.0
 10
-229.670400
 20
199.128340
 30
0.0
 10
-230.100712
 20
199.128340
 30
0.0
  0
SPLINE
  5
423
100
AcDbEntity
  8
Layer_1
 62
7
100
AcDbSpline
 70
8
 71
3
 72
8
 73
4
 74
0
 40
0
 40
0
 40
0
 40
0
 40
1
 40
1
 40
1
 40
1
 10
-230.100712
 20
199.128340
 30
0.0
 10
-230.531056
 20
199.128340
 30
0.0
 10
-232.079976
 20
198.669060
 30
0.0
 10
-233.542776
 20
198.107780
 30
0.0
  0
SPLINE
  5
424
100
AcDbEntity
  8
Layer_1
 62
7
100
AcDbSpline
 70
8
 71
3
 72
8
 73
4
 74
0
 40
0
 40
0
 40
0
 40
0
 40
1
 40
1
 40
1
 40
1
 10
-233.542776
 20
198.107780
 30
0.0
 10
-235.005568
 20
197.546500
 30
0.0
 10
-237.338464
 20
198.456092
 30
0.0
 10
-238.726984
 20
200.129116
 30
0.0
  0
LWPOLYLINE
  5
425
100
AcDbEntity
  8
Layer_1
 62
7
100
AcDbPolyline
 90
2
 70
0
 10
-754.573512
 20
198.496580
 30
0.0
 10
-754.573496
 20
198.496580
 30
0.0
  0
SPLINE
  5
426
100
AcDbEntity
  8
Layer_1
 62
7
100
AcDbSpline
 70
8
 71
3
 72
8
 73
4
 74
0
 40
0
 40
0
 40
0
 40
0
 40
1
 40
1
 40
1
 40
1
 10
270.815632
 20
200.478756
 30
0.0
 10
258.903472
 20
202.657780
 30
0.0
 10
262.539968
 20
216.173348
 30
0.0
 10
277.518136
 20
225.389516
 30
0.0
  0
SPLINE
  5
427
100
AcDbEntity
  8
Layer_1
 62
7
100
AcDbSpline
 70
8
 71
3
 72
8
 73
4
 74
0
 40
0
 40
0
 40
0
 40
0
 40
1
 40
1
 40
1
 40
1
 10
277.518136
 20
225.389516
 30
0.0
 10
282.696128
 20
228.575548
 30
0.0
 10
289.471864
 20
234.388348
 30
0.0
 10
292.575280
 20
238.306684
 30
0.0
  0
SPLINE
  5
428
100
AcDbEntity
  8
Layer_1
 62
7
100
AcDbSpline
 70
8
 71
3
 72
8
 73
4
 74
0
 40
0
 40
0
 40
0
 40
0
 40
1
 40
1
 40
1
 40
1
 10
292.575280
 20
238.306684
 30
0.0
 10
296.542048
 20
243.315156
 30
0.0
 10
300.554448
 20
246.024148
 30
0.0
 10
306.085136
 20
247.428004
 30
0.0
  0
SPLINE
  5
429
100
AcDbEntity
  8
Layer_1
 62
7
100
AcDbSpline
 70
8
 71
3
 72
8
 73
4
 74
0
 40
0
 40
0
 40
0
 40
0
 40
1
 40
1
 40
1
 40
1
 10
306.085136
 20
247.428004
 30
0.0
 10
315.689136
 20
249.865788
 30
0.0
 10
318.321736
 20
248.608500
 30
0.0
 10
313.883160
 20
243.703964
 30
0.0
  0
SPLINE
  5
42a
100
AcDbEntity
  8
Layer_1
 62
7
100
AcDbSpline
 70
8
 71
3
 72
8
 73
4
 74
0
 40
0
 40
0
 40
0
 40
0
 40
1
 40
1
 40
1
 40
1
 10
313.883160
 20
243.703964
 30
0.0
 10
310.613752
 20
240.091292
 30
0.0
 10
310.657912
 20
240.037748
 30
0.0
 10
315.832992
 20
241.336556
 30
0.0
  0
SPLINE
  5
42b
100
AcDbEntity
  8
Layer_1
 62
7
100
AcDbSpline
 70
8
 71
3
 72
8
 73
4
 74
0
 40
0
 40
0
 40
0
 40
0
 40
1
 40
1
 40
1
 40
1
 10
315.832992
 20
241.336556
 30
0.0
 10
321.740872
 20
242.819356
 30
0.0
 10
324.391696
 20
240.322620
 30
0.0
 10
324.439504
 20
233.230492
 30
0.0
  0
SPLINE
  5
42c
100
AcDbEntity
  8
Layer_1
 62
7
100
AcDbSpline
 70
8
 71
3
 72
8
 73
4
 74
0
 40
0
 40
0
 40
0
 40
0
 40
1
 40
1
 40
1
 40
1
 10
324.439504
 20
233.230492
 30
0.0
 10
324.481024
 20
227.071828
 30
0.0
 10
310.460120
 20
212.633612
 30
0.0
 10
302.256544
 20
210.387268
 30
0.0
  0
SPLINE
  5
42d
100
AcDbEntity
  8
Layer_1
 62
7
100
AcDbSpline
 70
8
 71
3
 72
8
 73
4
 74
0
 40
0
 40
0
 40
0
 40
0
 40
1
 40
1
 40
1
 40
1
 10
302.256544
 20
210.387268
 30
0.0
 10
298.523496
 20
209.365076
 30
0.0
 10
292.943472
 20
206.977068
 30
0.0
 10
289.856496
 20
205.080572
 30
0.0
  0
SPLINE
  5
42e
100
AcDbEntity
  8
Layer_1
 62
7
100
AcDbSpline
 70
8
 71
3
 72
8
 73
4
 74
0
 40
0
 40
0
 40
0
 40
0
 40
1
 40
1
 40
1
 40
1
 10
289.856496
 20
205.080572
 30
0.0
 10
283.315704
 20
201.062268
 30
0.0
 10
276.556240
 20
199.428612
 30
0.0
 10
270.815632
 20
200.478756
 30
0.0
  0
LWPOLYLINE
  5
42f
100
AcDbEntity
  8
Layer_1
 62
7
100
AcDbPolyline
 90
2
 70
0
 10
-238.726984
 20
200.129116
 30
0.0
 10
-238.726984
 20
200.129116
 30
0.0
  0
SPLINE
  5
430
100
AcDbEntity
  8
Layer_1
 62
7
100
AcDbSpline
 70
8
 71
3
 72
8
 73
4
 74
0
 40
0
 40
0
 40
0
 40
0
 40
1
 40
1
 40
1
 40
1
 10
313.710472
 20
222.358740
 30
0.0
 10
313.967720
 20
223.301988
 30
0.0
 10
313.125816
 20
224.424548
 30
0.0
 10
311.839576
 20
224.853228
 30
0.0
  0
SPLINE
  5
431
100
AcDbEntity
  8
Layer_1
 62
7
100
AcDbSpline
 70
8
 71
3
 72
8
 73
4
 74
0
 40
0
 40
0
 40
0
 40
0
 40
1
 40
1
 40
1
 40
1
 10
311.839576
 20
224.853228
 30
0.0
 10
310.553328
 20
225.282020
 30
0.0
 10
309.500952
 20
224.229636
 30
0.0
 10
309.500952
 20
222.514588
 30
0.0
  0
SPLINE
  5
432
100
AcDbEntity
  8
Layer_1
 62
7
100
AcDbSpline
 70
8
 71
3
 72
8
 73
4
 74
0
 40
0
 40
0
 40
0
 40
0
 40
1
 40
1
 40
1
 40
1
 10
309.500952
 20
222.514588
 30
0.0
 10
309.500952
 20
219.346516
 30
0.0
 10
312.855080
 20
219.222292
 30
0.0
 10
313.710472
 20
222.358740
 30
0.0
  0
LWPOLYLINE
  5
433
100
AcDbEntity
  8
Layer_1
 62
7
100
AcDbPolyline
 90
2
 70
0
 10
270.815632
 20
200.478756
 30
0.0
 10
270.815632
 20
200.478756
 30
0.0
  0
SPLINE
  5
434
100
AcDbEntity
  8
Layer_1
 62
7
100
AcDbSpline
 70
8
 71
3
 72
8
 73
4
 74
0
 40
0
 40
0
 40
0
 40
0
 40
1
 40
1
 40
1
 40
1
 10
305.759152
 20
237.481852
 30
0.0
 10
305.759152
 20
239.025340
 30
0.0
 10
304.496280
 20
240.288148
 30
0.0
 10
302.952792
 20
240.288148
 30
0.0
  0
SPLINE
  5
435
100
AcDbEntity
  8
Layer_1
 62
7
100
AcDbSpline
 70
8
 71
3
 72
8
 73
4
 74
0
 40
0
 40
0
 40
0
 40
0
 40
1
 40
1
 40
1
 40
1
 10
302.952792
 20
240.288148
 30
0.0
 10
301.409304
 20
240.288148
 30
0.0
 10
300.146448
 20
239.025340
 30
0.0
 10
300.146448
 20
237.481852
 30
0.0
  0
SPLINE
  5
436
100
AcDbEntity
  8
Layer_1
 62
7
100
AcDbSpline
 70
8
 71
3
 72
8
 73
4
 74
0
 40
0
 40
0
 40
0
 40
0
 40
1
 40
1
 40
1
 40
1
 10
300.146448
 20
237.481852
 30
0.0
 10
300.146448
 20
235.938364
 30
0.0
 10
301.409304
 20
234.675452
 30
0.0
 10
302.952792
 20
234.675452
 30
0.0
  0
SPLINE
  5
437
100
AcDbEntity
  8
Layer_1
 62
7
100
AcDbSpline
 70
8
 71
3
 72
8
 73
4
 74
0
 40
0
 40
0
 40
0
 40
0
 40
1
 40
1
 40
1
 40
1
 10
302.952792
 20
234.675452
 30
0.0
 10
304.496280
 20
234.675452
 30
0.0
 10
305.759152
 20
235.938364
 30
0.0
 10
305.759152
 20
237.481852
 30
0.0
  0
LWPOLYLINE
  5
438
100
AcDbEntity
  8
Layer_1
 62
7
100
AcDbPolyline
 90
2
 70
0
 10
313.710472
 20
222.358740
 30
0.0
 10
313.710472
 20
222.358740
 30
0.0
  0
SPLINE
  5
439
100
AcDbEntity
  8
Layer_1
 62
7
100
AcDbSpline
 70
8
 71
3
 72
8
 73
4
 74
0
 40
0
 40
0
 40
0
 40
0
 40
1
 40
1
 40
1
 40
1
 10
-169.135696
 20
204.814156
 30
0.0
 10
-172.564608
 20
206.904652
 30
0.0
 10
-179.456672
 20
210.167876
 30
0.0
 10
-184.451384
 20
212.065700
 30
0.0
  0
SPLINE
  5
43a
100
AcDbEntity
  8
Layer_1
 62
7
100
AcDbSpline
 70
8
 71
3
 72
8
 73
4
 74
0
 40
0
 40
0
 40
0
 40
0
 40
1
 40
1
 40
1
 40
1
 10
-184.451384
 20
212.065700
 30
0.0
 10
-199.167424
 20
217.657380
 30
0.0
 10
-208.525984
 20
230.069668
 30
0.0
 10
-205.006128
 20
239.327660
 30
0.0
  0
SPLINE
  5
43b
100
AcDbEntity
  8
Layer_1
 62
7
100
AcDbSpline
 70
8
 71
3
 72
8
 73
4
 74
0
 40
0
 40
0
 40
0
 40
0
 40
1
 40
1
 40
1
 40
1
 10
-205.006128
 20
239.327660
 30
0.0
 10
-203.490456
 20
243.314132
 30
0.0
 10
-202.587632
 20
243.732828
 30
0.0
 10
-198.696640
 20
242.253492
 30
0.0
  0
SPLINE
  5
43c
100
AcDbEntity
  8
Layer_1
 62
7
100
AcDbSpline
 70
8
 71
3
 72
8
 73
4
 74
0
 40
0
 40
0
 40
0
 40
0
 40
1
 40
1
 40
1
 40
1
 10
-198.696640
 20
242.253492
 30
0.0
 10
-193.054312
 20
240.108228
 30
0.0
 10
-190.840872
 20
241.907316
 30
0.0
 10
-195.200496
 20
245.095172
 30
0.0
  0
SPLINE
  5
43d
100
AcDbEntity
  8
Layer_1
 62
7
100
AcDbSpline
 70
8
 71
3
 72
8
 73
4
 74
0
 40
0
 40
0
 40
0
 40
0
 40
1
 40
1
 40
1
 40
1
 10
-195.200496
 20
245.095172
 30
0.0
 10
-199.907608
 20
248.537100
 30
0.0
 10
-196.882528
 20
250.291820
 30
0.0
 10
-188.842072
 20
248.783420
 30
0.0
  0
SPLINE
  5
43e
100
AcDbEntity
  8
Layer_1
 62
7
100
AcDbSpline
 70
8
 71
3
 72
8
 73
4
 74
0
 40
0
 40
0
 40
0
 40
0
 40
1
 40
1
 40
1
 40
1
 10
-188.842072
 20
248.783420
 30
0.0
 10
-184.061400
 20
247.886572
 30
0.0
 10
-179.473168
 20
244.948300
 30
0.0
 10
-174.255360
 20
239.442196
 30
0.0
  0
SPLINE
  5
43f
100
AcDbEntity
  8
Layer_1
 62
7
100
AcDbSpline
 70
8
 71
3
 72
8
 73
4
 74
0
 40
0
 40
0
 40
0
 40
0
 40
1
 40
1
 40
1
 40
1
 10
-174.255360
 20
239.442196
 30
0.0
 10
-170.068648
 20
235.024180
 30
0.0
 10
-162.656712
 20
228.744852
 30
0.0
 10
-157.784400
 20
225.488252
 30
0.0
  0
SPLINE
  5
440
100
AcDbEntity
  8
Layer_1
 62
7
100
AcDbSpline
 70
8
 71
3
 72
8
 73
4
 74
0
 40
0
 40
0
 40
0
 40
0
 40
1
 40
1
 40
1
 40
1
 10
-157.784400
 20
225.488252
 30
0.0
 10
-148.401416
 20
219.216676
 30
0.0
 10
-145.127784
 20
214.867100
 30
0.0
 10
-145.127784
 20
208.671708
 30
0.0
  0
SPLINE
  5
441
100
AcDbEntity
  8
Layer_1
 62
7
100
AcDbSpline
 70
8
 71
3
 72
8
 73
4
 74
0
 40
0
 40
0
 40
0
 40
0
 40
1
 40
1
 40
1
 40
1
 10
-145.127784
 20
208.671708
 30
0.0
 10
-145.127784
 20
200.704980
 30
0.0
 10
-158.794000
 20
198.509132
 30
0.0
 10
-169.135696
 20
204.814156
 30
0.0
  0
LWPOLYLINE
  5
442
100
AcDbEntity
  8
Layer_1
 62
7
100
AcDbPolyline
 90
2
 70
0
 10
305.759152
 20
237.481852
 30
0.0
 10
305.759152
 20
237.481852
 30
0.0
  0
SPLINE
  5
443
100
AcDbEntity
  8
Layer_1
 62
7
100
AcDbSpline
 70
8
 71
3
 72
8
 73
4
 74
0
 40
0
 40
0
 40
0
 40
0
 40
1
 40
1
 40
1
 40
1
 10
-190.497104
 20
223.917836
 30
0.0
 10
-191.379968
 20
226.566340
 30
0.0
 10
-194.388544
 20
226.275244
 30
0.0
 10
-195.330264
 20
223.450084
 30
0.0
  0
SPLINE
  5
444
100
AcDbEntity
  8
Layer_1
 62
7
100
AcDbSpline
 70
8
 71
3
 72
8
 73
4
 74
0
 40
0
 40
0
 40
0
 40
0
 40
1
 40
1
 40
1
 40
1
 10
-195.330264
 20
223.450084
 30
0.0
 10
-195.673272
 20
222.421052
 30
0.0
 10
-194.550736
 20
221.579188
 30
0.0
 10
-192.835728
 20
221.579188
 30
0.0
  0
SPLINE
  5
445
100
AcDbEntity
  8
Layer_1
 62
7
100
AcDbSpline
 70
8
 71
3
 72
8
 73
4
 74
0
 40
0
 40
0
 40
0
 40
0
 40
1
 40
1
 40
1
 40
1
 10
-192.835728
 20
221.579188
 30
0.0
 10
-191.120736
 20
221.579188
 30
0.0
 10
-190.068360
 20
222.631572
 30
0.0
 10
-190.497104
 20
223.917836
 30
0.0
  0
LWPOLYLINE
  5
446
100
AcDbEntity
  8
Layer_1
 62
7
100
AcDbPolyline
 90
2
 70
0
 10
-169.135696
 20
204.814156
 30
0.0
 10
-169.135696
 20
204.814156
 30
0.0
  0
SPLINE
  5
447
100
AcDbEntity
  8
Layer_1
 62
7
100
AcDbSpline
 70
8
 71
3
 72
8
 73
4
 74
0
 40
0
 40
0
 40
0
 40
0
 40
1
 40
1
 40
1
 40
1
 10
-181.533400
 20
236.670892
 30
0.0
 10
-179.811544
 20
239.456884
 30
0.0
 10
-181.807920
 20
240.971612
 30
0.0
 10
-185.390016
 20
239.597028
 30
0.0
  0
SPLINE
  5
448
100
AcDbEntity
  8
Layer_1
 62
7
100
AcDbSpline
 70
8
 71
3
 72
8
 73
4
 74
0
 40
0
 40
0
 40
0
 40
0
 40
1
 40
1
 40
1
 40
1
 10
-185.390016
 20
239.597028
 30
0.0
 10
-187.043112
 20
238.962716
 30
0.0
 10
-187.871640
 20
237.595884
 30
0.0
 10
-187.231216
 20
236.559620
 30
0.0
  0
SPLINE
  5
449
100
AcDbEntity
  8
Layer_1
 62
7
100
AcDbSpline
 70
8
 71
3
 72
8
 73
4
 74
0
 40
0
 40
0
 40
0
 40
0
 40
1
 40
1
 40
1
 40
1
 10
-187.231216
 20
236.559620
 30
0.0
 10
-185.714696
 20
234.105812
 30
0.0
 10
-183.086960
 20
234.157116
 30
0.0
 10
-181.533400
 20
236.670892
 30
0.0
  0
LWPOLYLINE
  5
44a
100
AcDbEntity
  8
Layer_1
 62
7
100
AcDbPolyline
 90
2
 70
0
 10
-190.497104
 20
223.917836
 30
0.0
 10
-190.497104
 20
223.917836
 30
0.0
  0
SPLINE
  5
44b
100
AcDbEntity
  8
Layer_1
 62
7
100
AcDbSpline
 70
8
 71
3
 72
8
 73
4
 74
0
 40
0
 40
0
 40
0
 40
0
 40
1
 40
1
 40
1
 40
1
 10
-703.123744
 20
208.014964
 30
0.0
 10
-707.630752
 20
209.036748
 30
0.0
 10
-707.271264
 20
211.309916
 30
0.0
 10
-700.785120
 20
222.802724
 30
0.0
  0
SPLINE
  5
44c
100
AcDbEntity
  8
Layer_1
 62
7
100
AcDbSpline
 70
8
 71
3
 72
8
 73
4
 74
0
 40
0
 40
0
 40
0
 40
0
 40
1
 40
1
 40
1
 40
1
 10
-700.785120
 20
222.802724
 30
0.0
 10
-697.698136
 20
228.272612
 30
0.0
 10
-695.172424
 20
233.602572
 30
0.0
 10
-695.172424
 20
234.647100
 30
0.0
  0
SPLINE
  5
44d
100
AcDbEntity
  8
Layer_1
 62
7
100
AcDbSpline
 70
8
 71
3
 72
8
 73
4
 74
0
 40
0
 40
0
 40
0
 40
0
 40
1
 40
1
 40
1
 40
1
 10
-695.172424
 20
234.647100
 30
0.0
 10
-695.172424
 20
238.995868
 30
0.0
 10
-698.887280
 20
235.985684
 30
0.0
 10
-703.740424
 20
227.704404
 30
0.0
  0
SPLINE
  5
44e
100
AcDbEntity
  8
Layer_1
 62
7
100
AcDbSpline
 70
8
 71
3
 72
8
 73
4
 74
0
 40
0
 40
0
 40
0
 40
0
 40
1
 40
1
 40
1
 40
1
 10
-703.740424
 20
227.704404
 30
0.0
 10
-706.590400
 20
222.841276
 30
0.0
 10
-709.275712
 20
219.922892
 30
0.0
 10
-709.707784
 20
221.219148
 30
0.0
  0
SPLINE
  5
44f
100
AcDbEntity
  8
Layer_1
 62
7
100
AcDbSpline
 70
8
 71
3
 72
8
 73
4
 74
0
 40
0
 40
0
 40
0
 40
0
 40
1
 40
1
 40
1
 40
1
 10
-709.707784
 20
221.219148
 30
0.0
 10
-710.139856
 20
222.515300
 30
0.0
 10
-709.499400
 20
224.773572
 30
0.0
 10
-708.284528
 20
226.237404
 30
0.0
  0
SPLINE
  5
450
100
AcDbEntity
  8
Layer_1
 62
7
100
AcDbSpline
 70
8
 71
3
 72
8
 73
4
 74
0
 40
0
 40
0
 40
0
 40
0
 40
1
 40
1
 40
1
 40
1
 10
-708.284528
 20
226.237404
 30
0.0
 10
-705.092120
 20
230.084052
 30
0.0
 10
-707.790400
 20
233.655404
 30
0.0
 10
-711.547936
 20
230.556796
 30
0.0
  0
SPLINE
  5
451
100
AcDbEntity
  8
Layer_1
 62
7
100
AcDbSpline
 70
8
 71
3
 72
8
 73
4
 74
0
 40
0
 40
0
 40
0
 40
0
 40
1
 40
1
 40
1
 40
1
 10
-711.547936
 20
230.556796
 30
0.0
 10
-714.147728
 20
228.412860
 30
0.0
 10
-714.244912
 20
228.594916
 30
0.0
 10
-712.374728
 20
232.105692
 30
0.0
  0
SPLINE
  5
452
100
AcDbEntity
  8
Layer_1
 62
7
100
AcDbSpline
 70
8
 71
3
 72
8
 73
4
 74
0
 40
0
 40
0
 40
0
 40
0
 40
1
 40
1
 40
1
 40
1
 10
-712.374728
 20
232.105692
 30
0.0
 10
-708.883192
 20
238.659996
 30
0.0
 10
-676.697600
 20
272.801620
 30
0.0
 10
-671.387560
 20
275.583852
 30
0.0
  0
SPLINE
  5
453
100
AcDbEntity
  8
Layer_1
 62
7
100
AcDbSpline
 70
8
 71
3
 72
8
 73
4
 74
0
 40
0
 40
0
 40
0
 40
0
 40
1
 40
1
 40
1
 40
1
 10
-671.387560
 20
275.583852
 30
0.0
 10
-667.001304
 20
277.882100
 30
0.0
 10
-666.186616
 20
277.792860
 30
0.0
 10
-663.977840
 20
274.772172
 30
0.0
  0
SPLINE
  5
454
100
AcDbEntity
  8
Layer_1
 62
7
100
AcDbSpline
 70
8
 71
3
 72
8
 73
4
 74
0
 40
0
 40
0
 40
0
 40
0
 40
1
 40
1
 40
1
 40
1
 10
-663.977840
 20
274.772172
 30
0.0
 10
-662.612944
 20
272.905556
 30
0.0
 10
-661.496224
 20
270.306012
 30
0.0
 10
-661.496224
 20
268.995372
 30
0.0
  0
SPLINE
  5
455
100
AcDbEntity
  8
Layer_1
 62
7
100
AcDbSpline
 70
8
 71
3
 72
8
 73
4
 74
0
 40
0
 40
0
 40
0
 40
0
 40
1
 40
1
 40
1
 40
1
 10
-661.496224
 20
268.995372
 30
0.0
 10
-661.496224
 20
265.769060
 30
0.0
 10
-668.014816
 20
262.486156
 30
0.0
 10
-671.650640
 20
263.881340
 30
0.0
  0
SPLINE
  5
456
100
AcDbEntity
  8
Layer_1
 62
7
100
AcDbSpline
 70
8
 71
3
 72
8
 73
4
 74
0
 40
0
 40
0
 40
0
 40
0
 40
1
 40
1
 40
1
 40
1
 10
-671.650640
 20
263.881340
 30
0.0
 10
-675.085408
 20
265.199316
 30
0.0
 10
-675.342912
 20
263.895660
 30
0.0
 10
-672.643672
 20
258.851548
 30
0.0
  0
SPLINE
  5
457
100
AcDbEntity
  8
Layer_1
 62
7
100
AcDbSpline
 70
8
 71
3
 72
8
 73
4
 74
0
 40
0
 40
0
 40
0
 40
0
 40
1
 40
1
 40
1
 40
1
 10
-672.643672
 20
258.851548
 30
0.0
 10
-671.086504
 20
255.941940
 30
0.0
 10
-671.685376
 20
253.911428
 30
0.0
 10
-675.623496
 20
248.748228
 30
0.0
  0
SPLINE
  5
458
100
AcDbEntity
  8
Layer_1
 62
7
100
AcDbSpline
 70
8
 71
3
 72
8
 73
4
 74
0
 40
0
 40
0
 40
0
 40
0
 40
1
 40
1
 40
1
 40
1
 10
-675.623496
 20
248.748228
 30
0.0
 10
-679.148976
 20
244.126124
 30
0.0
 10
-680.988800
 20
238.765764
 30
0.0
 10
-682.085792
 20
229.920244
 30
0.0
  0
SPLINE
  5
459
100
AcDbEntity
  8
Layer_1
 62
7
100
AcDbSpline
 70
8
 71
3
 72
8
 73
4
 74
0
 40
0
 40
0
 40
0
 40
0
 40
1
 40
1
 40
1
 40
1
 10
-682.085792
 20
229.920244
 30
0.0
 10
-683.131544
 20
221.488004
 30
0.0
 10
-684.713080
 20
216.694236
 30
0.0
 10
-687.057296
 20
214.851396
 30
0.0
  0
SPLINE
  5
45a
100
AcDbEntity
  8
Layer_1
 62
7
100
AcDbSpline
 70
8
 71
3
 72
8
 73
4
 74
0
 40
0
 40
0
 40
0
 40
0
 40
1
 40
1
 40
1
 40
1
 10
-687.057296
 20
214.851396
 30
0.0
 10
-693.136664
 20
210.072212
 30
0.0
 10
-699.762424
 20
207.252956
 30
0.0
 10
-703.123744
 20
208.014964
 30
0.0
  0
LWPOLYLINE
  5
45b
100
AcDbEntity
  8
Layer_1
 62
7
100
AcDbPolyline
 90
2
 70
0
 10
-181.533400
 20
236.670892
 30
0.0
 10
-181.533400
 20
236.670892
 30
0.0
  0
SPLINE
  5
45c
100
AcDbEntity
  8
Layer_1
 62
7
100
AcDbSpline
 70
8
 71
3
 72
8
 73
4
 74
0
 40
0
 40
0
 40
0
 40
0
 40
1
 40
1
 40
1
 40
1
 10
-667.108920
 20
269.287084
 30
0.0
 10
-667.108920
 20
270.830572
 30
0.0
 10
-668.371776
 20
272.093468
 30
0.0
 10
-669.915272
 20
272.093468
 30
0.0
  0
SPLINE
  5
45d
100
AcDbEntity
  8
Layer_1
 62
7
100
AcDbSpline
 70
8
 71
3
 72
8
 73
4
 74
0
 40
0
 40
0
 40
0
 40
0
 40
1
 40
1
 40
1
 40
1
 10
-669.915272
 20
272.093468
 30
0.0
 10
-672.836816
 20
272.093468
 30
0.0
 10
-673.627080
 20
269.880796
 30
0.0
 10
-671.474344
 20
267.728084
 30
0.0
  0
SPLINE
  5
45e
100
AcDbEntity
  8
Layer_1
 62
7
100
AcDbSpline
 70
8
 71
3
 72
8
 73
4
 74
0
 40
0
 40
0
 40
0
 40
0
 40
1
 40
1
 40
1
 40
1
 10
-671.474344
 20
267.728084
 30
0.0
 10
-669.321632
 20
265.575268
 30
0.0
 10
-667.108920
 20
266.365532
 30
0.0
 10
-667.108920
 20
269.287084
 30
0.0
  0
LWPOLYLINE
  5
45f
100
AcDbEntity
  8
Layer_1
 62
7
100
AcDbPolyline
 90
2
 70
0
 10
-703.123744
 20
208.014964
 30
0.0
 10
-703.123744
 20
208.014964
 30
0.0
  0
SPLINE
  5
460
100
AcDbEntity
  8
Layer_1
 62
7
100
AcDbSpline
 70
8
 71
3
 72
8
 73
4
 74
0
 40
0
 40
0
 40
0
 40
0
 40
1
 40
1
 40
1
 40
1
 10
-292.565808
 20
210.406444
 30
0.0
 10
-300.682968
 20
215.342804
 30
0.0
 10
-304.154304
 20
221.373060
 30
0.0
 10
-304.154304
 20
230.537516
 30
0.0
  0
SPLINE
  5
461
100
AcDbEntity
  8
Layer_1
 62
7
100
AcDbSpline
 70
8
 71
3
 72
8
 73
4
 74
0
 40
0
 40
0
 40
0
 40
0
 40
1
 40
1
 40
1
 40
1
 10
-304.154304
 20
230.537516
 30
0.0
 10
-304.154304
 20
239.226172
 30
0.0
 10
-306.167232
 20
244.421500
 30
0.0
 10
-312.031984
 20
250.869316
 30
0.0
  0
SPLINE
  5
462
100
AcDbEntity
  8
Layer_1
 62
7
100
AcDbSpline
 70
8
 71
3
 72
8
 73
4
 74
0
 40
0
 40
0
 40
0
 40
0
 40
1
 40
1
 40
1
 40
1
 10
-312.031984
 20
250.869316
 30
0.0
 10
-314.964696
 20
254.093588
 30
0.0
 10
-315.292976
 20
255.663396
 30
0.0
 10
-313.669096
 20
258.697644
 30
0.0
  0
SPLINE
  5
463
100
AcDbEntity
  8
Layer_1
 62
7
100
AcDbSpline
 70
8
 71
3
 72
8
 73
4
 74
0
 40
0
 40
0
 40
0
 40
0
 40
1
 40
1
 40
1
 40
1
 10
-313.669096
 20
258.697644
 30
0.0
 10
-310.857664
 20
263.950900
 30
0.0
 10
-311.114160
 20
265.019708
 30
0.0
 10
-314.911976
 20
263.876540
 30
0.0
  0
SPLINE
  5
464
100
AcDbEntity
  8
Layer_1
 62
7
100
AcDbSpline
 70
8
 71
3
 72
8
 73
4
 74
0
 40
0
 40
0
 40
0
 40
0
 40
1
 40
1
 40
1
 40
1
 10
-314.911976
 20
263.876540
 30
0.0
 10
-316.712712
 20
263.334540
 30
0.0
 10
-319.678072
 20
264.015668
 30
0.0
 10
-321.501672
 20
265.390260
 30
0.0
  0
SPLINE
  5
465
100
AcDbEntity
  8
Layer_1
 62
7
100
AcDbSpline
 70
8
 71
3
 72
8
 73
4
 74
0
 40
0
 40
0
 40
0
 40
0
 40
1
 40
1
 40
1
 40
1
 10
-321.501672
 20
265.390260
 30
0.0
 10
-324.173168
 20
267.403948
 30
0.0
 10
-324.454760
 20
268.843092
 30
0.0
 10
-322.951152
 20
272.797852
 30
0.0
  0
SPLINE
  5
466
100
AcDbEntity
  8
Layer_1
 62
7
100
AcDbSpline
 70
8
 71
3
 72
8
 73
4
 74
0
 40
0
 40
0
 40
0
 40
0
 40
1
 40
1
 40
1
 40
1
 10
-322.951152
 20
272.797852
 30
0.0
 10
-320.776296
 20
278.518140
 30
0.0
 10
-320.590560
 20
278.562004
 30
0.0
 10
-313.673600
 20
274.985036
 30
0.0
  0
SPLINE
  5
467
100
AcDbEntity
  8
Layer_1
 62
7
100
AcDbSpline
 70
8
 71
3
 72
8
 73
4
 74
0
 40
0
 40
0
 40
0
 40
0
 40
1
 40
1
 40
1
 40
1
 10
-313.673600
 20
274.985036
 30
0.0
 10
-308.107864
 20
272.106932
 30
0.0
 10
-281.307512
 20
243.792188
 30
0.0
 10
-275.566096
 20
234.724212
 30
0.0
  0
SPLINE
  5
468
100
AcDbEntity
  8
Layer_1
 62
7
100
AcDbSpline
 70
8
 71
3
 72
8
 73
4
 74
0
 40
0
 40
0
 40
0
 40
0
 40
1
 40
1
 40
1
 40
1
 10
-275.566096
 20
234.724212
 30
0.0
 10
-272.228496
 20
229.452796
 30
0.0
 10
-272.235480
 20
229.383444
 30
0.0
 10
-276.003512
 20
230.368716
 30
0.0
  0
SPLINE
  5
469
100
AcDbEntity
  8
Layer_1
 62
7
100
AcDbSpline
 70
8
 71
3
 72
8
 73
4
 74
0
 40
0
 40
0
 40
0
 40
0
 40
1
 40
1
 40
1
 40
1
 10
-276.003512
 20
230.368716
 30
0.0
 10
-280.342656
 20
231.503516
 30
0.0
 10
-280.702376
 20
230.442156
 30
0.0
 10
-277.810112
 20
225.037740
 30
0.0
  0
SPLINE
  5
46a
100
AcDbEntity
  8
Layer_1
 62
7
100
AcDbSpline
 70
8
 71
3
 72
8
 73
4
 74
0
 40
0
 40
0
 40
0
 40
0
 40
1
 40
1
 40
1
 40
1
 10
-277.810112
 20
225.037740
 30
0.0
 10
-273.654576
 20
217.273060
 30
0.0
 10
-277.701976
 20
219.871692
 30
0.0
 10
-282.490504
 20
228.042820
 30
0.0
  0
SPLINE
  5
46b
100
AcDbEntity
  8
Layer_1
 62
7
100
AcDbSpline
 70
8
 71
3
 72
8
 73
4
 74
0
 40
0
 40
0
 40
0
 40
0
 40
1
 40
1
 40
1
 40
1
 10
-282.490504
 20
228.042820
 30
0.0
 10
-287.097248
 20
235.903580
 30
0.0
 10
-291.058000
 20
239.013204
 30
0.0
 10
-291.058000
 20
234.769188
 30
0.0
  0
SPLINE
  5
46c
100
AcDbEntity
  8
Layer_1
 62
7
100
AcDbSpline
 70
8
 71
3
 72
8
 73
4
 74
0
 40
0
 40
0
 40
0
 40
0
 40
1
 40
1
 40
1
 40
1
 10
-291.058000
 20
234.769188
 30
0.0
 10
-291.058000
 20
233.791676
 30
0.0
 10
-288.153584
 20
228.170524
 30
0.0
 10
-284.603776
 20
222.277652
 30
0.0
  0
SPLINE
  5
46d
100
AcDbEntity
  8
Layer_1
 62
7
100
AcDbSpline
 70
8
 71
3
 72
8
 73
4
 74
0
 40
0
 40
0
 40
0
 40
0
 40
1
 40
1
 40
1
 40
1
 10
-284.603776
 20
222.277652
 30
0.0
 10
-281.053968
 20
216.384780
 30
0.0
 10
-278.515120
 20
210.971900
 30
0.0
 10
-278.961928
 20
210.248964
 30
0.0
  0
SPLINE
  5
46e
100
AcDbEntity
  8
Layer_1
 62
7
100
AcDbSpline
 70
8
 71
3
 72
8
 73
4
 74
0
 40
0
 40
0
 40
0
 40
0
 40
1
 40
1
 40
1
 40
1
 10
-278.961928
 20
210.248964
 30
0.0
 10
-280.848696
 20
207.196148
 30
0.0
 10
-287.411728
 20
207.272132
 30
0.0
 10
-292.565808
 20
210.406444
 30
0.0
  0
LWPOLYLINE
  5
46f
100
AcDbEntity
  8
Layer_1
 62
7
100
AcDbPolyline
 90
2
 70
0
 10
-667.108920
 20
269.287084
 30
0.0
 10
-667.108920
 20
269.287084
 30
0.0
  0
SPLINE
  5
470
100
AcDbEntity
  8
Layer_1
 62
7
100
AcDbSpline
 70
8
 71
3
 72
8
 73
4
 74
0
 40
0
 40
0
 40
0
 40
0
 40
1
 40
1
 40
1
 40
1
 10
-314.444240
 20
268.351676
 30
0.0
 10
-312.429544
 20
271.611548
 30
0.0
 10
-315.415792
 20
274.392540
 30
0.0
 10
-318.332008
 20
271.972300
 30
0.0
  0
SPLINE
  5
471
100
AcDbEntity
  8
Layer_1
 62
7
100
AcDbSpline
 70
8
 71
3
 72
8
 73
4
 74
0
 40
0
 40
0
 40
0
 40
0
 40
1
 40
1
 40
1
 40
1
 10
-318.332008
 20
271.972300
 30
0.0
 10
-319.772568
 20
270.776820
 30
0.0
 10
-320.489824
 20
269.052084
 30
0.0
 10
-319.925928
 20
268.139740
 30
0.0
  0
SPLINE
  5
472
100
AcDbEntity
  8
Layer_1
 62
7
100
AcDbSpline
 70
8
 71
3
 72
8
 73
4
 74
0
 40
0
 40
0
 40
0
 40
0
 40
1
 40
1
 40
1
 40
1
 10
-319.925928
 20
268.139740
 30
0.0
 10
-318.561144
 20
265.931444
 30
0.0
 10
-315.875856
 20
266.035268
 30
0.0
 10
-314.444240
 20
268.351676
 30
0.0
  0
LWPOLYLINE
  5
473
100
AcDbEntity
  8
Layer_1
 62
7
100
AcDbPolyline
 90
2
 70
0
 10
-292.565808
 20
210.406444
 30
0.0
 10
-292.565808
 20
210.406444
 30
0.0
  0
SPLINE
  5
474
100
AcDbEntity
  8
Layer_1
 62
7
100
AcDbSpline
 70
8
 71
3
 72
8
 73
4
 74
0
 40
0
 40
0
 40
0
 40
0
 40
1
 40
1
 40
1
 40
1
 10
-662.422672
 20
222.276732
 30
0.0
 10
-665.765728
 20
224.721252
 30
0.0
 10
-665.557320
 20
225.319756
 30
0.0
 10
-658.103008
 20
234.681988
 30
0.0
  0
SPLINE
  5
475
100
AcDbEntity
  8
Layer_1
 62
7
100
AcDbSpline
 70
8
 71
3
 72
8
 73
4
 74
0
 40
0
 40
0
 40
0
 40
0
 40
1
 40
1
 40
1
 40
1
 10
-658.103008
 20
234.681988
 30
0.0
 10
-650.117808
 20
244.710956
 30
0.0
 10
-649.133176
 20
246.847860
 30
0.0
 10
-651.751592
 20
248.466116
 30
0.0
  0
SPLINE
  5
476
100
AcDbEntity
  8
Layer_1
 62
7
100
AcDbSpline
 70
8
 71
3
 72
8
 73
4
 74
0
 40
0
 40
0
 40
0
 40
0
 40
1
 40
1
 40
1
 40
1
 10
-651.751592
 20
248.466116
 30
0.0
 10
-652.566016
 20
248.969452
 30
0.0
 10
-655.723152
 20
245.670012
 30
0.0
 10
-658.767464
 20
241.134092
 30
0.0
  0
SPLINE
  5
477
100
AcDbEntity
  8
Layer_1
 62
7
100
AcDbSpline
 70
8
 71
3
 72
8
 73
4
 74
0
 40
0
 40
0
 40
0
 40
0
 40
1
 40
1
 40
1
 40
1
 10
-658.767464
 20
241.134092
 30
0.0
 10
-663.924480
 20
233.450188
 30
0.0
 10
-667.108920
 20
230.825652
 30
0.0
 10
-667.108920
 20
234.259220
 30
0.0
  0
SPLINE
  5
478
100
AcDbEntity
  8
Layer_1
 62
7
100
AcDbSpline
 70
8
 71
3
 72
8
 73
4
 74
0
 40
0
 40
0
 40
0
 40
0
 40
1
 40
1
 40
1
 40
1
 10
-667.108920
 20
234.259220
 30
0.0
 10
-667.108920
 20
235.059268
 30
0.0
 10
-665.875792
 20
237.474308
 30
0.0
 10
-664.368616
 20
239.626092
 30
0.0
  0
SPLINE
  5
479
100
AcDbEntity
  8
Layer_1
 62
7
100
AcDbSpline
 70
8
 71
3
 72
8
 73
4
 74
0
 40
0
 40
0
 40
0
 40
0
 40
1
 40
1
 40
1
 40
1
 10
-664.368616
 20
239.626092
 30
0.0
 10
-661.249400
 20
244.079404
 30
0.0
 10
-662.686232
 20
246.924148
 30
0.0
 10
-666.469056
 20
243.784636
 30
0.0
  0
SPLINE
  5
47a
100
AcDbEntity
  8
Layer_1
 62
7
100
AcDbSpline
 70
8
 71
3
 72
8
 73
4
 74
0
 40
0
 40
0
 40
0
 40
0
 40
1
 40
1
 40
1
 40
1
 10
-666.469056
 20
243.784636
 30
0.0
 10
-667.985872
 20
242.525812
 30
0.0
 10
-668.979816
 20
242.437900
 30
0.0
 10
-668.979816
 20
243.562596
 30
0.0
  0
SPLINE
  5
47b
100
AcDbEntity
  8
Layer_1
 62
7
100
AcDbSpline
 70
8
 71
3
 72
8
 73
4
 74
0
 40
0
 40
0
 40
0
 40
0
 40
1
 40
1
 40
1
 40
1
 10
-668.979816
 20
243.562596
 30
0.0
 10
-668.979816
 20
247.850364
 30
0.0
 10
-629.883480
 20
279.341036
 30
0.0
 10
-619.812856
 20
283.164836
 30
0.0
  0
SPLINE
  5
47c
100
AcDbEntity
  8
Layer_1
 62
7
100
AcDbSpline
 70
8
 71
3
 72
8
 73
4
 74
0
 40
0
 40
0
 40
0
 40
0
 40
1
 40
1
 40
1
 40
1
 10
-619.812856
 20
283.164836
 30
0.0
 10
-615.070040
 20
284.965764
 30
0.0
 10
-614.440744
 20
284.689052
 30
0.0
 10
-612.666952
 20
280.023692
 30
0.0
  0
SPLINE
  5
47d
100
AcDbEntity
  8
Layer_1
 62
7
100
AcDbSpline
 70
8
 71
3
 72
8
 73
4
 74
0
 40
0
 40
0
 40
0
 40
0
 40
1
 40
1
 40
1
 40
1
 10
-612.666952
 20
280.023692
 30
0.0
 10
-611.013640
 20
275.675132
 30
0.0
 10
-611.302640
 20
274.522180
 30
0.0
 10
-614.593704
 20
272.336940
 30
0.0
  0
SPLINE
  5
47e
100
AcDbEntity
  8
Layer_1
 62
7
100
AcDbSpline
 70
8
 71
3
 72
8
 73
4
 74
0
 40
0
 40
0
 40
0
 40
0
 40
1
 40
1
 40
1
 40
1
 10
-614.593704
 20
272.336940
 30
0.0
 10
-619.499928
 20
269.079316
 30
0.0
 10
-619.557624
 20
266.480788
 30
0.0
 10
-614.723720
 20
266.480788
 30
0.0
  0
SPLINE
  5
47f
100
AcDbEntity
  8
Layer_1
 62
7
100
AcDbSpline
 70
8
 71
3
 72
8
 73
4
 74
0
 40
0
 40
0
 40
0
 40
0
 40
1
 40
1
 40
1
 40
1
 10
-614.723720
 20
266.480788
 30
0.0
 10
-612.665720
 20
266.480788
 30
0.0
 10
-610.981912
 20
267.322652
 30
0.0
 10
-610.981912
 20
268.351676
 30
0.0
  0
SPLINE
  5
480
100
AcDbEntity
  8
Layer_1
 62
7
100
AcDbSpline
 70
8
 71
3
 72
8
 73
4
 74
0
 40
0
 40
0
 40
0
 40
0
 40
1
 40
1
 40
1
 40
1
 10
-610.981912
 20
268.351676
 30
0.0
 10
-610.981912
 20
269.380708
 30
0.0
 10
-609.719056
 20
270.222572
 30
0.0
 10
-608.175560
 20
270.222572
 30
0.0
  0
SPLINE
  5
481
100
AcDbEntity
  8
Layer_1
 62
7
100
AcDbSpline
 70
8
 71
3
 72
8
 73
4
 74
0
 40
0
 40
0
 40
0
 40
0
 40
1
 40
1
 40
1
 40
1
 10
-608.175560
 20
270.222572
 30
0.0
 10
-600.911248
 20
270.222572
 30
0.0
 10
-611.277480
 20
260.868708
 30
0.0
 10
-620.009104
 20
259.544708
 30
0.0
  0
SPLINE
  5
482
100
AcDbEntity
  8
Layer_1
 62
7
100
AcDbSpline
 70
8
 71
3
 72
8
 73
4
 74
0
 40
0
 40
0
 40
0
 40
0
 40
1
 40
1
 40
1
 40
1
 10
-620.009104
 20
259.544708
 30
0.0
 10
-628.171976
 20
258.306900
 30
0.0
 10
-634.529016
 20
253.058844
 30
0.0
 10
-636.184424
 20
246.191212
 30
0.0
  0
SPLINE
  5
483
100
AcDbEntity
  8
Layer_1
 62
7
100
AcDbSpline
 70
8
 71
3
 72
8
 73
4
 74
0
 40
0
 40
0
 40
0
 40
0
 40
1
 40
1
 40
1
 40
1
 10
-636.184424
 20
246.191212
 30
0.0
 10
-640.562392
 20
228.028644
 30
0.0
 10
-640.822392
 20
227.571092
 30
0.0
 10
-649.021856
 20
223.601852
 30
0.0
  0
SPLINE
  5
484
100
AcDbEntity
  8
Layer_1
 62
7
100
AcDbSpline
 70
8
 71
3
 72
8
 73
4
 74
0
 40
0
 40
0
 40
0
 40
0
 40
1
 40
1
 40
1
 40
1
 10
-649.021856
 20
223.601852
 30
0.0
 10
-658.559376
 20
218.984844
 30
0.0
 10
-657.996832
 20
219.040428
 30
0.0
 10
-662.422672
 20
222.276732
 30
0.0
  0
LWPOLYLINE
  5
485
100
AcDbEntity
  8
Layer_1
 62
7
100
AcDbPolyline
 90
2
 70
0
 10
-314.444240
 20
268.351676
 30
0.0
 10
-314.444240
 20
268.351676
 30
0.0
  0
SPLINE
  5
486
100
AcDbEntity
  8
Layer_1
 62
7
100
AcDbSpline
 70
8
 71
3
 72
8
 73
4
 74
0
 40
0
 40
0
 40
0
 40
0
 40
1
 40
1
 40
1
 40
1
 10
-615.650992
 20
275.848524
 30
0.0
 10
-615.010544
 20
276.884796
 30
0.0
 10
-615.839088
 20
278.251628
 30
0.0
 10
-617.492168
 20
278.885932
 30
0.0
  0
SPLINE
  5
487
100
AcDbEntity
  8
Layer_1
 62
7
100
AcDbSpline
 70
8
 71
3
 72
8
 73
4
 74
0
 40
0
 40
0
 40
0
 40
0
 40
1
 40
1
 40
1
 40
1
 10
-617.492168
 20
278.885932
 30
0.0
 10
-621.074288
 20
280.260524
 30
0.0
 10
-623.070664
 20
278.745796
 30
0.0
 10
-621.348800
 20
275.959804
 30
0.0
  0
SPLINE
  5
488
100
AcDbEntity
  8
Layer_1
 62
7
100
AcDbSpline
 70
8
 71
3
 72
8
 73
4
 74
0
 40
0
 40
0
 40
0
 40
0
 40
1
 40
1
 40
1
 40
1
 10
-621.348800
 20
275.959804
 30
0.0
 10
-619.795240
 20
273.446028
 30
0.0
 10
-617.167496
 20
273.394724
 30
0.0
 10
-615.650992
 20
275.848524
 30
0.0
  0
LWPOLYLINE
  5
489
100
AcDbEntity
  8
Layer_1
 62
7
100
AcDbPolyline
 90
2
 70
0
 10
-662.422672
 20
222.276732
 30
0.0
 10
-662.422672
 20
222.276732
 30
0.0
  0
SPLINE
  5
48a
100
AcDbEntity
  8
Layer_1
 62
7
100
AcDbSpline
 70
8
 71
3
 72
8
 73
4
 74
0
 40
0
 40
0
 40
0
 40
0
 40
1
 40
1
 40
1
 40
1
 10
-337.327592
 20
223.734452
 30
0.0
 10
-343.557656
 20
226.756252
 30
0.0
 10
-345.647504
 20
229.027684
 30
0.0
 10
-347.139384
 20
234.398852
 30
0.0
  0
SPLINE
  5
48b
100
AcDbEntity
  8
Layer_1
 62
7
100
AcDbSpline
 70
8
 71
3
 72
8
 73
4
 74
0
 40
0
 40
0
 40
0
 40
0
 40
1
 40
1
 40
1
 40
1
 10
-347.139384
 20
234.398852
 30
0.0
 10
-348.181984
 20
238.152468
 30
0.0
 10
-349.039728
 20
242.632396
 30
0.0
 10
-349.045464
 20
244.354180
 30
0.0
  0
SPLINE
  5
48c
100
AcDbEntity
  8
Layer_1
 62
7
100
AcDbSpline
 70
8
 71
3
 72
8
 73
4
 74
0
 40
0
 40
0
 40
0
 40
0
 40
1
 40
1
 40
1
 40
1
 10
-349.045464
 20
244.354180
 30
0.0
 10
-349.065864
 20
250.486532
 30
0.0
 10
-357.894760
 20
258.435316
 30
0.0
 10
-365.874376
 20
259.505644
 30
0.0
  0
SPLINE
  5
48d
100
AcDbEntity
  8
Layer_1
 62
7
100
AcDbSpline
 70
8
 71
3
 72
8
 73
4
 74
0
 40
0
 40
0
 40
0
 40
0
 40
1
 40
1
 40
1
 40
1
 10
-365.874376
 20
259.505644
 30
0.0
 10
-370.670240
 20
260.148932
 30
0.0
 10
-374.736152
 20
262.120700
 30
0.0
 10
-377.004136
 20
264.903124
 30
0.0
  0
SPLINE
  5
48e
100
AcDbEntity
  8
Layer_1
 62
7
100
AcDbSpline
 70
8
 71
3
 72
8
 73
4
 74
0
 40
0
 40
0
 40
0
 40
0
 40
1
 40
1
 40
1
 40
1
 10
-377.004136
 20
264.903124
 30
0.0
 10
-380.591104
 20
269.303708
 30
0.0
 10
-378.611064
 20
272.462596
 30
0.0
 10
-374.710616
 20
268.562204
 30
0.0
  0
SPLINE
  5
48f
100
AcDbEntity
  8
Layer_1
 62
7
100
AcDbSpline
 70
8
 71
3
 72
8
 73
4
 74
0
 40
0
 40
0
 40
0
 40
0
 40
1
 40
1
 40
1
 40
1
 10
-374.710616
 20
268.562204
 30
0.0
 10
-373.565872
 20
267.417412
 30
0.0
 10
-371.534760
 20
266.480788
 30
0.0
 10
-370.197064
 20
266.480788
 30
0.0
  0
SPLINE
  5
490
100
AcDbEntity
  8
Layer_1
 62
7
100
AcDbSpline
 70
8
 71
3
 72
8
 73
4
 74
0
 40
0
 40
0
 40
0
 40
0
 40
1
 40
1
 40
1
 40
1
 10
-370.197064
 20
266.480788
 30
0.0
 10
-366.461880
 20
266.480788
 30
0.0
 10
-367.312400
 20
271.538724
 30
0.0
 10
-371.219408
 20
272.560404
 30
0.0
  0
SPLINE
  5
491
100
AcDbEntity
  8
Layer_1
 62
7
100
AcDbSpline
 70
8
 71
3
 72
8
 73
4
 74
0
 40
0
 40
0
 40
0
 40
0
 40
1
 40
1
 40
1
 40
1
 10
-371.219408
 20
272.560404
 30
0.0
 10
-373.924520
 20
273.267844
 30
0.0
 10
-374.483656
 20
274.760036
 30
0.0
 10
-373.796920
 20
279.439156
 30
0.0
  0
SPLINE
  5
492
100
AcDbEntity
  8
Layer_1
 62
7
100
AcDbSpline
 70
8
 71
3
 72
8
 73
4
 74
0
 40
0
 40
0
 40
0
 40
0
 40
1
 40
1
 40
1
 40
1
 10
-373.796920
 20
279.439156
 30
0.0
 10
-373.169296
 20
283.715404
 30
0.0
 10
-372.143520
 20
285.116508
 30
0.0
 10
-370.189400
 20
284.366644
 30
0.0
  0
SPLINE
  5
493
100
AcDbEntity
  8
Layer_1
 62
7
100
AcDbSpline
 70
8
 71
3
 72
8
 73
4
 74
0
 40
0
 40
0
 40
0
 40
0
 40
1
 40
1
 40
1
 40
1
 10
-370.189400
 20
284.366644
 30
0.0
 10
-368.687616
 20
283.790372
 30
0.0
 10
-366.745888
 20
283.318844
 30
0.0
 10
-365.874464
 20
283.318844
 30
0.0
  0
SPLINE
  5
494
100
AcDbEntity
  8
Layer_1
 62
7
100
AcDbSpline
 70
8
 71
3
 72
8
 73
4
 74
0
 40
0
 40
0
 40
0
 40
0
 40
1
 40
1
 40
1
 40
1
 10
-365.874464
 20
283.318844
 30
0.0
 10
-363.412608
 20
283.318844
 30
0.0
 10
-328.199672
 20
256.473540
 30
0.0
 10
-322.064232
 20
249.919228
 30
0.0
  0
SPLINE
  5
495
100
AcDbEntity
  8
Layer_1
 62
7
100
AcDbSpline
 70
8
 71
3
 72
8
 73
4
 74
0
 40
0
 40
0
 40
0
 40
0
 40
1
 40
1
 40
1
 40
1
 10
-322.064232
 20
249.919228
 30
0.0
 10
-319.052272
 20
246.701596
 30
0.0
 10
-317.157992
 20
243.498948
 30
0.0
 10
-317.854704
 20
242.802220
 30
0.0
  0
SPLINE
  5
496
100
AcDbEntity
  8
Layer_1
 62
7
100
AcDbSpline
 70
8
 71
3
 72
8
 73
4
 74
0
 40
0
 40
0
 40
0
 40
0
 40
1
 40
1
 40
1
 40
1
 10
-317.854704
 20
242.802220
 30
0.0
 10
-318.551448
 20
242.105492
 30
0.0
 10
-319.121496
 20
242.517652
 30
0.0
 10
-319.121496
 20
243.718140
 30
0.0
  0
SPLINE
  5
497
100
AcDbEntity
  8
Layer_1
 62
7
100
AcDbSpline
 70
8
 71
3
 72
8
 73
4
 74
0
 40
0
 40
0
 40
0
 40
0
 40
1
 40
1
 40
1
 40
1
 10
-319.121496
 20
243.718140
 30
0.0
 10
-319.121496
 20
244.918620
 30
0.0
 10
-320.061584
 20
245.900836
 30
0.0
 10
-321.210600
 20
245.900836
 30
0.0
  0
SPLINE
  5
498
100
AcDbEntity
  8
Layer_1
 62
7
100
AcDbSpline
 70
8
 71
3
 72
8
 73
4
 74
0
 40
0
 40
0
 40
0
 40
0
 40
1
 40
1
 40
1
 40
1
 10
-321.210600
 20
245.900836
 30
0.0
 10
-323.225112
 20
245.900836
 30
0.0
 10
-322.960824
 20
243.566164
 30
0.0
 10
-320.045840
 20
235.610956
 30
0.0
  0
SPLINE
  5
499
100
AcDbEntity
  8
Layer_1
 62
7
100
AcDbSpline
 70
8
 71
3
 72
8
 73
4
 74
0
 40
0
 40
0
 40
0
 40
0
 40
1
 40
1
 40
1
 40
1
 10
-320.045840
 20
235.610956
 30
0.0
 10
-319.291728
 20
233.552900
 30
0.0
 10
-322.057616
 20
235.657916
 30
0.0
 10
-326.192240
 20
240.288148
 30
0.0
  0
SPLINE
  5
49a
100
AcDbEntity
  8
Layer_1
 62
7
100
AcDbSpline
 70
8
 71
3
 72
8
 73
4
 74
0
 40
0
 40
0
 40
0
 40
0
 40
1
 40
1
 40
1
 40
1
 10
-326.192240
 20
240.288148
 30
0.0
 10
-330.326856
 20
244.918620
 30
0.0
 10
-334.333656
 20
248.098420
 30
0.0
 10
-335.096224
 20
247.354260
 30
0.0
  0
SPLINE
  5
49b
100
AcDbEntity
  8
Layer_1
 62
7
100
AcDbSpline
 70
8
 71
3
 72
8
 73
4
 74
0
 40
0
 40
0
 40
0
 40
0
 40
1
 40
1
 40
1
 40
1
 10
-335.096224
 20
247.354260
 30
0.0
 10
-336.524792
 20
245.960292
 30
0.0
 10
-335.232248
 20
243.817684
 30
0.0
 10
-325.753520
 20
231.867228
 30
0.0
  0
SPLINE
  5
49c
100
AcDbEntity
  8
Layer_1
 62
7
100
AcDbSpline
 70
8
 71
3
 72
8
 73
4
 74
0
 40
0
 40
0
 40
0
 40
0
 40
1
 40
1
 40
1
 40
1
 10
-325.753520
 20
231.867228
 30
0.0
 10
-320.419432
 20
225.142284
 30
0.0
 10
-320.349648
 20
224.805292
 30
0.0
 10
-323.772480
 20
222.302436
 30
0.0
  0
SPLINE
  5
49d
100
AcDbEntity
  8
Layer_1
 62
7
100
AcDbSpline
 70
8
 71
3
 72
8
 73
4
 74
0
 40
0
 40
0
 40
0
 40
0
 40
1
 40
1
 40
1
 40
1
 10
-323.772480
 20
222.302436
 30
0.0
 10
-328.136256
 20
219.111620
 30
0.0
 10
-327.702264
 20
219.065724
 30
0.0
 10
-337.327592
 20
223.734452
 30
0.0
  0
LWPOLYLINE
  5
49e
100
AcDbEntity
  8
Layer_1
 62
7
100
AcDbPolyline
 90
2
 70
0
 10
-615.650992
 20
275.848524
 30
0.0
 10
-615.650992
 20
275.848524
 30
0.0
  0
SPLINE
  5
49f
100
AcDbEntity
  8
Layer_1
 62
7
100
AcDbSpline
 70
8
 71
3
 72
8
 73
4
 74
0
 40
0
 40
0
 40
0
 40
0
 40
1
 40
1
 40
1
 40
1
 10
-364.023104
 20
276.770764
 30
0.0
 10
-364.023104
 20
278.314252
 30
0.0
 10
-365.285952
 20
279.577052
 30
0.0
 10
-366.829448
 20
279.577052
 30
0.0
  0
SPLINE
  5
4a0
100
AcDbEntity
  8
Layer_1
 62
7
100
AcDbSpline
 70
8
 71
3
 72
8
 73
4
 74
0
 40
0
 40
0
 40
0
 40
0
 40
1
 40
1
 40
1
 40
1
 10
-366.829448
 20
279.577052
 30
0.0
 10
-368.372936
 20
279.577052
 30
0.0
 10
-369.635800
 20
278.314252
 30
0.0
 10
-369.635800
 20
276.770764
 30
0.0
  0
SPLINE
  5
4a1
100
AcDbEntity
  8
Layer_1
 62
7
100
AcDbSpline
 70
8
 71
3
 72
8
 73
4
 74
0
 40
0
 40
0
 40
0
 40
0
 40
1
 40
1
 40
1
 40
1
 10
-369.635800
 20
276.770764
 30
0.0
 10
-369.635800
 20
275.227276
 30
0.0
 10
-368.372936
 20
273.964364
 30
0.0
 10
-366.829448
 20
273.964364
 30
0.0
  0
SPLINE
  5
4a2
100
AcDbEntity
  8
Layer_1
 62
7
100
AcDbSpline
 70
8
 71
3
 72
8
 73
4
 74
0
 40
0
 40
0
 40
0
 40
0
 40
1
 40
1
 40
1
 40
1
 10
-366.829448
 20
273.964364
 30
0.0
 10
-365.285952
 20
273.964364
 30
0.0
 10
-364.023104
 20
275.227276
 30
0.0
 10
-364.023104
 20
276.770764
 30
0.0
  0
LWPOLYLINE
  5
4a3
100
AcDbEntity
  8
Layer_1
 62
7
100
AcDbPolyline
 90
2
 70
0
 10
-337.327592
 20
223.734452
 30
0.0
 10
-337.327592
 20
223.734452
 30
0.0
  0
SPLINE
  5
4a4
100
AcDbEntity
  8
Layer_1
 62
7
100
AcDbSpline
 70
8
 71
3
 72
8
 73
4
 74
0
 40
0
 40
0
 40
0
 40
0
 40
1
 40
1
 40
1
 40
1
 10
-727.586064
 20
251.981268
 30
0.0
 10
-730.487176
 20
254.105212
 30
0.0
 10
-730.004664
 20
255.206556
 30
0.0
 10
-722.330944
 20
263.976292
 30
0.0
  0
SPLINE
  5
4a5
100
AcDbEntity
  8
Layer_1
 62
7
100
AcDbSpline
 70
8
 71
3
 72
8
 73
4
 74
0
 40
0
 40
0
 40
0
 40
0
 40
1
 40
1
 40
1
 40
1
 10
-722.330944
 20
263.976292
 30
0.0
 10
-714.170288
 20
273.302524
 30
0.0
 10
-712.010536
 20
277.706156
 30
0.0
 10
-715.597160
 20
277.706156
 30
0.0
  0
SPLINE
  5
4a6
100
AcDbEntity
  8
Layer_1
 62
7
100
AcDbSpline
 70
8
 71
3
 72
8
 73
4
 74
0
 40
0
 40
0
 40
0
 40
0
 40
1
 40
1
 40
1
 40
1
 10
-715.597160
 20
277.706156
 30
0.0
 10
-716.540808
 20
277.706156
 30
0.0
 10
-720.413232
 20
274.128068
 30
0.0
 10
-724.202520
 20
269.754828
 30
0.0
  0
SPLINE
  5
4a7
100
AcDbEntity
  8
Layer_1
 62
7
100
AcDbSpline
 70
8
 71
3
 72
8
 73
4
 74
0
 40
0
 40
0
 40
0
 40
0
 40
1
 40
1
 40
1
 40
1
 10
-724.202520
 20
269.754828
 30
0.0
 10
-730.364240
 20
262.643628
 30
0.0
 10
-731.006904
 20
263.083636
 30
0.0
 10
-727.408880
 20
271.950580
 30
0.0
  0
SPLINE
  5
4a8
100
AcDbEntity
  8
Layer_1
 62
7
100
AcDbSpline
 70
8
 71
3
 72
8
 73
4
 74
0
 40
0
 40
0
 40
0
 40
0
 40
1
 40
1
 40
1
 40
1
 10
-727.408880
 20
271.950580
 30
0.0
 10
-726.640280
 20
273.844724
 30
0.0
 10
-727.232520
 20
274.266884
 30
0.0
 10
-729.459272
 20
273.412468
 30
0.0
  0
SPLINE
  5
4a9
100
AcDbEntity
  8
Layer_1
 62
7
100
AcDbSpline
 70
8
 71
3
 72
8
 73
4
 74
0
 40
0
 40
0
 40
0
 40
0
 40
1
 40
1
 40
1
 40
1
 10
-729.459272
 20
273.412468
 30
0.0
 10
-738.955760
 20
269.768292
 30
0.0
 10
-726.211512
 20
282.641500
 30
0.0
 10
-702.649536
 20
300.493388
 30
0.0
  0
SPLINE
  5
4aa
100
AcDbEntity
  8
Layer_1
 62
7
100
AcDbSpline
 70
8
 71
3
 72
8
 73
4
 74
0
 40
0
 40
0
 40
0
 40
0
 40
1
 40
1
 40
1
 40
1
 10
-702.649536
 20
300.493388
 30
0.0
 10
-694.935648
 20
306.337908
 30
0.0
 10
-686.345672
 20
311.681844
 30
0.0
 10
-683.560712
 20
312.368884
 30
0.0
  0
SPLINE
  5
4ab
100
AcDbEntity
  8
Layer_1
 62
7
100
AcDbSpline
 70
8
 71
3
 72
8
 73
4
 74
0
 40
0
 40
0
 40
0
 40
0
 40
1
 40
1
 40
1
 40
1
 10
-683.560712
 20
312.368884
 30
0.0
 10
-679.163968
 20
313.453596
 30
0.0
 10
-678.329904
 20
312.951676
 30
0.0
 10
-677.227064
 20
308.557628
 30
0.0
  0
SPLINE
  5
4ac
100
AcDbEntity
  8
Layer_1
 62
7
100
AcDbSpline
 70
8
 71
3
 72
8
 73
4
 74
0
 40
0
 40
0
 40
0
 40
0
 40
1
 40
1
 40
1
 40
1
 10
-677.227064
 20
308.557628
 30
0.0
 10
-675.820880
 20
302.954940
 30
0.0
 10
-678.404264
 20
300.233708
 30
0.0
 10
-685.175040
 20
300.185668
 30
0.0
  0
SPLINE
  5
4ad
100
AcDbEntity
  8
Layer_1
 62
7
100
AcDbSpline
 70
8
 71
3
 72
8
 73
4
 74
0
 40
0
 40
0
 40
0
 40
0
 40
1
 40
1
 40
1
 40
1
 10
-685.175040
 20
300.185668
 30
0.0
 10
-688.282832
 20
300.163268
 30
0.0
 10
-688.984712
 20
299.297700
 30
0.0
 10
-688.231024
 20
296.415620
 30
0.0
  0
SPLINE
  5
4ae
100
AcDbEntity
  8
Layer_1
 62
7
100
AcDbSpline
 70
8
 71
3
 72
8
 73
4
 74
0
 40
0
 40
0
 40
0
 40
0
 40
1
 40
1
 40
1
 40
1
 10
-688.231024
 20
296.415620
 30
0.0
 10
-687.565896
 20
293.872180
 30
0.0
 10
-689.354648
 20
290.347532
 30
0.0
 10
-693.817720
 20
285.407500
 30
0.0
  0
SPLINE
  5
4af
100
AcDbEntity
  8
Layer_1
 62
7
100
AcDbSpline
 70
8
 71
3
 72
8
 73
4
 74
0
 40
0
 40
0
 40
0
 40
0
 40
1
 40
1
 40
1
 40
1
 10
-693.817720
 20
285.407500
 30
0.0
 10
-698.204016
 20
280.552332
 30
0.0
 10
-700.832128
 20
275.429732
 30
0.0
 10
-701.736688
 20
269.972076
 30
0.0
  0
SPLINE
  5
4b0
100
AcDbEntity
  8
Layer_1
 62
7
100
AcDbSpline
 70
8
 71
3
 72
8
 73
4
 74
0
 40
0
 40
0
 40
0
 40
0
 40
1
 40
1
 40
1
 40
1
 10
-701.736688
 20
269.972076
 30
0.0
 10
-703.648160
 20
258.439188
 30
0.0
 10
-705.282728
 20
256.107788
 30
0.0
 10
-713.864704
 20
252.674020
 30
0.0
  0
SPLINE
  5
4b1
100
AcDbEntity
  8
Layer_1
 62
7
100
AcDbSpline
 70
8
 71
3
 72
8
 73
4
 74
0
 40
0
 40
0
 40
0
 40
0
 40
1
 40
1
 40
1
 40
1
 10
-713.864704
 20
252.674020
 30
0.0
 10
-722.968808
 20
249.031268
 30
0.0
 10
-723.518600
 20
249.003524
 30
0.0
 10
-727.586064
 20
251.981268
 30
0.0
  0
LWPOLYLINE
  5
4b2
100
AcDbEntity
  8
Layer_1
 62
7
100
AcDbPolyline
 90
2
 70
0
 10
-364.023104
 20
276.770764
 30
0.0
 10
-364.023104
 20
276.770764
 30
0.0
  0
SPLINE
  5
4b3
100
AcDbEntity
  8
Layer_1
 62
7
100
AcDbSpline
 70
8
 71
3
 72
8
 73
4
 74
0
 40
0
 40
0
 40
0
 40
0
 40
1
 40
1
 40
1
 40
1
 10
-680.633960
 20
306.120460
 30
0.0
 10
-681.790320
 20
309.589516
 30
0.0
 10
-685.817912
 20
310.164868
 30
0.0
 10
-685.817912
 20
306.861044
 30
0.0
  0
SPLINE
  5
4b4
100
AcDbEntity
  8
Layer_1
 62
7
100
AcDbSpline
 70
8
 71
3
 72
8
 73
4
 74
0
 40
0
 40
0
 40
0
 40
0
 40
1
 40
1
 40
1
 40
1
 10
-685.817912
 20
306.861044
 30
0.0
 10
-685.817912
 20
305.231780
 30
0.0
 10
-684.484896
 20
303.898796
 30
0.0
 10
-682.855664
 20
303.898796
 30
0.0
  0
SPLINE
  5
4b5
100
AcDbEntity
  8
Layer_1
 62
7
100
AcDbSpline
 70
8
 71
3
 72
8
 73
4
 74
0
 40
0
 40
0
 40
0
 40
0
 40
1
 40
1
 40
1
 40
1
 10
-682.855664
 20
303.898796
 30
0.0
 10
-681.226424
 20
303.898796
 30
0.0
 10
-680.226656
 20
304.898556
 30
0.0
 10
-680.633960
 20
306.120460
 30
0.0
  0
LWPOLYLINE
  5
4b6
100
AcDbEntity
  8
Layer_1
 62
7
100
AcDbPolyline
 90
2
 70
0
 10
-727.586064
 20
251.981268
 30
0.0
 10
-727.586064
 20
251.981268
 30
0.0
  0
SPLINE
  5
4b7
100
AcDbEntity
  8
Layer_1
 62
7
100
AcDbSpline
 70
8
 71
3
 72
8
 73
4
 74
0
 40
0
 40
0
 40
0
 40
0
 40
1
 40
1
 40
1
 40
1
 10
-272.794432
 20
252.695236
 30
0.0
 10
-279.137096
 20
255.363932
 30
0.0
 10
-280.135120
 20
256.803292
 30
0.0
 10
-283.517104
 20
268.159316
 30
0.0
  0
SPLINE
  5
4b8
100
AcDbEntity
  8
Layer_1
 62
7
100
AcDbSpline
 70
8
 71
3
 72
8
 73
4
 74
0
 40
0
 40
0
 40
0
 40
0
 40
1
 40
1
 40
1
 40
1
 10
-283.517104
 20
268.159316
 30
0.0
 10
-286.000128
 20
276.496908
 30
0.0
 10
-289.164280
 20
282.518492
 30
0.0
 10
-292.986576
 20
286.180524
 30
0.0
  0
SPLINE
  5
4b9
100
AcDbEntity
  8
Layer_1
 62
7
100
AcDbSpline
 70
8
 71
3
 72
8
 73
4
 74
0
 40
0
 40
0
 40
0
 40
0
 40
1
 40
1
 40
1
 40
1
 10
-292.986576
 20
286.180524
 30
0.0
 10
-297.220800
 20
290.237172
 30
0.0
 10
-298.447848
 20
292.792148
 30
0.0
 10
-297.663192
 20
295.918500
 30
0.0
  0
SPLINE
  5
4ba
100
AcDbEntity
  8
Layer_1
 62
7
100
AcDbSpline
 70
8
 71
3
 72
8
 73
4
 74
0
 40
0
 40
0
 40
0
 40
0
 40
1
 40
1
 40
1
 40
1
 10
-297.663192
 20
295.918500
 30
0.0
 10
-296.793144
 20
299.385108
 30
0.0
 10
-297.372544
 20
300.162212
 30
0.0
 10
-300.844576
 20
300.185668
 30
0.0
  0
SPLINE
  5
4bb
100
AcDbEntity
  8
Layer_1
 62
7
100
AcDbSpline
 70
8
 71
3
 72
8
 73
4
 74
0
 40
0
 40
0
 40
0
 40
0
 40
1
 40
1
 40
1
 40
1
 10
-300.844576
 20
300.185668
 30
0.0
 10
-307.732128
 20
300.231508
 30
0.0
 10
-310.419624
 20
302.914652
 30
0.0
 10
-309.049136
 20
308.375260
 30
0.0
  0
SPLINE
  5
4bc
100
AcDbEntity
  8
Layer_1
 62
7
100
AcDbSpline
 70
8
 71
3
 72
8
 73
4
 74
0
 40
0
 40
0
 40
0
 40
0
 40
1
 40
1
 40
1
 40
1
 10
-309.049136
 20
308.375260
 30
0.0
 10
-307.610768
 20
314.106060
 30
0.0
 10
-305.335072
 20
314.416020
 30
0.0
 10
-297.295128
 20
309.976276
 30
0.0
  0
SPLINE
  5
4bd
100
AcDbEntity
  8
Layer_1
 62
7
100
AcDbSpline
 70
8
 71
3
 72
8
 73
4
 74
0
 40
0
 40
0
 40
0
 40
0
 40
1
 40
1
 40
1
 40
1
 10
-297.295128
 20
309.976276
 30
0.0
 10
-279.327696
 20
300.054404
 30
0.0
 10
-244.363488
 20
268.651140
 30
0.0
 10
-256.446336
 20
273.287836
 30
0.0
  0
SPLINE
  5
4be
100
AcDbEntity
  8
Layer_1
 62
7
100
AcDbSpline
 70
8
 71
3
 72
8
 73
4
 74
0
 40
0
 40
0
 40
0
 40
0
 40
1
 40
1
 40
1
 40
1
 10
-256.446336
 20
273.287836
 30
0.0
 10
-259.731640
 20
274.548500
 30
0.0
 10
-260.170128
 20
271.888364
 30
0.0
 10
-257.171312
 20
268.889604
 30
0.0
  0
SPLINE
  5
4bf
100
AcDbEntity
  8
Layer_1
 62
7
100
AcDbSpline
 70
8
 71
3
 72
8
 73
4
 74
0
 40
0
 40
0
 40
0
 40
0
 40
1
 40
1
 40
1
 40
1
 10
-257.171312
 20
268.889604
 30
0.0
 10
-256.026568
 20
267.744812
 30
0.0
 10
-255.444512
 20
265.744484
 30
0.0
 10
-255.877888
 20
264.444348
 30
0.0
  0
SPLINE
  5
4c0
100
AcDbEntity
  8
Layer_1
 62
7
100
AcDbSpline
 70
8
 71
3
 72
8
 73
4
 74
0
 40
0
 40
0
 40
0
 40
0
 40
1
 40
1
 40
1
 40
1
 10
-255.877888
 20
264.444348
 30
0.0
 10
-256.327480
 20
263.095572
 30
0.0
 10
-259.028760
 20
265.418204
 30
0.0
 10
-262.168792
 20
269.853460
 30
0.0
  0
SPLINE
  5
4c1
100
AcDbEntity
  8
Layer_1
 62
7
100
AcDbSpline
 70
8
 71
3
 72
8
 73
4
 74
0
 40
0
 40
0
 40
0
 40
0
 40
1
 40
1
 40
1
 40
1
 10
-262.168792
 20
269.853460
 30
0.0
 10
-267.209744
 20
276.973740
 30
0.0
 10
-272.348984
 20
280.102028
 30
0.0
 10
-272.348984
 20
276.050172
 30
0.0
  0
SPLINE
  5
4c2
100
AcDbEntity
  8
Layer_1
 62
7
100
AcDbSpline
 70
8
 71
3
 72
8
 73
4
 74
0
 40
0
 40
0
 40
0
 40
0
 40
1
 40
1
 40
1
 40
1
 10
-272.348984
 20
276.050172
 30
0.0
 10
-272.348984
 20
275.139452
 30
0.0
 10
-268.440504
 20
269.646612
 30
0.0
 10
-263.663464
 20
263.844012
 30
0.0
  0
SPLINE
  5
4c3
100
AcDbEntity
  8
Layer_1
 62
7
100
AcDbSpline
 70
8
 71
3
 72
8
 73
4
 74
0
 40
0
 40
0
 40
0
 40
0
 40
1
 40
1
 40
1
 40
1
 10
-263.663464
 20
263.844012
 30
0.0
 10
-258.886424
 20
258.041412
 30
0.0
 10
-255.310064
 20
252.961644
 30
0.0
 10
-255.715976
 20
252.555700
 30
0.0
  0
SPLINE
  5
4c4
100
AcDbEntity
  8
Layer_1
 62
7
100
AcDbSpline
 70
8
 71
3
 72
8
 73
4
 74
0
 40
0
 40
0
 40
0
 40
0
 40
1
 40
1
 40
1
 40
1
 10
-255.715976
 20
252.555700
 30
0.0
 10
-258.171912
 20
250.099868
 30
0.0
 10
-266.793224
 20
250.170244
 30
0.0
 10
-272.794432
 20
252.695236
 30
0.0
  0
LWPOLYLINE
  5
4c5
100
AcDbEntity
  8
Layer_1
 62
7
100
AcDbPolyline
 90
2
 70
0
 10
-680.633960
 20
306.120460
 30
0.0
 10
-680.633960
 20
306.120460
 30
0.0
  0
SPLINE
  5
4c6
100
AcDbEntity
  8
Layer_1
 62
7
100
AcDbSpline
 70
8
 71
3
 72
8
 73
4
 74
0
 40
0
 40
0
 40
0
 40
0
 40
1
 40
1
 40
1
 40
1
 10
-300.077808
 20
306.705092
 30
0.0
 10
-300.570256
 20
309.457940
 30
0.0
 10
-304.642376
 20
308.982740
 30
0.0
 10
-305.617024
 20
306.058748
 30
0.0
  0
SPLINE
  5
4c7
100
AcDbEntity
  8
Layer_1
 62
7
100
AcDbSpline
 70
8
 71
3
 72
8
 73
4
 74
0
 40
0
 40
0
 40
0
 40
0
 40
1
 40
1
 40
1
 40
1
 10
-305.617024
 20
306.058748
 30
0.0
 10
-306.154984
 20
304.444884
 30
0.0
 10
-305.251496
 20
303.773452
 30
0.0
 10
-303.099624
 20
304.187852
 30
0.0
  0
SPLINE
  5
4c8
100
AcDbEntity
  8
Layer_1
 62
7
100
AcDbSpline
 70
8
 71
3
 72
8
 73
4
 74
0
 40
0
 40
0
 40
0
 40
0
 40
1
 40
1
 40
1
 40
1
 10
-303.099624
 20
304.187852
 30
0.0
 10
-301.253560
 20
304.543308
 30
0.0
 10
-299.893728
 20
305.676164
 30
0.0
 10
-300.077808
 20
306.705092
 30
0.0
  0
LWPOLYLINE
  5
4c9
100
AcDbEntity
  8
Layer_1
 62
7
100
AcDbPolyline
 90
2
 70
0
 10
-272.794432
 20
252.695236
 30
0.0
 10
-272.794432
 20
252.695236
 30
0.0
  0
SPLINE
  5
4ca
100
AcDbEntity
  8
Layer_1
 62
7
100
AcDbSpline
 70
8
 71
3
 72
8
 73
4
 74
0
 40
0
 40
0
 40
0
 40
0
 40
1
 40
1
 40
1
 40
1
 10
-653.288568
 20
286.476508
 30
0.0
 10
-655.462824
 20
286.903972
 30
0.0
 10
-658.150344
 20
289.247820
 30
0.0
 10
-659.260824
 20
291.685092
 30
0.0
  0
SPLINE
  5
4cb
100
AcDbEntity
  8
Layer_1
 62
7
100
AcDbSpline
 70
8
 71
3
 72
8
 73
4
 74
0
 40
0
 40
0
 40
0
 40
0
 40
1
 40
1
 40
1
 40
1
 10
-659.260824
 20
291.685092
 30
0.0
 10
-661.209352
 20
295.961644
 30
0.0
 10
-660.826152
 20
296.254268
 30
0.0
 10
-648.291744
 20
300.061444
 30
0.0
  0
SPLINE
  5
4cc
100
AcDbEntity
  8
Layer_1
 62
7
100
AcDbSpline
 70
8
 71
3
 72
8
 73
4
 74
0
 40
0
 40
0
 40
0
 40
0
 40
1
 40
1
 40
1
 40
1
 10
-648.291744
 20
300.061444
 30
0.0
 10
-641.148272
 20
302.231180
 30
0.0
 10
-635.303624
 20
304.824204
 30
0.0
 10
-635.303624
 20
305.823548
 30
0.0
  0
SPLINE
  5
4cd
100
AcDbEntity
  8
Layer_1
 62
7
100
AcDbSpline
 70
8
 71
3
 72
8
 73
4
 74
0
 40
0
 40
0
 40
0
 40
0
 40
1
 40
1
 40
1
 40
1
 10
-635.303624
 20
305.823548
 30
0.0
 10
-635.303624
 20
308.468380
 30
0.0
 10
-641.932544
 20
308.047860
 30
0.0
 10
-649.395456
 20
304.929660
 30
0.0
  0
SPLINE
  5
4ce
100
AcDbEntity
  8
Layer_1
 62
7
100
AcDbSpline
 70
8
 71
3
 72
8
 73
4
 74
0
 40
0
 40
0
 40
0
 40
0
 40
1
 40
1
 40
1
 40
1
 10
-649.395456
 20
304.929660
 30
0.0
 10
-653.411376
 20
303.251748
 30
0.0
 10
-655.883512
 20
302.962076
 30
0.0
 10
-655.883512
 20
304.169396
 30
0.0
  0
SPLINE
  5
4cf
100
AcDbEntity
  8
Layer_1
 62
7
100
AcDbSpline
 70
8
 71
3
 72
8
 73
4
 74
0
 40
0
 40
0
 40
0
 40
0
 40
1
 40
1
 40
1
 40
1
 10
-655.883512
 20
304.169396
 30
0.0
 10
-655.883512
 20
305.242172
 30
0.0
 10
-654.199704
 20
306.560260
 30
0.0
 10
-652.141720
 20
307.098492
 30
0.0
  0
SPLINE
  5
4d0
100
AcDbEntity
  8
Layer_1
 62
7
100
AcDbSpline
 70
8
 71
3
 72
8
 73
4
 74
0
 40
0
 40
0
 40
0
 40
0
 40
1
 40
1
 40
1
 40
1
 10
-652.141720
 20
307.098492
 30
0.0
 10
-648.063144
 20
308.165052
 30
0.0
 10
-646.954744
 20
313.153940
 30
0.0
 10
-650.738544
 20
313.414124
 30
0.0
  0
SPLINE
  5
4d1
100
AcDbEntity
  8
Layer_1
 62
7
100
AcDbSpline
 70
8
 71
3
 72
8
 73
4
 74
0
 40
0
 40
0
 40
0
 40
0
 40
1
 40
1
 40
1
 40
1
 10
-650.738544
 20
313.414124
 30
0.0
 10
-658.793008
 20
313.967956
 30
0.0
 10
-638.084688
 20
317.299012
 30
0.0
 10
-618.465520
 20
318.605468
 30
0.0
  0
SPLINE
  5
4d2
100
AcDbEntity
  8
Layer_1
 62
7
100
AcDbSpline
 70
8
 71
3
 72
8
 73
4
 74
0
 40
0
 40
0
 40
0
 40
0
 40
1
 40
1
 40
1
 40
1
 10
-618.465520
 20
318.605468
 30
0.0
 10
-591.616712
 20
320.393340
 30
0.0
 10
-583.946888
 20
318.975604
 30
0.0
 10
-585.873840
 20
312.581236
 30
0.0
  0
SPLINE
  5
4d3
100
AcDbEntity
  8
Layer_1
 62
7
100
AcDbSpline
 70
8
 71
3
 72
8
 73
4
 74
0
 40
0
 40
0
 40
0
 40
0
 40
1
 40
1
 40
1
 40
1
 10
-585.873840
 20
312.581236
 30
0.0
 10
-586.537648
 20
310.378340
 30
0.0
 10
-587.632088
 20
307.972180
 30
0.0
 10
-588.305928
 20
307.234140
 30
0.0
  0
SPLINE
  5
4d4
100
AcDbEntity
  8
Layer_1
 62
7
100
AcDbSpline
 70
8
 71
3
 72
8
 73
4
 74
0
 40
0
 40
0
 40
0
 40
0
 40
1
 40
1
 40
1
 40
1
 10
-588.305928
 20
307.234140
 30
0.0
 10
-589.896088
 20
305.492476
 30
0.0
 10
-597.885616
 20
307.573788
 30
0.0
 10
-597.885616
 20
309.729652
 30
0.0
  0
SPLINE
  5
4d5
100
AcDbEntity
  8
Layer_1
 62
7
100
AcDbSpline
 70
8
 71
3
 72
8
 73
4
 74
0
 40
0
 40
0
 40
0
 40
0
 40
1
 40
1
 40
1
 40
1
 10
-597.885616
 20
309.729652
 30
0.0
 10
-597.885616
 20
313.080708
 30
0.0
 10
-601.090728
 20
311.242036
 30
0.0
 10
-603.157904
 20
306.705092
 30
0.0
  0
SPLINE
  5
4d6
100
AcDbEntity
  8
Layer_1
 62
7
100
AcDbSpline
 70
8
 71
3
 72
8
 73
4
 74
0
 40
0
 40
0
 40
0
 40
0
 40
1
 40
1
 40
1
 40
1
 10
-603.157904
 20
306.705092
 30
0.0
 10
-604.829848
 20
303.035612
 30
0.0
 10
-606.675512
 20
302.027908
 30
0.0
 10
-611.724488
 20
302.027908
 30
0.0
  0
SPLINE
  5
4d7
100
AcDbEntity
  8
Layer_1
 62
7
100
AcDbSpline
 70
8
 71
3
 72
8
 73
4
 74
0
 40
0
 40
0
 40
0
 40
0
 40
1
 40
1
 40
1
 40
1
 10
-611.724488
 20
302.027908
 30
0.0
 10
-616.643264
 20
302.027908
 30
0.0
 10
-620.484528
 20
300.043692
 30
0.0
 10
-628.023152
 20
293.608820
 30
0.0
  0
SPLINE
  5
4d8
100
AcDbEntity
  8
Layer_1
 62
7
100
AcDbSpline
 70
8
 71
3
 72
8
 73
4
 74
0
 40
0
 40
0
 40
0
 40
0
 40
1
 40
1
 40
1
 40
1
 10
-628.023152
 20
293.608820
 30
0.0
 10
-637.869088
 20
285.204532
 30
0.0
 10
-641.542992
 20
284.167348
 30
0.0
 10
-653.288568
 20
286.476508
 30
0.0
  0
LWPOLYLINE
  5
4d9
100
AcDbEntity
  8
Layer_1
 62
7
100
AcDbPolyline
 90
2
 70
0
 10
-300.077808
 20
306.705092
 30
0.0
 10
-300.077808
 20
306.705092
 30
0.0
  0
SPLINE
  5
4da
100
AcDbEntity
  8
Layer_1
 62
7
100
AcDbSpline
 70
8
 71
3
 72
8
 73
4
 74
0
 40
0
 40
0
 40
0
 40
0
 40
1
 40
1
 40
1
 40
1
 10
-590.402008
 20
312.207420
 30
0.0
 10
-590.402008
 20
313.690228
 30
0.0
 10
-591.185760
 20
315.387732
 30
0.0
 10
-592.143632
 20
315.979708
 30
0.0
  0
SPLINE
  5
4db
100
AcDbEntity
  8
Layer_1
 62
7
100
AcDbSpline
 70
8
 71
3
 72
8
 73
4
 74
0
 40
0
 40
0
 40
0
 40
0
 40
1
 40
1
 40
1
 40
1
 10
-592.143632
 20
315.979708
 30
0.0
 10
-594.367928
 20
317.354396
 30
0.0
 10
-596.605000
 20
313.851076
 30
0.0
 10
-595.079264
 20
311.382380
 30
0.0
  0
SPLINE
  5
4dc
100
AcDbEntity
  8
Layer_1
 62
7
100
AcDbSpline
 70
8
 71
3
 72
8
 73
4
 74
0
 40
0
 40
0
 40
0
 40
0
 40
1
 40
1
 40
1
 40
1
 10
-595.079264
 20
311.382380
 30
0.0
 10
-593.358856
 20
308.598732
 30
0.0
 10
-590.402008
 20
309.120332
 30
0.0
 10
-590.402008
 20
312.207420
 30
0.0
  0
LWPOLYLINE
  5
4dd
100
AcDbEntity
  8
Layer_1
 62
7
100
AcDbPolyline
 90
2
 70
0
 10
-653.288568
 20
286.476508
 30
0.0
 10
-653.288568
 20
286.476508
 30
0.0
  0
SPLINE
  5
4de
100
AcDbEntity
  8
Layer_1
 62
7
100
AcDbSpline
 70
8
 71
3
 72
8
 73
4
 74
0
 40
0
 40
0
 40
0
 40
0
 40
1
 40
1
 40
1
 40
1
 10
-358.128336
 20
293.521212
 30
0.0
 10
-365.765680
 20
300.012892
 30
0.0
 10
-369.654280
 20
302.027908
 30
0.0
 10
-374.545024
 20
302.027908
 30
0.0
  0
SPLINE
  5
4df
100
AcDbEntity
  8
Layer_1
 62
7
100
AcDbSpline
 70
8
 71
3
 72
8
 73
4
 74
0
 40
0
 40
0
 40
0
 40
0
 40
1
 40
1
 40
1
 40
1
 10
-374.545024
 20
302.027908
 30
0.0
 10
-379.659600
 20
302.027908
 30
0.0
 10
-381.312928
 20
302.972380
 30
0.0
 10
-382.732096
 20
306.705092
 30
0.0
  0
SPLINE
  5
4e0
100
AcDbEntity
  8
Layer_1
 62
7
100
AcDbSpline
 70
8
 71
3
 72
8
 73
4
 74
0
 40
0
 40
0
 40
0
 40
0
 40
1
 40
1
 40
1
 40
1
 10
-382.732096
 20
306.705092
 30
0.0
 10
-384.419640
 20
311.143620
 30
0.0
 10
-388.344800
 20
313.258892
 30
0.0
 10
-388.344800
 20
309.729652
 30
0.0
  0
SPLINE
  5
4e1
100
AcDbEntity
  8
Layer_1
 62
7
100
AcDbSpline
 70
8
 71
3
 72
8
 73
4
 74
0
 40
0
 40
0
 40
0
 40
0
 40
1
 40
1
 40
1
 40
1
 10
-388.344800
 20
309.729652
 30
0.0
 10
-388.344800
 20
307.573788
 30
0.0
 10
-396.334320
 20
305.492476
 30
0.0
 10
-397.924480
 20
307.234140
 30
0.0
  0
SPLINE
  5
4e2
100
AcDbEntity
  8
Layer_1
 62
7
100
AcDbSpline
 70
8
 71
3
 72
8
 73
4
 74
0
 40
0
 40
0
 40
0
 40
0
 40
1
 40
1
 40
1
 40
1
 10
-397.924480
 20
307.234140
 30
0.0
 10
-398.598320
 20
307.972180
 30
0.0
 10
-399.705840
 20
310.419556
 30
0.0
 10
-400.385632
 20
312.672724
 30
0.0
  0
SPLINE
  5
4e3
100
AcDbEntity
  8
Layer_1
 62
7
100
AcDbSpline
 70
8
 71
3
 72
8
 73
4
 74
0
 40
0
 40
0
 40
0
 40
0
 40
1
 40
1
 40
1
 40
1
 10
-400.385632
 20
312.672724
 30
0.0
 10
-401.431424
 20
316.139028
 30
0.0
 10
-400.672128
 20
317.020164
 30
0.0
 10
-395.450928
 20
318.399644
 30
0.0
  0
SPLINE
  5
4e4
100
AcDbEntity
  8
Layer_1
 62
7
100
AcDbSpline
 70
8
 71
3
 72
8
 73
4
 74
0
 40
0
 40
0
 40
0
 40
0
 40
1
 40
1
 40
1
 40
1
 10
-395.450928
 20
318.399644
 30
0.0
 10
-386.177304
 20
320.849572
 30
0.0
 10
-328.054024
 20
316.348628
 30
0.0
 10
-335.491864
 20
313.756524
 30
0.0
  0
SPLINE
  5
4e5
100
AcDbEntity
  8
Layer_1
 62
7
100
AcDbSpline
 70
8
 71
3
 72
8
 73
4
 74
0
 40
0
 40
0
 40
0
 40
0
 40
1
 40
1
 40
1
 40
1
 10
-335.491864
 20
313.756524
 30
0.0
 10
-339.292792
 20
312.431812
 30
0.0
 10
-338.163016
 20
308.163932
 30
0.0
 10
-333.702672
 20
306.997516
 30
0.0
  0
SPLINE
  5
4e6
100
AcDbEntity
  8
Layer_1
 62
7
100
AcDbSpline
 70
8
 71
3
 72
8
 73
4
 74
0
 40
0
 40
0
 40
0
 40
0
 40
1
 40
1
 40
1
 40
1
 10
-333.702672
 20
306.997516
 30
0.0
 10
-331.432368
 20
306.403804
 30
0.0
 10
-330.123888
 20
305.369060
 30
0.0
 10
-330.794920
 20
304.698028
 30
0.0
  0
SPLINE
  5
4e7
100
AcDbEntity
  8
Layer_1
 62
7
100
AcDbSpline
 70
8
 71
3
 72
8
 73
4
 74
0
 40
0
 40
0
 40
0
 40
0
 40
1
 40
1
 40
1
 40
1
 10
-330.794920
 20
304.698028
 30
0.0
 10
-331.465976
 20
304.027012
 30
0.0
 10
-335.782664
 20
304.761308
 30
0.0
 10
-340.387568
 20
306.330772
 30
0.0
  0
SPLINE
  5
4e8
100
AcDbEntity
  8
Layer_1
 62
7
100
AcDbSpline
 70
8
 71
3
 72
8
 73
4
 74
0
 40
0
 40
0
 40
0
 40
0
 40
1
 40
1
 40
1
 40
1
 10
-340.387568
 20
306.330772
 30
0.0
 10
-348.351968
 20
309.044556
 30
0.0
 10
-350.926800
 20
308.850556
 30
0.0
 10
-350.926800
 20
305.537044
 30
0.0
  0
SPLINE
  5
4e9
100
AcDbEntity
  8
Layer_1
 62
7
100
AcDbSpline
 70
8
 71
3
 72
8
 73
4
 74
0
 40
0
 40
0
 40
0
 40
0
 40
1
 40
1
 40
1
 40
1
 10
-350.926800
 20
305.537044
 30
0.0
 10
-350.926800
 20
304.723124
 30
0.0
 10
-345.033464
 20
302.302068
 30
0.0
 10
-337.830504
 20
300.157012
 30
0.0
  0
SPLINE
  5
4ea
100
AcDbEntity
  8
Layer_1
 62
7
100
AcDbSpline
 70
8
 71
3
 72
8
 73
4
 74
0
 40
0
 40
0
 40
0
 40
0
 40
1
 40
1
 40
1
 40
1
 10
-337.830504
 20
300.157012
 30
0.0
 10
-330.627528
 20
298.011844
 30
0.0
 10
-324.734192
 20
295.611396
 30
0.0
 10
-324.734192
 20
294.822668
 30
0.0
  0
SPLINE
  5
4eb
100
AcDbEntity
  8
Layer_1
 62
7
100
AcDbSpline
 70
8
 71
3
 72
8
 73
4
 74
0
 40
0
 40
0
 40
0
 40
0
 40
1
 40
1
 40
1
 40
1
 10
-324.734192
 20
294.822668
 30
0.0
 10
-324.734192
 20
290.376804
 30
0.0
 10
-330.259136
 20
286.904692
 30
0.0
 10
-338.765952
 20
286.004380
 30
0.0
  0
SPLINE
  5
4ec
100
AcDbEntity
  8
Layer_1
 62
7
100
AcDbSpline
 70
8
 71
3
 72
8
 73
4
 74
0
 40
0
 40
0
 40
0
 40
0
 40
1
 40
1
 40
1
 40
1
 10
-338.765952
 20
286.004380
 30
0.0
 10
-347.733888
 20
285.055412
 30
0.0
 10
-348.534008
 20
285.365988
 30
0.0
 10
-358.128336
 20
293.521212
 30
0.0
  0
LWPOLYLINE
  5
4ed
100
AcDbEntity
  8
Layer_1
 62
7
100
AcDbPolyline
 90
2
 70
0
 10
-590.402008
 20
312.207420
 30
0.0
 10
-590.402008
 20
312.207420
 30
0.0
  0
SPLINE
  5
4ee
100
AcDbEntity
  8
Layer_1
 62
7
100
AcDbSpline
 70
8
 71
3
 72
8
 73
4
 74
0
 40
0
 40
0
 40
0
 40
0
 40
1
 40
1
 40
1
 40
1
 10
-390.644464
 20
312.902516
 30
0.0
 10
-390.237136
 20
314.124420
 30
0.0
 10
-391.236896
 20
315.124172
 30
0.0
 10
-392.866144
 20
315.124172
 30
0.0
  0
SPLINE
  5
4ef
100
AcDbEntity
  8
Layer_1
 62
7
100
AcDbSpline
 70
8
 71
3
 72
8
 73
4
 74
0
 40
0
 40
0
 40
0
 40
0
 40
1
 40
1
 40
1
 40
1
 10
-392.866144
 20
315.124172
 30
0.0
 10
-394.495384
 20
315.124172
 30
0.0
 10
-395.828392
 20
313.791204
 30
0.0
 10
-395.828392
 20
312.161932
 30
0.0
  0
SPLINE
  5
4f0
100
AcDbEntity
  8
Layer_1
 62
7
100
AcDbSpline
 70
8
 71
3
 72
8
 73
4
 74
0
 40
0
 40
0
 40
0
 40
0
 40
1
 40
1
 40
1
 40
1
 10
-395.828392
 20
312.161932
 30
0.0
 10
-395.828392
 20
308.858004
 30
0.0
 10
-391.800800
 20
309.433468
 30
0.0
 10
-390.644464
 20
312.902516
 30
0.0
  0
LWPOLYLINE
  5
4f1
100
AcDbEntity
  8
Layer_1
 62
7
100
AcDbPolyline
 90
2
 70
0
 10
-358.128336
 20
293.521212
 30
0.0
 10
-358.128336
 20
293.521212
 30
0.0
  0
LWPOLYLINE
  5
4f2
100
AcDbEntity
  8
Layer_1
 62
7
100
AcDbPolyline
 90
2
 70
0
 10
-390.644464
 20
312.902516
 30
0.0
 10
-390.644464
 20
312.902516
 30
0.0
  0
ENDSEC
  0
SECTION
  2
OBJECTS
  0
DICTIONARY
  5
C
330
0
100
AcDbDictionary
  3
ACAD_GROUP
350
D
  3
ACAD_MLINESTYLE
350
17
  0
DICTIONARY
  5
D
330
C
100
AcDbDictionary
  0
DICTIONARY
  5
1A
330
C
100
AcDbDictionary
  0
DICTIONARY
  5
17
330
C
100
AcDbDictionary
  3
STANDARD
350
18
  0
DICTIONARY
  5
19
330
C
100
AcDbDictionary
  0
ENDSEC
  0
EOF
