  0
SECTION
  2
HEADER
  9
$ACADVER
  1
AC1021
  9
$ACADMAINTVER
 70
    25
  9
$DWGCODEPAGE
  3
ANSI_1254
  9
$INSBASE
 10
0.0
 20
0.0
 30
0.0
  9
$EXTMIN
 10
-992.373
 20
-1086.8271
 30
0.0
  9
$EXTMAX
 10
5136.1657
 20
1768.3497
 30
0.0
  9
$LIMMIN
 10
0.0
 20
0.0
  9
$LIMMAX
 10
12.0
 20
9.0
  9
$ORTHOMODE
 70
     0
  9
$REGENMODE
 70
     1
  9
$FILLMODE
 70
     1
  9
$QTEXTMODE
 70
     0
  9
$MIRRTEXT
 70
     1
  9
$LTSCALE
 40
1.0
  9
$ATTMODE
 70
     1
  9
$TEXTSIZE
 40
0.2
  9
$TRACEWID
 40
0.05
  9
$TEXTSTYLE
  7
Standard
  9
$CLAYER
  8
0
  9
$CELTYPE
  6
ByLayer
  9
$CECOLOR
 62
   256
  9
$CELTSCALE
 40
1.0
  9
$DISPSILH
 70
     0
  9
$DIMSCALE
 40
1.0
  9
$DIMASZ
 40
0.18
  9
$DIMEXO
 40
0.0625
  9
$DIMDLI
 40
0.38
  9
$DIMRND
 40
0.0
  9
$DIMDLE
 40
0.0
  9
$DIMEXE
 40
0.18
  9
$DIMTP
 40
0.0
  9
$DIMTM
 40
0.0
  9
$DIMTXT
 40
0.18
  9
$DIMCEN
 40
0.09
  9
$DIMTSZ
 40
0.0
  9
$DIMTOL
 70
     0
  9
$DIMLIM
 70
     0
  9
$DIMTIH
 70
     1
  9
$DIMTOH
 70
     1
  9
$DIMSE1
 70
     0
  9
$DIMSE2
 70
     0
  9
$DIMTAD
 70
     0
  9
$DIMZIN
 70
     0
  9
$DIMBLK
  1

  9
$DIMASO
 70
     1
  9
$DIMSHO
 70
     1
  9
$DIMPOST
  1

  9
$DIMAPOST
  1

  9
$DIMALT
 70
     0
  9
$DIMALTD
 70
     2
  9
$DIMALTF
 40
25.4
  9
$DIMLFAC
 40
1.0
  9
$DIMTOFL
 70
     0
  9
$DIMTVP
 40
0.0
  9
$DIMTIX
 70
     0
  9
$DIMSOXD
 70
     0
  9
$DIMSAH
 70
     0
  9
$DIMBLK1
  1

  9
$DIMBLK2
  1

  9
$DIMSTYLE
  2
Standard
  9
$DIMCLRD
 70
     0
  9
$DIMCLRE
 70
     0
  9
$DIMCLRT
 70
     0
  9
$DIMTFAC
 40
1.0
  9
$DIMGAP
 40
0.09
  9
$DIMJUST
 70
     0
  9
$DIMSD1
 70
     0
  9
$DIMSD2
 70
     0
  9
$DIMTOLJ
 70
     1
  9
$DIMTZIN
 70
     0
  9
$DIMALTZ
 70
     0
  9
$DIMALTTZ
 70
     0
  9
$DIMUPT
 70
     0
  9
$DIMDEC
 70
     4
  9
$DIMTDEC
 70
     4
  9
$DIMALTU
 70
     2
  9
$DIMALTTD
 70
     2
  9
$DIMTXSTY
  7
Standard
  9
$DIMAUNIT
 70
     0
  9
$DIMADEC
 70
     0
  9
$DIMALTRND
 40
0.0
  9
$DIMAZIN
 70
     0
  9
$DIMDSEP
 70
    46
  9
$DIMATFIT
 70
     3
  9
$DIMFRAC
 70
     0
  9
$DIMLDRBLK
  1

  9
$DIMLUNIT
 70
     2
  9
$DIMLWD
 70
    -2
  9
$DIMLWE
 70
    -2
  9
$DIMTMOVE
 70
     0
  9
$DIMFXL
 40
1.0
  9
$DIMFXLON
 70
     0
  9
$DIMJOGANG
 40
0.7853981633974483
  9
$DIMTFILL
 70
     0
  9
$DIMTFILLCLR
 70
     0
  9
$DIMARCSYM
 70
     0
  9
$DIMLTYPE
  6

  9
$DIMLTEX1
  6

  9
$DIMLTEX2
  6

  9
$LUNITS
 70
     2
  9
$LUPREC
 70
     4
  9
$SKETCHINC
 40
0.1
  9
$FILLETRAD
 40
0.5
  9
$AUNITS
 70
     0
  9
$AUPREC
 70
     0
  9
$MENU
  1
.
  9
$ELEVATION
 40
0.0
  9
$PELEVATION
 40
0.0
  9
$THICKNESS
 40
0.0
  9
$LIMCHECK
 70
     0
  9
$CHAMFERA
 40
0.5
  9
$CHAMFERB
 40
0.5
  9
$CHAMFERC
 40
1.0
  9
$CHAMFERD
 40
0.0
  9
$SKPOLY
 70
     0
  9
$TDCREATE
 40
2457890.430952697
  9
$TDUCREATE
 40
2457890.305952697
  9
$TDUPDATE
 40
2457890.430954838
  9
$TDUUPDATE
 40
2457890.305954838
  9
$TDINDWG
 40
0.0000000116
  9
$TDUSRTIMER
 40
0.0000000116
  9
$USRTIMER
 70
     1
  9
$ANGBASE
 50
0.0
  9
$ANGDIR
 70
     0
  9
$PDMODE
 70
     0
  9
$PDSIZE
 40
0.0
  9
$PLINEWID
 40
0.0
  9
$SPLFRAME
 70
     0
  9
$SPLINETYPE
 70
     6
  9
$SPLINESEGS
 70
     8
  9
$HANDSEED
  5
98
  9
$SURFTAB1
 70
     6
  9
$SURFTAB2
 70
     6
  9
$SURFTYPE
 70
     6
  9
$SURFU
 70
     6
  9
$SURFV
 70
     6
  9
$UCSBASE
  2

  9
$UCSNAME
  2

  9
$UCSORG
 10
0.0
 20
0.0
 30
0.0
  9
$UCSXDIR
 10
1.0
 20
0.0
 30
0.0
  9
$UCSYDIR
 10
0.0
 20
1.0
 30
0.0
  9
$UCSORTHOREF
  2

  9
$UCSORTHOVIEW
 70
     0
  9
$UCSORGTOP
 10
0.0
 20
0.0
 30
0.0
  9
$UCSORGBOTTOM
 10
0.0
 20
0.0
 30
0.0
  9
$UCSORGLEFT
 10
0.0
 20
0.0
 30
0.0
  9
$UCSORGRIGHT
 10
0.0
 20
0.0
 30
0.0
  9
$UCSORGFRONT
 10
0.0
 20
0.0
 30
0.0
  9
$UCSORGBACK
 10
0.0
 20
0.0
 30
0.0
  9
$PUCSBASE
  2

  9
$PUCSNAME
  2

  9
$PUCSORG
 10
0.0
 20
0.0
 30
0.0
  9
$PUCSXDIR
 10
1.0
 20
0.0
 30
0.0
  9
$PUCSYDIR
 10
0.0
 20
1.0
 30
0.0
  9
$PUCSORTHOREF
  2

  9
$PUCSORTHOVIEW
 70
     0
  9
$PUCSORGTOP
 10
0.0
 20
0.0
 30
0.0
  9
$PUCSORGBOTTOM
 10
0.0
 20
0.0
 30
0.0
  9
$PUCSORGLEFT
 10
0.0
 20
0.0
 30
0.0
  9
$PUCSORGRIGHT
 10
0.0
 20
0.0
 30
0.0
  9
$PUCSORGFRONT
 10
0.0
 20
0.0
 30
0.0
  9
$PUCSORGBACK
 10
0.0
 20
0.0
 30
0.0
  9
$USERI1
 70
     0
  9
$USERI2
 70
     0
  9
$USERI3
 70
     0
  9
$USERI4
 70
     0
  9
$USERI5
 70
     0
  9
$USERR1
 40
0.0
  9
$USERR2
 40
0.0
  9
$USERR3
 40
0.0
  9
$USERR4
 40
0.0
  9
$USERR5
 40
0.0
  9
$WORLDVIEW
 70
     1
  9
$SHADEDGE
 70
     3
  9
$SHADEDIF
 70
    70
  9
$TILEMODE
 70
     1
  9
$MAXACTVP
 70
    64
  9
$PINSBASE
 10
0.0
 20
0.0
 30
0.0
  9
$PLIMCHECK
 70
     0
  9
$PEXTMIN
 10
1.000000000000000E+20
 20
1.000000000000000E+20
 30
1.000000000000000E+20
  9
$PEXTMAX
 10
-1.000000000000000E+20
 20
-1.000000000000000E+20
 30
-1.000000000000000E+20
  9
$PLIMMIN
 10
0.0
 20
0.0
  9
$PLIMMAX
 10
12.0
 20
9.0
  9
$UNITMODE
 70
     0
  9
$VISRETAIN
 70
     1
  9
$PLINEGEN
 70
     0
  9
$PSLTSCALE
 70
     1
  9
$TREEDEPTH
 70
  3020
  9
$CMLSTYLE
  2
Standard
  9
$CMLJUST
 70
     0
  9
$CMLSCALE
 40
1.0
  9
$PROXYGRAPHICS
 70
     1
  9
$MEASUREMENT
 70
     0
  9
$CELWEIGHT
370
    -1
  9
$ENDCAPS
280
     0
  9
$JOINSTYLE
280
     0
  9
$LWDISPLAY
290
     0
  9
$INSUNITS
 70
     4
  9
$HYPERLINKBASE
  1

  9
$STYLESHEET
  1

  9
$XEDIT
290
     1
  9
$CEPSNTYPE
380
     0
  9
$PSTYLEMODE
290
     1
  9
$FINGERPRINTGUID
  2
{29B64983-F635-4DB8-A81B-FD5A1DFBAD61}
  9
$VERSIONGUID
  2
{FAEB1C32-E019-11D5-929B-00C0DF256EC4}
  9
$EXTNAMES
290
     1
  9
$PSVPSCALE
 40
0.0
  9
$OLESTARTUP
290
     0
  9
$SORTENTS
280
   127
  9
$INDEXCTL
280
     0
  9
$HIDETEXT
280
     1
  9
$XCLIPFRAME
290
     0
  9
$HALOGAP
280
     0
  9
$OBSCOLOR
 70
   257
  9
$OBSLTYPE
280
     0
  9
$INTERSECTIONDISPLAY
280
     0
  9
$INTERSECTIONCOLOR
 70
   257
  9
$DIMASSOC
280
     2
  9
$PROJECTNAME
  1

  9
$CAMERADISPLAY
290
     0
  9
$LENSLENGTH
 40
50.0
  9
$CAMERAHEIGHT
 40
0.0
  9
$STEPSPERSEC
 40
2.0
  9
$STEPSIZE
 40
6.0
  9
$3DDWFPREC
 40
2.0
  9
$PSOLWIDTH
 40
0.25
  9
$PSOLHEIGHT
 40
4.0
  9
$LOFTANG1
 40
1.570796326794897
  9
$LOFTANG2
 40
1.570796326794897
  9
$LOFTMAG1
 40
0.0
  9
$LOFTMAG2
 40
0.0
  9
$LOFTPARAM
 70
     7
  9
$LOFTNORMALS
280
     1
  9
$LATITUDE
 40
37.795
  9
$LONGITUDE
 40
-122.394
  9
$NORTHDIRECTION
 40
0.0
  9
$TIMEZONE
 70
 -8000
  9
$LIGHTGLYPHDISPLAY
280
     1
  9
$TILEMODELIGHTSYNCH
280
     1
  9
$SOLIDHIST
280
     1
  9
$SHOWHIST
280
     1
  9
$DWFFRAME
280
     2
  9
$DGNFRAME
280
     2
  9
$REALWORLDSCALE
290
     1
  9
$INTERFERECOLOR
 62
   256
  9
$CSHADOW
280
     0
  9
$SHADOWPLANELOCATION
 40
0.0
  0
ENDSEC
  0
SECTION
  2
CLASSES
  0
CLASS
  1
ACDBDICTIONARYWDFLT
  2
AcDbDictionaryWithDefault
  3
ObjectDBX Classes
 90
        0
 91
        4
280
     0
281
     0
  0
CLASS
  1
VISUALSTYLE
  2
AcDbVisualStyle
  3
ObjectDBX Classes
 90
     4095
 91
        4
280
     0
281
     0
  0
CLASS
  1
MATERIAL
  2
AcDbMaterial
  3
ObjectDBX Classes
 90
     1153
 91
        4
280
     0
281
     0
  0
CLASS
  1
IMAGEDEF
  2
AcDbRasterImageDef
  3
ISM
 90
        0
 91
        4
280
     0
281
     0
  0
CLASS
  1
IMAGE
  2
AcDbRasterImage
  3
ISM
 90
      127
 91
        5
280
     0
281
     1
  0
CLASS
  1
IMAGEDEF_REACTOR
  2
AcDbRasterImageDefReactor
  3
ISM
 90
        1
 91
        4
280
     0
281
     0
  0
ENDSEC
  0
SECTION
  2
TABLES
  0
TABLE
  2
VPORT
  5
8
330
0
100
AcDbSymbolTable
 70
     1
  0
VPORT
  5
29
330
8
100
AcDbSymbolTableRecord
100
AcDbViewportTableRecord
  2
*Active
 70
     0
 10
0.0
 20
0.0
 11
1.0
 21
1.0
 12
10.42990654205607
 22
4.5
 13
0.0
 23
0.0
 14
0.5
 24
0.5
 15
0.5
 25
0.5
 16
0.0
 26
0.0
 36
1.0
 17
0.0
 27
0.0
 37
0.0
 40
9.0
 41
1.972972972850329
 42
50.0
 43
0.0
 44
0.0
 50
0.0
 51
0.0
 71
     0
 72
   100
 73
     1
 74
     3
 75
     0
 76
     0
 77
     0
 78
     0
281
     0
 65
     1
110
0.0
120
0.0
130
0.0
111
1.0
121
0.0
131
0.0
112
0.0
122
1.0
132
0.0
 79
     0
146
0.0
 60
     3
 61
     5
292
     1
282
     1
141
0.0
142
0.0
 63
   250
  0
ENDTAB
  0
TABLE
  2
LTYPE
  5
5
330
0
100
AcDbSymbolTable
 70
     1
  0
LTYPE
  5
14
330
5
100
AcDbSymbolTableRecord
100
AcDbLinetypeTableRecord
  2
ByBlock
 70
     0
  3

 72
    65
 73
     0
 40
0.0
  0
LTYPE
  5
15
330
5
100
AcDbSymbolTableRecord
100
AcDbLinetypeTableRecord
  2
ByLayer
 70
     0
  3

 72
    65
 73
     0
 40
0.0
  0
LTYPE
  5
16
330
5
100
AcDbSymbolTableRecord
100
AcDbLinetypeTableRecord
  2
Continuous
 70
     0
  3
Solid line
 72
    65
 73
     0
 40
0.0
  0
ENDTAB
  0
TABLE
  2
LAYER
  5
2
330
0
100
AcDbSymbolTable
 70
     2
  0
LAYER
  5
10
330
2
100
AcDbSymbolTableRecord
100
AcDbLayerTableRecord
  2
0
 70
     0
 62
     7
  6
Continuous
370
    -3
390
F
347
3E
  0
LAYER
  5
40
330
2
100
AcDbSymbolTableRecord
100
AcDbLayerTableRecord
  2
Layer 1
 70
     0
 62
     7
  6
Continuous
370
    -3
390
F
347
3E
  0
ENDTAB
  0
TABLE
  2
STYLE
  5
3
330
0
100
AcDbSymbolTable
 70
     1
  0
STYLE
  5
11
330
3
100
AcDbSymbolTableRecord
100
AcDbTextStyleTableRecord
  2
Standard
 70
     0
 40
0.0
 41
1.0
 50
0.0
 71
     0
 42
0.2
  3
txt
  4

  0
ENDTAB
  0
TABLE
  2
VIEW
  5
6
330
0
100
AcDbSymbolTable
 70
     0
  0
ENDTAB
  0
TABLE
  2
UCS
  5
7
330
0
100
AcDbSymbolTable
 70
     0
  0
ENDTAB
  0
TABLE
  2
APPID
  5
9
330
0
100
AcDbSymbolTable
 70
     2
  0
APPID
  5
12
330
9
100
AcDbSymbolTableRecord
100
AcDbRegAppTableRecord
  2
ACAD
 70
     0
  0
APPID
  5
3F
330
9
100
AcDbSymbolTableRecord
100
AcDbRegAppTableRecord
  2
ODA
 70
     0
  0
ENDTAB
  0
TABLE
  2
DIMSTYLE
  5
A
330
0
100
AcDbSymbolTable
 70
     1
100
AcDbDimStyleTable
  0
DIMSTYLE
105
27
330
A
100
AcDbSymbolTableRecord
100
AcDbDimStyleTableRecord
  2
Standard
 70
     0
178
     0
340
11
  0
ENDTAB
  0
TABLE
  2
BLOCK_RECORD
  5
1
330
0
100
AcDbSymbolTable
 70
     1
  0
BLOCK_RECORD
  5
1F
330
1
100
AcDbSymbolTableRecord
100
AcDbBlockTableRecord
  2
*Model_Space
340
22
 70
     0
280
     1
281
     0
  0
BLOCK_RECORD
  5
1B
330
1
100
AcDbSymbolTableRecord
100
AcDbBlockTableRecord
  2
*Paper_Space
340
1E
 70
     0
280
     1
281
     0
  0
BLOCK_RECORD
  5
23
330
1
100
AcDbSymbolTableRecord
100
AcDbBlockTableRecord
  2
*Paper_Space0
340
26
 70
     0
280
     1
281
     0
  0
ENDTAB
  0
ENDSEC
  0
SECTION
  2
BLOCKS
  0
BLOCK
  5
20
330
1F
100
AcDbEntity
  8
0
100
AcDbBlockBegin
  2
*Model_Space
 70
     0
 10
0.0
 20
0.0
 30
0.0
  3
*Model_Space
  1

  0
ENDBLK
  5
21
330
1F
100
AcDbEntity
  8
0
100
AcDbBlockEnd
  0
BLOCK
  5
1C
330
1B
100
AcDbEntity
 67
     1
  8
0
100
AcDbBlockBegin
  2
*Paper_Space
 70
     0
 10
0.0
 20
0.0
 30
0.0
  3
*Paper_Space
  1

  0
ENDBLK
  5
1D
330
1B
100
AcDbEntity
 67
     1
  8
0
100
AcDbBlockEnd
  0
BLOCK
  5
24
330
23
100
AcDbEntity
  8
0
100
AcDbBlockBegin
  2
*Paper_Space0
 70
     0
 10
0.0
 20
0.0
 30
0.0
  3
*Paper_Space0
  1

  0
ENDBLK
  5
25
330
23
100
AcDbEntity
  8
0
100
AcDbBlockEnd
  0
ENDSEC
  0
SECTION
  2
ENTITIES
  0
IMAGE
  5
43
330
1F
100
AcDbEntity
  8
Layer 1
 62
     0
 92
      140
310
8C00000001000000840000000600000005000000448B6CE7FB028FC0684DF38E530C7240000000000000000030A18C66B92C4140684DF38E530C7240000000000000000030A18C66B92C4140AF28D211178F90400000000000000000448B6CE7FB028FC0AF28D211178F90400000000000000000448B6CE7FB028FC0684DF3
310
8E530C72400000000000000000
100
AcDbRasterImage
 90
        0
 10
-992.373
 20
288.7704
 30
0.0
 11
0.274377981821696
 21
0.0
 31
0.0
 12
0.0
 22
0.274377981821696
 32
0.0
 13
3742.0
 23
2810.0
340
42
 70
     3
280
     1
281
    50
282
    50
283
     0
360
44
 71
     1
 91
        2
 14
-992.373
 24
288.7704
 14
-940.3878000000001
 24
327.8016
  0
SPLINE
  5
45
330
1F
100
AcDbEntity
  8
Layer 1
 62
   250
370
    20
100
AcDbSpline
210
0.0
220
0.0
230
1.0
 70
    11
 71
     3
 72
    28
 73
    24
 74
     0
 42
0.0000000001
 43
0.0000000001
 12
1.0
 22
0.0
 32
0.0
 13
1.0
 23
0.0
 33
0.0
 40
0.0
 40
0.0
 40
0.0
 40
0.0
 40
0.1428571428571428
 40
0.1428571428571428
 40
0.1428571428571428
 40
0.1428571428571428
 40
0.2857142857142857
 40
0.2857142857142857
 40
0.2857142857142857
 40
0.2857142857142857
 40
0.4285714285714285
 40
0.4285714285714285
 40
0.4285714285714285
 40
0.4285714285714285
 40
0.5714285714285714
 40
0.5714285714285714
 40
0.5714285714285714
 40
0.5714285714285714
 40
0.7142857142857143
 40
0.7142857142857143
 40
0.7142857142857143
 40
0.7142857142857143
 40
1.0
 40
1.0
 40
1.0
 40
1.0
 10
5041.7664
 20
-639.5679
 30
0.0
 10
5041.7664
 20
-639.5679
 30
0.0
 10
4759.7664
 20
-639.5679
 30
0.0
 10
4759.7664
 20
-639.5679
 30
0.0
 10
4759.7664
 20
-639.5679
 30
0.0
 10
4759.7664
 20
-522.9012
 30
0.0
 10
4759.7664
 20
-446.4513
 30
0.0
 10
4759.7664
 20
-329.7846
 30
0.0
 10
4759.7664
 20
-329.7846
 30
0.0
 10
4759.7664
 20
-155.5119
 30
0.0
 10
4541.7664
 20
-167.8585
 30
0.0
 10
4541.7664
 20
-66.2584
 30
0.0
 10
4541.7664
 20
-66.2584
 30
0.0
 10
4541.7664
 20
-7.4476
 30
0.0
 10
4541.7664
 20
1.6213
 30
0.0
 10
4541.7664
 20
60.4321
 30
0.0
 10
4541.7664
 20
60.4321
 30
0.0
 10
4541.7664
 20
60.4321
 30
0.0
 10
5041.7664
 20
60.4321
 30
0.0
 10
5041.7664
 20
60.4321
 30
0.0
 10
5041.7664
 20
60.4321
 30
0.0
 10
5041.7664
 20
60.4321
 30
0.0
 10
5041.7664
 20
-639.5679
 30
0.0
 10
5041.7664
 20
-639.5679
 30
0.0
  0
LWPOLYLINE
  5
46
330
1F
100
AcDbEntity
  8
Layer 1
 62
   250
370
    20
100
AcDbPolyline
 90
        5
 70
     1
 43
0.0
 10
3036.0656
 20
-1031.7503
 10
5136.0656
 20
-1031.7503
 10
5136.0656
 20
1768.2497
 10
3036.0656
 20
1768.2497
 10
3036.0656
 20
-1031.7503
  0
SPLINE
  5
47
330
1F
100
AcDbEntity
  8
Layer 1
 62
   250
370
    20
100
AcDbSpline
210
0.0
220
0.0
230
1.0
 70
    11
 71
     3
 72
    28
 73
    24
 74
     0
 42
0.0000000001
 43
0.0000000001
 12
1.0
 22
0.0
 32
0.0
 13
1.0
 23
0.0
 33
0.0
 40
0.0
 40
0.0
 40
0.0
 40
0.0
 40
0.1428571428571428
 40
0.1428571428571428
 40
0.1428571428571428
 40
0.1428571428571428
 40
0.2857142857142857
 40
0.2857142857142857
 40
0.2857142857142857
 40
0.2857142857142857
 40
0.4285714285714285
 40
0.4285714285714285
 40
0.4285714285714285
 40
0.4285714285714285
 40
0.5714285714285714
 40
0.5714285714285714
 40
0.5714285714285714
 40
0.5714285714285714
 40
0.7142857142857143
 40
0.7142857142857143
 40
0.7142857142857143
 40
0.7142857142857143
 40
1.0
 40
1.0
 40
1.0
 40
1.0
 10
4447.7664
 20
-301.7502
 30
0.0
 10
4447.7664
 20
-301.7502
 30
0.0
 10
4729.7664
 20
-301.7502
 30
0.0
 10
4729.7664
 20
-301.7502
 30
0.0
 10
4729.7664
 20
-301.7502
 30
0.0
 10
4729.7664
 20
-418.4169
 30
0.0
 10
4729.7664
 20
-494.8668
 30
0.0
 10
4729.7664
 20
-611.5335
 30
0.0
 10
4729.7664
 20
-611.5335
 30
0.0
 10
4729.7664
 20
-785.8062
 30
0.0
 10
4947.7664
 20
-773.4596
 30
0.0
 10
4947.7664
 20
-875.0597
 30
0.0
 10
4947.7664
 20
-875.0597
 30
0.0
 10
4947.7664
 20
-933.8705
 30
0.0
 10
4947.7664
 20
-942.9394
 30
0.0
 10
4947.7664
 20
-1001.7502
 30
0.0
 10
4947.7664
 20
-1001.7502
 30
0.0
 10
4947.7664
 20
-1001.7502
 30
0.0
 10
4447.7664
 20
-1001.7502
 30
0.0
 10
4447.7664
 20
-1001.7502
 30
0.0
 10
4447.7664
 20
-1001.7502
 30
0.0
 10
4447.7664
 20
-1001.7502
 30
0.0
 10
4447.7664
 20
-301.7502
 30
0.0
 10
4447.7664
 20
-301.7502
 30
0.0
  0
SPLINE
  5
48
330
1F
100
AcDbEntity
  8
Layer 1
 62
     6
370
    20
100
AcDbSpline
210
0.0
220
0.0
230
1.0
 70
    11
 71
     3
 72
    28
 73
    24
 74
     0
 42
0.0000000001
 43
0.0000000001
 12
1.0
 22
0.0
 32
0.0
 13
1.0
 23
0.0
 33
0.0
 40
0.0
 40
0.0
 40
0.0
 40
0.0
 40
0.1428571428571428
 40
0.1428571428571428
 40
0.1428571428571428
 40
0.1428571428571428
 40
0.2857142857142857
 40
0.2857142857142857
 40
0.2857142857142857
 40
0.2857142857142857
 40
0.4285714285714285
 40
0.4285714285714285
 40
0.4285714285714285
 40
0.4285714285714285
 40
0.5714285714285714
 40
0.5714285714285714
 40
0.5714285714285714
 40
0.5714285714285714
 40
0.7142857142857143
 40
0.7142857142857143
 40
0.7142857142857143
 40
0.7142857142857143
 40
1.0
 40
1.0
 40
1.0
 40
1.0
 10
1191.1753
 20
-533.777
 30
0.0
 10
1191.1753
 20
-533.777
 30
0.0
 10
1231.3945
 20
-251.7644
 30
0.0
 10
1231.3945
 20
-251.7644
 30
0.0
 10
1231.3945
 20
-251.7644
 30
0.0
 10
1231.3945
 20
-251.7644
 30
0.0
 10
818.4523
 20
-251.777
 30
0.0
 10
818.4523
 20
-251.777
 30
0.0
 10
818.4523
 20
-251.777
 30
0.0
 10
818.4523
 20
-251.777
 30
0.0
 10
784.1915
 20
-50.6433
 30
0.0
 10
784.1915
 20
-50.6433
 30
0.0
 10
784.1915
 20
-50.6433
 30
0.0
 10
774.1898
 20
20.2048
 30
0.0
 10
693.4964
 20
12.8679
 30
0.0
 10
703.621
 20
-51.8888
 30
0.0
 10
703.621
 20
-51.8888
 30
0.0
 10
703.621
 20
-51.8888
 30
0.0
 10
772.3527
 20
-533.777
 30
0.0
 10
772.3527
 20
-533.777
 30
0.0
 10
772.3527
 20
-533.777
 30
0.0
 10
772.3527
 20
-533.777
 30
0.0
 10
1191.1753
 20
-533.777
 30
0.0
 10
1191.1753
 20
-533.777
 30
0.0
  0
SPLINE
  5
49
330
1F
100
AcDbEntity
  8
Layer 1
 62
   250
370
    20
100
AcDbSpline
210
0.0
220
0.0
230
1.0
 70
    11
 71
     3
 72
    28
 73
    24
 74
     0
 42
0.0000000001
 43
0.0000000001
 12
1.0
 22
0.0
 32
0.0
 13
1.0
 23
0.0
 33
0.0
 40
0.0
 40
0.0
 40
0.0
 40
0.0
 40
0.1428571428571428
 40
0.1428571428571428
 40
0.1428571428571428
 40
0.1428571428571428
 40
0.2857142857142857
 40
0.2857142857142857
 40
0.2857142857142857
 40
0.2857142857142857
 40
0.4285714285714285
 40
0.4285714285714285
 40
0.4285714285714285
 40
0.4285714285714285
 40
0.5714285714285714
 40
0.5714285714285714
 40
0.5714285714285714
 40
0.5714285714285714
 40
0.7142857142857143
 40
0.7142857142857143
 40
0.7142857142857143
 40
0.7142857142857143
 40
1.0
 40
1.0
 40
1.0
 40
1.0
 10
2219.7411
 20
-533.7503
 30
0.0
 10
2219.7411
 20
-533.7503
 30
0.0
 10
2219.7411
 20
-251.7503
 30
0.0
 10
2219.7411
 20
-251.7503
 30
0.0
 10
2219.7411
 20
-251.7503
 30
0.0
 10
2336.4078
 20
-251.7503
 30
0.0
 10
2412.8577
 20
-251.7503
 30
0.0
 10
2529.5244
 20
-251.7503
 30
0.0
 10
2529.5244
 20
-251.7503
 30
0.0
 10
2703.7971
 20
-251.7503
 30
0.0
 10
2691.4505
 20
-33.7503
 30
0.0
 10
2793.0506
 20
-33.7503
 30
0.0
 10
2793.0506
 20
-33.7503
 30
0.0
 10
2851.8614
 20
-33.7503
 30
0.0
 10
2860.9303
 20
-33.7503
 30
0.0
 10
2919.7411
 20
-33.7503
 30
0.0
 10
2919.7411
 20
-33.7503
 30
0.0
 10
2919.7411
 20
-33.7503
 30
0.0
 10
2919.7411
 20
-533.7503
 30
0.0
 10
2919.7411
 20
-533.7503
 30
0.0
 10
2919.7411
 20
-533.7503
 30
0.0
 10
2919.7411
 20
-533.7503
 30
0.0
 10
2219.7411
 20
-533.7503
 30
0.0
 10
2219.7411
 20
-533.7503
 30
0.0
  0
SPLINE
  5
4A
330
1F
100
AcDbEntity
  8
Layer 1
 62
   250
370
    20
100
AcDbSpline
210
0.0
220
0.0
230
1.0
 70
    11
 71
     3
 72
    28
 73
    24
 74
     0
 42
0.0000000001
 43
0.0000000001
 12
1.0
 22
0.0
 32
0.0
 13
1.0
 23
0.0
 33
0.0
 40
0.0
 40
0.0
 40
0.0
 40
0.0
 40
0.1428571428571428
 40
0.1428571428571428
 40
0.1428571428571428
 40
0.1428571428571428
 40
0.2857142857142857
 40
0.2857142857142857
 40
0.2857142857142857
 40
0.2857142857142857
 40
0.4285714285714285
 40
0.4285714285714285
 40
0.4285714285714285
 40
0.4285714285714285
 40
0.5714285714285714
 40
0.5714285714285714
 40
0.5714285714285714
 40
0.5714285714285714
 40
0.7142857142857143
 40
0.7142857142857143
 40
0.7142857142857143
 40
0.7142857142857143
 40
1.0
 40
1.0
 40
1.0
 40
1.0
 10
2219.7411
 20
-1086.7271
 30
0.0
 10
2219.7411
 20
-1086.7271
 30
0.0
 10
2219.7411
 20
-804.7271
 30
0.0
 10
2219.7411
 20
-804.7271
 30
0.0
 10
2219.7411
 20
-804.7271
 30
0.0
 10
2336.4078
 20
-804.7271
 30
0.0
 10
2412.8577
 20
-804.7271
 30
0.0
 10
2529.5244
 20
-804.7271
 30
0.0
 10
2529.5244
 20
-804.7271
 30
0.0
 10
2703.7971
 20
-804.7271
 30
0.0
 10
2691.4505
 20
-586.7271
 30
0.0
 10
2793.0506
 20
-586.7271
 30
0.0
 10
2793.0506
 20
-586.7271
 30
0.0
 10
2851.8614
 20
-586.7271
 30
0.0
 10
2860.9303
 20
-586.7271
 30
0.0
 10
2919.7411
 20
-586.7271
 30
0.0
 10
2919.7411
 20
-586.7271
 30
0.0
 10
2919.7411
 20
-586.7271
 30
0.0
 10
2919.7411
 20
-1086.7271
 30
0.0
 10
2919.7411
 20
-1086.7271
 30
0.0
 10
2919.7411
 20
-1086.7271
 30
0.0
 10
2919.7411
 20
-1086.7271
 30
0.0
 10
2219.7411
 20
-1086.7271
 30
0.0
 10
2219.7411
 20
-1086.7271
 30
0.0
  0
SPLINE
  5
4B
330
1F
100
AcDbEntity
  8
Layer 1
 62
     6
370
    20
100
AcDbSpline
210
0.0
220
0.0
230
1.0
 70
    11
 71
     3
 72
    48
 73
    44
 74
     0
 42
0.0000000001
 43
0.0000000001
 12
1.0
 22
0.0
 32
0.0
 13
1.0
 23
0.0
 33
0.0
 40
0.0
 40
0.0
 40
0.0
 40
0.0
 40
0.0833333333333333
 40
0.0833333333333333
 40
0.0833333333333333
 40
0.0833333333333333
 40
0.1666666666666667
 40
0.1666666666666667
 40
0.1666666666666667
 40
0.1666666666666667
 40
0.25
 40
0.25
 40
0.25
 40
0.25
 40
0.3333333333333333
 40
0.3333333333333333
 40
0.3333333333333333
 40
0.3333333333333333
 40
0.4166666666666667
 40
0.4166666666666667
 40
0.4166666666666667
 40
0.4166666666666667
 40
0.5
 40
0.5
 40
0.5
 40
0.5
 40
0.5833333333333334
 40
0.5833333333333334
 40
0.5833333333333334
 40
0.5833333333333334
 40
0.6666666666666666
 40
0.6666666666666666
 40
0.6666666666666666
 40
0.6666666666666666
 40
0.75
 40
0.75
 40
0.75
 40
0.75
 40
0.8333333333333334
 40
0.8333333333333334
 40
0.8333333333333334
 40
0.8333333333333334
 40
1.0
 40
1.0
 40
1.0
 40
1.0
 10
1191.1753
 20
-569.777
 30
0.0
 10
1191.1753
 20
-569.777
 30
0.0
 10
1250.3671
 20
-891.0548
 30
0.0
 10
1250.3671
 20
-891.0548
 30
0.0
 10
1250.3671
 20
-891.0548
 30
0.0
 10
1256.8701
 20
-921.5674
 30
0.0
 10
1286.0355
 20
-916.8811
 30
0.0
 10
1298.4331
 20
-913.4961
 30
0.0
 10
1298.4331
 20
-913.4961
 30
0.0
 10
1314.1175
 20
-909.2137
 30
0.0
 10
1330.724
 20
-916.0652
 30
0.0
 10
1335.4755
 20
-928.619
 30
0.0
 10
1335.4755
 20
-928.619
 30
0.0
 10
1340.227
 20
-941.1728
 30
0.0
 10
1331.2494
 20
-954.4748
 30
0.0
 10
1315.5429
 20
-958.6764
 30
0.0
 10
1315.5429
 20
-958.6764
 30
0.0
 10
1232.0797
 20
-983.6773
 30
0.0
 10
1091.3455
 20
-1001.7502
 30
0.0
 10
981.8613
 20
-1001.7502
 30
0.0
 10
981.8613
 20
-1001.7502
 30
0.0
 10
872.3771
 20
-1001.7502
 30
0.0
 10
731.7213
 20
-983.6773
 30
0.0
 10
648.2581
 20
-958.6764
 30
0.0
 10
648.2581
 20
-958.6764
 30
0.0
 10
632.5516
 20
-954.4748
 30
0.0
 10
623.574
 20
-941.1728
 30
0.0
 10
628.3255
 20
-928.619
 30
0.0
 10
628.3255
 20
-928.619
 30
0.0
 10
633.077
 20
-916.0652
 30
0.0
 10
649.6835
 20
-909.2137
 30
0.0
 10
665.3679
 20
-913.4961
 30
0.0
 10
665.3679
 20
-913.4961
 30
0.0
 10
677.7655
 20
-916.8811
 30
0.0
 10
706.9309
 20
-921.5674
 30
0.0
 10
713.4339
 20
-891.0548
 30
0.0
 10
713.4339
 20
-891.0548
 30
0.0
 10
713.4339
 20
-891.0548
 30
0.0
 10
772.3527
 20
-569.777
 30
0.0
 10
772.3527
 20
-569.777
 30
0.0
 10
772.3527
 20
-569.777
 30
0.0
 10
772.3527
 20
-569.777
 30
0.0
 10
1191.1753
 20
-569.777
 30
0.0
 10
1191.1753
 20
-569.777
 30
0.0
  0
SPLINE
  5
4C
330
1F
100
AcDbEntity
  8
Layer 1
 62
     6
370
    20
100
AcDbSpline
210
0.0
220
0.0
230
1.0
 70
    11
 71
     3
 72
   112
 73
   108
 74
     0
 42
0.0000000001
 43
0.0000000001
 12
1.0
 22
0.0
 32
0.0
 13
1.0
 23
0.0
 33
0.0
 40
0.0
 40
0.0
 40
0.0
 40
0.0
 40
0.0357142857142857
 40
0.0357142857142857
 40
0.0357142857142857
 40
0.0357142857142857
 40
0.0714285714285714
 40
0.0714285714285714
 40
0.0714285714285714
 40
0.0714285714285714
 40
0.1071428571428571
 40
0.1071428571428571
 40
0.1071428571428571
 40
0.1071428571428571
 40
0.1428571428571428
 40
0.1428571428571428
 40
0.1428571428571428
 40
0.1428571428571428
 40
0.1785714285714286
 40
0.1785714285714286
 40
0.1785714285714286
 40
0.1785714285714286
 40
0.2142857142857143
 40
0.2142857142857143
 40
0.2142857142857143
 40
0.2142857142857143
 40
0.25
 40
0.25
 40
0.25
 40
0.25
 40
0.2857142857142857
 40
0.2857142857142857
 40
0.2857142857142857
 40
0.2857142857142857
 40
0.3214285714285715
 40
0.3214285714285715
 40
0.3214285714285715
 40
0.3214285714285715
 40
0.3571428571428572
 40
0.3571428571428572
 40
0.3571428571428572
 40
0.3571428571428572
 40
0.3928571428571428
 40
0.3928571428571428
 40
0.3928571428571428
 40
0.3928571428571428
 40
0.4285714285714285
 40
0.4285714285714285
 40
0.4285714285714285
 40
0.4285714285714285
 40
0.4642857142857143
 40
0.4642857142857143
 40
0.4642857142857143
 40
0.4642857142857143
 40
0.5
 40
0.5
 40
0.5
 40
0.5
 40
0.5357142857142857
 40
0.5357142857142857
 40
0.5357142857142857
 40
0.5357142857142857
 40
0.5714285714285714
 40
0.5714285714285714
 40
0.5714285714285714
 40
0.5714285714285714
 40
0.6071428571428571
 40
0.6071428571428571
 40
0.6071428571428571
 40
0.6071428571428571
 40
0.6428571428571429
 40
0.6428571428571429
 40
0.6428571428571429
 40
0.6428571428571429
 40
0.6785714285714286
 40
0.6785714285714286
 40
0.6785714285714286
 40
0.6785714285714286
 40
0.7142857142857143
 40
0.7142857142857143
 40
0.7142857142857143
 40
0.7142857142857143
 40
0.75
 40
0.75
 40
0.75
 40
0.75
 40
0.7857142857142857
 40
0.7857142857142857
 40
0.7857142857142857
 40
0.7857142857142857
 40
0.8214285714285714
 40
0.8214285714285714
 40
0.8214285714285714
 40
0.8214285714285714
 40
0.8571428571428571
 40
0.8571428571428571
 40
0.8571428571428571
 40
0.8571428571428571
 40
0.8928571428571429
 40
0.8928571428571429
 40
0.8928571428571429
 40
0.8928571428571429
 40
0.9285714285714286
 40
0.9285714285714286
 40
0.9285714285714286
 40
0.9285714285714286
 40
1.0
 40
1.0
 40
1.0
 40
1.0
 10
1117.3071
 20
-756.6361
 30
0.0
 10
1113.1829
 20
-766.7559
 30
0.0
 10
1107.4007
 20
-776.998
 30
0.0
 10
1099.756
 20
-787.1163
 30
0.0
 10
1099.756
 20
-787.1163
 30
0.0
 10
1096.876
 20
-790.9372
 30
0.0
 10
1093.725
 20
-794.7463
 30
0.0
 10
1090.2958
 20
-798.5245
 30
0.0
 10
1090.2958
 20
-798.5245
 30
0.0
 10
1068.7236
 20
-822.3054
 30
0.0
 10
1057.6481
 20
-843.8025
 30
0.0
 10
1052.2179
 20
-861.3447
 30
0.0
 10
1052.2179
 20
-861.3447
 30
0.0
 10
1044.7204
 20
-885.5496
 30
0.0
 10
1047.9891
 20
-902.26
 30
0.0
 10
1049.3158
 20
-907.1439
 30
0.0
 10
1049.3158
 20
-907.1439
 30
0.0
 10
1049.4203
 20
-907.4031
 30
0.0
 10
1049.5263
 20
-907.6725
 30
0.0
 10
1049.6309
 20
-907.9258
 30
0.0
 10
1049.6309
 20
-907.9258
 30
0.0
 10
1049.569
 20
-907.8139
 30
0.0
 10
1049.4969
 20
-907.6666
 30
0.0
 10
1049.4218
 20
-907.5341
 30
0.0
 10
1049.4218
 20
-907.5341
 30
0.0
 10
1049.466
 20
-907.6828
 30
0.0
 10
1049.5146
 20
-907.8345
 30
0.0
 10
1049.5499
 20
-907.9611
 30
0.0
 10
1049.5499
 20
-907.9611
 30
0.0
 10
1049.329
 20
-907.3177
 30
0.0
 10
1049.0272
 20
-906.7125
 30
0.0
 10
1048.6547
 20
-906.1397
 30
0.0
 10
1048.6547
 20
-906.1397
 30
0.0
 10
1044.6247
 20
-899.2003
 30
0.0
 10
1030.1568
 20
-878.7633
 30
0.0
 10
994.2817
 20
-866.3053
 30
0.0
 10
994.2817
 20
-866.3053
 30
0.0
 10
980.9019
 20
-861.6539
 30
0.0
 10
964.5464
 20
-858.1187
 30
0.0
 10
944.638
 20
-856.8038
 30
0.0
 10
944.638
 20
-856.8038
 30
0.0
 10
939.4979
 20
-856.4637
 30
0.0
 10
934.5491
 20
-855.9013
 30
0.0
 10
929.7726
 20
-855.1297
 30
0.0
 10
929.7726
 20
-855.1297
 30
0.0
 10
917.3853
 20
-853.142
 30
0.0
 10
906.2362
 20
-849.7584
 30
0.0
 10
896.3416
 20
-845.294
 30
0.0
 10
896.3416
 20
-845.294
 30
0.0
 10
890.6537
 20
-842.7276
 30
0.0
 10
885.3811
 20
-839.8064
 30
0.0
 10
880.5236
 20
-836.5848
 30
0.0
 10
880.5236
 20
-836.5848
 30
0.0
 10
876.6482
 20
-834.0125
 30
0.0
 10
873.0364
 20
-831.2532
 30
0.0
 10
869.6867
 20
-828.3363
 30
0.0
 10
869.6867
 20
-828.3363
 30
0.0
 10
855.7165
 20
-816.1419
 30
0.0
 10
846.377
 20
-801.1484
 30
0.0
 10
841.7492
 20
-785.5144
 30
0.0
 10
841.7492
 20
-785.5144
 30
0.0
 10
836.4928
 20
-767.7601
 30
0.0
 10
837.3026
 20
-749.1798
 30
0.0
 10
844.3053
 20
-732.9215
 30
0.0
 10
844.3053
 20
-732.9215
 30
0.0
 10
848.8507
 20
-722.3452
 30
0.0
 10
856.008
 20
-712.7525
 30
0.0
 10
865.8157
 20
-705.012
 30
0.0
 10
865.8157
 20
-705.012
 30
0.0
 10
873.029
 20
-699.3153
 30
0.0
 10
880.1334
 20
-695.0439
 30
0.0
 10
887.039
 20
-691.9047
 30
0.0
 10
887.039
 20
-691.9047
 30
0.0
 10
924.9564
 20
-674.6437
 30
0.0
 10
956.5895
 20
-691.6205
 30
0.0
 10
963.7292
 20
-696.0039
 30
0.0
 10
963.7292
 20
-696.0039
 30
0.0
 10
964.4919
 20
-696.475
 30
0.0
 10
964.9793
 20
-696.8048
 30
0.0
 10
965.1516
 20
-696.9212
 30
0.0
 10
965.1516
 20
-696.9212
 30
0.0
 10
965.5123
 20
-695.2529
 30
0.0
 10
970.891
 20
-671.3337
 30
0.0
 10
992.8991
 20
-653.416
 30
0.0
 10
992.8991
 20
-653.416
 30
0.0
 10
1004.3986
 20
-644.0544
 30
0.0
 10
1020.4345
 20
-636.3243
 30
0.0
 10
1042.6605
 20
-634.2556
 30
0.0
 10
1042.6605
 20
-634.2556
 30
0.0
 10
1055.2054
 20
-633.0894
 30
0.0
 10
1067.1128
 20
-635.089
 30
0.0
 10
1077.7818
 20
-639.621
 30
0.0
 10
1077.7818
 20
-639.621
 30
0.0
 10
1094.0401
 20
-646.5295
 30
0.0
 10
1107.4213
 20
-659.3071
 30
0.0
 10
1115.8317
 20
-675.6964
 30
0.0
 10
1115.8317
 20
-675.6964
 30
0.0
 10
1123.232
 20
-690.1363
 30
0.0
 10
1126.7732
 20
-707.3708
 30
0.0
 10
1125.0122
 20
-725.8613
 30
0.0
 10
1125.0122
 20
-725.8613
 30
0.0
 10
1124.597
 20
-730.2888
 30
0.0
 10
1123.8607
 20
-734.7826
 30
0.0
 10
1122.8168
 20
-739.3382
 30
0.0
 10
1122.8168
 20
-739.3382
 30
0.0
 10
1121.502
 20
-745.035
 30
0.0
 10
1119.6718
 20
-750.823
 30
0.0
 10
1117.3071
 20
-756.6361
 30
0.0
  0
LWPOLYLINE
  5
4D
330
1F
100
AcDbEntity
  8
Layer 1
 62
   250
370
    20
100
AcDbPolyline
 90
        5
 70
     1
 43
0.0
 10
772.3527
 20
-569.777
 10
1191.1753
 20
-569.777
 10
1191.1753
 20
-533.777
 10
772.3527
 20
-533.777
 10
772.3527
 20
-569.777
  0
SPLINE
  5
4E
330
1F
100
AcDbEntity
  8
Layer 1
370
    20
100
AcDbSpline
210
0.0
220
0.0
230
1.0
 70
    11
 71
     3
 72
   112
 73
   108
 74
     0
 42
0.0000000001
 43
0.0000000001
 12
1.0
 22
0.0
 32
0.0
 13
1.0
 23
0.0
 33
0.0
 40
0.0
 40
0.0
 40
0.0
 40
0.0
 40
0.0357142857142857
 40
0.0357142857142857
 40
0.0357142857142857
 40
0.0357142857142857
 40
0.0714285714285714
 40
0.0714285714285714
 40
0.0714285714285714
 40
0.0714285714285714
 40
0.1071428571428571
 40
0.1071428571428571
 40
0.1071428571428571
 40
0.1071428571428571
 40
0.1428571428571428
 40
0.1428571428571428
 40
0.1428571428571428
 40
0.1428571428571428
 40
0.1785714285714286
 40
0.1785714285714286
 40
0.1785714285714286
 40
0.1785714285714286
 40
0.2142857142857143
 40
0.2142857142857143
 40
0.2142857142857143
 40
0.2142857142857143
 40
0.25
 40
0.25
 40
0.25
 40
0.25
 40
0.2857142857142857
 40
0.2857142857142857
 40
0.2857142857142857
 40
0.2857142857142857
 40
0.3214285714285715
 40
0.3214285714285715
 40
0.3214285714285715
 40
0.3214285714285715
 40
0.3571428571428572
 40
0.3571428571428572
 40
0.3571428571428572
 40
0.3571428571428572
 40
0.3928571428571428
 40
0.3928571428571428
 40
0.3928571428571428
 40
0.3928571428571428
 40
0.4285714285714285
 40
0.4285714285714285
 40
0.4285714285714285
 40
0.4285714285714285
 40
0.4642857142857143
 40
0.4642857142857143
 40
0.4642857142857143
 40
0.4642857142857143
 40
0.5
 40
0.5
 40
0.5
 40
0.5
 40
0.5357142857142857
 40
0.5357142857142857
 40
0.5357142857142857
 40
0.5357142857142857
 40
0.5714285714285714
 40
0.5714285714285714
 40
0.5714285714285714
 40
0.5714285714285714
 40
0.6071428571428571
 40
0.6071428571428571
 40
0.6071428571428571
 40
0.6071428571428571
 40
0.6428571428571429
 40
0.6428571428571429
 40
0.6428571428571429
 40
0.6428571428571429
 40
0.6785714285714286
 40
0.6785714285714286
 40
0.6785714285714286
 40
0.6785714285714286
 40
0.7142857142857143
 40
0.7142857142857143
 40
0.7142857142857143
 40
0.7142857142857143
 40
0.75
 40
0.75
 40
0.75
 40
0.75
 40
0.7857142857142857
 40
0.7857142857142857
 40
0.7857142857142857
 40
0.7857142857142857
 40
0.8214285714285714
 40
0.8214285714285714
 40
0.8214285714285714
 40
0.8214285714285714
 40
0.8571428571428571
 40
0.8571428571428571
 40
0.8571428571428571
 40
0.8571428571428571
 40
0.8928571428571429
 40
0.8928571428571429
 40
0.8928571428571429
 40
0.8928571428571429
 40
0.9285714285714286
 40
0.9285714285714286
 40
0.9285714285714286
 40
0.9285714285714286
 40
1.0
 40
1.0
 40
1.0
 40
1.0
 10
1878.268
 20
-756.6361
 30
0.0
 10
1874.1438
 20
-766.7559
 30
0.0
 10
1868.3616
 20
-776.998
 30
0.0
 10
1860.7169
 20
-787.1163
 30
0.0
 10
1860.7169
 20
-787.1163
 30
0.0
 10
1857.8369
 20
-790.9372
 30
0.0
 10
1854.6859
 20
-794.7463
 30
0.0
 10
1851.2567
 20
-798.5245
 30
0.0
 10
1851.2567
 20
-798.5245
 30
0.0
 10
1829.6845
 20
-822.3054
 30
0.0
 10
1818.609
 20
-843.8025
 30
0.0
 10
1813.1788
 20
-861.3447
 30
0.0
 10
1813.1788
 20
-861.3447
 30
0.0
 10
1805.6813
 20
-885.5496
 30
0.0
 10
1808.95
 20
-902.26
 30
0.0
 10
1810.2767
 20
-907.1439
 30
0.0
 10
1810.2767
 20
-907.1439
 30
0.0
 10
1810.3812
 20
-907.4031
 30
0.0
 10
1810.4872
 20
-907.6725
 30
0.0
 10
1810.5918
 20
-907.9258
 30
0.0
 10
1810.5918
 20
-907.9258
 30
0.0
 10
1810.5299
 20
-907.8139
 30
0.0
 10
1810.4578
 20
-907.6666
 30
0.0
 10
1810.3827
 20
-907.5341
 30
0.0
 10
1810.3827
 20
-907.5341
 30
0.0
 10
1810.4269
 20
-907.6828
 30
0.0
 10
1810.4755
 20
-907.8345
 30
0.0
 10
1810.5108
 20
-907.9611
 30
0.0
 10
1810.5108
 20
-907.9611
 30
0.0
 10
1810.2899
 20
-907.3177
 30
0.0
 10
1809.9881
 20
-906.7125
 30
0.0
 10
1809.6156
 20
-906.1397
 30
0.0
 10
1809.6156
 20
-906.1397
 30
0.0
 10
1805.5856
 20
-899.2003
 30
0.0
 10
1791.1177
 20
-878.7633
 30
0.0
 10
1755.2426
 20
-866.3053
 30
0.0
 10
1755.2426
 20
-866.3053
 30
0.0
 10
1741.8628
 20
-861.6539
 30
0.0
 10
1725.5073
 20
-858.1187
 30
0.0
 10
1705.5989
 20
-856.8038
 30
0.0
 10
1705.5989
 20
-856.8038
 30
0.0
 10
1700.4588
 20
-856.4637
 30
0.0
 10
1695.51
 20
-855.9013
 30
0.0
 10
1690.7335
 20
-855.1297
 30
0.0
 10
1690.7335
 20
-855.1297
 30
0.0
 10
1678.3462
 20
-853.142
 30
0.0
 10
1667.1971
 20
-849.7584
 30
0.0
 10
1657.3025
 20
-845.294
 30
0.0
 10
1657.3025
 20
-845.294
 30
0.0
 10
1651.6146
 20
-842.7276
 30
0.0
 10
1646.342
 20
-839.8064
 30
0.0
 10
1641.4845
 20
-836.5848
 30
0.0
 10
1641.4845
 20
-836.5848
 30
0.0
 10
1637.6091
 20
-834.0125
 30
0.0
 10
1633.9973
 20
-831.2532
 30
0.0
 10
1630.6476
 20
-828.3363
 30
0.0
 10
1630.6476
 20
-828.3363
 30
0.0
 10
1616.6774
 20
-816.1419
 30
0.0
 10
1607.3379
 20
-801.1484
 30
0.0
 10
1602.7101
 20
-785.5144
 30
0.0
 10
1602.7101
 20
-785.5144
 30
0.0
 10
1597.4537
 20
-767.7601
 30
0.0
 10
1598.2635
 20
-749.1798
 30
0.0
 10
1605.2662
 20
-732.9215
 30
0.0
 10
1605.2662
 20
-732.9215
 30
0.0
 10
1609.8116
 20
-722.3452
 30
0.0
 10
1616.9689
 20
-712.7525
 30
0.0
 10
1626.7766
 20
-705.012
 30
0.0
 10
1626.7766
 20
-705.012
 30
0.0
 10
1633.9899
 20
-699.3153
 30
0.0
 10
1641.0943
 20
-695.0439
 30
0.0
 10
1647.9999
 20
-691.9047
 30
0.0
 10
1647.9999
 20
-691.9047
 30
0.0
 10
1685.9173
 20
-674.6437
 30
0.0
 10
1717.5504
 20
-691.6205
 30
0.0
 10
1724.6901
 20
-696.0039
 30
0.0
 10
1724.6901
 20
-696.0039
 30
0.0
 10
1725.4528
 20
-696.475
 30
0.0
 10
1725.9402
 20
-696.8048
 30
0.0
 10
1726.1125
 20
-696.9212
 30
0.0
 10
1726.1125
 20
-696.9212
 30
0.0
 10
1726.4732
 20
-695.2529
 30
0.0
 10
1731.8519
 20
-671.3337
 30
0.0
 10
1753.86
 20
-653.416
 30
0.0
 10
1753.86
 20
-653.416
 30
0.0
 10
1765.3595
 20
-644.0544
 30
0.0
 10
1781.3954
 20
-636.3243
 30
0.0
 10
1803.6214
 20
-634.2556
 30
0.0
 10
1803.6214
 20
-634.2556
 30
0.0
 10
1816.1663
 20
-633.0894
 30
0.0
 10
1828.0737
 20
-635.089
 30
0.0
 10
1838.7427
 20
-639.621
 30
0.0
 10
1838.7427
 20
-639.621
 30
0.0
 10
1855.001
 20
-646.5295
 30
0.0
 10
1868.3822
 20
-659.3071
 30
0.0
 10
1876.7926
 20
-675.6964
 30
0.0
 10
1876.7926
 20
-675.6964
 30
0.0
 10
1884.1929
 20
-690.1363
 30
0.0
 10
1887.7341
 20
-707.3708
 30
0.0
 10
1885.9731
 20
-725.8613
 30
0.0
 10
1885.9731
 20
-725.8613
 30
0.0
 10
1885.5579
 20
-730.2888
 30
0.0
 10
1884.8216
 20
-734.7826
 30
0.0
 10
1883.7777
 20
-739.3382
 30
0.0
 10
1883.7777
 20
-739.3382
 30
0.0
 10
1882.4629
 20
-745.035
 30
0.0
 10
1880.6327
 20
-750.823
 30
0.0
 10
1878.268
 20
-756.6361
 30
0.0
  0
SPLINE
  5
4F
330
1F
100
AcDbEntity
  8
Layer 1
370
     9
100
AcDbSpline
210
0.0
220
0.0
230
1.0
 70
    11
 71
     3
 72
   368
 73
   364
 74
     0
 42
0.0000000001
 43
0.0000000001
 12
1.0
 22
0.0
 32
0.0
 13
1.0
 23
0.0
 33
0.0
 40
0.0
 40
0.0
 40
0.0
 40
0.0
 40
0.0108695652173913
 40
0.0108695652173913
 40
0.0108695652173913
 40
0.0108695652173913
 40
0.0217391304347826
 40
0.0217391304347826
 40
0.0217391304347826
 40
0.0217391304347826
 40
0.0326086956521739
 40
0.0326086956521739
 40
0.0326086956521739
 40
0.0326086956521739
 40
0.0434782608695652
 40
0.0434782608695652
 40
0.0434782608695652
 40
0.0434782608695652
 40
0.0543478260869565
 40
0.0543478260869565
 40
0.0543478260869565
 40
0.0543478260869565
 40
0.0652173913043478
 40
0.0652173913043478
 40
0.0652173913043478
 40
0.0652173913043478
 40
0.0760869565217391
 40
0.0760869565217391
 40
0.0760869565217391
 40
0.0760869565217391
 40
0.0869565217391304
 40
0.0869565217391304
 40
0.0869565217391304
 40
0.0869565217391304
 40
0.0978260869565217
 40
0.0978260869565217
 40
0.0978260869565217
 40
0.0978260869565217
 40
0.108695652173913
 40
0.108695652173913
 40
0.108695652173913
 40
0.108695652173913
 40
0.1195652173913044
 40
0.1195652173913044
 40
0.1195652173913044
 40
0.1195652173913044
 40
0.1304347826086956
 40
0.1304347826086956
 40
0.1304347826086956
 40
0.1304347826086956
 40
0.1413043478260869
 40
0.1413043478260869
 40
0.1413043478260869
 40
0.1413043478260869
 40
0.1521739130434783
 40
0.1521739130434783
 40
0.1521739130434783
 40
0.1521739130434783
 40
0.1630434782608696
 40
0.1630434782608696
 40
0.1630434782608696
 40
0.1630434782608696
 40
0.1739130434782609
 40
0.1739130434782609
 40
0.1739130434782609
 40
0.1739130434782609
 40
0.1847826086956522
 40
0.1847826086956522
 40
0.1847826086956522
 40
0.1847826086956522
 40
0.1956521739130435
 40
0.1956521739130435
 40
0.1956521739130435
 40
0.1956521739130435
 40
0.2065217391304348
 40
0.2065217391304348
 40
0.2065217391304348
 40
0.2065217391304348
 40
0.2173913043478261
 40
0.2173913043478261
 40
0.2173913043478261
 40
0.2173913043478261
 40
0.2282608695652174
 40
0.2282608695652174
 40
0.2282608695652174
 40
0.2282608695652174
 40
0.2391304347826087
 40
0.2391304347826087
 40
0.2391304347826087
 40
0.2391304347826087
 40
0.25
 40
0.25
 40
0.25
 40
0.25
 40
0.2608695652173913
 40
0.2608695652173913
 40
0.2608695652173913
 40
0.2608695652173913
 40
0.2717391304347826
 40
0.2717391304347826
 40
0.2717391304347826
 40
0.2717391304347826
 40
0.2826086956521739
 40
0.2826086956521739
 40
0.2826086956521739
 40
0.2826086956521739
 40
0.2934782608695652
 40
0.2934782608695652
 40
0.2934782608695652
 40
0.2934782608695652
 40
0.3043478260869565
 40
0.3043478260869565
 40
0.3043478260869565
 40
0.3043478260869565
 40
0.3152173913043478
 40
0.3152173913043478
 40
0.3152173913043478
 40
0.3152173913043478
 40
0.3260869565217391
 40
0.3260869565217391
 40
0.3260869565217391
 40
0.3260869565217391
 40
0.3369565217391304
 40
0.3369565217391304
 40
0.3369565217391304
 40
0.3369565217391304
 40
0.3478260869565217
 40
0.3478260869565217
 40
0.3478260869565217
 40
0.3478260869565217
 40
0.358695652173913
 40
0.358695652173913
 40
0.358695652173913
 40
0.358695652173913
 40
0.3695652173913043
 40
0.3695652173913043
 40
0.3695652173913043
 40
0.3695652173913043
 40
0.3804347826086957
 40
0.3804347826086957
 40
0.3804347826086957
 40
0.3804347826086957
 40
0.391304347826087
 40
0.391304347826087
 40
0.391304347826087
 40
0.391304347826087
 40
0.4021739130434783
 40
0.4021739130434783
 40
0.4021739130434783
 40
0.4021739130434783
 40
0.4130434782608696
 40
0.4130434782608696
 40
0.4130434782608696
 40
0.4130434782608696
 40
0.4239130434782609
 40
0.4239130434782609
 40
0.4239130434782609
 40
0.4239130434782609
 40
0.4347826086956522
 40
0.4347826086956522
 40
0.4347826086956522
 40
0.4347826086956522
 40
0.4456521739130435
 40
0.4456521739130435
 40
0.4456521739130435
 40
0.4456521739130435
 40
0.4565217391304348
 40
0.4565217391304348
 40
0.4565217391304348
 40
0.4565217391304348
 40
0.4673913043478261
 40
0.4673913043478261
 40
0.4673913043478261
 40
0.4673913043478261
 40
0.4782608695652174
 40
0.4782608695652174
 40
0.4782608695652174
 40
0.4782608695652174
 40
0.4891304347826087
 40
0.4891304347826087
 40
0.4891304347826087
 40
0.4891304347826087
 40
0.5
 40
0.5
 40
0.5
 40
0.5
 40
0.5108695652173914
 40
0.5108695652173914
 40
0.5108695652173914
 40
0.5108695652173914
 40
0.5217391304347826
 40
0.5217391304347826
 40
0.5217391304347826
 40
0.5217391304347826
 40
0.532608695652174
 40
0.532608695652174
 40
0.532608695652174
 40
0.532608695652174
 40
0.5434782608695652
 40
0.5434782608695652
 40
0.5434782608695652
 40
0.5434782608695652
 40
0.5543478260869565
 40
0.5543478260869565
 40
0.5543478260869565
 40
0.5543478260869565
 40
0.5652173913043478
 40
0.5652173913043478
 40
0.5652173913043478
 40
0.5652173913043478
 40
0.5760869565217391
 40
0.5760869565217391
 40
0.5760869565217391
 40
0.5760869565217391
 40
0.5869565217391305
 40
0.5869565217391305
 40
0.5869565217391305
 40
0.5869565217391305
 40
0.5978260869565217
 40
0.5978260869565217
 40
0.5978260869565217
 40
0.5978260869565217
 40
0.6086956521739131
 40
0.6086956521739131
 40
0.6086956521739131
 40
0.6086956521739131
 40
0.6195652173913043
 40
0.6195652173913043
 40
0.6195652173913043
 40
0.6195652173913043
 40
0.6304347826086957
 40
0.6304347826086957
 40
0.6304347826086957
 40
0.6304347826086957
 40
0.6413043478260869
 40
0.6413043478260869
 40
0.6413043478260869
 40
0.6413043478260869
 40
0.6521739130434783
 40
0.6521739130434783
 40
0.6521739130434783
 40
0.6521739130434783
 40
0.6630434782608695
 40
0.6630434782608695
 40
0.6630434782608695
 40
0.6630434782608695
 40
0.6739130434782609
 40
0.6739130434782609
 40
0.6739130434782609
 40
0.6739130434782609
 40
0.6847826086956522
 40
0.6847826086956522
 40
0.6847826086956522
 40
0.6847826086956522
 40
0.6956521739130435
 40
0.6956521739130435
 40
0.6956521739130435
 40
0.6956521739130435
 40
0.7065217391304348
 40
0.7065217391304348
 40
0.7065217391304348
 40
0.7065217391304348
 40
0.717391304347826
 40
0.717391304347826
 40
0.717391304347826
 40
0.717391304347826
 40
0.7282608695652174
 40
0.7282608695652174
 40
0.7282608695652174
 40
0.7282608695652174
 40
0.7391304347826086
 40
0.7391304347826086
 40
0.7391304347826086
 40
0.7391304347826086
 40
0.75
 40
0.75
 40
0.75
 40
0.75
 40
0.7608695652173914
 40
0.7608695652173914
 40
0.7608695652173914
 40
0.7608695652173914
 40
0.7717391304347826
 40
0.7717391304347826
 40
0.7717391304347826
 40
0.7717391304347826
 40
0.782608695652174
 40
0.782608695652174
 40
0.782608695652174
 40
0.782608695652174
 40
0.7934782608695652
 40
0.7934782608695652
 40
0.7934782608695652
 40
0.7934782608695652
 40
0.8043478260869565
 40
0.8043478260869565
 40
0.8043478260869565
 40
0.8043478260869565
 40
0.8152173913043478
 40
0.8152173913043478
 40
0.8152173913043478
 40
0.8152173913043478
 40
0.8260869565217391
 40
0.8260869565217391
 40
0.8260869565217391
 40
0.8260869565217391
 40
0.8369565217391305
 40
0.8369565217391305
 40
0.8369565217391305
 40
0.8369565217391305
 40
0.8478260869565217
 40
0.8478260869565217
 40
0.8478260869565217
 40
0.8478260869565217
 40
0.8586956521739131
 40
0.8586956521739131
 40
0.8586956521739131
 40
0.8586956521739131
 40
0.8695652173913043
 40
0.8695652173913043
 40
0.8695652173913043
 40
0.8695652173913043
 40
0.8804347826086957
 40
0.8804347826086957
 40
0.8804347826086957
 40
0.8804347826086957
 40
0.8913043478260869
 40
0.8913043478260869
 40
0.8913043478260869
 40
0.8913043478260869
 40
0.9021739130434783
 40
0.9021739130434783
 40
0.9021739130434783
 40
0.9021739130434783
 40
0.9130434782608695
 40
0.9130434782608695
 40
0.9130434782608695
 40
0.9130434782608695
 40
0.9239130434782609
 40
0.9239130434782609
 40
0.9239130434782609
 40
0.9239130434782609
 40
0.9347826086956522
 40
0.9347826086956522
 40
0.9347826086956522
 40
0.9347826086956522
 40
0.9456521739130435
 40
0.9456521739130435
 40
0.9456521739130435
 40
0.9456521739130435
 40
0.9565217391304348
 40
0.9565217391304348
 40
0.9565217391304348
 40
0.9565217391304348
 40
0.967391304347826
 40
0.967391304347826
 40
0.967391304347826
 40
0.967391304347826
 40
0.9782608695652174
 40
0.9782608695652174
 40
0.9782608695652174
 40
0.9782608695652174
 40
1.0
 40
1.0
 40
1.0
 40
1.0
 10
1851.409
 20
-128.8427
 30
0.0
 10
1851.5049
 20
-128.0669
 30
0.0
 10
1851.6109
 20
-127.2927
 30
0.0
 10
1851.7159
 20
-126.5181
 30
0.0
 10
1851.7159
 20
-126.5181
 30
0.0
 10
1851.7188
 20
-126.4971
 30
0.0
 10
1851.7215
 20
-126.4792
 30
0.0
 10
1851.725
 20
-126.4582
 30
0.0
 10
1851.725
 20
-126.4582
 30
0.0
 10
1851.8223
 20
-125.8742
 30
0.0
 10
1851.9202
 20
-125.2876
 30
0.0
 10
1851.9976
 20
-124.7006
 30
0.0
 10
1851.9976
 20
-124.7006
 30
0.0
 10
1852.0857
 20
-124.0322
 30
0.0
 10
1852.1805
 20
-123.2939
 30
0.0
 10
1852.1805
 20
-122.6191
 30
0.0
 10
1852.1805
 20
-122.6191
 30
0.0
 10
1852.1805
 20
-122.4096
 30
0.0
 10
1852.138
 20
-121.552
 30
0.0
 10
1851.9557
 20
-121.3956
 30
0.0
 10
1851.9557
 20
-121.3956
 30
0.0
 10
1851.8899
 20
-121.3464
 30
0.0
 10
1851.6298
 20
-121.3344
 30
0.0
 10
1851.5551
 20
-121.3344
 30
0.0
 10
1851.5551
 20
-121.3344
 30
0.0
 10
1850.8769
 20
-121.3344
 30
0.0
 10
1850.0127
 20
-122.1862
 30
0.0
 10
1849.601
 20
-122.6416
 30
0.0
 10
1849.601
 20
-122.6416
 30
0.0
 10
1848.3995
 20
-123.9709
 30
0.0
 10
1847.5598
 20
-125.5846
 30
0.0
 10
1846.9652
 20
-127.2654
 30
0.0
 10
1846.9652
 20
-127.2654
 30
0.0
 10
1846.3445
 20
-129.0204
 30
0.0
 10
1845.8671
 20
-130.9431
 30
0.0
 10
1845.8671
 20
-132.8148
 30
0.0
 10
1845.8671
 20
-132.8148
 30
0.0
 10
1845.8671
 20
-132.8148
 30
0.0
 10
1845.8671
 20
-133.8273
 30
0.0
 10
1845.8671
 20
-133.8273
 30
0.0
 10
1845.8671
 20
-133.8273
 30
0.0
 10
1845.8671
 20
-134.9289
 30
0.0
 10
1844.9687
 20
-135.8273
 30
0.0
 10
1843.8671
 20
-135.8273
 30
0.0
 10
1843.8671
 20
-135.8273
 30
0.0
 10
1843.8671
 20
-135.8273
 30
0.0
 10
1843.455
 20
-135.8273
 30
0.0
 10
1843.455
 20
-135.8273
 30
0.0
 10
1843.455
 20
-135.8273
 30
0.0
 10
1842.3534
 20
-135.8273
 30
0.0
 10
1841.455
 20
-134.9289
 30
0.0
 10
1841.455
 20
-133.8273
 30
0.0
 10
1841.455
 20
-133.8273
 30
0.0
 10
1841.455
 20
-133.8273
 30
0.0
 10
1841.455
 20
-132.8266
 30
0.0
 10
1841.455
 20
-132.8266
 30
0.0
 10
1841.455
 20
-132.8266
 30
0.0
 10
1841.455
 20
-132.813
 30
0.0
 10
1841.4551
 20
-132.8014
 30
0.0
 10
1841.4554
 20
-132.7877
 30
0.0
 10
1841.4554
 20
-132.7877
 30
0.0
 10
1841.5351
 20
-128.688
 30
0.0
 10
1842.7122
 20
-124.8467
 30
0.0
 10
1844.7607
 20
-121.3008
 30
0.0
 10
1844.7607
 20
-121.3008
 30
0.0
 10
1846.7081
 20
-117.9298
 30
0.0
 10
1849.6058
 20
-115.7096
 30
0.0
 10
1853.5918
 20
-115.7096
 30
0.0
 10
1853.5918
 20
-115.7096
 30
0.0
 10
1853.5918
 20
-115.7096
 30
0.0
 10
1854.3218
 20
-115.7096
 30
0.0
 10
1854.3218
 20
-115.7096
 30
0.0
 10
1854.3218
 20
-115.7096
 30
0.0
 10
1854.3632
 20
-115.7096
 30
0.0
 10
1854.3985
 20
-115.7106
 30
0.0
 10
1854.4398
 20
-115.7131
 30
0.0
 10
1854.4398
 20
-115.7131
 30
0.0
 10
1858.6416
 20
-115.9615
 30
0.0
 10
1859.9009
 20
-119.6725
 30
0.0
 10
1859.9009
 20
-123.3373
 30
0.0
 10
1859.9009
 20
-123.3373
 30
0.0
 10
1859.9009
 20
-124.5992
 30
0.0
 10
1859.7078
 20
-126.0458
 30
0.0
 10
1859.5563
 20
-127.3091
 30
0.0
 10
1859.5563
 20
-127.3091
 30
0.0
 10
1859.5332
 20
-127.8712
 30
0.0
 10
1859.3894
 20
-128.6355
 30
0.0
 10
1859.3167
 20
-129.1579
 30
0.0
 10
1859.3167
 20
-129.1579
 30
0.0
 10
1859.2272
 20
-129.8017
 30
0.0
 10
1859.1294
 20
-130.4623
 30
0.0
 10
1859.0676
 20
-131.1094
 30
0.0
 10
1859.0676
 20
-131.1094
 30
0.0
 10
1859.0648
 20
-131.1389
 30
0.0
 10
1859.0619
 20
-131.164
 30
0.0
 10
1859.0578
 20
-131.1934
 30
0.0
 10
1859.0578
 20
-131.1934
 30
0.0
 10
1859.0578
 20
-131.1934
 30
0.0
 10
1857.06
 20
-145.6344
 30
0.0
 10
1857.06
 20
-145.6344
 30
0.0
 10
1857.06
 20
-145.6344
 30
0.0
 10
1857.7737
 20
-143.1362
 30
0.0
 10
1858.5382
 20
-140.6524
 30
0.0
 10
1859.3587
 20
-138.1875
 30
0.0
 10
1859.3587
 20
-138.1875
 30
0.0
 10
1860.6149
 20
-134.4134
 30
0.0
 10
1862.0606
 20
-130.6108
 30
0.0
 10
1863.8492
 20
-127.0539
 30
0.0
 10
1863.8492
 20
-127.0539
 30
0.0
 10
1865.3598
 20
-124.0497
 30
0.0
 10
1867.2386
 20
-120.9888
 30
0.0
 10
1869.678
 20
-118.6455
 30
0.0
 10
1869.678
 20
-118.6455
 30
0.0
 10
1871.4002
 20
-116.9911
 30
0.0
 10
1873.5158
 20
-115.7803
 30
0.0
 10
1875.9612
 20
-115.7803
 30
0.0
 10
1875.9612
 20
-115.7803
 30
0.0
 10
1876.4869
 20
-115.7803
 30
0.0
 10
1877.0396
 20
-115.8599
 30
0.0
 10
1877.5559
 20
-115.954
 30
0.0
 10
1877.5559
 20
-115.954
 30
0.0
 10
1881.4137
 20
-116.6571
 30
0.0
 10
1881.9523
 20
-121.3619
 30
0.0
 10
1881.9523
 20
-124.5382
 30
0.0
 10
1881.9523
 20
-124.5382
 30
0.0
 10
1881.9523
 20
-126.4455
 30
0.0
 10
1881.7871
 20
-128.3952
 30
0.0
 10
1881.5995
 20
-130.2924
 30
0.0
 10
1881.5995
 20
-130.2924
 30
0.0
 10
1881.3269
 20
-133.0504
 30
0.0
 10
1880.9703
 20
-135.8058
 30
0.0
 10
1880.5913
 20
-138.5511
 30
0.0
 10
1880.5913
 20
-138.5511
 30
0.0
 10
1880.5913
 20
-138.5511
 30
0.0
 10
1879.6742
 20
-145.195
 30
0.0
 10
1879.6742
 20
-145.195
 30
0.0
 10
1879.6742
 20
-145.195
 30
0.0
 10
1880.556
 20
-142.3467
 30
0.0
 10
1881.5143
 20
-139.5219
 30
0.0
 10
1882.5354
 20
-136.7213
 30
0.0
 10
1882.5354
 20
-136.7213
 30
0.0
 10
1884.5277
 20
-131.2571
 30
0.0
 10
1887.1145
 20
-125.9395
 30
0.0
 10
1890.513
 20
-121.2055
 30
0.0
 10
1890.513
 20
-121.2055
 30
0.0
 10
1892.6243
 20
-118.2646
 30
0.0
 10
1895.5587
 20
-115.4624
 30
0.0
 10
1899.4136
 20
-115.4624
 30
0.0
 10
1899.4136
 20
-115.4624
 30
0.0
 10
1900.1218
 20
-115.4624
 30
0.0
 10
1900.8227
 20
-115.5625
 30
0.0
 10
1901.4968
 20
-115.7782
 30
0.0
 10
1901.4968
 20
-115.7782
 30
0.0
 10
1905.4038
 20
-116.6811
 30
0.0
 10
1905.9699
 20
-121.4939
 30
0.0
 10
1905.9699
 20
-124.8207
 30
0.0
 10
1905.9699
 20
-124.8207
 30
0.0
 10
1905.9699
 20
-126.6489
 30
0.0
 10
1905.7641
 20
-128.5615
 30
0.0
 10
1905.5516
 20
-130.3763
 30
0.0
 10
1905.5516
 20
-130.3763
 30
0.0
 10
1905.2168
 20
-133.2359
 30
0.0
 10
1904.7864
 20
-136.0922
 30
0.0
 10
1904.3318
 20
-138.9349
 30
0.0
 10
1904.3318
 20
-138.9349
 30
0.0
 10
1904.3297
 20
-138.9483
 30
0.0
 10
1904.3278
 20
-138.9596
 30
0.0
 10
1904.3254
 20
-138.9729
 30
0.0
 10
1904.3254
 20
-138.9729
 30
0.0
 10
1904.3254
 20
-138.9729
 30
0.0
 10
1901.0313
 20
-157.3029
 30
0.0
 10
1901.0313
 20
-157.3029
 30
0.0
 10
1901.0313
 20
-157.3029
 30
0.0
 10
1900.7277
 20
-158.9922
 30
0.0
 10
1899.2333
 20
-166.9408
 30
0.0
 10
1899.3315
 20
-170.0428
 30
0.0
 10
1899.3315
 20
-170.0428
 30
0.0
 10
1900.7536
 20
-168.8674
 30
0.0
 10
1902.9296
 20
-166.2593
 30
0.0
 10
1903.528
 20
-165.527
 30
0.0
 10
1903.528
 20
-165.527
 30
0.0
 10
1904.0873
 20
-164.8425
 30
0.0
 10
1904.9864
 20
-164.6078
 30
0.0
 10
1905.809
 20
-164.9315
 30
0.0
 10
1905.809
 20
-164.9315
 30
0.0
 10
1905.809
 20
-164.9315
 30
0.0
 10
1906.5271
 20
-165.2141
 30
0.0
 10
1906.5271
 20
-165.2141
 30
0.0
 10
1906.5271
 20
-165.2141
 30
0.0
 10
1907.0758
 20
-165.4301
 30
0.0
 10
1907.465
 20
-165.8271
 30
0.0
 10
1907.67
 20
-166.38
 30
0.0
 10
1907.67
 20
-166.38
 30
0.0
 10
1907.875
 20
-166.933
 30
0.0
 10
1907.8386
 20
-167.4878
 30
0.0
 10
1907.5632
 20
-168.0092
 30
0.0
 10
1907.5632
 20
-168.0092
 30
0.0
 10
1906.6881
 20
-169.6662
 30
0.0
 10
1905.567
 20
-171.2702
 30
0.0
 10
1904.3733
 20
-172.7127
 30
0.0
 10
1904.3733
 20
-172.7127
 30
0.0
 10
1902.2553
 20
-175.2724
 30
0.0
 10
1897.9791
 20
-179.6007
 30
0.0
 10
1894.2603
 20
-178.3039
 30
0.0
 10
1894.2603
 20
-178.3039
 30
0.0
 10
1891.2155
 20
-177.2421
 30
0.0
 10
1890.7857
 20
-173.3661
 30
0.0
 10
1890.7986
 20
-170.6231
 30
0.0
 10
1890.7986
 20
-170.6231
 30
0.0
 10
1890.811
 20
-167.9946
 30
0.0
 10
1891.1073
 20
-165.28
 30
0.0
 10
1891.4417
 20
-162.6742
 30
0.0
 10
1891.4417
 20
-162.6742
 30
0.0
 10
1891.8486
 20
-159.5033
 30
0.0
 10
1892.3629
 20
-156.3404
 30
0.0
 10
1892.9165
 20
-153.1921
 30
0.0
 10
1892.9165
 20
-153.1921
 30
0.0
 10
1893.6418
 20
-149.0676
 30
0.0
 10
1894.4451
 20
-144.9574
 30
0.0
 10
1895.2664
 20
-140.8511
 30
0.0
 10
1895.2664
 20
-140.8511
 30
0.0
 10
1895.7837
 20
-138.2652
 30
0.0
 10
1896.3708
 20
-135.6248
 30
0.0
 10
1896.7918
 20
-133.0249
 30
0.0
 10
1896.7918
 20
-133.0249
 30
0.0
 10
1897.0724
 20
-131.292
 30
0.0
 10
1897.3254
 20
-129.5483
 30
0.0
 10
1897.5099
 20
-127.8023
 30
0.0
 10
1897.5099
 20
-127.8023
 30
0.0
 10
1897.6291
 20
-126.6741
 30
0.0
 10
1897.7315
 20
-125.5085
 30
0.0
 10
1897.7315
 20
-124.3733
 30
0.0
 10
1897.7315
 20
-124.3733
 30
0.0
 10
1897.7315
 20
-123.889
 30
0.0
 10
1897.6866
 20
-122.3894
 30
0.0
 10
1897.4303
 20
-121.7819
 30
0.0
 10
1897.4303
 20
-121.7819
 30
0.0
 10
1897.4036
 20
-121.7816
 30
0.0
 10
1897.3775
 20
-121.7817
 30
0.0
 10
1897.3533
 20
-121.7817
 30
0.0
 10
1897.3533
 20
-121.7817
 30
0.0
 10
1895.7262
 20
-121.7817
 30
0.0
 10
1893.7108
 20
-124.6946
 30
0.0
 10
1892.9628
 20
-125.8634
 30
0.0
 10
1892.9628
 20
-125.8634
 30
0.0
 10
1890.2132
 20
-130.1602
 30
0.0
 10
1888.0844
 20
-134.9589
 30
0.0
 10
1886.3679
 20
-139.7524
 30
0.0
 10
1886.3679
 20
-139.7524
 30
0.0
 10
1884.4724
 20
-145.0458
 30
0.0
 10
1882.8463
 20
-150.4437
 30
0.0
 10
1881.5706
 20
-155.9204
 30
0.0
 10
1881.5706
 20
-155.9204
 30
0.0
 10
1881.5706
 20
-155.9204
 30
0.0
 10
1877.3952
 20
-173.8447
 30
0.0
 10
1877.3952
 20
-173.8447
 30
0.0
 10
1877.3952
 20
-173.8447
 30
0.0
 10
1877.1387
 20
-175.0379
 30
0.0
 10
1876.5567
 20
-176.0884
 30
0.0
 10
1875.754
 20
-177.0027
 30
0.0
 10
1875.754
 20
-177.0027
 30
0.0
 10
1874.8264
 20
-178.0864
 30
0.0
 10
1873.5569
 20
-178.6233
 30
0.0
 10
1872.1348
 20
-178.6233
 30
0.0
 10
1872.1348
 20
-178.6233
 30
0.0
 10
1872.1348
 20
-178.6233
 30
0.0
 10
1871.9935
 20
-178.6233
 30
0.0
 10
1871.9935
 20
-178.6233
 30
0.0
 10
1871.9935
 20
-178.6233
 30
0.0
 10
1871.9137
 20
-178.6233
 30
0.0
 10
1871.8457
 20
-178.6194
 30
0.0
 10
1871.7664
 20
-178.6104
 30
0.0
 10
1871.7664
 20
-178.6104
 30
0.0
 10
1869.0919
 20
-178.3047
 30
0.0
 10
1868.0571
 20
-175.857
 30
0.0
 10
1867.8033
 20
-173.4932
 30
0.0
 10
1867.8033
 20
-173.4932
 30
0.0
 10
1867.777
 20
-173.2477
 30
0.0
 10
1867.7918
 20
-173.0339
 30
0.0
 10
1867.8517
 20
-172.7944
 30
0.0
 10
1867.8517
 20
-172.7944
 30
0.0
 10
1867.8881
 20
-172.6488
 30
0.0
 10
1867.9438
 20
-172.4438
 30
0.0
 10
1867.9569
 20
-172.2923
 30
0.0
 10
1867.9569
 20
-172.2923
 30
0.0
 10
1867.9578
 20
-172.1962
 30
0.0
 10
1867.9647
 20
-172.1118
 30
0.0
 10
1867.9793
 20
-172.0149
 30
0.0
 10
1867.9793
 20
-172.0149
 30
0.0
 10
1867.9793
 20
-172.0149
 30
0.0
 10
1868.8119
 20
-166.5155
 30
0.0
 10
1868.8119
 20
-166.5155
 30
0.0
 10
1868.8119
 20
-166.5155
 30
0.0
 10
1868.8119
 20
-166.5155
 30
0.0
 10
1873.4447
 20
-130.4493
 30
0.0
 10
1873.4447
 20
-130.4493
 30
0.0
 10
1873.4447
 20
-130.4493
 30
0.0
 10
1873.4626
 20
-129.6414
 30
0.0
 10
1873.628
 20
-128.7032
 30
0.0
 10
1873.7491
 20
-127.9182
 30
0.0
 10
1873.7491
 20
-127.9182
 30
0.0
 10
1873.9163
 20
-126.8342
 30
0.0
 10
1873.9965
 20
-125.7408
 30
0.0
 10
1873.9965
 20
-124.6441
 30
0.0
 10
1873.9965
 20
-124.6441
 30
0.0
 10
1873.9965
 20
-124.1809
 30
0.0
 10
1873.9445
 20
-122.6984
 30
0.0
 10
1873.6659
 20
-122.139
 30
0.0
 10
1873.6659
 20
-122.139
 30
0.0
 10
1872.9631
 20
-122.2777
 30
0.0
 10
1872.0033
 20
-123.2928
 30
0.0
 10
1871.6196
 20
-123.737
 30
0.0
 10
1871.6196
 20
-123.737
 30
0.0
 10
1870.0408
 20
-125.5647
 30
0.0
 10
1868.7045
 20
-128.0676
 30
0.0
 10
1867.6422
 20
-130.2252
 30
0.0
 10
1867.6422
 20
-130.2252
 30
0.0
 10
1866.2263
 20
-133.1009
 30
0.0
 10
1864.9151
 20
-136.038
 30
0.0
 10
1863.7879
 20
-139.0396
 30
0.0
 10
1863.7879
 20
-139.0396
 30
0.0
 10
1862.7784
 20
-141.728
 30
0.0
 10
1861.9034
 20
-144.4685
 30
0.0
 10
1861.1978
 20
-147.2525
 30
0.0
 10
1861.1978
 20
-147.2525
 30
0.0
 10
1861.1978
 20
-147.2525
 30
0.0
 10
1855.1973
 20
-172.7721
 30
0.0
 10
1855.1973
 20
-172.7721
 30
0.0
 10
1855.1973
 20
-172.7721
 30
0.0
 10
1854.9092
 20
-173.9975
 30
0.0
 10
1854.5434
 20
-175.3178
 30
0.0
 10
1853.9969
 20
-176.4574
 30
0.0
 10
1853.9969
 20
-176.4574
 30
0.0
 10
1853.3335
 20
-177.9555
 30
0.0
 10
1851.9608
 20
-178.7155
 30
0.0
 10
1850.3553
 20
-178.8301
 30
0.0
 10
1850.3553
 20
-178.8301
 30
0.0
 10
1850.3055
 20
-178.8337
 30
0.0
 10
1850.2629
 20
-178.8352
 30
0.0
 10
1850.2129
 20
-178.8352
 30
0.0
 10
1850.2129
 20
-178.8352
 30
0.0
 10
1846.6598
 20
-178.8352
 30
0.0
 10
1845.5308
 20
-175.4301
 30
0.0
 10
1845.3216
 20
-172.4546
 30
0.0
 10
1845.3216
 20
-172.4546
 30
0.0
 10
1845.3113
 20
-172.3079
 30
0.0
 10
1845.3157
 20
-172.1819
 30
0.0
 10
1845.3361
 20
-172.0363
 30
0.0
 10
1845.3361
 20
-172.0363
 30
0.0
 10
1845.3971
 20
-171.6019
 30
0.0
 10
1845.4579
 20
-171.1288
 30
0.0
 10
1845.4579
 20
-170.6896
 30
0.0
 10
1845.4579
 20
-170.6896
 30
0.0
 10
1845.4579
 20
-170.5888
 30
0.0
 10
1845.4641
 20
-170.5029
 30
0.0
 10
1845.4785
 20
-170.4031
 30
0.0
 10
1845.4785
 20
-170.4031
 30
0.0
 10
1845.4785
 20
-170.4031
 30
0.0
 10
1846.2668
 20
-164.9566
 30
0.0
 10
1846.2668
 20
-164.9566
 30
0.0
 10
1846.2668
 20
-164.9566
 30
0.0
 10
1846.2668
 20
-164.9566
 30
0.0
 10
1851.409
 20
-128.8427
 30
0.0
 10
1851.409
 20
-128.8427
 30
0.0
  0
SPLINE
  5
50
330
1F
100
AcDbEntity
  8
Layer 1
370
     9
100
AcDbSpline
210
0.0
220
0.0
230
1.0
 70
    11
 71
     3
 72
   108
 73
   104
 74
     0
 42
0.0000000001
 43
0.0000000001
 12
1.0
 22
0.0
 32
0.0
 13
1.0
 23
0.0
 33
0.0
 40
0.0
 40
0.0
 40
0.0
 40
0.0
 40
0.037037037037037
 40
0.037037037037037
 40
0.037037037037037
 40
0.037037037037037
 40
0.0740740740740741
 40
0.0740740740740741
 40
0.0740740740740741
 40
0.0740740740740741
 40
0.1111111111111111
 40
0.1111111111111111
 40
0.1111111111111111
 40
0.1111111111111111
 40
0.1481481481481481
 40
0.1481481481481481
 40
0.1481481481481481
 40
0.1481481481481481
 40
0.1851851851851852
 40
0.1851851851851852
 40
0.1851851851851852
 40
0.1851851851851852
 40
0.2222222222222222
 40
0.2222222222222222
 40
0.2222222222222222
 40
0.2222222222222222
 40
0.2592592592592592
 40
0.2592592592592592
 40
0.2592592592592592
 40
0.2592592592592592
 40
0.2962962962962963
 40
0.2962962962962963
 40
0.2962962962962963
 40
0.2962962962962963
 40
0.3333333333333333
 40
0.3333333333333333
 40
0.3333333333333333
 40
0.3333333333333333
 40
0.3703703703703703
 40
0.3703703703703703
 40
0.3703703703703703
 40
0.3703703703703703
 40
0.4074074074074074
 40
0.4074074074074074
 40
0.4074074074074074
 40
0.4074074074074074
 40
0.4444444444444444
 40
0.4444444444444444
 40
0.4444444444444444
 40
0.4444444444444444
 40
0.4814814814814815
 40
0.4814814814814815
 40
0.4814814814814815
 40
0.4814814814814815
 40
0.5185185185185185
 40
0.5185185185185185
 40
0.5185185185185185
 40
0.5185185185185185
 40
0.5555555555555556
 40
0.5555555555555556
 40
0.5555555555555556
 40
0.5555555555555556
 40
0.5925925925925926
 40
0.5925925925925926
 40
0.5925925925925926
 40
0.5925925925925926
 40
0.6296296296296297
 40
0.6296296296296297
 40
0.6296296296296297
 40
0.6296296296296297
 40
0.6666666666666666
 40
0.6666666666666666
 40
0.6666666666666666
 40
0.6666666666666666
 40
0.7037037037037037
 40
0.7037037037037037
 40
0.7037037037037037
 40
0.7037037037037037
 40
0.7407407407407407
 40
0.7407407407407407
 40
0.7407407407407407
 40
0.7407407407407407
 40
0.7777777777777778
 40
0.7777777777777778
 40
0.7777777777777778
 40
0.7777777777777778
 40
0.8148148148148148
 40
0.8148148148148148
 40
0.8148148148148148
 40
0.8148148148148148
 40
0.8518518518518519
 40
0.8518518518518519
 40
0.8518518518518519
 40
0.8518518518518519
 40
0.8888888888888888
 40
0.8888888888888888
 40
0.8888888888888888
 40
0.8888888888888888
 40
0.9259259259259259
 40
0.9259259259259259
 40
0.9259259259259259
 40
0.9259259259259259
 40
1.0
 40
1.0
 40
1.0
 40
1.0
 10
1820.2834
 20
-172.0118
 30
0.0
 10
1820.2834
 20
-172.0118
 30
0.0
 10
1827.827
 20
-120.6584
 30
0.0
 10
1827.827
 20
-120.6584
 30
0.0
 10
1827.827
 20
-120.6584
 30
0.0
 10
1826.7596
 20
-120.7682
 30
0.0
 10
1825.6928
 20
-120.8995
 30
0.0
 10
1824.6289
 20
-121.0356
 30
0.0
 10
1824.6289
 20
-121.0356
 30
0.0
 10
1824.0383
 20
-121.1112
 30
0.0
 10
1823.5005
 20
-120.9465
 30
0.0
 10
1823.0536
 20
-120.5531
 30
0.0
 10
1823.0536
 20
-120.5531
 30
0.0
 10
1822.6067
 20
-120.1597
 30
0.0
 10
1822.375
 20
-119.6472
 30
0.0
 10
1822.375
 20
-119.0518
 30
0.0
 10
1822.375
 20
-119.0518
 30
0.0
 10
1822.375
 20
-119.0518
 30
0.0
 10
1822.375
 20
-118.628
 30
0.0
 10
1822.375
 20
-118.628
 30
0.0
 10
1822.375
 20
-118.628
 30
0.0
 10
1822.375
 20
-117.6578
 30
0.0
 10
1823.0493
 20
-116.8437
 30
0.0
 10
1824.0024
 20
-116.663
 30
0.0
 10
1824.0024
 20
-116.663
 30
0.0
 10
1826.4513
 20
-116.1987
 30
0.0
 10
1828.9448
 20
-115.9216
 30
0.0
 10
1831.439
 20
-115.9216
 30
0.0
 10
1831.439
 20
-115.9216
 30
0.0
 10
1834.5803
 20
-115.9216
 30
0.0
 10
1837.6914
 20
-116.3312
 30
0.0
 10
1840.7387
 20
-117.0871
 30
0.0
 10
1840.7387
 20
-117.0871
 30
0.0
 10
1841.8027
 20
-117.3511
 30
0.0
 10
1842.4578
 20
-118.4292
 30
0.0
 10
1842.2019
 20
-119.4952
 30
0.0
 10
1842.2019
 20
-119.4952
 30
0.0
 10
1842.2019
 20
-119.4952
 30
0.0
 10
1842.0606
 20
-120.0838
 30
0.0
 10
1842.0606
 20
-120.0838
 30
0.0
 10
1842.0606
 20
-120.0838
 30
0.0
 10
1841.9306
 20
-120.6255
 30
0.0
 10
1841.6231
 20
-121.0447
 30
0.0
 10
1841.1455
 20
-121.3315
 30
0.0
 10
1841.1455
 20
-121.3315
 30
0.0
 10
1840.6678
 20
-121.6183
 30
0.0
 10
1840.1533
 20
-121.6927
 30
0.0
 10
1839.614
 20
-121.5529
 30
0.0
 10
1839.614
 20
-121.5529
 30
0.0
 10
1838.4999
 20
-121.2641
 30
0.0
 10
1837.1727
 20
-120.939
 30
0.0
 10
1835.9037
 20
-120.7615
 30
0.0
 10
1835.9037
 20
-120.7615
 30
0.0
 10
1835.9037
 20
-120.7615
 30
0.0
 10
1828.4016
 20
-172.1479
 30
0.0
 10
1828.4016
 20
-172.1479
 30
0.0
 10
1828.4016
 20
-172.1479
 30
0.0
 10
1828.493
 20
-172.1635
 30
0.0
 10
1828.5838
 20
-172.1791
 30
0.0
 10
1828.6738
 20
-172.1945
 30
0.0
 10
1828.6738
 20
-172.1945
 30
0.0
 10
1829.9834
 20
-172.4195
 30
0.0
 10
1831.2899
 20
-172.6794
 30
0.0
 10
1832.5918
 20
-172.9447
 30
0.0
 10
1832.5918
 20
-172.9447
 30
0.0
 10
1833.6555
 20
-173.1614
 30
0.0
 10
1834.3532
 20
-174.1905
 30
0.0
 10
1834.1608
 20
-175.2588
 30
0.0
 10
1834.1608
 20
-175.2588
 30
0.0
 10
1834.1608
 20
-175.2588
 30
0.0
 10
1834.0548
 20
-175.8475
 30
0.0
 10
1834.0548
 20
-175.8475
 30
0.0
 10
1834.0548
 20
-175.8475
 30
0.0
 10
1833.8597
 20
-176.9315
 30
0.0
 10
1832.8165
 20
-177.6565
 30
0.0
 10
1831.7325
 20
-177.4615
 30
0.0
 10
1831.7325
 20
-177.4615
 30
0.0
 10
1829.3065
 20
-177.0253
 30
0.0
 10
1826.8416
 20
-176.7631
 30
0.0
 10
1824.375
 20
-176.7631
 30
0.0
 10
1824.375
 20
-176.7631
 30
0.0
 10
1821.8181
 20
-176.7631
 30
0.0
 10
1819.2211
 20
-177.0605
 30
0.0
 10
1816.6996
 20
-177.4675
 30
0.0
 10
1816.6996
 20
-177.4675
 30
0.0
 10
1816.1005
 20
-177.5643
 30
0.0
 10
1815.5463
 20
-177.4093
 30
0.0
 10
1815.0842
 20
-177.0158
 30
0.0
 10
1815.0842
 20
-177.0158
 30
0.0
 10
1814.6222
 20
-176.6224
 30
0.0
 10
1814.3809
 20
-176.1
 30
0.0
 10
1814.3809
 20
-175.4931
 30
0.0
 10
1814.3809
 20
-175.4931
 30
0.0
 10
1814.3809
 20
-175.4931
 30
0.0
 10
1814.3809
 20
-174.9044
 30
0.0
 10
1814.3809
 20
-174.9044
 30
0.0
 10
1814.3809
 20
-174.9044
 30
0.0
 10
1814.3809
 20
-174.0058
 30
0.0
 10
1814.9489
 20
-173.244
 30
0.0
 10
1815.8102
 20
-172.9876
 30
0.0
 10
1815.8102
 20
-172.9876
 30
0.0
 10
1817.2652
 20
-172.5543
 30
0.0
 10
1818.7679
 20
-172.203
 30
0.0
 10
1820.2834
 20
-172.0118
 30
0.0
  0
SPLINE
  5
51
330
1F
100
AcDbEntity
  8
Layer 1
370
     9
100
AcDbSpline
210
0.0
220
0.0
230
1.0
 70
    11
 71
     3
 72
    48
 73
    44
 74
     0
 42
0.0000000001
 43
0.0000000001
 12
1.0
 22
0.0
 32
0.0
 13
1.0
 23
0.0
 33
0.0
 40
0.0
 40
0.0
 40
0.0
 40
0.0
 40
0.0833333333333333
 40
0.0833333333333333
 40
0.0833333333333333
 40
0.0833333333333333
 40
0.1666666666666667
 40
0.1666666666666667
 40
0.1666666666666667
 40
0.1666666666666667
 40
0.25
 40
0.25
 40
0.25
 40
0.25
 40
0.3333333333333333
 40
0.3333333333333333
 40
0.3333333333333333
 40
0.3333333333333333
 40
0.4166666666666667
 40
0.4166666666666667
 40
0.4166666666666667
 40
0.4166666666666667
 40
0.5
 40
0.5
 40
0.5
 40
0.5
 40
0.5833333333333334
 40
0.5833333333333334
 40
0.5833333333333334
 40
0.5833333333333334
 40
0.6666666666666666
 40
0.6666666666666666
 40
0.6666666666666666
 40
0.6666666666666666
 40
0.75
 40
0.75
 40
0.75
 40
0.75
 40
0.8333333333333334
 40
0.8333333333333334
 40
0.8333333333333334
 40
0.8333333333333334
 40
1.0
 40
1.0
 40
1.0
 40
1.0
 10
1804.6559
 20
-117.4172
 30
0.0
 10
1804.8448
 20
-120.1629
 30
0.0
 10
1804.403
 20
-123.5096
 30
0.0
 10
1804.0
 20
-125.4678
 30
0.0
 10
1804.0
 20
-125.4678
 30
0.0
 10
1803.8499
 20
-126.1968
 30
0.0
 10
1804.0883
 20
-126.8981
 30
0.0
 10
1804.6516
 20
-127.3846
 30
0.0
 10
1804.6516
 20
-127.3846
 30
0.0
 10
1804.6516
 20
-127.3846
 30
0.0
 10
1805.1696
 20
-127.832
 30
0.0
 10
1805.1696
 20
-127.832
 30
0.0
 10
1805.1696
 20
-127.832
 30
0.0
 10
1805.7056
 20
-128.2949
 30
0.0
 10
1806.386
 20
-128.4381
 30
0.0
 10
1807.0631
 20
-128.2306
 30
0.0
 10
1807.0631
 20
-128.2306
 30
0.0
 10
1807.7402
 20
-128.023
 30
0.0
 10
1808.2235
 20
-127.523
 30
0.0
 10
1808.4079
 20
-126.8393
 30
0.0
 10
1808.4079
 20
-126.8393
 30
0.0
 10
1809.1298
 20
-124.1628
 30
0.0
 10
1809.4045
 20
-120.7782
 30
0.0
 10
1809.3631
 20
-118.0172
 30
0.0
 10
1809.3631
 20
-118.0172
 30
0.0
 10
1809.31
 20
-114.4691
 30
0.0
 10
1808.6849
 20
-109.3896
 30
0.0
 10
1805.3503
 20
-107.3482
 30
0.0
 10
1805.3503
 20
-107.3482
 30
0.0
 10
1804.4289
 20
-106.7842
 30
0.0
 10
1803.3985
 20
-106.5172
 30
0.0
 10
1802.3209
 20
-106.5172
 30
0.0
 10
1802.3209
 20
-106.5172
 30
0.0
 10
1799.1553
 20
-106.5172
 30
0.0
 10
1796.7657
 20
-109.4667
 30
0.0
 10
1797.2364
 20
-112.5396
 30
0.0
 10
1797.2364
 20
-112.5396
 30
0.0
 10
1797.5029
 20
-114.2801
 30
0.0
 10
1798.5445
 20
-115.7895
 30
0.0
 10
1800.0258
 20
-116.7248
 30
0.0
 10
1800.0258
 20
-116.7248
 30
0.0
 10
1801.3869
 20
-117.5843
 30
0.0
 10
1803.1061
 20
-117.9296
 30
0.0
 10
1804.6559
 20
-117.4172
 30
0.0
  0
SPLINE
  5
52
330
1F
100
AcDbEntity
  8
Layer 1
370
     9
100
AcDbSpline
210
0.0
220
0.0
230
1.0
 70
    11
 71
     3
 72
   168
 73
   164
 74
     0
 42
0.0000000001
 43
0.0000000001
 12
1.0
 22
0.0
 32
0.0
 13
1.0
 23
0.0
 33
0.0
 40
0.0
 40
0.0
 40
0.0
 40
0.0
 40
0.0238095238095238
 40
0.0238095238095238
 40
0.0238095238095238
 40
0.0238095238095238
 40
0.0476190476190476
 40
0.0476190476190476
 40
0.0476190476190476
 40
0.0476190476190476
 40
0.0714285714285714
 40
0.0714285714285714
 40
0.0714285714285714
 40
0.0714285714285714
 40
0.0952380952380952
 40
0.0952380952380952
 40
0.0952380952380952
 40
0.0952380952380952
 40
0.119047619047619
 40
0.119047619047619
 40
0.119047619047619
 40
0.119047619047619
 40
0.1428571428571428
 40
0.1428571428571428
 40
0.1428571428571428
 40
0.1428571428571428
 40
0.1666666666666667
 40
0.1666666666666667
 40
0.1666666666666667
 40
0.1666666666666667
 40
0.1904761904761905
 40
0.1904761904761905
 40
0.1904761904761905
 40
0.1904761904761905
 40
0.2142857142857143
 40
0.2142857142857143
 40
0.2142857142857143
 40
0.2142857142857143
 40
0.2380952380952381
 40
0.2380952380952381
 40
0.2380952380952381
 40
0.2380952380952381
 40
0.2619047619047619
 40
0.2619047619047619
 40
0.2619047619047619
 40
0.2619047619047619
 40
0.2857142857142857
 40
0.2857142857142857
 40
0.2857142857142857
 40
0.2857142857142857
 40
0.3095238095238095
 40
0.3095238095238095
 40
0.3095238095238095
 40
0.3095238095238095
 40
0.3333333333333333
 40
0.3333333333333333
 40
0.3333333333333333
 40
0.3333333333333333
 40
0.3571428571428572
 40
0.3571428571428572
 40
0.3571428571428572
 40
0.3571428571428572
 40
0.3809523809523809
 40
0.3809523809523809
 40
0.3809523809523809
 40
0.3809523809523809
 40
0.4047619047619048
 40
0.4047619047619048
 40
0.4047619047619048
 40
0.4047619047619048
 40
0.4285714285714285
 40
0.4285714285714285
 40
0.4285714285714285
 40
0.4285714285714285
 40
0.4523809523809524
 40
0.4523809523809524
 40
0.4523809523809524
 40
0.4523809523809524
 40
0.4761904761904762
 40
0.4761904761904762
 40
0.4761904761904762
 40
0.4761904761904762
 40
0.5
 40
0.5
 40
0.5
 40
0.5
 40
0.5238095238095238
 40
0.5238095238095238
 40
0.5238095238095238
 40
0.5238095238095238
 40
0.5476190476190477
 40
0.5476190476190477
 40
0.5476190476190477
 40
0.5476190476190477
 40
0.5714285714285714
 40
0.5714285714285714
 40
0.5714285714285714
 40
0.5714285714285714
 40
0.5952380952380952
 40
0.5952380952380952
 40
0.5952380952380952
 40
0.5952380952380952
 40
0.6190476190476191
 40
0.6190476190476191
 40
0.6190476190476191
 40
0.6190476190476191
 40
0.6428571428571429
 40
0.6428571428571429
 40
0.6428571428571429
 40
0.6428571428571429
 40
0.6666666666666666
 40
0.6666666666666666
 40
0.6666666666666666
 40
0.6666666666666666
 40
0.6904761904761905
 40
0.6904761904761905
 40
0.6904761904761905
 40
0.6904761904761905
 40
0.7142857142857143
 40
0.7142857142857143
 40
0.7142857142857143
 40
0.7142857142857143
 40
0.7380952380952381
 40
0.7380952380952381
 40
0.7380952380952381
 40
0.7380952380952381
 40
0.7619047619047619
 40
0.7619047619047619
 40
0.7619047619047619
 40
0.7619047619047619
 40
0.7857142857142857
 40
0.7857142857142857
 40
0.7857142857142857
 40
0.7857142857142857
 40
0.8095238095238095
 40
0.8095238095238095
 40
0.8095238095238095
 40
0.8095238095238095
 40
0.8333333333333334
 40
0.8333333333333334
 40
0.8333333333333334
 40
0.8333333333333334
 40
0.8571428571428571
 40
0.8571428571428571
 40
0.8571428571428571
 40
0.8571428571428571
 40
0.8809523809523809
 40
0.8809523809523809
 40
0.8809523809523809
 40
0.8809523809523809
 40
0.9047619047619048
 40
0.9047619047619048
 40
0.9047619047619048
 40
0.9047619047619048
 40
0.9285714285714286
 40
0.9285714285714286
 40
0.9285714285714286
 40
0.9285714285714286
 40
0.9523809523809523
 40
0.9523809523809523
 40
0.9523809523809523
 40
0.9523809523809523
 40
1.0
 40
1.0
 40
1.0
 40
1.0
 10
1785.6314
 20
-170.0184
 30
0.0
 10
1786.2696
 20
-169.6262
 30
0.0
 10
1786.9112
 20
-169.1053
 30
0.0
 10
1787.4556
 20
-168.6484
 30
0.0
 10
1787.4556
 20
-168.6484
 30
0.0
 10
1788.669
 20
-167.63
 30
0.0
 10
1789.8256
 20
-166.5153
 30
0.0
 10
1790.9429
 20
-165.3932
 30
0.0
 10
1790.9429
 20
-165.3932
 30
0.0
 10
1791.3355
 20
-164.9989
 30
0.0
 10
1791.8155
 20
-164.8011
 30
0.0
 10
1792.372
 20
-164.8044
 30
0.0
 10
1792.372
 20
-164.8044
 30
0.0
 10
1792.9284
 20
-164.8077
 30
0.0
 10
1793.4061
 20
-165.0112
 30
0.0
 10
1793.794
 20
-165.4101
 30
0.0
 10
1793.794
 20
-165.4101
 30
0.0
 10
1793.794
 20
-165.4101
 30
0.0
 10
1794.2061
 20
-165.8339
 30
0.0
 10
1794.2061
 20
-165.8339
 30
0.0
 10
1794.2061
 20
-165.8339
 30
0.0
 10
1794.5937
 20
-166.2325
 30
0.0
 10
1794.7837
 20
-166.7152
 30
0.0
 10
1794.7717
 20
-167.2711
 30
0.0
 10
1794.7717
 20
-167.2711
 30
0.0
 10
1794.7598
 20
-167.8269
 30
0.0
 10
1794.5493
 20
-168.301
 30
0.0
 10
1794.145
 20
-168.6826
 30
0.0
 10
1794.145
 20
-168.6826
 30
0.0
 10
1794.145
 20
-168.6826
 30
0.0
 10
1784.9147
 20
-177.3949
 30
0.0
 10
1784.9147
 20
-177.3949
 30
0.0
 10
1784.9147
 20
-177.3949
 30
0.0
 10
1784.5013
 20
-177.7852
 30
0.0
 10
1784.0013
 20
-177.9683
 30
0.0
 10
1783.4337
 20
-177.9376
 30
0.0
 10
1783.4337
 20
-177.9376
 30
0.0
 10
1779.659
 20
-177.733
 30
0.0
 10
1775.8821
 20
-177.5399
 30
0.0
 10
1772.1049
 20
-177.3885
 30
0.0
 10
1772.1049
 20
-177.3885
 30
0.0
 10
1769.905
 20
-177.3002
 30
0.0
 10
1767.6834
 20
-177.2105
 30
0.0
 10
1765.4816
 20
-177.2105
 30
0.0
 10
1765.4816
 20
-177.2105
 30
0.0
 10
1761.5326
 20
-177.2105
 30
0.0
 10
1757.5655
 20
-177.3698
 30
0.0
 10
1753.6375
 20
-177.788
 30
0.0
 10
1753.6375
 20
-177.788
 30
0.0
 10
1753.0528
 20
-177.8502
 30
0.0
 10
1752.5257
 20
-177.6795
 30
0.0
 10
1752.0885
 20
-177.2864
 30
0.0
 10
1752.0885
 20
-177.2864
 30
0.0
 10
1751.6513
 20
-176.8932
 30
0.0
 10
1751.4258
 20
-176.3872
 30
0.0
 10
1751.4258
 20
-175.7992
 30
0.0
 10
1751.4258
 20
-175.7992
 30
0.0
 10
1751.4258
 20
-175.7992
 30
0.0
 10
1751.4258
 20
-174.9044
 30
0.0
 10
1751.4258
 20
-174.9044
 30
0.0
 10
1751.4258
 20
-174.9044
 30
0.0
 10
1751.4258
 20
-174.388
 30
0.0
 10
1751.5971
 20
-173.9439
 30
0.0
 10
1751.9439
 20
-173.5613
 30
0.0
 10
1751.9439
 20
-173.5613
 30
0.0
 10
1754.3974
 20
-170.8543
 30
0.0
 10
1756.8942
 20
-167.6645
 30
0.0
 10
1758.3773
 20
-164.3019
 30
0.0
 10
1758.3773
 20
-164.3019
 30
0.0
 10
1759.3788
 20
-162.0312
 30
0.0
 10
1760.4802
 20
-159.2792
 30
0.0
 10
1760.8554
 20
-156.814
 30
0.0
 10
1760.8554
 20
-156.814
 30
0.0
 10
1761.0958
 20
-155.2344
 30
0.0
 10
1761.2974
 20
-153.6411
 30
0.0
 10
1761.5103
 20
-152.0573
 30
0.0
 10
1761.5103
 20
-152.0573
 30
0.0
 10
1761.9311
 20
-148.9271
 30
0.0
 10
1762.3529
 20
-145.7972
 30
0.0
 10
1762.782
 20
-142.6681
 30
0.0
 10
1762.782
 20
-142.6681
 30
0.0
 10
1763.5549
 20
-137.0328
 30
0.0
 10
1765.011
 20
-129.2494
 30
0.0
 10
1768.1917
 20
-124.4261
 30
0.0
 10
1768.1917
 20
-124.4261
 30
0.0
 10
1769.6484
 20
-122.217
 30
0.0
 10
1772.0392
 20
-120.2746
 30
0.0
 10
1774.1817
 20
-118.7606
 30
0.0
 10
1774.1817
 20
-118.7606
 30
0.0
 10
1777.2469
 20
-116.5947
 30
0.0
 10
1780.7231
 20
-115.5684
 30
0.0
 10
1784.472
 20
-115.5684
 30
0.0
 10
1784.472
 20
-115.5684
 30
0.0
 10
1786.4365
 20
-115.5684
 30
0.0
 10
1788.5234
 20
-115.8036
 30
0.0
 10
1790.2974
 20
-116.7027
 30
0.0
 10
1790.2974
 20
-116.7027
 30
0.0
 10
1792.2073
 20
-117.6708
 30
0.0
 10
1793.2181
 20
-119.3953
 30
0.0
 10
1793.2181
 20
-121.5242
 30
0.0
 10
1793.2181
 20
-121.5242
 30
0.0
 10
1793.2181
 20
-121.5242
 30
0.0
 10
1793.2181
 20
-121.9363
 30
0.0
 10
1793.2181
 20
-121.9363
 30
0.0
 10
1793.2181
 20
-121.9363
 30
0.0
 10
1793.2181
 20
-124.9672
 30
0.0
 10
1791.3526
 20
-127.4212
 30
0.0
 10
1788.1924
 20
-127.4212
 30
0.0
 10
1788.1924
 20
-127.4212
 30
0.0
 10
1788.1924
 20
-127.4212
 30
0.0
 10
1788.0511
 20
-127.4212
 30
0.0
 10
1788.0511
 20
-127.4212
 30
0.0
 10
1788.0511
 20
-127.4212
 30
0.0
 10
1786.6039
 20
-127.4212
 30
0.0
 10
1785.3629
 20
-126.7824
 30
0.0
 10
1784.3292
 20
-125.7984
 30
0.0
 10
1784.3292
 20
-125.7984
 30
0.0
 10
1783.2607
 20
-124.7812
 30
0.0
 10
1782.5515
 20
-123.5307
 30
0.0
 10
1782.4747
 20
-122.0393
 30
0.0
 10
1782.4747
 20
-122.0393
 30
0.0
 10
1782.4455
 20
-121.4728
 30
0.0
 10
1782.5756
 20
-120.929
 30
0.0
 10
1782.7867
 20
-120.4131
 30
0.0
 10
1782.7867
 20
-120.4131
 30
0.0
 10
1781.7868
 20
-120.5194
 30
0.0
 10
1780.8108
 20
-120.7557
 30
0.0
 10
1779.8699
 20
-121.1531
 30
0.0
 10
1779.8699
 20
-121.1531
 30
0.0
 10
1777.9159
 20
-121.9786
 30
0.0
 10
1776.5415
 20
-123.6102
 30
0.0
 10
1775.5537
 20
-125.4409
 30
0.0
 10
1775.5537
 20
-125.4409
 30
0.0
 10
1774.2211
 20
-127.9105
 30
0.0
 10
1773.3166
 20
-130.5607
 30
0.0
 10
1772.7084
 20
-133.296
 30
0.0
 10
1772.7084
 20
-133.296
 30
0.0
 10
1771.9126
 20
-136.8755
 30
0.0
 10
1771.3466
 20
-140.5242
 30
0.0
 10
1770.8796
 20
-144.1601
 30
0.0
 10
1770.8796
 20
-144.1601
 30
0.0
 10
1770.8796
 20
-144.1601
 30
0.0
 10
1770.0555
 20
-150.5765
 30
0.0
 10
1770.0555
 20
-150.5765
 30
0.0
 10
1770.0555
 20
-150.5765
 30
0.0
 10
1769.5457
 20
-154.5458
 30
0.0
 10
1768.621
 20
-158.5946
 30
0.0
 10
1766.9613
 20
-162.2507
 30
0.0
 10
1766.9613
 20
-162.2507
 30
0.0
 10
1765.8315
 20
-164.7396
 30
0.0
 10
1764.3111
 20
-167.1722
 30
0.0
 10
1762.6739
 20
-169.4666
 30
0.0
 10
1762.6739
 20
-169.4666
 30
0.0
 10
1762.6739
 20
-169.4666
 30
0.0
 10
1763.9393
 20
-169.4666
 30
0.0
 10
1763.9393
 20
-169.4666
 30
0.0
 10
1763.9393
 20
-169.4666
 30
0.0
 10
1768.3638
 20
-169.4666
 30
0.0
 10
1772.7889
 20
-169.5531
 30
0.0
 10
1777.2095
 20
-169.7392
 30
0.0
 10
1777.2095
 20
-169.7392
 30
0.0
 10
1779.9972
 20
-169.8565
 30
0.0
 10
1782.8361
 20
-170.0017
 30
0.0
 10
1785.6314
 20
-170.0184
 30
0.0
  0
SPLINE
  5
53
330
1F
100
AcDbEntity
  8
Layer 1
370
     9
100
AcDbSpline
210
0.0
220
0.0
230
1.0
 70
    11
 71
     3
 72
    40
 73
    36
 74
     0
 42
0.0000000001
 43
0.0000000001
 12
1.0
 22
0.0
 32
0.0
 13
1.0
 23
0.0
 33
0.0
 40
0.0
 40
0.0
 40
0.0
 40
0.0
 40
0.1
 40
0.1
 40
0.1
 40
0.1
 40
0.2
 40
0.2
 40
0.2
 40
0.2
 40
0.3
 40
0.3
 40
0.3
 40
0.3
 40
0.4
 40
0.4
 40
0.4
 40
0.4
 40
0.5
 40
0.5
 40
0.5
 40
0.5
 40
0.6
 40
0.6
 40
0.6
 40
0.6
 40
0.7
 40
0.7
 40
0.7
 40
0.7
 40
0.8
 40
0.8
 40
0.8
 40
0.8
 40
1.0
 40
1.0
 40
1.0
 40
1.0
 10
1718.6633
 20
-149.452
 30
0.0
 10
1718.6633
 20
-149.452
 30
0.0
 10
1737.1365
 20
-149.452
 30
0.0
 10
1737.1365
 20
-149.452
 30
0.0
 10
1737.1365
 20
-149.452
 30
0.0
 10
1737.1365
 20
-149.452
 30
0.0
 10
1739.8046
 20
-132.3072
 30
0.0
 10
1739.8046
 20
-132.3072
 30
0.0
 10
1739.8046
 20
-132.3072
 30
0.0
 10
1740.0799
 20
-130.5383
 30
0.0
 10
1740.4637
 20
-128.5374
 30
0.0
 10
1740.4637
 20
-126.7515
 30
0.0
 10
1740.4637
 20
-126.7515
 30
0.0
 10
1740.4637
 20
-124.9532
 30
0.0
 10
1740.0486
 20
-123.2465
 30
0.0
 10
1738.8175
 20
-121.8924
 30
0.0
 10
1738.8175
 20
-121.8924
 30
0.0
 10
1737.6201
 20
-120.5752
 30
0.0
 10
1736.1287
 20
-120.0628
 30
0.0
 10
1734.3637
 20
-120.0628
 30
0.0
 10
1734.3637
 20
-120.0628
 30
0.0
 10
1731.3423
 20
-120.0628
 30
0.0
 10
1728.7058
 20
-121.545
 30
0.0
 10
1726.4906
 20
-123.496
 30
0.0
 10
1726.4906
 20
-123.496
 30
0.0
 10
1723.9745
 20
-125.712
 30
0.0
 10
1722.3789
 20
-128.4199
 30
0.0
 10
1721.8714
 20
-131.7504
 30
0.0
 10
1721.8714
 20
-131.7504
 30
0.0
 10
1721.8684
 20
-131.7699
 30
0.0
 10
1721.8656
 20
-131.7865
 30
0.0
 10
1721.8621
 20
-131.8058
 30
0.0
 10
1721.8621
 20
-131.8058
 30
0.0
 10
1721.8621
 20
-131.8058
 30
0.0
 10
1718.6633
 20
-149.452
 30
0.0
 10
1718.6633
 20
-149.452
 30
0.0
  0
SPLINE
  5
54
330
1F
100
AcDbEntity
  8
Layer 1
370
     9
100
AcDbSpline
210
0.0
220
0.0
230
1.0
 70
    11
 71
     3
 72
   180
 73
   176
 74
     0
 42
0.0000000001
 43
0.0000000001
 12
1.0
 22
0.0
 32
0.0
 13
1.0
 23
0.0
 33
0.0
 40
0.0
 40
0.0
 40
0.0
 40
0.0
 40
0.0222222222222222
 40
0.0222222222222222
 40
0.0222222222222222
 40
0.0222222222222222
 40
0.0444444444444444
 40
0.0444444444444444
 40
0.0444444444444444
 40
0.0444444444444444
 40
0.0666666666666667
 40
0.0666666666666667
 40
0.0666666666666667
 40
0.0666666666666667
 40
0.0888888888888889
 40
0.0888888888888889
 40
0.0888888888888889
 40
0.0888888888888889
 40
0.1111111111111111
 40
0.1111111111111111
 40
0.1111111111111111
 40
0.1111111111111111
 40
0.1333333333333333
 40
0.1333333333333333
 40
0.1333333333333333
 40
0.1333333333333333
 40
0.1555555555555556
 40
0.1555555555555556
 40
0.1555555555555556
 40
0.1555555555555556
 40
0.1777777777777778
 40
0.1777777777777778
 40
0.1777777777777778
 40
0.1777777777777778
 40
0.2
 40
0.2
 40
0.2
 40
0.2
 40
0.2222222222222222
 40
0.2222222222222222
 40
0.2222222222222222
 40
0.2222222222222222
 40
0.2444444444444444
 40
0.2444444444444444
 40
0.2444444444444444
 40
0.2444444444444444
 40
0.2666666666666667
 40
0.2666666666666667
 40
0.2666666666666667
 40
0.2666666666666667
 40
0.2888888888888889
 40
0.2888888888888889
 40
0.2888888888888889
 40
0.2888888888888889
 40
0.3111111111111111
 40
0.3111111111111111
 40
0.3111111111111111
 40
0.3111111111111111
 40
0.3333333333333333
 40
0.3333333333333333
 40
0.3333333333333333
 40
0.3333333333333333
 40
0.3555555555555556
 40
0.3555555555555556
 40
0.3555555555555556
 40
0.3555555555555556
 40
0.3777777777777778
 40
0.3777777777777778
 40
0.3777777777777778
 40
0.3777777777777778
 40
0.4
 40
0.4
 40
0.4
 40
0.4
 40
0.4222222222222222
 40
0.4222222222222222
 40
0.4222222222222222
 40
0.4222222222222222
 40
0.4444444444444444
 40
0.4444444444444444
 40
0.4444444444444444
 40
0.4444444444444444
 40
0.4666666666666667
 40
0.4666666666666667
 40
0.4666666666666667
 40
0.4666666666666667
 40
0.4888888888888889
 40
0.4888888888888889
 40
0.4888888888888889
 40
0.4888888888888889
 40
0.5111111111111111
 40
0.5111111111111111
 40
0.5111111111111111
 40
0.5111111111111111
 40
0.5333333333333333
 40
0.5333333333333333
 40
0.5333333333333333
 40
0.5333333333333333
 40
0.5555555555555556
 40
0.5555555555555556
 40
0.5555555555555556
 40
0.5555555555555556
 40
0.5777777777777777
 40
0.5777777777777777
 40
0.5777777777777777
 40
0.5777777777777777
 40
0.6
 40
0.6
 40
0.6
 40
0.6
 40
0.6222222222222222
 40
0.6222222222222222
 40
0.6222222222222222
 40
0.6222222222222222
 40
0.6444444444444445
 40
0.6444444444444445
 40
0.6444444444444445
 40
0.6444444444444445
 40
0.6666666666666666
 40
0.6666666666666666
 40
0.6666666666666666
 40
0.6666666666666666
 40
0.6888888888888889
 40
0.6888888888888889
 40
0.6888888888888889
 40
0.6888888888888889
 40
0.7111111111111111
 40
0.7111111111111111
 40
0.7111111111111111
 40
0.7111111111111111
 40
0.7333333333333333
 40
0.7333333333333333
 40
0.7333333333333333
 40
0.7333333333333333
 40
0.7555555555555555
 40
0.7555555555555555
 40
0.7555555555555555
 40
0.7555555555555555
 40
0.7777777777777778
 40
0.7777777777777778
 40
0.7777777777777778
 40
0.7777777777777778
 40
0.8
 40
0.8
 40
0.8
 40
0.8
 40
0.8222222222222222
 40
0.8222222222222222
 40
0.8222222222222222
 40
0.8222222222222222
 40
0.8444444444444444
 40
0.8444444444444444
 40
0.8444444444444444
 40
0.8444444444444444
 40
0.8666666666666667
 40
0.8666666666666667
 40
0.8666666666666667
 40
0.8666666666666667
 40
0.8888888888888888
 40
0.8888888888888888
 40
0.8888888888888888
 40
0.8888888888888888
 40
0.9111111111111111
 40
0.9111111111111111
 40
0.9111111111111111
 40
0.9111111111111111
 40
0.9333333333333333
 40
0.9333333333333333
 40
0.9333333333333333
 40
0.9333333333333333
 40
0.9555555555555556
 40
0.9555555555555556
 40
0.9555555555555556
 40
0.9555555555555556
 40
1.0
 40
1.0
 40
1.0
 40
1.0
 10
1736.2759
 20
-154.1819
 30
0.0
 10
1736.2759
 20
-154.1819
 30
0.0
 10
1717.7923
 20
-154.1819
 30
0.0
 10
1717.7923
 20
-154.1819
 30
0.0
 10
1717.7923
 20
-154.1819
 30
0.0
 10
1717.7923
 20
-154.1819
 30
0.0
 10
1715.4775
 20
-166.2853
 30
0.0
 10
1715.4775
 20
-166.2853
 30
0.0
 10
1715.4775
 20
-166.2853
 30
0.0
 10
1714.8558
 20
-169.536
 30
0.0
 10
1713.2784
 20
-172.6696
 30
0.0
 10
1710.8799
 20
-174.9712
 30
0.0
 10
1710.8799
 20
-174.9712
 30
0.0
 10
1708.7588
 20
-177.0066
 30
0.0
 10
1705.9045
 20
-178.4284
 30
0.0
 10
1702.9023
 20
-178.1148
 30
0.0
 10
1702.9023
 20
-178.1148
 30
0.0
 10
1698.8334
 20
-177.6897
 30
0.0
 10
1696.3455
 20
-174.3745
 30
0.0
 10
1695.0834
 20
-170.7602
 30
0.0
 10
1695.0834
 20
-170.7602
 30
0.0
 10
1694.7471
 20
-169.7972
 30
0.0
 10
1695.1802
 20
-168.7476
 30
0.0
 10
1696.0978
 20
-168.3019
 30
0.0
 10
1696.0978
 20
-168.3019
 30
0.0
 10
1696.0978
 20
-168.3019
 30
0.0
 10
1696.9219
 20
-167.9016
 30
0.0
 10
1696.9219
 20
-167.9016
 30
0.0
 10
1696.9219
 20
-167.9016
 30
0.0
 10
1697.4612
 20
-167.6396
 30
0.0
 10
1698.0283
 20
-167.6256
 30
0.0
 10
1698.5799
 20
-167.8607
 30
0.0
 10
1698.5799
 20
-167.8607
 30
0.0
 10
1699.1315
 20
-168.0959
 30
0.0
 10
1699.5141
 20
-168.5146
 30
0.0
 10
1699.6986
 20
-169.0851
 30
0.0
 10
1699.6986
 20
-169.0851
 30
0.0
 10
1700.0954
 20
-170.3118
 30
0.0
 10
1701.0521
 20
-172.6518
 30
0.0
 10
1702.6222
 20
-172.7528
 30
0.0
 10
1702.6222
 20
-172.7528
 30
0.0
 10
1703.7719
 20
-172.8268
 30
0.0
 10
1704.9962
 20
-171.8131
 30
0.0
 10
1705.7099
 20
-171.0157
 30
0.0
 10
1705.7099
 20
-171.0157
 30
0.0
 10
1706.9255
 20
-169.6575
 30
0.0
 10
1707.7806
 20
-167.8286
 30
0.0
 10
1708.0933
 20
-166.0367
 30
0.0
 10
1708.0933
 20
-166.0367
 30
0.0
 10
1708.0933
 20
-166.0367
 30
0.0
 10
1710.1332
 20
-154.3467
 30
0.0
 10
1710.1332
 20
-154.3467
 30
0.0
 10
1710.1332
 20
-154.3467
 30
0.0
 10
1710.1332
 20
-154.3467
 30
0.0
 10
1705.107
 20
-154.3467
 30
0.0
 10
1705.107
 20
-154.3467
 30
0.0
 10
1705.107
 20
-154.3467
 30
0.0
 10
1704.5443
 20
-154.3467
 30
0.0
 10
1704.06
 20
-154.1412
 30
0.0
 10
1703.6689
 20
-153.7366
 30
0.0
 10
1703.6689
 20
-153.7366
 30
0.0
 10
1703.2778
 20
-153.332
 30
0.0
 10
1703.089
 20
-152.841
 30
0.0
 10
1703.1082
 20
-152.2786
 30
0.0
 10
1703.1082
 20
-152.2786
 30
0.0
 10
1703.1082
 20
-152.2786
 30
0.0
 10
1703.1435
 20
-151.2426
 30
0.0
 10
1703.1435
 20
-151.2426
 30
0.0
 10
1703.1435
 20
-151.2426
 30
0.0
 10
1703.1802
 20
-150.1655
 30
0.0
 10
1704.0646
 20
-149.3107
 30
0.0
 10
1705.1423
 20
-149.3107
 30
0.0
 10
1705.1423
 20
-149.3107
 30
0.0
 10
1705.1423
 20
-149.3107
 30
0.0
 10
1711.0219
 20
-149.3107
 30
0.0
 10
1711.0219
 20
-149.3107
 30
0.0
 10
1711.0219
 20
-149.3107
 30
0.0
 10
1711.0219
 20
-149.3107
 30
0.0
 10
1714.03
 20
-132.8785
 30
0.0
 10
1714.03
 20
-132.8785
 30
0.0
 10
1714.03
 20
-132.8785
 30
0.0
 10
1714.6409
 20
-129.5414
 30
0.0
 10
1716.0957
 20
-126.5902
 30
0.0
 10
1718.3053
 20
-124.0133
 30
0.0
 10
1718.3053
 20
-124.0133
 30
0.0
 10
1720.521
 20
-121.4294
 30
0.0
 10
1723.1635
 20
-119.3247
 30
0.0
 10
1726.2502
 20
-117.8769
 30
0.0
 10
1726.2502
 20
-117.8769
 30
0.0
 10
1729.237
 20
-116.4759
 30
0.0
 10
1732.4059
 20
-115.7214
 30
0.0
 10
1735.7058
 20
-115.7214
 30
0.0
 10
1735.7058
 20
-115.7214
 30
0.0
 10
1738.7609
 20
-115.7214
 30
0.0
 10
1741.7443
 20
-116.3786
 30
0.0
 10
1744.3073
 20
-118.097
 30
0.0
 10
1744.3073
 20
-118.097
 30
0.0
 10
1747.0275
 20
-119.9207
 30
0.0
 10
1748.2194
 20
-122.7374
 30
0.0
 10
1748.2194
 20
-125.9627
 30
0.0
 10
1748.2194
 20
-125.9627
 30
0.0
 10
1748.2194
 20
-125.9627
 30
0.0
 10
1748.2194
 20
-127.1754
 30
0.0
 10
1748.2194
 20
-127.1754
 30
0.0
 10
1748.2194
 20
-127.1754
 30
0.0
 10
1748.2194
 20
-127.2719
 30
0.0
 10
1748.2137
 20
-127.3542
 30
0.0
 10
1748.2005
 20
-127.4499
 30
0.0
 10
1748.2005
 20
-127.4499
 30
0.0
 10
1748.2005
 20
-127.4499
 30
0.0
 10
1745.172
 20
-149.3107
 30
0.0
 10
1745.172
 20
-149.3107
 30
0.0
 10
1745.172
 20
-149.3107
 30
0.0
 10
1745.172
 20
-149.3107
 30
0.0
 10
1748.2562
 20
-149.3107
 30
0.0
 10
1748.2562
 20
-149.3107
 30
0.0
 10
1748.2562
 20
-149.3107
 30
0.0
 10
1749.3578
 20
-149.3107
 30
0.0
 10
1750.2562
 20
-150.2091
 30
0.0
 10
1750.2562
 20
-151.3107
 30
0.0
 10
1750.2562
 20
-151.3107
 30
0.0
 10
1750.2562
 20
-151.3107
 30
0.0
 10
1750.2562
 20
-152.1819
 30
0.0
 10
1750.2562
 20
-152.1819
 30
0.0
 10
1750.2562
 20
-152.1819
 30
0.0
 10
1750.2562
 20
-153.2835
 30
0.0
 10
1749.3578
 20
-154.1819
 30
0.0
 10
1748.2562
 20
-154.1819
 30
0.0
 10
1748.2562
 20
-154.1819
 30
0.0
 10
1748.2562
 20
-154.1819
 30
0.0
 10
1744.4721
 20
-154.1819
 30
0.0
 10
1744.4721
 20
-154.1819
 30
0.0
 10
1744.4721
 20
-154.1819
 30
0.0
 10
1744.4721
 20
-154.1819
 30
0.0
 10
1742.1498
 20
-169.8753
 30
0.0
 10
1742.1498
 20
-169.8753
 30
0.0
 10
1742.1498
 20
-169.8753
 30
0.0
 10
1741.9369
 20
-171.3134
 30
0.0
 10
1745.5507
 20
-173.3282
 30
0.0
 10
1745.5615
 20
-168.0012
 30
0.0
 10
1745.5615
 20
-168.0012
 30
0.0
 10
1745.5629
 20
-167.3209
 30
0.0
 10
1745.8725
 20
-166.7364
 30
0.0
 10
1746.4345
 20
-166.3531
 30
0.0
 10
1746.4345
 20
-166.3531
 30
0.0
 10
1746.9966
 20
-165.9697
 30
0.0
 10
1747.6537
 20
-165.8948
 30
0.0
 10
1748.2876
 20
-166.1418
 30
0.0
 10
1748.2876
 20
-166.1418
 30
0.0
 10
1748.2876
 20
-166.1418
 30
0.0
 10
1748.9823
 20
-166.4125
 30
0.0
 10
1748.9823
 20
-166.4125
 30
0.0
 10
1748.9823
 20
-166.4125
 30
0.0
 10
1749.6002
 20
-166.6532
 30
0.0
 10
1750.0258
 20
-167.1322
 30
0.0
 10
1750.1922
 20
-167.7741
 30
0.0
 10
1750.1922
 20
-167.7741
 30
0.0
 10
1750.743
 20
-169.8989
 30
0.0
 10
1750.652
 20
-172.1941
 30
0.0
 10
1749.5306
 20
-174.1254
 30
0.0
 10
1749.5306
 20
-174.1254
 30
0.0
 10
1747.7258
 20
-177.2336
 30
0.0
 10
1744.1622
 20
-178.0583
 30
0.0
 10
1740.8079
 20
-177.7682
 30
0.0
 10
1740.8079
 20
-177.7682
 30
0.0
 10
1738.4491
 20
-177.5641
 30
0.0
 10
1736.2298
 20
-176.6981
 30
0.0
 10
1735.0401
 20
-174.5267
 30
0.0
 10
1735.0401
 20
-174.5267
 30
0.0
 10
1733.7566
 20
-172.184
 30
0.0
 10
1734.2158
 20
-169.3094
 30
0.0
 10
1734.56
 20
-166.7817
 30
0.0
 10
1734.56
 20
-166.7817
 30
0.0
 10
1734.56
 20
-166.7817
 30
0.0
 10
1736.2759
 20
-154.1819
 30
0.0
 10
1736.2759
 20
-154.1819
 30
0.0
  0
SPLINE
  5
55
330
1F
100
AcDbEntity
  8
Layer 1
370
     9
100
AcDbSpline
210
0.0
220
0.0
230
1.0
 70
    11
 71
     3
 72
   184
 73
   180
 74
     0
 42
0.0000000001
 43
0.0000000001
 12
1.0
 22
0.0
 32
0.0
 13
1.0
 23
0.0
 33
0.0
 40
0.0
 40
0.0
 40
0.0
 40
0.0
 40
0.0217391304347826
 40
0.0217391304347826
 40
0.0217391304347826
 40
0.0217391304347826
 40
0.0434782608695652
 40
0.0434782608695652
 40
0.0434782608695652
 40
0.0434782608695652
 40
0.0652173913043478
 40
0.0652173913043478
 40
0.0652173913043478
 40
0.0652173913043478
 40
0.0869565217391304
 40
0.0869565217391304
 40
0.0869565217391304
 40
0.0869565217391304
 40
0.108695652173913
 40
0.108695652173913
 40
0.108695652173913
 40
0.108695652173913
 40
0.1304347826086956
 40
0.1304347826086956
 40
0.1304347826086956
 40
0.1304347826086956
 40
0.1521739130434783
 40
0.1521739130434783
 40
0.1521739130434783
 40
0.1521739130434783
 40
0.1739130434782609
 40
0.1739130434782609
 40
0.1739130434782609
 40
0.1739130434782609
 40
0.1956521739130435
 40
0.1956521739130435
 40
0.1956521739130435
 40
0.1956521739130435
 40
0.2173913043478261
 40
0.2173913043478261
 40
0.2173913043478261
 40
0.2173913043478261
 40
0.2391304347826087
 40
0.2391304347826087
 40
0.2391304347826087
 40
0.2391304347826087
 40
0.2608695652173913
 40
0.2608695652173913
 40
0.2608695652173913
 40
0.2608695652173913
 40
0.2826086956521739
 40
0.2826086956521739
 40
0.2826086956521739
 40
0.2826086956521739
 40
0.3043478260869565
 40
0.3043478260869565
 40
0.3043478260869565
 40
0.3043478260869565
 40
0.3260869565217391
 40
0.3260869565217391
 40
0.3260869565217391
 40
0.3260869565217391
 40
0.3478260869565217
 40
0.3478260869565217
 40
0.3478260869565217
 40
0.3478260869565217
 40
0.3695652173913043
 40
0.3695652173913043
 40
0.3695652173913043
 40
0.3695652173913043
 40
0.391304347826087
 40
0.391304347826087
 40
0.391304347826087
 40
0.391304347826087
 40
0.4130434782608696
 40
0.4130434782608696
 40
0.4130434782608696
 40
0.4130434782608696
 40
0.4347826086956522
 40
0.4347826086956522
 40
0.4347826086956522
 40
0.4347826086956522
 40
0.4565217391304348
 40
0.4565217391304348
 40
0.4565217391304348
 40
0.4565217391304348
 40
0.4782608695652174
 40
0.4782608695652174
 40
0.4782608695652174
 40
0.4782608695652174
 40
0.5
 40
0.5
 40
0.5
 40
0.5
 40
0.5217391304347826
 40
0.5217391304347826
 40
0.5217391304347826
 40
0.5217391304347826
 40
0.5434782608695652
 40
0.5434782608695652
 40
0.5434782608695652
 40
0.5434782608695652
 40
0.5652173913043478
 40
0.5652173913043478
 40
0.5652173913043478
 40
0.5652173913043478
 40
0.5869565217391305
 40
0.5869565217391305
 40
0.5869565217391305
 40
0.5869565217391305
 40
0.6086956521739131
 40
0.6086956521739131
 40
0.6086956521739131
 40
0.6086956521739131
 40
0.6304347826086957
 40
0.6304347826086957
 40
0.6304347826086957
 40
0.6304347826086957
 40
0.6521739130434783
 40
0.6521739130434783
 40
0.6521739130434783
 40
0.6521739130434783
 40
0.6739130434782609
 40
0.6739130434782609
 40
0.6739130434782609
 40
0.6739130434782609
 40
0.6956521739130435
 40
0.6956521739130435
 40
0.6956521739130435
 40
0.6956521739130435
 40
0.717391304347826
 40
0.717391304347826
 40
0.717391304347826
 40
0.717391304347826
 40
0.7391304347826086
 40
0.7391304347826086
 40
0.7391304347826086
 40
0.7391304347826086
 40
0.7608695652173914
 40
0.7608695652173914
 40
0.7608695652173914
 40
0.7608695652173914
 40
0.782608695652174
 40
0.782608695652174
 40
0.782608695652174
 40
0.782608695652174
 40
0.8043478260869565
 40
0.8043478260869565
 40
0.8043478260869565
 40
0.8043478260869565
 40
0.8260869565217391
 40
0.8260869565217391
 40
0.8260869565217391
 40
0.8260869565217391
 40
0.8478260869565217
 40
0.8478260869565217
 40
0.8478260869565217
 40
0.8478260869565217
 40
0.8695652173913043
 40
0.8695652173913043
 40
0.8695652173913043
 40
0.8695652173913043
 40
0.8913043478260869
 40
0.8913043478260869
 40
0.8913043478260869
 40
0.8913043478260869
 40
0.9130434782608695
 40
0.9130434782608695
 40
0.9130434782608695
 40
0.9130434782608695
 40
0.9347826086956522
 40
0.9347826086956522
 40
0.9347826086956522
 40
0.9347826086956522
 40
0.9565217391304348
 40
0.9565217391304348
 40
0.9565217391304348
 40
0.9565217391304348
 40
1.0
 40
1.0
 40
1.0
 40
1.0
 10
1683.8244
 20
-125.7983
 30
0.0
 10
1682.755
 20
-124.8032
 30
0.0
 10
1682.0861
 20
-123.5543
 30
0.0
 10
1681.9735
 20
-122.0896
 30
0.0
 10
1681.9735
 20
-122.0896
 30
0.0
 10
1681.9694
 20
-122.036
 30
0.0
 10
1681.9676
 20
-121.9901
 30
0.0
 10
1681.9676
 20
-121.9363
 30
0.0
 10
1681.9676
 20
-121.9363
 30
0.0
 10
1681.9676
 20
-121.4078
 30
0.0
 10
1682.0893
 20
-120.8942
 30
0.0
 10
1682.2838
 20
-120.4065
 30
0.0
 10
1682.2838
 20
-120.4065
 30
0.0
 10
1679.0011
 20
-120.7274
 30
0.0
 10
1676.7389
 20
-122.322
 30
0.0
 10
1675.0477
 20
-125.4438
 30
0.0
 10
1675.0477
 20
-125.4438
 30
0.0
 10
1673.7141
 20
-127.9056
 30
0.0
 10
1672.7885
 20
-130.5396
 30
0.0
 10
1672.2082
 20
-133.2767
 30
0.0
 10
1672.2082
 20
-133.2767
 30
0.0
 10
1672.2055
 20
-133.2897
 30
0.0
 10
1672.203
 20
-133.3007
 30
0.0
 10
1672.2
 20
-133.3137
 30
0.0
 10
1672.2
 20
-133.3137
 30
0.0
 10
1671.3743
 20
-136.8743
 30
0.0
 10
1670.803
 20
-140.5091
 30
0.0
 10
1670.3779
 20
-144.138
 30
0.0
 10
1670.3779
 20
-144.138
 30
0.0
 10
1670.377
 20
-144.1457
 30
0.0
 10
1670.3762
 20
-144.1523
 30
0.0
 10
1670.3752
 20
-144.1601
 30
0.0
 10
1670.3752
 20
-144.1601
 30
0.0
 10
1670.3752
 20
-144.1601
 30
0.0
 10
1669.5511
 20
-150.5765
 30
0.0
 10
1669.5511
 20
-150.5765
 30
0.0
 10
1669.5511
 20
-150.5765
 30
0.0
 10
1669.0413
 20
-154.5461
 30
0.0
 10
1668.1169
 20
-158.5944
 30
0.0
 10
1666.4569
 20
-162.2508
 30
0.0
 10
1666.4569
 20
-162.2508
 30
0.0
 10
1665.3268
 20
-164.7398
 30
0.0
 10
1663.8066
 20
-167.1722
 30
0.0
 10
1662.1695
 20
-169.4666
 30
0.0
 10
1662.1695
 20
-169.4666
 30
0.0
 10
1662.1695
 20
-169.4666
 30
0.0
 10
1663.4349
 20
-169.4666
 30
0.0
 10
1663.4349
 20
-169.4666
 30
0.0
 10
1663.4349
 20
-169.4666
 30
0.0
 10
1667.8595
 20
-169.4666
 30
0.0
 10
1672.2846
 20
-169.5527
 30
0.0
 10
1676.7053
 20
-169.7392
 30
0.0
 10
1676.7053
 20
-169.7392
 30
0.0
 10
1679.493
 20
-169.8568
 30
0.0
 10
1682.3317
 20
-170.0017
 30
0.0
 10
1685.127
 20
-170.0184
 30
0.0
 10
1685.127
 20
-170.0184
 30
0.0
 10
1685.7652
 20
-169.6262
 30
0.0
 10
1686.4068
 20
-169.1053
 30
0.0
 10
1686.9512
 20
-168.6484
 30
0.0
 10
1686.9512
 20
-168.6484
 30
0.0
 10
1688.1646
 20
-167.63
 30
0.0
 10
1689.3212
 20
-166.5153
 30
0.0
 10
1690.4385
 20
-165.3932
 30
0.0
 10
1690.4385
 20
-165.3932
 30
0.0
 10
1690.8311
 20
-164.9989
 30
0.0
 10
1691.3111
 20
-164.8011
 30
0.0
 10
1691.8676
 20
-164.8044
 30
0.0
 10
1691.8676
 20
-164.8044
 30
0.0
 10
1692.424
 20
-164.8077
 30
0.0
 10
1692.9017
 20
-165.0112
 30
0.0
 10
1693.2896
 20
-165.4101
 30
0.0
 10
1693.2896
 20
-165.4101
 30
0.0
 10
1693.2896
 20
-165.4101
 30
0.0
 10
1693.7017
 20
-165.8339
 30
0.0
 10
1693.7017
 20
-165.8339
 30
0.0
 10
1693.7017
 20
-165.8339
 30
0.0
 10
1694.0893
 20
-166.2325
 30
0.0
 10
1694.2793
 20
-166.7152
 30
0.0
 10
1694.2673
 20
-167.2711
 30
0.0
 10
1694.2673
 20
-167.2711
 30
0.0
 10
1694.2554
 20
-167.8269
 30
0.0
 10
1694.0449
 20
-168.301
 30
0.0
 10
1693.6406
 20
-168.6826
 30
0.0
 10
1693.6406
 20
-168.6826
 30
0.0
 10
1693.6406
 20
-168.6826
 30
0.0
 10
1684.4103
 20
-177.3949
 30
0.0
 10
1684.4103
 20
-177.3949
 30
0.0
 10
1684.4103
 20
-177.3949
 30
0.0
 10
1683.9969
 20
-177.7852
 30
0.0
 10
1683.4969
 20
-177.9683
 30
0.0
 10
1682.9293
 20
-177.9376
 30
0.0
 10
1682.9293
 20
-177.9376
 30
0.0
 10
1679.1546
 20
-177.733
 30
0.0
 10
1675.3777
 20
-177.5399
 30
0.0
 10
1671.6005
 20
-177.3885
 30
0.0
 10
1671.6005
 20
-177.3885
 30
0.0
 10
1669.4006
 20
-177.3002
 30
0.0
 10
1667.179
 20
-177.2105
 30
0.0
 10
1664.9772
 20
-177.2105
 30
0.0
 10
1664.9772
 20
-177.2105
 30
0.0
 10
1661.0282
 20
-177.2105
 30
0.0
 10
1657.0611
 20
-177.3698
 30
0.0
 10
1653.1331
 20
-177.788
 30
0.0
 10
1653.1331
 20
-177.788
 30
0.0
 10
1652.5484
 20
-177.8502
 30
0.0
 10
1652.0213
 20
-177.6795
 30
0.0
 10
1651.5841
 20
-177.2864
 30
0.0
 10
1651.5841
 20
-177.2864
 30
0.0
 10
1651.1469
 20
-176.8932
 30
0.0
 10
1650.9214
 20
-176.3872
 30
0.0
 10
1650.9214
 20
-175.7992
 30
0.0
 10
1650.9214
 20
-175.7992
 30
0.0
 10
1650.9214
 20
-175.7992
 30
0.0
 10
1650.9214
 20
-174.9044
 30
0.0
 10
1650.9214
 20
-174.9044
 30
0.0
 10
1650.9214
 20
-174.9044
 30
0.0
 10
1650.9214
 20
-174.388
 30
0.0
 10
1651.0927
 20
-173.9439
 30
0.0
 10
1651.4395
 20
-173.5613
 30
0.0
 10
1651.4395
 20
-173.5613
 30
0.0
 10
1653.8933
 20
-170.854
 30
0.0
 10
1656.3895
 20
-167.6647
 30
0.0
 10
1657.8729
 20
-164.3018
 30
0.0
 10
1657.8729
 20
-164.3018
 30
0.0
 10
1658.8625
 20
-162.0585
 30
0.0
 10
1659.9982
 20
-159.2694
 30
0.0
 10
1660.3485
 20
-156.8305
 30
0.0
 10
1660.3485
 20
-156.8305
 30
0.0
 10
1660.3504
 20
-156.8173
 30
0.0
 10
1660.3521
 20
-156.8061
 30
0.0
 10
1660.3543
 20
-156.7929
 30
0.0
 10
1660.3543
 20
-156.7929
 30
0.0
 10
1660.6095
 20
-155.2282
 30
0.0
 10
1660.8024
 20
-153.6323
 30
0.0
 10
1661.0122
 20
-152.0603
 30
0.0
 10
1661.0122
 20
-152.0603
 30
0.0
 10
1661.43
 20
-148.9289
 30
0.0
 10
1661.8483
 20
-145.7978
 30
0.0
 10
1662.2777
 20
-142.668
 30
0.0
 10
1662.2777
 20
-142.668
 30
0.0
 10
1663.0497
 20
-137.0409
 30
0.0
 10
1664.5021
 20
-129.2321
 30
0.0
 10
1667.6898
 20
-124.4222
 30
0.0
 10
1667.6898
 20
-124.4222
 30
0.0
 10
1669.3975
 20
-121.8454
 30
0.0
 10
1671.6945
 20
-119.4856
 30
0.0
 10
1674.275
 20
-117.7787
 30
0.0
 10
1674.275
 20
-117.7787
 30
0.0
 10
1679.1037
 20
-114.5847
 30
0.0
 10
1684.6235
 20
-113.8661
 30
0.0
 10
1689.8506
 20
-116.7332
 30
0.0
 10
1689.8506
 20
-116.7332
 30
0.0
 10
1691.6999
 20
-117.7475
 30
0.0
 10
1692.7137
 20
-119.4102
 30
0.0
 10
1692.7137
 20
-121.5242
 30
0.0
 10
1692.7137
 20
-121.5242
 30
0.0
 10
1692.7137
 20
-121.5242
 30
0.0
 10
1692.7137
 20
-121.9363
 30
0.0
 10
1692.7137
 20
-121.9363
 30
0.0
 10
1692.7137
 20
-121.9363
 30
0.0
 10
1692.7137
 20
-122.0005
 30
0.0
 10
1692.7112
 20
-122.0553
 30
0.0
 10
1692.7053
 20
-122.1193
 30
0.0
 10
1692.7053
 20
-122.1193
 30
0.0
 10
1692.4401
 20
-125.0062
 30
0.0
 10
1690.8657
 20
-127.1796
 30
0.0
 10
1687.8434
 20
-127.4152
 30
0.0
 10
1687.8434
 20
-127.4152
 30
0.0
 10
1687.789
 20
-127.4194
 30
0.0
 10
1687.7425
 20
-127.4212
 30
0.0
 10
1687.688
 20
-127.4212
 30
0.0
 10
1687.688
 20
-127.4212
 30
0.0
 10
1687.688
 20
-127.4212
 30
0.0
 10
1687.5467
 20
-127.4212
 30
0.0
 10
1687.5467
 20
-127.4212
 30
0.0
 10
1687.5467
 20
-127.4212
 30
0.0
 10
1686.1009
 20
-127.4212
 30
0.0
 10
1684.8473
 20
-126.7954
 30
0.0
 10
1683.8244
 20
-125.7983
 30
0.0
  0
SPLINE
  5
56
330
1F
100
AcDbEntity
  8
Layer 1
370
     9
100
AcDbSpline
210
0.0
220
0.0
230
1.0
 70
    11
 71
     3
 72
   108
 73
   104
 74
     0
 42
0.0000000001
 43
0.0000000001
 12
1.0
 22
0.0
 32
0.0
 13
1.0
 23
0.0
 33
0.0
 40
0.0
 40
0.0
 40
0.0
 40
0.0
 40
0.037037037037037
 40
0.037037037037037
 40
0.037037037037037
 40
0.037037037037037
 40
0.0740740740740741
 40
0.0740740740740741
 40
0.0740740740740741
 40
0.0740740740740741
 40
0.1111111111111111
 40
0.1111111111111111
 40
0.1111111111111111
 40
0.1111111111111111
 40
0.1481481481481481
 40
0.1481481481481481
 40
0.1481481481481481
 40
0.1481481481481481
 40
0.1851851851851852
 40
0.1851851851851852
 40
0.1851851851851852
 40
0.1851851851851852
 40
0.2222222222222222
 40
0.2222222222222222
 40
0.2222222222222222
 40
0.2222222222222222
 40
0.2592592592592592
 40
0.2592592592592592
 40
0.2592592592592592
 40
0.2592592592592592
 40
0.2962962962962963
 40
0.2962962962962963
 40
0.2962962962962963
 40
0.2962962962962963
 40
0.3333333333333333
 40
0.3333333333333333
 40
0.3333333333333333
 40
0.3333333333333333
 40
0.3703703703703703
 40
0.3703703703703703
 40
0.3703703703703703
 40
0.3703703703703703
 40
0.4074074074074074
 40
0.4074074074074074
 40
0.4074074074074074
 40
0.4074074074074074
 40
0.4444444444444444
 40
0.4444444444444444
 40
0.4444444444444444
 40
0.4444444444444444
 40
0.4814814814814815
 40
0.4814814814814815
 40
0.4814814814814815
 40
0.4814814814814815
 40
0.5185185185185185
 40
0.5185185185185185
 40
0.5185185185185185
 40
0.5185185185185185
 40
0.5555555555555556
 40
0.5555555555555556
 40
0.5555555555555556
 40
0.5555555555555556
 40
0.5925925925925926
 40
0.5925925925925926
 40
0.5925925925925926
 40
0.5925925925925926
 40
0.6296296296296297
 40
0.6296296296296297
 40
0.6296296296296297
 40
0.6296296296296297
 40
0.6666666666666666
 40
0.6666666666666666
 40
0.6666666666666666
 40
0.6666666666666666
 40
0.7037037037037037
 40
0.7037037037037037
 40
0.7037037037037037
 40
0.7037037037037037
 40
0.7407407407407407
 40
0.7407407407407407
 40
0.7407407407407407
 40
0.7407407407407407
 40
0.7777777777777778
 40
0.7777777777777778
 40
0.7777777777777778
 40
0.7777777777777778
 40
0.8148148148148148
 40
0.8148148148148148
 40
0.8148148148148148
 40
0.8148148148148148
 40
0.8518518518518519
 40
0.8518518518518519
 40
0.8518518518518519
 40
0.8518518518518519
 40
0.8888888888888888
 40
0.8888888888888888
 40
0.8888888888888888
 40
0.8888888888888888
 40
0.9259259259259259
 40
0.9259259259259259
 40
0.9259259259259259
 40
0.9259259259259259
 40
1.0
 40
1.0
 40
1.0
 40
1.0
 10
1634.9108
 20
-172.0118
 30
0.0
 10
1634.9108
 20
-172.0118
 30
0.0
 10
1642.4544
 20
-120.6584
 30
0.0
 10
1642.4544
 20
-120.6584
 30
0.0
 10
1642.4544
 20
-120.6584
 30
0.0
 10
1641.387
 20
-120.7682
 30
0.0
 10
1640.3202
 20
-120.8995
 30
0.0
 10
1639.2563
 20
-121.0356
 30
0.0
 10
1639.2563
 20
-121.0356
 30
0.0
 10
1638.6657
 20
-121.1112
 30
0.0
 10
1638.1279
 20
-120.9465
 30
0.0
 10
1637.681
 20
-120.5531
 30
0.0
 10
1637.681
 20
-120.5531
 30
0.0
 10
1637.2341
 20
-120.1597
 30
0.0
 10
1637.0024
 20
-119.6472
 30
0.0
 10
1637.0024
 20
-119.0518
 30
0.0
 10
1637.0024
 20
-119.0518
 30
0.0
 10
1637.0024
 20
-119.0518
 30
0.0
 10
1637.0024
 20
-118.628
 30
0.0
 10
1637.0024
 20
-118.628
 30
0.0
 10
1637.0024
 20
-118.628
 30
0.0
 10
1637.0024
 20
-117.6578
 30
0.0
 10
1637.6767
 20
-116.8437
 30
0.0
 10
1638.6298
 20
-116.663
 30
0.0
 10
1638.6298
 20
-116.663
 30
0.0
 10
1641.0787
 20
-116.1987
 30
0.0
 10
1643.5722
 20
-115.9216
 30
0.0
 10
1646.0664
 20
-115.9216
 30
0.0
 10
1646.0664
 20
-115.9216
 30
0.0
 10
1649.2077
 20
-115.9216
 30
0.0
 10
1652.3188
 20
-116.3312
 30
0.0
 10
1655.3661
 20
-117.0871
 30
0.0
 10
1655.3661
 20
-117.0871
 30
0.0
 10
1656.4301
 20
-117.3511
 30
0.0
 10
1657.0852
 20
-118.4292
 30
0.0
 10
1656.8293
 20
-119.4952
 30
0.0
 10
1656.8293
 20
-119.4952
 30
0.0
 10
1656.8293
 20
-119.4952
 30
0.0
 10
1656.688
 20
-120.0838
 30
0.0
 10
1656.688
 20
-120.0838
 30
0.0
 10
1656.688
 20
-120.0838
 30
0.0
 10
1656.558
 20
-120.6255
 30
0.0
 10
1656.2505
 20
-121.0447
 30
0.0
 10
1655.7729
 20
-121.3315
 30
0.0
 10
1655.7729
 20
-121.3315
 30
0.0
 10
1655.2952
 20
-121.6183
 30
0.0
 10
1654.7807
 20
-121.6927
 30
0.0
 10
1654.2414
 20
-121.5529
 30
0.0
 10
1654.2414
 20
-121.5529
 30
0.0
 10
1653.1273
 20
-121.2641
 30
0.0
 10
1651.8001
 20
-120.939
 30
0.0
 10
1650.5311
 20
-120.7615
 30
0.0
 10
1650.5311
 20
-120.7615
 30
0.0
 10
1650.5311
 20
-120.7615
 30
0.0
 10
1643.029
 20
-172.1479
 30
0.0
 10
1643.029
 20
-172.1479
 30
0.0
 10
1643.029
 20
-172.1479
 30
0.0
 10
1643.1204
 20
-172.1635
 30
0.0
 10
1643.2112
 20
-172.1791
 30
0.0
 10
1643.3012
 20
-172.1945
 30
0.0
 10
1643.3012
 20
-172.1945
 30
0.0
 10
1644.6108
 20
-172.4195
 30
0.0
 10
1645.9173
 20
-172.6794
 30
0.0
 10
1647.2192
 20
-172.9447
 30
0.0
 10
1647.2192
 20
-172.9447
 30
0.0
 10
1648.2829
 20
-173.1614
 30
0.0
 10
1648.9806
 20
-174.1905
 30
0.0
 10
1648.7882
 20
-175.2588
 30
0.0
 10
1648.7882
 20
-175.2588
 30
0.0
 10
1648.7882
 20
-175.2588
 30
0.0
 10
1648.6822
 20
-175.8475
 30
0.0
 10
1648.6822
 20
-175.8475
 30
0.0
 10
1648.6822
 20
-175.8475
 30
0.0
 10
1648.4871
 20
-176.9315
 30
0.0
 10
1647.4439
 20
-177.6565
 30
0.0
 10
1646.3599
 20
-177.4615
 30
0.0
 10
1646.3599
 20
-177.4615
 30
0.0
 10
1643.9339
 20
-177.0253
 30
0.0
 10
1641.469
 20
-176.7631
 30
0.0
 10
1639.0024
 20
-176.7631
 30
0.0
 10
1639.0024
 20
-176.7631
 30
0.0
 10
1636.4455
 20
-176.7631
 30
0.0
 10
1633.8485
 20
-177.0605
 30
0.0
 10
1631.327
 20
-177.4675
 30
0.0
 10
1631.327
 20
-177.4675
 30
0.0
 10
1630.7279
 20
-177.5643
 30
0.0
 10
1630.1737
 20
-177.4093
 30
0.0
 10
1629.7116
 20
-177.0158
 30
0.0
 10
1629.7116
 20
-177.0158
 30
0.0
 10
1629.2496
 20
-176.6224
 30
0.0
 10
1629.0083
 20
-176.1
 30
0.0
 10
1629.0083
 20
-175.4931
 30
0.0
 10
1629.0083
 20
-175.4931
 30
0.0
 10
1629.0083
 20
-175.4931
 30
0.0
 10
1629.0083
 20
-174.9044
 30
0.0
 10
1629.0083
 20
-174.9044
 30
0.0
 10
1629.0083
 20
-174.9044
 30
0.0
 10
1629.0083
 20
-174.0058
 30
0.0
 10
1629.5763
 20
-173.244
 30
0.0
 10
1630.4376
 20
-172.9876
 30
0.0
 10
1630.4376
 20
-172.9876
 30
0.0
 10
1631.8926
 20
-172.5543
 30
0.0
 10
1633.3953
 20
-172.203
 30
0.0
 10
1634.9108
 20
-172.0118
 30
0.0
  0
SPLINE
  5
57
330
1F
100
AcDbEntity
  8
Layer 1
370
     9
100
AcDbSpline
210
0.0
220
0.0
230
1.0
 70
    11
 71
     3
 72
   212
 73
   208
 74
     0
 42
0.0000000001
 43
0.0000000001
 12
1.0
 22
0.0
 32
0.0
 13
1.0
 23
0.0
 33
0.0
 40
0.0
 40
0.0
 40
0.0
 40
0.0
 40
0.0188679245283019
 40
0.0188679245283019
 40
0.0188679245283019
 40
0.0188679245283019
 40
0.0377358490566038
 40
0.0377358490566038
 40
0.0377358490566038
 40
0.0377358490566038
 40
0.0566037735849057
 40
0.0566037735849057
 40
0.0566037735849057
 40
0.0566037735849057
 40
0.0754716981132075
 40
0.0754716981132075
 40
0.0754716981132075
 40
0.0754716981132075
 40
0.0943396226415094
 40
0.0943396226415094
 40
0.0943396226415094
 40
0.0943396226415094
 40
0.1132075471698113
 40
0.1132075471698113
 40
0.1132075471698113
 40
0.1132075471698113
 40
0.1320754716981132
 40
0.1320754716981132
 40
0.1320754716981132
 40
0.1320754716981132
 40
0.1509433962264151
 40
0.1509433962264151
 40
0.1509433962264151
 40
0.1509433962264151
 40
0.169811320754717
 40
0.169811320754717
 40
0.169811320754717
 40
0.169811320754717
 40
0.1886792452830189
 40
0.1886792452830189
 40
0.1886792452830189
 40
0.1886792452830189
 40
0.2075471698113208
 40
0.2075471698113208
 40
0.2075471698113208
 40
0.2075471698113208
 40
0.2264150943396226
 40
0.2264150943396226
 40
0.2264150943396226
 40
0.2264150943396226
 40
0.2452830188679245
 40
0.2452830188679245
 40
0.2452830188679245
 40
0.2452830188679245
 40
0.2641509433962264
 40
0.2641509433962264
 40
0.2641509433962264
 40
0.2641509433962264
 40
0.2830188679245283
 40
0.2830188679245283
 40
0.2830188679245283
 40
0.2830188679245283
 40
0.3018867924528302
 40
0.3018867924528302
 40
0.3018867924528302
 40
0.3018867924528302
 40
0.3207547169811321
 40
0.3207547169811321
 40
0.3207547169811321
 40
0.3207547169811321
 40
0.3396226415094339
 40
0.3396226415094339
 40
0.3396226415094339
 40
0.3396226415094339
 40
0.3584905660377358
 40
0.3584905660377358
 40
0.3584905660377358
 40
0.3584905660377358
 40
0.3773584905660378
 40
0.3773584905660378
 40
0.3773584905660378
 40
0.3773584905660378
 40
0.3962264150943396
 40
0.3962264150943396
 40
0.3962264150943396
 40
0.3962264150943396
 40
0.4150943396226415
 40
0.4150943396226415
 40
0.4150943396226415
 40
0.4150943396226415
 40
0.4339622641509434
 40
0.4339622641509434
 40
0.4339622641509434
 40
0.4339622641509434
 40
0.4528301886792453
 40
0.4528301886792453
 40
0.4528301886792453
 40
0.4528301886792453
 40
0.4716981132075472
 40
0.4716981132075472
 40
0.4716981132075472
 40
0.4716981132075472
 40
0.4905660377358491
 40
0.4905660377358491
 40
0.4905660377358491
 40
0.4905660377358491
 40
0.5094339622641509
 40
0.5094339622641509
 40
0.5094339622641509
 40
0.5094339622641509
 40
0.5283018867924528
 40
0.5283018867924528
 40
0.5283018867924528
 40
0.5283018867924528
 40
0.5471698113207547
 40
0.5471698113207547
 40
0.5471698113207547
 40
0.5471698113207547
 40
0.5660377358490566
 40
0.5660377358490566
 40
0.5660377358490566
 40
0.5660377358490566
 40
0.5849056603773585
 40
0.5849056603773585
 40
0.5849056603773585
 40
0.5849056603773585
 40
0.6037735849056604
 40
0.6037735849056604
 40
0.6037735849056604
 40
0.6037735849056604
 40
0.6226415094339622
 40
0.6226415094339622
 40
0.6226415094339622
 40
0.6226415094339622
 40
0.6415094339622641
 40
0.6415094339622641
 40
0.6415094339622641
 40
0.6415094339622641
 40
0.660377358490566
 40
0.660377358490566
 40
0.660377358490566
 40
0.660377358490566
 40
0.6792452830188679
 40
0.6792452830188679
 40
0.6792452830188679
 40
0.6792452830188679
 40
0.6981132075471698
 40
0.6981132075471698
 40
0.6981132075471698
 40
0.6981132075471698
 40
0.7169811320754716
 40
0.7169811320754716
 40
0.7169811320754716
 40
0.7169811320754716
 40
0.7358490566037735
 40
0.7358490566037735
 40
0.7358490566037735
 40
0.7358490566037735
 40
0.7547169811320755
 40
0.7547169811320755
 40
0.7547169811320755
 40
0.7547169811320755
 40
0.7735849056603774
 40
0.7735849056603774
 40
0.7735849056603774
 40
0.7735849056603774
 40
0.7924528301886793
 40
0.7924528301886793
 40
0.7924528301886793
 40
0.7924528301886793
 40
0.8113207547169812
 40
0.8113207547169812
 40
0.8113207547169812
 40
0.8113207547169812
 40
0.8301886792452831
 40
0.8301886792452831
 40
0.8301886792452831
 40
0.8301886792452831
 40
0.8490566037735849
 40
0.8490566037735849
 40
0.8490566037735849
 40
0.8490566037735849
 40
0.8679245283018868
 40
0.8679245283018868
 40
0.8679245283018868
 40
0.8679245283018868
 40
0.8867924528301887
 40
0.8867924528301887
 40
0.8867924528301887
 40
0.8867924528301887
 40
0.9056603773584906
 40
0.9056603773584906
 40
0.9056603773584906
 40
0.9056603773584906
 40
0.9245283018867925
 40
0.9245283018867925
 40
0.9245283018867925
 40
0.9245283018867925
 40
0.9433962264150944
 40
0.9433962264150944
 40
0.9433962264150944
 40
0.9433962264150944
 40
0.9622641509433962
 40
0.9622641509433962
 40
0.9622641509433962
 40
0.9622641509433962
 40
1.0
 40
1.0
 40
1.0
 40
1.0
 10
1619.1641
 20
-148.748
 30
0.0
 10
1619.1641
 20
-148.748
 30
0.0
 10
1615.1356
 20
-174.0417
 30
0.0
 10
1615.1356
 20
-174.0417
 30
0.0
 10
1615.1356
 20
-174.0417
 30
0.0
 10
1614.8581
 20
-175.7838
 30
0.0
 10
1614.7892
 20
-179.1277
 30
0.0
 10
1617.0427
 20
-179.5986
 30
0.0
 10
1617.0427
 20
-179.5986
 30
0.0
 10
1619.519
 20
-180.116
 30
0.0
 10
1621.18
 20
-174.6708
 30
0.0
 10
1621.6921
 20
-173.0087
 30
0.0
 10
1621.6921
 20
-173.0087
 30
0.0
 10
1621.8692
 20
-172.4338
 30
0.0
 10
1622.2479
 20
-172.0087
 30
0.0
 10
1622.7987
 20
-171.7666
 30
0.0
 10
1622.7987
 20
-171.7666
 30
0.0
 10
1623.3494
 20
-171.5246
 30
0.0
 10
1623.9187
 20
-171.533
 30
0.0
 10
1624.462
 20
-171.7913
 30
0.0
 10
1624.462
 20
-171.7913
 30
0.0
 10
1624.462
 20
-171.7913
 30
0.0
 10
1625.1802
 20
-172.1327
 30
0.0
 10
1625.1802
 20
-172.1327
 30
0.0
 10
1625.1802
 20
-172.1327
 30
0.0
 10
1626.137
 20
-172.5875
 30
0.0
 10
1626.5727
 20
-173.705
 30
0.0
 10
1626.1763
 20
-174.6874
 30
0.0
 10
1626.1763
 20
-174.6874
 30
0.0
 10
1625.5803
 20
-176.1643
 30
0.0
 10
1625.084
 20
-177.6684
 30
0.0
 10
1624.4425
 20
-179.1311
 30
0.0
 10
1624.4425
 20
-179.1311
 30
0.0
 10
1622.8108
 20
-182.8517
 30
0.0
 10
1620.3505
 20
-186.0405
 30
0.0
 10
1615.9155
 20
-186.0405
 30
0.0
 10
1615.9155
 20
-186.0405
 30
0.0
 10
1613.2978
 20
-186.0405
 30
0.0
 10
1610.9124
 20
-185.1999
 30
0.0
 10
1609.2319
 20
-183.1376
 30
0.0
 10
1609.2319
 20
-183.1376
 30
0.0
 10
1607.0649
 20
-180.4783
 30
0.0
 10
1606.5099
 20
-177.101
 30
0.0
 10
1607.0026
 20
-173.7754
 30
0.0
 10
1607.0026
 20
-173.7754
 30
0.0
 10
1607.0026
 20
-173.7754
 30
0.0
 10
1610.701
 20
-148.8133
 30
0.0
 10
1610.701
 20
-148.8133
 30
0.0
 10
1610.701
 20
-148.8133
 30
0.0
 10
1610.701
 20
-148.8133
 30
0.0
 10
1590.1302
 20
-148.8133
 30
0.0
 10
1590.1302
 20
-148.8133
 30
0.0
 10
1590.1302
 20
-148.8133
 30
0.0
 10
1590.1302
 20
-148.8133
 30
0.0
 10
1586.0221
 20
-175.6544
 30
0.0
 10
1586.0221
 20
-175.6544
 30
0.0
 10
1586.0221
 20
-175.6544
 30
0.0
 10
1585.8715
 20
-176.638
 30
0.0
 10
1585.0402
 20
-177.3518
 30
0.0
 10
1584.0451
 20
-177.3518
 30
0.0
 10
1584.0451
 20
-177.3518
 30
0.0
 10
1584.0451
 20
-177.3518
 30
0.0
 10
1579.9244
 20
-177.3518
 30
0.0
 10
1579.9244
 20
-177.3518
 30
0.0
 10
1579.9244
 20
-177.3518
 30
0.0
 10
1579.3181
 20
-177.3518
 30
0.0
 10
1578.7963
 20
-177.111
 30
0.0
 10
1578.4028
 20
-176.6498
 30
0.0
 10
1578.4028
 20
-176.6498
 30
0.0
 10
1578.0093
 20
-176.1885
 30
0.0
 10
1577.8538
 20
-175.6352
 30
0.0
 10
1577.9494
 20
-175.0365
 30
0.0
 10
1577.9494
 20
-175.0365
 30
0.0
 10
1577.9494
 20
-175.0365
 30
0.0
 10
1582.1361
 20
-148.8133
 30
0.0
 10
1582.1361
 20
-148.8133
 30
0.0
 10
1582.1361
 20
-148.8133
 30
0.0
 10
1582.1361
 20
-148.8133
 30
0.0
 10
1580.3365
 20
-148.8133
 30
0.0
 10
1580.3365
 20
-148.8133
 30
0.0
 10
1580.3365
 20
-148.8133
 30
0.0
 10
1579.2349
 20
-148.8133
 30
0.0
 10
1578.3365
 20
-147.9149
 30
0.0
 10
1578.3365
 20
-146.8133
 30
0.0
 10
1578.3365
 20
-146.8133
 30
0.0
 10
1578.3365
 20
-146.8133
 30
0.0
 10
1578.3365
 20
-145.9656
 30
0.0
 10
1578.3365
 20
-145.9656
 30
0.0
 10
1578.3365
 20
-145.9656
 30
0.0
 10
1578.3365
 20
-144.864
 30
0.0
 10
1579.2349
 20
-143.9656
 30
0.0
 10
1580.3365
 20
-143.9656
 30
0.0
 10
1580.3365
 20
-143.9656
 30
0.0
 10
1580.3365
 20
-143.9656
 30
0.0
 10
1582.8082
 20
-143.9656
 30
0.0
 10
1582.8082
 20
-143.9656
 30
0.0
 10
1582.8082
 20
-143.9656
 30
0.0
 10
1582.8082
 20
-143.9656
 30
0.0
 10
1585.9242
 20
-125.9169
 30
0.0
 10
1585.9242
 20
-125.9169
 30
0.0
 10
1585.9242
 20
-125.9169
 30
0.0
 10
1586.1183
 20
-124.7921
 30
0.0
 10
1586.1658
 20
-123.6641
 30
0.0
 10
1586.1658
 20
-122.5249
 30
0.0
 10
1586.1658
 20
-122.5249
 30
0.0
 10
1586.1658
 20
-122.2378
 30
0.0
 10
1586.1296
 20
-121.4783
 30
0.0
 10
1585.986
 20
-121.0646
 30
0.0
 10
1585.986
 20
-121.0646
 30
0.0
 10
1585.5206
 20
-121.3777
 30
0.0
 10
1584.8488
 20
-122.3337
 30
0.0
 10
1584.6332
 20
-122.6674
 30
0.0
 10
1584.6332
 20
-122.6674
 30
0.0
 10
1584.0727
 20
-123.535
 30
0.0
 10
1583.6104
 20
-124.4588
 30
0.0
 10
1583.1605
 20
-125.387
 30
0.0
 10
1583.1605
 20
-125.387
 30
0.0
 10
1582.9615
 20
-125.7975
 30
0.0
 10
1582.7352
 20
-126.191
 30
0.0
 10
1582.5266
 20
-126.596
 30
0.0
 10
1582.5266
 20
-126.596
 30
0.0
 10
1582.0556
 20
-127.5105
 30
0.0
 10
1580.9807
 20
-127.9172
 30
0.0
 10
1580.0222
 20
-127.5436
 30
0.0
 10
1580.0222
 20
-127.5436
 30
0.0
 10
1580.0222
 20
-127.5436
 30
0.0
 10
1579.3275
 20
-127.2728
 30
0.0
 10
1579.3275
 20
-127.2728
 30
0.0
 10
1579.3275
 20
-127.2728
 30
0.0
 10
1578.7764
 20
-127.058
 30
0.0
 10
1578.385
 20
-126.6602
 30
0.0
 10
1578.179
 20
-126.1057
 30
0.0
 10
1578.179
 20
-126.1057
 30
0.0
 10
1577.9731
 20
-125.5512
 30
0.0
 10
1578.01
 20
-124.9944
 30
0.0
 10
1578.2873
 20
-124.4719
 30
0.0
 10
1578.2873
 20
-124.4719
 30
0.0
 10
1578.8437
 20
-123.4233
 30
0.0
 10
1579.3353
 20
-122.3397
 30
0.0
 10
1579.8877
 20
-121.2877
 30
0.0
 10
1579.8877
 20
-121.2877
 30
0.0
 10
1581.6147
 20
-117.9988
 30
0.0
 10
1583.9033
 20
-115.1445
 30
0.0
 10
1587.9538
 20
-115.1445
 30
0.0
 10
1587.9538
 20
-115.1445
 30
0.0
 10
1592.2587
 20
-115.1445
 30
0.0
 10
1594.3335
 20
-118.0009
 30
0.0
 10
1594.3335
 20
-122.1129
 30
0.0
 10
1594.3335
 20
-122.1129
 30
0.0
 10
1594.3335
 20
-123.4173
 30
0.0
 10
1594.2322
 20
-124.7202
 30
0.0
 10
1594.0258
 20
-126.0083
 30
0.0
 10
1594.0258
 20
-126.0083
 30
0.0
 10
1594.0258
 20
-126.0083
 30
0.0
 10
1591.1711
 20
-143.8243
 30
0.0
 10
1591.1711
 20
-143.8243
 30
0.0
 10
1591.1711
 20
-143.8243
 30
0.0
 10
1591.1711
 20
-143.8243
 30
0.0
 10
1611.692
 20
-143.8243
 30
0.0
 10
1611.692
 20
-143.8243
 30
0.0
 10
1611.692
 20
-143.8243
 30
0.0
 10
1611.692
 20
-143.8243
 30
0.0
 10
1615.9659
 20
-117.2508
 30
0.0
 10
1615.9659
 20
-117.2508
 30
0.0
 10
1615.9659
 20
-117.2508
 30
0.0
 10
1616.123
 20
-116.2736
 30
0.0
 10
1616.9508
 20
-115.5684
 30
0.0
 10
1617.9405
 20
-115.5684
 30
0.0
 10
1617.9405
 20
-115.5684
 30
0.0
 10
1617.9405
 20
-115.5684
 30
0.0
 10
1622.12
 20
-115.5684
 30
0.0
 10
1622.12
 20
-115.5684
 30
0.0
 10
1622.12
 20
-115.5684
 30
0.0
 10
1622.7264
 20
-115.5684
 30
0.0
 10
1623.2484
 20
-115.8093
 30
0.0
 10
1623.6418
 20
-116.2707
 30
0.0
 10
1623.6418
 20
-116.2707
 30
0.0
 10
1624.0353
 20
-116.7321
 30
0.0
 10
1624.1907
 20
-117.2856
 30
0.0
 10
1624.0949
 20
-117.8844
 30
0.0
 10
1624.0949
 20
-117.8844
 30
0.0
 10
1624.0949
 20
-117.8844
 30
0.0
 10
1619.9445
 20
-143.8243
 30
0.0
 10
1619.9445
 20
-143.8243
 30
0.0
 10
1619.9445
 20
-143.8243
 30
0.0
 10
1619.9445
 20
-143.8243
 30
0.0
 10
1623.262
 20
-143.8243
 30
0.0
 10
1623.262
 20
-143.8243
 30
0.0
 10
1623.262
 20
-143.8243
 30
0.0
 10
1623.8578
 20
-143.8243
 30
0.0
 10
1624.3706
 20
-144.0563
 30
0.0
 10
1624.764
 20
-144.5037
 30
0.0
 10
1624.764
 20
-144.5037
 30
0.0
 10
1625.1574
 20
-144.9511
 30
0.0
 10
1625.3218
 20
-145.4894
 30
0.0
 10
1625.2456
 20
-146.0803
 30
0.0
 10
1625.2456
 20
-146.0803
 30
0.0
 10
1625.2456
 20
-146.0803
 30
0.0
 10
1625.1043
 20
-147.1752
 30
0.0
 10
1625.1043
 20
-147.1752
 30
0.0
 10
1625.1043
 20
-147.1752
 30
0.0
 10
1624.9709
 20
-148.2088
 30
0.0
 10
1624.0745
 20
-148.9628
 30
0.0
 10
1623.0333
 20
-148.9173
 30
0.0
 10
1623.0333
 20
-148.9173
 30
0.0
 10
1623.0333
 20
-148.9173
 30
0.0
 10
1619.1641
 20
-148.748
 30
0.0
 10
1619.1641
 20
-148.748
 30
0.0
  0
ELLIPSE
  5
58
330
1F
100
AcDbEntity
  8
Layer 1
370
     9
100
AcDbEllipse
 10
1648.4387
 20
-108.2315
 30
0.0
 11
0.0
 21
4.825
 31
0.0
210
0.0
220
0.0
230
1.0
 40
0.935461139896373
 41
0.0
 42
6.283185307179586
  0
ELLIPSE
  5
59
330
1F
100
AcDbEntity
  8
Layer 1
370
     9
100
AcDbEllipse
 10
1833.8113
 20
-108.2315
 30
0.0
 11
0.0
 21
4.825
 31
0.0
210
0.0
220
0.0
230
1.0
 40
0.935461139896373
 41
0.0
 42
6.283185307179586
  0
SPLINE
  5
5A
330
1F
100
AcDbEntity
  8
Layer 1
370
    20
100
AcDbSpline
210
0.0
220
0.0
230
1.0
 70
    11
 71
     3
 72
    72
 73
    68
 74
     0
 42
0.0000000001
 43
0.0000000001
 12
1.0
 22
0.0
 32
0.0
 13
1.0
 23
0.0
 33
0.0
 40
0.0
 40
0.0
 40
0.0
 40
0.0
 40
0.0555555555555556
 40
0.0555555555555556
 40
0.0555555555555556
 40
0.0555555555555556
 40
0.1111111111111111
 40
0.1111111111111111
 40
0.1111111111111111
 40
0.1111111111111111
 40
0.1666666666666667
 40
0.1666666666666667
 40
0.1666666666666667
 40
0.1666666666666667
 40
0.2222222222222222
 40
0.2222222222222222
 40
0.2222222222222222
 40
0.2222222222222222
 40
0.2777777777777778
 40
0.2777777777777778
 40
0.2777777777777778
 40
0.2777777777777778
 40
0.3333333333333333
 40
0.3333333333333333
 40
0.3333333333333333
 40
0.3333333333333333
 40
0.3888888888888889
 40
0.3888888888888889
 40
0.3888888888888889
 40
0.3888888888888889
 40
0.4444444444444444
 40
0.4444444444444444
 40
0.4444444444444444
 40
0.4444444444444444
 40
0.5
 40
0.5
 40
0.5
 40
0.5
 40
0.5555555555555556
 40
0.5555555555555556
 40
0.5555555555555556
 40
0.5555555555555556
 40
0.6111111111111112
 40
0.6111111111111112
 40
0.6111111111111112
 40
0.6111111111111112
 40
0.6666666666666666
 40
0.6666666666666666
 40
0.6666666666666666
 40
0.6666666666666666
 40
0.7222222222222222
 40
0.7222222222222222
 40
0.7222222222222222
 40
0.7222222222222222
 40
0.7777777777777778
 40
0.7777777777777778
 40
0.7777777777777778
 40
0.7777777777777778
 40
0.8333333333333334
 40
0.8333333333333334
 40
0.8333333333333334
 40
0.8333333333333334
 40
0.8888888888888888
 40
0.8888888888888888
 40
0.8888888888888888
 40
0.8888888888888888
 40
1.0
 40
1.0
 40
1.0
 40
1.0
 10
2011.328
 20
-891.0548
 30
0.0
 10
2011.328
 20
-891.0548
 30
0.0
 10
1952.2727
 20
-569.777
 30
0.0
 10
1952.2727
 20
-569.777
 30
0.0
 10
1952.2727
 20
-569.777
 30
0.0
 10
1952.2727
 20
-569.777
 30
0.0
 10
1952.2727
 20
-533.777
 30
0.0
 10
1952.2727
 20
-533.777
 30
0.0
 10
1952.2727
 20
-533.777
 30
0.0
 10
1952.2727
 20
-533.777
 30
0.0
 10
2021.0044
 20
-51.8621
 30
0.0
 10
2021.0044
 20
-51.8621
 30
0.0
 10
2021.0044
 20
-51.8621
 30
0.0
 10
2031.129
 20
12.8946
 30
0.0
 10
1950.4356
 20
20.2315
 30
0.0
 10
1940.4339
 20
-50.6166
 30
0.0
 10
1940.4339
 20
-50.6166
 30
0.0
 10
1940.4339
 20
-50.6166
 30
0.0
 10
1545.2889
 20
-50.6166
 30
0.0
 10
1545.2889
 20
-50.6166
 30
0.0
 10
1545.2889
 20
-50.6166
 30
0.0
 10
1535.2872
 20
20.2315
 30
0.0
 10
1454.5938
 20
12.8946
 30
0.0
 10
1464.7184
 20
-51.8621
 30
0.0
 10
1464.7184
 20
-51.8621
 30
0.0
 10
1464.7184
 20
-51.8621
 30
0.0
 10
1533.4501
 20
-533.777
 30
0.0
 10
1533.4501
 20
-533.777
 30
0.0
 10
1533.4501
 20
-533.777
 30
0.0
 10
1533.4501
 20
-533.777
 30
0.0
 10
1533.4501
 20
-569.777
 30
0.0
 10
1533.4501
 20
-569.777
 30
0.0
 10
1533.4501
 20
-569.777
 30
0.0
 10
1533.4501
 20
-569.777
 30
0.0
 10
1474.3948
 20
-891.0548
 30
0.0
 10
1474.3948
 20
-891.0548
 30
0.0
 10
1474.3948
 20
-891.0548
 30
0.0
 10
1467.8918
 20
-921.5674
 30
0.0
 10
1438.7264
 20
-916.8811
 30
0.0
 10
1426.3288
 20
-913.4961
 30
0.0
 10
1426.3288
 20
-913.4961
 30
0.0
 10
1410.6444
 20
-909.2137
 30
0.0
 10
1394.0379
 20
-916.0652
 30
0.0
 10
1389.2864
 20
-928.619
 30
0.0
 10
1389.2864
 20
-928.619
 30
0.0
 10
1384.5349
 20
-941.1728
 30
0.0
 10
1393.5125
 20
-954.4748
 30
0.0
 10
1409.219
 20
-958.6764
 30
0.0
 10
1409.219
 20
-958.6764
 30
0.0
 10
1492.6822
 20
-983.6773
 30
0.0
 10
1633.338
 20
-1001.7502
 30
0.0
 10
1742.8222
 20
-1001.7502
 30
0.0
 10
1742.8222
 20
-1001.7502
 30
0.0
 10
1852.3064
 20
-1001.7502
 30
0.0
 10
1993.0406
 20
-983.6773
 30
0.0
 10
2076.5038
 20
-958.6764
 30
0.0
 10
2076.5038
 20
-958.6764
 30
0.0
 10
2092.2103
 20
-954.4748
 30
0.0
 10
2101.1879
 20
-941.1728
 30
0.0
 10
2096.4364
 20
-928.619
 30
0.0
 10
2096.4364
 20
-928.619
 30
0.0
 10
2091.6849
 20
-916.0652
 30
0.0
 10
2075.0784
 20
-909.2137
 30
0.0
 10
2059.394
 20
-913.4961
 30
0.0
 10
2059.394
 20
-913.4961
 30
0.0
 10
2046.9964
 20
-916.8811
 30
0.0
 10
2017.831
 20
-921.5674
 30
0.0
 10
2011.328
 20
-891.0548
 30
0.0
  0
SPLINE
  5
5B
330
1F
100
AcDbEntity
  8
Layer 1
 62
     5
370
    20
100
AcDbSpline
210
0.0
220
0.0
230
1.0
 70
    11
 71
     3
 72
    72
 73
    68
 74
     0
 42
0.0000000001
 43
0.0000000001
 12
1.0
 22
0.0
 32
0.0
 13
1.0
 23
0.0
 33
0.0
 40
0.0
 40
0.0
 40
0.0
 40
0.0
 40
0.0555555555555556
 40
0.0555555555555556
 40
0.0555555555555556
 40
0.0555555555555556
 40
0.1111111111111111
 40
0.1111111111111111
 40
0.1111111111111111
 40
0.1111111111111111
 40
0.1666666666666667
 40
0.1666666666666667
 40
0.1666666666666667
 40
0.1666666666666667
 40
0.2222222222222222
 40
0.2222222222222222
 40
0.2222222222222222
 40
0.2222222222222222
 40
0.2777777777777778
 40
0.2777777777777778
 40
0.2777777777777778
 40
0.2777777777777778
 40
0.3333333333333333
 40
0.3333333333333333
 40
0.3333333333333333
 40
0.3333333333333333
 40
0.3888888888888889
 40
0.3888888888888889
 40
0.3888888888888889
 40
0.3888888888888889
 40
0.4444444444444444
 40
0.4444444444444444
 40
0.4444444444444444
 40
0.4444444444444444
 40
0.5
 40
0.5
 40
0.5
 40
0.5
 40
0.5555555555555556
 40
0.5555555555555556
 40
0.5555555555555556
 40
0.5555555555555556
 40
0.6111111111111112
 40
0.6111111111111112
 40
0.6111111111111112
 40
0.6111111111111112
 40
0.6666666666666666
 40
0.6666666666666666
 40
0.6666666666666666
 40
0.6666666666666666
 40
0.7222222222222222
 40
0.7222222222222222
 40
0.7222222222222222
 40
0.7222222222222222
 40
0.7777777777777778
 40
0.7777777777777778
 40
0.7777777777777778
 40
0.7777777777777778
 40
0.8333333333333334
 40
0.8333333333333334
 40
0.8333333333333334
 40
0.8333333333333334
 40
0.8888888888888888
 40
0.8888888888888888
 40
0.8888888888888888
 40
0.8888888888888888
 40
1.0
 40
1.0
 40
1.0
 40
1.0
 10
426.6592
 20
-569.777
 30
0.0
 10
426.6592
 20
-569.777
 30
0.0
 10
485.8194
 20
-891.0548
 30
0.0
 10
485.8194
 20
-891.0548
 30
0.0
 10
485.8194
 20
-891.0548
 30
0.0
 10
492.3224
 20
-921.5674
 30
0.0
 10
521.4878
 20
-916.8811
 30
0.0
 10
533.8854
 20
-913.4961
 30
0.0
 10
533.8854
 20
-913.4961
 30
0.0
 10
549.5698
 20
-909.2137
 30
0.0
 10
566.1763
 20
-916.0652
 30
0.0
 10
570.9278
 20
-928.619
 30
0.0
 10
570.9278
 20
-928.619
 30
0.0
 10
575.6793
 20
-941.1728
 30
0.0
 10
566.7017
 20
-954.4748
 30
0.0
 10
550.9952
 20
-958.6764
 30
0.0
 10
550.9952
 20
-958.6764
 30
0.0
 10
467.532
 20
-983.6773
 30
0.0
 10
326.7978
 20
-1001.7502
 30
0.0
 10
217.3136
 20
-1001.7502
 30
0.0
 10
217.3136
 20
-1001.7502
 30
0.0
 10
107.8294
 20
-1001.7502
 30
0.0
 10
-32.8264
 20
-983.6773
 30
0.0
 10
-116.2896
 20
-958.6764
 30
0.0
 10
-116.2896
 20
-958.6764
 30
0.0
 10
-131.9961
 20
-954.4748
 30
0.0
 10
-140.9737
 20
-941.1728
 30
0.0
 10
-136.2222
 20
-928.619
 30
0.0
 10
-136.2222
 20
-928.619
 30
0.0
 10
-131.4707
 20
-916.0652
 30
0.0
 10
-114.8642
 20
-909.2137
 30
0.0
 10
-99.1798
 20
-913.4961
 30
0.0
 10
-99.1798
 20
-913.4961
 30
0.0
 10
-86.7822
 20
-916.8811
 30
0.0
 10
-57.6168
 20
-921.5674
 30
0.0
 10
-51.1138
 20
-891.0548
 30
0.0
 10
-51.1138
 20
-891.0548
 30
0.0
 10
-51.1138
 20
-891.0548
 30
0.0
 10
7.8366
 20
-569.6047
 30
0.0
 10
7.8366
 20
-569.6047
 30
0.0
 10
7.8366
 20
-569.6047
 30
0.0
 10
7.8366
 20
-569.6047
 30
0.0
 10
7.8366
 20
-533.777
 30
0.0
 10
7.8366
 20
-533.777
 30
0.0
 10
7.8366
 20
-533.777
 30
0.0
 10
7.8366
 20
-533.777
 30
0.0
 10
-60.8951
 20
-51.8621
 30
0.0
 10
-60.8951
 20
-51.8621
 30
0.0
 10
-60.8951
 20
-51.8621
 30
0.0
 10
-71.0197
 20
12.8946
 30
0.0
 10
9.6737
 20
20.2315
 30
0.0
 10
19.6754
 20
-50.6166
 30
0.0
 10
19.6754
 20
-50.6166
 30
0.0
 10
19.6754
 20
-50.6166
 30
0.0
 10
53.9362
 20
-251.7503
 30
0.0
 10
53.9362
 20
-251.7503
 30
0.0
 10
53.9362
 20
-251.7503
 30
0.0
 10
53.9362
 20
-251.7503
 30
0.0
 10
466.8831
 20
-251.7503
 30
0.0
 10
466.8831
 20
-251.7503
 30
0.0
 10
466.8831
 20
-251.7503
 30
0.0
 10
466.8831
 20
-251.7503
 30
0.0
 10
426.6591
 20
-533.7534
 30
0.0
 10
426.6591
 20
-533.7534
 30
0.0
 10
426.6591
 20
-533.7534
 30
0.0
 10
426.6591
 20
-533.7534
 30
0.0
 10
426.6592
 20
-569.777
 30
0.0
 10
426.6592
 20
-569.777
 30
0.0
  0
SPLINE
  5
5C
330
1F
100
AcDbEntity
  8
Layer 1
 62
     5
370
    20
100
AcDbSpline
210
0.0
220
0.0
230
1.0
 70
    11
 71
     3
 72
   112
 73
   108
 74
     0
 42
0.0000000001
 43
0.0000000001
 12
1.0
 22
0.0
 32
0.0
 13
1.0
 23
0.0
 33
0.0
 40
0.0
 40
0.0
 40
0.0
 40
0.0
 40
0.0357142857142857
 40
0.0357142857142857
 40
0.0357142857142857
 40
0.0357142857142857
 40
0.0714285714285714
 40
0.0714285714285714
 40
0.0714285714285714
 40
0.0714285714285714
 40
0.1071428571428571
 40
0.1071428571428571
 40
0.1071428571428571
 40
0.1071428571428571
 40
0.1428571428571428
 40
0.1428571428571428
 40
0.1428571428571428
 40
0.1428571428571428
 40
0.1785714285714286
 40
0.1785714285714286
 40
0.1785714285714286
 40
0.1785714285714286
 40
0.2142857142857143
 40
0.2142857142857143
 40
0.2142857142857143
 40
0.2142857142857143
 40
0.25
 40
0.25
 40
0.25
 40
0.25
 40
0.2857142857142857
 40
0.2857142857142857
 40
0.2857142857142857
 40
0.2857142857142857
 40
0.3214285714285715
 40
0.3214285714285715
 40
0.3214285714285715
 40
0.3214285714285715
 40
0.3571428571428572
 40
0.3571428571428572
 40
0.3571428571428572
 40
0.3571428571428572
 40
0.3928571428571428
 40
0.3928571428571428
 40
0.3928571428571428
 40
0.3928571428571428
 40
0.4285714285714285
 40
0.4285714285714285
 40
0.4285714285714285
 40
0.4285714285714285
 40
0.4642857142857143
 40
0.4642857142857143
 40
0.4642857142857143
 40
0.4642857142857143
 40
0.5
 40
0.5
 40
0.5
 40
0.5
 40
0.5357142857142857
 40
0.5357142857142857
 40
0.5357142857142857
 40
0.5357142857142857
 40
0.5714285714285714
 40
0.5714285714285714
 40
0.5714285714285714
 40
0.5714285714285714
 40
0.6071428571428571
 40
0.6071428571428571
 40
0.6071428571428571
 40
0.6071428571428571
 40
0.6428571428571429
 40
0.6428571428571429
 40
0.6428571428571429
 40
0.6428571428571429
 40
0.6785714285714286
 40
0.6785714285714286
 40
0.6785714285714286
 40
0.6785714285714286
 40
0.7142857142857143
 40
0.7142857142857143
 40
0.7142857142857143
 40
0.7142857142857143
 40
0.75
 40
0.75
 40
0.75
 40
0.75
 40
0.7857142857142857
 40
0.7857142857142857
 40
0.7857142857142857
 40
0.7857142857142857
 40
0.8214285714285714
 40
0.8214285714285714
 40
0.8214285714285714
 40
0.8214285714285714
 40
0.8571428571428571
 40
0.8571428571428571
 40
0.8571428571428571
 40
0.8571428571428571
 40
0.8928571428571429
 40
0.8928571428571429
 40
0.8928571428571429
 40
0.8928571428571429
 40
0.9285714285714286
 40
0.9285714285714286
 40
0.9285714285714286
 40
0.9285714285714286
 40
1.0
 40
1.0
 40
1.0
 40
1.0
 10
352.7594
 20
-756.6361
 30
0.0
 10
348.6352
 20
-766.7559
 30
0.0
 10
342.853
 20
-776.998
 30
0.0
 10
335.2083
 20
-787.1163
 30
0.0
 10
335.2083
 20
-787.1163
 30
0.0
 10
332.3283
 20
-790.9372
 30
0.0
 10
329.1773
 20
-794.7463
 30
0.0
 10
325.7481
 20
-798.5245
 30
0.0
 10
325.7481
 20
-798.5245
 30
0.0
 10
304.1759
 20
-822.3054
 30
0.0
 10
293.1004
 20
-843.8025
 30
0.0
 10
287.6702
 20
-861.3447
 30
0.0
 10
287.6702
 20
-861.3447
 30
0.0
 10
280.1727
 20
-885.5496
 30
0.0
 10
283.4414
 20
-902.26
 30
0.0
 10
284.7681
 20
-907.1439
 30
0.0
 10
284.7681
 20
-907.1439
 30
0.0
 10
284.8726
 20
-907.4031
 30
0.0
 10
284.9786
 20
-907.6725
 30
0.0
 10
285.0832
 20
-907.9258
 30
0.0
 10
285.0832
 20
-907.9258
 30
0.0
 10
285.0213
 20
-907.8139
 30
0.0
 10
284.9492
 20
-907.6666
 30
0.0
 10
284.8741
 20
-907.5341
 30
0.0
 10
284.8741
 20
-907.5341
 30
0.0
 10
284.9183
 20
-907.6828
 30
0.0
 10
284.9669
 20
-907.8345
 30
0.0
 10
285.0022
 20
-907.9611
 30
0.0
 10
285.0022
 20
-907.9611
 30
0.0
 10
284.7813
 20
-907.3177
 30
0.0
 10
284.4795
 20
-906.7125
 30
0.0
 10
284.107
 20
-906.1397
 30
0.0
 10
284.107
 20
-906.1397
 30
0.0
 10
280.077
 20
-899.2003
 30
0.0
 10
265.6091
 20
-878.7633
 30
0.0
 10
229.734
 20
-866.3053
 30
0.0
 10
229.734
 20
-866.3053
 30
0.0
 10
216.3542
 20
-861.6539
 30
0.0
 10
199.9987
 20
-858.1187
 30
0.0
 10
180.0903
 20
-856.8038
 30
0.0
 10
180.0903
 20
-856.8038
 30
0.0
 10
174.9502
 20
-856.4637
 30
0.0
 10
170.0014
 20
-855.9013
 30
0.0
 10
165.2249
 20
-855.1297
 30
0.0
 10
165.2249
 20
-855.1297
 30
0.0
 10
152.8376
 20
-853.142
 30
0.0
 10
141.6885
 20
-849.7584
 30
0.0
 10
131.7939
 20
-845.294
 30
0.0
 10
131.7939
 20
-845.294
 30
0.0
 10
126.106
 20
-842.7276
 30
0.0
 10
120.8334
 20
-839.8064
 30
0.0
 10
115.9759
 20
-836.5848
 30
0.0
 10
115.9759
 20
-836.5848
 30
0.0
 10
112.1005
 20
-834.0125
 30
0.0
 10
108.4887
 20
-831.2532
 30
0.0
 10
105.139
 20
-828.3363
 30
0.0
 10
105.139
 20
-828.3363
 30
0.0
 10
91.1688
 20
-816.1419
 30
0.0
 10
81.8293
 20
-801.1484
 30
0.0
 10
77.2015
 20
-785.5144
 30
0.0
 10
77.2015
 20
-785.5144
 30
0.0
 10
71.9451
 20
-767.7601
 30
0.0
 10
72.7549
 20
-749.1798
 30
0.0
 10
79.7576
 20
-732.9215
 30
0.0
 10
79.7576
 20
-732.9215
 30
0.0
 10
84.303
 20
-722.3452
 30
0.0
 10
91.4603
 20
-712.7525
 30
0.0
 10
101.268
 20
-705.012
 30
0.0
 10
101.268
 20
-705.012
 30
0.0
 10
108.4813
 20
-699.3153
 30
0.0
 10
115.5857
 20
-695.0439
 30
0.0
 10
122.4913
 20
-691.9047
 30
0.0
 10
122.4913
 20
-691.9047
 30
0.0
 10
160.4087
 20
-674.6437
 30
0.0
 10
192.0418
 20
-691.6205
 30
0.0
 10
199.1815
 20
-696.0039
 30
0.0
 10
199.1815
 20
-696.0039
 30
0.0
 10
199.9442
 20
-696.475
 30
0.0
 10
200.4316
 20
-696.8048
 30
0.0
 10
200.6039
 20
-696.9212
 30
0.0
 10
200.6039
 20
-696.9212
 30
0.0
 10
200.9646
 20
-695.2529
 30
0.0
 10
206.3433
 20
-671.3337
 30
0.0
 10
228.3514
 20
-653.416
 30
0.0
 10
228.3514
 20
-653.416
 30
0.0
 10
239.8509
 20
-644.0544
 30
0.0
 10
255.8868
 20
-636.3243
 30
0.0
 10
278.1128
 20
-634.2556
 30
0.0
 10
278.1128
 20
-634.2556
 30
0.0
 10
290.6577
 20
-633.0894
 30
0.0
 10
302.5651
 20
-635.089
 30
0.0
 10
313.2341
 20
-639.621
 30
0.0
 10
313.2341
 20
-639.621
 30
0.0
 10
329.4924
 20
-646.5295
 30
0.0
 10
342.8736
 20
-659.3071
 30
0.0
 10
351.284
 20
-675.6964
 30
0.0
 10
351.284
 20
-675.6964
 30
0.0
 10
358.6843
 20
-690.1363
 30
0.0
 10
362.2255
 20
-707.3708
 30
0.0
 10
360.4645
 20
-725.8613
 30
0.0
 10
360.4645
 20
-725.8613
 30
0.0
 10
360.0493
 20
-730.2888
 30
0.0
 10
359.313
 20
-734.7826
 30
0.0
 10
358.2691
 20
-739.3382
 30
0.0
 10
358.2691
 20
-739.3382
 30
0.0
 10
356.9543
 20
-745.035
 30
0.0
 10
355.1241
 20
-750.823
 30
0.0
 10
352.7594
 20
-756.6361
 30
0.0
  0
SPLINE
  5
5D
330
1F
100
AcDbEntity
  8
Layer 1
370
    20
100
AcDbSpline
210
0.0
220
0.0
230
1.0
 70
    11
 71
     3
 72
    48
 73
    44
 74
     0
 42
0.0000000001
 43
0.0000000001
 12
1.0
 22
0.0
 32
0.0
 13
1.0
 23
0.0
 33
0.0
 40
0.0
 40
0.0
 40
0.0
 40
0.0
 40
0.0833333333333333
 40
0.0833333333333333
 40
0.0833333333333333
 40
0.0833333333333333
 40
0.1666666666666667
 40
0.1666666666666667
 40
0.1666666666666667
 40
0.1666666666666667
 40
0.25
 40
0.25
 40
0.25
 40
0.25
 40
0.3333333333333333
 40
0.3333333333333333
 40
0.3333333333333333
 40
0.3333333333333333
 40
0.4166666666666667
 40
0.4166666666666667
 40
0.4166666666666667
 40
0.4166666666666667
 40
0.5
 40
0.5
 40
0.5
 40
0.5
 40
0.5833333333333334
 40
0.5833333333333334
 40
0.5833333333333334
 40
0.5833333333333334
 40
0.6666666666666666
 40
0.6666666666666666
 40
0.6666666666666666
 40
0.6666666666666666
 40
0.75
 40
0.75
 40
0.75
 40
0.75
 40
0.8333333333333334
 40
0.8333333333333334
 40
0.8333333333333334
 40
0.8333333333333334
 40
1.0
 40
1.0
 40
1.0
 40
1.0
 10
4963.8062
 20
89.8452
 30
0.0
 10
4963.8062
 20
89.8452
 30
0.0
 10
5022.998
 20
411.123
 30
0.0
 10
5022.998
 20
411.123
 30
0.0
 10
5022.998
 20
411.123
 30
0.0
 10
5029.501
 20
441.6356
 30
0.0
 10
5058.6664
 20
436.9493
 30
0.0
 10
5071.064
 20
433.5643
 30
0.0
 10
5071.064
 20
433.5643
 30
0.0
 10
5086.7484
 20
429.2819
 30
0.0
 10
5103.3549
 20
436.1334
 30
0.0
 10
5108.1064
 20
448.6872
 30
0.0
 10
5108.1064
 20
448.6872
 30
0.0
 10
5112.8579
 20
461.241
 30
0.0
 10
5103.8803
 20
474.543
 30
0.0
 10
5088.1738
 20
478.7446
 30
0.0
 10
5088.1738
 20
478.7446
 30
0.0
 10
5004.7106
 20
503.7455
 30
0.0
 10
4863.9764
 20
521.8184
 30
0.0
 10
4754.4922
 20
521.8184
 30
0.0
 10
4754.4922
 20
521.8184
 30
0.0
 10
4645.008
 20
521.8184
 30
0.0
 10
4504.3522
 20
503.7455
 30
0.0
 10
4420.889
 20
478.7446
 30
0.0
 10
4420.889
 20
478.7446
 30
0.0
 10
4405.1825
 20
474.543
 30
0.0
 10
4396.2049
 20
461.241
 30
0.0
 10
4400.9564
 20
448.6872
 30
0.0
 10
4400.9564
 20
448.6872
 30
0.0
 10
4405.7079
 20
436.1334
 30
0.0
 10
4422.3144
 20
429.2819
 30
0.0
 10
4437.9988
 20
433.5643
 30
0.0
 10
4437.9988
 20
433.5643
 30
0.0
 10
4450.3964
 20
436.9493
 30
0.0
 10
4479.5618
 20
441.6356
 30
0.0
 10
4486.0648
 20
411.123
 30
0.0
 10
4486.0648
 20
411.123
 30
0.0
 10
4486.0648
 20
411.123
 30
0.0
 10
4544.9836
 20
89.8452
 30
0.0
 10
4544.9836
 20
89.8452
 30
0.0
 10
4544.9836
 20
89.8452
 30
0.0
 10
4544.9836
 20
89.8452
 30
0.0
 10
4963.8062
 20
89.8452
 30
0.0
 10
4963.8062
 20
89.8452
 30
0.0
  0
SPLINE
  5
5E
330
1F
100
AcDbEntity
  8
Layer 1
370
    20
100
AcDbSpline
210
0.0
220
0.0
230
1.0
 70
    11
 71
     3
 72
   112
 73
   108
 74
     0
 42
0.0000000001
 43
0.0000000001
 12
1.0
 22
0.0
 32
0.0
 13
1.0
 23
0.0
 33
0.0
 40
0.0
 40
0.0
 40
0.0
 40
0.0
 40
0.0357142857142857
 40
0.0357142857142857
 40
0.0357142857142857
 40
0.0357142857142857
 40
0.0714285714285714
 40
0.0714285714285714
 40
0.0714285714285714
 40
0.0714285714285714
 40
0.1071428571428571
 40
0.1071428571428571
 40
0.1071428571428571
 40
0.1071428571428571
 40
0.1428571428571428
 40
0.1428571428571428
 40
0.1428571428571428
 40
0.1428571428571428
 40
0.1785714285714286
 40
0.1785714285714286
 40
0.1785714285714286
 40
0.1785714285714286
 40
0.2142857142857143
 40
0.2142857142857143
 40
0.2142857142857143
 40
0.2142857142857143
 40
0.25
 40
0.25
 40
0.25
 40
0.25
 40
0.2857142857142857
 40
0.2857142857142857
 40
0.2857142857142857
 40
0.2857142857142857
 40
0.3214285714285715
 40
0.3214285714285715
 40
0.3214285714285715
 40
0.3214285714285715
 40
0.3571428571428572
 40
0.3571428571428572
 40
0.3571428571428572
 40
0.3571428571428572
 40
0.3928571428571428
 40
0.3928571428571428
 40
0.3928571428571428
 40
0.3928571428571428
 40
0.4285714285714285
 40
0.4285714285714285
 40
0.4285714285714285
 40
0.4285714285714285
 40
0.4642857142857143
 40
0.4642857142857143
 40
0.4642857142857143
 40
0.4642857142857143
 40
0.5
 40
0.5
 40
0.5
 40
0.5
 40
0.5357142857142857
 40
0.5357142857142857
 40
0.5357142857142857
 40
0.5357142857142857
 40
0.5714285714285714
 40
0.5714285714285714
 40
0.5714285714285714
 40
0.5714285714285714
 40
0.6071428571428571
 40
0.6071428571428571
 40
0.6071428571428571
 40
0.6071428571428571
 40
0.6428571428571429
 40
0.6428571428571429
 40
0.6428571428571429
 40
0.6428571428571429
 40
0.6785714285714286
 40
0.6785714285714286
 40
0.6785714285714286
 40
0.6785714285714286
 40
0.7142857142857143
 40
0.7142857142857143
 40
0.7142857142857143
 40
0.7142857142857143
 40
0.75
 40
0.75
 40
0.75
 40
0.75
 40
0.7857142857142857
 40
0.7857142857142857
 40
0.7857142857142857
 40
0.7857142857142857
 40
0.8214285714285714
 40
0.8214285714285714
 40
0.8214285714285714
 40
0.8214285714285714
 40
0.8571428571428571
 40
0.8571428571428571
 40
0.8571428571428571
 40
0.8571428571428571
 40
0.8928571428571429
 40
0.8928571428571429
 40
0.8928571428571429
 40
0.8928571428571429
 40
0.9285714285714286
 40
0.9285714285714286
 40
0.9285714285714286
 40
0.9285714285714286
 40
1.0
 40
1.0
 40
1.0
 40
1.0
 10
4889.938
 20
276.7043
 30
0.0
 10
4885.8138
 20
286.8241
 30
0.0
 10
4880.0316
 20
297.0662
 30
0.0
 10
4872.3869
 20
307.1845
 30
0.0
 10
4872.3869
 20
307.1845
 30
0.0
 10
4869.5069
 20
311.0054
 30
0.0
 10
4866.3559
 20
314.8145
 30
0.0
 10
4862.9267
 20
318.5927
 30
0.0
 10
4862.9267
 20
318.5927
 30
0.0
 10
4841.3545
 20
342.3736
 30
0.0
 10
4830.279
 20
363.8707
 30
0.0
 10
4824.8488
 20
381.4129
 30
0.0
 10
4824.8488
 20
381.4129
 30
0.0
 10
4817.3513
 20
405.6178
 30
0.0
 10
4820.62
 20
422.3282
 30
0.0
 10
4821.9467
 20
427.2121
 30
0.0
 10
4821.9467
 20
427.2121
 30
0.0
 10
4822.0512
 20
427.4713
 30
0.0
 10
4822.1572
 20
427.7407
 30
0.0
 10
4822.2618
 20
427.994
 30
0.0
 10
4822.2618
 20
427.994
 30
0.0
 10
4822.1999
 20
427.8821
 30
0.0
 10
4822.1278
 20
427.7348
 30
0.0
 10
4822.0527
 20
427.6023
 30
0.0
 10
4822.0527
 20
427.6023
 30
0.0
 10
4822.0969
 20
427.751
 30
0.0
 10
4822.1455
 20
427.9027
 30
0.0
 10
4822.1808
 20
428.0293
 30
0.0
 10
4822.1808
 20
428.0293
 30
0.0
 10
4821.9599
 20
427.3859
 30
0.0
 10
4821.6581
 20
426.7807
 30
0.0
 10
4821.2856
 20
426.2079
 30
0.0
 10
4821.2856
 20
426.2079
 30
0.0
 10
4817.2556
 20
419.2685
 30
0.0
 10
4802.7877
 20
398.8315
 30
0.0
 10
4766.9126
 20
386.3735
 30
0.0
 10
4766.9126
 20
386.3735
 30
0.0
 10
4753.5328
 20
381.7221
 30
0.0
 10
4737.1773
 20
378.1869
 30
0.0
 10
4717.2689
 20
376.872
 30
0.0
 10
4717.2689
 20
376.872
 30
0.0
 10
4712.1288
 20
376.5319
 30
0.0
 10
4707.18
 20
375.9695
 30
0.0
 10
4702.4035
 20
375.1979
 30
0.0
 10
4702.4035
 20
375.1979
 30
0.0
 10
4690.0162
 20
373.2102
 30
0.0
 10
4678.8671
 20
369.8266
 30
0.0
 10
4668.9725
 20
365.3622
 30
0.0
 10
4668.9725
 20
365.3622
 30
0.0
 10
4663.2846
 20
362.7958
 30
0.0
 10
4658.012
 20
359.8746
 30
0.0
 10
4653.1545
 20
356.653
 30
0.0
 10
4653.1545
 20
356.653
 30
0.0
 10
4649.2791
 20
354.0807
 30
0.0
 10
4645.6673
 20
351.3214
 30
0.0
 10
4642.3176
 20
348.4045
 30
0.0
 10
4642.3176
 20
348.4045
 30
0.0
 10
4628.3474
 20
336.2101
 30
0.0
 10
4619.0079
 20
321.2166
 30
0.0
 10
4614.3801
 20
305.5826
 30
0.0
 10
4614.3801
 20
305.5826
 30
0.0
 10
4609.1237
 20
287.8283
 30
0.0
 10
4609.9335
 20
269.248
 30
0.0
 10
4616.9362
 20
252.9897
 30
0.0
 10
4616.9362
 20
252.9897
 30
0.0
 10
4621.4816
 20
242.4134
 30
0.0
 10
4628.6389
 20
232.8207
 30
0.0
 10
4638.4466
 20
225.0802
 30
0.0
 10
4638.4466
 20
225.0802
 30
0.0
 10
4645.6599
 20
219.3835
 30
0.0
 10
4652.7643
 20
215.1121
 30
0.0
 10
4659.6699
 20
211.9729
 30
0.0
 10
4659.6699
 20
211.9729
 30
0.0
 10
4697.5873
 20
194.7119
 30
0.0
 10
4729.2204
 20
211.6887
 30
0.0
 10
4736.3601
 20
216.0721
 30
0.0
 10
4736.3601
 20
216.0721
 30
0.0
 10
4737.1228
 20
216.5432
 30
0.0
 10
4737.6102
 20
216.873
 30
0.0
 10
4737.7825
 20
216.9894
 30
0.0
 10
4737.7825
 20
216.9894
 30
0.0
 10
4738.1432
 20
215.3211
 30
0.0
 10
4743.5219
 20
191.4019
 30
0.0
 10
4765.53
 20
173.4842
 30
0.0
 10
4765.53
 20
173.4842
 30
0.0
 10
4777.0295
 20
164.1226
 30
0.0
 10
4793.0654
 20
156.3925
 30
0.0
 10
4815.2914
 20
154.3238
 30
0.0
 10
4815.2914
 20
154.3238
 30
0.0
 10
4827.8363
 20
153.1576
 30
0.0
 10
4839.7437
 20
155.1572
 30
0.0
 10
4850.4127
 20
159.6892
 30
0.0
 10
4850.4127
 20
159.6892
 30
0.0
 10
4866.671
 20
166.5977
 30
0.0
 10
4880.0522
 20
179.3753
 30
0.0
 10
4888.4626
 20
195.7646
 30
0.0
 10
4888.4626
 20
195.7646
 30
0.0
 10
4895.8629
 20
210.2045
 30
0.0
 10
4899.4041
 20
227.439
 30
0.0
 10
4897.6431
 20
245.9295
 30
0.0
 10
4897.6431
 20
245.9295
 30
0.0
 10
4897.2279
 20
250.357
 30
0.0
 10
4896.4916
 20
254.8508
 30
0.0
 10
4895.4477
 20
259.4064
 30
0.0
 10
4895.4477
 20
259.4064
 30
0.0
 10
4894.1329
 20
265.1032
 30
0.0
 10
4892.3027
 20
270.8912
 30
0.0
 10
4889.938
 20
276.7043
 30
0.0
  0
SPLINE
  5
5F
330
1F
100
AcDbEntity
  8
Layer 1
370
    20
100
AcDbSpline
210
0.0
220
0.0
230
1.0
 70
    11
 71
     3
 72
    48
 73
    44
 74
     0
 42
0.0000000001
 43
0.0000000001
 12
1.0
 22
0.0
 32
0.0
 13
1.0
 23
0.0
 33
0.0
 40
0.0
 40
0.0
 40
0.0
 40
0.0
 40
0.0833333333333333
 40
0.0833333333333333
 40
0.0833333333333333
 40
0.0833333333333333
 40
0.1666666666666667
 40
0.1666666666666667
 40
0.1666666666666667
 40
0.1666666666666667
 40
0.25
 40
0.25
 40
0.25
 40
0.25
 40
0.3333333333333333
 40
0.3333333333333333
 40
0.3333333333333333
 40
0.3333333333333333
 40
0.4166666666666667
 40
0.4166666666666667
 40
0.4166666666666667
 40
0.4166666666666667
 40
0.5
 40
0.5
 40
0.5
 40
0.5
 40
0.5833333333333334
 40
0.5833333333333334
 40
0.5833333333333334
 40
0.5833333333333334
 40
0.6666666666666666
 40
0.6666666666666666
 40
0.6666666666666666
 40
0.6666666666666666
 40
0.75
 40
0.75
 40
0.75
 40
0.75
 40
0.8333333333333334
 40
0.8333333333333334
 40
0.8333333333333334
 40
0.8333333333333334
 40
1.0
 40
1.0
 40
1.0
 40
1.0
 10
4367.3571
 20
459.9397
 30
0.0
 10
4367.3571
 20
459.9397
 30
0.0
 10
4426.5489
 20
138.6619
 30
0.0
 10
4426.5489
 20
138.6619
 30
0.0
 10
4426.5489
 20
138.6619
 30
0.0
 10
4433.0519
 20
108.1493
 30
0.0
 10
4462.2173
 20
112.8356
 30
0.0
 10
4474.6149
 20
116.2206
 30
0.0
 10
4474.6149
 20
116.2206
 30
0.0
 10
4490.2993
 20
120.503
 30
0.0
 10
4506.9058
 20
113.6515
 30
0.0
 10
4511.6573
 20
101.0977
 30
0.0
 10
4511.6573
 20
101.0977
 30
0.0
 10
4516.4088
 20
88.5439
 30
0.0
 10
4507.4312
 20
75.2419
 30
0.0
 10
4491.7247
 20
71.0403
 30
0.0
 10
4491.7247
 20
71.0403
 30
0.0
 10
4408.2615
 20
46.0394
 30
0.0
 10
4267.5273
 20
27.9665
 30
0.0
 10
4158.0431
 20
27.9665
 30
0.0
 10
4158.0431
 20
27.9665
 30
0.0
 10
4048.5589
 20
27.9665
 30
0.0
 10
3907.9031
 20
46.0394
 30
0.0
 10
3824.4399
 20
71.0403
 30
0.0
 10
3824.4399
 20
71.0403
 30
0.0
 10
3808.7334
 20
75.2419
 30
0.0
 10
3799.7558
 20
88.5439
 30
0.0
 10
3804.5073
 20
101.0977
 30
0.0
 10
3804.5073
 20
101.0977
 30
0.0
 10
3809.2588
 20
113.6515
 30
0.0
 10
3825.8653
 20
120.503
 30
0.0
 10
3841.5497
 20
116.2206
 30
0.0
 10
3841.5497
 20
116.2206
 30
0.0
 10
3853.9473
 20
112.8356
 30
0.0
 10
3883.1127
 20
108.1493
 30
0.0
 10
3889.6157
 20
138.6619
 30
0.0
 10
3889.6157
 20
138.6619
 30
0.0
 10
3889.6157
 20
138.6619
 30
0.0
 10
3948.5345
 20
459.9397
 30
0.0
 10
3948.5345
 20
459.9397
 30
0.0
 10
3948.5345
 20
459.9397
 30
0.0
 10
3948.5345
 20
459.9397
 30
0.0
 10
4367.3571
 20
459.9397
 30
0.0
 10
4367.3571
 20
459.9397
 30
0.0
  0
SPLINE
  5
60
330
1F
100
AcDbEntity
  8
Layer 1
370
    20
100
AcDbSpline
210
0.0
220
0.0
230
1.0
 70
    11
 71
     3
 72
   112
 73
   108
 74
     0
 42
0.0000000001
 43
0.0000000001
 12
1.0
 22
0.0
 32
0.0
 13
1.0
 23
0.0
 33
0.0
 40
0.0
 40
0.0
 40
0.0
 40
0.0
 40
0.0357142857142857
 40
0.0357142857142857
 40
0.0357142857142857
 40
0.0357142857142857
 40
0.0714285714285714
 40
0.0714285714285714
 40
0.0714285714285714
 40
0.0714285714285714
 40
0.1071428571428571
 40
0.1071428571428571
 40
0.1071428571428571
 40
0.1071428571428571
 40
0.1428571428571428
 40
0.1428571428571428
 40
0.1428571428571428
 40
0.1428571428571428
 40
0.1785714285714286
 40
0.1785714285714286
 40
0.1785714285714286
 40
0.1785714285714286
 40
0.2142857142857143
 40
0.2142857142857143
 40
0.2142857142857143
 40
0.2142857142857143
 40
0.25
 40
0.25
 40
0.25
 40
0.25
 40
0.2857142857142857
 40
0.2857142857142857
 40
0.2857142857142857
 40
0.2857142857142857
 40
0.3214285714285715
 40
0.3214285714285715
 40
0.3214285714285715
 40
0.3214285714285715
 40
0.3571428571428572
 40
0.3571428571428572
 40
0.3571428571428572
 40
0.3571428571428572
 40
0.3928571428571428
 40
0.3928571428571428
 40
0.3928571428571428
 40
0.3928571428571428
 40
0.4285714285714285
 40
0.4285714285714285
 40
0.4285714285714285
 40
0.4285714285714285
 40
0.4642857142857143
 40
0.4642857142857143
 40
0.4642857142857143
 40
0.4642857142857143
 40
0.5
 40
0.5
 40
0.5
 40
0.5
 40
0.5357142857142857
 40
0.5357142857142857
 40
0.5357142857142857
 40
0.5357142857142857
 40
0.5714285714285714
 40
0.5714285714285714
 40
0.5714285714285714
 40
0.5714285714285714
 40
0.6071428571428571
 40
0.6071428571428571
 40
0.6071428571428571
 40
0.6071428571428571
 40
0.6428571428571429
 40
0.6428571428571429
 40
0.6428571428571429
 40
0.6428571428571429
 40
0.6785714285714286
 40
0.6785714285714286
 40
0.6785714285714286
 40
0.6785714285714286
 40
0.7142857142857143
 40
0.7142857142857143
 40
0.7142857142857143
 40
0.7142857142857143
 40
0.75
 40
0.75
 40
0.75
 40
0.75
 40
0.7857142857142857
 40
0.7857142857142857
 40
0.7857142857142857
 40
0.7857142857142857
 40
0.8214285714285714
 40
0.8214285714285714
 40
0.8214285714285714
 40
0.8214285714285714
 40
0.8571428571428571
 40
0.8571428571428571
 40
0.8571428571428571
 40
0.8571428571428571
 40
0.8928571428571429
 40
0.8928571428571429
 40
0.8928571428571429
 40
0.8928571428571429
 40
0.9285714285714286
 40
0.9285714285714286
 40
0.9285714285714286
 40
0.9285714285714286
 40
1.0
 40
1.0
 40
1.0
 40
1.0
 10
4293.4889
 20
273.0806
 30
0.0
 10
4289.3647
 20
262.9608
 30
0.0
 10
4283.5825
 20
252.7187
 30
0.0
 10
4275.9378
 20
242.6004
 30
0.0
 10
4275.9378
 20
242.6004
 30
0.0
 10
4273.0578
 20
238.7795
 30
0.0
 10
4269.9068
 20
234.9704
 30
0.0
 10
4266.4776
 20
231.1922
 30
0.0
 10
4266.4776
 20
231.1922
 30
0.0
 10
4244.9054
 20
207.4113
 30
0.0
 10
4233.8299
 20
185.9142
 30
0.0
 10
4228.3997
 20
168.372
 30
0.0
 10
4228.3997
 20
168.372
 30
0.0
 10
4220.9022
 20
144.1671
 30
0.0
 10
4224.1709
 20
127.4567
 30
0.0
 10
4225.4976
 20
122.5728
 30
0.0
 10
4225.4976
 20
122.5728
 30
0.0
 10
4225.6021
 20
122.3136
 30
0.0
 10
4225.7081
 20
122.0442
 30
0.0
 10
4225.8127
 20
121.7909
 30
0.0
 10
4225.8127
 20
121.7909
 30
0.0
 10
4225.7508
 20
121.9028
 30
0.0
 10
4225.6787
 20
122.0501
 30
0.0
 10
4225.6036
 20
122.1826
 30
0.0
 10
4225.6036
 20
122.1826
 30
0.0
 10
4225.6478
 20
122.0339
 30
0.0
 10
4225.6964
 20
121.8822
 30
0.0
 10
4225.7317
 20
121.7556
 30
0.0
 10
4225.7317
 20
121.7556
 30
0.0
 10
4225.5108
 20
122.399
 30
0.0
 10
4225.209
 20
123.0042
 30
0.0
 10
4224.8365
 20
123.577
 30
0.0
 10
4224.8365
 20
123.577
 30
0.0
 10
4220.8065
 20
130.5164
 30
0.0
 10
4206.3386
 20
150.9534
 30
0.0
 10
4170.4635
 20
163.4114
 30
0.0
 10
4170.4635
 20
163.4114
 30
0.0
 10
4157.0837
 20
168.0628
 30
0.0
 10
4140.7282
 20
171.598
 30
0.0
 10
4120.8198
 20
172.9129
 30
0.0
 10
4120.8198
 20
172.9129
 30
0.0
 10
4115.6797
 20
173.253
 30
0.0
 10
4110.7309
 20
173.8154
 30
0.0
 10
4105.9544
 20
174.587
 30
0.0
 10
4105.9544
 20
174.587
 30
0.0
 10
4093.5671
 20
176.5747
 30
0.0
 10
4082.418
 20
179.9583
 30
0.0
 10
4072.5234
 20
184.4227
 30
0.0
 10
4072.5234
 20
184.4227
 30
0.0
 10
4066.8355
 20
186.9891
 30
0.0
 10
4061.5629
 20
189.9103
 30
0.0
 10
4056.7054
 20
193.1319
 30
0.0
 10
4056.7054
 20
193.1319
 30
0.0
 10
4052.83
 20
195.7042
 30
0.0
 10
4049.2182
 20
198.4635
 30
0.0
 10
4045.8685
 20
201.3804
 30
0.0
 10
4045.8685
 20
201.3804
 30
0.0
 10
4031.8983
 20
213.5748
 30
0.0
 10
4022.5588
 20
228.5683
 30
0.0
 10
4017.931
 20
244.2023
 30
0.0
 10
4017.931
 20
244.2023
 30
0.0
 10
4012.6746
 20
261.9566
 30
0.0
 10
4013.4844
 20
280.5369
 30
0.0
 10
4020.4871
 20
296.7952
 30
0.0
 10
4020.4871
 20
296.7952
 30
0.0
 10
4025.0325
 20
307.3715
 30
0.0
 10
4032.1898
 20
316.9642
 30
0.0
 10
4041.9975
 20
324.7047
 30
0.0
 10
4041.9975
 20
324.7047
 30
0.0
 10
4049.2108
 20
330.4014
 30
0.0
 10
4056.3152
 20
334.6728
 30
0.0
 10
4063.2208
 20
337.812
 30
0.0
 10
4063.2208
 20
337.812
 30
0.0
 10
4101.1382
 20
355.073
 30
0.0
 10
4132.7713
 20
338.0962
 30
0.0
 10
4139.911
 20
333.7128
 30
0.0
 10
4139.911
 20
333.7128
 30
0.0
 10
4140.6737
 20
333.2417
 30
0.0
 10
4141.1611
 20
332.9119
 30
0.0
 10
4141.3334
 20
332.7955
 30
0.0
 10
4141.3334
 20
332.7955
 30
0.0
 10
4141.6941
 20
334.4638
 30
0.0
 10
4147.0728
 20
358.383
 30
0.0
 10
4169.0809
 20
376.3007
 30
0.0
 10
4169.0809
 20
376.3007
 30
0.0
 10
4180.5804
 20
385.6623
 30
0.0
 10
4196.6163
 20
393.3924
 30
0.0
 10
4218.8423
 20
395.4611
 30
0.0
 10
4218.8423
 20
395.4611
 30
0.0
 10
4231.3872
 20
396.6273
 30
0.0
 10
4243.2946
 20
394.6277
 30
0.0
 10
4253.9636
 20
390.0957
 30
0.0
 10
4253.9636
 20
390.0957
 30
0.0
 10
4270.2219
 20
383.1872
 30
0.0
 10
4283.6031
 20
370.4096
 30
0.0
 10
4292.0135
 20
354.0203
 30
0.0
 10
4292.0135
 20
354.0203
 30
0.0
 10
4299.4138
 20
339.5804
 30
0.0
 10
4302.955
 20
322.3459
 30
0.0
 10
4301.194
 20
303.8554
 30
0.0
 10
4301.194
 20
303.8554
 30
0.0
 10
4300.7788
 20
299.4279
 30
0.0
 10
4300.0425
 20
294.9341
 30
0.0
 10
4298.9986
 20
290.3785
 30
0.0
 10
4298.9986
 20
290.3785
 30
0.0
 10
4297.6838
 20
284.6817
 30
0.0
 10
4295.8536
 20
278.8937
 30
0.0
 10
4293.4889
 20
273.0806
 30
0.0
  0
SPLINE
  5
61
330
1F
100
AcDbEntity
  8
Layer 1
370
    20
100
AcDbSpline
210
0.0
220
0.0
230
1.0
 70
    11
 71
     3
 72
    28
 73
    24
 74
     0
 42
0.0000000001
 43
0.0000000001
 12
1.0
 22
0.0
 32
0.0
 13
1.0
 23
0.0
 33
0.0
 40
0.0
 40
0.0
 40
0.0
 40
0.0
 40
0.1428571428571428
 40
0.1428571428571428
 40
0.1428571428571428
 40
0.1428571428571428
 40
0.2857142857142857
 40
0.2857142857142857
 40
0.2857142857142857
 40
0.2857142857142857
 40
0.4285714285714285
 40
0.4285714285714285
 40
0.4285714285714285
 40
0.4285714285714285
 40
0.5714285714285714
 40
0.5714285714285714
 40
0.5714285714285714
 40
0.5714285714285714
 40
0.7142857142857143
 40
0.7142857142857143
 40
0.7142857142857143
 40
0.7142857142857143
 40
1.0
 40
1.0
 40
1.0
 40
1.0
 10
3314.7786
 20
60.2497
 30
0.0
 10
3314.7786
 20
60.2497
 30
0.0
 10
3274.5594
 20
-221.7629
 30
0.0
 10
3274.5594
 20
-221.7629
 30
0.0
 10
3274.5594
 20
-221.7629
 30
0.0
 10
3274.5594
 20
-221.7629
 30
0.0
 10
3687.5016
 20
-221.7503
 30
0.0
 10
3687.5016
 20
-221.7503
 30
0.0
 10
3687.5016
 20
-221.7503
 30
0.0
 10
3687.5016
 20
-221.7503
 30
0.0
 10
3721.7624
 20
-422.884
 30
0.0
 10
3721.7624
 20
-422.884
 30
0.0
 10
3721.7624
 20
-422.884
 30
0.0
 10
3731.7641
 20
-493.7321
 30
0.0
 10
3812.4575
 20
-486.3952
 30
0.0
 10
3802.3329
 20
-421.6385
 30
0.0
 10
3802.3329
 20
-421.6385
 30
0.0
 10
3802.3329
 20
-421.6385
 30
0.0
 10
3733.6012
 20
60.2497
 30
0.0
 10
3733.6012
 20
60.2497
 30
0.0
 10
3733.6012
 20
60.2497
 30
0.0
 10
3733.6012
 20
60.2497
 30
0.0
 10
3314.7786
 20
60.2497
 30
0.0
 10
3314.7786
 20
60.2497
 30
0.0
  0
SPLINE
  5
62
330
1F
100
AcDbEntity
  8
Layer 1
370
    20
100
AcDbSpline
210
0.0
220
0.0
230
1.0
 70
    11
 71
     3
 72
   112
 73
   108
 74
     0
 42
0.0000000001
 43
0.0000000001
 12
1.0
 22
0.0
 32
0.0
 13
1.0
 23
0.0
 33
0.0
 40
0.0
 40
0.0
 40
0.0
 40
0.0
 40
0.0357142857142857
 40
0.0357142857142857
 40
0.0357142857142857
 40
0.0357142857142857
 40
0.0714285714285714
 40
0.0714285714285714
 40
0.0714285714285714
 40
0.0714285714285714
 40
0.1071428571428571
 40
0.1071428571428571
 40
0.1071428571428571
 40
0.1071428571428571
 40
0.1428571428571428
 40
0.1428571428571428
 40
0.1428571428571428
 40
0.1428571428571428
 40
0.1785714285714286
 40
0.1785714285714286
 40
0.1785714285714286
 40
0.1785714285714286
 40
0.2142857142857143
 40
0.2142857142857143
 40
0.2142857142857143
 40
0.2142857142857143
 40
0.25
 40
0.25
 40
0.25
 40
0.25
 40
0.2857142857142857
 40
0.2857142857142857
 40
0.2857142857142857
 40
0.2857142857142857
 40
0.3214285714285715
 40
0.3214285714285715
 40
0.3214285714285715
 40
0.3214285714285715
 40
0.3571428571428572
 40
0.3571428571428572
 40
0.3571428571428572
 40
0.3571428571428572
 40
0.3928571428571428
 40
0.3928571428571428
 40
0.3928571428571428
 40
0.3928571428571428
 40
0.4285714285714285
 40
0.4285714285714285
 40
0.4285714285714285
 40
0.4285714285714285
 40
0.4642857142857143
 40
0.4642857142857143
 40
0.4642857142857143
 40
0.4642857142857143
 40
0.5
 40
0.5
 40
0.5
 40
0.5
 40
0.5357142857142857
 40
0.5357142857142857
 40
0.5357142857142857
 40
0.5357142857142857
 40
0.5714285714285714
 40
0.5714285714285714
 40
0.5714285714285714
 40
0.5714285714285714
 40
0.6071428571428571
 40
0.6071428571428571
 40
0.6071428571428571
 40
0.6071428571428571
 40
0.6428571428571429
 40
0.6428571428571429
 40
0.6428571428571429
 40
0.6428571428571429
 40
0.6785714285714286
 40
0.6785714285714286
 40
0.6785714285714286
 40
0.6785714285714286
 40
0.7142857142857143
 40
0.7142857142857143
 40
0.7142857142857143
 40
0.7142857142857143
 40
0.75
 40
0.75
 40
0.75
 40
0.75
 40
0.7857142857142857
 40
0.7857142857142857
 40
0.7857142857142857
 40
0.7857142857142857
 40
0.8214285714285714
 40
0.8214285714285714
 40
0.8214285714285714
 40
0.8214285714285714
 40
0.8571428571428571
 40
0.8571428571428571
 40
0.8571428571428571
 40
0.8571428571428571
 40
0.8928571428571429
 40
0.8928571428571429
 40
0.8928571428571429
 40
0.8928571428571429
 40
0.9285714285714286
 40
0.9285714285714286
 40
0.9285714285714286
 40
0.9285714285714286
 40
1.0
 40
1.0
 40
1.0
 40
1.0
 10
4005.4582
 20
-245.4507
 30
0.0
 10
4009.5824
 20
-235.3309
 30
0.0
 10
4015.3646
 20
-225.0888
 30
0.0
 10
4023.0093
 20
-214.9705
 30
0.0
 10
4023.0093
 20
-214.9705
 30
0.0
 10
4025.8893
 20
-211.1496
 30
0.0
 10
4029.0403
 20
-207.3405
 30
0.0
 10
4032.4695
 20
-203.5623
 30
0.0
 10
4032.4695
 20
-203.5623
 30
0.0
 10
4054.0417
 20
-179.7814
 30
0.0
 10
4065.1172
 20
-158.2843
 30
0.0
 10
4070.5474
 20
-140.7421
 30
0.0
 10
4070.5474
 20
-140.7421
 30
0.0
 10
4078.0449
 20
-116.5372
 30
0.0
 10
4074.7762
 20
-99.8268
 30
0.0
 10
4073.4495
 20
-94.9429
 30
0.0
 10
4073.4495
 20
-94.9429
 30
0.0
 10
4073.345
 20
-94.6837
 30
0.0
 10
4073.239
 20
-94.4143
 30
0.0
 10
4073.1344
 20
-94.161
 30
0.0
 10
4073.1344
 20
-94.161
 30
0.0
 10
4073.1963
 20
-94.2729
 30
0.0
 10
4073.2684
 20
-94.4202
 30
0.0
 10
4073.3435
 20
-94.5527
 30
0.0
 10
4073.3435
 20
-94.5527
 30
0.0
 10
4073.2993
 20
-94.404
 30
0.0
 10
4073.2507
 20
-94.2523
 30
0.0
 10
4073.2154
 20
-94.1257
 30
0.0
 10
4073.2154
 20
-94.1257
 30
0.0
 10
4073.4363
 20
-94.7691
 30
0.0
 10
4073.7381
 20
-95.3743
 30
0.0
 10
4074.1106
 20
-95.9471
 30
0.0
 10
4074.1106
 20
-95.9471
 30
0.0
 10
4078.1406
 20
-102.8865
 30
0.0
 10
4092.6085
 20
-123.3235
 30
0.0
 10
4128.4836
 20
-135.7815
 30
0.0
 10
4128.4836
 20
-135.7815
 30
0.0
 10
4141.8634
 20
-140.4329
 30
0.0
 10
4158.2189
 20
-143.9681
 30
0.0
 10
4178.1273
 20
-145.283
 30
0.0
 10
4178.1273
 20
-145.283
 30
0.0
 10
4183.2674
 20
-145.6231
 30
0.0
 10
4188.2162
 20
-146.1855
 30
0.0
 10
4192.9927
 20
-146.9571
 30
0.0
 10
4192.9927
 20
-146.9571
 30
0.0
 10
4205.38
 20
-148.9448
 30
0.0
 10
4216.5291
 20
-152.3284
 30
0.0
 10
4226.4237
 20
-156.7928
 30
0.0
 10
4226.4237
 20
-156.7928
 30
0.0
 10
4232.1116
 20
-159.3592
 30
0.0
 10
4237.3842
 20
-162.2804
 30
0.0
 10
4242.2417
 20
-165.502
 30
0.0
 10
4242.2417
 20
-165.502
 30
0.0
 10
4246.1171
 20
-168.0743
 30
0.0
 10
4249.7289
 20
-170.8336
 30
0.0
 10
4253.0786
 20
-173.7505
 30
0.0
 10
4253.0786
 20
-173.7505
 30
0.0
 10
4267.0488
 20
-185.9449
 30
0.0
 10
4276.3883
 20
-200.9384
 30
0.0
 10
4281.0161
 20
-216.5724
 30
0.0
 10
4281.0161
 20
-216.5724
 30
0.0
 10
4286.2725
 20
-234.3267
 30
0.0
 10
4285.4627
 20
-252.907
 30
0.0
 10
4278.46
 20
-269.1653
 30
0.0
 10
4278.46
 20
-269.1653
 30
0.0
 10
4273.9146
 20
-279.7416
 30
0.0
 10
4266.7573
 20
-289.3343
 30
0.0
 10
4256.9496
 20
-297.0748
 30
0.0
 10
4256.9496
 20
-297.0748
 30
0.0
 10
4249.7363
 20
-302.7715
 30
0.0
 10
4242.6319
 20
-307.0429
 30
0.0
 10
4235.7263
 20
-310.1821
 30
0.0
 10
4235.7263
 20
-310.1821
 30
0.0
 10
4197.8089
 20
-327.4431
 30
0.0
 10
4166.1758
 20
-310.4663
 30
0.0
 10
4159.0361
 20
-306.0829
 30
0.0
 10
4159.0361
 20
-306.0829
 30
0.0
 10
4158.2734
 20
-305.6118
 30
0.0
 10
4157.786
 20
-305.282
 30
0.0
 10
4157.6137
 20
-305.1656
 30
0.0
 10
4157.6137
 20
-305.1656
 30
0.0
 10
4157.253
 20
-306.8339
 30
0.0
 10
4151.8743
 20
-330.7531
 30
0.0
 10
4129.8662
 20
-348.6708
 30
0.0
 10
4129.8662
 20
-348.6708
 30
0.0
 10
4118.3667
 20
-358.0324
 30
0.0
 10
4102.3308
 20
-365.7625
 30
0.0
 10
4080.1048
 20
-367.8312
 30
0.0
 10
4080.1048
 20
-367.8312
 30
0.0
 10
4067.5599
 20
-368.9974
 30
0.0
 10
4055.6525
 20
-366.9978
 30
0.0
 10
4044.9835
 20
-362.4658
 30
0.0
 10
4044.9835
 20
-362.4658
 30
0.0
 10
4028.7252
 20
-355.5573
 30
0.0
 10
4015.344
 20
-342.7797
 30
0.0
 10
4006.9336
 20
-326.3904
 30
0.0
 10
4006.9336
 20
-326.3904
 30
0.0
 10
3999.5333
 20
-311.9505
 30
0.0
 10
3995.9921
 20
-294.716
 30
0.0
 10
3997.7531
 20
-276.2255
 30
0.0
 10
3997.7531
 20
-276.2255
 30
0.0
 10
3998.1683
 20
-271.798
 30
0.0
 10
3998.9046
 20
-267.3042
 30
0.0
 10
3999.9485
 20
-262.7486
 30
0.0
 10
3999.9485
 20
-262.7486
 30
0.0
 10
4001.2633
 20
-257.0518
 30
0.0
 10
4003.0935
 20
-251.2638
 30
0.0
 10
4005.4582
 20
-245.4507
 30
0.0
  0
SPLINE
  5
63
330
1F
100
AcDbEntity
  8
Layer 1
370
     9
100
AcDbSpline
210
0.0
220
0.0
230
1.0
 70
    11
 71
     3
 72
   368
 73
   364
 74
     0
 42
0.0000000001
 43
0.0000000001
 12
1.0
 22
0.0
 32
0.0
 13
1.0
 23
0.0
 33
0.0
 40
0.0
 40
0.0
 40
0.0
 40
0.0
 40
0.0108695652173913
 40
0.0108695652173913
 40
0.0108695652173913
 40
0.0108695652173913
 40
0.0217391304347826
 40
0.0217391304347826
 40
0.0217391304347826
 40
0.0217391304347826
 40
0.0326086956521739
 40
0.0326086956521739
 40
0.0326086956521739
 40
0.0326086956521739
 40
0.0434782608695652
 40
0.0434782608695652
 40
0.0434782608695652
 40
0.0434782608695652
 40
0.0543478260869565
 40
0.0543478260869565
 40
0.0543478260869565
 40
0.0543478260869565
 40
0.0652173913043478
 40
0.0652173913043478
 40
0.0652173913043478
 40
0.0652173913043478
 40
0.0760869565217391
 40
0.0760869565217391
 40
0.0760869565217391
 40
0.0760869565217391
 40
0.0869565217391304
 40
0.0869565217391304
 40
0.0869565217391304
 40
0.0869565217391304
 40
0.0978260869565217
 40
0.0978260869565217
 40
0.0978260869565217
 40
0.0978260869565217
 40
0.108695652173913
 40
0.108695652173913
 40
0.108695652173913
 40
0.108695652173913
 40
0.1195652173913044
 40
0.1195652173913044
 40
0.1195652173913044
 40
0.1195652173913044
 40
0.1304347826086956
 40
0.1304347826086956
 40
0.1304347826086956
 40
0.1304347826086956
 40
0.1413043478260869
 40
0.1413043478260869
 40
0.1413043478260869
 40
0.1413043478260869
 40
0.1521739130434783
 40
0.1521739130434783
 40
0.1521739130434783
 40
0.1521739130434783
 40
0.1630434782608696
 40
0.1630434782608696
 40
0.1630434782608696
 40
0.1630434782608696
 40
0.1739130434782609
 40
0.1739130434782609
 40
0.1739130434782609
 40
0.1739130434782609
 40
0.1847826086956522
 40
0.1847826086956522
 40
0.1847826086956522
 40
0.1847826086956522
 40
0.1956521739130435
 40
0.1956521739130435
 40
0.1956521739130435
 40
0.1956521739130435
 40
0.2065217391304348
 40
0.2065217391304348
 40
0.2065217391304348
 40
0.2065217391304348
 40
0.2173913043478261
 40
0.2173913043478261
 40
0.2173913043478261
 40
0.2173913043478261
 40
0.2282608695652174
 40
0.2282608695652174
 40
0.2282608695652174
 40
0.2282608695652174
 40
0.2391304347826087
 40
0.2391304347826087
 40
0.2391304347826087
 40
0.2391304347826087
 40
0.25
 40
0.25
 40
0.25
 40
0.25
 40
0.2608695652173913
 40
0.2608695652173913
 40
0.2608695652173913
 40
0.2608695652173913
 40
0.2717391304347826
 40
0.2717391304347826
 40
0.2717391304347826
 40
0.2717391304347826
 40
0.2826086956521739
 40
0.2826086956521739
 40
0.2826086956521739
 40
0.2826086956521739
 40
0.2934782608695652
 40
0.2934782608695652
 40
0.2934782608695652
 40
0.2934782608695652
 40
0.3043478260869565
 40
0.3043478260869565
 40
0.3043478260869565
 40
0.3043478260869565
 40
0.3152173913043478
 40
0.3152173913043478
 40
0.3152173913043478
 40
0.3152173913043478
 40
0.3260869565217391
 40
0.3260869565217391
 40
0.3260869565217391
 40
0.3260869565217391
 40
0.3369565217391304
 40
0.3369565217391304
 40
0.3369565217391304
 40
0.3369565217391304
 40
0.3478260869565217
 40
0.3478260869565217
 40
0.3478260869565217
 40
0.3478260869565217
 40
0.358695652173913
 40
0.358695652173913
 40
0.358695652173913
 40
0.358695652173913
 40
0.3695652173913043
 40
0.3695652173913043
 40
0.3695652173913043
 40
0.3695652173913043
 40
0.3804347826086957
 40
0.3804347826086957
 40
0.3804347826086957
 40
0.3804347826086957
 40
0.391304347826087
 40
0.391304347826087
 40
0.391304347826087
 40
0.391304347826087
 40
0.4021739130434783
 40
0.4021739130434783
 40
0.4021739130434783
 40
0.4021739130434783
 40
0.4130434782608696
 40
0.4130434782608696
 40
0.4130434782608696
 40
0.4130434782608696
 40
0.4239130434782609
 40
0.4239130434782609
 40
0.4239130434782609
 40
0.4239130434782609
 40
0.4347826086956522
 40
0.4347826086956522
 40
0.4347826086956522
 40
0.4347826086956522
 40
0.4456521739130435
 40
0.4456521739130435
 40
0.4456521739130435
 40
0.4456521739130435
 40
0.4565217391304348
 40
0.4565217391304348
 40
0.4565217391304348
 40
0.4565217391304348
 40
0.4673913043478261
 40
0.4673913043478261
 40
0.4673913043478261
 40
0.4673913043478261
 40
0.4782608695652174
 40
0.4782608695652174
 40
0.4782608695652174
 40
0.4782608695652174
 40
0.4891304347826087
 40
0.4891304347826087
 40
0.4891304347826087
 40
0.4891304347826087
 40
0.5
 40
0.5
 40
0.5
 40
0.5
 40
0.5108695652173914
 40
0.5108695652173914
 40
0.5108695652173914
 40
0.5108695652173914
 40
0.5217391304347826
 40
0.5217391304347826
 40
0.5217391304347826
 40
0.5217391304347826
 40
0.532608695652174
 40
0.532608695652174
 40
0.532608695652174
 40
0.532608695652174
 40
0.5434782608695652
 40
0.5434782608695652
 40
0.5434782608695652
 40
0.5434782608695652
 40
0.5543478260869565
 40
0.5543478260869565
 40
0.5543478260869565
 40
0.5543478260869565
 40
0.5652173913043478
 40
0.5652173913043478
 40
0.5652173913043478
 40
0.5652173913043478
 40
0.5760869565217391
 40
0.5760869565217391
 40
0.5760869565217391
 40
0.5760869565217391
 40
0.5869565217391305
 40
0.5869565217391305
 40
0.5869565217391305
 40
0.5869565217391305
 40
0.5978260869565217
 40
0.5978260869565217
 40
0.5978260869565217
 40
0.5978260869565217
 40
0.6086956521739131
 40
0.6086956521739131
 40
0.6086956521739131
 40
0.6086956521739131
 40
0.6195652173913043
 40
0.6195652173913043
 40
0.6195652173913043
 40
0.6195652173913043
 40
0.6304347826086957
 40
0.6304347826086957
 40
0.6304347826086957
 40
0.6304347826086957
 40
0.6413043478260869
 40
0.6413043478260869
 40
0.6413043478260869
 40
0.6413043478260869
 40
0.6521739130434783
 40
0.6521739130434783
 40
0.6521739130434783
 40
0.6521739130434783
 40
0.6630434782608695
 40
0.6630434782608695
 40
0.6630434782608695
 40
0.6630434782608695
 40
0.6739130434782609
 40
0.6739130434782609
 40
0.6739130434782609
 40
0.6739130434782609
 40
0.6847826086956522
 40
0.6847826086956522
 40
0.6847826086956522
 40
0.6847826086956522
 40
0.6956521739130435
 40
0.6956521739130435
 40
0.6956521739130435
 40
0.6956521739130435
 40
0.7065217391304348
 40
0.7065217391304348
 40
0.7065217391304348
 40
0.7065217391304348
 40
0.717391304347826
 40
0.717391304347826
 40
0.717391304347826
 40
0.717391304347826
 40
0.7282608695652174
 40
0.7282608695652174
 40
0.7282608695652174
 40
0.7282608695652174
 40
0.7391304347826086
 40
0.7391304347826086
 40
0.7391304347826086
 40
0.7391304347826086
 40
0.75
 40
0.75
 40
0.75
 40
0.75
 40
0.7608695652173914
 40
0.7608695652173914
 40
0.7608695652173914
 40
0.7608695652173914
 40
0.7717391304347826
 40
0.7717391304347826
 40
0.7717391304347826
 40
0.7717391304347826
 40
0.782608695652174
 40
0.782608695652174
 40
0.782608695652174
 40
0.782608695652174
 40
0.7934782608695652
 40
0.7934782608695652
 40
0.7934782608695652
 40
0.7934782608695652
 40
0.8043478260869565
 40
0.8043478260869565
 40
0.8043478260869565
 40
0.8043478260869565
 40
0.8152173913043478
 40
0.8152173913043478
 40
0.8152173913043478
 40
0.8152173913043478
 40
0.8260869565217391
 40
0.8260869565217391
 40
0.8260869565217391
 40
0.8260869565217391
 40
0.8369565217391305
 40
0.8369565217391305
 40
0.8369565217391305
 40
0.8369565217391305
 40
0.8478260869565217
 40
0.8478260869565217
 40
0.8478260869565217
 40
0.8478260869565217
 40
0.8586956521739131
 40
0.8586956521739131
 40
0.8586956521739131
 40
0.8586956521739131
 40
0.8695652173913043
 40
0.8695652173913043
 40
0.8695652173913043
 40
0.8695652173913043
 40
0.8804347826086957
 40
0.8804347826086957
 40
0.8804347826086957
 40
0.8804347826086957
 40
0.8913043478260869
 40
0.8913043478260869
 40
0.8913043478260869
 40
0.8913043478260869
 40
0.9021739130434783
 40
0.9021739130434783
 40
0.9021739130434783
 40
0.9021739130434783
 40
0.9130434782608695
 40
0.9130434782608695
 40
0.9130434782608695
 40
0.9130434782608695
 40
0.9239130434782609
 40
0.9239130434782609
 40
0.9239130434782609
 40
0.9239130434782609
 40
0.9347826086956522
 40
0.9347826086956522
 40
0.9347826086956522
 40
0.9347826086956522
 40
0.9456521739130435
 40
0.9456521739130435
 40
0.9456521739130435
 40
0.9456521739130435
 40
0.9565217391304348
 40
0.9565217391304348
 40
0.9565217391304348
 40
0.9565217391304348
 40
0.967391304347826
 40
0.967391304347826
 40
0.967391304347826
 40
0.967391304347826
 40
0.9782608695652174
 40
0.9782608695652174
 40
0.9782608695652174
 40
0.9782608695652174
 40
1.0
 40
1.0
 40
1.0
 40
1.0
 10
4032.3172
 20
-873.2441
 30
0.0
 10
4032.2213
 20
-874.0199
 30
0.0
 10
4032.1153
 20
-874.7941
 30
0.0
 10
4032.0103
 20
-875.5687
 30
0.0
 10
4032.0103
 20
-875.5687
 30
0.0
 10
4032.0074
 20
-875.5897
 30
0.0
 10
4032.0047
 20
-875.6076
 30
0.0
 10
4032.0012
 20
-875.6286
 30
0.0
 10
4032.0012
 20
-875.6286
 30
0.0
 10
4031.9039
 20
-876.2126
 30
0.0
 10
4031.806
 20
-876.7992
 30
0.0
 10
4031.7286
 20
-877.3862
 30
0.0
 10
4031.7286
 20
-877.3862
 30
0.0
 10
4031.6405
 20
-878.0546
 30
0.0
 10
4031.5457
 20
-878.7929
 30
0.0
 10
4031.5457
 20
-879.4677
 30
0.0
 10
4031.5457
 20
-879.4677
 30
0.0
 10
4031.5457
 20
-879.6772
 30
0.0
 10
4031.5882
 20
-880.5348
 30
0.0
 10
4031.7705
 20
-880.6912
 30
0.0
 10
4031.7705
 20
-880.6912
 30
0.0
 10
4031.8363
 20
-880.7404
 30
0.0
 10
4032.0964
 20
-880.7524
 30
0.0
 10
4032.1711
 20
-880.7524
 30
0.0
 10
4032.1711
 20
-880.7524
 30
0.0
 10
4032.8493
 20
-880.7524
 30
0.0
 10
4033.7135
 20
-879.9006
 30
0.0
 10
4034.1252
 20
-879.4452
 30
0.0
 10
4034.1252
 20
-879.4452
 30
0.0
 10
4035.3267
 20
-878.1159
 30
0.0
 10
4036.1664
 20
-876.5022
 30
0.0
 10
4036.761
 20
-874.8214
 30
0.0
 10
4036.761
 20
-874.8214
 30
0.0
 10
4037.3817
 20
-873.0664
 30
0.0
 10
4037.8591
 20
-871.1437
 30
0.0
 10
4037.8591
 20
-869.272
 30
0.0
 10
4037.8591
 20
-869.272
 30
0.0
 10
4037.8591
 20
-869.272
 30
0.0
 10
4037.8591
 20
-868.2595
 30
0.0
 10
4037.8591
 20
-868.2595
 30
0.0
 10
4037.8591
 20
-868.2595
 30
0.0
 10
4037.8591
 20
-867.1579
 30
0.0
 10
4038.7575
 20
-866.2595
 30
0.0
 10
4039.8591
 20
-866.2595
 30
0.0
 10
4039.8591
 20
-866.2595
 30
0.0
 10
4039.8591
 20
-866.2595
 30
0.0
 10
4040.2712
 20
-866.2595
 30
0.0
 10
4040.2712
 20
-866.2595
 30
0.0
 10
4040.2712
 20
-866.2595
 30
0.0
 10
4041.3728
 20
-866.2595
 30
0.0
 10
4042.2712
 20
-867.1579
 30
0.0
 10
4042.2712
 20
-868.2595
 30
0.0
 10
4042.2712
 20
-868.2595
 30
0.0
 10
4042.2712
 20
-868.2595
 30
0.0
 10
4042.2712
 20
-869.2602
 30
0.0
 10
4042.2712
 20
-869.2602
 30
0.0
 10
4042.2712
 20
-869.2602
 30
0.0
 10
4042.2712
 20
-869.2738
 30
0.0
 10
4042.2711
 20
-869.2854
 30
0.0
 10
4042.2708
 20
-869.2991
 30
0.0
 10
4042.2708
 20
-869.2991
 30
0.0
 10
4042.1911
 20
-873.3988
 30
0.0
 10
4041.014
 20
-877.2401
 30
0.0
 10
4038.9655
 20
-880.786
 30
0.0
 10
4038.9655
 20
-880.786
 30
0.0
 10
4037.0181
 20
-884.157
 30
0.0
 10
4034.1204
 20
-886.3772
 30
0.0
 10
4030.1344
 20
-886.3772
 30
0.0
 10
4030.1344
 20
-886.3772
 30
0.0
 10
4030.1344
 20
-886.3772
 30
0.0
 10
4029.4044
 20
-886.3772
 30
0.0
 10
4029.4044
 20
-886.3772
 30
0.0
 10
4029.4044
 20
-886.3772
 30
0.0
 10
4029.363
 20
-886.3772
 30
0.0
 10
4029.3277
 20
-886.3762
 30
0.0
 10
4029.2864
 20
-886.3737
 30
0.0
 10
4029.2864
 20
-886.3737
 30
0.0
 10
4025.0846
 20
-886.1253
 30
0.0
 10
4023.8253
 20
-882.4143
 30
0.0
 10
4023.8253
 20
-878.7495
 30
0.0
 10
4023.8253
 20
-878.7495
 30
0.0
 10
4023.8253
 20
-877.4876
 30
0.0
 10
4024.0184
 20
-876.041
 30
0.0
 10
4024.1699
 20
-874.7777
 30
0.0
 10
4024.1699
 20
-874.7777
 30
0.0
 10
4024.193
 20
-874.2156
 30
0.0
 10
4024.3368
 20
-873.4513
 30
0.0
 10
4024.4095
 20
-872.9289
 30
0.0
 10
4024.4095
 20
-872.9289
 30
0.0
 10
4024.499
 20
-872.2851
 30
0.0
 10
4024.5968
 20
-871.6245
 30
0.0
 10
4024.6586
 20
-870.9774
 30
0.0
 10
4024.6586
 20
-870.9774
 30
0.0
 10
4024.6614
 20
-870.9479
 30
0.0
 10
4024.6643
 20
-870.9228
 30
0.0
 10
4024.6684
 20
-870.8934
 30
0.0
 10
4024.6684
 20
-870.8934
 30
0.0
 10
4024.6684
 20
-870.8934
 30
0.0
 10
4026.6662
 20
-856.4524
 30
0.0
 10
4026.6662
 20
-856.4524
 30
0.0
 10
4026.6662
 20
-856.4524
 30
0.0
 10
4025.9525
 20
-858.9506
 30
0.0
 10
4025.188
 20
-861.4344
 30
0.0
 10
4024.3675
 20
-863.8993
 30
0.0
 10
4024.3675
 20
-863.8993
 30
0.0
 10
4023.1113
 20
-867.6734
 30
0.0
 10
4021.6656
 20
-871.476
 30
0.0
 10
4019.877
 20
-875.0329
 30
0.0
 10
4019.877
 20
-875.0329
 30
0.0
 10
4018.3664
 20
-878.0371
 30
0.0
 10
4016.4876
 20
-881.098
 30
0.0
 10
4014.0482
 20
-883.4413
 30
0.0
 10
4014.0482
 20
-883.4413
 30
0.0
 10
4012.326
 20
-885.0957
 30
0.0
 10
4010.2104
 20
-886.3065
 30
0.0
 10
4007.765
 20
-886.3065
 30
0.0
 10
4007.765
 20
-886.3065
 30
0.0
 10
4007.2393
 20
-886.3065
 30
0.0
 10
4006.6866
 20
-886.2269
 30
0.0
 10
4006.1703
 20
-886.1328
 30
0.0
 10
4006.1703
 20
-886.1328
 30
0.0
 10
4002.3125
 20
-885.4297
 30
0.0
 10
4001.7739
 20
-880.7249
 30
0.0
 10
4001.7739
 20
-877.5486
 30
0.0
 10
4001.7739
 20
-877.5486
 30
0.0
 10
4001.7739
 20
-875.6413
 30
0.0
 10
4001.9391
 20
-873.6916
 30
0.0
 10
4002.1267
 20
-871.7944
 30
0.0
 10
4002.1267
 20
-871.7944
 30
0.0
 10
4002.3993
 20
-869.0364
 30
0.0
 10
4002.7559
 20
-866.281
 30
0.0
 10
4003.1349
 20
-863.5357
 30
0.0
 10
4003.1349
 20
-863.5357
 30
0.0
 10
4003.1349
 20
-863.5357
 30
0.0
 10
4004.052
 20
-856.8918
 30
0.0
 10
4004.052
 20
-856.8918
 30
0.0
 10
4004.052
 20
-856.8918
 30
0.0
 10
4003.1702
 20
-859.7401
 30
0.0
 10
4002.2119
 20
-862.5649
 30
0.0
 10
4001.1908
 20
-865.3655
 30
0.0
 10
4001.1908
 20
-865.3655
 30
0.0
 10
3999.1985
 20
-870.8297
 30
0.0
 10
3996.6117
 20
-876.1473
 30
0.0
 10
3993.2132
 20
-880.8813
 30
0.0
 10
3993.2132
 20
-880.8813
 30
0.0
 10
3991.1019
 20
-883.8222
 30
0.0
 10
3988.1675
 20
-886.6244
 30
0.0
 10
3984.3126
 20
-886.6244
 30
0.0
 10
3984.3126
 20
-886.6244
 30
0.0
 10
3983.6044
 20
-886.6244
 30
0.0
 10
3982.9035
 20
-886.5243
 30
0.0
 10
3982.2294
 20
-886.3086
 30
0.0
 10
3982.2294
 20
-886.3086
 30
0.0
 10
3978.3224
 20
-885.4057
 30
0.0
 10
3977.7563
 20
-880.5929
 30
0.0
 10
3977.7563
 20
-877.2661
 30
0.0
 10
3977.7563
 20
-877.2661
 30
0.0
 10
3977.7563
 20
-875.4379
 30
0.0
 10
3977.9621
 20
-873.5253
 30
0.0
 10
3978.1746
 20
-871.7105
 30
0.0
 10
3978.1746
 20
-871.7105
 30
0.0
 10
3978.5094
 20
-868.8509
 30
0.0
 10
3978.9398
 20
-865.9946
 30
0.0
 10
3979.3944
 20
-863.1519
 30
0.0
 10
3979.3944
 20
-863.1519
 30
0.0
 10
3979.3965
 20
-863.1385
 30
0.0
 10
3979.3984
 20
-863.1272
 30
0.0
 10
3979.4008
 20
-863.1139
 30
0.0
 10
3979.4008
 20
-863.1139
 30
0.0
 10
3979.4008
 20
-863.1139
 30
0.0
 10
3982.6949
 20
-844.7839
 30
0.0
 10
3982.6949
 20
-844.7839
 30
0.0
 10
3982.6949
 20
-844.7839
 30
0.0
 10
3982.9985
 20
-843.0946
 30
0.0
 10
3984.4929
 20
-835.146
 30
0.0
 10
3984.3947
 20
-832.044
 30
0.0
 10
3984.3947
 20
-832.044
 30
0.0
 10
3982.9726
 20
-833.2194
 30
0.0
 10
3980.7966
 20
-835.8275
 30
0.0
 10
3980.1982
 20
-836.5598
 30
0.0
 10
3980.1982
 20
-836.5598
 30
0.0
 10
3979.6389
 20
-837.2443
 30
0.0
 10
3978.7398
 20
-837.479
 30
0.0
 10
3977.9172
 20
-837.1553
 30
0.0
 10
3977.9172
 20
-837.1553
 30
0.0
 10
3977.9172
 20
-837.1553
 30
0.0
 10
3977.1991
 20
-836.8727
 30
0.0
 10
3977.1991
 20
-836.8727
 30
0.0
 10
3977.1991
 20
-836.8727
 30
0.0
 10
3976.6504
 20
-836.6567
 30
0.0
 10
3976.2612
 20
-836.2597
 30
0.0
 10
3976.0562
 20
-835.7068
 30
0.0
 10
3976.0562
 20
-835.7068
 30
0.0
 10
3975.8512
 20
-835.1538
 30
0.0
 10
3975.8876
 20
-834.599
 30
0.0
 10
3976.163
 20
-834.0776
 30
0.0
 10
3976.163
 20
-834.0776
 30
0.0
 10
3977.0381
 20
-832.4206
 30
0.0
 10
3978.1592
 20
-830.8166
 30
0.0
 10
3979.3529
 20
-829.3741
 30
0.0
 10
3979.3529
 20
-829.3741
 30
0.0
 10
3981.4709
 20
-826.8144
 30
0.0
 10
3985.7471
 20
-822.4861
 30
0.0
 10
3989.4659
 20
-823.7829
 30
0.0
 10
3989.4659
 20
-823.7829
 30
0.0
 10
3992.5107
 20
-824.8447
 30
0.0
 10
3992.9405
 20
-828.7207
 30
0.0
 10
3992.9276
 20
-831.4637
 30
0.0
 10
3992.9276
 20
-831.4637
 30
0.0
 10
3992.9152
 20
-834.0922
 30
0.0
 10
3992.6189
 20
-836.8068
 30
0.0
 10
3992.2845
 20
-839.4126
 30
0.0
 10
3992.2845
 20
-839.4126
 30
0.0
 10
3991.8776
 20
-842.5835
 30
0.0
 10
3991.3633
 20
-845.7464
 30
0.0
 10
3990.8097
 20
-848.8947
 30
0.0
 10
3990.8097
 20
-848.8947
 30
0.0
 10
3990.0844
 20
-853.0192
 30
0.0
 10
3989.2811
 20
-857.1294
 30
0.0
 10
3988.4598
 20
-861.2357
 30
0.0
 10
3988.4598
 20
-861.2357
 30
0.0
 10
3987.9425
 20
-863.8216
 30
0.0
 10
3987.3554
 20
-866.462
 30
0.0
 10
3986.9344
 20
-869.0619
 30
0.0
 10
3986.9344
 20
-869.0619
 30
0.0
 10
3986.6538
 20
-870.7948
 30
0.0
 10
3986.4008
 20
-872.5385
 30
0.0
 10
3986.2163
 20
-874.2845
 30
0.0
 10
3986.2163
 20
-874.2845
 30
0.0
 10
3986.0971
 20
-875.4127
 30
0.0
 10
3985.9947
 20
-876.5783
 30
0.0
 10
3985.9947
 20
-877.7135
 30
0.0
 10
3985.9947
 20
-877.7135
 30
0.0
 10
3985.9947
 20
-878.1978
 30
0.0
 10
3986.0396
 20
-879.6974
 30
0.0
 10
3986.2959
 20
-880.3049
 30
0.0
 10
3986.2959
 20
-880.3049
 30
0.0
 10
3986.3226
 20
-880.3052
 30
0.0
 10
3986.3487
 20
-880.3051
 30
0.0
 10
3986.3729
 20
-880.3051
 30
0.0
 10
3986.3729
 20
-880.3051
 30
0.0
 10
3988.0
 20
-880.3051
 30
0.0
 10
3990.0154
 20
-877.3922
 30
0.0
 10
3990.7634
 20
-876.2234
 30
0.0
 10
3990.7634
 20
-876.2234
 30
0.0
 10
3993.513
 20
-871.9266
 30
0.0
 10
3995.6418
 20
-867.1279
 30
0.0
 10
3997.3583
 20
-862.3344
 30
0.0
 10
3997.3583
 20
-862.3344
 30
0.0
 10
3999.2538
 20
-857.041
 30
0.0
 10
4000.8799
 20
-851.6431
 30
0.0
 10
4002.1556
 20
-846.1664
 30
0.0
 10
4002.1556
 20
-846.1664
 30
0.0
 10
4002.1556
 20
-846.1664
 30
0.0
 10
4006.331
 20
-828.2421
 30
0.0
 10
4006.331
 20
-828.2421
 30
0.0
 10
4006.331
 20
-828.2421
 30
0.0
 10
4006.5875
 20
-827.0489
 30
0.0
 10
4007.1695
 20
-825.9984
 30
0.0
 10
4007.9722
 20
-825.0841
 30
0.0
 10
4007.9722
 20
-825.0841
 30
0.0
 10
4008.8998
 20
-824.0004
 30
0.0
 10
4010.1693
 20
-823.4635
 30
0.0
 10
4011.5914
 20
-823.4635
 30
0.0
 10
4011.5914
 20
-823.4635
 30
0.0
 10
4011.5914
 20
-823.4635
 30
0.0
 10
4011.7327
 20
-823.4635
 30
0.0
 10
4011.7327
 20
-823.4635
 30
0.0
 10
4011.7327
 20
-823.4635
 30
0.0
 10
4011.8125
 20
-823.4635
 30
0.0
 10
4011.8805
 20
-823.4674
 30
0.0
 10
4011.9598
 20
-823.4764
 30
0.0
 10
4011.9598
 20
-823.4764
 30
0.0
 10
4014.6343
 20
-823.7821
 30
0.0
 10
4015.6691
 20
-826.2298
 30
0.0
 10
4015.9229
 20
-828.5936
 30
0.0
 10
4015.9229
 20
-828.5936
 30
0.0
 10
4015.9492
 20
-828.8391
 30
0.0
 10
4015.9344
 20
-829.0529
 30
0.0
 10
4015.8745
 20
-829.2924
 30
0.0
 10
4015.8745
 20
-829.2924
 30
0.0
 10
4015.8381
 20
-829.438
 30
0.0
 10
4015.7824
 20
-829.643
 30
0.0
 10
4015.7693
 20
-829.7945
 30
0.0
 10
4015.7693
 20
-829.7945
 30
0.0
 10
4015.7684
 20
-829.8906
 30
0.0
 10
4015.7615
 20
-829.975
 30
0.0
 10
4015.7469
 20
-830.0719
 30
0.0
 10
4015.7469
 20
-830.0719
 30
0.0
 10
4015.7469
 20
-830.0719
 30
0.0
 10
4014.9143
 20
-835.5713
 30
0.0
 10
4014.9143
 20
-835.5713
 30
0.0
 10
4014.9143
 20
-835.5713
 30
0.0
 10
4014.9143
 20
-835.5713
 30
0.0
 10
4010.2815
 20
-871.6375
 30
0.0
 10
4010.2815
 20
-871.6375
 30
0.0
 10
4010.2815
 20
-871.6375
 30
0.0
 10
4010.2636
 20
-872.4454
 30
0.0
 10
4010.0982
 20
-873.3836
 30
0.0
 10
4009.9771
 20
-874.1686
 30
0.0
 10
4009.9771
 20
-874.1686
 30
0.0
 10
4009.8099
 20
-875.2526
 30
0.0
 10
4009.7297
 20
-876.346
 30
0.0
 10
4009.7297
 20
-877.4427
 30
0.0
 10
4009.7297
 20
-877.4427
 30
0.0
 10
4009.7297
 20
-877.9059
 30
0.0
 10
4009.7817
 20
-879.3884
 30
0.0
 10
4010.0603
 20
-879.9478
 30
0.0
 10
4010.0603
 20
-879.9478
 30
0.0
 10
4010.7631
 20
-879.8091
 30
0.0
 10
4011.7229
 20
-878.794
 30
0.0
 10
4012.1066
 20
-878.3498
 30
0.0
 10
4012.1066
 20
-878.3498
 30
0.0
 10
4013.6854
 20
-876.5221
 30
0.0
 10
4015.0217
 20
-874.0192
 30
0.0
 10
4016.084
 20
-871.8616
 30
0.0
 10
4016.084
 20
-871.8616
 30
0.0
 10
4017.4999
 20
-868.9859
 30
0.0
 10
4018.8111
 20
-866.0488
 30
0.0
 10
4019.9383
 20
-863.0472
 30
0.0
 10
4019.9383
 20
-863.0472
 30
0.0
 10
4020.9478
 20
-860.3588
 30
0.0
 10
4021.8228
 20
-857.6183
 30
0.0
 10
4022.5284
 20
-854.8343
 30
0.0
 10
4022.5284
 20
-854.8343
 30
0.0
 10
4022.5284
 20
-854.8343
 30
0.0
 10
4028.5289
 20
-829.3147
 30
0.0
 10
4028.5289
 20
-829.3147
 30
0.0
 10
4028.5289
 20
-829.3147
 30
0.0
 10
4028.817
 20
-828.0893
 30
0.0
 10
4029.1828
 20
-826.769
 30
0.0
 10
4029.7293
 20
-825.6294
 30
0.0
 10
4029.7293
 20
-825.6294
 30
0.0
 10
4030.3927
 20
-824.1313
 30
0.0
 10
4031.7654
 20
-823.3713
 30
0.0
 10
4033.3709
 20
-823.2567
 30
0.0
 10
4033.3709
 20
-823.2567
 30
0.0
 10
4033.4207
 20
-823.2531
 30
0.0
 10
4033.4633
 20
-823.2516
 30
0.0
 10
4033.5133
 20
-823.2516
 30
0.0
 10
4033.5133
 20
-823.2516
 30
0.0
 10
4037.0664
 20
-823.2516
 30
0.0
 10
4038.1954
 20
-826.6567
 30
0.0
 10
4038.4046
 20
-829.6322
 30
0.0
 10
4038.4046
 20
-829.6322
 30
0.0
 10
4038.4149
 20
-829.7789
 30
0.0
 10
4038.4105
 20
-829.9049
 30
0.0
 10
4038.3901
 20
-830.0505
 30
0.0
 10
4038.3901
 20
-830.0505
 30
0.0
 10
4038.3291
 20
-830.4849
 30
0.0
 10
4038.2683
 20
-830.958
 30
0.0
 10
4038.2683
 20
-831.3972
 30
0.0
 10
4038.2683
 20
-831.3972
 30
0.0
 10
4038.2683
 20
-831.498
 30
0.0
 10
4038.2621
 20
-831.5839
 30
0.0
 10
4038.2477
 20
-831.6837
 30
0.0
 10
4038.2477
 20
-831.6837
 30
0.0
 10
4038.2477
 20
-831.6837
 30
0.0
 10
4037.4594
 20
-837.1302
 30
0.0
 10
4037.4594
 20
-837.1302
 30
0.0
 10
4037.4594
 20
-837.1302
 30
0.0
 10
4037.4594
 20
-837.1302
 30
0.0
 10
4032.3172
 20
-873.2441
 30
0.0
 10
4032.3172
 20
-873.2441
 30
0.0
  0
SPLINE
  5
64
330
1F
100
AcDbEntity
  8
Layer 1
370
     9
100
AcDbSpline
210
0.0
220
0.0
230
1.0
 70
    11
 71
     3
 72
   108
 73
   104
 74
     0
 42
0.0000000001
 43
0.0000000001
 12
1.0
 22
0.0
 32
0.0
 13
1.0
 23
0.0
 33
0.0
 40
0.0
 40
0.0
 40
0.0
 40
0.0
 40
0.037037037037037
 40
0.037037037037037
 40
0.037037037037037
 40
0.037037037037037
 40
0.0740740740740741
 40
0.0740740740740741
 40
0.0740740740740741
 40
0.0740740740740741
 40
0.1111111111111111
 40
0.1111111111111111
 40
0.1111111111111111
 40
0.1111111111111111
 40
0.1481481481481481
 40
0.1481481481481481
 40
0.1481481481481481
 40
0.1481481481481481
 40
0.1851851851851852
 40
0.1851851851851852
 40
0.1851851851851852
 40
0.1851851851851852
 40
0.2222222222222222
 40
0.2222222222222222
 40
0.2222222222222222
 40
0.2222222222222222
 40
0.2592592592592592
 40
0.2592592592592592
 40
0.2592592592592592
 40
0.2592592592592592
 40
0.2962962962962963
 40
0.2962962962962963
 40
0.2962962962962963
 40
0.2962962962962963
 40
0.3333333333333333
 40
0.3333333333333333
 40
0.3333333333333333
 40
0.3333333333333333
 40
0.3703703703703703
 40
0.3703703703703703
 40
0.3703703703703703
 40
0.3703703703703703
 40
0.4074074074074074
 40
0.4074074074074074
 40
0.4074074074074074
 40
0.4074074074074074
 40
0.4444444444444444
 40
0.4444444444444444
 40
0.4444444444444444
 40
0.4444444444444444
 40
0.4814814814814815
 40
0.4814814814814815
 40
0.4814814814814815
 40
0.4814814814814815
 40
0.5185185185185185
 40
0.5185185185185185
 40
0.5185185185185185
 40
0.5185185185185185
 40
0.5555555555555556
 40
0.5555555555555556
 40
0.5555555555555556
 40
0.5555555555555556
 40
0.5925925925925926
 40
0.5925925925925926
 40
0.5925925925925926
 40
0.5925925925925926
 40
0.6296296296296297
 40
0.6296296296296297
 40
0.6296296296296297
 40
0.6296296296296297
 40
0.6666666666666666
 40
0.6666666666666666
 40
0.6666666666666666
 40
0.6666666666666666
 40
0.7037037037037037
 40
0.7037037037037037
 40
0.7037037037037037
 40
0.7037037037037037
 40
0.7407407407407407
 40
0.7407407407407407
 40
0.7407407407407407
 40
0.7407407407407407
 40
0.7777777777777778
 40
0.7777777777777778
 40
0.7777777777777778
 40
0.7777777777777778
 40
0.8148148148148148
 40
0.8148148148148148
 40
0.8148148148148148
 40
0.8148148148148148
 40
0.8518518518518519
 40
0.8518518518518519
 40
0.8518518518518519
 40
0.8518518518518519
 40
0.8888888888888888
 40
0.8888888888888888
 40
0.8888888888888888
 40
0.8888888888888888
 40
0.9259259259259259
 40
0.9259259259259259
 40
0.9259259259259259
 40
0.9259259259259259
 40
1.0
 40
1.0
 40
1.0
 40
1.0
 10
4063.4428
 20
-830.075
 30
0.0
 10
4063.4428
 20
-830.075
 30
0.0
 10
4055.8992
 20
-881.4284
 30
0.0
 10
4055.8992
 20
-881.4284
 30
0.0
 10
4055.8992
 20
-881.4284
 30
0.0
 10
4056.9666
 20
-881.3186
 30
0.0
 10
4058.0334
 20
-881.1873
 30
0.0
 10
4059.0973
 20
-881.0512
 30
0.0
 10
4059.0973
 20
-881.0512
 30
0.0
 10
4059.6879
 20
-880.9756
 30
0.0
 10
4060.2257
 20
-881.1403
 30
0.0
 10
4060.6726
 20
-881.5337
 30
0.0
 10
4060.6726
 20
-881.5337
 30
0.0
 10
4061.1195
 20
-881.9271
 30
0.0
 10
4061.3512
 20
-882.4396
 30
0.0
 10
4061.3512
 20
-883.035
 30
0.0
 10
4061.3512
 20
-883.035
 30
0.0
 10
4061.3512
 20
-883.035
 30
0.0
 10
4061.3512
 20
-883.4588
 30
0.0
 10
4061.3512
 20
-883.4588
 30
0.0
 10
4061.3512
 20
-883.4588
 30
0.0
 10
4061.3512
 20
-884.429
 30
0.0
 10
4060.6769
 20
-885.2431
 30
0.0
 10
4059.7238
 20
-885.4238
 30
0.0
 10
4059.7238
 20
-885.4238
 30
0.0
 10
4057.2749
 20
-885.8881
 30
0.0
 10
4054.7814
 20
-886.1652
 30
0.0
 10
4052.2872
 20
-886.1652
 30
0.0
 10
4052.2872
 20
-886.1652
 30
0.0
 10
4049.1459
 20
-886.1652
 30
0.0
 10
4046.0348
 20
-885.7556
 30
0.0
 10
4042.9875
 20
-884.9997
 30
0.0
 10
4042.9875
 20
-884.9997
 30
0.0
 10
4041.9235
 20
-884.7357
 30
0.0
 10
4041.2684
 20
-883.6576
 30
0.0
 10
4041.5243
 20
-882.5916
 30
0.0
 10
4041.5243
 20
-882.5916
 30
0.0
 10
4041.5243
 20
-882.5916
 30
0.0
 10
4041.6656
 20
-882.003
 30
0.0
 10
4041.6656
 20
-882.003
 30
0.0
 10
4041.6656
 20
-882.003
 30
0.0
 10
4041.7956
 20
-881.4613
 30
0.0
 10
4042.1031
 20
-881.0421
 30
0.0
 10
4042.5807
 20
-880.7553
 30
0.0
 10
4042.5807
 20
-880.7553
 30
0.0
 10
4043.0584
 20
-880.4685
 30
0.0
 10
4043.5729
 20
-880.3941
 30
0.0
 10
4044.1122
 20
-880.5339
 30
0.0
 10
4044.1122
 20
-880.5339
 30
0.0
 10
4045.2263
 20
-880.8227
 30
0.0
 10
4046.5535
 20
-881.1478
 30
0.0
 10
4047.8225
 20
-881.3253
 30
0.0
 10
4047.8225
 20
-881.3253
 30
0.0
 10
4047.8225
 20
-881.3253
 30
0.0
 10
4055.3246
 20
-829.9389
 30
0.0
 10
4055.3246
 20
-829.9389
 30
0.0
 10
4055.3246
 20
-829.9389
 30
0.0
 10
4055.2332
 20
-829.9233
 30
0.0
 10
4055.1424
 20
-829.9077
 30
0.0
 10
4055.0524
 20
-829.8923
 30
0.0
 10
4055.0524
 20
-829.8923
 30
0.0
 10
4053.7428
 20
-829.6673
 30
0.0
 10
4052.4363
 20
-829.4074
 30
0.0
 10
4051.1344
 20
-829.1421
 30
0.0
 10
4051.1344
 20
-829.1421
 30
0.0
 10
4050.0707
 20
-828.9254
 30
0.0
 10
4049.373
 20
-827.8963
 30
0.0
 10
4049.5654
 20
-826.828
 30
0.0
 10
4049.5654
 20
-826.828
 30
0.0
 10
4049.5654
 20
-826.828
 30
0.0
 10
4049.6714
 20
-826.2393
 30
0.0
 10
4049.6714
 20
-826.2393
 30
0.0
 10
4049.6714
 20
-826.2393
 30
0.0
 10
4049.8665
 20
-825.1553
 30
0.0
 10
4050.9097
 20
-824.4303
 30
0.0
 10
4051.9937
 20
-824.6253
 30
0.0
 10
4051.9937
 20
-824.6253
 30
0.0
 10
4054.4197
 20
-825.0615
 30
0.0
 10
4056.8846
 20
-825.3237
 30
0.0
 10
4059.3512
 20
-825.3237
 30
0.0
 10
4059.3512
 20
-825.3237
 30
0.0
 10
4061.9081
 20
-825.3237
 30
0.0
 10
4064.5051
 20
-825.0263
 30
0.0
 10
4067.0266
 20
-824.6193
 30
0.0
 10
4067.0266
 20
-824.6193
 30
0.0
 10
4067.6257
 20
-824.5225
 30
0.0
 10
4068.1799
 20
-824.6775
 30
0.0
 10
4068.642
 20
-825.071
 30
0.0
 10
4068.642
 20
-825.071
 30
0.0
 10
4069.104
 20
-825.4644
 30
0.0
 10
4069.3453
 20
-825.9868
 30
0.0
 10
4069.3453
 20
-826.5937
 30
0.0
 10
4069.3453
 20
-826.5937
 30
0.0
 10
4069.3453
 20
-826.5937
 30
0.0
 10
4069.3453
 20
-827.1824
 30
0.0
 10
4069.3453
 20
-827.1824
 30
0.0
 10
4069.3453
 20
-827.1824
 30
0.0
 10
4069.3453
 20
-828.081
 30
0.0
 10
4068.7773
 20
-828.8428
 30
0.0
 10
4067.916
 20
-829.0992
 30
0.0
 10
4067.916
 20
-829.0992
 30
0.0
 10
4066.461
 20
-829.5325
 30
0.0
 10
4064.9583
 20
-829.8838
 30
0.0
 10
4063.4428
 20
-830.075
 30
0.0
  0
SPLINE
  5
65
330
1F
100
AcDbEntity
  8
Layer 1
370
     9
100
AcDbSpline
210
0.0
220
0.0
230
1.0
 70
    11
 71
     3
 72
    48
 73
    44
 74
     0
 42
0.0000000001
 43
0.0000000001
 12
1.0
 22
0.0
 32
0.0
 13
1.0
 23
0.0
 33
0.0
 40
0.0
 40
0.0
 40
0.0
 40
0.0
 40
0.0833333333333333
 40
0.0833333333333333
 40
0.0833333333333333
 40
0.0833333333333333
 40
0.1666666666666667
 40
0.1666666666666667
 40
0.1666666666666667
 40
0.1666666666666667
 40
0.25
 40
0.25
 40
0.25
 40
0.25
 40
0.3333333333333333
 40
0.3333333333333333
 40
0.3333333333333333
 40
0.3333333333333333
 40
0.4166666666666667
 40
0.4166666666666667
 40
0.4166666666666667
 40
0.4166666666666667
 40
0.5
 40
0.5
 40
0.5
 40
0.5
 40
0.5833333333333334
 40
0.5833333333333334
 40
0.5833333333333334
 40
0.5833333333333334
 40
0.6666666666666666
 40
0.6666666666666666
 40
0.6666666666666666
 40
0.6666666666666666
 40
0.75
 40
0.75
 40
0.75
 40
0.75
 40
0.8333333333333334
 40
0.8333333333333334
 40
0.8333333333333334
 40
0.8333333333333334
 40
1.0
 40
1.0
 40
1.0
 40
1.0
 10
4079.0703
 20
-884.6696
 30
0.0
 10
4078.8814
 20
-881.9239
 30
0.0
 10
4079.3232
 20
-878.5772
 30
0.0
 10
4079.7262
 20
-876.619
 30
0.0
 10
4079.7262
 20
-876.619
 30
0.0
 10
4079.8763
 20
-875.89
 30
0.0
 10
4079.6379
 20
-875.1887
 30
0.0
 10
4079.0746
 20
-874.7022
 30
0.0
 10
4079.0746
 20
-874.7022
 30
0.0
 10
4079.0746
 20
-874.7022
 30
0.0
 10
4078.5566
 20
-874.2548
 30
0.0
 10
4078.5566
 20
-874.2548
 30
0.0
 10
4078.5566
 20
-874.2548
 30
0.0
 10
4078.0206
 20
-873.7919
 30
0.0
 10
4077.3402
 20
-873.6487
 30
0.0
 10
4076.6631
 20
-873.8562
 30
0.0
 10
4076.6631
 20
-873.8562
 30
0.0
 10
4075.986
 20
-874.0638
 30
0.0
 10
4075.5027
 20
-874.5638
 30
0.0
 10
4075.3183
 20
-875.2475
 30
0.0
 10
4075.3183
 20
-875.2475
 30
0.0
 10
4074.5964
 20
-877.924
 30
0.0
 10
4074.3217
 20
-881.3086
 30
0.0
 10
4074.3631
 20
-884.0696
 30
0.0
 10
4074.3631
 20
-884.0696
 30
0.0
 10
4074.4162
 20
-887.6177
 30
0.0
 10
4075.0413
 20
-892.6972
 30
0.0
 10
4078.3759
 20
-894.7386
 30
0.0
 10
4078.3759
 20
-894.7386
 30
0.0
 10
4079.2973
 20
-895.3026
 30
0.0
 10
4080.3277
 20
-895.5696
 30
0.0
 10
4081.4053
 20
-895.5696
 30
0.0
 10
4081.4053
 20
-895.5696
 30
0.0
 10
4084.5709
 20
-895.5696
 30
0.0
 10
4086.9605
 20
-892.6201
 30
0.0
 10
4086.4898
 20
-889.5472
 30
0.0
 10
4086.4898
 20
-889.5472
 30
0.0
 10
4086.2233
 20
-887.8067
 30
0.0
 10
4085.1817
 20
-886.2973
 30
0.0
 10
4083.7004
 20
-885.362
 30
0.0
 10
4083.7004
 20
-885.362
 30
0.0
 10
4082.3393
 20
-884.5025
 30
0.0
 10
4080.6201
 20
-884.1572
 30
0.0
 10
4079.0703
 20
-884.6696
 30
0.0
  0
SPLINE
  5
66
330
1F
100
AcDbEntity
  8
Layer 1
370
     9
100
AcDbSpline
210
0.0
220
0.0
230
1.0
 70
    11
 71
     3
 72
   168
 73
   164
 74
     0
 42
0.0000000001
 43
0.0000000001
 12
1.0
 22
0.0
 32
0.0
 13
1.0
 23
0.0
 33
0.0
 40
0.0
 40
0.0
 40
0.0
 40
0.0
 40
0.0238095238095238
 40
0.0238095238095238
 40
0.0238095238095238
 40
0.0238095238095238
 40
0.0476190476190476
 40
0.0476190476190476
 40
0.0476190476190476
 40
0.0476190476190476
 40
0.0714285714285714
 40
0.0714285714285714
 40
0.0714285714285714
 40
0.0714285714285714
 40
0.0952380952380952
 40
0.0952380952380952
 40
0.0952380952380952
 40
0.0952380952380952
 40
0.119047619047619
 40
0.119047619047619
 40
0.119047619047619
 40
0.119047619047619
 40
0.1428571428571428
 40
0.1428571428571428
 40
0.1428571428571428
 40
0.1428571428571428
 40
0.1666666666666667
 40
0.1666666666666667
 40
0.1666666666666667
 40
0.1666666666666667
 40
0.1904761904761905
 40
0.1904761904761905
 40
0.1904761904761905
 40
0.1904761904761905
 40
0.2142857142857143
 40
0.2142857142857143
 40
0.2142857142857143
 40
0.2142857142857143
 40
0.2380952380952381
 40
0.2380952380952381
 40
0.2380952380952381
 40
0.2380952380952381
 40
0.2619047619047619
 40
0.2619047619047619
 40
0.2619047619047619
 40
0.2619047619047619
 40
0.2857142857142857
 40
0.2857142857142857
 40
0.2857142857142857
 40
0.2857142857142857
 40
0.3095238095238095
 40
0.3095238095238095
 40
0.3095238095238095
 40
0.3095238095238095
 40
0.3333333333333333
 40
0.3333333333333333
 40
0.3333333333333333
 40
0.3333333333333333
 40
0.3571428571428572
 40
0.3571428571428572
 40
0.3571428571428572
 40
0.3571428571428572
 40
0.3809523809523809
 40
0.3809523809523809
 40
0.3809523809523809
 40
0.3809523809523809
 40
0.4047619047619048
 40
0.4047619047619048
 40
0.4047619047619048
 40
0.4047619047619048
 40
0.4285714285714285
 40
0.4285714285714285
 40
0.4285714285714285
 40
0.4285714285714285
 40
0.4523809523809524
 40
0.4523809523809524
 40
0.4523809523809524
 40
0.4523809523809524
 40
0.4761904761904762
 40
0.4761904761904762
 40
0.4761904761904762
 40
0.4761904761904762
 40
0.5
 40
0.5
 40
0.5
 40
0.5
 40
0.5238095238095238
 40
0.5238095238095238
 40
0.5238095238095238
 40
0.5238095238095238
 40
0.5476190476190477
 40
0.5476190476190477
 40
0.5476190476190477
 40
0.5476190476190477
 40
0.5714285714285714
 40
0.5714285714285714
 40
0.5714285714285714
 40
0.5714285714285714
 40
0.5952380952380952
 40
0.5952380952380952
 40
0.5952380952380952
 40
0.5952380952380952
 40
0.6190476190476191
 40
0.6190476190476191
 40
0.6190476190476191
 40
0.6190476190476191
 40
0.6428571428571429
 40
0.6428571428571429
 40
0.6428571428571429
 40
0.6428571428571429
 40
0.6666666666666666
 40
0.6666666666666666
 40
0.6666666666666666
 40
0.6666666666666666
 40
0.6904761904761905
 40
0.6904761904761905
 40
0.6904761904761905
 40
0.6904761904761905
 40
0.7142857142857143
 40
0.7142857142857143
 40
0.7142857142857143
 40
0.7142857142857143
 40
0.7380952380952381
 40
0.7380952380952381
 40
0.7380952380952381
 40
0.7380952380952381
 40
0.7619047619047619
 40
0.7619047619047619
 40
0.7619047619047619
 40
0.7619047619047619
 40
0.7857142857142857
 40
0.7857142857142857
 40
0.7857142857142857
 40
0.7857142857142857
 40
0.8095238095238095
 40
0.8095238095238095
 40
0.8095238095238095
 40
0.8095238095238095
 40
0.8333333333333334
 40
0.8333333333333334
 40
0.8333333333333334
 40
0.8333333333333334
 40
0.8571428571428571
 40
0.8571428571428571
 40
0.8571428571428571
 40
0.8571428571428571
 40
0.8809523809523809
 40
0.8809523809523809
 40
0.8809523809523809
 40
0.8809523809523809
 40
0.9047619047619048
 40
0.9047619047619048
 40
0.9047619047619048
 40
0.9047619047619048
 40
0.9285714285714286
 40
0.9285714285714286
 40
0.9285714285714286
 40
0.9285714285714286
 40
0.9523809523809523
 40
0.9523809523809523
 40
0.9523809523809523
 40
0.9523809523809523
 40
1.0
 40
1.0
 40
1.0
 40
1.0
 10
4098.0948
 20
-832.0684
 30
0.0
 10
4097.4566
 20
-832.4606
 30
0.0
 10
4096.815
 20
-832.9815
 30
0.0
 10
4096.2706
 20
-833.4384
 30
0.0
 10
4096.2706
 20
-833.4384
 30
0.0
 10
4095.0572
 20
-834.4568
 30
0.0
 10
4093.9006
 20
-835.5715
 30
0.0
 10
4092.7833
 20
-836.6936
 30
0.0
 10
4092.7833
 20
-836.6936
 30
0.0
 10
4092.3907
 20
-837.0879
 30
0.0
 10
4091.9107
 20
-837.2857
 30
0.0
 10
4091.3542
 20
-837.2824
 30
0.0
 10
4091.3542
 20
-837.2824
 30
0.0
 10
4090.7978
 20
-837.2791
 30
0.0
 10
4090.3201
 20
-837.0756
 30
0.0
 10
4089.9322
 20
-836.6767
 30
0.0
 10
4089.9322
 20
-836.6767
 30
0.0
 10
4089.9322
 20
-836.6767
 30
0.0
 10
4089.5201
 20
-836.2529
 30
0.0
 10
4089.5201
 20
-836.2529
 30
0.0
 10
4089.5201
 20
-836.2529
 30
0.0
 10
4089.1325
 20
-835.8543
 30
0.0
 10
4088.9425
 20
-835.3716
 30
0.0
 10
4088.9545
 20
-834.8157
 30
0.0
 10
4088.9545
 20
-834.8157
 30
0.0
 10
4088.9664
 20
-834.2599
 30
0.0
 10
4089.1769
 20
-833.7858
 30
0.0
 10
4089.5812
 20
-833.4042
 30
0.0
 10
4089.5812
 20
-833.4042
 30
0.0
 10
4089.5812
 20
-833.4042
 30
0.0
 10
4098.8115
 20
-824.6919
 30
0.0
 10
4098.8115
 20
-824.6919
 30
0.0
 10
4098.8115
 20
-824.6919
 30
0.0
 10
4099.2249
 20
-824.3016
 30
0.0
 10
4099.7249
 20
-824.1185
 30
0.0
 10
4100.2925
 20
-824.1492
 30
0.0
 10
4100.2925
 20
-824.1492
 30
0.0
 10
4104.0672
 20
-824.3538
 30
0.0
 10
4107.8441
 20
-824.5469
 30
0.0
 10
4111.6213
 20
-824.6983
 30
0.0
 10
4111.6213
 20
-824.6983
 30
0.0
 10
4113.8212
 20
-824.7866
 30
0.0
 10
4116.0428
 20
-824.8763
 30
0.0
 10
4118.2446
 20
-824.8763
 30
0.0
 10
4118.2446
 20
-824.8763
 30
0.0
 10
4122.1936
 20
-824.8763
 30
0.0
 10
4126.1607
 20
-824.717
 30
0.0
 10
4130.0887
 20
-824.2988
 30
0.0
 10
4130.0887
 20
-824.2988
 30
0.0
 10
4130.6734
 20
-824.2366
 30
0.0
 10
4131.2005
 20
-824.4073
 30
0.0
 10
4131.6377
 20
-824.8004
 30
0.0
 10
4131.6377
 20
-824.8004
 30
0.0
 10
4132.0749
 20
-825.1936
 30
0.0
 10
4132.3004
 20
-825.6996
 30
0.0
 10
4132.3004
 20
-826.2876
 30
0.0
 10
4132.3004
 20
-826.2876
 30
0.0
 10
4132.3004
 20
-826.2876
 30
0.0
 10
4132.3004
 20
-827.1824
 30
0.0
 10
4132.3004
 20
-827.1824
 30
0.0
 10
4132.3004
 20
-827.1824
 30
0.0
 10
4132.3004
 20
-827.6988
 30
0.0
 10
4132.1291
 20
-828.1429
 30
0.0
 10
4131.7823
 20
-828.5255
 30
0.0
 10
4131.7823
 20
-828.5255
 30
0.0
 10
4129.3288
 20
-831.2325
 30
0.0
 10
4126.832
 20
-834.4223
 30
0.0
 10
4125.3489
 20
-837.7849
 30
0.0
 10
4125.3489
 20
-837.7849
 30
0.0
 10
4124.3474
 20
-840.0556
 30
0.0
 10
4123.246
 20
-842.8076
 30
0.0
 10
4122.8708
 20
-845.2728
 30
0.0
 10
4122.8708
 20
-845.2728
 30
0.0
 10
4122.6304
 20
-846.8524
 30
0.0
 10
4122.4288
 20
-848.4457
 30
0.0
 10
4122.2159
 20
-850.0295
 30
0.0
 10
4122.2159
 20
-850.0295
 30
0.0
 10
4121.7951
 20
-853.1597
 30
0.0
 10
4121.3733
 20
-856.2896
 30
0.0
 10
4120.9442
 20
-859.4187
 30
0.0
 10
4120.9442
 20
-859.4187
 30
0.0
 10
4120.1713
 20
-865.054
 30
0.0
 10
4118.7152
 20
-872.8374
 30
0.0
 10
4115.5345
 20
-877.6607
 30
0.0
 10
4115.5345
 20
-877.6607
 30
0.0
 10
4114.0778
 20
-879.8698
 30
0.0
 10
4111.687
 20
-881.8122
 30
0.0
 10
4109.5445
 20
-883.3262
 30
0.0
 10
4109.5445
 20
-883.3262
 30
0.0
 10
4106.4793
 20
-885.4921
 30
0.0
 10
4103.0031
 20
-886.5184
 30
0.0
 10
4099.2542
 20
-886.5184
 30
0.0
 10
4099.2542
 20
-886.5184
 30
0.0
 10
4097.2897
 20
-886.5184
 30
0.0
 10
4095.2028
 20
-886.2832
 30
0.0
 10
4093.4288
 20
-885.3841
 30
0.0
 10
4093.4288
 20
-885.3841
 30
0.0
 10
4091.5189
 20
-884.416
 30
0.0
 10
4090.5081
 20
-882.6915
 30
0.0
 10
4090.5081
 20
-880.5626
 30
0.0
 10
4090.5081
 20
-880.5626
 30
0.0
 10
4090.5081
 20
-880.5626
 30
0.0
 10
4090.5081
 20
-880.1505
 30
0.0
 10
4090.5081
 20
-880.1505
 30
0.0
 10
4090.5081
 20
-880.1505
 30
0.0
 10
4090.5081
 20
-877.1196
 30
0.0
 10
4092.3736
 20
-874.6656
 30
0.0
 10
4095.5338
 20
-874.6656
 30
0.0
 10
4095.5338
 20
-874.6656
 30
0.0
 10
4095.5338
 20
-874.6656
 30
0.0
 10
4095.6751
 20
-874.6656
 30
0.0
 10
4095.6751
 20
-874.6656
 30
0.0
 10
4095.6751
 20
-874.6656
 30
0.0
 10
4097.1223
 20
-874.6656
 30
0.0
 10
4098.3633
 20
-875.3044
 30
0.0
 10
4099.397
 20
-876.2884
 30
0.0
 10
4099.397
 20
-876.2884
 30
0.0
 10
4100.4655
 20
-877.3056
 30
0.0
 10
4101.1747
 20
-878.5561
 30
0.0
 10
4101.2515
 20
-880.0475
 30
0.0
 10
4101.2515
 20
-880.0475
 30
0.0
 10
4101.2807
 20
-880.614
 30
0.0
 10
4101.1506
 20
-881.1578
 30
0.0
 10
4100.9395
 20
-881.6737
 30
0.0
 10
4100.9395
 20
-881.6737
 30
0.0
 10
4101.9394
 20
-881.5674
 30
0.0
 10
4102.9154
 20
-881.3311
 30
0.0
 10
4103.8563
 20
-880.9337
 30
0.0
 10
4103.8563
 20
-880.9337
 30
0.0
 10
4105.8103
 20
-880.1082
 30
0.0
 10
4107.1847
 20
-878.4766
 30
0.0
 10
4108.1725
 20
-876.6459
 30
0.0
 10
4108.1725
 20
-876.6459
 30
0.0
 10
4109.5051
 20
-874.1763
 30
0.0
 10
4110.4096
 20
-871.5261
 30
0.0
 10
4111.0178
 20
-868.7908
 30
0.0
 10
4111.0178
 20
-868.7908
 30
0.0
 10
4111.8136
 20
-865.2113
 30
0.0
 10
4112.3796
 20
-861.5626
 30
0.0
 10
4112.8466
 20
-857.9267
 30
0.0
 10
4112.8466
 20
-857.9267
 30
0.0
 10
4112.8466
 20
-857.9267
 30
0.0
 10
4113.6707
 20
-851.5103
 30
0.0
 10
4113.6707
 20
-851.5103
 30
0.0
 10
4113.6707
 20
-851.5103
 30
0.0
 10
4114.1805
 20
-847.541
 30
0.0
 10
4115.1052
 20
-843.4922
 30
0.0
 10
4116.7649
 20
-839.8361
 30
0.0
 10
4116.7649
 20
-839.8361
 30
0.0
 10
4117.8947
 20
-837.3472
 30
0.0
 10
4119.4151
 20
-834.9146
 30
0.0
 10
4121.0523
 20
-832.6202
 30
0.0
 10
4121.0523
 20
-832.6202
 30
0.0
 10
4121.0523
 20
-832.6202
 30
0.0
 10
4119.7869
 20
-832.6202
 30
0.0
 10
4119.7869
 20
-832.6202
 30
0.0
 10
4119.7869
 20
-832.6202
 30
0.0
 10
4115.3624
 20
-832.6202
 30
0.0
 10
4110.9373
 20
-832.5337
 30
0.0
 10
4106.5167
 20
-832.3476
 30
0.0
 10
4106.5167
 20
-832.3476
 30
0.0
 10
4103.729
 20
-832.2303
 30
0.0
 10
4100.8901
 20
-832.0851
 30
0.0
 10
4098.0948
 20
-832.0684
 30
0.0
  0
SPLINE
  5
67
330
1F
100
AcDbEntity
  8
Layer 1
370
     9
100
AcDbSpline
210
0.0
220
0.0
230
1.0
 70
    11
 71
     3
 72
    40
 73
    36
 74
     0
 42
0.0000000001
 43
0.0000000001
 12
1.0
 22
0.0
 32
0.0
 13
1.0
 23
0.0
 33
0.0
 40
0.0
 40
0.0
 40
0.0
 40
0.0
 40
0.1
 40
0.1
 40
0.1
 40
0.1
 40
0.2
 40
0.2
 40
0.2
 40
0.2
 40
0.3
 40
0.3
 40
0.3
 40
0.3
 40
0.4
 40
0.4
 40
0.4
 40
0.4
 40
0.5
 40
0.5
 40
0.5
 40
0.5
 40
0.6
 40
0.6
 40
0.6
 40
0.6
 40
0.7
 40
0.7
 40
0.7
 40
0.7
 40
0.8
 40
0.8
 40
0.8
 40
0.8
 40
1.0
 40
1.0
 40
1.0
 40
1.0
 10
4165.0629
 20
-852.6348
 30
0.0
 10
4165.0629
 20
-852.6348
 30
0.0
 10
4146.5897
 20
-852.6348
 30
0.0
 10
4146.5897
 20
-852.6348
 30
0.0
 10
4146.5897
 20
-852.6348
 30
0.0
 10
4146.5897
 20
-852.6348
 30
0.0
 10
4143.9216
 20
-869.7796
 30
0.0
 10
4143.9216
 20
-869.7796
 30
0.0
 10
4143.9216
 20
-869.7796
 30
0.0
 10
4143.6463
 20
-871.5485
 30
0.0
 10
4143.2625
 20
-873.5494
 30
0.0
 10
4143.2625
 20
-875.3353
 30
0.0
 10
4143.2625
 20
-875.3353
 30
0.0
 10
4143.2625
 20
-877.1336
 30
0.0
 10
4143.6776
 20
-878.8403
 30
0.0
 10
4144.9087
 20
-880.1944
 30
0.0
 10
4144.9087
 20
-880.1944
 30
0.0
 10
4146.1061
 20
-881.5116
 30
0.0
 10
4147.5975
 20
-882.024
 30
0.0
 10
4149.3625
 20
-882.024
 30
0.0
 10
4149.3625
 20
-882.024
 30
0.0
 10
4152.3839
 20
-882.024
 30
0.0
 10
4155.0204
 20
-880.5418
 30
0.0
 10
4157.2356
 20
-878.5908
 30
0.0
 10
4157.2356
 20
-878.5908
 30
0.0
 10
4159.7517
 20
-876.3748
 30
0.0
 10
4161.3473
 20
-873.6669
 30
0.0
 10
4161.8548
 20
-870.3364
 30
0.0
 10
4161.8548
 20
-870.3364
 30
0.0
 10
4161.8578
 20
-870.3169
 30
0.0
 10
4161.8606
 20
-870.3003
 30
0.0
 10
4161.8641
 20
-870.281
 30
0.0
 10
4161.8641
 20
-870.281
 30
0.0
 10
4161.8641
 20
-870.281
 30
0.0
 10
4165.0629
 20
-852.6348
 30
0.0
 10
4165.0629
 20
-852.6348
 30
0.0
  0
SPLINE
  5
68
330
1F
100
AcDbEntity
  8
Layer 1
370
     9
100
AcDbSpline
210
0.0
220
0.0
230
1.0
 70
    11
 71
     3
 72
   180
 73
   176
 74
     0
 42
0.0000000001
 43
0.0000000001
 12
1.0
 22
0.0
 32
0.0
 13
1.0
 23
0.0
 33
0.0
 40
0.0
 40
0.0
 40
0.0
 40
0.0
 40
0.0222222222222222
 40
0.0222222222222222
 40
0.0222222222222222
 40
0.0222222222222222
 40
0.0444444444444444
 40
0.0444444444444444
 40
0.0444444444444444
 40
0.0444444444444444
 40
0.0666666666666667
 40
0.0666666666666667
 40
0.0666666666666667
 40
0.0666666666666667
 40
0.0888888888888889
 40
0.0888888888888889
 40
0.0888888888888889
 40
0.0888888888888889
 40
0.1111111111111111
 40
0.1111111111111111
 40
0.1111111111111111
 40
0.1111111111111111
 40
0.1333333333333333
 40
0.1333333333333333
 40
0.1333333333333333
 40
0.1333333333333333
 40
0.1555555555555556
 40
0.1555555555555556
 40
0.1555555555555556
 40
0.1555555555555556
 40
0.1777777777777778
 40
0.1777777777777778
 40
0.1777777777777778
 40
0.1777777777777778
 40
0.2
 40
0.2
 40
0.2
 40
0.2
 40
0.2222222222222222
 40
0.2222222222222222
 40
0.2222222222222222
 40
0.2222222222222222
 40
0.2444444444444444
 40
0.2444444444444444
 40
0.2444444444444444
 40
0.2444444444444444
 40
0.2666666666666667
 40
0.2666666666666667
 40
0.2666666666666667
 40
0.2666666666666667
 40
0.2888888888888889
 40
0.2888888888888889
 40
0.2888888888888889
 40
0.2888888888888889
 40
0.3111111111111111
 40
0.3111111111111111
 40
0.3111111111111111
 40
0.3111111111111111
 40
0.3333333333333333
 40
0.3333333333333333
 40
0.3333333333333333
 40
0.3333333333333333
 40
0.3555555555555556
 40
0.3555555555555556
 40
0.3555555555555556
 40
0.3555555555555556
 40
0.3777777777777778
 40
0.3777777777777778
 40
0.3777777777777778
 40
0.3777777777777778
 40
0.4
 40
0.4
 40
0.4
 40
0.4
 40
0.4222222222222222
 40
0.4222222222222222
 40
0.4222222222222222
 40
0.4222222222222222
 40
0.4444444444444444
 40
0.4444444444444444
 40
0.4444444444444444
 40
0.4444444444444444
 40
0.4666666666666667
 40
0.4666666666666667
 40
0.4666666666666667
 40
0.4666666666666667
 40
0.4888888888888889
 40
0.4888888888888889
 40
0.4888888888888889
 40
0.4888888888888889
 40
0.5111111111111111
 40
0.5111111111111111
 40
0.5111111111111111
 40
0.5111111111111111
 40
0.5333333333333333
 40
0.5333333333333333
 40
0.5333333333333333
 40
0.5333333333333333
 40
0.5555555555555556
 40
0.5555555555555556
 40
0.5555555555555556
 40
0.5555555555555556
 40
0.5777777777777777
 40
0.5777777777777777
 40
0.5777777777777777
 40
0.5777777777777777
 40
0.6
 40
0.6
 40
0.6
 40
0.6
 40
0.6222222222222222
 40
0.6222222222222222
 40
0.6222222222222222
 40
0.6222222222222222
 40
0.6444444444444445
 40
0.6444444444444445
 40
0.6444444444444445
 40
0.6444444444444445
 40
0.6666666666666666
 40
0.6666666666666666
 40
0.6666666666666666
 40
0.6666666666666666
 40
0.6888888888888889
 40
0.6888888888888889
 40
0.6888888888888889
 40
0.6888888888888889
 40
0.7111111111111111
 40
0.7111111111111111
 40
0.7111111111111111
 40
0.7111111111111111
 40
0.7333333333333333
 40
0.7333333333333333
 40
0.7333333333333333
 40
0.7333333333333333
 40
0.7555555555555555
 40
0.7555555555555555
 40
0.7555555555555555
 40
0.7555555555555555
 40
0.7777777777777778
 40
0.7777777777777778
 40
0.7777777777777778
 40
0.7777777777777778
 40
0.8
 40
0.8
 40
0.8
 40
0.8
 40
0.8222222222222222
 40
0.8222222222222222
 40
0.8222222222222222
 40
0.8222222222222222
 40
0.8444444444444444
 40
0.8444444444444444
 40
0.8444444444444444
 40
0.8444444444444444
 40
0.8666666666666667
 40
0.8666666666666667
 40
0.8666666666666667
 40
0.8666666666666667
 40
0.8888888888888888
 40
0.8888888888888888
 40
0.8888888888888888
 40
0.8888888888888888
 40
0.9111111111111111
 40
0.9111111111111111
 40
0.9111111111111111
 40
0.9111111111111111
 40
0.9333333333333333
 40
0.9333333333333333
 40
0.9333333333333333
 40
0.9333333333333333
 40
0.9555555555555556
 40
0.9555555555555556
 40
0.9555555555555556
 40
0.9555555555555556
 40
1.0
 40
1.0
 40
1.0
 40
1.0
 10
4147.4503
 20
-847.9049
 30
0.0
 10
4147.4503
 20
-847.9049
 30
0.0
 10
4165.9339
 20
-847.9049
 30
0.0
 10
4165.9339
 20
-847.9049
 30
0.0
 10
4165.9339
 20
-847.9049
 30
0.0
 10
4165.9339
 20
-847.9049
 30
0.0
 10
4168.2487
 20
-835.8015
 30
0.0
 10
4168.2487
 20
-835.8015
 30
0.0
 10
4168.2487
 20
-835.8015
 30
0.0
 10
4168.8704
 20
-832.5508
 30
0.0
 10
4170.4478
 20
-829.4172
 30
0.0
 10
4172.8463
 20
-827.1156
 30
0.0
 10
4172.8463
 20
-827.1156
 30
0.0
 10
4174.9674
 20
-825.0802
 30
0.0
 10
4177.8217
 20
-823.6584
 30
0.0
 10
4180.8239
 20
-823.972
 30
0.0
 10
4180.8239
 20
-823.972
 30
0.0
 10
4184.8928
 20
-824.3971
 30
0.0
 10
4187.3807
 20
-827.7123
 30
0.0
 10
4188.6428
 20
-831.3266
 30
0.0
 10
4188.6428
 20
-831.3266
 30
0.0
 10
4188.9791
 20
-832.2896
 30
0.0
 10
4188.546
 20
-833.3392
 30
0.0
 10
4187.6284
 20
-833.7849
 30
0.0
 10
4187.6284
 20
-833.7849
 30
0.0
 10
4187.6284
 20
-833.7849
 30
0.0
 10
4186.8043
 20
-834.1852
 30
0.0
 10
4186.8043
 20
-834.1852
 30
0.0
 10
4186.8043
 20
-834.1852
 30
0.0
 10
4186.265
 20
-834.4472
 30
0.0
 10
4185.6979
 20
-834.4612
 30
0.0
 10
4185.1463
 20
-834.2261
 30
0.0
 10
4185.1463
 20
-834.2261
 30
0.0
 10
4184.5947
 20
-833.9909
 30
0.0
 10
4184.2121
 20
-833.5722
 30
0.0
 10
4184.0276
 20
-833.0017
 30
0.0
 10
4184.0276
 20
-833.0017
 30
0.0
 10
4183.6308
 20
-831.775
 30
0.0
 10
4182.6741
 20
-829.435
 30
0.0
 10
4181.104
 20
-829.334
 30
0.0
 10
4181.104
 20
-829.334
 30
0.0
 10
4179.9543
 20
-829.26
 30
0.0
 10
4178.73
 20
-830.2737
 30
0.0
 10
4178.0163
 20
-831.0711
 30
0.0
 10
4178.0163
 20
-831.0711
 30
0.0
 10
4176.8007
 20
-832.4293
 30
0.0
 10
4175.9456
 20
-834.2582
 30
0.0
 10
4175.6329
 20
-836.0501
 30
0.0
 10
4175.6329
 20
-836.0501
 30
0.0
 10
4175.6329
 20
-836.0501
 30
0.0
 10
4173.593
 20
-847.7401
 30
0.0
 10
4173.593
 20
-847.7401
 30
0.0
 10
4173.593
 20
-847.7401
 30
0.0
 10
4173.593
 20
-847.7401
 30
0.0
 10
4178.6192
 20
-847.7401
 30
0.0
 10
4178.6192
 20
-847.7401
 30
0.0
 10
4178.6192
 20
-847.7401
 30
0.0
 10
4179.1819
 20
-847.7401
 30
0.0
 10
4179.6662
 20
-847.9456
 30
0.0
 10
4180.0573
 20
-848.3502
 30
0.0
 10
4180.0573
 20
-848.3502
 30
0.0
 10
4180.4484
 20
-848.7548
 30
0.0
 10
4180.6372
 20
-849.2458
 30
0.0
 10
4180.618
 20
-849.8082
 30
0.0
 10
4180.618
 20
-849.8082
 30
0.0
 10
4180.618
 20
-849.8082
 30
0.0
 10
4180.5827
 20
-850.8442
 30
0.0
 10
4180.5827
 20
-850.8442
 30
0.0
 10
4180.5827
 20
-850.8442
 30
0.0
 10
4180.546
 20
-851.9213
 30
0.0
 10
4179.6616
 20
-852.7761
 30
0.0
 10
4178.5839
 20
-852.7761
 30
0.0
 10
4178.5839
 20
-852.7761
 30
0.0
 10
4178.5839
 20
-852.7761
 30
0.0
 10
4172.7043
 20
-852.7761
 30
0.0
 10
4172.7043
 20
-852.7761
 30
0.0
 10
4172.7043
 20
-852.7761
 30
0.0
 10
4172.7043
 20
-852.7761
 30
0.0
 10
4169.6962
 20
-869.2083
 30
0.0
 10
4169.6962
 20
-869.2083
 30
0.0
 10
4169.6962
 20
-869.2083
 30
0.0
 10
4169.0853
 20
-872.5454
 30
0.0
 10
4167.6305
 20
-875.4966
 30
0.0
 10
4165.4209
 20
-878.0735
 30
0.0
 10
4165.4209
 20
-878.0735
 30
0.0
 10
4163.2052
 20
-880.6574
 30
0.0
 10
4160.5627
 20
-882.7621
 30
0.0
 10
4157.476
 20
-884.2099
 30
0.0
 10
4157.476
 20
-884.2099
 30
0.0
 10
4154.4892
 20
-885.6109
 30
0.0
 10
4151.3203
 20
-886.3654
 30
0.0
 10
4148.0204
 20
-886.3654
 30
0.0
 10
4148.0204
 20
-886.3654
 30
0.0
 10
4144.9653
 20
-886.3654
 30
0.0
 10
4141.9819
 20
-885.7082
 30
0.0
 10
4139.4189
 20
-883.9898
 30
0.0
 10
4139.4189
 20
-883.9898
 30
0.0
 10
4136.6987
 20
-882.1661
 30
0.0
 10
4135.5068
 20
-879.3494
 30
0.0
 10
4135.5068
 20
-876.1241
 30
0.0
 10
4135.5068
 20
-876.1241
 30
0.0
 10
4135.5068
 20
-876.1241
 30
0.0
 10
4135.5068
 20
-874.9114
 30
0.0
 10
4135.5068
 20
-874.9114
 30
0.0
 10
4135.5068
 20
-874.9114
 30
0.0
 10
4135.5068
 20
-874.8149
 30
0.0
 10
4135.5125
 20
-874.7326
 30
0.0
 10
4135.5257
 20
-874.6369
 30
0.0
 10
4135.5257
 20
-874.6369
 30
0.0
 10
4135.5257
 20
-874.6369
 30
0.0
 10
4138.5542
 20
-852.7761
 30
0.0
 10
4138.5542
 20
-852.7761
 30
0.0
 10
4138.5542
 20
-852.7761
 30
0.0
 10
4138.5542
 20
-852.7761
 30
0.0
 10
4135.47
 20
-852.7761
 30
0.0
 10
4135.47
 20
-852.7761
 30
0.0
 10
4135.47
 20
-852.7761
 30
0.0
 10
4134.3684
 20
-852.7761
 30
0.0
 10
4133.47
 20
-851.8777
 30
0.0
 10
4133.47
 20
-850.7761
 30
0.0
 10
4133.47
 20
-850.7761
 30
0.0
 10
4133.47
 20
-850.7761
 30
0.0
 10
4133.47
 20
-849.9049
 30
0.0
 10
4133.47
 20
-849.9049
 30
0.0
 10
4133.47
 20
-849.9049
 30
0.0
 10
4133.47
 20
-848.8033
 30
0.0
 10
4134.3684
 20
-847.9049
 30
0.0
 10
4135.47
 20
-847.9049
 30
0.0
 10
4135.47
 20
-847.9049
 30
0.0
 10
4135.47
 20
-847.9049
 30
0.0
 10
4139.2541
 20
-847.9049
 30
0.0
 10
4139.2541
 20
-847.9049
 30
0.0
 10
4139.2541
 20
-847.9049
 30
0.0
 10
4139.2541
 20
-847.9049
 30
0.0
 10
4141.5764
 20
-832.2115
 30
0.0
 10
4141.5764
 20
-832.2115
 30
0.0
 10
4141.5764
 20
-832.2115
 30
0.0
 10
4141.7893
 20
-830.7734
 30
0.0
 10
4138.1755
 20
-828.7586
 30
0.0
 10
4138.1647
 20
-834.0856
 30
0.0
 10
4138.1647
 20
-834.0856
 30
0.0
 10
4138.1633
 20
-834.7659
 30
0.0
 10
4137.8537
 20
-835.3504
 30
0.0
 10
4137.2917
 20
-835.7337
 30
0.0
 10
4137.2917
 20
-835.7337
 30
0.0
 10
4136.7296
 20
-836.1171
 30
0.0
 10
4136.0725
 20
-836.192
 30
0.0
 10
4135.4386
 20
-835.945
 30
0.0
 10
4135.4386
 20
-835.945
 30
0.0
 10
4135.4386
 20
-835.945
 30
0.0
 10
4134.7439
 20
-835.6743
 30
0.0
 10
4134.7439
 20
-835.6743
 30
0.0
 10
4134.7439
 20
-835.6743
 30
0.0
 10
4134.126
 20
-835.4336
 30
0.0
 10
4133.7004
 20
-834.9546
 30
0.0
 10
4133.534
 20
-834.3127
 30
0.0
 10
4133.534
 20
-834.3127
 30
0.0
 10
4132.9832
 20
-832.1879
 30
0.0
 10
4133.0742
 20
-829.8927
 30
0.0
 10
4134.1956
 20
-827.9614
 30
0.0
 10
4134.1956
 20
-827.9614
 30
0.0
 10
4136.0004
 20
-824.8532
 30
0.0
 10
4139.564
 20
-824.0285
 30
0.0
 10
4142.9183
 20
-824.3186
 30
0.0
 10
4142.9183
 20
-824.3186
 30
0.0
 10
4145.2771
 20
-824.5227
 30
0.0
 10
4147.4964
 20
-825.3887
 30
0.0
 10
4148.6861
 20
-827.5601
 30
0.0
 10
4148.6861
 20
-827.5601
 30
0.0
 10
4149.9696
 20
-829.9028
 30
0.0
 10
4149.5104
 20
-832.7774
 30
0.0
 10
4149.1662
 20
-835.3051
 30
0.0
 10
4149.1662
 20
-835.3051
 30
0.0
 10
4149.1662
 20
-835.3051
 30
0.0
 10
4147.4503
 20
-847.9049
 30
0.0
 10
4147.4503
 20
-847.9049
 30
0.0
  0
SPLINE
  5
69
330
1F
100
AcDbEntity
  8
Layer 1
370
     9
100
AcDbSpline
210
0.0
220
0.0
230
1.0
 70
    11
 71
     3
 72
   184
 73
   180
 74
     0
 42
0.0000000001
 43
0.0000000001
 12
1.0
 22
0.0
 32
0.0
 13
1.0
 23
0.0
 33
0.0
 40
0.0
 40
0.0
 40
0.0
 40
0.0
 40
0.0217391304347826
 40
0.0217391304347826
 40
0.0217391304347826
 40
0.0217391304347826
 40
0.0434782608695652
 40
0.0434782608695652
 40
0.0434782608695652
 40
0.0434782608695652
 40
0.0652173913043478
 40
0.0652173913043478
 40
0.0652173913043478
 40
0.0652173913043478
 40
0.0869565217391304
 40
0.0869565217391304
 40
0.0869565217391304
 40
0.0869565217391304
 40
0.108695652173913
 40
0.108695652173913
 40
0.108695652173913
 40
0.108695652173913
 40
0.1304347826086956
 40
0.1304347826086956
 40
0.1304347826086956
 40
0.1304347826086956
 40
0.1521739130434783
 40
0.1521739130434783
 40
0.1521739130434783
 40
0.1521739130434783
 40
0.1739130434782609
 40
0.1739130434782609
 40
0.1739130434782609
 40
0.1739130434782609
 40
0.1956521739130435
 40
0.1956521739130435
 40
0.1956521739130435
 40
0.1956521739130435
 40
0.2173913043478261
 40
0.2173913043478261
 40
0.2173913043478261
 40
0.2173913043478261
 40
0.2391304347826087
 40
0.2391304347826087
 40
0.2391304347826087
 40
0.2391304347826087
 40
0.2608695652173913
 40
0.2608695652173913
 40
0.2608695652173913
 40
0.2608695652173913
 40
0.2826086956521739
 40
0.2826086956521739
 40
0.2826086956521739
 40
0.2826086956521739
 40
0.3043478260869565
 40
0.3043478260869565
 40
0.3043478260869565
 40
0.3043478260869565
 40
0.3260869565217391
 40
0.3260869565217391
 40
0.3260869565217391
 40
0.3260869565217391
 40
0.3478260869565217
 40
0.3478260869565217
 40
0.3478260869565217
 40
0.3478260869565217
 40
0.3695652173913043
 40
0.3695652173913043
 40
0.3695652173913043
 40
0.3695652173913043
 40
0.391304347826087
 40
0.391304347826087
 40
0.391304347826087
 40
0.391304347826087
 40
0.4130434782608696
 40
0.4130434782608696
 40
0.4130434782608696
 40
0.4130434782608696
 40
0.4347826086956522
 40
0.4347826086956522
 40
0.4347826086956522
 40
0.4347826086956522
 40
0.4565217391304348
 40
0.4565217391304348
 40
0.4565217391304348
 40
0.4565217391304348
 40
0.4782608695652174
 40
0.4782608695652174
 40
0.4782608695652174
 40
0.4782608695652174
 40
0.5
 40
0.5
 40
0.5
 40
0.5
 40
0.5217391304347826
 40
0.5217391304347826
 40
0.5217391304347826
 40
0.5217391304347826
 40
0.5434782608695652
 40
0.5434782608695652
 40
0.5434782608695652
 40
0.5434782608695652
 40
0.5652173913043478
 40
0.5652173913043478
 40
0.5652173913043478
 40
0.5652173913043478
 40
0.5869565217391305
 40
0.5869565217391305
 40
0.5869565217391305
 40
0.5869565217391305
 40
0.6086956521739131
 40
0.6086956521739131
 40
0.6086956521739131
 40
0.6086956521739131
 40
0.6304347826086957
 40
0.6304347826086957
 40
0.6304347826086957
 40
0.6304347826086957
 40
0.6521739130434783
 40
0.6521739130434783
 40
0.6521739130434783
 40
0.6521739130434783
 40
0.6739130434782609
 40
0.6739130434782609
 40
0.6739130434782609
 40
0.6739130434782609
 40
0.6956521739130435
 40
0.6956521739130435
 40
0.6956521739130435
 40
0.6956521739130435
 40
0.717391304347826
 40
0.717391304347826
 40
0.717391304347826
 40
0.717391304347826
 40
0.7391304347826086
 40
0.7391304347826086
 40
0.7391304347826086
 40
0.7391304347826086
 40
0.7608695652173914
 40
0.7608695652173914
 40
0.7608695652173914
 40
0.7608695652173914
 40
0.782608695652174
 40
0.782608695652174
 40
0.782608695652174
 40
0.782608695652174
 40
0.8043478260869565
 40
0.8043478260869565
 40
0.8043478260869565
 40
0.8043478260869565
 40
0.8260869565217391
 40
0.8260869565217391
 40
0.8260869565217391
 40
0.8260869565217391
 40
0.8478260869565217
 40
0.8478260869565217
 40
0.8478260869565217
 40
0.8478260869565217
 40
0.8695652173913043
 40
0.8695652173913043
 40
0.8695652173913043
 40
0.8695652173913043
 40
0.8913043478260869
 40
0.8913043478260869
 40
0.8913043478260869
 40
0.8913043478260869
 40
0.9130434782608695
 40
0.9130434782608695
 40
0.9130434782608695
 40
0.9130434782608695
 40
0.9347826086956522
 40
0.9347826086956522
 40
0.9347826086956522
 40
0.9347826086956522
 40
0.9565217391304348
 40
0.9565217391304348
 40
0.9565217391304348
 40
0.9565217391304348
 40
1.0
 40
1.0
 40
1.0
 40
1.0
 10
4199.9018
 20
-876.2885
 30
0.0
 10
4200.9712
 20
-877.2836
 30
0.0
 10
4201.6401
 20
-878.5325
 30
0.0
 10
4201.7527
 20
-879.9972
 30
0.0
 10
4201.7527
 20
-879.9972
 30
0.0
 10
4201.7568
 20
-880.0508
 30
0.0
 10
4201.7586
 20
-880.0967
 30
0.0
 10
4201.7586
 20
-880.1505
 30
0.0
 10
4201.7586
 20
-880.1505
 30
0.0
 10
4201.7586
 20
-880.679
 30
0.0
 10
4201.6369
 20
-881.1926
 30
0.0
 10
4201.4424
 20
-881.6803
 30
0.0
 10
4201.4424
 20
-881.6803
 30
0.0
 10
4204.7251
 20
-881.3594
 30
0.0
 10
4206.9873
 20
-879.7648
 30
0.0
 10
4208.6785
 20
-876.643
 30
0.0
 10
4208.6785
 20
-876.643
 30
0.0
 10
4210.0121
 20
-874.1812
 30
0.0
 10
4210.9377
 20
-871.5472
 30
0.0
 10
4211.518
 20
-868.8101
 30
0.0
 10
4211.518
 20
-868.8101
 30
0.0
 10
4211.5207
 20
-868.7971
 30
0.0
 10
4211.5232
 20
-868.7861
 30
0.0
 10
4211.5262
 20
-868.7731
 30
0.0
 10
4211.5262
 20
-868.7731
 30
0.0
 10
4212.3519
 20
-865.2125
 30
0.0
 10
4212.9232
 20
-861.5777
 30
0.0
 10
4213.3483
 20
-857.9488
 30
0.0
 10
4213.3483
 20
-857.9488
 30
0.0
 10
4213.3492
 20
-857.9411
 30
0.0
 10
4213.35
 20
-857.9345
 30
0.0
 10
4213.351
 20
-857.9267
 30
0.0
 10
4213.351
 20
-857.9267
 30
0.0
 10
4213.351
 20
-857.9267
 30
0.0
 10
4214.1751
 20
-851.5103
 30
0.0
 10
4214.1751
 20
-851.5103
 30
0.0
 10
4214.1751
 20
-851.5103
 30
0.0
 10
4214.6849
 20
-847.5407
 30
0.0
 10
4215.6093
 20
-843.4924
 30
0.0
 10
4217.2693
 20
-839.836
 30
0.0
 10
4217.2693
 20
-839.836
 30
0.0
 10
4218.3994
 20
-837.347
 30
0.0
 10
4219.9196
 20
-834.9146
 30
0.0
 10
4221.5567
 20
-832.6202
 30
0.0
 10
4221.5567
 20
-832.6202
 30
0.0
 10
4221.5567
 20
-832.6202
 30
0.0
 10
4220.2913
 20
-832.6202
 30
0.0
 10
4220.2913
 20
-832.6202
 30
0.0
 10
4220.2913
 20
-832.6202
 30
0.0
 10
4215.8667
 20
-832.6202
 30
0.0
 10
4211.4416
 20
-832.5341
 30
0.0
 10
4207.0209
 20
-832.3476
 30
0.0
 10
4207.0209
 20
-832.3476
 30
0.0
 10
4204.2332
 20
-832.23
 30
0.0
 10
4201.3945
 20
-832.0851
 30
0.0
 10
4198.5992
 20
-832.0684
 30
0.0
 10
4198.5992
 20
-832.0684
 30
0.0
 10
4197.961
 20
-832.4606
 30
0.0
 10
4197.3194
 20
-832.9815
 30
0.0
 10
4196.775
 20
-833.4384
 30
0.0
 10
4196.775
 20
-833.4384
 30
0.0
 10
4195.5616
 20
-834.4568
 30
0.0
 10
4194.405
 20
-835.5715
 30
0.0
 10
4193.2877
 20
-836.6936
 30
0.0
 10
4193.2877
 20
-836.6936
 30
0.0
 10
4192.8951
 20
-837.0879
 30
0.0
 10
4192.4151
 20
-837.2857
 30
0.0
 10
4191.8586
 20
-837.2824
 30
0.0
 10
4191.8586
 20
-837.2824
 30
0.0
 10
4191.3022
 20
-837.2791
 30
0.0
 10
4190.8245
 20
-837.0756
 30
0.0
 10
4190.4366
 20
-836.6767
 30
0.0
 10
4190.4366
 20
-836.6767
 30
0.0
 10
4190.4366
 20
-836.6767
 30
0.0
 10
4190.0245
 20
-836.2529
 30
0.0
 10
4190.0245
 20
-836.2529
 30
0.0
 10
4190.0245
 20
-836.2529
 30
0.0
 10
4189.6369
 20
-835.8543
 30
0.0
 10
4189.4469
 20
-835.3716
 30
0.0
 10
4189.4589
 20
-834.8157
 30
0.0
 10
4189.4589
 20
-834.8157
 30
0.0
 10
4189.4708
 20
-834.2599
 30
0.0
 10
4189.6813
 20
-833.7858
 30
0.0
 10
4190.0856
 20
-833.4042
 30
0.0
 10
4190.0856
 20
-833.4042
 30
0.0
 10
4190.0856
 20
-833.4042
 30
0.0
 10
4199.3159
 20
-824.6919
 30
0.0
 10
4199.3159
 20
-824.6919
 30
0.0
 10
4199.3159
 20
-824.6919
 30
0.0
 10
4199.7293
 20
-824.3016
 30
0.0
 10
4200.2293
 20
-824.1185
 30
0.0
 10
4200.7969
 20
-824.1492
 30
0.0
 10
4200.7969
 20
-824.1492
 30
0.0
 10
4204.5716
 20
-824.3538
 30
0.0
 10
4208.3485
 20
-824.5469
 30
0.0
 10
4212.1257
 20
-824.6983
 30
0.0
 10
4212.1257
 20
-824.6983
 30
0.0
 10
4214.3256
 20
-824.7866
 30
0.0
 10
4216.5472
 20
-824.8763
 30
0.0
 10
4218.749
 20
-824.8763
 30
0.0
 10
4218.749
 20
-824.8763
 30
0.0
 10
4222.698
 20
-824.8763
 30
0.0
 10
4226.6651
 20
-824.717
 30
0.0
 10
4230.5931
 20
-824.2988
 30
0.0
 10
4230.5931
 20
-824.2988
 30
0.0
 10
4231.1778
 20
-824.2366
 30
0.0
 10
4231.7049
 20
-824.4073
 30
0.0
 10
4232.1421
 20
-824.8004
 30
0.0
 10
4232.1421
 20
-824.8004
 30
0.0
 10
4232.5793
 20
-825.1936
 30
0.0
 10
4232.8048
 20
-825.6996
 30
0.0
 10
4232.8048
 20
-826.2876
 30
0.0
 10
4232.8048
 20
-826.2876
 30
0.0
 10
4232.8048
 20
-826.2876
 30
0.0
 10
4232.8048
 20
-827.1824
 30
0.0
 10
4232.8048
 20
-827.1824
 30
0.0
 10
4232.8048
 20
-827.1824
 30
0.0
 10
4232.8048
 20
-827.6988
 30
0.0
 10
4232.6335
 20
-828.1429
 30
0.0
 10
4232.2867
 20
-828.5255
 30
0.0
 10
4232.2867
 20
-828.5255
 30
0.0
 10
4229.8329
 20
-831.2328
 30
0.0
 10
4227.3367
 20
-834.4221
 30
0.0
 10
4225.8533
 20
-837.785
 30
0.0
 10
4225.8533
 20
-837.785
 30
0.0
 10
4224.8637
 20
-840.0283
 30
0.0
 10
4223.728
 20
-842.8174
 30
0.0
 10
4223.3777
 20
-845.2563
 30
0.0
 10
4223.3777
 20
-845.2563
 30
0.0
 10
4223.3758
 20
-845.2695
 30
0.0
 10
4223.3741
 20
-845.2807
 30
0.0
 10
4223.3719
 20
-845.2939
 30
0.0
 10
4223.3719
 20
-845.2939
 30
0.0
 10
4223.1167
 20
-846.8586
 30
0.0
 10
4222.9238
 20
-848.4545
 30
0.0
 10
4222.714
 20
-850.0265
 30
0.0
 10
4222.714
 20
-850.0265
 30
0.0
 10
4222.2962
 20
-853.1579
 30
0.0
 10
4221.8779
 20
-856.289
 30
0.0
 10
4221.4485
 20
-859.4188
 30
0.0
 10
4221.4485
 20
-859.4188
 30
0.0
 10
4220.6765
 20
-865.0459
 30
0.0
 10
4219.2241
 20
-872.8547
 30
0.0
 10
4216.0364
 20
-877.6646
 30
0.0
 10
4216.0364
 20
-877.6646
 30
0.0
 10
4214.3287
 20
-880.2414
 30
0.0
 10
4212.0317
 20
-882.6012
 30
0.0
 10
4209.4512
 20
-884.3081
 30
0.0
 10
4209.4512
 20
-884.3081
 30
0.0
 10
4204.6225
 20
-887.5021
 30
0.0
 10
4199.1027
 20
-888.2207
 30
0.0
 10
4193.8756
 20
-885.3536
 30
0.0
 10
4193.8756
 20
-885.3536
 30
0.0
 10
4192.0263
 20
-884.3393
 30
0.0
 10
4191.0125
 20
-882.6766
 30
0.0
 10
4191.0125
 20
-880.5626
 30
0.0
 10
4191.0125
 20
-880.5626
 30
0.0
 10
4191.0125
 20
-880.5626
 30
0.0
 10
4191.0125
 20
-880.1505
 30
0.0
 10
4191.0125
 20
-880.1505
 30
0.0
 10
4191.0125
 20
-880.1505
 30
0.0
 10
4191.0125
 20
-880.0863
 30
0.0
 10
4191.015
 20
-880.0315
 30
0.0
 10
4191.0209
 20
-879.9675
 30
0.0
 10
4191.0209
 20
-879.9675
 30
0.0
 10
4191.2861
 20
-877.0806
 30
0.0
 10
4192.8605
 20
-874.9072
 30
0.0
 10
4195.8828
 20
-874.6716
 30
0.0
 10
4195.8828
 20
-874.6716
 30
0.0
 10
4195.9372
 20
-874.6674
 30
0.0
 10
4195.9837
 20
-874.6656
 30
0.0
 10
4196.0382
 20
-874.6656
 30
0.0
 10
4196.0382
 20
-874.6656
 30
0.0
 10
4196.0382
 20
-874.6656
 30
0.0
 10
4196.1795
 20
-874.6656
 30
0.0
 10
4196.1795
 20
-874.6656
 30
0.0
 10
4196.1795
 20
-874.6656
 30
0.0
 10
4197.6253
 20
-874.6656
 30
0.0
 10
4198.8789
 20
-875.2914
 30
0.0
 10
4199.9018
 20
-876.2885
 30
0.0
  0
SPLINE
  5
6A
330
1F
100
AcDbEntity
  8
Layer 1
370
     9
100
AcDbSpline
210
0.0
220
0.0
230
1.0
 70
    11
 71
     3
 72
   108
 73
   104
 74
     0
 42
0.0000000001
 43
0.0000000001
 12
1.0
 22
0.0
 32
0.0
 13
1.0
 23
0.0
 33
0.0
 40
0.0
 40
0.0
 40
0.0
 40
0.0
 40
0.037037037037037
 40
0.037037037037037
 40
0.037037037037037
 40
0.037037037037037
 40
0.0740740740740741
 40
0.0740740740740741
 40
0.0740740740740741
 40
0.0740740740740741
 40
0.1111111111111111
 40
0.1111111111111111
 40
0.1111111111111111
 40
0.1111111111111111
 40
0.1481481481481481
 40
0.1481481481481481
 40
0.1481481481481481
 40
0.1481481481481481
 40
0.1851851851851852
 40
0.1851851851851852
 40
0.1851851851851852
 40
0.1851851851851852
 40
0.2222222222222222
 40
0.2222222222222222
 40
0.2222222222222222
 40
0.2222222222222222
 40
0.2592592592592592
 40
0.2592592592592592
 40
0.2592592592592592
 40
0.2592592592592592
 40
0.2962962962962963
 40
0.2962962962962963
 40
0.2962962962962963
 40
0.2962962962962963
 40
0.3333333333333333
 40
0.3333333333333333
 40
0.3333333333333333
 40
0.3333333333333333
 40
0.3703703703703703
 40
0.3703703703703703
 40
0.3703703703703703
 40
0.3703703703703703
 40
0.4074074074074074
 40
0.4074074074074074
 40
0.4074074074074074
 40
0.4074074074074074
 40
0.4444444444444444
 40
0.4444444444444444
 40
0.4444444444444444
 40
0.4444444444444444
 40
0.4814814814814815
 40
0.4814814814814815
 40
0.4814814814814815
 40
0.4814814814814815
 40
0.5185185185185185
 40
0.5185185185185185
 40
0.5185185185185185
 40
0.5185185185185185
 40
0.5555555555555556
 40
0.5555555555555556
 40
0.5555555555555556
 40
0.5555555555555556
 40
0.5925925925925926
 40
0.5925925925925926
 40
0.5925925925925926
 40
0.5925925925925926
 40
0.6296296296296297
 40
0.6296296296296297
 40
0.6296296296296297
 40
0.6296296296296297
 40
0.6666666666666666
 40
0.6666666666666666
 40
0.6666666666666666
 40
0.6666666666666666
 40
0.7037037037037037
 40
0.7037037037037037
 40
0.7037037037037037
 40
0.7037037037037037
 40
0.7407407407407407
 40
0.7407407407407407
 40
0.7407407407407407
 40
0.7407407407407407
 40
0.7777777777777778
 40
0.7777777777777778
 40
0.7777777777777778
 40
0.7777777777777778
 40
0.8148148148148148
 40
0.8148148148148148
 40
0.8148148148148148
 40
0.8148148148148148
 40
0.8518518518518519
 40
0.8518518518518519
 40
0.8518518518518519
 40
0.8518518518518519
 40
0.8888888888888888
 40
0.8888888888888888
 40
0.8888888888888888
 40
0.8888888888888888
 40
0.9259259259259259
 40
0.9259259259259259
 40
0.9259259259259259
 40
0.9259259259259259
 40
1.0
 40
1.0
 40
1.0
 40
1.0
 10
4248.8154
 20
-830.075
 30
0.0
 10
4248.8154
 20
-830.075
 30
0.0
 10
4241.2718
 20
-881.4284
 30
0.0
 10
4241.2718
 20
-881.4284
 30
0.0
 10
4241.2718
 20
-881.4284
 30
0.0
 10
4242.3392
 20
-881.3186
 30
0.0
 10
4243.406
 20
-881.1873
 30
0.0
 10
4244.4699
 20
-881.0512
 30
0.0
 10
4244.4699
 20
-881.0512
 30
0.0
 10
4245.0605
 20
-880.9756
 30
0.0
 10
4245.5983
 20
-881.1403
 30
0.0
 10
4246.0452
 20
-881.5337
 30
0.0
 10
4246.0452
 20
-881.5337
 30
0.0
 10
4246.4921
 20
-881.9271
 30
0.0
 10
4246.7238
 20
-882.4396
 30
0.0
 10
4246.7238
 20
-883.035
 30
0.0
 10
4246.7238
 20
-883.035
 30
0.0
 10
4246.7238
 20
-883.035
 30
0.0
 10
4246.7238
 20
-883.4588
 30
0.0
 10
4246.7238
 20
-883.4588
 30
0.0
 10
4246.7238
 20
-883.4588
 30
0.0
 10
4246.7238
 20
-884.429
 30
0.0
 10
4246.0495
 20
-885.2431
 30
0.0
 10
4245.0964
 20
-885.4238
 30
0.0
 10
4245.0964
 20
-885.4238
 30
0.0
 10
4242.6475
 20
-885.8881
 30
0.0
 10
4240.154
 20
-886.1652
 30
0.0
 10
4237.6598
 20
-886.1652
 30
0.0
 10
4237.6598
 20
-886.1652
 30
0.0
 10
4234.5185
 20
-886.1652
 30
0.0
 10
4231.4074
 20
-885.7556
 30
0.0
 10
4228.3601
 20
-884.9997
 30
0.0
 10
4228.3601
 20
-884.9997
 30
0.0
 10
4227.2961
 20
-884.7357
 30
0.0
 10
4226.641
 20
-883.6576
 30
0.0
 10
4226.8969
 20
-882.5916
 30
0.0
 10
4226.8969
 20
-882.5916
 30
0.0
 10
4226.8969
 20
-882.5916
 30
0.0
 10
4227.0382
 20
-882.003
 30
0.0
 10
4227.0382
 20
-882.003
 30
0.0
 10
4227.0382
 20
-882.003
 30
0.0
 10
4227.1682
 20
-881.4613
 30
0.0
 10
4227.4757
 20
-881.0421
 30
0.0
 10
4227.9533
 20
-880.7553
 30
0.0
 10
4227.9533
 20
-880.7553
 30
0.0
 10
4228.431
 20
-880.4685
 30
0.0
 10
4228.9455
 20
-880.3941
 30
0.0
 10
4229.4848
 20
-880.5339
 30
0.0
 10
4229.4848
 20
-880.5339
 30
0.0
 10
4230.5989
 20
-880.8227
 30
0.0
 10
4231.9261
 20
-881.1478
 30
0.0
 10
4233.1951
 20
-881.3253
 30
0.0
 10
4233.1951
 20
-881.3253
 30
0.0
 10
4233.1951
 20
-881.3253
 30
0.0
 10
4240.6972
 20
-829.9389
 30
0.0
 10
4240.6972
 20
-829.9389
 30
0.0
 10
4240.6972
 20
-829.9389
 30
0.0
 10
4240.6058
 20
-829.9233
 30
0.0
 10
4240.515
 20
-829.9077
 30
0.0
 10
4240.425
 20
-829.8923
 30
0.0
 10
4240.425
 20
-829.8923
 30
0.0
 10
4239.1154
 20
-829.6673
 30
0.0
 10
4237.8089
 20
-829.4074
 30
0.0
 10
4236.507
 20
-829.1421
 30
0.0
 10
4236.507
 20
-829.1421
 30
0.0
 10
4235.4433
 20
-828.9254
 30
0.0
 10
4234.7456
 20
-827.8963
 30
0.0
 10
4234.938
 20
-826.828
 30
0.0
 10
4234.938
 20
-826.828
 30
0.0
 10
4234.938
 20
-826.828
 30
0.0
 10
4235.044
 20
-826.2393
 30
0.0
 10
4235.044
 20
-826.2393
 30
0.0
 10
4235.044
 20
-826.2393
 30
0.0
 10
4235.2391
 20
-825.1553
 30
0.0
 10
4236.2823
 20
-824.4303
 30
0.0
 10
4237.3663
 20
-824.6253
 30
0.0
 10
4237.3663
 20
-824.6253
 30
0.0
 10
4239.7923
 20
-825.0615
 30
0.0
 10
4242.2572
 20
-825.3237
 30
0.0
 10
4244.7238
 20
-825.3237
 30
0.0
 10
4244.7238
 20
-825.3237
 30
0.0
 10
4247.2807
 20
-825.3237
 30
0.0
 10
4249.8777
 20
-825.0263
 30
0.0
 10
4252.3992
 20
-824.6193
 30
0.0
 10
4252.3992
 20
-824.6193
 30
0.0
 10
4252.9983
 20
-824.5225
 30
0.0
 10
4253.5525
 20
-824.6775
 30
0.0
 10
4254.0146
 20
-825.071
 30
0.0
 10
4254.0146
 20
-825.071
 30
0.0
 10
4254.4766
 20
-825.4644
 30
0.0
 10
4254.7179
 20
-825.9868
 30
0.0
 10
4254.7179
 20
-826.5937
 30
0.0
 10
4254.7179
 20
-826.5937
 30
0.0
 10
4254.7179
 20
-826.5937
 30
0.0
 10
4254.7179
 20
-827.1824
 30
0.0
 10
4254.7179
 20
-827.1824
 30
0.0
 10
4254.7179
 20
-827.1824
 30
0.0
 10
4254.7179
 20
-828.081
 30
0.0
 10
4254.1499
 20
-828.8428
 30
0.0
 10
4253.2886
 20
-829.0992
 30
0.0
 10
4253.2886
 20
-829.0992
 30
0.0
 10
4251.8336
 20
-829.5325
 30
0.0
 10
4250.3309
 20
-829.8838
 30
0.0
 10
4248.8154
 20
-830.075
 30
0.0
  0
SPLINE
  5
6B
330
1F
100
AcDbEntity
  8
Layer 1
370
     9
100
AcDbSpline
210
0.0
220
0.0
230
1.0
 70
    11
 71
     3
 72
   212
 73
   208
 74
     0
 42
0.0000000001
 43
0.0000000001
 12
1.0
 22
0.0
 32
0.0
 13
1.0
 23
0.0
 33
0.0
 40
0.0
 40
0.0
 40
0.0
 40
0.0
 40
0.0188679245283019
 40
0.0188679245283019
 40
0.0188679245283019
 40
0.0188679245283019
 40
0.0377358490566038
 40
0.0377358490566038
 40
0.0377358490566038
 40
0.0377358490566038
 40
0.0566037735849057
 40
0.0566037735849057
 40
0.0566037735849057
 40
0.0566037735849057
 40
0.0754716981132075
 40
0.0754716981132075
 40
0.0754716981132075
 40
0.0754716981132075
 40
0.0943396226415094
 40
0.0943396226415094
 40
0.0943396226415094
 40
0.0943396226415094
 40
0.1132075471698113
 40
0.1132075471698113
 40
0.1132075471698113
 40
0.1132075471698113
 40
0.1320754716981132
 40
0.1320754716981132
 40
0.1320754716981132
 40
0.1320754716981132
 40
0.1509433962264151
 40
0.1509433962264151
 40
0.1509433962264151
 40
0.1509433962264151
 40
0.169811320754717
 40
0.169811320754717
 40
0.169811320754717
 40
0.169811320754717
 40
0.1886792452830189
 40
0.1886792452830189
 40
0.1886792452830189
 40
0.1886792452830189
 40
0.2075471698113208
 40
0.2075471698113208
 40
0.2075471698113208
 40
0.2075471698113208
 40
0.2264150943396226
 40
0.2264150943396226
 40
0.2264150943396226
 40
0.2264150943396226
 40
0.2452830188679245
 40
0.2452830188679245
 40
0.2452830188679245
 40
0.2452830188679245
 40
0.2641509433962264
 40
0.2641509433962264
 40
0.2641509433962264
 40
0.2641509433962264
 40
0.2830188679245283
 40
0.2830188679245283
 40
0.2830188679245283
 40
0.2830188679245283
 40
0.3018867924528302
 40
0.3018867924528302
 40
0.3018867924528302
 40
0.3018867924528302
 40
0.3207547169811321
 40
0.3207547169811321
 40
0.3207547169811321
 40
0.3207547169811321
 40
0.3396226415094339
 40
0.3396226415094339
 40
0.3396226415094339
 40
0.3396226415094339
 40
0.3584905660377358
 40
0.3584905660377358
 40
0.3584905660377358
 40
0.3584905660377358
 40
0.3773584905660378
 40
0.3773584905660378
 40
0.3773584905660378
 40
0.3773584905660378
 40
0.3962264150943396
 40
0.3962264150943396
 40
0.3962264150943396
 40
0.3962264150943396
 40
0.4150943396226415
 40
0.4150943396226415
 40
0.4150943396226415
 40
0.4150943396226415
 40
0.4339622641509434
 40
0.4339622641509434
 40
0.4339622641509434
 40
0.4339622641509434
 40
0.4528301886792453
 40
0.4528301886792453
 40
0.4528301886792453
 40
0.4528301886792453
 40
0.4716981132075472
 40
0.4716981132075472
 40
0.4716981132075472
 40
0.4716981132075472
 40
0.4905660377358491
 40
0.4905660377358491
 40
0.4905660377358491
 40
0.4905660377358491
 40
0.5094339622641509
 40
0.5094339622641509
 40
0.5094339622641509
 40
0.5094339622641509
 40
0.5283018867924528
 40
0.5283018867924528
 40
0.5283018867924528
 40
0.5283018867924528
 40
0.5471698113207547
 40
0.5471698113207547
 40
0.5471698113207547
 40
0.5471698113207547
 40
0.5660377358490566
 40
0.5660377358490566
 40
0.5660377358490566
 40
0.5660377358490566
 40
0.5849056603773585
 40
0.5849056603773585
 40
0.5849056603773585
 40
0.5849056603773585
 40
0.6037735849056604
 40
0.6037735849056604
 40
0.6037735849056604
 40
0.6037735849056604
 40
0.6226415094339622
 40
0.6226415094339622
 40
0.6226415094339622
 40
0.6226415094339622
 40
0.6415094339622641
 40
0.6415094339622641
 40
0.6415094339622641
 40
0.6415094339622641
 40
0.660377358490566
 40
0.660377358490566
 40
0.660377358490566
 40
0.660377358490566
 40
0.6792452830188679
 40
0.6792452830188679
 40
0.6792452830188679
 40
0.6792452830188679
 40
0.6981132075471698
 40
0.6981132075471698
 40
0.6981132075471698
 40
0.6981132075471698
 40
0.7169811320754716
 40
0.7169811320754716
 40
0.7169811320754716
 40
0.7169811320754716
 40
0.7358490566037735
 40
0.7358490566037735
 40
0.7358490566037735
 40
0.7358490566037735
 40
0.7547169811320755
 40
0.7547169811320755
 40
0.7547169811320755
 40
0.7547169811320755
 40
0.7735849056603774
 40
0.7735849056603774
 40
0.7735849056603774
 40
0.7735849056603774
 40
0.7924528301886793
 40
0.7924528301886793
 40
0.7924528301886793
 40
0.7924528301886793
 40
0.8113207547169812
 40
0.8113207547169812
 40
0.8113207547169812
 40
0.8113207547169812
 40
0.8301886792452831
 40
0.8301886792452831
 40
0.8301886792452831
 40
0.8301886792452831
 40
0.8490566037735849
 40
0.8490566037735849
 40
0.8490566037735849
 40
0.8490566037735849
 40
0.8679245283018868
 40
0.8679245283018868
 40
0.8679245283018868
 40
0.8679245283018868
 40
0.8867924528301887
 40
0.8867924528301887
 40
0.8867924528301887
 40
0.8867924528301887
 40
0.9056603773584906
 40
0.9056603773584906
 40
0.9056603773584906
 40
0.9056603773584906
 40
0.9245283018867925
 40
0.9245283018867925
 40
0.9245283018867925
 40
0.9245283018867925
 40
0.9433962264150944
 40
0.9433962264150944
 40
0.9433962264150944
 40
0.9433962264150944
 40
0.9622641509433962
 40
0.9622641509433962
 40
0.9622641509433962
 40
0.9622641509433962
 40
1.0
 40
1.0
 40
1.0
 40
1.0
 10
4264.5621
 20
-853.3388
 30
0.0
 10
4264.5621
 20
-853.3388
 30
0.0
 10
4268.5906
 20
-828.0451
 30
0.0
 10
4268.5906
 20
-828.0451
 30
0.0
 10
4268.5906
 20
-828.0451
 30
0.0
 10
4268.8681
 20
-826.303
 30
0.0
 10
4268.937
 20
-822.9591
 30
0.0
 10
4266.6835
 20
-822.4882
 30
0.0
 10
4266.6835
 20
-822.4882
 30
0.0
 10
4264.2072
 20
-821.9708
 30
0.0
 10
4262.5462
 20
-827.416
 30
0.0
 10
4262.0341
 20
-829.0781
 30
0.0
 10
4262.0341
 20
-829.0781
 30
0.0
 10
4261.857
 20
-829.653
 30
0.0
 10
4261.4783
 20
-830.0781
 30
0.0
 10
4260.9275
 20
-830.3202
 30
0.0
 10
4260.9275
 20
-830.3202
 30
0.0
 10
4260.3768
 20
-830.5622
 30
0.0
 10
4259.8075
 20
-830.5538
 30
0.0
 10
4259.2642
 20
-830.2955
 30
0.0
 10
4259.2642
 20
-830.2955
 30
0.0
 10
4259.2642
 20
-830.2955
 30
0.0
 10
4258.546
 20
-829.9541
 30
0.0
 10
4258.546
 20
-829.9541
 30
0.0
 10
4258.546
 20
-829.9541
 30
0.0
 10
4257.5892
 20
-829.4993
 30
0.0
 10
4257.1535
 20
-828.3818
 30
0.0
 10
4257.5499
 20
-827.3994
 30
0.0
 10
4257.5499
 20
-827.3994
 30
0.0
 10
4258.1459
 20
-825.9225
 30
0.0
 10
4258.6422
 20
-824.4184
 30
0.0
 10
4259.2837
 20
-822.9557
 30
0.0
 10
4259.2837
 20
-822.9557
 30
0.0
 10
4260.9154
 20
-819.2351
 30
0.0
 10
4263.3757
 20
-816.0463
 30
0.0
 10
4267.8107
 20
-816.0463
 30
0.0
 10
4267.8107
 20
-816.0463
 30
0.0
 10
4270.4284
 20
-816.0463
 30
0.0
 10
4272.8138
 20
-816.8869
 30
0.0
 10
4274.4943
 20
-818.9492
 30
0.0
 10
4274.4943
 20
-818.9492
 30
0.0
 10
4276.6613
 20
-821.6085
 30
0.0
 10
4277.2163
 20
-824.9858
 30
0.0
 10
4276.7236
 20
-828.3114
 30
0.0
 10
4276.7236
 20
-828.3114
 30
0.0
 10
4276.7236
 20
-828.3114
 30
0.0
 10
4273.0252
 20
-853.2735
 30
0.0
 10
4273.0252
 20
-853.2735
 30
0.0
 10
4273.0252
 20
-853.2735
 30
0.0
 10
4273.0252
 20
-853.2735
 30
0.0
 10
4293.596
 20
-853.2735
 30
0.0
 10
4293.596
 20
-853.2735
 30
0.0
 10
4293.596
 20
-853.2735
 30
0.0
 10
4293.596
 20
-853.2735
 30
0.0
 10
4297.7041
 20
-826.4324
 30
0.0
 10
4297.7041
 20
-826.4324
 30
0.0
 10
4297.7041
 20
-826.4324
 30
0.0
 10
4297.8547
 20
-825.4488
 30
0.0
 10
4298.686
 20
-824.735
 30
0.0
 10
4299.6811
 20
-824.735
 30
0.0
 10
4299.6811
 20
-824.735
 30
0.0
 10
4299.6811
 20
-824.735
 30
0.0
 10
4303.8018
 20
-824.735
 30
0.0
 10
4303.8018
 20
-824.735
 30
0.0
 10
4303.8018
 20
-824.735
 30
0.0
 10
4304.4081
 20
-824.735
 30
0.0
 10
4304.9299
 20
-824.9758
 30
0.0
 10
4305.3234
 20
-825.437
 30
0.0
 10
4305.3234
 20
-825.437
 30
0.0
 10
4305.7169
 20
-825.8983
 30
0.0
 10
4305.8724
 20
-826.4516
 30
0.0
 10
4305.7768
 20
-827.0503
 30
0.0
 10
4305.7768
 20
-827.0503
 30
0.0
 10
4305.7768
 20
-827.0503
 30
0.0
 10
4301.5901
 20
-853.2735
 30
0.0
 10
4301.5901
 20
-853.2735
 30
0.0
 10
4301.5901
 20
-853.2735
 30
0.0
 10
4301.5901
 20
-853.2735
 30
0.0
 10
4303.3897
 20
-853.2735
 30
0.0
 10
4303.3897
 20
-853.2735
 30
0.0
 10
4303.3897
 20
-853.2735
 30
0.0
 10
4304.4913
 20
-853.2735
 30
0.0
 10
4305.3897
 20
-854.1719
 30
0.0
 10
4305.3897
 20
-855.2735
 30
0.0
 10
4305.3897
 20
-855.2735
 30
0.0
 10
4305.3897
 20
-855.2735
 30
0.0
 10
4305.3897
 20
-856.1212
 30
0.0
 10
4305.3897
 20
-856.1212
 30
0.0
 10
4305.3897
 20
-856.1212
 30
0.0
 10
4305.3897
 20
-857.2228
 30
0.0
 10
4304.4913
 20
-858.1212
 30
0.0
 10
4303.3897
 20
-858.1212
 30
0.0
 10
4303.3897
 20
-858.1212
 30
0.0
 10
4303.3897
 20
-858.1212
 30
0.0
 10
4300.918
 20
-858.1212
 30
0.0
 10
4300.918
 20
-858.1212
 30
0.0
 10
4300.918
 20
-858.1212
 30
0.0
 10
4300.918
 20
-858.1212
 30
0.0
 10
4297.802
 20
-876.1699
 30
0.0
 10
4297.802
 20
-876.1699
 30
0.0
 10
4297.802
 20
-876.1699
 30
0.0
 10
4297.6079
 20
-877.2947
 30
0.0
 10
4297.5604
 20
-878.4227
 30
0.0
 10
4297.5604
 20
-879.5619
 30
0.0
 10
4297.5604
 20
-879.5619
 30
0.0
 10
4297.5604
 20
-879.849
 30
0.0
 10
4297.5966
 20
-880.6085
 30
0.0
 10
4297.7402
 20
-881.0222
 30
0.0
 10
4297.7402
 20
-881.0222
 30
0.0
 10
4298.2056
 20
-880.7091
 30
0.0
 10
4298.8774
 20
-879.7531
 30
0.0
 10
4299.093
 20
-879.4194
 30
0.0
 10
4299.093
 20
-879.4194
 30
0.0
 10
4299.6535
 20
-878.5518
 30
0.0
 10
4300.1158
 20
-877.628
 30
0.0
 10
4300.5657
 20
-876.6998
 30
0.0
 10
4300.5657
 20
-876.6998
 30
0.0
 10
4300.7647
 20
-876.2893
 30
0.0
 10
4300.991
 20
-875.8958
 30
0.0
 10
4301.1996
 20
-875.4908
 30
0.0
 10
4301.1996
 20
-875.4908
 30
0.0
 10
4301.6706
 20
-874.5763
 30
0.0
 10
4302.7455
 20
-874.1696
 30
0.0
 10
4303.704
 20
-874.5432
 30
0.0
 10
4303.704
 20
-874.5432
 30
0.0
 10
4303.704
 20
-874.5432
 30
0.0
 10
4304.3987
 20
-874.814
 30
0.0
 10
4304.3987
 20
-874.814
 30
0.0
 10
4304.3987
 20
-874.814
 30
0.0
 10
4304.9498
 20
-875.0288
 30
0.0
 10
4305.3412
 20
-875.4266
 30
0.0
 10
4305.5472
 20
-875.9811
 30
0.0
 10
4305.5472
 20
-875.9811
 30
0.0
 10
4305.7531
 20
-876.5356
 30
0.0
 10
4305.7162
 20
-877.0924
 30
0.0
 10
4305.4389
 20
-877.6149
 30
0.0
 10
4305.4389
 20
-877.6149
 30
0.0
 10
4304.8825
 20
-878.6635
 30
0.0
 10
4304.3909
 20
-879.7471
 30
0.0
 10
4303.8385
 20
-880.7991
 30
0.0
 10
4303.8385
 20
-880.7991
 30
0.0
 10
4302.1115
 20
-884.088
 30
0.0
 10
4299.8229
 20
-886.9423
 30
0.0
 10
4295.7724
 20
-886.9423
 30
0.0
 10
4295.7724
 20
-886.9423
 30
0.0
 10
4291.4675
 20
-886.9423
 30
0.0
 10
4289.3927
 20
-884.0859
 30
0.0
 10
4289.3927
 20
-879.9739
 30
0.0
 10
4289.3927
 20
-879.9739
 30
0.0
 10
4289.3927
 20
-878.6695
 30
0.0
 10
4289.494
 20
-877.3666
 30
0.0
 10
4289.7004
 20
-876.0785
 30
0.0
 10
4289.7004
 20
-876.0785
 30
0.0
 10
4289.7004
 20
-876.0785
 30
0.0
 10
4292.5551
 20
-858.2625
 30
0.0
 10
4292.5551
 20
-858.2625
 30
0.0
 10
4292.5551
 20
-858.2625
 30
0.0
 10
4292.5551
 20
-858.2625
 30
0.0
 10
4272.0342
 20
-858.2625
 30
0.0
 10
4272.0342
 20
-858.2625
 30
0.0
 10
4272.0342
 20
-858.2625
 30
0.0
 10
4272.0342
 20
-858.2625
 30
0.0
 10
4267.7603
 20
-884.836
 30
0.0
 10
4267.7603
 20
-884.836
 30
0.0
 10
4267.7603
 20
-884.836
 30
0.0
 10
4267.6032
 20
-885.8132
 30
0.0
 10
4266.7754
 20
-886.5184
 30
0.0
 10
4265.7857
 20
-886.5184
 30
0.0
 10
4265.7857
 20
-886.5184
 30
0.0
 10
4265.7857
 20
-886.5184
 30
0.0
 10
4261.6062
 20
-886.5184
 30
0.0
 10
4261.6062
 20
-886.5184
 30
0.0
 10
4261.6062
 20
-886.5184
 30
0.0
 10
4260.9998
 20
-886.5184
 30
0.0
 10
4260.4778
 20
-886.2775
 30
0.0
 10
4260.0844
 20
-885.8161
 30
0.0
 10
4260.0844
 20
-885.8161
 30
0.0
 10
4259.6909
 20
-885.3547
 30
0.0
 10
4259.5355
 20
-884.8012
 30
0.0
 10
4259.6313
 20
-884.2024
 30
0.0
 10
4259.6313
 20
-884.2024
 30
0.0
 10
4259.6313
 20
-884.2024
 30
0.0
 10
4263.7817
 20
-858.2625
 30
0.0
 10
4263.7817
 20
-858.2625
 30
0.0
 10
4263.7817
 20
-858.2625
 30
0.0
 10
4263.7817
 20
-858.2625
 30
0.0
 10
4260.4642
 20
-858.2625
 30
0.0
 10
4260.4642
 20
-858.2625
 30
0.0
 10
4260.4642
 20
-858.2625
 30
0.0
 10
4259.8684
 20
-858.2625
 30
0.0
 10
4259.3556
 20
-858.0305
 30
0.0
 10
4258.9622
 20
-857.5831
 30
0.0
 10
4258.9622
 20
-857.5831
 30
0.0
 10
4258.5688
 20
-857.1357
 30
0.0
 10
4258.4044
 20
-856.5974
 30
0.0
 10
4258.4806
 20
-856.0065
 30
0.0
 10
4258.4806
 20
-856.0065
 30
0.0
 10
4258.4806
 20
-856.0065
 30
0.0
 10
4258.6219
 20
-854.9116
 30
0.0
 10
4258.6219
 20
-854.9116
 30
0.0
 10
4258.6219
 20
-854.9116
 30
0.0
 10
4258.7553
 20
-853.878
 30
0.0
 10
4259.6517
 20
-853.124
 30
0.0
 10
4260.6929
 20
-853.1695
 30
0.0
 10
4260.6929
 20
-853.1695
 30
0.0
 10
4260.6929
 20
-853.1695
 30
0.0
 10
4264.5621
 20
-853.3388
 30
0.0
 10
4264.5621
 20
-853.3388
 30
0.0
  0
ELLIPSE
  5
6C
330
1F
100
AcDbEntity
  8
Layer 1
370
     9
100
AcDbEllipse
 10
4235.2875
 20
-893.8553
 30
0.0
 11
0.0
 21
4.825
 31
0.0
210
0.0
220
0.0
230
1.0
 40
0.935461139896373
 41
0.0
 42
6.283185307179586
  0
ELLIPSE
  5
6D
330
1F
100
AcDbEntity
  8
Layer 1
370
     9
100
AcDbEllipse
 10
4049.9149
 20
-893.8553
 30
0.0
 11
0.0
 21
4.825
 31
0.0
210
0.0
220
0.0
230
1.0
 40
0.935461139896373
 41
0.0
 42
6.283185307179586
  0
SPLINE
  5
6E
330
1F
100
AcDbEntity
  8
Layer 1
370
    20
100
AcDbSpline
210
0.0
220
0.0
230
1.0
 70
    11
 71
     3
 72
    72
 73
    68
 74
     0
 42
0.0000000001
 43
0.0000000001
 12
1.0
 22
0.0
 32
0.0
 13
1.0
 23
0.0
 33
0.0
 40
0.0
 40
0.0
 40
0.0
 40
0.0
 40
0.0555555555555556
 40
0.0555555555555556
 40
0.0555555555555556
 40
0.0555555555555556
 40
0.1111111111111111
 40
0.1111111111111111
 40
0.1111111111111111
 40
0.1111111111111111
 40
0.1666666666666667
 40
0.1666666666666667
 40
0.1666666666666667
 40
0.1666666666666667
 40
0.2222222222222222
 40
0.2222222222222222
 40
0.2222222222222222
 40
0.2222222222222222
 40
0.2777777777777778
 40
0.2777777777777778
 40
0.2777777777777778
 40
0.2777777777777778
 40
0.3333333333333333
 40
0.3333333333333333
 40
0.3333333333333333
 40
0.3333333333333333
 40
0.3888888888888889
 40
0.3888888888888889
 40
0.3888888888888889
 40
0.3888888888888889
 40
0.4444444444444444
 40
0.4444444444444444
 40
0.4444444444444444
 40
0.4444444444444444
 40
0.5
 40
0.5
 40
0.5
 40
0.5
 40
0.5555555555555556
 40
0.5555555555555556
 40
0.5555555555555556
 40
0.5555555555555556
 40
0.6111111111111112
 40
0.6111111111111112
 40
0.6111111111111112
 40
0.6111111111111112
 40
0.6666666666666666
 40
0.6666666666666666
 40
0.6666666666666666
 40
0.6666666666666666
 40
0.7222222222222222
 40
0.7222222222222222
 40
0.7222222222222222
 40
0.7222222222222222
 40
0.7777777777777778
 40
0.7777777777777778
 40
0.7777777777777778
 40
0.7777777777777778
 40
0.8333333333333334
 40
0.8333333333333334
 40
0.8333333333333334
 40
0.8333333333333334
 40
0.8888888888888888
 40
0.8888888888888888
 40
0.8888888888888888
 40
0.8888888888888888
 40
1.0
 40
1.0
 40
1.0
 40
1.0
 10
3872.3982
 20
-111.032
 30
0.0
 10
3872.3982
 20
-111.032
 30
0.0
 10
3931.4535
 20
-432.3098
 30
0.0
 10
3931.4535
 20
-432.3098
 30
0.0
 10
3931.4535
 20
-432.3098
 30
0.0
 10
3931.4535
 20
-432.3098
 30
0.0
 10
3931.4535
 20
-468.3098
 30
0.0
 10
3931.4535
 20
-468.3098
 30
0.0
 10
3931.4535
 20
-468.3098
 30
0.0
 10
3931.4535
 20
-468.3098
 30
0.0
 10
3862.7218
 20
-950.2247
 30
0.0
 10
3862.7218
 20
-950.2247
 30
0.0
 10
3862.7218
 20
-950.2247
 30
0.0
 10
3852.5972
 20
-1014.9814
 30
0.0
 10
3933.2906
 20
-1022.3183
 30
0.0
 10
3943.2923
 20
-951.4702
 30
0.0
 10
3943.2923
 20
-951.4702
 30
0.0
 10
3943.2923
 20
-951.4702
 30
0.0
 10
4338.4373
 20
-951.4702
 30
0.0
 10
4338.4373
 20
-951.4702
 30
0.0
 10
4338.4373
 20
-951.4702
 30
0.0
 10
4348.439
 20
-1022.3183
 30
0.0
 10
4429.1324
 20
-1014.9814
 30
0.0
 10
4419.0078
 20
-950.2247
 30
0.0
 10
4419.0078
 20
-950.2247
 30
0.0
 10
4419.0078
 20
-950.2247
 30
0.0
 10
4350.2761
 20
-468.3098
 30
0.0
 10
4350.2761
 20
-468.3098
 30
0.0
 10
4350.2761
 20
-468.3098
 30
0.0
 10
4350.2761
 20
-468.3098
 30
0.0
 10
4350.2761
 20
-432.3098
 30
0.0
 10
4350.2761
 20
-432.3098
 30
0.0
 10
4350.2761
 20
-432.3098
 30
0.0
 10
4350.2761
 20
-432.3098
 30
0.0
 10
4409.3314
 20
-111.032
 30
0.0
 10
4409.3314
 20
-111.032
 30
0.0
 10
4409.3314
 20
-111.032
 30
0.0
 10
4415.8344
 20
-80.5194
 30
0.0
 10
4444.9998
 20
-85.2057
 30
0.0
 10
4457.3974
 20
-88.5907
 30
0.0
 10
4457.3974
 20
-88.5907
 30
0.0
 10
4473.0818
 20
-92.8731
 30
0.0
 10
4489.6883
 20
-86.0216
 30
0.0
 10
4494.4398
 20
-73.4678
 30
0.0
 10
4494.4398
 20
-73.4678
 30
0.0
 10
4499.1913
 20
-60.914
 30
0.0
 10
4490.2137
 20
-47.612
 30
0.0
 10
4474.5072
 20
-43.4104
 30
0.0
 10
4474.5072
 20
-43.4104
 30
0.0
 10
4391.044
 20
-18.4095
 30
0.0
 10
4250.3882
 20
-0.3366
 30
0.0
 10
4140.904
 20
-0.3366
 30
0.0
 10
4140.904
 20
-0.3366
 30
0.0
 10
4031.4198
 20
-0.3366
 30
0.0
 10
3890.6856
 20
-18.4095
 30
0.0
 10
3807.2224
 20
-43.4104
 30
0.0
 10
3807.2224
 20
-43.4104
 30
0.0
 10
3791.5159
 20
-47.612
 30
0.0
 10
3782.5383
 20
-60.914
 30
0.0
 10
3787.2898
 20
-73.4678
 30
0.0
 10
3787.2898
 20
-73.4678
 30
0.0
 10
3792.0413
 20
-86.0216
 30
0.0
 10
3808.6478
 20
-92.8731
 30
0.0
 10
3824.3322
 20
-88.5907
 30
0.0
 10
3824.3322
 20
-88.5907
 30
0.0
 10
3836.7298
 20
-85.2057
 30
0.0
 10
3865.8952
 20
-80.5194
 30
0.0
 10
3872.3982
 20
-111.032
 30
0.0
  0
SPLINE
  5
6F
330
1F
100
AcDbEntity
  8
Layer 1
 62
     5
370
    20
100
AcDbSpline
210
0.0
220
0.0
230
1.0
 70
    11
 71
     3
 72
    72
 73
    68
 74
     0
 42
0.0000000001
 43
0.0000000001
 12
1.0
 22
0.0
 32
0.0
 13
1.0
 23
0.0
 33
0.0
 40
0.0
 40
0.0
 40
0.0
 40
0.0
 40
0.0555555555555556
 40
0.0555555555555556
 40
0.0555555555555556
 40
0.0555555555555556
 40
0.1111111111111111
 40
0.1111111111111111
 40
0.1111111111111111
 40
0.1111111111111111
 40
0.1666666666666667
 40
0.1666666666666667
 40
0.1666666666666667
 40
0.1666666666666667
 40
0.2222222222222222
 40
0.2222222222222222
 40
0.2222222222222222
 40
0.2222222222222222
 40
0.2777777777777778
 40
0.2777777777777778
 40
0.2777777777777778
 40
0.2777777777777778
 40
0.3333333333333333
 40
0.3333333333333333
 40
0.3333333333333333
 40
0.3333333333333333
 40
0.3888888888888889
 40
0.3888888888888889
 40
0.3888888888888889
 40
0.3888888888888889
 40
0.4444444444444444
 40
0.4444444444444444
 40
0.4444444444444444
 40
0.4444444444444444
 40
0.5
 40
0.5
 40
0.5
 40
0.5
 40
0.5555555555555556
 40
0.5555555555555556
 40
0.5555555555555556
 40
0.5555555555555556
 40
0.6111111111111112
 40
0.6111111111111112
 40
0.6111111111111112
 40
0.6111111111111112
 40
0.6666666666666666
 40
0.6666666666666666
 40
0.6666666666666666
 40
0.6666666666666666
 40
0.7222222222222222
 40
0.7222222222222222
 40
0.7222222222222222
 40
0.7222222222222222
 40
0.7777777777777778
 40
0.7777777777777778
 40
0.7777777777777778
 40
0.7777777777777778
 40
0.8333333333333334
 40
0.8333333333333334
 40
0.8333333333333334
 40
0.8333333333333334
 40
0.8888888888888888
 40
0.8888888888888888
 40
0.8888888888888888
 40
0.8888888888888888
 40
1.0
 40
1.0
 40
1.0
 40
1.0
 10
3621.9559
 20
-569.777
 30
0.0
 10
3621.9559
 20
-569.777
 30
0.0
 10
3681.1161
 20
-891.0548
 30
0.0
 10
3681.1161
 20
-891.0548
 30
0.0
 10
3681.1161
 20
-891.0548
 30
0.0
 10
3687.6191
 20
-921.5674
 30
0.0
 10
3716.7845
 20
-916.8811
 30
0.0
 10
3729.1821
 20
-913.4961
 30
0.0
 10
3729.1821
 20
-913.4961
 30
0.0
 10
3744.8665
 20
-909.2137
 30
0.0
 10
3761.473
 20
-916.0652
 30
0.0
 10
3766.2245
 20
-928.619
 30
0.0
 10
3766.2245
 20
-928.619
 30
0.0
 10
3770.976
 20
-941.1728
 30
0.0
 10
3761.9984
 20
-954.4748
 30
0.0
 10
3746.2919
 20
-958.6764
 30
0.0
 10
3746.2919
 20
-958.6764
 30
0.0
 10
3662.8287
 20
-983.6773
 30
0.0
 10
3522.0945
 20
-1001.7502
 30
0.0
 10
3412.6103
 20
-1001.7502
 30
0.0
 10
3412.6103
 20
-1001.7502
 30
0.0
 10
3303.1261
 20
-1001.7502
 30
0.0
 10
3162.4703
 20
-983.6773
 30
0.0
 10
3079.0071
 20
-958.6764
 30
0.0
 10
3079.0071
 20
-958.6764
 30
0.0
 10
3063.3006
 20
-954.4748
 30
0.0
 10
3054.323
 20
-941.1728
 30
0.0
 10
3059.0745
 20
-928.619
 30
0.0
 10
3059.0745
 20
-928.619
 30
0.0
 10
3063.826
 20
-916.0652
 30
0.0
 10
3080.4325
 20
-909.2137
 30
0.0
 10
3096.1169
 20
-913.4961
 30
0.0
 10
3096.1169
 20
-913.4961
 30
0.0
 10
3108.5145
 20
-916.8811
 30
0.0
 10
3137.6799
 20
-921.5674
 30
0.0
 10
3144.1829
 20
-891.0548
 30
0.0
 10
3144.1829
 20
-891.0548
 30
0.0
 10
3144.1829
 20
-891.0548
 30
0.0
 10
3203.1333
 20
-569.6047
 30
0.0
 10
3203.1333
 20
-569.6047
 30
0.0
 10
3203.1333
 20
-569.6047
 30
0.0
 10
3203.1333
 20
-569.6047
 30
0.0
 10
3203.1333
 20
-533.777
 30
0.0
 10
3203.1333
 20
-533.777
 30
0.0
 10
3203.1333
 20
-533.777
 30
0.0
 10
3203.1333
 20
-533.777
 30
0.0
 10
3134.4016
 20
-51.8621
 30
0.0
 10
3134.4016
 20
-51.8621
 30
0.0
 10
3134.4016
 20
-51.8621
 30
0.0
 10
3124.277
 20
12.8946
 30
0.0
 10
3204.9704
 20
20.2315
 30
0.0
 10
3214.9721
 20
-50.6166
 30
0.0
 10
3214.9721
 20
-50.6166
 30
0.0
 10
3214.9721
 20
-50.6166
 30
0.0
 10
3249.2329
 20
-251.7503
 30
0.0
 10
3249.2329
 20
-251.7503
 30
0.0
 10
3249.2329
 20
-251.7503
 30
0.0
 10
3249.2329
 20
-251.7503
 30
0.0
 10
3662.1798
 20
-251.7503
 30
0.0
 10
3662.1798
 20
-251.7503
 30
0.0
 10
3662.1798
 20
-251.7503
 30
0.0
 10
3662.1798
 20
-251.7503
 30
0.0
 10
3621.9558
 20
-533.7534
 30
0.0
 10
3621.9558
 20
-533.7534
 30
0.0
 10
3621.9558
 20
-533.7534
 30
0.0
 10
3621.9558
 20
-533.7534
 30
0.0
 10
3621.9559
 20
-569.777
 30
0.0
 10
3621.9559
 20
-569.777
 30
0.0
  0
SPLINE
  5
70
330
1F
100
AcDbEntity
  8
Layer 1
 62
     5
370
    20
100
AcDbSpline
210
0.0
220
0.0
230
1.0
 70
    11
 71
     3
 72
   112
 73
   108
 74
     0
 42
0.0000000001
 43
0.0000000001
 12
1.0
 22
0.0
 32
0.0
 13
1.0
 23
0.0
 33
0.0
 40
0.0
 40
0.0
 40
0.0
 40
0.0
 40
0.0357142857142857
 40
0.0357142857142857
 40
0.0357142857142857
 40
0.0357142857142857
 40
0.0714285714285714
 40
0.0714285714285714
 40
0.0714285714285714
 40
0.0714285714285714
 40
0.1071428571428571
 40
0.1071428571428571
 40
0.1071428571428571
 40
0.1071428571428571
 40
0.1428571428571428
 40
0.1428571428571428
 40
0.1428571428571428
 40
0.1428571428571428
 40
0.1785714285714286
 40
0.1785714285714286
 40
0.1785714285714286
 40
0.1785714285714286
 40
0.2142857142857143
 40
0.2142857142857143
 40
0.2142857142857143
 40
0.2142857142857143
 40
0.25
 40
0.25
 40
0.25
 40
0.25
 40
0.2857142857142857
 40
0.2857142857142857
 40
0.2857142857142857
 40
0.2857142857142857
 40
0.3214285714285715
 40
0.3214285714285715
 40
0.3214285714285715
 40
0.3214285714285715
 40
0.3571428571428572
 40
0.3571428571428572
 40
0.3571428571428572
 40
0.3571428571428572
 40
0.3928571428571428
 40
0.3928571428571428
 40
0.3928571428571428
 40
0.3928571428571428
 40
0.4285714285714285
 40
0.4285714285714285
 40
0.4285714285714285
 40
0.4285714285714285
 40
0.4642857142857143
 40
0.4642857142857143
 40
0.4642857142857143
 40
0.4642857142857143
 40
0.5
 40
0.5
 40
0.5
 40
0.5
 40
0.5357142857142857
 40
0.5357142857142857
 40
0.5357142857142857
 40
0.5357142857142857
 40
0.5714285714285714
 40
0.5714285714285714
 40
0.5714285714285714
 40
0.5714285714285714
 40
0.6071428571428571
 40
0.6071428571428571
 40
0.6071428571428571
 40
0.6071428571428571
 40
0.6428571428571429
 40
0.6428571428571429
 40
0.6428571428571429
 40
0.6428571428571429
 40
0.6785714285714286
 40
0.6785714285714286
 40
0.6785714285714286
 40
0.6785714285714286
 40
0.7142857142857143
 40
0.7142857142857143
 40
0.7142857142857143
 40
0.7142857142857143
 40
0.75
 40
0.75
 40
0.75
 40
0.75
 40
0.7857142857142857
 40
0.7857142857142857
 40
0.7857142857142857
 40
0.7857142857142857
 40
0.8214285714285714
 40
0.8214285714285714
 40
0.8214285714285714
 40
0.8214285714285714
 40
0.8571428571428571
 40
0.8571428571428571
 40
0.8571428571428571
 40
0.8571428571428571
 40
0.8928571428571429
 40
0.8928571428571429
 40
0.8928571428571429
 40
0.8928571428571429
 40
0.9285714285714286
 40
0.9285714285714286
 40
0.9285714285714286
 40
0.9285714285714286
 40
1.0
 40
1.0
 40
1.0
 40
1.0
 10
3548.0561
 20
-756.6361
 30
0.0
 10
3543.9319
 20
-766.7559
 30
0.0
 10
3538.1497
 20
-776.998
 30
0.0
 10
3530.505
 20
-787.1163
 30
0.0
 10
3530.505
 20
-787.1163
 30
0.0
 10
3527.625
 20
-790.9372
 30
0.0
 10
3524.474
 20
-794.7463
 30
0.0
 10
3521.0448
 20
-798.5245
 30
0.0
 10
3521.0448
 20
-798.5245
 30
0.0
 10
3499.4726
 20
-822.3054
 30
0.0
 10
3488.3971
 20
-843.8025
 30
0.0
 10
3482.9669
 20
-861.3447
 30
0.0
 10
3482.9669
 20
-861.3447
 30
0.0
 10
3475.4694
 20
-885.5496
 30
0.0
 10
3478.7381
 20
-902.26
 30
0.0
 10
3480.0648
 20
-907.1439
 30
0.0
 10
3480.0648
 20
-907.1439
 30
0.0
 10
3480.1693
 20
-907.4031
 30
0.0
 10
3480.2753
 20
-907.6725
 30
0.0
 10
3480.3799
 20
-907.9258
 30
0.0
 10
3480.3799
 20
-907.9258
 30
0.0
 10
3480.318
 20
-907.8139
 30
0.0
 10
3480.2459
 20
-907.6666
 30
0.0
 10
3480.1708
 20
-907.5341
 30
0.0
 10
3480.1708
 20
-907.5341
 30
0.0
 10
3480.215
 20
-907.6828
 30
0.0
 10
3480.2636
 20
-907.8345
 30
0.0
 10
3480.2989
 20
-907.9611
 30
0.0
 10
3480.2989
 20
-907.9611
 30
0.0
 10
3480.078
 20
-907.3177
 30
0.0
 10
3479.7762
 20
-906.7125
 30
0.0
 10
3479.4037
 20
-906.1397
 30
0.0
 10
3479.4037
 20
-906.1397
 30
0.0
 10
3475.3737
 20
-899.2003
 30
0.0
 10
3460.9058
 20
-878.7633
 30
0.0
 10
3425.0307
 20
-866.3053
 30
0.0
 10
3425.0307
 20
-866.3053
 30
0.0
 10
3411.6509
 20
-861.6539
 30
0.0
 10
3395.2954
 20
-858.1187
 30
0.0
 10
3375.387
 20
-856.8038
 30
0.0
 10
3375.387
 20
-856.8038
 30
0.0
 10
3370.2469
 20
-856.4637
 30
0.0
 10
3365.2981
 20
-855.9013
 30
0.0
 10
3360.5216
 20
-855.1297
 30
0.0
 10
3360.5216
 20
-855.1297
 30
0.0
 10
3348.1343
 20
-853.142
 30
0.0
 10
3336.9852
 20
-849.7584
 30
0.0
 10
3327.0906
 20
-845.294
 30
0.0
 10
3327.0906
 20
-845.294
 30
0.0
 10
3321.4027
 20
-842.7276
 30
0.0
 10
3316.1301
 20
-839.8064
 30
0.0
 10
3311.2726
 20
-836.5848
 30
0.0
 10
3311.2726
 20
-836.5848
 30
0.0
 10
3307.3972
 20
-834.0125
 30
0.0
 10
3303.7854
 20
-831.2532
 30
0.0
 10
3300.4357
 20
-828.3363
 30
0.0
 10
3300.4357
 20
-828.3363
 30
0.0
 10
3286.4655
 20
-816.1419
 30
0.0
 10
3277.126
 20
-801.1484
 30
0.0
 10
3272.4982
 20
-785.5144
 30
0.0
 10
3272.4982
 20
-785.5144
 30
0.0
 10
3267.2418
 20
-767.7601
 30
0.0
 10
3268.0516
 20
-749.1798
 30
0.0
 10
3275.0543
 20
-732.9215
 30
0.0
 10
3275.0543
 20
-732.9215
 30
0.0
 10
3279.5997
 20
-722.3452
 30
0.0
 10
3286.757
 20
-712.7525
 30
0.0
 10
3296.5647
 20
-705.012
 30
0.0
 10
3296.5647
 20
-705.012
 30
0.0
 10
3303.778
 20
-699.3153
 30
0.0
 10
3310.8824
 20
-695.0439
 30
0.0
 10
3317.788
 20
-691.9047
 30
0.0
 10
3317.788
 20
-691.9047
 30
0.0
 10
3355.7054
 20
-674.6437
 30
0.0
 10
3387.3385
 20
-691.6205
 30
0.0
 10
3394.4782
 20
-696.0039
 30
0.0
 10
3394.4782
 20
-696.0039
 30
0.0
 10
3395.2409
 20
-696.475
 30
0.0
 10
3395.7283
 20
-696.8048
 30
0.0
 10
3395.9006
 20
-696.9212
 30
0.0
 10
3395.9006
 20
-696.9212
 30
0.0
 10
3396.2613
 20
-695.2529
 30
0.0
 10
3401.64
 20
-671.3337
 30
0.0
 10
3423.6481
 20
-653.416
 30
0.0
 10
3423.6481
 20
-653.416
 30
0.0
 10
3435.1476
 20
-644.0544
 30
0.0
 10
3451.1835
 20
-636.3243
 30
0.0
 10
3473.4095
 20
-634.2556
 30
0.0
 10
3473.4095
 20
-634.2556
 30
0.0
 10
3485.9544
 20
-633.0894
 30
0.0
 10
3497.8618
 20
-635.089
 30
0.0
 10
3508.5308
 20
-639.621
 30
0.0
 10
3508.5308
 20
-639.621
 30
0.0
 10
3524.7891
 20
-646.5295
 30
0.0
 10
3538.1703
 20
-659.3071
 30
0.0
 10
3546.5807
 20
-675.6964
 30
0.0
 10
3546.5807
 20
-675.6964
 30
0.0
 10
3553.981
 20
-690.1363
 30
0.0
 10
3557.5222
 20
-707.3708
 30
0.0
 10
3555.7612
 20
-725.8613
 30
0.0
 10
3555.7612
 20
-725.8613
 30
0.0
 10
3555.346
 20
-730.2888
 30
0.0
 10
3554.6097
 20
-734.7826
 30
0.0
 10
3553.5658
 20
-739.3382
 30
0.0
 10
3553.5658
 20
-739.3382
 30
0.0
 10
3552.251
 20
-745.035
 30
0.0
 10
3550.4208
 20
-750.823
 30
0.0
 10
3548.0561
 20
-756.6361
 30
0.0
  0
SPLINE
  5
71
330
1F
100
AcDbEntity
  8
Layer 1
 62
   250
370
    20
100
AcDbSpline
210
0.0
220
0.0
230
1.0
 70
    11
 71
     3
 72
    28
 73
    24
 74
     0
 42
0.0000000001
 43
0.0000000001
 12
1.0
 22
0.0
 32
0.0
 13
1.0
 23
0.0
 33
0.0
 40
0.0
 40
0.0
 40
0.0
 40
0.0
 40
0.1428571428571428
 40
0.1428571428571428
 40
0.1428571428571428
 40
0.1428571428571428
 40
0.2857142857142857
 40
0.2857142857142857
 40
0.2857142857142857
 40
0.2857142857142857
 40
0.4285714285714285
 40
0.4285714285714285
 40
0.4285714285714285
 40
0.4285714285714285
 40
0.5714285714285714
 40
0.5714285714285714
 40
0.5714285714285714
 40
0.5714285714285714
 40
0.7142857142857143
 40
0.7142857142857143
 40
0.7142857142857143
 40
0.7142857142857143
 40
1.0
 40
1.0
 40
1.0
 40
1.0
 10
844.2045
 20
-141.6019
 30
0.0
 10
844.2045
 20
-141.6019
 30
0.0
 10
1255.0777
 20
-141.6019
 30
0.0
 10
1255.0777
 20
-141.6019
 30
0.0
 10
1255.0777
 20
-141.6019
 30
0.0
 10
1266.0777
 20
-141.6019
 30
0.0
 10
1275.0777
 20
-150.6018
 30
0.0
 10
1275.0777
 20
-161.6018
 30
0.0
 10
1275.0777
 20
-161.6018
 30
0.0
 10
1275.0777
 20
-161.6018
 30
0.0
 10
1275.0777
 20
-161.6018
 30
0.0
 10
1275.0777
 20
-161.6018
 30
0.0
 10
1275.0777
 20
-161.6018
 30
0.0
 10
1275.0777
 20
-172.6019
 30
0.0
 10
1266.0777
 20
-181.6019
 30
0.0
 10
1255.0777
 20
-181.6019
 30
0.0
 10
1255.0777
 20
-181.6019
 30
0.0
 10
1255.0777
 20
-181.6019
 30
0.0
 10
844.2045
 20
-181.6019
 30
0.0
 10
844.2045
 20
-181.6019
 30
0.0
 10
844.2045
 20
-181.6019
 30
0.0
 10
844.2045
 20
-181.6019
 30
0.0
 10
844.2045
 20
-141.6019
 30
0.0
 10
844.2045
 20
-141.6019
 30
0.0
  0
SPLINE
  5
72
330
1F
100
AcDbEntity
  8
Layer 1
 62
   250
370
    20
100
AcDbSpline
210
0.0
220
0.0
230
1.0
 70
    11
 71
     3
 72
    28
 73
    24
 74
     0
 42
0.0000000001
 43
0.0000000001
 12
1.0
 22
0.0
 32
0.0
 13
1.0
 23
0.0
 33
0.0
 40
0.0
 40
0.0
 40
0.0
 40
0.0
 40
0.1428571428571428
 40
0.1428571428571428
 40
0.1428571428571428
 40
0.1428571428571428
 40
0.2857142857142857
 40
0.2857142857142857
 40
0.2857142857142857
 40
0.2857142857142857
 40
0.4285714285714285
 40
0.4285714285714285
 40
0.4285714285714285
 40
0.4285714285714285
 40
0.5714285714285714
 40
0.5714285714285714
 40
0.5714285714285714
 40
0.5714285714285714
 40
0.7142857142857143
 40
0.7142857142857143
 40
0.7142857142857143
 40
0.7142857142857143
 40
1.0
 40
1.0
 40
1.0
 40
1.0
 10
844.2045
 20
-50.5852
 30
0.0
 10
844.2045
 20
-50.5852
 30
0.0
 10
1255.0777
 20
-50.5852
 30
0.0
 10
1255.0777
 20
-50.5852
 30
0.0
 10
1255.0777
 20
-50.5852
 30
0.0
 10
1266.0777
 20
-50.5852
 30
0.0
 10
1275.0777
 20
-59.5851
 30
0.0
 10
1275.0777
 20
-70.5851
 30
0.0
 10
1275.0777
 20
-70.5851
 30
0.0
 10
1275.0777
 20
-70.5851
 30
0.0
 10
1275.0777
 20
-70.5851
 30
0.0
 10
1275.0777
 20
-70.5851
 30
0.0
 10
1275.0777
 20
-70.5851
 30
0.0
 10
1275.0777
 20
-81.5852
 30
0.0
 10
1266.0777
 20
-90.5852
 30
0.0
 10
1255.0777
 20
-90.5852
 30
0.0
 10
1255.0777
 20
-90.5852
 30
0.0
 10
1255.0777
 20
-90.5852
 30
0.0
 10
844.2045
 20
-90.5852
 30
0.0
 10
844.2045
 20
-90.5852
 30
0.0
 10
844.2045
 20
-90.5852
 30
0.0
 10
844.2045
 20
-90.5852
 30
0.0
 10
844.2045
 20
-50.5852
 30
0.0
 10
844.2045
 20
-50.5852
 30
0.0
  0
SPLINE
  5
73
330
1F
100
AcDbEntity
  8
Layer 1
 62
   250
370
    20
100
AcDbSpline
210
0.0
220
0.0
230
1.0
 70
    11
 71
     3
 72
    28
 73
    24
 74
     0
 42
0.0000000001
 43
0.0000000001
 12
1.0
 22
0.0
 32
0.0
 13
1.0
 23
0.0
 33
0.0
 40
0.0
 40
0.0
 40
0.0
 40
0.0
 40
0.1428571428571428
 40
0.1428571428571428
 40
0.1428571428571428
 40
0.1428571428571428
 40
0.2857142857142857
 40
0.2857142857142857
 40
0.2857142857142857
 40
0.2857142857142857
 40
0.4285714285714285
 40
0.4285714285714285
 40
0.4285714285714285
 40
0.4285714285714285
 40
0.5714285714285714
 40
0.5714285714285714
 40
0.5714285714285714
 40
0.5714285714285714
 40
0.7142857142857143
 40
0.7142857142857143
 40
0.7142857142857143
 40
0.7142857142857143
 40
1.0
 40
1.0
 40
1.0
 40
1.0
 10
3152.9632
 20
146.7105
 30
0.0
 10
3152.9632
 20
146.7105
 30
0.0
 10
3563.8364
 20
146.7105
 30
0.0
 10
3563.8364
 20
146.7105
 30
0.0
 10
3563.8364
 20
146.7105
 30
0.0
 10
3574.8364
 20
146.7105
 30
0.0
 10
3583.8364
 20
137.7106
 30
0.0
 10
3583.8364
 20
126.7106
 30
0.0
 10
3583.8364
 20
126.7106
 30
0.0
 10
3583.8364
 20
126.7106
 30
0.0
 10
3583.8364
 20
126.7106
 30
0.0
 10
3583.8364
 20
126.7106
 30
0.0
 10
3583.8364
 20
126.7106
 30
0.0
 10
3583.8364
 20
115.7105
 30
0.0
 10
3574.8364
 20
106.7105
 30
0.0
 10
3563.8364
 20
106.7105
 30
0.0
 10
3563.8364
 20
106.7105
 30
0.0
 10
3563.8364
 20
106.7105
 30
0.0
 10
3152.9632
 20
106.7105
 30
0.0
 10
3152.9632
 20
106.7105
 30
0.0
 10
3152.9632
 20
106.7105
 30
0.0
 10
3152.9632
 20
106.7105
 30
0.0
 10
3152.9632
 20
146.7105
 30
0.0
 10
3152.9632
 20
146.7105
 30
0.0
  0
SPLINE
  5
74
330
1F
100
AcDbEntity
  8
Layer 1
 62
   250
370
    20
100
AcDbSpline
210
0.0
220
0.0
230
1.0
 70
    11
 71
     3
 72
    28
 73
    24
 74
     0
 42
0.0000000001
 43
0.0000000001
 12
1.0
 22
0.0
 32
0.0
 13
1.0
 23
0.0
 33
0.0
 40
0.0
 40
0.0
 40
0.0
 40
0.0
 40
0.1428571428571428
 40
0.1428571428571428
 40
0.1428571428571428
 40
0.1428571428571428
 40
0.2857142857142857
 40
0.2857142857142857
 40
0.2857142857142857
 40
0.2857142857142857
 40
0.4285714285714285
 40
0.4285714285714285
 40
0.4285714285714285
 40
0.4285714285714285
 40
0.5714285714285714
 40
0.5714285714285714
 40
0.5714285714285714
 40
0.5714285714285714
 40
0.7142857142857143
 40
0.7142857142857143
 40
0.7142857142857143
 40
0.7142857142857143
 40
1.0
 40
1.0
 40
1.0
 40
1.0
 10
3152.9632
 20
245.1356
 30
0.0
 10
3152.9632
 20
245.1356
 30
0.0
 10
3563.8364
 20
245.1356
 30
0.0
 10
3563.8364
 20
245.1356
 30
0.0
 10
3563.8364
 20
245.1356
 30
0.0
 10
3574.8364
 20
245.1356
 30
0.0
 10
3583.8364
 20
236.1357
 30
0.0
 10
3583.8364
 20
225.1357
 30
0.0
 10
3583.8364
 20
225.1357
 30
0.0
 10
3583.8364
 20
225.1357
 30
0.0
 10
3583.8364
 20
225.1357
 30
0.0
 10
3583.8364
 20
225.1357
 30
0.0
 10
3583.8364
 20
225.1357
 30
0.0
 10
3583.8364
 20
214.1356
 30
0.0
 10
3574.8364
 20
205.1356
 30
0.0
 10
3563.8364
 20
205.1356
 30
0.0
 10
3563.8364
 20
205.1356
 30
0.0
 10
3563.8364
 20
205.1356
 30
0.0
 10
3152.9632
 20
205.1356
 30
0.0
 10
3152.9632
 20
205.1356
 30
0.0
 10
3152.9632
 20
205.1356
 30
0.0
 10
3152.9632
 20
205.1356
 30
0.0
 10
3152.9632
 20
245.1356
 30
0.0
 10
3152.9632
 20
245.1356
 30
0.0
  0
SPLINE
  5
75
330
1F
100
AcDbEntity
  8
Layer 1
 62
   250
370
    20
100
AcDbSpline
210
0.0
220
0.0
230
1.0
 70
    11
 71
     3
 72
    28
 73
    24
 74
     0
 42
0.0000000001
 43
0.0000000001
 12
1.0
 22
0.0
 32
0.0
 13
1.0
 23
0.0
 33
0.0
 40
0.0
 40
0.0
 40
0.0
 40
0.0
 40
0.1428571428571428
 40
0.1428571428571428
 40
0.1428571428571428
 40
0.1428571428571428
 40
0.2857142857142857
 40
0.2857142857142857
 40
0.2857142857142857
 40
0.2857142857142857
 40
0.4285714285714285
 40
0.4285714285714285
 40
0.4285714285714285
 40
0.4285714285714285
 40
0.5714285714285714
 40
0.5714285714285714
 40
0.5714285714285714
 40
0.5714285714285714
 40
0.7142857142857143
 40
0.7142857142857143
 40
0.7142857142857143
 40
0.7142857142857143
 40
1.0
 40
1.0
 40
1.0
 40
1.0
 10
3152.9632
 20
343.5607
 30
0.0
 10
3152.9632
 20
343.5607
 30
0.0
 10
3563.8364
 20
343.5607
 30
0.0
 10
3563.8364
 20
343.5607
 30
0.0
 10
3563.8364
 20
343.5607
 30
0.0
 10
3574.8364
 20
343.5607
 30
0.0
 10
3583.8364
 20
334.5608
 30
0.0
 10
3583.8364
 20
323.5608
 30
0.0
 10
3583.8364
 20
323.5608
 30
0.0
 10
3583.8364
 20
323.5608
 30
0.0
 10
3583.8364
 20
323.5608
 30
0.0
 10
3583.8364
 20
323.5608
 30
0.0
 10
3583.8364
 20
323.5608
 30
0.0
 10
3583.8364
 20
312.5607
 30
0.0
 10
3574.8364
 20
303.5607
 30
0.0
 10
3563.8364
 20
303.5607
 30
0.0
 10
3563.8364
 20
303.5607
 30
0.0
 10
3563.8364
 20
303.5607
 30
0.0
 10
3152.9632
 20
303.5607
 30
0.0
 10
3152.9632
 20
303.5607
 30
0.0
 10
3152.9632
 20
303.5607
 30
0.0
 10
3152.9632
 20
303.5607
 30
0.0
 10
3152.9632
 20
343.5607
 30
0.0
 10
3152.9632
 20
343.5607
 30
0.0
  0
ENDSEC
  0
SECTION
  2
OBJECTS
  0
DICTIONARY
  5
C
330
0
100
AcDbDictionary
281
     1
  3
ACAD_GROUP
350
D
  3
ACAD_IMAGE_DICT
350
41
  3
ACAD_LAYOUT
350
1A
  3
ACAD_MATERIAL
350
3B
  3
ACAD_MLEADERSTYLE
350
97
  3
ACAD_MLINESTYLE
350
17
  3
ACAD_PLOTSETTINGS
350
19
  3
ACAD_PLOTSTYLENAME
350
E
  3
ACAD_TABLESTYLE
350
96
  3
ACAD_VISUALSTYLE
350
2A
  0
IMAGEDEF_REACTOR
  5
44
330
43
100
AcDbRasterImageDefReactor
 90
        2
330
43
  0
DICTIONARY
  5
D
102
{ACAD_REACTORS
330
C
102
}
330
C
100
AcDbDictionary
281
     1
  0
DICTIONARY
  5
41
102
{ACAD_REACTORS
330
C
102
}
330
C
100
AcDbDictionary
281
     1
  3
Image #1
350
42
  0
DICTIONARY
  5
1A
102
{ACAD_REACTORS
330
C
102
}
330
C
100
AcDbDictionary
281
     1
  3
Layout1
350
1E
  3
Layout2
350
26
  3
Model
350
22
  0
DICTIONARY
  5
3B
102
{ACAD_REACTORS
330
C
102
}
330
C
100
AcDbDictionary
281
     1
  3
ByBlock
350
3D
  3
ByLayer
350
3C
  3
Global
350
3E
  0
DICTIONARY
  5
97
102
{ACAD_REACTORS
330
C
102
}
330
C
100
AcDbDictionary
281
     1
  0
DICTIONARY
  5
17
102
{ACAD_REACTORS
330
C
102
}
330
C
100
AcDbDictionary
281
     1
  3
Standard
350
18
  0
DICTIONARY
  5
19
102
{ACAD_REACTORS
330
C
102
}
330
C
100
AcDbDictionary
281
     1
  0
ACDBDICTIONARYWDFLT
  5
E
102
{ACAD_REACTORS
330
C
102
}
330
C
100
AcDbDictionary
281
     1
  3
Normal
350
F
100
AcDbDictionaryWithDefault
340
F
  0
DICTIONARY
  5
96
102
{ACAD_REACTORS
330
C
102
}
330
C
100
AcDbDictionary
281
     1
  0
DICTIONARY
  5
2A
102
{ACAD_REACTORS
330
C
102
}
330
C
100
AcDbDictionary
281
     1
  3
2dWireframe
350
2F
  3
3D Hidden
350
31
  3
3dWireframe
350
30
  3
Basic
350
32
  3
Brighten
350
36
  3
ColorChange
350
3A
  3
Conceptual
350
34
  3
Dim
350
35
  3
Facepattern
350
39
  3
Flat
350
2B
  3
FlatWithEdges
350
2C
  3
Gouraud
350
2D
  3
GouraudWithEdges
350
2E
  3
Linepattern
350
38
  3
Realistic
350
33
  3
Thicken
350
37
  0
IMAGEDEF
  5
42
102
{ACAD_REACTORS
330
41
330
44
102
}
330
41
100
AcDbRasterImageDef
 90
        0
  1
C:\\Users\\Mustafa\\Desktop\\sallama beşik_ACD_0.jpg
 10
3742.0
 20
2810.0
 11
0.0002672367717797969
 21
0.0002672367717797969
280
     1
281
     5
  0
LAYOUT
  5
1E
102
{ACAD_REACTORS
330
1A
102
}
330
1A
100
AcDbPlotSettings
  1

  2
none_device
  4

  6

 40
0.0
 41
0.0
 42
0.0
 43
0.0
 44
0.0
 45
0.0
 46
0.0
 47
0.0
 48
0.0
 49
0.0
140
0.0
141
0.0
142
1.0
143
1.0
 70
   688
 72
     0
 73
     0
 74
     5
  7

 75
    16
 76
     0
 77
     2
 78
   300
147
1.0
148
0.0
149
0.0
100
AcDbLayout
  1
Layout1
 70
     1
 71
     1
 10
0.0
 20
0.0
 11
12.0
 21
9.0
 12
0.0
 22
0.0
 32
0.0
 14
1.000000000000000E+20
 24
1.000000000000000E+20
 34
1.000000000000000E+20
 15
-1.000000000000000E+20
 25
-1.000000000000000E+20
 35
-1.000000000000000E+20
146
0.0
 13
0.0
 23
0.0
 33
0.0
 16
1.0
 26
0.0
 36
0.0
 17
0.0
 27
1.0
 37
0.0
 76
     0
330
1B
  0
LAYOUT
  5
26
102
{ACAD_REACTORS
330
1A
102
}
330
1A
100
AcDbPlotSettings
  1

  2
none_device
  4

  6

 40
0.0
 41
0.0
 42
0.0
 43
0.0
 44
0.0
 45
0.0
 46
0.0
 47
0.0
 48
0.0
 49
0.0
140
0.0
141
0.0
142
1.0
143
1.0
 70
   688
 72
     0
 73
     0
 74
     5
  7

 75
    16
 76
     0
 77
     2
 78
   300
147
1.0
148
0.0
149
0.0
100
AcDbLayout
  1
Layout2
 70
     1
 71
     2
 10
0.0
 20
0.0
 11
0.0
 21
0.0
 12
0.0
 22
0.0
 32
0.0
 14
0.0
 24
0.0
 34
0.0
 15
0.0
 25
0.0
 35
0.0
146
0.0
 13
0.0
 23
0.0
 33
0.0
 16
1.0
 26
0.0
 36
0.0
 17
0.0
 27
1.0
 37
0.0
 76
     0
330
23
  0
LAYOUT
  5
22
102
{ACAD_REACTORS
330
1A
102
}
330
1A
100
AcDbPlotSettings
  1

  2
none_device
  4

  6

 40
0.0
 41
0.0
 42
0.0
 43
0.0
 44
0.0
 45
0.0
 46
0.0
 47
0.0
 48
0.0
 49
0.0
140
0.0
141
0.0
142
1.0
143
1.0
 70
  1712
 72
     0
 73
     0
 74
     0
  7

 75
     0
 76
     0
 77
     2
 78
   300
147
1.0
148
0.0
149
0.0
100
AcDbLayout
  1
Model
 70
     1
 71
     0
 10
0.0
 20
0.0
 11
12.0
 21
9.0
 12
0.0
 22
0.0
 32
0.0
 14
-992.373
 24
-1086.8271
 34
0.0
 15
5136.1657
 25
1768.3497
 35
0.0
146
0.0
 13
0.0
 23
0.0
 33
0.0
 16
1.0
 26
0.0
 36
0.0
 17
0.0
 27
1.0
 37
0.0
 76
     0
330
1F
331
29
  0
MATERIAL
  5
3D
102
{ACAD_REACTORS
330
3B
102
}
330
3B
100
AcDbMaterial
  1
ByBlock
 72
     1
 94
      127
  0
MATERIAL
  5
3C
102
{ACAD_REACTORS
330
3B
102
}
330
3B
100
AcDbMaterial
  1
ByLayer
 72
     1
 94
      127
  0
MATERIAL
  5
3E
102
{ACAD_REACTORS
330
3B
102
}
330
3B
100
AcDbMaterial
  1
Global
 72
     1
 94
      127
  0
MLINESTYLE
  5
18
102
{ACAD_REACTORS
330
17
102
}
330
17
100
AcDbMlineStyle
  2
Standard
 70
     0
  3

 62
   256
 51
90.0
 52
90.0
 71
     2
 49
0.5
 62
   256
  6
BYLAYER
 49
-0.5
 62
   256
  6
BYLAYER
  0
ACDBPLACEHOLDER
  5
F
102
{ACAD_REACTORS
330
E
102
}
330
E
  0
VISUALSTYLE
  5
2F
102
{ACAD_REACTORS
330
2A
102
}
102
{ACAD_XDICTIONARY
360
7E
102
}
330
2A
100
AcDbVisualStyle
  2
2dWireframe
 70
     4
 71
     0
 72
     2
 73
     0
 90
        0
 40
-0.6
 41
-30.0
 62
     5
 63
     7
421
 16777215
 74
     1
 91
        4
 64
     7
 65
   257
 75
     1
175
     1
 42
1.0
 92
        0
 66
   257
 43
1.0
 76
     1
 77
     6
 78
     2
 67
     7
 79
     5
170
     0
171
     0
290
     0
174
     0
 93
        1
 44
0.0
173
     0
291
     0
 45
0.0
  0
VISUALSTYLE
  5
31
102
{ACAD_REACTORS
330
2A
102
}
102
{ACAD_XDICTIONARY
360
82
102
}
330
2A
100
AcDbVisualStyle
  2
3D Hidden
 70
     6
 71
     1
 72
     2
 73
     2
 90
        0
 40
-0.6
 41
-30.0
 62
     5
 63
     7
421
 16777215
 74
     2
 91
        2
 64
     7
 65
   257
 75
     2
175
     1
 42
40.0
 92
        0
 66
   257
 43
1.0
 76
     1
 77
     6
 78
     2
 67
     7
 79
     3
170
     0
171
     0
290
     0
174
     0
 93
        1
 44
0.0
173
     0
291
     0
 45
0.0
  0
VISUALSTYLE
  5
30
102
{ACAD_REACTORS
330
2A
102
}
102
{ACAD_XDICTIONARY
360
80
102
}
330
2A
100
AcDbVisualStyle
  2
3dWireframe
 70
     5
 71
     0
 72
     2
 73
     0
 90
        0
 40
-0.6
 41
-30.0
 62
     5
 63
     7
421
 16777215
 74
     1
 91
        4
 64
     7
 65
   257
 75
     1
175
     1
 42
1.0
 92
        0
 66
   257
 43
1.0
 76
     1
 77
     6
 78
     2
 67
     7
 79
     5
170
     0
171
     0
290
     0
174
     0
 93
        1
 44
0.0
173
     0
291
     0
 45
0.0
  0
VISUALSTYLE
  5
32
102
{ACAD_REACTORS
330
2A
102
}
102
{ACAD_XDICTIONARY
360
84
102
}
330
2A
100
AcDbVisualStyle
  2
Basic
 70
     7
 71
     1
 72
     0
 73
     1
 90
        0
 40
-0.6
 41
-30.0
 62
     5
 63
     7
421
 16777215
 74
     0
 91
        4
 64
     7
 65
   257
 75
     1
175
     1
 42
1.0
 92
        8
 66
     7
 43
1.0
 76
     1
 77
     6
 78
     2
 67
     7
 79
     5
170
     0
171
     0
290
     0
174
     0
 93
        1
 44
0.0
173
     0
291
     1
 45
0.0
  0
VISUALSTYLE
  5
36
102
{ACAD_REACTORS
330
2A
102
}
102
{ACAD_XDICTIONARY
360
8C
102
}
330
2A
100
AcDbVisualStyle
  2
Brighten
 70
    12
 71
     2
 72
     2
 73
     0
 90
        0
 40
-0.6
 41
-30.0
 62
     5
 63
     7
421
 16777215
 74
     1
 91
        4
 64
     7
 65
   257
 75
     1
175
     1
 42
1.0
 92
        8
 66
     7
 43
1.0
 76
     1
 77
     6
 78
     2
 67
     7
 79
     5
170
     0
171
     0
290
     0
174
     0
 93
        1
 44
50.0
173
     0
291
     1
 45
0.0
  0
VISUALSTYLE
  5
3A
102
{ACAD_REACTORS
330
2A
102
}
102
{ACAD_XDICTIONARY
360
94
102
}
330
2A
100
AcDbVisualStyle
  2
ColorChange
 70
    16
 71
     2
 72
     2
 73
     3
 90
        0
 40
-0.6
 41
-30.0
 62
     5
 63
     8
421
  8421504
 74
     1
 91
        4
 64
     7
 65
   257
 75
     1
175
     1
 42
1.0
 92
        8
 66
     8
424
  8421504
 43
1.0
 76
     1
 77
     6
 78
     2
 67
     7
 79
     5
170
     0
171
     0
290
     0
174
     0
 93
        1
 44
0.0
173
     0
291
     1
 45
0.0
  0
VISUALSTYLE
  5
34
102
{ACAD_REACTORS
330
2A
102
}
102
{ACAD_XDICTIONARY
360
88
102
}
330
2A
100
AcDbVisualStyle
  2
Conceptual
 70
     9
 71
     3
 72
     2
 73
     0
 90
        0
 40
-0.6
 41
-30.0
 62
     5
 63
     7
421
 16777215
 74
     2
 91
        2
 64
     7
 65
   257
 75
     1
175
     1
 42
40.0
 92
        8
 66
     7
 43
1.0
 76
     1
 77
     6
 78
     2
 67
     7
 79
     3
170
     0
171
     0
290
     0
174
     0
 93
        1
 44
0.0
173
     0
291
     0
 45
0.0
  0
VISUALSTYLE
  5
35
102
{ACAD_REACTORS
330
2A
102
}
102
{ACAD_XDICTIONARY
360
8A
102
}
330
2A
100
AcDbVisualStyle
  2
Dim
 70
    11
 71
     2
 72
     2
 73
     0
 90
        0
 40
-0.6
 41
-30.0
 62
     5
 63
     7
421
 16777215
 74
     1
 91
        4
 64
     7
 65
   257
 75
     1
175
     1
 42
1.0
 92
        8
 66
     7
 43
1.0
 76
     1
 77
     6
 78
     2
 67
     7
 79
     5
170
     0
171
     0
290
     0
174
     0
 93
        1
 44
-50.0
173
     0
291
     1
 45
0.0
  0
VISUALSTYLE
  5
39
102
{ACAD_REACTORS
330
2A
102
}
102
{ACAD_XDICTIONARY
360
92
102
}
330
2A
100
AcDbVisualStyle
  2
Facepattern
 70
    15
 71
     2
 72
     2
 73
     0
 90
        0
 40
-0.6
 41
-30.0
 62
     5
 63
     7
421
 16777215
 74
     1
 91
        4
 64
     7
 65
   257
 75
     1
175
     1
 42
1.0
 92
        8
 66
     7
 43
1.0
 76
     1
 77
     6
 78
     2
 67
     7
 79
     5
170
     0
171
     0
290
     0
174
     0
 93
        1
 44
0.0
173
     0
291
     1
 45
0.0
  0
VISUALSTYLE
  5
2B
102
{ACAD_REACTORS
330
2A
102
}
102
{ACAD_XDICTIONARY
360
76
102
}
330
2A
100
AcDbVisualStyle
  2
Flat
 70
     0
 71
     2
 72
     1
 73
     1
 90
        2
 40
-0.6
 41
30.0
 62
     5
 63
     7
421
 16777215
 74
     0
 91
        4
 64
     7
 65
   257
 75
     1
175
     1
 42
1.0
 92
        8
 66
     7
 43
1.0
 76
     1
 77
     6
 78
     2
 67
     7
 79
     5
170
     0
171
     0
290
     0
174
     0
 93
       13
 44
0.0
173
     0
291
     1
 45
0.0
  0
VISUALSTYLE
  5
2C
102
{ACAD_REACTORS
330
2A
102
}
102
{ACAD_XDICTIONARY
360
78
102
}
330
2A
100
AcDbVisualStyle
  2
FlatWithEdges
 70
     1
 71
     2
 72
     1
 73
     1
 90
        2
 40
-0.6
 41
30.0
 62
     5
 63
     7
421
 16777215
 74
     1
 91
        4
 64
     7
 65
   257
 75
     1
175
     1
 42
1.0
 92
        0
 66
   257
 43
1.0
 76
     1
 77
     6
 78
     2
 67
     7
 79
     5
170
     0
171
     0
290
     0
174
     0
 93
       13
 44
0.0
173
     0
291
     1
 45
0.0
  0
VISUALSTYLE
  5
2D
102
{ACAD_REACTORS
330
2A
102
}
102
{ACAD_XDICTIONARY
360
7A
102
}
330
2A
100
AcDbVisualStyle
  2
Gouraud
 70
     2
 71
     2
 72
     2
 73
     1
 90
        2
 40
-0.6
 41
30.0
 62
     5
 63
     7
421
 16777215
 74
     0
 91
        4
 64
     7
 65
   257
 75
     1
175
     1
 42
1.0
 92
        0
 66
     7
 43
1.0
 76
     1
 77
     6
 78
     2
 67
     7
 79
     5
170
     0
171
     0
290
     0
174
     0
 93
       13
 44
0.0
173
     0
291
     1
 45
0.0
  0
VISUALSTYLE
  5
2E
102
{ACAD_REACTORS
330
2A
102
}
102
{ACAD_XDICTIONARY
360
7C
102
}
330
2A
100
AcDbVisualStyle
  2
GouraudWithEdges
 70
     3
 71
     2
 72
     2
 73
     1
 90
        2
 40
-0.6
 41
30.0
 62
     5
 63
     7
421
 16777215
 74
     1
 91
        4
 64
     7
 65
   257
 75
     1
175
     1
 42
1.0
 92
        0
 66
   257
 43
1.0
 76
     1
 77
     6
 78
     2
 67
     7
 79
     5
170
     0
171
     0
290
     0
174
     0
 93
       13
 44
0.0
173
     0
291
     1
 45
0.0
  0
VISUALSTYLE
  5
38
102
{ACAD_REACTORS
330
2A
102
}
102
{ACAD_XDICTIONARY
360
90
102
}
330
2A
100
AcDbVisualStyle
  2
Linepattern
 70
    14
 71
     2
 72
     2
 73
     0
 90
        0
 40
-0.6
 41
-30.0
 62
     5
 63
     7
421
 16777215
 74
     1
 91
        4
 64
     7
 65
   257
 75
     7
175
     7
 42
1.0
 92
        8
 66
     7
 43
1.0
 76
     1
 77
     6
 78
     2
 67
     7
 79
     5
170
     0
171
     0
290
     0
174
     0
 93
        1
 44
0.0
173
     0
291
     1
 45
0.0
  0
VISUALSTYLE
  5
33
102
{ACAD_REACTORS
330
2A
102
}
102
{ACAD_XDICTIONARY
360
86
102
}
330
2A
100
AcDbVisualStyle
  2
Realistic
 70
     8
 71
     2
 72
     2
 73
     0
 90
        0
 40
-0.6
 41
-30.0
 62
     5
 63
     7
421
 16777215
 74
     1
 91
        0
 64
     7
 65
   257
 75
     1
175
     1
 42
1.0
 92
        8
 66
     8
424
  7895160
 43
1.0
 76
     1
 77
     6
 78
     2
 67
     7
 79
     5
170
     0
171
     0
290
     0
174
     0
 93
       13
 44
0.0
173
     0
291
     0
 45
0.0
  0
VISUALSTYLE
  5
37
102
{ACAD_REACTORS
330
2A
102
}
102
{ACAD_XDICTIONARY
360
8E
102
}
330
2A
100
AcDbVisualStyle
  2
Thicken
 70
    13
 71
     2
 72
     2
 73
     0
 90
        0
 40
-0.6
 41
-30.0
 62
     5
 63
     7
421
 16777215
 74
     1
 91
        4
 64
     7
 65
   257
 75
     1
175
     1
 42
1.0
 92
       12
 66
     7
 43
1.0
 76
     1
 77
     6
 78
     2
 67
     7
 79
     5
170
     0
171
     0
290
     0
174
     0
 93
        1
 44
0.0
173
     0
291
     1
 45
0.0
  0
DICTIONARY
  5
7E
330
2F
100
AcDbDictionary
280
     1
281
     1
  3
ACAD_XREC_ROUNDTRIP
360
7F
  0
DICTIONARY
  5
82
330
31
100
AcDbDictionary
280
     1
281
     1
  3
ACAD_XREC_ROUNDTRIP
360
83
  0
DICTIONARY
  5
80
330
30
100
AcDbDictionary
280
     1
281
     1
  3
ACAD_XREC_ROUNDTRIP
360
81
  0
DICTIONARY
  5
84
330
32
100
AcDbDictionary
280
     1
281
     1
  3
ACAD_XREC_ROUNDTRIP
360
85
  0
DICTIONARY
  5
8C
330
36
100
AcDbDictionary
280
     1
281
     1
  3
ACAD_XREC_ROUNDTRIP
360
8D
  0
DICTIONARY
  5
94
330
3A
100
AcDbDictionary
280
     1
281
     1
  3
ACAD_XREC_ROUNDTRIP
360
95
  0
DICTIONARY
  5
88
330
34
100
AcDbDictionary
280
     1
281
     1
  3
ACAD_XREC_ROUNDTRIP
360
89
  0
DICTIONARY
  5
8A
330
35
100
AcDbDictionary
280
     1
281
     1
  3
ACAD_XREC_ROUNDTRIP
360
8B
  0
DICTIONARY
  5
92
330
39
100
AcDbDictionary
280
     1
281
     1
  3
ACAD_XREC_ROUNDTRIP
360
93
  0
DICTIONARY
  5
76
330
2B
100
AcDbDictionary
280
     1
281
     1
  3
ACAD_XREC_ROUNDTRIP
360
77
  0
DICTIONARY
  5
78
330
2C
100
AcDbDictionary
280
     1
281
     1
  3
ACAD_XREC_ROUNDTRIP
360
79
  0
DICTIONARY
  5
7A
330
2D
100
AcDbDictionary
280
     1
281
     1
  3
ACAD_XREC_ROUNDTRIP
360
7B
  0
DICTIONARY
  5
7C
330
2E
100
AcDbDictionary
280
     1
281
     1
  3
ACAD_XREC_ROUNDTRIP
360
7D
  0
DICTIONARY
  5
90
330
38
100
AcDbDictionary
280
     1
281
     1
  3
ACAD_XREC_ROUNDTRIP
360
91
  0
DICTIONARY
  5
86
330
33
100
AcDbDictionary
280
     1
281
     1
  3
ACAD_XREC_ROUNDTRIP
360
87
  0
DICTIONARY
  5
8E
330
37
100
AcDbDictionary
280
     1
281
     1
  3
ACAD_XREC_ROUNDTRIP
360
8F
  0
XRECORD
  5
7F
102
{ACAD_REACTORS
330
7E
102
}
330
7E
100
AcDbXrecord
280
     1
102
RTVSPropertyOp0
 70
     1
102
RTVSPropertyOp1
 70
     1
102
RTVSPropertyOp2
 70
     1
102
RTVSPropertyOp3
 70
     1
102
RTVSPropertyOp4
 70
     1
102
RTVSPropertyOp5
 70
     1
102
RTVSPropertyOp6
 70
     1
102
RTVSPropertyOp7
 70
     1
102
RTVSPropertyOp8
 70
     1
102
RTVSPropertyOp9
 70
     1
102
RTVSPropertyOp10
 70
     1
102
RTVSPropertyOp11
 70
     1
102
RTVSPropertyOp12
 70
     1
102
RTVSPropertyOp13
 70
     1
102
RTVSPropertyOp14
 70
     1
102
RTVSPropertyOp15
 70
     1
102
RTVSPropertyOp16
 70
     1
102
RTVSPropertyOp17
 70
     1
102
RTVSPropertyOp18
 70
     1
102
RTVSPropertyOp19
 70
     1
102
RTVSPropertyOp20
 70
     1
102
RTVSPropertyOp21
 70
     1
102
RTVSPropertyOp22
 70
     1
102
RTVSPropertyOp23
 70
     1
102
RTVSPropertyOp24
 70
     1
102
RTVSPropertyOp25
 70
     1
102
RTVSPropertyOp26
 70
     1
102
RTVSPropertyOp27
 70
     1
102
RTVSPropertyOp28
 70
     1
102
RTVSPropertyOp29
 70
     1
102
RTVSPropertyOp30
 70
     1
102
RTVSPropertyOp31
 70
     1
102
RTVSPropertyOp32
 70
     1
  0
XRECORD
  5
83
102
{ACAD_REACTORS
330
82
102
}
330
82
100
AcDbXrecord
280
     1
102
RTVSPropertyOp0
 70
     1
102
RTVSPropertyOp1
 70
     1
102
RTVSPropertyOp2
 70
     1
102
RTVSPropertyOp3
 70
     1
102
RTVSPropertyOp4
 70
     1
102
RTVSPropertyOp5
 70
     1
102
RTVSPropertyOp6
 70
     1
102
RTVSPropertyOp7
 70
     1
102
RTVSPropertyOp8
 70
     1
102
RTVSPropertyOp9
 70
     1
102
RTVSPropertyOp10
 70
     1
102
RTVSPropertyOp11
 70
     1
102
RTVSPropertyOp12
 70
     1
102
RTVSPropertyOp13
 70
     1
102
RTVSPropertyOp14
 70
     1
102
RTVSPropertyOp15
 70
     1
102
RTVSPropertyOp16
 70
     1
102
RTVSPropertyOp17
 70
     1
102
RTVSPropertyOp18
 70
     1
102
RTVSPropertyOp19
 70
     1
102
RTVSPropertyOp20
 70
     1
102
RTVSPropertyOp21
 70
     1
102
RTVSPropertyOp22
 70
     1
102
RTVSPropertyOp23
 70
     1
102
RTVSPropertyOp24
 70
     1
102
RTVSPropertyOp25
 70
     1
102
RTVSPropertyOp26
 70
     1
102
RTVSPropertyOp27
 70
     1
102
RTVSPropertyOp28
 70
     1
102
RTVSPropertyOp29
 70
     1
102
RTVSPropertyOp30
 70
     1
102
RTVSPropertyOp31
 70
     1
102
RTVSPropertyOp32
 70
     1
  0
XRECORD
  5
81
102
{ACAD_REACTORS
330
80
102
}
330
80
100
AcDbXrecord
280
     1
102
RTVSPropertyOp0
 70
     1
102
RTVSPropertyOp1
 70
     1
102
RTVSPropertyOp2
 70
     1
102
RTVSPropertyOp3
 70
     1
102
RTVSPropertyOp4
 70
     1
102
RTVSPropertyOp5
 70
     1
102
RTVSPropertyOp6
 70
     1
102
RTVSPropertyOp7
 70
     1
102
RTVSPropertyOp8
 70
     1
102
RTVSPropertyOp9
 70
     1
102
RTVSPropertyOp10
 70
     1
102
RTVSPropertyOp11
 70
     1
102
RTVSPropertyOp12
 70
     1
102
RTVSPropertyOp13
 70
     1
102
RTVSPropertyOp14
 70
     1
102
RTVSPropertyOp15
 70
     1
102
RTVSPropertyOp16
 70
     1
102
RTVSPropertyOp17
 70
     1
102
RTVSPropertyOp18
 70
     1
102
RTVSPropertyOp19
 70
     1
102
RTVSPropertyOp20
 70
     1
102
RTVSPropertyOp21
 70
     1
102
RTVSPropertyOp22
 70
     1
102
RTVSPropertyOp23
 70
     1
102
RTVSPropertyOp24
 70
     1
102
RTVSPropertyOp25
 70
     1
102
RTVSPropertyOp26
 70
     1
102
RTVSPropertyOp27
 70
     1
102
RTVSPropertyOp28
 70
     1
102
RTVSPropertyOp29
 70
     1
102
RTVSPropertyOp30
 70
     1
102
RTVSPropertyOp31
 70
     1
102
RTVSPropertyOp32
 70
     1
  0
XRECORD
  5
85
102
{ACAD_REACTORS
330
84
102
}
330
84
100
AcDbXrecord
280
     1
102
RTVSPropertyOp0
 70
     1
102
RTVSPropertyOp1
 70
     1
102
RTVSPropertyOp2
 70
     1
102
RTVSPropertyOp3
 70
     1
102
RTVSPropertyOp4
 70
     1
102
RTVSPropertyOp5
 70
     1
102
RTVSPropertyOp6
 70
     1
102
RTVSPropertyOp7
 70
     1
102
RTVSPropertyOp8
 70
     1
102
RTVSPropertyOp9
 70
     1
102
RTVSPropertyOp10
 70
     1
102
RTVSPropertyOp11
 70
     1
102
RTVSPropertyOp12
 70
     1
102
RTVSPropertyOp13
 70
     1
102
RTVSPropertyOp14
 70
     1
102
RTVSPropertyOp15
 70
     1
102
RTVSPropertyOp16
 70
     1
102
RTVSPropertyOp17
 70
     1
102
RTVSPropertyOp18
 70
     1
102
RTVSPropertyOp19
 70
     1
102
RTVSPropertyOp20
 70
     1
102
RTVSPropertyOp21
 70
     1
102
RTVSPropertyOp22
 70
     1
102
RTVSPropertyOp23
 70
     1
102
RTVSPropertyOp24
 70
     1
102
RTVSPropertyOp25
 70
     1
102
RTVSPropertyOp26
 70
     1
102
RTVSPropertyOp27
 70
     1
102
RTVSPropertyOp28
 70
     1
102
RTVSPropertyOp29
 70
     1
102
RTVSPropertyOp30
 70
     1
102
RTVSPropertyOp31
 70
     1
102
RTVSPropertyOp32
 70
     1
  0
XRECORD
  5
8D
102
{ACAD_REACTORS
330
8C
102
}
330
8C
100
AcDbXrecord
280
     1
102
RTVSPropertyOp0
 70
     1
102
RTVSPropertyOp1
 70
     1
102
RTVSPropertyOp2
 70
     1
102
RTVSPropertyOp3
 70
     1
102
RTVSPropertyOp4
 70
     1
102
RTVSPropertyOp5
 70
     1
102
RTVSPropertyOp6
 70
     1
102
RTVSPropertyOp7
 70
     1
102
RTVSPropertyOp8
 70
     1
102
RTVSPropertyOp9
 70
     1
102
RTVSPropertyOp10
 70
     1
102
RTVSPropertyOp11
 70
     1
102
RTVSPropertyOp12
 70
     1
102
RTVSPropertyOp13
 70
     1
102
RTVSPropertyOp14
 70
     1
102
RTVSPropertyOp15
 70
     1
102
RTVSPropertyOp16
 70
     1
102
RTVSPropertyOp17
 70
     1
102
RTVSPropertyOp18
 70
     1
102
RTVSPropertyOp19
 70
     1
102
RTVSPropertyOp20
 70
     1
102
RTVSPropertyOp21
 70
     1
102
RTVSPropertyOp22
 70
     1
102
RTVSPropertyOp23
 70
     1
102
RTVSPropertyOp24
 70
     1
102
RTVSPropertyOp25
 70
     1
102
RTVSPropertyOp26
 70
     1
102
RTVSPropertyOp27
 70
     1
102
RTVSPropertyOp28
 70
     1
102
RTVSPropertyOp29
 70
     1
102
RTVSPropertyOp30
 70
     1
102
RTVSPropertyOp31
 70
     1
102
RTVSPropertyOp32
 70
     1
  0
XRECORD
  5
95
102
{ACAD_REACTORS
330
94
102
}
330
94
100
AcDbXrecord
280
     1
102
RTVSPropertyOp0
 70
     1
102
RTVSPropertyOp1
 70
     1
102
RTVSPropertyOp2
 70
     1
102
RTVSPropertyOp3
 70
     1
102
RTVSPropertyOp4
 70
     1
102
RTVSPropertyOp5
 70
     1
102
RTVSPropertyOp6
 70
     1
102
RTVSPropertyOp7
 70
     1
102
RTVSPropertyOp8
 70
     1
102
RTVSPropertyOp9
 70
     1
102
RTVSPropertyOp10
 70
     1
102
RTVSPropertyOp11
 70
     1
102
RTVSPropertyOp12
 70
     1
102
RTVSPropertyOp13
 70
     1
102
RTVSPropertyOp14
 70
     1
102
RTVSPropertyOp15
 70
     1
102
RTVSPropertyOp16
 70
     1
102
RTVSPropertyOp17
 70
     1
102
RTVSPropertyOp18
 70
     1
102
RTVSPropertyOp19
 70
     1
102
RTVSPropertyOp20
 70
     1
102
RTVSPropertyOp21
 70
     1
102
RTVSPropertyOp22
 70
     1
102
RTVSPropertyOp23
 70
     1
102
RTVSPropertyOp24
 70
     1
102
RTVSPropertyOp25
 70
     1
102
RTVSPropertyOp26
 70
     1
102
RTVSPropertyOp27
 70
     1
102
RTVSPropertyOp28
 70
     1
102
RTVSPropertyOp29
 70
     1
102
RTVSPropertyOp30
 70
     1
102
RTVSPropertyOp31
 70
     1
102
RTVSPropertyOp32
 70
     1
  0
XRECORD
  5
89
102
{ACAD_REACTORS
330
88
102
}
330
88
100
AcDbXrecord
280
     1
102
RTVSPropertyOp0
 70
     1
102
RTVSPropertyOp1
 70
     1
102
RTVSPropertyOp2
 70
     1
102
RTVSPropertyOp3
 70
     1
102
RTVSPropertyOp4
 70
     1
102
RTVSPropertyOp5
 70
     1
102
RTVSPropertyOp6
 70
     1
102
RTVSPropertyOp7
 70
     1
102
RTVSPropertyOp8
 70
     1
102
RTVSPropertyOp9
 70
     1
102
RTVSPropertyOp10
 70
     1
102
RTVSPropertyOp11
 70
     1
102
RTVSPropertyOp12
 70
     1
102
RTVSPropertyOp13
 70
     1
102
RTVSPropertyOp14
 70
     1
102
RTVSPropertyOp15
 70
     1
102
RTVSPropertyOp16
 70
     1
102
RTVSPropertyOp17
 70
     1
102
RTVSPropertyOp18
 70
     1
102
RTVSPropertyOp19
 70
     1
102
RTVSPropertyOp20
 70
     1
102
RTVSPropertyOp21
 70
     1
102
RTVSPropertyOp22
 70
     1
102
RTVSPropertyOp23
 70
     1
102
RTVSPropertyOp24
 70
     1
102
RTVSPropertyOp25
 70
     1
102
RTVSPropertyOp26
 70
     1
102
RTVSPropertyOp27
 70
     1
102
RTVSPropertyOp28
 70
     1
102
RTVSPropertyOp29
 70
     1
102
RTVSPropertyOp30
 70
     1
102
RTVSPropertyOp31
 70
     1
102
RTVSPropertyOp32
 70
     1
  0
XRECORD
  5
8B
102
{ACAD_REACTORS
330
8A
102
}
330
8A
100
AcDbXrecord
280
     1
102
RTVSPropertyOp0
 70
     1
102
RTVSPropertyOp1
 70
     1
102
RTVSPropertyOp2
 70
     1
102
RTVSPropertyOp3
 70
     1
102
RTVSPropertyOp4
 70
     1
102
RTVSPropertyOp5
 70
     1
102
RTVSPropertyOp6
 70
     1
102
RTVSPropertyOp7
 70
     1
102
RTVSPropertyOp8
 70
     1
102
RTVSPropertyOp9
 70
     1
102
RTVSPropertyOp10
 70
     1
102
RTVSPropertyOp11
 70
     1
102
RTVSPropertyOp12
 70
     1
102
RTVSPropertyOp13
 70
     1
102
RTVSPropertyOp14
 70
     1
102
RTVSPropertyOp15
 70
     1
102
RTVSPropertyOp16
 70
     1
102
RTVSPropertyOp17
 70
     1
102
RTVSPropertyOp18
 70
     1
102
RTVSPropertyOp19
 70
     1
102
RTVSPropertyOp20
 70
     1
102
RTVSPropertyOp21
 70
     1
102
RTVSPropertyOp22
 70
     1
102
RTVSPropertyOp23
 70
     1
102
RTVSPropertyOp24
 70
     1
102
RTVSPropertyOp25
 70
     1
102
RTVSPropertyOp26
 70
     1
102
RTVSPropertyOp27
 70
     1
102
RTVSPropertyOp28
 70
     1
102
RTVSPropertyOp29
 70
     1
102
RTVSPropertyOp30
 70
     1
102
RTVSPropertyOp31
 70
     1
102
RTVSPropertyOp32
 70
     1
  0
XRECORD
  5
93
102
{ACAD_REACTORS
330
92
102
}
330
92
100
AcDbXrecord
280
     1
102
RTVSPropertyOp0
 70
     1
102
RTVSPropertyOp1
 70
     1
102
RTVSPropertyOp2
 70
     1
102
RTVSPropertyOp3
 70
     1
102
RTVSPropertyOp4
 70
     1
102
RTVSPropertyOp5
 70
     1
102
RTVSPropertyOp6
 70
     1
102
RTVSPropertyOp7
 70
     1
102
RTVSPropertyOp8
 70
     1
102
RTVSPropertyOp9
 70
     1
102
RTVSPropertyOp10
 70
     1
102
RTVSPropertyOp11
 70
     1
102
RTVSPropertyOp12
 70
     1
102
RTVSPropertyOp13
 70
     1
102
RTVSPropertyOp14
 70
     1
102
RTVSPropertyOp15
 70
     1
102
RTVSPropertyOp16
 70
     1
102
RTVSPropertyOp17
 70
     1
102
RTVSPropertyOp18
 70
     1
102
RTVSPropertyOp19
 70
     1
102
RTVSPropertyOp20
 70
     1
102
RTVSPropertyOp21
 70
     1
102
RTVSPropertyOp22
 70
     1
102
RTVSPropertyOp23
 70
     1
102
RTVSPropertyOp24
 70
     1
102
RTVSPropertyOp25
 70
     1
102
RTVSPropertyOp26
 70
     1
102
RTVSPropertyOp27
 70
     1
102
RTVSPropertyOp28
 70
     1
102
RTVSPropertyOp29
 70
     1
102
RTVSPropertyOp30
 70
     1
102
RTVSPropertyOp31
 70
     1
102
RTVSPropertyOp32
 70
     1
  0
XRECORD
  5
77
102
{ACAD_REACTORS
330
76
102
}
330
76
100
AcDbXrecord
280
     1
102
RTVSPropertyOp0
 70
     1
102
RTVSPropertyOp1
 70
     1
102
RTVSPropertyOp2
 70
     1
102
RTVSPropertyOp3
 70
     1
102
RTVSPropertyOp4
 70
     1
102
RTVSPropertyOp5
 70
     1
102
RTVSPropertyOp6
 70
     1
102
RTVSPropertyOp7
 70
     1
102
RTVSPropertyOp8
 70
     1
102
RTVSPropertyOp9
 70
     1
102
RTVSPropertyOp10
 70
     1
102
RTVSPropertyOp11
 70
     1
102
RTVSPropertyOp12
 70
     1
102
RTVSPropertyOp13
 70
     1
102
RTVSPropertyOp14
 70
     1
102
RTVSPropertyOp15
 70
     1
102
RTVSPropertyOp16
 70
     1
102
RTVSPropertyOp17
 70
     1
102
RTVSPropertyOp18
 70
     1
102
RTVSPropertyOp19
 70
     1
102
RTVSPropertyOp20
 70
     1
102
RTVSPropertyOp21
 70
     1
102
RTVSPropertyOp22
 70
     1
102
RTVSPropertyOp23
 70
     1
102
RTVSPropertyOp24
 70
     1
102
RTVSPropertyOp25
 70
     1
102
RTVSPropertyOp26
 70
     1
102
RTVSPropertyOp27
 70
     1
102
RTVSPropertyOp28
 70
     1
102
RTVSPropertyOp29
 70
     1
102
RTVSPropertyOp30
 70
     1
102
RTVSPropertyOp31
 70
     1
102
RTVSPropertyOp32
 70
     1
  0
XRECORD
  5
79
102
{ACAD_REACTORS
330
78
102
}
330
78
100
AcDbXrecord
280
     1
102
RTVSPropertyOp0
 70
     1
102
RTVSPropertyOp1
 70
     1
102
RTVSPropertyOp2
 70
     1
102
RTVSPropertyOp3
 70
     1
102
RTVSPropertyOp4
 70
     1
102
RTVSPropertyOp5
 70
     1
102
RTVSPropertyOp6
 70
     1
102
RTVSPropertyOp7
 70
     1
102
RTVSPropertyOp8
 70
     1
102
RTVSPropertyOp9
 70
     1
102
RTVSPropertyOp10
 70
     1
102
RTVSPropertyOp11
 70
     1
102
RTVSPropertyOp12
 70
     1
102
RTVSPropertyOp13
 70
     1
102
RTVSPropertyOp14
 70
     1
102
RTVSPropertyOp15
 70
     1
102
RTVSPropertyOp16
 70
     1
102
RTVSPropertyOp17
 70
     1
102
RTVSPropertyOp18
 70
     1
102
RTVSPropertyOp19
 70
     1
102
RTVSPropertyOp20
 70
     1
102
RTVSPropertyOp21
 70
     1
102
RTVSPropertyOp22
 70
     1
102
RTVSPropertyOp23
 70
     1
102
RTVSPropertyOp24
 70
     1
102
RTVSPropertyOp25
 70
     1
102
RTVSPropertyOp26
 70
     1
102
RTVSPropertyOp27
 70
     1
102
RTVSPropertyOp28
 70
     1
102
RTVSPropertyOp29
 70
     1
102
RTVSPropertyOp30
 70
     1
102
RTVSPropertyOp31
 70
     1
102
RTVSPropertyOp32
 70
     1
  0
XRECORD
  5
7B
102
{ACAD_REACTORS
330
7A
102
}
330
7A
100
AcDbXrecord
280
     1
102
RTVSPropertyOp0
 70
     1
102
RTVSPropertyOp1
 70
     1
102
RTVSPropertyOp2
 70
     1
102
RTVSPropertyOp3
 70
     1
102
RTVSPropertyOp4
 70
     1
102
RTVSPropertyOp5
 70
     1
102
RTVSPropertyOp6
 70
     1
102
RTVSPropertyOp7
 70
     1
102
RTVSPropertyOp8
 70
     1
102
RTVSPropertyOp9
 70
     1
102
RTVSPropertyOp10
 70
     1
102
RTVSPropertyOp11
 70
     1
102
RTVSPropertyOp12
 70
     1
102
RTVSPropertyOp13
 70
     1
102
RTVSPropertyOp14
 70
     1
102
RTVSPropertyOp15
 70
     1
102
RTVSPropertyOp16
 70
     1
102
RTVSPropertyOp17
 70
     1
102
RTVSPropertyOp18
 70
     1
102
RTVSPropertyOp19
 70
     1
102
RTVSPropertyOp20
 70
     1
102
RTVSPropertyOp21
 70
     1
102
RTVSPropertyOp22
 70
     1
102
RTVSPropertyOp23
 70
     1
102
RTVSPropertyOp24
 70
     1
102
RTVSPropertyOp25
 70
     1
102
RTVSPropertyOp26
 70
     1
102
RTVSPropertyOp27
 70
     1
102
RTVSPropertyOp28
 70
     1
102
RTVSPropertyOp29
 70
     1
102
RTVSPropertyOp30
 70
     1
102
RTVSPropertyOp31
 70
     1
102
RTVSPropertyOp32
 70
     1
  0
XRECORD
  5
7D
102
{ACAD_REACTORS
330
7C
102
}
330
7C
100
AcDbXrecord
280
     1
102
RTVSPropertyOp0
 70
     1
102
RTVSPropertyOp1
 70
     1
102
RTVSPropertyOp2
 70
     1
102
RTVSPropertyOp3
 70
     1
102
RTVSPropertyOp4
 70
     1
102
RTVSPropertyOp5
 70
     1
102
RTVSPropertyOp6
 70
     1
102
RTVSPropertyOp7
 70
     1
102
RTVSPropertyOp8
 70
     1
102
RTVSPropertyOp9
 70
     1
102
RTVSPropertyOp10
 70
     1
102
RTVSPropertyOp11
 70
     1
102
RTVSPropertyOp12
 70
     1
102
RTVSPropertyOp13
 70
     1
102
RTVSPropertyOp14
 70
     1
102
RTVSPropertyOp15
 70
     1
102
RTVSPropertyOp16
 70
     1
102
RTVSPropertyOp17
 70
     1
102
RTVSPropertyOp18
 70
     1
102
RTVSPropertyOp19
 70
     1
102
RTVSPropertyOp20
 70
     1
102
RTVSPropertyOp21
 70
     1
102
RTVSPropertyOp22
 70
     1
102
RTVSPropertyOp23
 70
     1
102
RTVSPropertyOp24
 70
     1
102
RTVSPropertyOp25
 70
     1
102
RTVSPropertyOp26
 70
     1
102
RTVSPropertyOp27
 70
     1
102
RTVSPropertyOp28
 70
     1
102
RTVSPropertyOp29
 70
     1
102
RTVSPropertyOp30
 70
     1
102
RTVSPropertyOp31
 70
     1
102
RTVSPropertyOp32
 70
     1
  0
XRECORD
  5
91
102
{ACAD_REACTORS
330
90
102
}
330
90
100
AcDbXrecord
280
     1
102
RTVSPropertyOp0
 70
     1
102
RTVSPropertyOp1
 70
     1
102
RTVSPropertyOp2
 70
     1
102
RTVSPropertyOp3
 70
     1
102
RTVSPropertyOp4
 70
     1
102
RTVSPropertyOp5
 70
     1
102
RTVSPropertyOp6
 70
     1
102
RTVSPropertyOp7
 70
     1
102
RTVSPropertyOp8
 70
     1
102
RTVSPropertyOp9
 70
     1
102
RTVSPropertyOp10
 70
     1
102
RTVSPropertyOp11
 70
     1
102
RTVSPropertyOp12
 70
     1
102
RTVSPropertyOp13
 70
     1
102
RTVSPropertyOp14
 70
     1
102
RTVSPropertyOp15
 70
     1
102
RTVSPropertyOp16
 70
     1
102
RTVSPropertyOp17
 70
     1
102
RTVSPropertyOp18
 70
     1
102
RTVSPropertyOp19
 70
     1
102
RTVSPropertyOp20
 70
     1
102
RTVSPropertyOp21
 70
     1
102
RTVSPropertyOp22
 70
     1
102
RTVSPropertyOp23
 70
     1
102
RTVSPropertyOp24
 70
     1
102
RTVSPropertyOp25
 70
     1
102
RTVSPropertyOp26
 70
     1
102
RTVSPropertyOp27
 70
     1
102
RTVSPropertyOp28
 70
     1
102
RTVSPropertyOp29
 70
     1
102
RTVSPropertyOp30
 70
     1
102
RTVSPropertyOp31
 70
     1
102
RTVSPropertyOp32
 70
     1
  0
XRECORD
  5
87
102
{ACAD_REACTORS
330
86
102
}
330
86
100
AcDbXrecord
280
     1
102
RTVSPropertyOp0
 70
     1
102
RTVSPropertyOp1
 70
     1
102
RTVSPropertyOp2
 70
     1
102
RTVSPropertyOp3
 70
     1
102
RTVSPropertyOp4
 70
     1
102
RTVSPropertyOp5
 70
     1
102
RTVSPropertyOp6
 70
     1
102
RTVSPropertyOp7
 70
     1
102
RTVSPropertyOp8
 70
     1
102
RTVSPropertyOp9
 70
     1
102
RTVSPropertyOp10
 70
     1
102
RTVSPropertyOp11
 70
     1
102
RTVSPropertyOp12
 70
     1
102
RTVSPropertyOp13
 70
     1
102
RTVSPropertyOp14
 70
     1
102
RTVSPropertyOp15
 70
     1
102
RTVSPropertyOp16
 70
     1
102
RTVSPropertyOp17
 70
     1
102
RTVSPropertyOp18
 70
     1
102
RTVSPropertyOp19
 70
     1
102
RTVSPropertyOp20
 70
     1
102
RTVSPropertyOp21
 70
     1
102
RTVSPropertyOp22
 70
     1
102
RTVSPropertyOp23
 70
     1
102
RTVSPropertyOp24
 70
     1
102
RTVSPropertyOp25
 70
     1
102
RTVSPropertyOp26
 70
     1
102
RTVSPropertyOp27
 70
     1
102
RTVSPropertyOp28
 70
     1
102
RTVSPropertyOp29
 70
     1
102
RTVSPropertyOp30
 70
     1
102
RTVSPropertyOp31
 70
     1
102
RTVSPropertyOp32
 70
     1
  0
XRECORD
  5
8F
102
{ACAD_REACTORS
330
8E
102
}
330
8E
100
AcDbXrecord
280
     1
102
RTVSPropertyOp0
 70
     1
102
RTVSPropertyOp1
 70
     1
102
RTVSPropertyOp2
 70
     1
102
RTVSPropertyOp3
 70
     1
102
RTVSPropertyOp4
 70
     1
102
RTVSPropertyOp5
 70
     1
102
RTVSPropertyOp6
 70
     1
102
RTVSPropertyOp7
 70
     1
102
RTVSPropertyOp8
 70
     1
102
RTVSPropertyOp9
 70
     1
102
RTVSPropertyOp10
 70
     1
102
RTVSPropertyOp11
 70
     1
102
RTVSPropertyOp12
 70
     1
102
RTVSPropertyOp13
 70
     1
102
RTVSPropertyOp14
 70
     1
102
RTVSPropertyOp15
 70
     1
102
RTVSPropertyOp16
 70
     1
102
RTVSPropertyOp17
 70
     1
102
RTVSPropertyOp18
 70
     1
102
RTVSPropertyOp19
 70
     1
102
RTVSPropertyOp20
 70
     1
102
RTVSPropertyOp21
 70
     1
102
RTVSPropertyOp22
 70
     1
102
RTVSPropertyOp23
 70
     1
102
RTVSPropertyOp24
 70
     1
102
RTVSPropertyOp25
 70
     1
102
RTVSPropertyOp26
 70
     1
102
RTVSPropertyOp27
 70
     1
102
RTVSPropertyOp28
 70
     1
102
RTVSPropertyOp29
 70
     1
102
RTVSPropertyOp30
 70
     1
102
RTVSPropertyOp31
 70
     1
102
RTVSPropertyOp32
 70
     1
  0
ENDSEC
  0
EOF
