  0
SECTION
  2
HEADER
  9
$ACADVER
  1
AC1021
  9
$ACADMAINTVER
 70
    25
  9
$DWGCODEPAGE
  3
ANSI_1251
  9
$INSBASE
 10
0.0
 20
0.0
 30
0.0
  9
$EXTMIN
 10
-84.04425
 20
-46.07881
 30
0.0
  9
$EXTMAX
 10
48.73479
 20
18.16969
 30
0.0
  9
$LIMMIN
 10
0.0
 20
0.0
  9
$LIMMAX
 10
12.0
 20
9.0
  9
$ORTHOMODE
 70
     0
  9
$REGENMODE
 70
     1
  9
$FILLMODE
 70
     1
  9
$QTEXTMODE
 70
     0
  9
$MIRRTEXT
 70
     1
  9
$LTSCALE
 40
1.0
  9
$ATTMODE
 70
     1
  9
$TEXTSIZE
 40
0.2
  9
$TRACEWID
 40
0.05
  9
$TEXTSTYLE
  7
Standard
  9
$CLAYER
  8
0
  9
$CELTYPE
  6
ByLayer
  9
$CECOLOR
 62
   256
  9
$CELTSCALE
 40
1.0
  9
$DISPSILH
 70
     0
  9
$DIMSCALE
 40
1.0
  9
$DIMASZ
 40
0.18
  9
$DIMEXO
 40
0.0625
  9
$DIMDLI
 40
0.38
  9
$DIMRND
 40
0.0
  9
$DIMDLE
 40
0.0
  9
$DIMEXE
 40
0.18
  9
$DIMTP
 40
0.0
  9
$DIMTM
 40
0.0
  9
$DIMTXT
 40
0.18
  9
$DIMCEN
 40
0.09
  9
$DIMTSZ
 40
0.0
  9
$DIMTOL
 70
     0
  9
$DIMLIM
 70
     0
  9
$DIMTIH
 70
     1
  9
$DIMTOH
 70
     1
  9
$DIMSE1
 70
     0
  9
$DIMSE2
 70
     0
  9
$DIMTAD
 70
     0
  9
$DIMZIN
 70
     0
  9
$DIMBLK
  1

  9
$DIMASO
 70
     1
  9
$DIMSHO
 70
     1
  9
$DIMPOST
  1

  9
$DIMAPOST
  1

  9
$DIMALT
 70
     0
  9
$DIMALTD
 70
     2
  9
$DIMALTF
 40
25.4
  9
$DIMLFAC
 40
1.0
  9
$DIMTOFL
 70
     0
  9
$DIMTVP
 40
0.0
  9
$DIMTIX
 70
     0
  9
$DIMSOXD
 70
     0
  9
$DIMSAH
 70
     0
  9
$DIMBLK1
  1

  9
$DIMBLK2
  1

  9
$DIMSTYLE
  2
Standard
  9
$DIMCLRD
 70
     0
  9
$DIMCLRE
 70
     0
  9
$DIMCLRT
 70
     0
  9
$DIMTFAC
 40
1.0
  9
$DIMGAP
 40
0.09
  9
$DIMJUST
 70
     0
  9
$DIMSD1
 70
     0
  9
$DIMSD2
 70
     0
  9
$DIMTOLJ
 70
     1
  9
$DIMTZIN
 70
     0
  9
$DIMALTZ
 70
     0
  9
$DIMALTTZ
 70
     0
  9
$DIMUPT
 70
     0
  9
$DIMDEC
 70
     4
  9
$DIMTDEC
 70
     4
  9
$DIMALTU
 70
     2
  9
$DIMALTTD
 70
     2
  9
$DIMTXSTY
  7
Standard
  9
$DIMAUNIT
 70
     0
  9
$DIMADEC
 70
     0
  9
$DIMALTRND
 40
0.0
  9
$DIMAZIN
 70
     0
  9
$DIMDSEP
 70
    46
  9
$DIMATFIT
 70
     3
  9
$DIMFRAC
 70
     0
  9
$DIMLDRBLK
  1

  9
$DIMLUNIT
 70
     2
  9
$DIMLWD
 70
    -2
  9
$DIMLWE
 70
    -2
  9
$DIMTMOVE
 70
     0
  9
$DIMFXL
 40
1.0
  9
$DIMFXLON
 70
     0
  9
$DIMJOGANG
 40
0.7853981633974483
  9
$DIMTFILL
 70
     0
  9
$DIMTFILLCLR
 70
     0
  9
$DIMARCSYM
 70
     0
  9
$DIMLTYPE
  6

  9
$DIMLTEX1
  6

  9
$DIMLTEX2
  6

  9
$LUNITS
 70
     2
  9
$LUPREC
 70
     4
  9
$SKETCHINC
 40
0.1
  9
$FILLETRAD
 40
0.5
  9
$AUNITS
 70
     0
  9
$AUPREC
 70
     0
  9
$MENU
  1
.
  9
$ELEVATION
 40
0.0
  9
$PELEVATION
 40
0.0
  9
$THICKNESS
 40
0.0
  9
$LIMCHECK
 70
     0
  9
$CHAMFERA
 40
0.0
  9
$CHAMFERB
 40
0.0
  9
$CHAMFERC
 40
0.0
  9
$CHAMFERD
 40
0.0
  9
$SKPOLY
 70
     0
  9
$TDCREATE
 40
2458096.860640417
  9
$TDUCREATE
 40
2458096.735640417
  9
$TDUPDATE
 40
2458096.860640417
  9
$TDUUPDATE
 40
2458096.735640417
  9
$TDINDWG
 40
0.0000000116
  9
$TDUSRTIMER
 40
0.0000000116
  9
$USRTIMER
 70
     1
  9
$ANGBASE
 50
0.0
  9
$ANGDIR
 70
     0
  9
$PDMODE
 70
     0
  9
$PDSIZE
 40
0.0
  9
$PLINEWID
 40
0.0
  9
$SPLFRAME
 70
     0
  9
$SPLINETYPE
 70
     6
  9
$SPLINESEGS
 70
     8
  9
$HANDSEED
  5
D0
  9
$SURFTAB1
 70
     6
  9
$SURFTAB2
 70
     6
  9
$SURFTYPE
 70
     6
  9
$SURFU
 70
     6
  9
$SURFV
 70
     6
  9
$UCSBASE
  2

  9
$UCSNAME
  2

  9
$UCSORG
 10
0.0
 20
0.0
 30
0.0
  9
$UCSXDIR
 10
1.0
 20
0.0
 30
0.0
  9
$UCSYDIR
 10
0.0
 20
1.0
 30
0.0
  9
$UCSORTHOREF
  2

  9
$UCSORTHOVIEW
 70
     0
  9
$UCSORGTOP
 10
0.0
 20
0.0
 30
0.0
  9
$UCSORGBOTTOM
 10
0.0
 20
0.0
 30
0.0
  9
$UCSORGLEFT
 10
0.0
 20
0.0
 30
0.0
  9
$UCSORGRIGHT
 10
0.0
 20
0.0
 30
0.0
  9
$UCSORGFRONT
 10
0.0
 20
0.0
 30
0.0
  9
$UCSORGBACK
 10
0.0
 20
0.0
 30
0.0
  9
$PUCSBASE
  2

  9
$PUCSNAME
  2

  9
$PUCSORG
 10
0.0
 20
0.0
 30
0.0
  9
$PUCSXDIR
 10
1.0
 20
0.0
 30
0.0
  9
$PUCSYDIR
 10
0.0
 20
1.0
 30
0.0
  9
$PUCSORTHOREF
  2

  9
$PUCSORTHOVIEW
 70
     0
  9
$PUCSORGTOP
 10
0.0
 20
0.0
 30
0.0
  9
$PUCSORGBOTTOM
 10
0.0
 20
0.0
 30
0.0
  9
$PUCSORGLEFT
 10
0.0
 20
0.0
 30
0.0
  9
$PUCSORGRIGHT
 10
0.0
 20
0.0
 30
0.0
  9
$PUCSORGFRONT
 10
0.0
 20
0.0
 30
0.0
  9
$PUCSORGBACK
 10
0.0
 20
0.0
 30
0.0
  9
$USERI1
 70
     0
  9
$USERI2
 70
     0
  9
$USERI3
 70
     0
  9
$USERI4
 70
     0
  9
$USERI5
 70
     0
  9
$USERR1
 40
0.0
  9
$USERR2
 40
0.0
  9
$USERR3
 40
0.0
  9
$USERR4
 40
0.0
  9
$USERR5
 40
0.0
  9
$WORLDVIEW
 70
     1
  9
$SHADEDGE
 70
     3
  9
$SHADEDIF
 70
    70
  9
$TILEMODE
 70
     1
  9
$MAXACTVP
 70
    64
  9
$PINSBASE
 10
0.0
 20
0.0
 30
0.0
  9
$PLIMCHECK
 70
     0
  9
$PEXTMIN
 10
1.000000000000000E+20
 20
1.000000000000000E+20
 30
1.000000000000000E+20
  9
$PEXTMAX
 10
-1.000000000000000E+20
 20
-1.000000000000000E+20
 30
-1.000000000000000E+20
  9
$PLIMMIN
 10
0.0
 20
0.0
  9
$PLIMMAX
 10
12.0
 20
9.0
  9
$UNITMODE
 70
     0
  9
$VISRETAIN
 70
     1
  9
$PLINEGEN
 70
     0
  9
$PSLTSCALE
 70
     1
  9
$TREEDEPTH
 70
  3020
  9
$CMLSTYLE
  2
Standard
  9
$CMLJUST
 70
     0
  9
$CMLSCALE
 40
1.0
  9
$PROXYGRAPHICS
 70
     1
  9
$MEASUREMENT
 70
     0
  9
$CELWEIGHT
370
    -1
  9
$ENDCAPS
280
     0
  9
$JOINSTYLE
280
     0
  9
$LWDISPLAY
290
     0
  9
$INSUNITS
 70
     5
  9
$HYPERLINKBASE
  1

  9
$STYLESHEET
  1

  9
$XEDIT
290
     1
  9
$CEPSNTYPE
380
     0
  9
$PSTYLEMODE
290
     1
  9
$FINGERPRINTGUID
  2
{C3383585-0749-46BC-9867-BCB46071A3F8}
  9
$VERSIONGUID
  2
{FAEB1C32-E019-11D5-929B-00C0DF256EC4}
  9
$EXTNAMES
290
     1
  9
$PSVPSCALE
 40
0.0
  9
$OLESTARTUP
290
     0
  9
$SORTENTS
280
   127
  9
$INDEXCTL
280
     0
  9
$HIDETEXT
280
     1
  9
$XCLIPFRAME
290
     0
  9
$HALOGAP
280
     0
  9
$OBSCOLOR
 70
   257
  9
$OBSLTYPE
280
     0
  9
$INTERSECTIONDISPLAY
280
     0
  9
$INTERSECTIONCOLOR
 70
   257
  9
$DIMASSOC
280
     2
  9
$PROJECTNAME
  1

  9
$CAMERADISPLAY
290
     0
  9
$LENSLENGTH
 40
50.0
  9
$CAMERAHEIGHT
 40
0.0
  9
$STEPSPERSEC
 40
2.0
  9
$STEPSIZE
 40
6.0
  9
$3DDWFPREC
 40
2.0
  9
$PSOLWIDTH
 40
0.25
  9
$PSOLHEIGHT
 40
4.0
  9
$LOFTANG1
 40
1.570796326794897
  9
$LOFTANG2
 40
1.570796326794897
  9
$LOFTMAG1
 40
0.0
  9
$LOFTMAG2
 40
0.0
  9
$LOFTPARAM
 70
     7
  9
$LOFTNORMALS
280
     1
  9
$LATITUDE
 40
37.795
  9
$LONGITUDE
 40
-122.394
  9
$NORTHDIRECTION
 40
0.0
  9
$TIMEZONE
 70
 -8000
  9
$LIGHTGLYPHDISPLAY
280
     1
  9
$TILEMODELIGHTSYNCH
280
     1
  9
$CMATERIAL
347
44
  9
$SOLIDHIST
280
     0
  9
$SHOWHIST
280
     1
  9
$DWFFRAME
280
     2
  9
$DGNFRAME
280
     2
  9
$REALWORLDSCALE
290
     1
  9
$INTERFERECOLOR
 62
   256
  9
$CSHADOW
280
     0
  9
$SHADOWPLANELOCATION
 40
0.0
  0
ENDSEC
  0
SECTION
  2
CLASSES
  0
CLASS
  1
ACDBDICTIONARYWDFLT
  2
AcDbDictionaryWithDefault
  3
ObjectDBX Classes
 90
        0
 91
        4
280
     0
281
     0
  0
CLASS
  1
VISUALSTYLE
  2
AcDbVisualStyle
  3
ObjectDBX Classes
 90
     4095
 91
        4
280
     0
281
     0
  0
CLASS
  1
MATERIAL
  2
AcDbMaterial
  3
ObjectDBX Classes
 90
     1153
 91
        4
280
     0
281
     0
  0
CLASS
  1
SCALE
  2
AcDbScale
  3
ObjectDBX Classes
 90
     1153
 91
        4
280
     0
281
     0
  0
CLASS
  1
TABLESTYLE
  2
AcDbTableStyle
  3
ObjectDBX Classes
 90
     4095
 91
        4
280
     0
281
     0
  0
CLASS
  1
MLEADERSTYLE
  2
AcDbMLeaderStyle
  3
ACDB_MLEADERSTYLE_CLASS
 90
     4095
 91
        4
280
     0
281
     0
  0
CLASS
  1
SUN
  2
AcDbSun
  3
SCENEOE
 90
     1153
 91
        4
280
     0
281
     0
  0
CLASS
  1
DICTIONARYVAR
  2
AcDbDictionaryVar
  3
ObjectDBX Classes
 90
        0
 91
        4
280
     0
281
     0
  0
CLASS
  1
CELLSTYLEMAP
  2
AcDbCellStyleMap
  3
ObjectDBX Classes
 90
     1152
 91
        4
280
     0
281
     0
  0
ENDSEC
  0
SECTION
  2
TABLES
  0
TABLE
  2
VPORT
  5
8
330
0
100
AcDbSymbolTable
 70
     1
  0
VPORT
  5
29
330
8
100
AcDbSymbolTableRecord
100
AcDbViewportTableRecord
  2
*Active
 70
     0
 10
0.0
 20
0.0
 11
1.0
 21
1.0
 12
10.42990654205607
 22
4.5
 13
0.0
 23
0.0
 14
0.5
 24
0.5
 15
0.5
 25
0.5
 16
0.0
 26
0.0
 36
1.0
 17
0.0
 27
0.0
 37
0.0
 40
9.0
 41
1.972972972850329
 42
50.0
 43
0.0
 44
0.0
 50
0.0
 51
0.0
 71
     0
 72
   100
 73
     1
 74
     3
 75
     0
 76
     0
 77
     0
 78
     0
281
     0
 65
     1
110
0.0
120
0.0
130
0.0
111
1.0
121
0.0
131
0.0
112
0.0
122
1.0
132
0.0
 79
     0
146
0.0
 60
     3
 61
     5
292
     1
282
     1
141
0.0
142
0.0
 63
   250
361
6D
  0
ENDTAB
  0
TABLE
  2
LTYPE
  5
5
330
0
100
AcDbSymbolTable
 70
     1
  0
LTYPE
  5
14
330
5
100
AcDbSymbolTableRecord
100
AcDbLinetypeTableRecord
  2
ByBlock
 70
     0
  3

 72
    65
 73
     0
 40
0.0
  0
LTYPE
  5
15
330
5
100
AcDbSymbolTableRecord
100
AcDbLinetypeTableRecord
  2
ByLayer
 70
     0
  3

 72
    65
 73
     0
 40
0.0
  0
LTYPE
  5
16
330
5
100
AcDbSymbolTableRecord
100
AcDbLinetypeTableRecord
  2
Continuous
 70
     0
  3
Solid line
 72
    65
 73
     0
 40
0.0
  0
ENDTAB
  0
TABLE
  2
LAYER
  5
2
330
0
100
AcDbSymbolTable
 70
     2
  0
LAYER
  5
10
330
2
100
AcDbSymbolTableRecord
100
AcDbLayerTableRecord
  2
0
 70
     0
 62
     7
  6
Continuous
370
    -3
390
F
347
46
  0
LAYER
  5
6F
330
2
100
AcDbSymbolTableRecord
100
AcDbLayerTableRecord
  2
layer 1
 70
     0
 62
     7
  6
Continuous
370
    -3
390
F
347
46
  0
ENDTAB
  0
TABLE
  2
STYLE
  5
3
330
0
100
AcDbSymbolTable
 70
     1
  0
STYLE
  5
11
330
3
100
AcDbSymbolTableRecord
100
AcDbTextStyleTableRecord
  2
Standard
 70
     0
 40
0.0
 41
1.0
 50
0.0
 71
     0
 42
0.2
  3
txt
  4

  0
ENDTAB
  0
TABLE
  2
VIEW
  5
6
330
0
100
AcDbSymbolTable
 70
     0
  0
ENDTAB
  0
TABLE
  2
UCS
  5
7
330
0
100
AcDbSymbolTable
 70
     0
  0
ENDTAB
  0
TABLE
  2
APPID
  5
9
330
0
100
AcDbSymbolTable
 70
     3
  0
APPID
  5
12
330
9
100
AcDbSymbolTableRecord
100
AcDbRegAppTableRecord
  2
ACAD
 70
     0
  0
APPID
  5
6E
330
9
100
AcDbSymbolTableRecord
100
AcDbRegAppTableRecord
  2
ODA
 70
     0
  0
APPID
  5
C8
330
9
100
AcDbSymbolTableRecord
100
AcDbRegAppTableRecord
  2
ACAD_MLEADERVER
 70
     0
  0
ENDTAB
  0
TABLE
  2
DIMSTYLE
  5
A
330
0
100
AcDbSymbolTable
 70
     1
100
AcDbDimStyleTable
  0
DIMSTYLE
105
27
330
A
100
AcDbSymbolTableRecord
100
AcDbDimStyleTableRecord
  2
Standard
 70
     0
178
     0
340
11
  0
ENDTAB
  0
TABLE
  2
BLOCK_RECORD
  5
1
330
0
100
AcDbSymbolTable
 70
     1
  0
BLOCK_RECORD
  5
1F
330
1
100
AcDbSymbolTableRecord
100
AcDbBlockTableRecord
  2
*Model_Space
340
22
 70
     0
280
     1
281
     0
  0
BLOCK_RECORD
  5
1B
330
1
100
AcDbSymbolTableRecord
100
AcDbBlockTableRecord
  2
*Paper_Space
340
1E
 70
     0
280
     1
281
     0
  0
BLOCK_RECORD
  5
23
330
1
100
AcDbSymbolTableRecord
100
AcDbBlockTableRecord
  2
*Paper_Space0
340
26
 70
     0
280
     1
281
     0
  0
ENDTAB
  0
ENDSEC
  0
SECTION
  2
BLOCKS
  0
BLOCK
  5
20
330
1F
100
AcDbEntity
  8
0
100
AcDbBlockBegin
  2
*Model_Space
 70
     0
 10
0.0
 20
0.0
 30
0.0
  3
*Model_Space
  1

  0
ENDBLK
  5
21
330
1F
100
AcDbEntity
  8
0
100
AcDbBlockEnd
  0
BLOCK
  5
1C
330
1B
100
AcDbEntity
 67
     1
  8
0
100
AcDbBlockBegin
  2
*Paper_Space
 70
     0
 10
0.0
 20
0.0
 30
0.0
  3
*Paper_Space
  1

  0
ENDBLK
  5
1D
330
1B
100
AcDbEntity
 67
     1
  8
0
100
AcDbBlockEnd
  0
BLOCK
  5
24
330
23
100
AcDbEntity
  8
0
100
AcDbBlockBegin
  2
*Paper_Space0
 70
     0
 10
0.0
 20
0.0
 30
0.0
  3
*Paper_Space0
  1

  0
ENDBLK
  5
25
330
23
100
AcDbEntity
  8
0
100
AcDbBlockEnd
  0
ENDSEC
  0
SECTION
  2
ENTITIES
  0
SPLINE
  5
70
330
1F
100
AcDbEntity
  8
layer 1
 62
   250
370
     9
100
AcDbSpline
210
0.0
220
0.0
230
1.0
 70
    11
 71
     3
 72
   192
 73
   188
 74
     0
 42
0.000000001
 43
0.0000000001
 40
0.0
 40
0.0
 40
0.0
 40
0.0
 40
0.0208333333333333
 40
0.0208333333333333
 40
0.0208333333333333
 40
0.0208333333333333
 40
0.0416666666666667
 40
0.0416666666666667
 40
0.0416666666666667
 40
0.0416666666666667
 40
0.0625
 40
0.0625
 40
0.0625
 40
0.0625
 40
0.0833333333333333
 40
0.0833333333333333
 40
0.0833333333333333
 40
0.0833333333333333
 40
0.1041666666666667
 40
0.1041666666666667
 40
0.1041666666666667
 40
0.1041666666666667
 40
0.125
 40
0.125
 40
0.125
 40
0.125
 40
0.1458333333333333
 40
0.1458333333333333
 40
0.1458333333333333
 40
0.1458333333333333
 40
0.1666666666666667
 40
0.1666666666666667
 40
0.1666666666666667
 40
0.1666666666666667
 40
0.1875
 40
0.1875
 40
0.1875
 40
0.1875
 40
0.2083333333333333
 40
0.2083333333333333
 40
0.2083333333333333
 40
0.2083333333333333
 40
0.2291666666666667
 40
0.2291666666666667
 40
0.2291666666666667
 40
0.2291666666666667
 40
0.25
 40
0.25
 40
0.25
 40
0.25
 40
0.2708333333333333
 40
0.2708333333333333
 40
0.2708333333333333
 40
0.2708333333333333
 40
0.2916666666666667
 40
0.2916666666666667
 40
0.2916666666666667
 40
0.2916666666666667
 40
0.3125
 40
0.3125
 40
0.3125
 40
0.3125
 40
0.3333333333333333
 40
0.3333333333333333
 40
0.3333333333333333
 40
0.3333333333333333
 40
0.3541666666666667
 40
0.3541666666666667
 40
0.3541666666666667
 40
0.3541666666666667
 40
0.375
 40
0.375
 40
0.375
 40
0.375
 40
0.3958333333333333
 40
0.3958333333333333
 40
0.3958333333333333
 40
0.3958333333333333
 40
0.4166666666666667
 40
0.4166666666666667
 40
0.4166666666666667
 40
0.4166666666666667
 40
0.4375
 40
0.4375
 40
0.4375
 40
0.4375
 40
0.4583333333333333
 40
0.4583333333333333
 40
0.4583333333333333
 40
0.4583333333333333
 40
0.4791666666666667
 40
0.4791666666666667
 40
0.4791666666666667
 40
0.4791666666666667
 40
0.5
 40
0.5
 40
0.5
 40
0.5
 40
0.5208333333333334
 40
0.5208333333333334
 40
0.5208333333333334
 40
0.5208333333333334
 40
0.5416666666666666
 40
0.5416666666666666
 40
0.5416666666666666
 40
0.5416666666666666
 40
0.5625
 40
0.5625
 40
0.5625
 40
0.5625
 40
0.5833333333333334
 40
0.5833333333333334
 40
0.5833333333333334
 40
0.5833333333333334
 40
0.6041666666666666
 40
0.6041666666666666
 40
0.6041666666666666
 40
0.6041666666666666
 40
0.625
 40
0.625
 40
0.625
 40
0.625
 40
0.6458333333333334
 40
0.6458333333333334
 40
0.6458333333333334
 40
0.6458333333333334
 40
0.6666666666666666
 40
0.6666666666666666
 40
0.6666666666666666
 40
0.6666666666666666
 40
0.6875
 40
0.6875
 40
0.6875
 40
0.6875
 40
0.7083333333333334
 40
0.7083333333333334
 40
0.7083333333333334
 40
0.7083333333333334
 40
0.7291666666666666
 40
0.7291666666666666
 40
0.7291666666666666
 40
0.7291666666666666
 40
0.75
 40
0.75
 40
0.75
 40
0.75
 40
0.7708333333333334
 40
0.7708333333333334
 40
0.7708333333333334
 40
0.7708333333333334
 40
0.7916666666666666
 40
0.7916666666666666
 40
0.7916666666666666
 40
0.7916666666666666
 40
0.8125
 40
0.8125
 40
0.8125
 40
0.8125
 40
0.8333333333333334
 40
0.8333333333333334
 40
0.8333333333333334
 40
0.8333333333333334
 40
0.8541666666666666
 40
0.8541666666666666
 40
0.8541666666666666
 40
0.8541666666666666
 40
0.875
 40
0.875
 40
0.875
 40
0.875
 40
0.8958333333333334
 40
0.8958333333333334
 40
0.8958333333333334
 40
0.8958333333333334
 40
0.9166666666666666
 40
0.9166666666666666
 40
0.9166666666666666
 40
0.9166666666666666
 40
0.9375
 40
0.9375
 40
0.9375
 40
0.9375
 40
0.9583333333333334
 40
0.9583333333333334
 40
0.9583333333333334
 40
0.9583333333333334
 40
1.0
 40
1.0
 40
1.0
 40
1.0
 10
2.74231
 20
-2.55124
 30
0.0
 10
2.74231
 20
-2.55124
 30
0.0
 10
6.29424
 20
-2.55124
 30
0.0
 10
6.29424
 20
-2.55124
 30
0.0
 10
6.29424
 20
-2.55124
 30
0.0
 10
6.29424
 20
-2.55124
 30
0.0
 10
6.29424
 20
-3.15122
 30
0.0
 10
6.29424
 20
-3.15122
 30
0.0
 10
6.29424
 20
-3.15122
 30
0.0
 10
6.29424
 20
-3.15122
 30
0.0
 10
3.07269
 20
-3.15122
 30
0.0
 10
3.07269
 20
-3.15122
 30
0.0
 10
3.07269
 20
-3.15122
 30
0.0
 10
3.44965
 20
-3.89612
 30
0.0
 10
3.67854
 20
-4.57073
 30
0.0
 10
3.95745
 20
-5.17412
 30
0.0
 10
3.95745
 20
-5.17412
 30
0.0
 10
4.33007
 20
-5.98032
 30
0.0
 10
4.79205
 20
-6.65941
 30
0.0
 10
5.34589
 20
-7.36216
 30
0.0
 10
5.34589
 20
-7.36216
 30
0.0
 10
6.46761
 20
-8.78543
 30
0.0
 10
8.0628
 20
-9.77971
 30
0.0
 10
9.88786
 20
-10.42244
 30
0.0
 10
9.88786
 20
-10.42244
 30
0.0
 10
9.88786
 20
-10.42244
 30
0.0
 10
9.88786
 20
-2.55124
 30
0.0
 10
9.88786
 20
-2.55124
 30
0.0
 10
9.88786
 20
-2.55124
 30
0.0
 10
9.88786
 20
-2.55124
 30
0.0
 10
10.48783
 20
-2.55124
 30
0.0
 10
10.48783
 20
-2.55124
 30
0.0
 10
10.48783
 20
-2.55124
 30
0.0
 10
10.48783
 20
-2.55124
 30
0.0
 10
10.48783
 20
-10.61877
 30
0.0
 10
10.48783
 20
-10.61877
 30
0.0
 10
10.48783
 20
-10.61877
 30
0.0
 10
14.54932
 20
-11.85029
 30
0.0
 10
19.56903
 20
-11.46653
 30
0.0
 10
23.0589
 20
-10.25931
 30
0.0
 10
23.0589
 20
-10.25931
 30
0.0
 10
25.18872
 20
-9.5226
 30
0.0
 10
26.83365
 20
-8.57144
 30
0.0
 10
29.1003
 20
-8.06775
 30
0.0
 10
29.1003
 20
-8.06775
 30
0.0
 10
29.47245
 20
-7.98505
 30
0.0
 10
29.87395
 20
-7.90444
 30
0.0
 10
30.28691
 20
-7.81702
 30
0.0
 10
30.28691
 20
-7.81702
 30
0.0
 10
30.28691
 20
-7.81702
 30
0.0
 10
30.28691
 20
-2.55124
 30
0.0
 10
30.28691
 20
-2.55124
 30
0.0
 10
30.28691
 20
-2.55124
 30
0.0
 10
30.28691
 20
-2.55124
 30
0.0
 10
30.88688
 20
-2.55124
 30
0.0
 10
30.88688
 20
-2.55124
 30
0.0
 10
30.88688
 20
-2.55124
 30
0.0
 10
30.88688
 20
-2.55124
 30
0.0
 10
30.88688
 20
-7.68561
 30
0.0
 10
30.88688
 20
-7.68561
 30
0.0
 10
30.88688
 20
-7.68561
 30
0.0
 10
31.45029
 20
-7.55679
 30
0.0
 10
32.01909
 20
-7.40802
 30
0.0
 10
32.55014
 20
-7.21779
 30
0.0
 10
32.55014
 20
-7.21779
 30
0.0
 10
33.66675
 20
-6.81781
 30
0.0
 10
34.61671
 20
-6.23451
 30
0.0
 10
35.22502
 20
-5.46787
 30
0.0
 10
35.22502
 20
-5.46787
 30
0.0
 10
35.73759
 20
-4.82188
 30
0.0
 10
36.02378
 20
-4.0072
 30
0.0
 10
36.16907
 20
-3.15122
 30
0.0
 10
36.16907
 20
-3.15122
 30
0.0
 10
36.16907
 20
-3.15122
 30
0.0
 10
33.58925
 20
-3.15122
 30
0.0
 10
33.58925
 20
-3.15122
 30
0.0
 10
33.58925
 20
-3.15122
 30
0.0
 10
33.58925
 20
-3.15122
 30
0.0
 10
33.58925
 20
-2.55124
 30
0.0
 10
33.58925
 20
-2.55124
 30
0.0
 10
33.58925
 20
-2.55124
 30
0.0
 10
33.58925
 20
-2.55124
 30
0.0
 10
36.24849
 20
-2.55124
 30
0.0
 10
36.24849
 20
-2.55124
 30
0.0
 10
36.24849
 20
-2.55124
 30
0.0
 10
36.32273
 20
-1.79012
 30
0.0
 10
36.30399
 20
-1.0199
 30
0.0
 10
36.24997
 20
-0.32645
 30
0.0
 10
36.24997
 20
-0.32645
 30
0.0
 10
36.18655
 20
0.48735
 30
0.0
 10
35.90969
 20
1.03445
 30
0.0
 10
36.57366
 20
1.59726
 30
0.0
 10
36.57366
 20
1.59726
 30
0.0
 10
39.94616
 20
4.45617
 30
0.0
 10
45.42914
 20
7.3161
 30
0.0
 10
48.07442
 20
10.56473
 30
0.0
 10
48.07442
 20
10.56473
 30
0.0
 10
49.64781
 20
12.4968
 30
0.0
 10
48.04822
 20
11.94712
 30
0.0
 10
46.91613
 20
11.32301
 30
0.0
 10
46.91613
 20
11.32301
 30
0.0
 10
43.62887
 20
9.51076
 30
0.0
 10
41.08393
 20
7.30766
 30
0.0
 10
37.47491
 20
5.66493
 30
0.0
 10
37.47491
 20
5.66493
 30
0.0
 10
34.02103
 20
4.09283
 30
0.0
 10
30.56663
 20
4.24378
 30
0.0
 10
26.87541
 20
3.98169
 30
0.0
 10
26.87541
 20
3.98169
 30
0.0
 10
24.32482
 20
3.80058
 30
0.0
 10
21.78558
 20
3.78642
 30
0.0
 10
19.23408
 20
4.15364
 30
0.0
 10
19.23408
 20
4.15364
 30
0.0
 10
10.47811
 20
5.41387
 30
0.0
 10
6.40132
 20
10.13975
 30
0.0
 10
1.91823
 20
15.14783
 30
0.0
 10
1.91823
 20
15.14783
 30
0.0
 10
1.16816
 20
15.98575
 30
0.0
 10
0.16555
 20
16.51167
 30
0.0
 10
-0.91166
 20
16.73062
 30
0.0
 10
-0.91166
 20
16.73062
 30
0.0
 10
-0.91166
 20
16.73062
 30
0.0
 10
-0.91166
 20
9.84818
 30
0.0
 10
-0.91166
 20
9.84818
 30
0.0
 10
-0.91166
 20
9.84818
 30
0.0
 10
-0.91166
 20
9.84818
 30
0.0
 10
-1.51161
 20
9.84818
 30
0.0
 10
-1.51161
 20
9.84818
 30
0.0
 10
-1.51161
 20
9.84818
 30
0.0
 10
-1.51161
 20
9.84818
 30
0.0
 10
-1.51161
 20
16.82024
 30
0.0
 10
-1.51161
 20
16.82024
 30
0.0
 10
-1.51161
 20
16.82024
 30
0.0
 10
-3.30625
 20
16.99403
 30
0.0
 10
-5.21292
 20
16.35136
 30
0.0
 10
-6.45638
 20
14.91452
 30
0.0
 10
-6.45638
 20
14.91452
 30
0.0
 10
-6.54214
 20
14.81541
 30
0.0
 10
-6.62664
 20
14.71455
 30
0.0
 10
-6.71137
 20
14.61286
 30
0.0
 10
-6.71137
 20
14.61286
 30
0.0
 10
-6.71137
 20
14.61286
 30
0.0
 10
-6.71137
 20
9.84818
 30
0.0
 10
-6.71137
 20
9.84818
 30
0.0
 10
-6.71137
 20
9.84818
 30
0.0
 10
-6.71137
 20
9.84818
 30
0.0
 10
-7.31135
 20
9.84818
 30
0.0
 10
-7.31135
 20
9.84818
 30
0.0
 10
-7.31135
 20
9.84818
 30
0.0
 10
-7.31135
 20
9.84818
 30
0.0
 10
-7.31135
 20
13.91795
 30
0.0
 10
-7.31135
 20
13.91795
 30
0.0
 10
-7.31135
 20
13.91795
 30
0.0
 10
-7.4153
 20
13.80664
 30
0.0
 10
-7.52404
 20
13.69678
 30
0.0
 10
-7.63965
 20
13.58957
 30
0.0
 10
-7.63965
 20
13.58957
 30
0.0
 10
-8.09797
 20
13.16459
 30
0.0
 10
-8.66462
 20
12.78128
 30
0.0
 10
-9.37291
 20
12.41464
 30
0.0
 10
-9.37291
 20
12.41464
 30
0.0
 10
-10.08122
 20
12.04798
 30
0.0
 10
-10.93118
 20
11.69799
 30
0.0
 10
-11.34782
 20
11.23969
 30
0.0
 10
-11.34782
 20
11.23969
 30
0.0
 10
-12.12412
 20
10.38577
 30
0.0
 10
-11.43353
 20
8.36415
 30
0.0
 10
-10.81452
 20
7.57319
 30
0.0
 10
-10.81452
 20
7.57319
 30
0.0
 10
-10.36454
 20
6.99821
 30
0.0
 10
-9.69789
 20
6.59823
 30
0.0
 10
-8.91459
 20
6.36492
 30
0.0
 10
-8.91459
 20
6.36492
 30
0.0
 10
-8.13131
 20
6.13159
 30
0.0
 10
-7.23135
 20
6.06492
 30
0.0
 10
-6.39805
 20
5.93992
 30
0.0
 10
-6.39805
 20
5.93992
 30
0.0
 10
-4.18915
 20
5.60858
 30
0.0
 10
-3.31931
 20
4.73708
 30
0.0
 10
-1.8816
 20
3.11507
 30
0.0
 10
-1.8816
 20
3.11507
 30
0.0
 10
-0.4594
 20
1.51053
 30
0.0
 10
1.53254
 20
-0.62645
 30
0.0
 10
2.63487
 20
-2.37635
 30
0.0
 10
2.63487
 20
-2.37635
 30
0.0
 10
2.67183
 20
-2.43503
 30
0.0
 10
2.70763
 20
-2.49335
 30
0.0
 10
2.74231
 20
-2.55124
 30
0.0
  0
SPLINE
  5
71
330
1F
100
AcDbEntity
  8
layer 1
 62
   250
370
     9
100
AcDbSpline
210
0.0
220
0.0
230
1.0
 70
    11
 71
     3
 72
    20
 73
    16
 74
     0
 42
0.000000001
 43
0.0000000001
 40
0.0
 40
0.0
 40
0.0
 40
0.0
 40
0.2
 40
0.2
 40
0.2
 40
0.2
 40
0.4
 40
0.4
 40
0.4
 40
0.4
 40
0.6
 40
0.6
 40
0.6
 40
0.6
 40
1.0
 40
1.0
 40
1.0
 40
1.0
 10
11.28779
 20
-3.15122
 30
0.0
 10
11.28779
 20
-3.15122
 30
0.0
 10
11.28779
 20
-2.55124
 30
0.0
 10
11.28779
 20
-2.55124
 30
0.0
 10
11.28779
 20
-2.55124
 30
0.0
 10
11.28779
 20
-2.55124
 30
0.0
 10
14.63763
 20
-2.55124
 30
0.0
 10
14.63763
 20
-2.55124
 30
0.0
 10
14.63763
 20
-2.55124
 30
0.0
 10
14.63763
 20
-2.55124
 30
0.0
 10
14.63763
 20
-3.15122
 30
0.0
 10
14.63763
 20
-3.15122
 30
0.0
 10
14.63763
 20
-3.15122
 30
0.0
 10
14.63763
 20
-3.15122
 30
0.0
 10
11.28779
 20
-3.15122
 30
0.0
 10
11.28779
 20
-3.15122
 30
0.0
  0
SPLINE
  5
72
330
1F
100
AcDbEntity
  8
layer 1
 62
   250
370
     9
100
AcDbSpline
210
0.0
220
0.0
230
1.0
 70
    11
 71
     3
 72
    20
 73
    16
 74
     0
 42
0.000000001
 43
0.0000000001
 40
0.0
 40
0.0
 40
0.0
 40
0.0
 40
0.2
 40
0.2
 40
0.2
 40
0.2
 40
0.4
 40
0.4
 40
0.4
 40
0.4
 40
0.6
 40
0.6
 40
0.6
 40
0.6
 40
1.0
 40
1.0
 40
1.0
 40
1.0
 10
26.1371
 20
-3.15122
 30
0.0
 10
26.1371
 20
-3.15122
 30
0.0
 10
26.1371
 20
-2.55124
 30
0.0
 10
26.1371
 20
-2.55124
 30
0.0
 10
26.1371
 20
-2.55124
 30
0.0
 10
26.1371
 20
-2.55124
 30
0.0
 10
29.48694
 20
-2.55124
 30
0.0
 10
29.48694
 20
-2.55124
 30
0.0
 10
29.48694
 20
-2.55124
 30
0.0
 10
29.48694
 20
-2.55124
 30
0.0
 10
29.48694
 20
-3.15122
 30
0.0
 10
29.48694
 20
-3.15122
 30
0.0
 10
29.48694
 20
-3.15122
 30
0.0
 10
29.48694
 20
-3.15122
 30
0.0
 10
26.1371
 20
-3.15122
 30
0.0
 10
26.1371
 20
-3.15122
 30
0.0
  0
SPLINE
  5
73
330
1F
100
AcDbEntity
  8
layer 1
 62
   250
370
     9
100
AcDbSpline
210
0.0
220
0.0
230
1.0
 70
    11
 71
     3
 72
    20
 73
    16
 74
     0
 42
0.000000001
 43
0.0000000001
 40
0.0
 40
0.0
 40
0.0
 40
0.0
 40
0.2
 40
0.2
 40
0.2
 40
0.2
 40
0.4
 40
0.4
 40
0.4
 40
0.4
 40
0.6
 40
0.6
 40
0.6
 40
0.6
 40
1.0
 40
1.0
 40
1.0
 40
1.0
 10
16.23756
 20
-3.15122
 30
0.0
 10
16.23756
 20
-3.15122
 30
0.0
 10
16.23756
 20
-2.55124
 30
0.0
 10
16.23756
 20
-2.55124
 30
0.0
 10
16.23756
 20
-2.55124
 30
0.0
 10
16.23756
 20
-2.55124
 30
0.0
 10
19.5874
 20
-2.55124
 30
0.0
 10
19.5874
 20
-2.55124
 30
0.0
 10
19.5874
 20
-2.55124
 30
0.0
 10
19.5874
 20
-2.55124
 30
0.0
 10
19.5874
 20
-3.15122
 30
0.0
 10
19.5874
 20
-3.15122
 30
0.0
 10
19.5874
 20
-3.15122
 30
0.0
 10
19.5874
 20
-3.15122
 30
0.0
 10
16.23756
 20
-3.15122
 30
0.0
 10
16.23756
 20
-3.15122
 30
0.0
  0
SPLINE
  5
74
330
1F
100
AcDbEntity
  8
layer 1
 62
   250
370
     9
100
AcDbSpline
210
0.0
220
0.0
230
1.0
 70
    11
 71
     3
 72
    20
 73
    16
 74
     0
 42
0.000000001
 43
0.0000000001
 40
0.0
 40
0.0
 40
0.0
 40
0.0
 40
0.2
 40
0.2
 40
0.2
 40
0.2
 40
0.4
 40
0.4
 40
0.4
 40
0.4
 40
0.6
 40
0.6
 40
0.6
 40
0.6
 40
1.0
 40
1.0
 40
1.0
 40
1.0
 10
21.18733
 20
-3.15122
 30
0.0
 10
21.18733
 20
-3.15122
 30
0.0
 10
21.18733
 20
-2.55124
 30
0.0
 10
21.18733
 20
-2.55124
 30
0.0
 10
21.18733
 20
-2.55124
 30
0.0
 10
21.18733
 20
-2.55124
 30
0.0
 10
24.53717
 20
-2.55124
 30
0.0
 10
24.53717
 20
-2.55124
 30
0.0
 10
24.53717
 20
-2.55124
 30
0.0
 10
24.53717
 20
-2.55124
 30
0.0
 10
24.53717
 20
-3.15122
 30
0.0
 10
24.53717
 20
-3.15122
 30
0.0
 10
24.53717
 20
-3.15122
 30
0.0
 10
24.53717
 20
-3.15122
 30
0.0
 10
21.18733
 20
-3.15122
 30
0.0
 10
21.18733
 20
-3.15122
 30
0.0
  0
SPLINE
  5
75
330
1F
100
AcDbEntity
  8
layer 1
 62
   250
370
     9
100
AcDbSpline
210
0.0
220
0.0
230
1.0
 70
    11
 71
     3
 72
   264
 73
   260
 74
     0
 42
0.000000001
 43
0.0000000001
 40
0.0
 40
0.0
 40
0.0
 40
0.0
 40
0.0151515151515152
 40
0.0151515151515152
 40
0.0151515151515152
 40
0.0151515151515152
 40
0.0303030303030303
 40
0.0303030303030303
 40
0.0303030303030303
 40
0.0303030303030303
 40
0.0454545454545455
 40
0.0454545454545455
 40
0.0454545454545455
 40
0.0454545454545455
 40
0.0606060606060606
 40
0.0606060606060606
 40
0.0606060606060606
 40
0.0606060606060606
 40
0.0757575757575758
 40
0.0757575757575758
 40
0.0757575757575758
 40
0.0757575757575758
 40
0.0909090909090909
 40
0.0909090909090909
 40
0.0909090909090909
 40
0.0909090909090909
 40
0.1060606060606061
 40
0.1060606060606061
 40
0.1060606060606061
 40
0.1060606060606061
 40
0.1212121212121212
 40
0.1212121212121212
 40
0.1212121212121212
 40
0.1212121212121212
 40
0.1363636363636364
 40
0.1363636363636364
 40
0.1363636363636364
 40
0.1363636363636364
 40
0.1515151515151515
 40
0.1515151515151515
 40
0.1515151515151515
 40
0.1515151515151515
 40
0.1666666666666667
 40
0.1666666666666667
 40
0.1666666666666667
 40
0.1666666666666667
 40
0.1818181818181818
 40
0.1818181818181818
 40
0.1818181818181818
 40
0.1818181818181818
 40
0.196969696969697
 40
0.196969696969697
 40
0.196969696969697
 40
0.196969696969697
 40
0.2121212121212121
 40
0.2121212121212121
 40
0.2121212121212121
 40
0.2121212121212121
 40
0.2272727272727273
 40
0.2272727272727273
 40
0.2272727272727273
 40
0.2272727272727273
 40
0.2424242424242424
 40
0.2424242424242424
 40
0.2424242424242424
 40
0.2424242424242424
 40
0.2575757575757576
 40
0.2575757575757576
 40
0.2575757575757576
 40
0.2575757575757576
 40
0.2727272727272727
 40
0.2727272727272727
 40
0.2727272727272727
 40
0.2727272727272727
 40
0.2878787878787879
 40
0.2878787878787879
 40
0.2878787878787879
 40
0.2878787878787879
 40
0.303030303030303
 40
0.303030303030303
 40
0.303030303030303
 40
0.303030303030303
 40
0.3181818181818182
 40
0.3181818181818182
 40
0.3181818181818182
 40
0.3181818181818182
 40
0.3333333333333333
 40
0.3333333333333333
 40
0.3333333333333333
 40
0.3333333333333333
 40
0.3484848484848485
 40
0.3484848484848485
 40
0.3484848484848485
 40
0.3484848484848485
 40
0.3636363636363636
 40
0.3636363636363636
 40
0.3636363636363636
 40
0.3636363636363636
 40
0.3787878787878788
 40
0.3787878787878788
 40
0.3787878787878788
 40
0.3787878787878788
 40
0.3939393939393939
 40
0.3939393939393939
 40
0.3939393939393939
 40
0.3939393939393939
 40
0.4090909090909091
 40
0.4090909090909091
 40
0.4090909090909091
 40
0.4090909090909091
 40
0.4242424242424243
 40
0.4242424242424243
 40
0.4242424242424243
 40
0.4242424242424243
 40
0.4393939393939394
 40
0.4393939393939394
 40
0.4393939393939394
 40
0.4393939393939394
 40
0.4545454545454545
 40
0.4545454545454545
 40
0.4545454545454545
 40
0.4545454545454545
 40
0.4696969696969697
 40
0.4696969696969697
 40
0.4696969696969697
 40
0.4696969696969697
 40
0.4848484848484849
 40
0.4848484848484849
 40
0.4848484848484849
 40
0.4848484848484849
 40
0.5
 40
0.5
 40
0.5
 40
0.5
 40
0.5151515151515151
 40
0.5151515151515151
 40
0.5151515151515151
 40
0.5151515151515151
 40
0.5303030303030303
 40
0.5303030303030303
 40
0.5303030303030303
 40
0.5303030303030303
 40
0.5454545454545454
 40
0.5454545454545454
 40
0.5454545454545454
 40
0.5454545454545454
 40
0.5606060606060606
 40
0.5606060606060606
 40
0.5606060606060606
 40
0.5606060606060606
 40
0.5757575757575758
 40
0.5757575757575758
 40
0.5757575757575758
 40
0.5757575757575758
 40
0.5909090909090909
 40
0.5909090909090909
 40
0.5909090909090909
 40
0.5909090909090909
 40
0.6060606060606061
 40
0.6060606060606061
 40
0.6060606060606061
 40
0.6060606060606061
 40
0.6212121212121212
 40
0.6212121212121212
 40
0.6212121212121212
 40
0.6212121212121212
 40
0.6363636363636364
 40
0.6363636363636364
 40
0.6363636363636364
 40
0.6363636363636364
 40
0.6515151515151515
 40
0.6515151515151515
 40
0.6515151515151515
 40
0.6515151515151515
 40
0.6666666666666666
 40
0.6666666666666666
 40
0.6666666666666666
 40
0.6666666666666666
 40
0.6818181818181818
 40
0.6818181818181818
 40
0.6818181818181818
 40
0.6818181818181818
 40
0.696969696969697
 40
0.696969696969697
 40
0.696969696969697
 40
0.696969696969697
 40
0.7121212121212122
 40
0.7121212121212122
 40
0.7121212121212122
 40
0.7121212121212122
 40
0.7272727272727273
 40
0.7272727272727273
 40
0.7272727272727273
 40
0.7272727272727273
 40
0.7424242424242424
 40
0.7424242424242424
 40
0.7424242424242424
 40
0.7424242424242424
 40
0.7575757575757576
 40
0.7575757575757576
 40
0.7575757575757576
 40
0.7575757575757576
 40
0.7727272727272727
 40
0.7727272727272727
 40
0.7727272727272727
 40
0.7727272727272727
 40
0.7878787878787878
 40
0.7878787878787878
 40
0.7878787878787878
 40
0.7878787878787878
 40
0.803030303030303
 40
0.803030303030303
 40
0.803030303030303
 40
0.803030303030303
 40
0.8181818181818182
 40
0.8181818181818182
 40
0.8181818181818182
 40
0.8181818181818182
 40
0.8333333333333334
 40
0.8333333333333334
 40
0.8333333333333334
 40
0.8333333333333334
 40
0.8484848484848485
 40
0.8484848484848485
 40
0.8484848484848485
 40
0.8484848484848485
 40
0.8636363636363636
 40
0.8636363636363636
 40
0.8636363636363636
 40
0.8636363636363636
 40
0.8787878787878788
 40
0.8787878787878788
 40
0.8787878787878788
 40
0.8787878787878788
 40
0.8939393939393939
 40
0.8939393939393939
 40
0.8939393939393939
 40
0.8939393939393939
 40
0.9090909090909091
 40
0.9090909090909091
 40
0.9090909090909091
 40
0.9090909090909091
 40
0.9242424242424242
 40
0.9242424242424242
 40
0.9242424242424242
 40
0.9242424242424242
 40
0.9393939393939394
 40
0.9393939393939394
 40
0.9393939393939394
 40
0.9393939393939394
 40
0.9545454545454546
 40
0.9545454545454546
 40
0.9545454545454546
 40
0.9545454545454546
 40
0.9696969696969697
 40
0.9696969696969697
 40
0.9696969696969697
 40
0.9696969696969697
 40
1.0
 40
1.0
 40
1.0
 40
1.0
 10
18.21961
 20
-13.78298
 30
0.0
 10
18.0407
 20
-13.8153
 30
0.0
 10
17.80717
 20
-13.81008
 30
0.0
 10
17.60528
 20
-13.84246
 30
0.0
 10
17.60528
 20
-13.84246
 30
0.0
 10
17.36243
 20
-13.88142
 30
0.0
 10
17.06244
 20
-13.94809
 30
0.0
 10
16.77078
 20
-14.07309
 30
0.0
 10
16.77078
 20
-14.07309
 30
0.0
 10
16.47913
 20
-14.19808
 30
0.0
 10
16.19582
 20
-14.38139
 30
0.0
 10
15.89584
 20
-14.58972
 30
0.0
 10
15.89584
 20
-14.58972
 30
0.0
 10
15.59585
 20
-14.79806
 30
0.0
 10
15.27918
 20
-15.03136
 30
0.0
 10
14.97362
 20
-15.18656
 30
0.0
 10
14.97362
 20
-15.18656
 30
0.0
 10
14.66805
 20
-15.34177
 30
0.0
 10
14.37357
 20
-15.41887
 30
0.0
 10
14.08312
 20
-15.46052
 30
0.0
 10
14.08312
 20
-15.46052
 30
0.0
 10
13.79267
 20
-15.50218
 30
0.0
 10
13.50625
 20
-15.50842
 30
0.0
 10
13.26414
 20
-15.52846
 30
0.0
 10
13.26414
 20
-15.52846
 30
0.0
 10
13.02205
 20
-15.5485
 30
0.0
 10
12.82424
 20
-15.58232
 30
0.0
 10
12.58137
 20
-15.64898
 30
0.0
 10
12.58137
 20
-15.64898
 30
0.0
 10
12.33852
 20
-15.71565
 30
0.0
 10
12.05061
 20
-15.81517
 30
0.0
 10
11.78235
 20
-15.99454
 30
0.0
 10
11.78235
 20
-15.99454
 30
0.0
 10
11.51408
 20
-16.17391
 30
0.0
 10
11.26547
 20
-16.43314
 30
0.0
 10
11.06898
 20
-16.9018
 30
0.0
 10
11.06898
 20
-16.9018
 30
0.0
 10
10.87251
 20
-17.37048
 30
0.0
 10
10.72814
 20
-18.04858
 30
0.0
 10
10.65388
 20
-18.90206
 30
0.0
 10
10.65388
 20
-18.90206
 30
0.0
 10
10.61136
 20
-19.39076
 30
0.0
 10
10.59184
 20
-19.937
 30
0.0
 10
10.6054
 20
-20.50337
 30
0.0
 10
10.6054
 20
-20.50337
 30
0.0
 10
10.6054
 20
-20.50337
 30
0.0
 10
16.01971
 20
-20.50337
 30
0.0
 10
16.01971
 20
-20.50337
 30
0.0
 10
16.01971
 20
-20.50337
 30
0.0
 10
16.01971
 20
-20.50337
 30
0.0
 10
16.01971
 20
-21.10334
 30
0.0
 10
16.01971
 20
-21.10334
 30
0.0
 10
16.01971
 20
-21.10334
 30
0.0
 10
16.01971
 20
-21.10334
 30
0.0
 10
10.63226
 20
-21.10334
 30
0.0
 10
10.63226
 20
-21.10334
 30
0.0
 10
10.63226
 20
-21.10334
 30
0.0
 10
10.64734
 20
-21.33185
 30
0.0
 10
10.6682
 20
-21.56152
 30
0.0
 10
10.69544
 20
-21.78995
 30
0.0
 10
10.69544
 20
-21.78995
 30
0.0
 10
10.81541
 20
-22.7954
 30
0.0
 10
11.05954
 20
-23.7775
 30
0.0
 10
11.24143
 20
-24.81927
 30
0.0
 10
11.24143
 20
-24.81927
 30
0.0
 10
11.42332
 20
-25.86106
 30
0.0
 10
11.54302
 20
-26.96259
 30
0.0
 10
11.64823
 20
-27.84343
 30
0.0
 10
11.64823
 20
-27.84343
 30
0.0
 10
11.75347
 20
-28.72429
 30
0.0
 10
11.84424
 20
-29.3845
 30
0.0
 10
12.01924
 20
-29.83448
 30
0.0
 10
12.01924
 20
-29.83448
 30
0.0
 10
12.19423
 20
-30.28446
 30
0.0
 10
12.45344
 20
-30.5242
 30
0.0
 10
12.66757
 20
-30.66022
 30
0.0
 10
12.66757
 20
-30.66022
 30
0.0
 10
12.87572
 20
-30.79245
 30
0.0
 10
13.04129
 20
-30.82663
 30
0.0
 10
13.21984
 20
-30.84257
 30
0.0
 10
13.21984
 20
-30.84257
 30
0.0
 10
13.21984
 20
-30.84257
 30
0.0
 10
13.21984
 20
-23.55367
 30
0.0
 10
13.21984
 20
-23.55367
 30
0.0
 10
13.21984
 20
-23.55367
 30
0.0
 10
13.21984
 20
-23.55367
 30
0.0
 10
13.81981
 20
-23.55367
 30
0.0
 10
13.81981
 20
-23.55367
 30
0.0
 10
13.81981
 20
-23.55367
 30
0.0
 10
13.81981
 20
-23.55367
 30
0.0
 10
13.81981
 20
-30.83285
 30
0.0
 10
13.81981
 20
-30.83285
 30
0.0
 10
13.81981
 20
-30.83285
 30
0.0
 10
14.0198
 20
-30.80785
 30
0.0
 10
14.21977
 20
-30.75933
 30
0.0
 10
14.41437
 20
-30.65686
 30
0.0
 10
14.41437
 20
-30.65686
 30
0.0
 10
14.60896
 20
-30.55438
 30
0.0
 10
14.79823
 20
-30.39793
 30
0.0
 10
14.93868
 20
-30.04847
 30
0.0
 10
14.93868
 20
-30.04847
 30
0.0
 10
15.07915
 20
-29.699
 30
0.0
 10
15.17083
 20
-29.15655
 30
0.0
 10
15.19167
 20
-28.61031
 30
0.0
 10
15.19167
 20
-28.61031
 30
0.0
 10
15.21253
 20
-28.0641
 30
0.0
 10
15.16253
 20
-27.51412
 30
0.0
 10
15.24585
 20
-26.94747
 30
0.0
 10
15.24585
 20
-26.94747
 30
0.0
 10
15.32918
 20
-26.38084
 30
0.0
 10
15.54585
 20
-25.79754
 30
0.0
 10
15.92083
 20
-25.58921
 30
0.0
 10
15.92083
 20
-25.58921
 30
0.0
 10
16.29582
 20
-25.38088
 30
0.0
 10
16.82911
 20
-25.54756
 30
0.0
 10
17.22641
 20
-25.64801
 30
0.0
 10
17.22641
 20
-25.64801
 30
0.0
 10
17.62372
 20
-25.74847
 30
0.0
 10
17.88498
 20
-25.78274
 30
0.0
 10
18.07783
 20
-25.8006
 30
0.0
 10
18.07783
 20
-25.8006
 30
0.0
 10
18.27071
 20
-25.81848
 30
0.0
 10
18.39516
 20
-25.81994
 30
0.0
 10
18.51959
 20
-25.82142
 30
0.0
 10
18.51959
 20
-25.82142
 30
0.0
 10
18.64403
 20
-25.81994
 30
0.0
 10
18.76848
 20
-25.81848
 30
0.0
 10
18.96135
 20
-25.8006
 30
0.0
 10
18.96135
 20
-25.8006
 30
0.0
 10
19.1542
 20
-25.78274
 30
0.0
 10
19.41547
 20
-25.74847
 30
0.0
 10
19.81277
 20
-25.64801
 30
0.0
 10
19.81277
 20
-25.64801
 30
0.0
 10
20.21008
 20
-25.54756
 30
0.0
 10
20.74337
 20
-25.38088
 30
0.0
 10
21.11835
 20
-25.58921
 30
0.0
 10
21.11835
 20
-25.58921
 30
0.0
 10
21.49334
 20
-25.79754
 30
0.0
 10
21.71001
 20
-26.38084
 30
0.0
 10
21.79334
 20
-26.94747
 30
0.0
 10
21.79334
 20
-26.94747
 30
0.0
 10
21.87666
 20
-27.51412
 30
0.0
 10
21.82666
 20
-28.0641
 30
0.0
 10
21.84752
 20
-28.61031
 30
0.0
 10
21.84752
 20
-28.61031
 30
0.0
 10
21.86836
 20
-29.15655
 30
0.0
 10
21.96003
 20
-29.699
 30
0.0
 10
22.10051
 20
-30.04847
 30
0.0
 10
22.10051
 20
-30.04847
 30
0.0
 10
22.24096
 20
-30.39793
 30
0.0
 10
22.43023
 20
-30.55438
 30
0.0
 10
22.62482
 20
-30.65686
 30
0.0
 10
22.62482
 20
-30.65686
 30
0.0
 10
22.81941
 20
-30.75933
 30
0.0
 10
23.01939
 20
-30.80785
 30
0.0
 10
23.21938
 20
-30.83285
 30
0.0
 10
23.21938
 20
-30.83285
 30
0.0
 10
23.21938
 20
-30.83285
 30
0.0
 10
23.21938
 20
-23.55367
 30
0.0
 10
23.21938
 20
-23.55367
 30
0.0
 10
23.21938
 20
-23.55367
 30
0.0
 10
23.21938
 20
-23.55367
 30
0.0
 10
23.81935
 20
-23.55367
 30
0.0
 10
23.81935
 20
-23.55367
 30
0.0
 10
23.81935
 20
-23.55367
 30
0.0
 10
23.81935
 20
-23.55367
 30
0.0
 10
23.81935
 20
-30.84257
 30
0.0
 10
23.81935
 20
-30.84257
 30
0.0
 10
23.81935
 20
-30.84257
 30
0.0
 10
23.9979
 20
-30.82663
 30
0.0
 10
24.16347
 20
-30.79245
 30
0.0
 10
24.37162
 20
-30.66022
 30
0.0
 10
24.37162
 20
-30.66022
 30
0.0
 10
24.58575
 20
-30.5242
 30
0.0
 10
24.84496
 20
-30.28446
 30
0.0
 10
25.01995
 20
-29.83448
 30
0.0
 10
25.01995
 20
-29.83448
 30
0.0
 10
25.19494
 20
-29.3845
 30
0.0
 10
25.28572
 20
-28.72429
 30
0.0
 10
25.39095
 20
-27.84343
 30
0.0
 10
25.39095
 20
-27.84343
 30
0.0
 10
25.49617
 20
-26.96259
 30
0.0
 10
25.61586
 20
-25.86106
 30
0.0
 10
25.79776
 20
-24.81927
 30
0.0
 10
25.79776
 20
-24.81927
 30
0.0
 10
25.97965
 20
-23.7775
 30
0.0
 10
26.22378
 20
-22.7954
 30
0.0
 10
26.34375
 20
-21.78995
 30
0.0
 10
26.34375
 20
-21.78995
 30
0.0
 10
26.37099
 20
-21.56152
 30
0.0
 10
26.39185
 20
-21.33185
 30
0.0
 10
26.40693
 20
-21.10334
 30
0.0
 10
26.40693
 20
-21.10334
 30
0.0
 10
26.40693
 20
-21.10334
 30
0.0
 10
21.01948
 20
-21.10334
 30
0.0
 10
21.01948
 20
-21.10334
 30
0.0
 10
21.01948
 20
-21.10334
 30
0.0
 10
21.01948
 20
-21.10334
 30
0.0
 10
21.01948
 20
-20.50337
 30
0.0
 10
21.01948
 20
-20.50337
 30
0.0
 10
21.01948
 20
-20.50337
 30
0.0
 10
21.01948
 20
-20.50337
 30
0.0
 10
26.43377
 20
-20.50337
 30
0.0
 10
26.43377
 20
-20.50337
 30
0.0
 10
26.43377
 20
-20.50337
 30
0.0
 10
26.44735
 20
-19.937
 30
0.0
 10
26.42783
 20
-19.39076
 30
0.0
 10
26.38531
 20
-18.90206
 30
0.0
 10
26.38531
 20
-18.90206
 30
0.0
 10
26.31105
 20
-18.04858
 30
0.0
 10
26.16668
 20
-17.37048
 30
0.0
 10
25.97021
 20
-16.9018
 30
0.0
 10
25.97021
 20
-16.9018
 30
0.0
 10
25.77372
 20
-16.43314
 30
0.0
 10
25.52511
 20
-16.17391
 30
0.0
 10
25.25684
 20
-15.99454
 30
0.0
 10
25.25684
 20
-15.99454
 30
0.0
 10
24.98857
 20
-15.81517
 30
0.0
 10
24.70067
 20
-15.71565
 30
0.0
 10
24.45782
 20
-15.64898
 30
0.0
 10
24.45782
 20
-15.64898
 30
0.0
 10
24.21495
 20
-15.58232
 30
0.0
 10
24.01714
 20
-15.5485
 30
0.0
 10
23.77505
 20
-15.52846
 30
0.0
 10
23.77505
 20
-15.52846
 30
0.0
 10
23.53294
 20
-15.50842
 30
0.0
 10
23.24651
 20
-15.50218
 30
0.0
 10
22.95607
 20
-15.46052
 30
0.0
 10
22.95607
 20
-15.46052
 30
0.0
 10
22.66562
 20
-15.41887
 30
0.0
 10
22.37114
 20
-15.34177
 30
0.0
 10
22.06557
 20
-15.18656
 30
0.0
 10
22.06557
 20
-15.18656
 30
0.0
 10
21.76
 20
-15.03136
 30
0.0
 10
21.44334
 20
-14.79806
 30
0.0
 10
21.14335
 20
-14.58972
 30
0.0
 10
21.14335
 20
-14.58972
 30
0.0
 10
20.84337
 20
-14.38139
 30
0.0
 10
20.56006
 20
-14.19808
 30
0.0
 10
20.26841
 20
-14.07309
 30
0.0
 10
20.26841
 20
-14.07309
 30
0.0
 10
19.97675
 20
-13.94809
 30
0.0
 10
19.67676
 20
-13.88142
 30
0.0
 10
19.43391
 20
-13.84246
 30
0.0
 10
19.43391
 20
-13.84246
 30
0.0
 10
19.23202
 20
-13.81008
 30
0.0
 10
18.99849
 20
-13.8153
 30
0.0
 10
18.81958
 20
-13.78298
 30
0.0
 10
18.81958
 20
-13.78298
 30
0.0
 10
18.81958
 20
-13.78298
 30
0.0
 10
18.81958
 20
-20.50337
 30
0.0
 10
18.81958
 20
-20.50337
 30
0.0
 10
18.81958
 20
-20.50337
 30
0.0
 10
18.81958
 20
-20.50337
 30
0.0
 10
18.21961
 20
-20.50337
 30
0.0
 10
18.21961
 20
-20.50337
 30
0.0
 10
18.21961
 20
-20.50337
 30
0.0
 10
18.21961
 20
-20.50337
 30
0.0
 10
18.21961
 20
-13.78298
 30
0.0
 10
18.21961
 20
-13.78298
 30
0.0
  0
SPLINE
  5
76
330
1F
100
AcDbEntity
  8
layer 1
 62
   250
370
     9
100
AcDbSpline
210
0.0
220
0.0
230
1.0
 70
    11
 71
     3
 72
   356
 73
   352
 74
     0
 42
0.000000001
 43
0.0000000001
 40
0.0
 40
0.0
 40
0.0
 40
0.0
 40
0.0112359550561798
 40
0.0112359550561798
 40
0.0112359550561798
 40
0.0112359550561798
 40
0.0224719101123595
 40
0.0224719101123595
 40
0.0224719101123595
 40
0.0224719101123595
 40
0.0337078651685393
 40
0.0337078651685393
 40
0.0337078651685393
 40
0.0337078651685393
 40
0.0449438202247191
 40
0.0449438202247191
 40
0.0449438202247191
 40
0.0449438202247191
 40
0.0561797752808989
 40
0.0561797752808989
 40
0.0561797752808989
 40
0.0561797752808989
 40
0.0674157303370786
 40
0.0674157303370786
 40
0.0674157303370786
 40
0.0674157303370786
 40
0.0786516853932584
 40
0.0786516853932584
 40
0.0786516853932584
 40
0.0786516853932584
 40
0.0898876404494382
 40
0.0898876404494382
 40
0.0898876404494382
 40
0.0898876404494382
 40
0.101123595505618
 40
0.101123595505618
 40
0.101123595505618
 40
0.101123595505618
 40
0.1123595505617977
 40
0.1123595505617977
 40
0.1123595505617977
 40
0.1123595505617977
 40
0.1235955056179775
 40
0.1235955056179775
 40
0.1235955056179775
 40
0.1235955056179775
 40
0.1348314606741573
 40
0.1348314606741573
 40
0.1348314606741573
 40
0.1348314606741573
 40
0.1460674157303371
 40
0.1460674157303371
 40
0.1460674157303371
 40
0.1460674157303371
 40
0.1573033707865168
 40
0.1573033707865168
 40
0.1573033707865168
 40
0.1573033707865168
 40
0.1685393258426966
 40
0.1685393258426966
 40
0.1685393258426966
 40
0.1685393258426966
 40
0.1797752808988764
 40
0.1797752808988764
 40
0.1797752808988764
 40
0.1797752808988764
 40
0.1910112359550562
 40
0.1910112359550562
 40
0.1910112359550562
 40
0.1910112359550562
 40
0.2022471910112359
 40
0.2022471910112359
 40
0.2022471910112359
 40
0.2022471910112359
 40
0.2134831460674157
 40
0.2134831460674157
 40
0.2134831460674157
 40
0.2134831460674157
 40
0.2247191011235955
 40
0.2247191011235955
 40
0.2247191011235955
 40
0.2247191011235955
 40
0.2359550561797753
 40
0.2359550561797753
 40
0.2359550561797753
 40
0.2359550561797753
 40
0.247191011235955
 40
0.247191011235955
 40
0.247191011235955
 40
0.247191011235955
 40
0.2584269662921349
 40
0.2584269662921349
 40
0.2584269662921349
 40
0.2584269662921349
 40
0.2696629213483146
 40
0.2696629213483146
 40
0.2696629213483146
 40
0.2696629213483146
 40
0.2808988764044944
 40
0.2808988764044944
 40
0.2808988764044944
 40
0.2808988764044944
 40
0.2921348314606741
 40
0.2921348314606741
 40
0.2921348314606741
 40
0.2921348314606741
 40
0.303370786516854
 40
0.303370786516854
 40
0.303370786516854
 40
0.303370786516854
 40
0.3146067415730337
 40
0.3146067415730337
 40
0.3146067415730337
 40
0.3146067415730337
 40
0.3258426966292135
 40
0.3258426966292135
 40
0.3258426966292135
 40
0.3258426966292135
 40
0.3370786516853932
 40
0.3370786516853932
 40
0.3370786516853932
 40
0.3370786516853932
 40
0.3483146067415731
 40
0.3483146067415731
 40
0.3483146067415731
 40
0.3483146067415731
 40
0.3595505617977528
 40
0.3595505617977528
 40
0.3595505617977528
 40
0.3595505617977528
 40
0.3707865168539326
 40
0.3707865168539326
 40
0.3707865168539326
 40
0.3707865168539326
 40
0.3820224719101123
 40
0.3820224719101123
 40
0.3820224719101123
 40
0.3820224719101123
 40
0.3932584269662922
 40
0.3932584269662922
 40
0.3932584269662922
 40
0.3932584269662922
 40
0.4044943820224719
 40
0.4044943820224719
 40
0.4044943820224719
 40
0.4044943820224719
 40
0.4157303370786517
 40
0.4157303370786517
 40
0.4157303370786517
 40
0.4157303370786517
 40
0.4269662921348314
 40
0.4269662921348314
 40
0.4269662921348314
 40
0.4269662921348314
 40
0.4382022471910113
 40
0.4382022471910113
 40
0.4382022471910113
 40
0.4382022471910113
 40
0.449438202247191
 40
0.449438202247191
 40
0.449438202247191
 40
0.449438202247191
 40
0.4606741573033708
 40
0.4606741573033708
 40
0.4606741573033708
 40
0.4606741573033708
 40
0.4719101123595505
 40
0.4719101123595505
 40
0.4719101123595505
 40
0.4719101123595505
 40
0.4831460674157304
 40
0.4831460674157304
 40
0.4831460674157304
 40
0.4831460674157304
 40
0.4943820224719101
 40
0.4943820224719101
 40
0.4943820224719101
 40
0.4943820224719101
 40
0.5056179775280899
 40
0.5056179775280899
 40
0.5056179775280899
 40
0.5056179775280899
 40
0.5168539325842697
 40
0.5168539325842697
 40
0.5168539325842697
 40
0.5168539325842697
 40
0.5280898876404494
 40
0.5280898876404494
 40
0.5280898876404494
 40
0.5280898876404494
 40
0.5393258426966292
 40
0.5393258426966292
 40
0.5393258426966292
 40
0.5393258426966292
 40
0.550561797752809
 40
0.550561797752809
 40
0.550561797752809
 40
0.550561797752809
 40
0.5617977528089888
 40
0.5617977528089888
 40
0.5617977528089888
 40
0.5617977528089888
 40
0.5730337078651685
 40
0.5730337078651685
 40
0.5730337078651685
 40
0.5730337078651685
 40
0.5842696629213483
 40
0.5842696629213483
 40
0.5842696629213483
 40
0.5842696629213483
 40
0.5955056179775281
 40
0.5955056179775281
 40
0.5955056179775281
 40
0.5955056179775281
 40
0.6067415730337079
 40
0.6067415730337079
 40
0.6067415730337079
 40
0.6067415730337079
 40
0.6179775280898876
 40
0.6179775280898876
 40
0.6179775280898876
 40
0.6179775280898876
 40
0.6292134831460674
 40
0.6292134831460674
 40
0.6292134831460674
 40
0.6292134831460674
 40
0.6404494382022472
 40
0.6404494382022472
 40
0.6404494382022472
 40
0.6404494382022472
 40
0.651685393258427
 40
0.651685393258427
 40
0.651685393258427
 40
0.651685393258427
 40
0.6629213483146067
 40
0.6629213483146067
 40
0.6629213483146067
 40
0.6629213483146067
 40
0.6741573033707865
 40
0.6741573033707865
 40
0.6741573033707865
 40
0.6741573033707865
 40
0.6853932584269663
 40
0.6853932584269663
 40
0.6853932584269663
 40
0.6853932584269663
 40
0.6966292134831461
 40
0.6966292134831461
 40
0.6966292134831461
 40
0.6966292134831461
 40
0.7078651685393258
 40
0.7078651685393258
 40
0.7078651685393258
 40
0.7078651685393258
 40
0.7191011235955056
 40
0.7191011235955056
 40
0.7191011235955056
 40
0.7191011235955056
 40
0.7303370786516854
 40
0.7303370786516854
 40
0.7303370786516854
 40
0.7303370786516854
 40
0.7415730337078652
 40
0.7415730337078652
 40
0.7415730337078652
 40
0.7415730337078652
 40
0.7528089887640449
 40
0.7528089887640449
 40
0.7528089887640449
 40
0.7528089887640449
 40
0.7640449438202247
 40
0.7640449438202247
 40
0.7640449438202247
 40
0.7640449438202247
 40
0.7752808988764045
 40
0.7752808988764045
 40
0.7752808988764045
 40
0.7752808988764045
 40
0.7865168539325843
 40
0.7865168539325843
 40
0.7865168539325843
 40
0.7865168539325843
 40
0.797752808988764
 40
0.797752808988764
 40
0.797752808988764
 40
0.797752808988764
 40
0.8089887640449438
 40
0.8089887640449438
 40
0.8089887640449438
 40
0.8089887640449438
 40
0.8202247191011236
 40
0.8202247191011236
 40
0.8202247191011236
 40
0.8202247191011236
 40
0.8314606741573034
 40
0.8314606741573034
 40
0.8314606741573034
 40
0.8314606741573034
 40
0.8426966292134831
 40
0.8426966292134831
 40
0.8426966292134831
 40
0.8426966292134831
 40
0.8539325842696629
 40
0.8539325842696629
 40
0.8539325842696629
 40
0.8539325842696629
 40
0.8651685393258427
 40
0.8651685393258427
 40
0.8651685393258427
 40
0.8651685393258427
 40
0.8764044943820225
 40
0.8764044943820225
 40
0.8764044943820225
 40
0.8764044943820225
 40
0.8876404494382022
 40
0.8876404494382022
 40
0.8876404494382022
 40
0.8876404494382022
 40
0.898876404494382
 40
0.898876404494382
 40
0.898876404494382
 40
0.898876404494382
 40
0.9101123595505618
 40
0.9101123595505618
 40
0.9101123595505618
 40
0.9101123595505618
 40
0.9213483146067416
 40
0.9213483146067416
 40
0.9213483146067416
 40
0.9213483146067416
 40
0.9325842696629213
 40
0.9325842696629213
 40
0.9325842696629213
 40
0.9325842696629213
 40
0.9438202247191011
 40
0.9438202247191011
 40
0.9438202247191011
 40
0.9438202247191011
 40
0.9550561797752809
 40
0.9550561797752809
 40
0.9550561797752809
 40
0.9550561797752809
 40
0.9662921348314607
 40
0.9662921348314607
 40
0.9662921348314607
 40
0.9662921348314607
 40
0.9775280898876404
 40
0.9775280898876404
 40
0.9775280898876404
 40
0.9775280898876404
 40
1.0
 40
1.0
 40
1.0
 40
1.0
 10
6.10147
 20
-44.16891
 30
0.0
 10
6.10147
 20
-44.16891
 30
0.0
 10
6.10147
 20
-44.76888
 30
0.0
 10
6.10147
 20
-44.76888
 30
0.0
 10
6.10147
 20
-44.76888
 30
0.0
 10
6.10147
 20
-44.76888
 30
0.0
 10
5.38124
 20
-44.76888
 30
0.0
 10
5.38124
 20
-44.76888
 30
0.0
 10
5.38124
 20
-44.76888
 30
0.0
 10
5.38124
 20
-44.76888
 30
0.0
 10
5.38124
 20
-29.16949
 30
0.0
 10
5.38124
 20
-29.16949
 30
0.0
 10
5.38124
 20
-29.16949
 30
0.0
 10
5.38124
 20
-29.16949
 30
0.0
 10
4.78127
 20
-29.16949
 30
0.0
 10
4.78127
 20
-29.16949
 30
0.0
 10
4.78127
 20
-29.16949
 30
0.0
 10
4.78127
 20
-29.16949
 30
0.0
 10
4.78127
 20
-44.76888
 30
0.0
 10
4.78127
 20
-44.76888
 30
0.0
 10
4.78127
 20
-44.76888
 30
0.0
 10
4.78127
 20
-44.76888
 30
0.0
 10
4.10156
 20
-44.76888
 30
0.0
 10
4.10156
 20
-44.76888
 30
0.0
 10
4.10156
 20
-44.76888
 30
0.0
 10
4.10156
 20
-44.76888
 30
0.0
 10
4.10156
 20
-44.16891
 30
0.0
 10
4.10156
 20
-44.16891
 30
0.0
 10
4.10156
 20
-44.16891
 30
0.0
 10
4.10156
 20
-44.16891
 30
0.0
 10
3.68712
 20
-44.16889
 30
0.0
 10
3.68712
 20
-44.16889
 30
0.0
 10
3.68712
 20
-44.16889
 30
0.0
 10
3.62363
 20
-43.9403
 30
0.0
 10
3.56221
 20
-43.71173
 30
0.0
 10
3.52491
 20
-43.4664
 30
0.0
 10
3.52491
 20
-43.4664
 30
0.0
 10
3.48759
 20
-43.22109
 30
0.0
 10
3.47443
 20
-42.95907
 30
0.0
 10
3.56101
 20
-42.6592
 30
0.0
 10
3.56101
 20
-42.6592
 30
0.0
 10
3.64759
 20
-42.35935
 30
0.0
 10
3.8339
 20
-42.02169
 30
0.0
 10
3.89859
 20
-41.52019
 30
0.0
 10
3.89859
 20
-41.52019
 30
0.0
 10
3.96329
 20
-41.01872
 30
0.0
 10
3.90635
 20
-40.35341
 30
0.0
 10
3.81736
 20
-39.51625
 30
0.0
 10
3.81736
 20
-39.51625
 30
0.0
 10
3.72834
 20
-38.67909
 30
0.0
 10
3.60729
 20
-37.67009
 30
0.0
 10
3.44357
 20
-36.80211
 30
0.0
 10
3.44357
 20
-36.80211
 30
0.0
 10
3.27986
 20
-35.93415
 30
0.0
 10
3.07349
 20
-35.20721
 30
0.0
 10
3.05365
 20
-34.41876
 30
0.0
 10
3.05365
 20
-34.41876
 30
0.0
 10
3.03379
 20
-33.63032
 30
0.0
 10
3.20047
 20
-32.78036
 30
0.0
 10
3.18691
 20
-32.26276
 30
0.0
 10
3.18691
 20
-32.26276
 30
0.0
 10
3.17335
 20
-31.74519
 30
0.0
 10
2.97958
 20
-31.55998
 30
0.0
 10
2.71405
 20
-31.44234
 30
0.0
 10
2.71405
 20
-31.44234
 30
0.0
 10
2.4485
 20
-31.32471
 30
0.0
 10
2.11122
 20
-31.27465
 30
0.0
 10
1.78595
 20
-31.31737
 30
0.0
 10
1.78595
 20
-31.31737
 30
0.0
 10
1.46067
 20
-31.36011
 30
0.0
 10
1.14742
 20
-31.4956
 30
0.0
 10
0.93799
 20
-31.57158
 30
0.0
 10
0.93799
 20
-31.57158
 30
0.0
 10
0.72854
 20
-31.64755
 30
0.0
 10
0.62289
 20
-31.66397
 30
0.0
 10
0.54733
 20
-31.67117
 30
0.0
 10
0.54733
 20
-31.67117
 30
0.0
 10
0.34342
 20
-31.69061
 30
0.0
 10
-0.1812
 20
-31.69063
 30
0.0
 10
-0.38509
 20
-31.67119
 30
0.0
 10
-0.38509
 20
-31.67119
 30
0.0
 10
-0.46064
 20
-31.66399
 30
0.0
 10
-0.5663
 20
-31.64757
 30
0.0
 10
-0.77575
 20
-31.5716
 30
0.0
 10
-0.77575
 20
-31.5716
 30
0.0
 10
-0.98518
 20
-31.49562
 30
0.0
 10
-1.29842
 20
-31.36013
 30
0.0
 10
-1.62371
 20
-31.31739
 30
0.0
 10
-1.62371
 20
-31.31739
 30
0.0
 10
-1.94897
 20
-31.27467
 30
0.0
 10
-2.28626
 20
-31.32473
 30
0.0
 10
-2.55181
 20
-31.44236
 30
0.0
 10
-2.55181
 20
-31.44236
 30
0.0
 10
-2.81733
 20
-31.56
 30
0.0
 10
-3.01111
 20
-31.74521
 30
0.0
 10
-3.02466
 20
-32.26278
 30
0.0
 10
-3.02466
 20
-32.26278
 30
0.0
 10
-3.03822
 20
-32.78038
 30
0.0
 10
-2.87155
 20
-33.63034
 30
0.0
 10
-2.89141
 20
-34.41878
 30
0.0
 10
-2.89141
 20
-34.41878
 30
0.0
 10
-2.91125
 20
-35.20723
 30
0.0
 10
-3.11762
 20
-35.93417
 30
0.0
 10
-3.28133
 20
-36.80213
 30
0.0
 10
-3.28133
 20
-36.80213
 30
0.0
 10
-3.44504
 20
-37.67011
 30
0.0
 10
-3.5661
 20
-38.67911
 30
0.0
 10
-3.65512
 20
-39.51627
 30
0.0
 10
-3.65512
 20
-39.51627
 30
0.0
 10
-3.74411
 20
-40.35343
 30
0.0
 10
-3.80105
 20
-41.01874
 30
0.0
 10
-3.73635
 20
-41.52021
 30
0.0
 10
-3.73635
 20
-41.52021
 30
0.0
 10
-3.67165
 20
-42.02171
 30
0.0
 10
-3.48534
 20
-42.35937
 30
0.0
 10
-3.39877
 20
-42.65922
 30
0.0
 10
-3.39877
 20
-42.65922
 30
0.0
 10
-3.31219
 20
-42.95909
 30
0.0
 10
-3.32535
 20
-43.22111
 30
0.0
 10
-3.36267
 20
-43.46642
 30
0.0
 10
-3.36267
 20
-43.46642
 30
0.0
 10
-3.39997
 20
-43.71175
 30
0.0
 10
-3.46138
 20
-43.94032
 30
0.0
 10
-3.52282
 20
-44.16891
 30
0.0
 10
-3.52282
 20
-44.16891
 30
0.0
 10
-3.52282
 20
-44.16891
 30
0.0
 10
-3.93392
 20
-44.16891
 30
0.0
 10
-3.93392
 20
-44.16891
 30
0.0
 10
-3.93392
 20
-44.16891
 30
0.0
 10
-3.93392
 20
-44.16891
 30
0.0
 10
-3.93392
 20
-44.76888
 30
0.0
 10
-3.93392
 20
-44.76888
 30
0.0
 10
-3.93392
 20
-44.76888
 30
0.0
 10
-3.93392
 20
-44.76888
 30
0.0
 10
-4.61829
 20
-44.76888
 30
0.0
 10
-4.61829
 20
-44.76888
 30
0.0
 10
-4.61829
 20
-44.76888
 30
0.0
 10
-4.61829
 20
-44.76888
 30
0.0
 10
-4.61829
 20
-29.16949
 30
0.0
 10
-4.61829
 20
-29.16949
 30
0.0
 10
-4.61829
 20
-29.16949
 30
0.0
 10
-4.61829
 20
-29.16949
 30
0.0
 10
-5.21826
 20
-29.16949
 30
0.0
 10
-5.21826
 20
-29.16949
 30
0.0
 10
-5.21826
 20
-29.16949
 30
0.0
 10
-5.21826
 20
-29.16949
 30
0.0
 10
-5.21826
 20
-44.76888
 30
0.0
 10
-5.21826
 20
-44.76888
 30
0.0
 10
-5.21826
 20
-44.76888
 30
0.0
 10
-5.21826
 20
-44.76888
 30
0.0
 10
-5.93383
 20
-44.76888
 30
0.0
 10
-5.93383
 20
-44.76888
 30
0.0
 10
-5.93383
 20
-44.76888
 30
0.0
 10
-5.93383
 20
-44.76888
 30
0.0
 10
-5.93383
 20
-44.16891
 30
0.0
 10
-5.93383
 20
-44.16891
 30
0.0
 10
-5.93383
 20
-44.16891
 30
0.0
 10
-5.93383
 20
-44.16891
 30
0.0
 10
-6.34491
 20
-44.16891
 30
0.0
 10
-6.34491
 20
-44.16891
 30
0.0
 10
-6.34491
 20
-44.16891
 30
0.0
 10
-6.44819
 20
-43.93924
 30
0.0
 10
-6.55144
 20
-43.70955
 30
0.0
 10
-6.59476
 20
-43.44472
 30
0.0
 10
-6.59476
 20
-43.44472
 30
0.0
 10
-6.63806
 20
-43.1799
 30
0.0
 10
-6.62138
 20
-42.87991
 30
0.0
 10
-6.54638
 20
-42.58824
 30
0.0
 10
-6.54638
 20
-42.58824
 30
0.0
 10
-6.47138
 20
-42.2966
 30
0.0
 10
-6.33807
 20
-42.01329
 30
0.0
 10
-6.32973
 20
-41.32998
 30
0.0
 10
-6.32973
 20
-41.32998
 30
0.0
 10
-6.32139
 20
-40.64667
 30
0.0
 10
-6.43807
 20
-39.5634
 30
0.0
 10
-6.5218
 20
-38.43284
 30
0.0
 10
-6.5218
 20
-38.43284
 30
0.0
 10
-6.60554
 20
-37.30227
 30
0.0
 10
-6.65638
 20
-36.12442
 30
0.0
 10
-6.76471
 20
-35.06613
 30
0.0
 10
-6.76471
 20
-35.06613
 30
0.0
 10
-6.87303
 20
-34.00786
 30
0.0
 10
-7.03886
 20
-33.06913
 30
0.0
 10
-7.21367
 20
-31.80624
 30
0.0
 10
-7.21367
 20
-31.80624
 30
0.0
 10
-7.38846
 20
-30.54336
 30
0.0
 10
-7.57227
 20
-28.9563
 30
0.0
 10
-7.69567
 20
-27.45235
 30
0.0
 10
-7.69567
 20
-27.45235
 30
0.0
 10
-7.7861
 20
-26.35002
 30
0.0
 10
-7.84416
 20
-25.29231
 30
0.0
 10
-7.88362
 20
-24.1697
 30
0.0
 10
-7.88362
 20
-24.1697
 30
0.0
 10
-7.88362
 20
-24.1697
 30
0.0
 10
-2.41839
 20
-24.1697
 30
0.0
 10
-2.41839
 20
-24.1697
 30
0.0
 10
-2.41839
 20
-24.1697
 30
0.0
 10
-2.41839
 20
-24.1697
 30
0.0
 10
-2.41839
 20
-23.56973
 30
0.0
 10
-2.41839
 20
-23.56973
 30
0.0
 10
-2.41839
 20
-23.56973
 30
0.0
 10
-2.41839
 20
-23.56973
 30
0.0
 10
-7.90282
 20
-23.57023
 30
0.0
 10
-7.90282
 20
-23.57023
 30
0.0
 10
-7.90282
 20
-23.57023
 30
0.0
 10
-7.9091
 20
-23.35398
 30
0.0
 10
-7.91482
 20
-23.13469
 30
0.0
 10
-7.92006
 20
-22.9117
 30
0.0
 10
-7.92006
 20
-22.9117
 30
0.0
 10
-7.95802
 20
-21.29579
 30
0.0
 10
-7.97087
 20
-19.48482
 30
0.0
 10
-7.70175
 20
-18.26259
 30
0.0
 10
-7.70175
 20
-18.26259
 30
0.0
 10
-7.43262
 20
-17.04039
 30
0.0
 10
-6.88149
 20
-16.40696
 30
0.0
 10
-6.42059
 20
-16.07192
 30
0.0
 10
-6.42059
 20
-16.07192
 30
0.0
 10
-5.95967
 20
-15.73687
 30
0.0
 10
-5.58899
 20
-15.70021
 30
0.0
 10
-5.25954
 20
-15.67797
 30
0.0
 10
-5.25954
 20
-15.67797
 30
0.0
 10
-4.93008
 20
-15.65574
 30
0.0
 10
-4.64185
 20
-15.6479
 30
0.0
 10
-4.34374
 20
-15.5844
 30
0.0
 10
-4.34374
 20
-15.5844
 30
0.0
 10
-4.04564
 20
-15.52092
 30
0.0
 10
-3.73765
 20
-15.40181
 30
0.0
 10
-3.4462
 20
-15.25033
 30
0.0
 10
-3.4462
 20
-15.25033
 30
0.0
 10
-3.15474
 20
-15.09886
 30
0.0
 10
-2.87983
 20
-14.91503
 30
0.0
 10
-2.64816
 20
-14.72706
 30
0.0
 10
-2.64816
 20
-14.72706
 30
0.0
 10
-2.41649
 20
-14.53911
 30
0.0
 10
-2.22806
 20
-14.34698
 30
0.0
 10
-1.99865
 20
-14.19796
 30
0.0
 10
-1.99865
 20
-14.19796
 30
0.0
 10
-1.76922
 20
-14.04895
 30
0.0
 10
-1.4988
 20
-13.94303
 30
0.0
 10
-1.24397
 20
-13.88106
 30
0.0
 10
-1.24397
 20
-13.88106
 30
0.0
 10
-0.98914
 20
-13.81908
 30
0.0
 10
-0.74993
 20
-13.80106
 30
0.0
 10
-0.58162
 20
-13.79202
 30
0.0
 10
-0.58162
 20
-13.79202
 30
0.0
 10
-0.41331
 20
-13.783
 30
0.0
 10
-0.31589
 20
-13.783
 30
0.0
 10
-0.21719
 20
-13.78298
 30
0.0
 10
-0.21719
 20
-13.78298
 30
0.0
 10
-0.21719
 20
-13.78298
 30
0.0
 10
-0.21719
 20
-23.56973
 30
0.0
 10
-0.21719
 20
-23.56973
 30
0.0
 10
-0.21719
 20
-23.56973
 30
0.0
 10
-0.21719
 20
-23.56973
 30
0.0
 10
0.38148
 20
-23.56973
 30
0.0
 10
0.38148
 20
-23.56973
 30
0.0
 10
0.38148
 20
-23.56973
 30
0.0
 10
0.38148
 20
-23.56973
 30
0.0
 10
0.38018
 20
-13.78298
 30
0.0
 10
0.38018
 20
-13.78298
 30
0.0
 10
0.38018
 20
-13.78298
 30
0.0
 10
0.47887
 20
-13.783
 30
0.0
 10
0.57629
 20
-13.783
 30
0.0
 10
0.7446
 20
-13.79202
 30
0.0
 10
0.7446
 20
-13.79202
 30
0.0
 10
0.91291
 20
-13.80106
 30
0.0
 10
1.15212
 20
-13.81908
 30
0.0
 10
1.40695
 20
-13.88106
 30
0.0
 10
1.40695
 20
-13.88106
 30
0.0
 10
1.66178
 20
-13.94303
 30
0.0
 10
1.93221
 20
-14.04895
 30
0.0
 10
2.16163
 20
-14.19796
 30
0.0
 10
2.16163
 20
-14.19796
 30
0.0
 10
2.39104
 20
-14.34698
 30
0.0
 10
2.57948
 20
-14.53911
 30
0.0
 10
2.81114
 20
-14.72706
 30
0.0
 10
2.81114
 20
-14.72706
 30
0.0
 10
3.04281
 20
-14.91503
 30
0.0
 10
3.31772
 20
-15.09886
 30
0.0
 10
3.60919
 20
-15.25033
 30
0.0
 10
3.60919
 20
-15.25033
 30
0.0
 10
3.90063
 20
-15.40181
 30
0.0
 10
4.20862
 20
-15.52092
 30
0.0
 10
4.50673
 20
-15.5844
 30
0.0
 10
4.50673
 20
-15.5844
 30
0.0
 10
4.80483
 20
-15.6479
 30
0.0
 10
5.09306
 20
-15.65574
 30
0.0
 10
5.42252
 20
-15.67797
 30
0.0
 10
5.42252
 20
-15.67797
 30
0.0
 10
5.75197
 20
-15.70021
 30
0.0
 10
6.12265
 20
-15.73687
 30
0.0
 10
6.58357
 20
-16.07192
 30
0.0
 10
6.58357
 20
-16.07192
 30
0.0
 10
7.04447
 20
-16.40696
 30
0.0
 10
7.5956
 20
-17.04039
 30
0.0
 10
7.86473
 20
-18.26259
 30
0.0
 10
7.86473
 20
-18.26259
 30
0.0
 10
8.13386
 20
-19.48482
 30
0.0
 10
8.121
 20
-21.29579
 30
0.0
 10
8.08304
 20
-22.9117
 30
0.0
 10
8.08304
 20
-22.9117
 30
0.0
 10
8.0778
 20
-23.13469
 30
0.0
 10
8.07208
 20
-23.35398
 30
0.0
 10
8.0658
 20
-23.57023
 30
0.0
 10
8.0658
 20
-23.57023
 30
0.0
 10
8.0658
 20
-23.57023
 30
0.0
 10
2.58137
 20
-23.56973
 30
0.0
 10
2.58137
 20
-23.56973
 30
0.0
 10
2.58137
 20
-23.56973
 30
0.0
 10
2.58137
 20
-23.56973
 30
0.0
 10
2.58137
 20
-24.1697
 30
0.0
 10
2.58137
 20
-24.1697
 30
0.0
 10
2.58137
 20
-24.1697
 30
0.0
 10
2.58137
 20
-24.1697
 30
0.0
 10
8.0466
 20
-24.1697
 30
0.0
 10
8.0466
 20
-24.1697
 30
0.0
 10
8.0466
 20
-24.1697
 30
0.0
 10
8.00714
 20
-25.29231
 30
0.0
 10
7.94909
 20
-26.35002
 30
0.0
 10
7.85865
 20
-27.45235
 30
0.0
 10
7.85865
 20
-27.45235
 30
0.0
 10
7.73526
 20
-28.9563
 30
0.0
 10
7.55144
 20
-30.54336
 30
0.0
 10
7.37665
 20
-31.80624
 30
0.0
 10
7.37665
 20
-31.80624
 30
0.0
 10
7.20184
 20
-33.06913
 30
0.0
 10
7.03601
 20
-34.00786
 30
0.0
 10
6.92769
 20
-35.06613
 30
0.0
 10
6.92769
 20
-35.06613
 30
0.0
 10
6.81936
 20
-36.12442
 30
0.0
 10
6.76852
 20
-37.30227
 30
0.0
 10
6.68478
 20
-38.43284
 30
0.0
 10
6.68478
 20
-38.43284
 30
0.0
 10
6.60105
 20
-39.5634
 30
0.0
 10
6.48437
 20
-40.64667
 30
0.0
 10
6.49271
 20
-41.32998
 30
0.0
 10
6.49271
 20
-41.32998
 30
0.0
 10
6.50105
 20
-42.01329
 30
0.0
 10
6.63437
 20
-42.2966
 30
0.0
 10
6.70936
 20
-42.58824
 30
0.0
 10
6.70936
 20
-42.58824
 30
0.0
 10
6.78436
 20
-42.87991
 30
0.0
 10
6.80104
 20
-43.1799
 30
0.0
 10
6.75774
 20
-43.44472
 30
0.0
 10
6.75774
 20
-43.44472
 30
0.0
 10
6.71442
 20
-43.70955
 30
0.0
 10
6.61117
 20
-43.93924
 30
0.0
 10
6.50789
 20
-44.16891
 30
0.0
 10
6.50789
 20
-44.16891
 30
0.0
 10
6.50789
 20
-44.16891
 30
0.0
 10
6.10147
 20
-44.16891
 30
0.0
 10
6.10147
 20
-44.16891
 30
0.0
  0
SPLINE
  5
77
330
1F
100
AcDbEntity
  8
layer 1
 62
   250
370
     9
100
AcDbSpline
210
0.0
220
0.0
230
1.0
 70
    11
 71
     3
 72
   140
 73
   136
 74
     0
 42
0.000000001
 43
0.0000000001
 40
0.0
 40
0.0
 40
0.0
 40
0.0
 40
0.0285714285714286
 40
0.0285714285714286
 40
0.0285714285714286
 40
0.0285714285714286
 40
0.0571428571428571
 40
0.0571428571428571
 40
0.0571428571428571
 40
0.0571428571428571
 40
0.0857142857142857
 40
0.0857142857142857
 40
0.0857142857142857
 40
0.0857142857142857
 40
0.1142857142857143
 40
0.1142857142857143
 40
0.1142857142857143
 40
0.1142857142857143
 40
0.1428571428571428
 40
0.1428571428571428
 40
0.1428571428571428
 40
0.1428571428571428
 40
0.1714285714285714
 40
0.1714285714285714
 40
0.1714285714285714
 40
0.1714285714285714
 40
0.2
 40
0.2
 40
0.2
 40
0.2
 40
0.2285714285714286
 40
0.2285714285714286
 40
0.2285714285714286
 40
0.2285714285714286
 40
0.2571428571428571
 40
0.2571428571428571
 40
0.2571428571428571
 40
0.2571428571428571
 40
0.2857142857142857
 40
0.2857142857142857
 40
0.2857142857142857
 40
0.2857142857142857
 40
0.3142857142857143
 40
0.3142857142857143
 40
0.3142857142857143
 40
0.3142857142857143
 40
0.3428571428571429
 40
0.3428571428571429
 40
0.3428571428571429
 40
0.3428571428571429
 40
0.3714285714285714
 40
0.3714285714285714
 40
0.3714285714285714
 40
0.3714285714285714
 40
0.4
 40
0.4
 40
0.4
 40
0.4
 40
0.4285714285714285
 40
0.4285714285714285
 40
0.4285714285714285
 40
0.4285714285714285
 40
0.4571428571428571
 40
0.4571428571428571
 40
0.4571428571428571
 40
0.4571428571428571
 40
0.4857142857142857
 40
0.4857142857142857
 40
0.4857142857142857
 40
0.4857142857142857
 40
0.5142857142857142
 40
0.5142857142857142
 40
0.5142857142857142
 40
0.5142857142857142
 40
0.5428571428571428
 40
0.5428571428571428
 40
0.5428571428571428
 40
0.5428571428571428
 40
0.5714285714285714
 40
0.5714285714285714
 40
0.5714285714285714
 40
0.5714285714285714
 40
0.6
 40
0.6
 40
0.6
 40
0.6
 40
0.6285714285714286
 40
0.6285714285714286
 40
0.6285714285714286
 40
0.6285714285714286
 40
0.6571428571428571
 40
0.6571428571428571
 40
0.6571428571428571
 40
0.6571428571428571
 40
0.6857142857142857
 40
0.6857142857142857
 40
0.6857142857142857
 40
0.6857142857142857
 40
0.7142857142857143
 40
0.7142857142857143
 40
0.7142857142857143
 40
0.7142857142857143
 40
0.7428571428571429
 40
0.7428571428571429
 40
0.7428571428571429
 40
0.7428571428571429
 40
0.7714285714285715
 40
0.7714285714285715
 40
0.7714285714285715
 40
0.7714285714285715
 40
0.8
 40
0.8
 40
0.8
 40
0.8
 40
0.8285714285714286
 40
0.8285714285714286
 40
0.8285714285714286
 40
0.8285714285714286
 40
0.8571428571428571
 40
0.8571428571428571
 40
0.8571428571428571
 40
0.8571428571428571
 40
0.8857142857142857
 40
0.8857142857142857
 40
0.8857142857142857
 40
0.8857142857142857
 40
0.9142857142857143
 40
0.9142857142857143
 40
0.9142857142857143
 40
0.9142857142857143
 40
0.9428571428571428
 40
0.9428571428571428
 40
0.9428571428571428
 40
0.9428571428571428
 40
1.0
 40
1.0
 40
1.0
 40
1.0
 10
-31.1431
 20
-34.19223
 30
0.0
 10
-31.1431
 20
-34.19223
 30
0.0
 10
-32.98473
 20
-34.19223
 30
0.0
 10
-32.98473
 20
-34.19223
 30
0.0
 10
-32.98473
 20
-34.19223
 30
0.0
 10
-32.98473
 20
-34.19223
 30
0.0
 10
-32.98473
 20
-33.59226
 30
0.0
 10
-32.98473
 20
-33.59226
 30
0.0
 10
-32.98473
 20
-33.59226
 30
0.0
 10
-32.98473
 20
-33.59226
 30
0.0
 10
-31.07914
 20
-33.59226
 30
0.0
 10
-31.07914
 20
-33.59226
 30
0.0
 10
-31.07914
 20
-33.59226
 30
0.0
 10
-31.02586
 20
-33.1594
 30
0.0
 10
-30.95397
 20
-32.77986
 30
0.0
 10
-30.90009
 20
-32.39422
 30
0.0
 10
-30.90009
 20
-32.39422
 30
0.0
 10
-30.83559
 20
-31.93282
 30
0.0
 10
-30.82927
 20
-31.55898
 30
0.0
 10
-30.82929
 20
-31.09692
 30
0.0
 10
-30.82929
 20
-31.09692
 30
0.0
 10
-30.82929
 20
-31.09692
 30
0.0
 10
-30.22932
 20
-31.09692
 30
0.0
 10
-30.22932
 20
-31.09692
 30
0.0
 10
-30.22932
 20
-31.09692
 30
0.0
 10
-30.22932
 20
-31.09692
 30
0.0
 10
-30.22932
 20
-29.49699
 30
0.0
 10
-30.22932
 20
-29.49699
 30
0.0
 10
-30.22932
 20
-29.49699
 30
0.0
 10
-30.22932
 20
-29.49699
 30
0.0
 10
-30.82927
 20
-29.49699
 30
0.0
 10
-30.82927
 20
-29.49699
 30
0.0
 10
-30.82927
 20
-29.49699
 30
0.0
 10
-30.82927
 20
-29.49699
 30
0.0
 10
-30.82925
 20
-28.85158
 30
0.0
 10
-30.82925
 20
-28.85158
 30
0.0
 10
-30.82925
 20
-28.85158
 30
0.0
 10
-30.95263
 20
-27.72013
 30
0.0
 10
-31.26297
 20
-27.41237
 30
0.0
 10
-32.26953
 20
-26.92631
 30
0.0
 10
-32.26953
 20
-26.92631
 30
0.0
 10
-32.53623
 20
-26.7975
 30
0.0
 10
-32.78986
 20
-26.66248
 30
0.0
 10
-33.05647
 20
-26.57881
 30
0.0
 10
-33.05647
 20
-26.57881
 30
0.0
 10
-33.49125
 20
-26.44233
 30
0.0
 10
-33.85685
 20
-26.43489
 30
0.0
 10
-34.29871
 20
-26.50851
 30
0.0
 10
-34.29871
 20
-26.50851
 30
0.0
 10
-34.9325
 20
-26.61411
 30
0.0
 10
-35.48098
 20
-26.61507
 30
0.0
 10
-36.12051
 20
-26.50851
 30
0.0
 10
-36.12051
 20
-26.50851
 30
0.0
 10
-36.56237
 20
-26.43489
 30
0.0
 10
-36.92797
 20
-26.44233
 30
0.0
 10
-37.36275
 20
-26.57881
 30
0.0
 10
-37.36275
 20
-26.57881
 30
0.0
 10
-37.62936
 20
-26.66248
 30
0.0
 10
-37.88298
 20
-26.7975
 30
0.0
 10
-38.14969
 20
-26.92631
 30
0.0
 10
-38.14969
 20
-26.92631
 30
0.0
 10
-39.12643
 20
-27.39797
 30
0.0
 10
-39.46415
 20
-27.69738
 30
0.0
 10
-39.58997
 20
-28.85164
 30
0.0
 10
-39.58997
 20
-28.85164
 30
0.0
 10
-39.58997
 20
-28.85164
 30
0.0
 10
-39.58997
 20
-29.49699
 30
0.0
 10
-39.58997
 20
-29.49699
 30
0.0
 10
-39.58997
 20
-29.49699
 30
0.0
 10
-39.58997
 20
-29.49699
 30
0.0
 10
-40.18994
 20
-29.49699
 30
0.0
 10
-40.18994
 20
-29.49699
 30
0.0
 10
-40.18994
 20
-29.49699
 30
0.0
 10
-40.18994
 20
-29.49699
 30
0.0
 10
-40.18994
 20
-31.09692
 30
0.0
 10
-40.18994
 20
-31.09692
 30
0.0
 10
-40.18994
 20
-31.09692
 30
0.0
 10
-40.18994
 20
-31.09692
 30
0.0
 10
-39.58997
 20
-31.09692
 30
0.0
 10
-39.58997
 20
-31.09692
 30
0.0
 10
-39.58997
 20
-31.09692
 30
0.0
 10
-39.58997
 20
-31.55896
 30
0.0
 10
-39.58359
 20
-31.93284
 30
0.0
 10
-39.51913
 20
-32.39422
 30
0.0
 10
-39.51913
 20
-32.39422
 30
0.0
 10
-39.46525
 20
-32.77986
 30
0.0
 10
-39.39335
 20
-33.1594
 30
0.0
 10
-39.34008
 20
-33.59226
 30
0.0
 10
-39.34008
 20
-33.59226
 30
0.0
 10
-39.34008
 20
-33.59226
 30
0.0
 10
-37.43455
 20
-33.59226
 30
0.0
 10
-37.43455
 20
-33.59226
 30
0.0
 10
-37.43455
 20
-33.59226
 30
0.0
 10
-37.43455
 20
-33.59226
 30
0.0
 10
-37.43455
 20
-34.19223
 30
0.0
 10
-37.43455
 20
-34.19223
 30
0.0
 10
-37.43455
 20
-34.19223
 30
0.0
 10
-37.43455
 20
-34.19223
 30
0.0
 10
-39.27612
 20
-34.19223
 30
0.0
 10
-39.27612
 20
-34.19223
 30
0.0
 10
-39.27612
 20
-34.19223
 30
0.0
 10
-39.18524
 20
-35.07029
 30
0.0
 10
-39.02409
 20
-35.98587
 30
0.0
 10
-38.53165
 20
-36.73706
 30
0.0
 10
-38.53165
 20
-36.73706
 30
0.0
 10
-37.70015
 20
-38.00526
 30
0.0
 10
-37.64114
 20
-37.72241
 30
0.0
 10
-37.05408
 20
-39.31662
 30
0.0
 10
-37.05408
 20
-39.31662
 30
0.0
 10
-36.7396
 20
-40.17048
 30
0.0
 10
-36.42849
 20
-40.57692
 30
0.0
 10
-35.50967
 20
-40.66761
 30
0.0
 10
-35.50967
 20
-40.66761
 30
0.0
 10
-35.50967
 20
-40.66761
 30
0.0
 10
-35.50967
 20
-33.59226
 30
0.0
 10
-35.50967
 20
-33.59226
 30
0.0
 10
-35.50967
 20
-33.59226
 30
0.0
 10
-35.50967
 20
-33.59226
 30
0.0
 10
-34.90962
 20
-33.59226
 30
0.0
 10
-34.90962
 20
-33.59226
 30
0.0
 10
-34.90962
 20
-33.59226
 30
0.0
 10
-34.90962
 20
-33.59226
 30
0.0
 10
-34.90962
 20
-40.66761
 30
0.0
 10
-34.90962
 20
-40.66761
 30
0.0
 10
-34.90962
 20
-40.66761
 30
0.0
 10
-33.99075
 20
-40.57692
 30
0.0
 10
-33.67966
 20
-40.17058
 30
0.0
 10
-33.36513
 20
-39.31662
 30
0.0
 10
-33.36513
 20
-39.31662
 30
0.0
 10
-32.77808
 20
-37.72241
 30
0.0
 10
-32.71906
 20
-38.00526
 30
0.0
 10
-31.88756
 20
-36.73706
 30
0.0
 10
-31.88756
 20
-36.73706
 30
0.0
 10
-31.39515
 20
-35.98589
 30
0.0
 10
-31.23397
 20
-35.07025
 30
0.0
 10
-31.1431
 20
-34.19223
 30
0.0
  0
SPLINE
  5
78
330
1F
100
AcDbEntity
  8
layer 1
 62
   250
370
     9
100
AcDbSpline
210
0.0
220
0.0
230
1.0
 70
    11
 71
     3
 72
    92
 73
    88
 74
     0
 42
0.000000001
 43
0.0000000001
 40
0.0
 40
0.0
 40
0.0
 40
0.0
 40
0.0434782608695652
 40
0.0434782608695652
 40
0.0434782608695652
 40
0.0434782608695652
 40
0.0869565217391304
 40
0.0869565217391304
 40
0.0869565217391304
 40
0.0869565217391304
 40
0.1304347826086956
 40
0.1304347826086956
 40
0.1304347826086956
 40
0.1304347826086956
 40
0.1739130434782609
 40
0.1739130434782609
 40
0.1739130434782609
 40
0.1739130434782609
 40
0.2173913043478261
 40
0.2173913043478261
 40
0.2173913043478261
 40
0.2173913043478261
 40
0.2608695652173913
 40
0.2608695652173913
 40
0.2608695652173913
 40
0.2608695652173913
 40
0.3043478260869565
 40
0.3043478260869565
 40
0.3043478260869565
 40
0.3043478260869565
 40
0.3478260869565217
 40
0.3478260869565217
 40
0.3478260869565217
 40
0.3478260869565217
 40
0.391304347826087
 40
0.391304347826087
 40
0.391304347826087
 40
0.391304347826087
 40
0.4347826086956522
 40
0.4347826086956522
 40
0.4347826086956522
 40
0.4347826086956522
 40
0.4782608695652174
 40
0.4782608695652174
 40
0.4782608695652174
 40
0.4782608695652174
 40
0.5217391304347826
 40
0.5217391304347826
 40
0.5217391304347826
 40
0.5217391304347826
 40
0.5652173913043478
 40
0.5652173913043478
 40
0.5652173913043478
 40
0.5652173913043478
 40
0.6086956521739131
 40
0.6086956521739131
 40
0.6086956521739131
 40
0.6086956521739131
 40
0.6521739130434783
 40
0.6521739130434783
 40
0.6521739130434783
 40
0.6521739130434783
 40
0.6956521739130435
 40
0.6956521739130435
 40
0.6956521739130435
 40
0.6956521739130435
 40
0.7391304347826086
 40
0.7391304347826086
 40
0.7391304347826086
 40
0.7391304347826086
 40
0.782608695652174
 40
0.782608695652174
 40
0.782608695652174
 40
0.782608695652174
 40
0.8260869565217391
 40
0.8260869565217391
 40
0.8260869565217391
 40
0.8260869565217391
 40
0.8695652173913043
 40
0.8695652173913043
 40
0.8695652173913043
 40
0.8695652173913043
 40
0.9130434782608695
 40
0.9130434782608695
 40
0.9130434782608695
 40
0.9130434782608695
 40
1.0
 40
1.0
 40
1.0
 40
1.0
 10
41.68766
 20
-44.26953
 30
0.0
 10
41.68766
 20
-44.26953
 30
0.0
 10
41.68766
 20
-45.76164
 30
0.0
 10
41.68766
 20
-45.76164
 30
0.0
 10
41.68766
 20
-45.76164
 30
0.0
 10
41.63148
 20
-45.76786
 30
0.0
 10
41.57346
 20
-45.77394
 30
0.0
 10
41.51349
 20
-45.77998
 30
0.0
 10
41.51349
 20
-45.77998
 30
0.0
 10
40.95435
 20
-45.83635
 30
0.0
 10
40.22107
 20
-45.89123
 30
0.0
 10
39.59673
 20
-45.93871
 30
0.0
 10
39.59673
 20
-45.93871
 30
0.0
 10
38.97238
 20
-45.98619
 30
0.0
 10
38.45701
 20
-46.0263
 30
0.0
 10
38.03585
 20
-46.048
 30
0.0
 10
38.03585
 20
-46.048
 30
0.0
 10
37.33784
 20
-46.084
 30
0.0
 10
36.63791
 20
-46.084
 30
0.0
 10
35.9399
 20
-46.048
 30
0.0
 10
35.9399
 20
-46.048
 30
0.0
 10
35.51874
 20
-46.0263
 30
0.0
 10
35.00337
 20
-45.98619
 30
0.0
 10
34.37902
 20
-45.93871
 30
0.0
 10
34.37902
 20
-45.93871
 30
0.0
 10
33.75469
 20
-45.89123
 30
0.0
 10
33.0214
 20
-45.83635
 30
0.0
 10
32.46227
 20
-45.77998
 30
0.0
 10
32.46227
 20
-45.77998
 30
0.0
 10
32.40229
 20
-45.77394
 30
0.0
 10
32.34427
 20
-45.76786
 30
0.0
 10
32.28809
 20
-45.76164
 30
0.0
 10
32.28809
 20
-45.76164
 30
0.0
 10
32.28809
 20
-45.76164
 30
0.0
 10
32.28809
 20
-44.26953
 30
0.0
 10
32.28809
 20
-44.26953
 30
0.0
 10
32.28809
 20
-44.26953
 30
0.0
 10
32.28809
 20
-44.26953
 30
0.0
 10
31.68812
 20
-44.26953
 30
0.0
 10
31.68812
 20
-44.26953
 30
0.0
 10
31.68812
 20
-44.26953
 30
0.0
 10
31.68812
 20
-44.26953
 30
0.0
 10
31.68812
 20
-42.01879
 30
0.0
 10
31.68812
 20
-42.01879
 30
0.0
 10
31.68812
 20
-42.01879
 30
0.0
 10
31.68812
 20
-42.01879
 30
0.0
 10
32.28809
 20
-42.01879
 30
0.0
 10
32.28809
 20
-42.01879
 30
0.0
 10
32.28809
 20
-42.01879
 30
0.0
 10
32.28809
 20
-42.01879
 30
0.0
 10
32.28809
 20
-40.66761
 30
0.0
 10
32.28809
 20
-40.66761
 30
0.0
 10
32.28809
 20
-40.66761
 30
0.0
 10
32.28809
 20
-40.66761
 30
0.0
 10
36.68789
 20
-40.66761
 30
0.0
 10
36.68789
 20
-40.66761
 30
0.0
 10
36.68789
 20
-40.66761
 30
0.0
 10
36.68789
 20
-40.66761
 30
0.0
 10
36.68789
 20
-43.36999
 30
0.0
 10
36.68789
 20
-43.36999
 30
0.0
 10
36.68789
 20
-43.36999
 30
0.0
 10
36.68789
 20
-43.36999
 30
0.0
 10
37.28786
 20
-43.36999
 30
0.0
 10
37.28786
 20
-43.36999
 30
0.0
 10
37.28786
 20
-43.36999
 30
0.0
 10
37.28786
 20
-43.36999
 30
0.0
 10
37.28786
 20
-40.66761
 30
0.0
 10
37.28786
 20
-40.66761
 30
0.0
 10
37.28786
 20
-40.66761
 30
0.0
 10
37.28786
 20
-40.66761
 30
0.0
 10
41.68766
 20
-40.66761
 30
0.0
 10
41.68766
 20
-40.66761
 30
0.0
 10
41.68766
 20
-40.66761
 30
0.0
 10
41.68766
 20
-40.66761
 30
0.0
 10
41.68766
 20
-42.01879
 30
0.0
 10
41.68766
 20
-42.01879
 30
0.0
 10
41.68766
 20
-42.01879
 30
0.0
 10
41.68766
 20
-42.01879
 30
0.0
 10
42.28763
 20
-42.01879
 30
0.0
 10
42.28763
 20
-42.01879
 30
0.0
 10
42.28763
 20
-42.01879
 30
0.0
 10
42.28763
 20
-42.01879
 30
0.0
 10
42.28763
 20
-44.26953
 30
0.0
 10
42.28763
 20
-44.26953
 30
0.0
 10
42.28763
 20
-44.26953
 30
0.0
 10
42.28763
 20
-44.26953
 30
0.0
 10
41.68766
 20
-44.26953
 30
0.0
 10
41.68766
 20
-44.26953
 30
0.0
  0
SPLINE
  5
79
330
1F
100
AcDbEntity
  8
layer 1
 62
   250
370
     9
100
AcDbSpline
210
0.0
220
0.0
230
1.0
 70
    11
 71
     3
 72
   100
 73
    96
 74
     0
 42
0.000000001
 43
0.0000000001
 40
0.0
 40
0.0
 40
0.0
 40
0.0
 40
0.04
 40
0.04
 40
0.04
 40
0.04
 40
0.08
 40
0.08
 40
0.08
 40
0.08
 40
0.12
 40
0.12
 40
0.12
 40
0.12
 40
0.16
 40
0.16
 40
0.16
 40
0.16
 40
0.2
 40
0.2
 40
0.2
 40
0.2
 40
0.24
 40
0.24
 40
0.24
 40
0.24
 40
0.28
 40
0.28
 40
0.28
 40
0.28
 40
0.32
 40
0.32
 40
0.32
 40
0.32
 40
0.36
 40
0.36
 40
0.36
 40
0.36
 40
0.4
 40
0.4
 40
0.4
 40
0.4
 40
0.44
 40
0.44
 40
0.44
 40
0.44
 40
0.48
 40
0.48
 40
0.48
 40
0.48
 40
0.52
 40
0.52
 40
0.52
 40
0.52
 40
0.56
 40
0.56
 40
0.56
 40
0.56
 40
0.6
 40
0.6
 40
0.6
 40
0.6
 40
0.64
 40
0.64
 40
0.64
 40
0.64
 40
0.68
 40
0.68
 40
0.68
 40
0.68
 40
0.72
 40
0.72
 40
0.72
 40
0.72
 40
0.76
 40
0.76
 40
0.76
 40
0.76
 40
0.8
 40
0.8
 40
0.8
 40
0.8
 40
0.84
 40
0.84
 40
0.84
 40
0.84
 40
0.88
 40
0.88
 40
0.88
 40
0.88
 40
0.92
 40
0.92
 40
0.92
 40
0.92
 40
1.0
 40
1.0
 40
1.0
 40
1.0
 10
41.68766
 20
-13.67949
 30
0.0
 10
41.40401
 20
-13.63091
 30
0.0
 10
41.11924
 20
-13.58461
 30
0.0
 10
40.86232
 20
-13.52281
 30
0.0
 10
40.86232
 20
-13.52281
 30
0.0
 10
40.22573
 20
-13.36974
 30
0.0
 10
39.75997
 20
-13.12157
 30
0.0
 10
39.36099
 20
-12.94242
 30
0.0
 10
39.36099
 20
-12.94242
 30
0.0
 10
38.962
 20
-12.76329
 30
0.0
 10
38.62982
 20
-12.65317
 30
0.0
 10
38.31313
 20
-12.58728
 30
0.0
 10
38.31313
 20
-12.58728
 30
0.0
 10
37.99645
 20
-12.5214
 30
0.0
 10
37.69526
 20
-12.49972
 30
0.0
 10
37.47697
 20
-12.48888
 30
0.0
 10
37.47697
 20
-12.48888
 30
0.0
 10
37.15421
 20
-12.47286
 30
0.0
 10
36.82154
 20
-12.47286
 30
0.0
 10
36.49878
 20
-12.48888
 30
0.0
 10
36.49878
 20
-12.48888
 30
0.0
 10
36.28049
 20
-12.49972
 30
0.0
 10
35.9793
 20
-12.5214
 30
0.0
 10
35.66262
 20
-12.58728
 30
0.0
 10
35.66262
 20
-12.58728
 30
0.0
 10
35.34593
 20
-12.65317
 30
0.0
 10
35.01375
 20
-12.76329
 30
0.0
 10
34.61477
 20
-12.94242
 30
0.0
 10
34.61477
 20
-12.94242
 30
0.0
 10
34.21578
 20
-13.12157
 30
0.0
 10
33.75003
 20
-13.36974
 30
0.0
 10
33.11344
 20
-13.52281
 30
0.0
 10
33.11344
 20
-13.52281
 30
0.0
 10
32.85651
 20
-13.58461
 30
0.0
 10
32.57174
 20
-13.63091
 30
0.0
 10
32.28809
 20
-13.67949
 30
0.0
 10
32.28809
 20
-13.67949
 30
0.0
 10
32.28809
 20
-13.67949
 30
0.0
 10
32.28809
 20
-15.10134
 30
0.0
 10
32.28809
 20
-15.10134
 30
0.0
 10
32.28809
 20
-15.10134
 30
0.0
 10
32.28809
 20
-15.10134
 30
0.0
 10
31.68812
 20
-15.10134
 30
0.0
 10
31.68812
 20
-15.10134
 30
0.0
 10
31.68812
 20
-15.10134
 30
0.0
 10
31.68812
 20
-15.10134
 30
0.0
 10
31.68812
 20
-17.87179
 30
0.0
 10
31.68812
 20
-17.87179
 30
0.0
 10
31.68812
 20
-17.87179
 30
0.0
 10
31.68812
 20
-17.87179
 30
0.0
 10
32.28809
 20
-17.87179
 30
0.0
 10
32.28809
 20
-17.87179
 30
0.0
 10
32.28809
 20
-17.87179
 30
0.0
 10
32.28809
 20
-17.87179
 30
0.0
 10
32.28809
 20
-19.66859
 30
0.0
 10
32.28809
 20
-19.66859
 30
0.0
 10
32.28809
 20
-19.66859
 30
0.0
 10
32.28809
 20
-19.66859
 30
0.0
 10
36.68789
 20
-19.66859
 30
0.0
 10
36.68789
 20
-19.66859
 30
0.0
 10
36.68789
 20
-19.66859
 30
0.0
 10
36.68789
 20
-19.66859
 30
0.0
 10
36.68789
 20
-16.07498
 30
0.0
 10
36.68789
 20
-16.07498
 30
0.0
 10
36.68789
 20
-16.07498
 30
0.0
 10
36.68789
 20
-16.07498
 30
0.0
 10
37.28786
 20
-16.07498
 30
0.0
 10
37.28786
 20
-16.07498
 30
0.0
 10
37.28786
 20
-16.07498
 30
0.0
 10
37.28786
 20
-16.07498
 30
0.0
 10
37.28786
 20
-19.66859
 30
0.0
 10
37.28786
 20
-19.66859
 30
0.0
 10
37.28786
 20
-19.66859
 30
0.0
 10
37.28786
 20
-19.66859
 30
0.0
 10
41.68766
 20
-19.66859
 30
0.0
 10
41.68766
 20
-19.66859
 30
0.0
 10
41.68766
 20
-19.66859
 30
0.0
 10
41.68766
 20
-19.66859
 30
0.0
 10
41.68766
 20
-17.87179
 30
0.0
 10
41.68766
 20
-17.87179
 30
0.0
 10
41.68766
 20
-17.87179
 30
0.0
 10
41.68766
 20
-17.87179
 30
0.0
 10
42.28763
 20
-17.87179
 30
0.0
 10
42.28763
 20
-17.87179
 30
0.0
 10
42.28763
 20
-17.87179
 30
0.0
 10
42.28763
 20
-17.87179
 30
0.0
 10
42.28763
 20
-15.10134
 30
0.0
 10
42.28763
 20
-15.10134
 30
0.0
 10
42.28763
 20
-15.10134
 30
0.0
 10
42.28763
 20
-15.10134
 30
0.0
 10
41.68766
 20
-15.10134
 30
0.0
 10
41.68766
 20
-15.10134
 30
0.0
 10
41.68766
 20
-15.10134
 30
0.0
 10
41.68766
 20
-15.10134
 30
0.0
 10
41.68766
 20
-13.67949
 30
0.0
 10
41.68766
 20
-13.67949
 30
0.0
  0
SPLINE
  5
7A
330
1F
100
AcDbEntity
  8
layer 1
 62
   250
370
     9
100
AcDbSpline
210
0.0
220
0.0
230
1.0
 70
    11
 71
     3
 72
   100
 73
    96
 74
     0
 42
0.000000001
 43
0.0000000001
 40
0.0
 40
0.0
 40
0.0
 40
0.0
 40
0.04
 40
0.04
 40
0.04
 40
0.04
 40
0.08
 40
0.08
 40
0.08
 40
0.08
 40
0.12
 40
0.12
 40
0.12
 40
0.12
 40
0.16
 40
0.16
 40
0.16
 40
0.16
 40
0.2
 40
0.2
 40
0.2
 40
0.2
 40
0.24
 40
0.24
 40
0.24
 40
0.24
 40
0.28
 40
0.28
 40
0.28
 40
0.28
 40
0.32
 40
0.32
 40
0.32
 40
0.32
 40
0.36
 40
0.36
 40
0.36
 40
0.36
 40
0.4
 40
0.4
 40
0.4
 40
0.4
 40
0.44
 40
0.44
 40
0.44
 40
0.44
 40
0.48
 40
0.48
 40
0.48
 40
0.48
 40
0.52
 40
0.52
 40
0.52
 40
0.52
 40
0.56
 40
0.56
 40
0.56
 40
0.56
 40
0.6
 40
0.6
 40
0.6
 40
0.6
 40
0.64
 40
0.64
 40
0.64
 40
0.64
 40
0.68
 40
0.68
 40
0.68
 40
0.68
 40
0.72
 40
0.72
 40
0.72
 40
0.72
 40
0.76
 40
0.76
 40
0.76
 40
0.76
 40
0.8
 40
0.8
 40
0.8
 40
0.8
 40
0.84
 40
0.84
 40
0.84
 40
0.84
 40
0.88
 40
0.88
 40
0.88
 40
0.88
 40
0.92
 40
0.92
 40
0.92
 40
0.92
 40
1.0
 40
1.0
 40
1.0
 40
1.0
 10
36.68765
 20
-37.59276
 30
0.0
 10
36.68765
 20
-37.59276
 30
0.0
 10
36.68765
 20
-40.06764
 30
0.0
 10
36.68765
 20
-40.06764
 30
0.0
 10
36.68765
 20
-40.06764
 30
0.0
 10
36.68765
 20
-40.06764
 30
0.0
 10
34.48775
 20
-40.06764
 30
0.0
 10
34.48775
 20
-40.06764
 30
0.0
 10
34.48775
 20
-40.06764
 30
0.0
 10
34.48775
 20
-40.06764
 30
0.0
 10
34.48775
 20
-40.66761
 30
0.0
 10
34.48775
 20
-40.66761
 30
0.0
 10
34.48775
 20
-40.66761
 30
0.0
 10
34.48775
 20
-40.66761
 30
0.0
 10
32.28785
 20
-40.66761
 30
0.0
 10
32.28785
 20
-40.66761
 30
0.0
 10
32.28785
 20
-40.66761
 30
0.0
 10
32.28785
 20
-40.66761
 30
0.0
 10
32.28785
 20
-19.66859
 30
0.0
 10
32.28785
 20
-19.66859
 30
0.0
 10
32.28785
 20
-19.66859
 30
0.0
 10
32.28785
 20
-19.66859
 30
0.0
 10
34.48799
 20
-19.66859
 30
0.0
 10
34.48799
 20
-19.66859
 30
0.0
 10
34.48799
 20
-19.66859
 30
0.0
 10
34.48799
 20
-19.66859
 30
0.0
 10
34.48775
 20
-20.26856
 30
0.0
 10
34.48775
 20
-20.26856
 30
0.0
 10
34.48775
 20
-20.26856
 30
0.0
 10
34.48775
 20
-20.26856
 30
0.0
 10
36.68765
 20
-20.26856
 30
0.0
 10
36.68765
 20
-20.26856
 30
0.0
 10
36.68765
 20
-20.26856
 30
0.0
 10
36.68765
 20
-20.26856
 30
0.0
 10
36.68765
 20
-21.06852
 30
0.0
 10
36.68765
 20
-21.06852
 30
0.0
 10
36.68765
 20
-21.06852
 30
0.0
 10
36.68765
 20
-21.06852
 30
0.0
 10
37.28762
 20
-21.06852
 30
0.0
 10
37.28762
 20
-21.06852
 30
0.0
 10
37.28762
 20
-21.06852
 30
0.0
 10
37.28762
 20
-21.06852
 30
0.0
 10
37.28762
 20
-22.74345
 30
0.0
 10
37.28762
 20
-22.74345
 30
0.0
 10
37.28762
 20
-22.74345
 30
0.0
 10
37.28762
 20
-22.74345
 30
0.0
 10
36.68765
 20
-22.74345
 30
0.0
 10
36.68765
 20
-22.74345
 30
0.0
 10
36.68765
 20
-22.74345
 30
0.0
 10
36.68765
 20
-22.74345
 30
0.0
 10
36.68765
 20
-26.01829
 30
0.0
 10
36.68765
 20
-26.01829
 30
0.0
 10
36.68765
 20
-26.01829
 30
0.0
 10
36.68765
 20
-26.01829
 30
0.0
 10
37.28762
 20
-26.01829
 30
0.0
 10
37.28762
 20
-26.01829
 30
0.0
 10
37.28762
 20
-26.01829
 30
0.0
 10
37.28762
 20
-26.01829
 30
0.0
 10
37.28762
 20
-27.69322
 30
0.0
 10
37.28762
 20
-27.69322
 30
0.0
 10
37.28762
 20
-27.69322
 30
0.0
 10
37.28762
 20
-27.69322
 30
0.0
 10
36.68765
 20
-27.69322
 30
0.0
 10
36.68765
 20
-27.69322
 30
0.0
 10
36.68765
 20
-27.69322
 30
0.0
 10
36.68765
 20
-27.69322
 30
0.0
 10
36.68765
 20
-30.96806
 30
0.0
 10
36.68765
 20
-30.96806
 30
0.0
 10
36.68765
 20
-30.96806
 30
0.0
 10
36.68765
 20
-30.96806
 30
0.0
 10
37.28762
 20
-30.96806
 30
0.0
 10
37.28762
 20
-30.96806
 30
0.0
 10
37.28762
 20
-30.96806
 30
0.0
 10
37.28762
 20
-30.96806
 30
0.0
 10
37.28762
 20
-32.64299
 30
0.0
 10
37.28762
 20
-32.64299
 30
0.0
 10
37.28762
 20
-32.64299
 30
0.0
 10
37.28762
 20
-32.64299
 30
0.0
 10
36.68765
 20
-32.64299
 30
0.0
 10
36.68765
 20
-32.64299
 30
0.0
 10
36.68765
 20
-32.64299
 30
0.0
 10
36.68765
 20
-32.64299
 30
0.0
 10
36.68765
 20
-35.91783
 30
0.0
 10
36.68765
 20
-35.91783
 30
0.0
 10
36.68765
 20
-35.91783
 30
0.0
 10
36.68765
 20
-35.91783
 30
0.0
 10
37.28762
 20
-35.91783
 30
0.0
 10
37.28762
 20
-35.91783
 30
0.0
 10
37.28762
 20
-35.91783
 30
0.0
 10
37.28762
 20
-35.91783
 30
0.0
 10
37.28762
 20
-37.59276
 30
0.0
 10
37.28762
 20
-37.59276
 30
0.0
 10
37.28762
 20
-37.59276
 30
0.0
 10
37.28762
 20
-37.59276
 30
0.0
 10
36.68765
 20
-37.59276
 30
0.0
 10
36.68765
 20
-37.59276
 30
0.0
  0
SPLINE
  5
7B
330
1F
100
AcDbEntity
  8
layer 1
 62
   250
370
     9
100
AcDbSpline
210
0.0
220
0.0
230
1.0
 70
    11
 71
     3
 72
   100
 73
    96
 74
     0
 42
0.000000001
 43
0.0000000001
 40
0.0
 40
0.0
 40
0.0
 40
0.0
 40
0.04
 40
0.04
 40
0.04
 40
0.04
 40
0.08
 40
0.08
 40
0.08
 40
0.08
 40
0.12
 40
0.12
 40
0.12
 40
0.12
 40
0.16
 40
0.16
 40
0.16
 40
0.16
 40
0.2
 40
0.2
 40
0.2
 40
0.2
 40
0.24
 40
0.24
 40
0.24
 40
0.24
 40
0.28
 40
0.28
 40
0.28
 40
0.28
 40
0.32
 40
0.32
 40
0.32
 40
0.32
 40
0.36
 40
0.36
 40
0.36
 40
0.36
 40
0.4
 40
0.4
 40
0.4
 40
0.4
 40
0.44
 40
0.44
 40
0.44
 40
0.44
 40
0.48
 40
0.48
 40
0.48
 40
0.48
 40
0.52
 40
0.52
 40
0.52
 40
0.52
 40
0.56
 40
0.56
 40
0.56
 40
0.56
 40
0.6
 40
0.6
 40
0.6
 40
0.6
 40
0.64
 40
0.64
 40
0.64
 40
0.64
 40
0.68
 40
0.68
 40
0.68
 40
0.68
 40
0.72
 40
0.72
 40
0.72
 40
0.72
 40
0.76
 40
0.76
 40
0.76
 40
0.76
 40
0.8
 40
0.8
 40
0.8
 40
0.8
 40
0.84
 40
0.84
 40
0.84
 40
0.84
 40
0.88
 40
0.88
 40
0.88
 40
0.88
 40
0.92
 40
0.92
 40
0.92
 40
0.92
 40
1.0
 40
1.0
 40
1.0
 40
1.0
 10
37.28786
 20
-27.69322
 30
0.0
 10
37.28786
 20
-27.69322
 30
0.0
 10
37.28786
 20
-24.41837
 30
0.0
 10
37.28786
 20
-24.41837
 30
0.0
 10
37.28786
 20
-24.41837
 30
0.0
 10
37.28786
 20
-24.41837
 30
0.0
 10
36.68789
 20
-24.41837
 30
0.0
 10
36.68789
 20
-24.41837
 30
0.0
 10
36.68789
 20
-24.41837
 30
0.0
 10
36.68789
 20
-24.41837
 30
0.0
 10
36.68789
 20
-22.74345
 30
0.0
 10
36.68789
 20
-22.74345
 30
0.0
 10
36.68789
 20
-22.74345
 30
0.0
 10
36.68789
 20
-22.74345
 30
0.0
 10
37.28786
 20
-22.74345
 30
0.0
 10
37.28786
 20
-22.74345
 30
0.0
 10
37.28786
 20
-22.74345
 30
0.0
 10
37.28786
 20
-22.74345
 30
0.0
 10
37.28786
 20
-20.26856
 30
0.0
 10
37.28786
 20
-20.26856
 30
0.0
 10
37.28786
 20
-20.26856
 30
0.0
 10
37.28786
 20
-20.26856
 30
0.0
 10
39.48776
 20
-20.26856
 30
0.0
 10
39.48776
 20
-20.26856
 30
0.0
 10
39.48776
 20
-20.26856
 30
0.0
 10
39.48776
 20
-20.26856
 30
0.0
 10
39.48776
 20
-19.66859
 30
0.0
 10
39.48776
 20
-19.66859
 30
0.0
 10
39.48776
 20
-19.66859
 30
0.0
 10
39.48776
 20
-19.66859
 30
0.0
 10
41.68766
 20
-19.66859
 30
0.0
 10
41.68766
 20
-19.66859
 30
0.0
 10
41.68766
 20
-19.66859
 30
0.0
 10
41.68766
 20
-19.66859
 30
0.0
 10
41.68766
 20
-40.66761
 30
0.0
 10
41.68766
 20
-40.66761
 30
0.0
 10
41.68766
 20
-40.66761
 30
0.0
 10
41.68766
 20
-40.66761
 30
0.0
 10
39.48752
 20
-40.66761
 30
0.0
 10
39.48752
 20
-40.66761
 30
0.0
 10
39.48752
 20
-40.66761
 30
0.0
 10
39.48752
 20
-40.66761
 30
0.0
 10
39.48776
 20
-40.06764
 30
0.0
 10
39.48776
 20
-40.06764
 30
0.0
 10
39.48776
 20
-40.06764
 30
0.0
 10
39.48776
 20
-40.06764
 30
0.0
 10
37.28786
 20
-40.06764
 30
0.0
 10
37.28786
 20
-40.06764
 30
0.0
 10
37.28786
 20
-40.06764
 30
0.0
 10
37.28786
 20
-40.06764
 30
0.0
 10
37.28786
 20
-39.26768
 30
0.0
 10
37.28786
 20
-39.26768
 30
0.0
 10
37.28786
 20
-39.26768
 30
0.0
 10
37.28786
 20
-39.26768
 30
0.0
 10
36.68789
 20
-39.26768
 30
0.0
 10
36.68789
 20
-39.26768
 30
0.0
 10
36.68789
 20
-39.26768
 30
0.0
 10
36.68789
 20
-39.26768
 30
0.0
 10
36.68789
 20
-37.59276
 30
0.0
 10
36.68789
 20
-37.59276
 30
0.0
 10
36.68789
 20
-37.59276
 30
0.0
 10
36.68789
 20
-37.59276
 30
0.0
 10
37.28786
 20
-37.59276
 30
0.0
 10
37.28786
 20
-37.59276
 30
0.0
 10
37.28786
 20
-37.59276
 30
0.0
 10
37.28786
 20
-37.59276
 30
0.0
 10
37.28786
 20
-34.31791
 30
0.0
 10
37.28786
 20
-34.31791
 30
0.0
 10
37.28786
 20
-34.31791
 30
0.0
 10
37.28786
 20
-34.31791
 30
0.0
 10
36.68789
 20
-34.31791
 30
0.0
 10
36.68789
 20
-34.31791
 30
0.0
 10
36.68789
 20
-34.31791
 30
0.0
 10
36.68789
 20
-34.31791
 30
0.0
 10
36.68789
 20
-32.64299
 30
0.0
 10
36.68789
 20
-32.64299
 30
0.0
 10
36.68789
 20
-32.64299
 30
0.0
 10
36.68789
 20
-32.64299
 30
0.0
 10
37.28786
 20
-32.64299
 30
0.0
 10
37.28786
 20
-32.64299
 30
0.0
 10
37.28786
 20
-32.64299
 30
0.0
 10
37.28786
 20
-32.64299
 30
0.0
 10
37.28786
 20
-29.36814
 30
0.0
 10
37.28786
 20
-29.36814
 30
0.0
 10
37.28786
 20
-29.36814
 30
0.0
 10
37.28786
 20
-29.36814
 30
0.0
 10
36.68789
 20
-29.36814
 30
0.0
 10
36.68789
 20
-29.36814
 30
0.0
 10
36.68789
 20
-29.36814
 30
0.0
 10
36.68789
 20
-29.36814
 30
0.0
 10
36.68789
 20
-27.69322
 30
0.0
 10
36.68789
 20
-27.69322
 30
0.0
 10
36.68789
 20
-27.69322
 30
0.0
 10
36.68789
 20
-27.69322
 30
0.0
 10
37.28786
 20
-27.69322
 30
0.0
 10
37.28786
 20
-27.69322
 30
0.0
  0
SPLINE
  5
7C
330
1F
100
AcDbEntity
  8
layer 1
 62
   250
370
     9
100
AcDbSpline
210
0.0
220
0.0
230
1.0
 70
    11
 71
     3
 72
   100
 73
    96
 74
     0
 42
0.000000001
 43
0.0000000001
 40
0.0
 40
0.0
 40
0.0
 40
0.0
 40
0.04
 40
0.04
 40
0.04
 40
0.04
 40
0.08
 40
0.08
 40
0.08
 40
0.08
 40
0.12
 40
0.12
 40
0.12
 40
0.12
 40
0.16
 40
0.16
 40
0.16
 40
0.16
 40
0.2
 40
0.2
 40
0.2
 40
0.2
 40
0.24
 40
0.24
 40
0.24
 40
0.24
 40
0.28
 40
0.28
 40
0.28
 40
0.28
 40
0.32
 40
0.32
 40
0.32
 40
0.32
 40
0.36
 40
0.36
 40
0.36
 40
0.36
 40
0.4
 40
0.4
 40
0.4
 40
0.4
 40
0.44
 40
0.44
 40
0.44
 40
0.44
 40
0.48
 40
0.48
 40
0.48
 40
0.48
 40
0.52
 40
0.52
 40
0.52
 40
0.52
 40
0.56
 40
0.56
 40
0.56
 40
0.56
 40
0.6
 40
0.6
 40
0.6
 40
0.6
 40
0.64
 40
0.64
 40
0.64
 40
0.64
 40
0.68
 40
0.68
 40
0.68
 40
0.68
 40
0.72
 40
0.72
 40
0.72
 40
0.72
 40
0.76
 40
0.76
 40
0.76
 40
0.76
 40
0.8
 40
0.8
 40
0.8
 40
0.8
 40
0.84
 40
0.84
 40
0.84
 40
0.84
 40
0.88
 40
0.88
 40
0.88
 40
0.88
 40
0.92
 40
0.92
 40
0.92
 40
0.92
 40
1.0
 40
1.0
 40
1.0
 40
1.0
 10
-55.91191
 20
-31.79667
 30
0.0
 10
-56.18689
 20
-31.61333
 30
0.0
 10
-56.43688
 20
-31.48002
 30
0.0
 10
-56.77853
 20
-31.33835
 30
0.0
 10
-56.77853
 20
-31.33835
 30
0.0
 10
-57.12019
 20
-31.19669
 30
0.0
 10
-57.55349
 20
-31.0467
 30
0.0
 10
-57.92847
 20
-30.95502
 30
0.0
 10
-57.92847
 20
-30.95502
 30
0.0
 10
-58.30346
 20
-30.86337
 30
0.0
 10
-58.62012
 20
-30.83005
 30
0.0
 10
-58.87011
 20
-30.84671
 30
0.0
 10
-58.87011
 20
-30.84671
 30
0.0
 10
-59.1201
 20
-30.86337
 30
0.0
 10
-59.30341
 20
-30.93005
 30
0.0
 10
-59.4284
 20
-31.05504
 30
0.0
 10
-59.4284
 20
-31.05504
 30
0.0
 10
-59.5534
 20
-31.18003
 30
0.0
 10
-59.62007
 20
-31.36335
 30
0.0
 10
-59.67007
 20
-31.67999
 30
0.0
 10
-59.67007
 20
-31.67999
 30
0.0
 10
-59.72007
 20
-31.99666
 30
0.0
 10
-59.75339
 20
-32.44663
 30
0.0
 10
-59.81173
 20
-32.90493
 30
0.0
 10
-59.81173
 20
-32.90493
 30
0.0
 10
-59.87006
 20
-33.36325
 30
0.0
 10
-59.95338
 20
-33.82991
 30
0.0
 10
-60.03671
 20
-34.40488
 30
0.0
 10
-60.03671
 20
-34.40488
 30
0.0
 10
-60.12005
 20
-34.97986
 30
0.0
 10
-60.20337
 20
-35.66315
 30
0.0
 10
-60.25336
 20
-36.32977
 30
0.0
 10
-60.25336
 20
-36.32977
 30
0.0
 10
-60.30336
 20
-36.99642
 30
0.0
 10
-60.32004
 20
-37.64639
 30
0.0
 10
-60.2867
 20
-38.22137
 30
0.0
 10
-60.2867
 20
-38.22137
 30
0.0
 10
-60.25336
 20
-38.79634
 30
0.0
 10
-60.17005
 20
-39.29632
 30
0.0
 10
-60.04505
 20
-39.68796
 30
0.0
 10
-60.04505
 20
-39.68796
 30
0.0
 10
-59.92006
 20
-40.07962
 30
0.0
 10
-59.75339
 20
-40.36293
 30
0.0
 10
-59.52006
 20
-40.56292
 30
0.0
 10
-59.52006
 20
-40.56292
 30
0.0
 10
-59.28675
 20
-40.76291
 30
0.0
 10
-58.98676
 20
-40.87958
 30
0.0
 10
-58.7201
 20
-40.9379
 30
0.0
 10
-58.7201
 20
-40.9379
 30
0.0
 10
-58.45345
 20
-40.99624
 30
0.0
 10
-58.22014
 20
-40.99624
 30
0.0
 10
-57.96181
 20
-40.90456
 30
0.0
 10
-57.96181
 20
-40.90456
 30
0.0
 10
-57.70348
 20
-40.81291
 30
0.0
 10
-57.42018
 20
-40.62959
 30
0.0
 10
-57.15351
 20
-40.33793
 30
0.0
 10
-57.15351
 20
-40.33793
 30
0.0
 10
-56.88686
 20
-40.04628
 30
0.0
 10
-56.63687
 20
-39.6463
 30
0.0
 10
-56.40354
 20
-39.24632
 30
0.0
 10
-56.40354
 20
-39.24632
 30
0.0
 10
-56.17023
 20
-38.84634
 30
0.0
 10
-55.95356
 20
-38.44636
 30
0.0
 10
-55.75357
 20
-38.12137
 30
0.0
 10
-55.75357
 20
-38.12137
 30
0.0
 10
-55.55358
 20
-37.79639
 30
0.0
 10
-55.37027
 20
-37.5464
 30
0.0
 10
-55.20036
 20
-37.34753
 30
0.0
 10
-55.20036
 20
-37.34753
 30
0.0
 10
-55.03047
 20
-37.14866
 30
0.0
 10
-54.87397
 20
-37.0009
 30
0.0
 10
-54.69572
 20
-36.83589
 30
0.0
 10
-54.69572
 20
-36.83589
 30
0.0
 10
-54.51749
 20
-36.67088
 30
0.0
 10
-54.31746
 20
-36.48863
 30
0.0
 10
-54.17905
 20
-36.16252
 30
0.0
 10
-54.17905
 20
-36.16252
 30
0.0
 10
-54.04063
 20
-35.83642
 30
0.0
 10
-53.96382
 20
-35.36646
 30
0.0
 10
-53.94208
 20
-34.99816
 30
0.0
 10
-53.94208
 20
-34.99816
 30
0.0
 10
-53.92034
 20
-34.62987
 30
0.0
 10
-53.95366
 20
-34.36321
 30
0.0
 10
-54.01199
 20
-34.11322
 30
0.0
 10
-54.01199
 20
-34.11322
 30
0.0
 10
-54.07033
 20
-33.86323
 30
0.0
 10
-54.15365
 20
-33.62992
 30
0.0
 10
-54.32864
 20
-33.35493
 30
0.0
 10
-54.32864
 20
-33.35493
 30
0.0
 10
-54.50363
 20
-33.07995
 30
0.0
 10
-54.7703
 20
-32.76328
 30
0.0
 10
-55.05361
 20
-32.48829
 30
0.0
 10
-55.05361
 20
-32.48829
 30
0.0
 10
-55.33693
 20
-32.21331
 30
0.0
 10
-55.63692
 20
-31.98
 30
0.0
 10
-55.91191
 20
-31.79667
 30
0.0
  0
SPLINE
  5
7D
330
1F
100
AcDbEntity
  8
layer 1
 62
   250
370
     9
100
AcDbSpline
210
0.0
220
0.0
230
1.0
 70
    11
 71
     3
 72
    20
 73
    16
 74
     0
 42
0.000000001
 43
0.0000000001
 40
0.0
 40
0.0
 40
0.0
 40
0.0
 40
0.2
 40
0.2
 40
0.2
 40
0.2
 40
0.4
 40
0.4
 40
0.4
 40
0.4
 40
0.6
 40
0.6
 40
0.6
 40
0.6
 40
1.0
 40
1.0
 40
1.0
 40
1.0
 10
-57.78276
 20
-35.24844
 30
0.0
 10
-57.78276
 20
-35.24844
 30
0.0
 10
-58.38271
 20
-35.24844
 30
0.0
 10
-58.38271
 20
-35.24844
 30
0.0
 10
-58.38271
 20
-35.24844
 30
0.0
 10
-58.38271
 20
-35.24844
 30
0.0
 10
-58.38271
 20
-33.64852
 30
0.0
 10
-58.38271
 20
-33.64852
 30
0.0
 10
-58.38271
 20
-33.64852
 30
0.0
 10
-58.38271
 20
-33.64852
 30
0.0
 10
-57.78276
 20
-33.64852
 30
0.0
 10
-57.78276
 20
-33.64852
 30
0.0
 10
-57.78276
 20
-33.64852
 30
0.0
 10
-57.78276
 20
-33.64852
 30
0.0
 10
-57.78276
 20
-35.24844
 30
0.0
 10
-57.78276
 20
-35.24844
 30
0.0
  0
SPLINE
  5
7E
330
1F
100
AcDbEntity
  8
layer 1
 62
   250
370
     9
100
AcDbSpline
210
0.0
220
0.0
230
1.0
 70
    11
 71
     3
 72
   256
 73
   252
 74
     0
 42
0.000000001
 43
0.0000000001
 40
0.0
 40
0.0
 40
0.0
 40
0.0
 40
0.015625
 40
0.015625
 40
0.015625
 40
0.015625
 40
0.03125
 40
0.03125
 40
0.03125
 40
0.03125
 40
0.046875
 40
0.046875
 40
0.046875
 40
0.046875
 40
0.0625
 40
0.0625
 40
0.0625
 40
0.0625
 40
0.078125
 40
0.078125
 40
0.078125
 40
0.078125
 40
0.09375
 40
0.09375
 40
0.09375
 40
0.09375
 40
0.109375
 40
0.109375
 40
0.109375
 40
0.109375
 40
0.125
 40
0.125
 40
0.125
 40
0.125
 40
0.140625
 40
0.140625
 40
0.140625
 40
0.140625
 40
0.15625
 40
0.15625
 40
0.15625
 40
0.15625
 40
0.171875
 40
0.171875
 40
0.171875
 40
0.171875
 40
0.1875
 40
0.1875
 40
0.1875
 40
0.1875
 40
0.203125
 40
0.203125
 40
0.203125
 40
0.203125
 40
0.21875
 40
0.21875
 40
0.21875
 40
0.21875
 40
0.234375
 40
0.234375
 40
0.234375
 40
0.234375
 40
0.25
 40
0.25
 40
0.25
 40
0.25
 40
0.265625
 40
0.265625
 40
0.265625
 40
0.265625
 40
0.28125
 40
0.28125
 40
0.28125
 40
0.28125
 40
0.296875
 40
0.296875
 40
0.296875
 40
0.296875
 40
0.3125
 40
0.3125
 40
0.3125
 40
0.3125
 40
0.328125
 40
0.328125
 40
0.328125
 40
0.328125
 40
0.34375
 40
0.34375
 40
0.34375
 40
0.34375
 40
0.359375
 40
0.359375
 40
0.359375
 40
0.359375
 40
0.375
 40
0.375
 40
0.375
 40
0.375
 40
0.390625
 40
0.390625
 40
0.390625
 40
0.390625
 40
0.40625
 40
0.40625
 40
0.40625
 40
0.40625
 40
0.421875
 40
0.421875
 40
0.421875
 40
0.421875
 40
0.4375
 40
0.4375
 40
0.4375
 40
0.4375
 40
0.453125
 40
0.453125
 40
0.453125
 40
0.453125
 40
0.46875
 40
0.46875
 40
0.46875
 40
0.46875
 40
0.484375
 40
0.484375
 40
0.484375
 40
0.484375
 40
0.5
 40
0.5
 40
0.5
 40
0.5
 40
0.515625
 40
0.515625
 40
0.515625
 40
0.515625
 40
0.53125
 40
0.53125
 40
0.53125
 40
0.53125
 40
0.546875
 40
0.546875
 40
0.546875
 40
0.546875
 40
0.5625
 40
0.5625
 40
0.5625
 40
0.5625
 40
0.578125
 40
0.578125
 40
0.578125
 40
0.578125
 40
0.59375
 40
0.59375
 40
0.59375
 40
0.59375
 40
0.609375
 40
0.609375
 40
0.609375
 40
0.609375
 40
0.625
 40
0.625
 40
0.625
 40
0.625
 40
0.640625
 40
0.640625
 40
0.640625
 40
0.640625
 40
0.65625
 40
0.65625
 40
0.65625
 40
0.65625
 40
0.671875
 40
0.671875
 40
0.671875
 40
0.671875
 40
0.6875
 40
0.6875
 40
0.6875
 40
0.6875
 40
0.703125
 40
0.703125
 40
0.703125
 40
0.703125
 40
0.71875
 40
0.71875
 40
0.71875
 40
0.71875
 40
0.734375
 40
0.734375
 40
0.734375
 40
0.734375
 40
0.75
 40
0.75
 40
0.75
 40
0.75
 40
0.765625
 40
0.765625
 40
0.765625
 40
0.765625
 40
0.78125
 40
0.78125
 40
0.78125
 40
0.78125
 40
0.796875
 40
0.796875
 40
0.796875
 40
0.796875
 40
0.8125
 40
0.8125
 40
0.8125
 40
0.8125
 40
0.828125
 40
0.828125
 40
0.828125
 40
0.828125
 40
0.84375
 40
0.84375
 40
0.84375
 40
0.84375
 40
0.859375
 40
0.859375
 40
0.859375
 40
0.859375
 40
0.875
 40
0.875
 40
0.875
 40
0.875
 40
0.890625
 40
0.890625
 40
0.890625
 40
0.890625
 40
0.90625
 40
0.90625
 40
0.90625
 40
0.90625
 40
0.921875
 40
0.921875
 40
0.921875
 40
0.921875
 40
0.9375
 40
0.9375
 40
0.9375
 40
0.9375
 40
0.953125
 40
0.953125
 40
0.953125
 40
0.953125
 40
0.96875
 40
0.96875
 40
0.96875
 40
0.96875
 40
1.0
 40
1.0
 40
1.0
 40
1.0
 10
-14.26454
 20
-10.7745
 30
0.0
 10
-14.26454
 20
-10.7745
 30
0.0
 10
-14.26454
 20
-11.37447
 30
0.0
 10
-14.26454
 20
-11.37447
 30
0.0
 10
-14.26454
 20
-11.37447
 30
0.0
 10
-14.26454
 20
-11.37447
 30
0.0
 10
-18.26436
 20
-11.37447
 30
0.0
 10
-18.26436
 20
-11.37447
 30
0.0
 10
-18.26436
 20
-11.37447
 30
0.0
 10
-18.26436
 20
-11.37447
 30
0.0
 10
-18.26436
 20
-10.7745
 30
0.0
 10
-18.26436
 20
-10.7745
 30
0.0
 10
-18.26436
 20
-10.7745
 30
0.0
 10
-18.26436
 20
-10.7745
 30
0.0
 10
-18.85285
 20
-10.7745
 30
0.0
 10
-18.85285
 20
-10.7745
 30
0.0
 10
-18.85285
 20
-10.7745
 30
0.0
 10
-19.11858
 20
-9.78549
 30
0.0
 10
-18.54858
 20
-9.03814
 30
0.0
 10
-17.45765
 20
-9.17454
 30
0.0
 10
-17.45765
 20
-9.17454
 30
0.0
 10
-17.19101
 20
-9.20785
 30
0.0
 10
-16.991
 20
-9.29119
 30
0.0
 10
-16.87434
 20
-9.31619
 30
0.0
 10
-16.87434
 20
-9.31619
 30
0.0
 10
-16.75769
 20
-9.34119
 30
0.0
 10
-16.43592
 20
-9.30215
 30
0.0
 10
-16.3776
 20
-9.08552
 30
0.0
 10
-16.3776
 20
-9.08552
 30
0.0
 10
-16.14991
 20
-8.23982
 30
0.0
 10
-16.11942
 20
-7.11151
 30
0.0
 10
-16.13086
 20
-6.24133
 30
0.0
 10
-16.13086
 20
-6.24133
 30
0.0
 10
-16.14465
 20
-5.1902
 30
0.0
 10
-16.44818
 20
-3.84316
 30
0.0
 10
-17.316
 20
-3.13316
 30
0.0
 10
-17.316
 20
-3.13316
 30
0.0
 10
-18.45225
 20
-2.2035
 30
0.0
 10
-20.52327
 20
-1.32646
 30
0.0
 10
-21.89911
 20
-0.37495
 30
0.0
 10
-21.89911
 20
-0.37495
 30
0.0
 10
-23.2999
 20
0.59381
 30
0.0
 10
-24.22258
 20
1.31876
 30
0.0
 10
-25.19161
 20
2.71175
 30
0.0
 10
-25.19161
 20
2.71175
 30
0.0
 10
-26.74678
 20
4.94721
 30
0.0
 10
-28.31553
 20
4.25654
 30
0.0
 10
-30.32372
 20
3.18323
 30
0.0
 10
-30.32372
 20
3.18323
 30
0.0
 10
-31.79055
 20
2.39923
 30
0.0
 10
-34.38809
 20
1.45973
 30
0.0
 10
-35.99013
 20
1.50831
 30
0.0
 10
-35.99013
 20
1.50831
 30
0.0
 10
-36.68696
 20
1.52941
 30
0.0
 10
-37.68545
 20
1.69742
 30
0.0
 10
-38.28169
 20
2.08328
 30
0.0
 10
-38.28169
 20
2.08328
 30
0.0
 10
-38.52301
 20
2.23941
 30
0.0
 10
-38.57881
 20
2.27981
 30
0.0
 10
-38.66501
 20
1.88329
 30
0.0
 10
-38.66501
 20
1.88329
 30
0.0
 10
-38.80826
 20
1.22418
 30
0.0
 10
-38.58965
 20
-0.27121
 30
0.0
 10
-38.48168
 20
-0.95824
 30
0.0
 10
-38.48168
 20
-0.95824
 30
0.0
 10
-38.30106
 20
-2.1077
 30
0.0
 10
-38.15995
 20
-2.51755
 30
0.0
 10
-38.62427
 20
-3.65035
 30
0.0
 10
-38.62427
 20
-3.65035
 30
0.0
 10
-38.79186
 20
-4.05923
 30
0.0
 10
-38.99369
 20
-4.44366
 30
0.0
 10
-39.16034
 20
-5.05197
 30
0.0
 10
-39.16034
 20
-5.05197
 30
0.0
 10
-39.53187
 20
-6.40793
 30
0.0
 10
-39.44929
 20
-7.35086
 30
0.0
 10
-39.55663
 20
-8.66622
 30
0.0
 10
-39.55663
 20
-8.66622
 30
0.0
 10
-39.62252
 20
-9.4732
 30
0.0
 10
-39.83995
 20
-10.22449
 30
0.0
 10
-40.35395
 20
-10.7745
 30
0.0
 10
-40.35395
 20
-10.7745
 30
0.0
 10
-40.35395
 20
-10.7745
 30
0.0
 10
-40.94244
 20
-10.7745
 30
0.0
 10
-40.94244
 20
-10.7745
 30
0.0
 10
-40.94244
 20
-10.7745
 30
0.0
 10
-40.94244
 20
-10.7745
 30
0.0
 10
-40.94244
 20
-11.37447
 30
0.0
 10
-40.94244
 20
-11.37447
 30
0.0
 10
-40.94244
 20
-11.37447
 30
0.0
 10
-40.94244
 20
-11.37447
 30
0.0
 10
-44.94226
 20
-11.37447
 30
0.0
 10
-44.94226
 20
-11.37447
 30
0.0
 10
-44.94226
 20
-11.37447
 30
0.0
 10
-44.94226
 20
-11.37447
 30
0.0
 10
-44.94226
 20
-10.7745
 30
0.0
 10
-44.94226
 20
-10.7745
 30
0.0
 10
-44.94226
 20
-10.7745
 30
0.0
 10
-44.94226
 20
-10.7745
 30
0.0
 10
-45.53075
 20
-10.7745
 30
0.0
 10
-45.53075
 20
-10.7745
 30
0.0
 10
-45.53075
 20
-10.7745
 30
0.0
 10
-46.06732
 20
-9.83549
 30
0.0
 10
-45.45169
 20
-8.98083
 30
0.0
 10
-44.21161
 20
-9.0335
 30
0.0
 10
-44.21161
 20
-9.0335
 30
0.0
 10
-43.77005
 20
-9.05226
 30
0.0
 10
-43.27829
 20
-9.28539
 30
0.0
 10
-43.21746
 20
-8.93553
 30
0.0
 10
-43.21746
 20
-8.93553
 30
0.0
 10
-43.07436
 20
-8.11287
 30
0.0
 10
-42.91667
 20
-6.00854
 30
0.0
 10
-43.1398
 20
-5.18304
 30
0.0
 10
-43.1398
 20
-5.18304
 30
0.0
 10
-43.22312
 20
-4.87474
 30
0.0
 10
-43.35645
 20
-4.47475
 30
0.0
 10
-43.43145
 20
-4.06643
 30
0.0
 10
-43.43145
 20
-4.06643
 30
0.0
 10
-43.50644
 20
-3.65813
 30
0.0
 10
-43.52312
 20
-3.24147
 30
0.0
 10
-43.51478
 20
-2.80815
 30
0.0
 10
-43.51478
 20
-2.80815
 30
0.0
 10
-43.50644
 20
-2.37485
 30
0.0
 10
-43.47312
 20
-1.92487
 30
0.0
 10
-43.50644
 20
-1.46655
 30
0.0
 10
-43.50644
 20
-1.46655
 30
0.0
 10
-43.56922
 20
-0.60355
 30
0.0
 10
-43.81489
 20
0.24317
 30
0.0
 10
-44.23959
 20
0.99673
 30
0.0
 10
-44.23959
 20
0.99673
 30
0.0
 10
-44.49792
 20
1.45503
 30
0.0
 10
-44.89382
 20
2.065
 30
0.0
 10
-45.22508
 20
2.60328
 30
0.0
 10
-45.22508
 20
2.60328
 30
0.0
 10
-45.88055
 20
3.66837
 30
0.0
 10
-46.20246
 20
4.65366
 30
0.0
 10
-46.62878
 20
5.76263
 30
0.0
 10
-46.62878
 20
5.76263
 30
0.0
 10
-47.28145
 20
7.46045
 30
0.0
 10
-47.52768
 20
7.41935
 30
0.0
 10
-47.88112
 20
9.22471
 30
0.0
 10
-47.88112
 20
9.22471
 30
0.0
 10
-47.88112
 20
9.22471
 30
0.0
 10
-43.78667
 20
9.22471
 30
0.0
 10
-43.78667
 20
9.22471
 30
0.0
 10
-43.78667
 20
9.22471
 30
0.0
 10
-43.78667
 20
9.22471
 30
0.0
 10
-43.78667
 20
9.82468
 30
0.0
 10
-43.78667
 20
9.82468
 30
0.0
 10
-43.78667
 20
9.82468
 30
0.0
 10
-43.78667
 20
9.82468
 30
0.0
 10
-47.99077
 20
9.82468
 30
0.0
 10
-47.99077
 20
9.82468
 30
0.0
 10
-47.99077
 20
9.82468
 30
0.0
 10
-48.03187
 20
10.06367
 30
0.0
 10
-48.07483
 20
10.32846
 30
0.0
 10
-48.12027
 20
10.62356
 30
0.0
 10
-48.12027
 20
10.62356
 30
0.0
 10
-48.60601
 20
13.777
 30
0.0
 10
-50.0099
 20
18.21077
 30
0.0
 10
-44.93138
 20
18.16587
 30
0.0
 10
-44.93138
 20
18.16587
 30
0.0
 10
-43.92528
 20
18.15695
 30
0.0
 10
-42.94347
 20
17.9589
 30
0.0
 10
-41.98985
 20
17.6559
 30
0.0
 10
-41.98985
 20
17.6559
 30
0.0
 10
-41.98985
 20
17.6559
 30
0.0
 10
-41.98985
 20
4.22492
 30
0.0
 10
-41.98985
 20
4.22492
 30
0.0
 10
-41.98985
 20
4.22492
 30
0.0
 10
-41.98985
 20
4.22492
 30
0.0
 10
-41.38988
 20
4.22492
 30
0.0
 10
-41.38988
 20
4.22492
 30
0.0
 10
-41.38988
 20
4.22492
 30
0.0
 10
-41.38988
 20
4.22492
 30
0.0
 10
-41.38988
 20
17.45081
 30
0.0
 10
-41.38988
 20
17.45081
 30
0.0
 10
-41.38988
 20
17.45081
 30
0.0
 10
-40.61174
 20
17.16686
 30
0.0
 10
-39.85333
 20
16.82334
 30
0.0
 10
-39.11695
 20
16.46777
 30
0.0
 10
-39.11695
 20
16.46777
 30
0.0
 10
-35.82588
 20
14.87865
 30
0.0
 10
-33.6242
 20
13.80566
 30
0.0
 10
-29.90242
 20
13.96847
 30
0.0
 10
-29.90242
 20
13.96847
 30
0.0
 10
-27.35165
 20
14.08002
 30
0.0
 10
-24.67768
 20
14.80221
 30
0.0
 10
-22.21801
 20
14.80221
 30
0.0
 10
-22.21801
 20
14.80221
 30
0.0
 10
-22.00716
 20
14.80221
 30
0.0
 10
-21.79785
 20
14.79585
 30
0.0
 10
-21.5908
 20
14.78297
 30
0.0
 10
-21.5908
 20
14.78297
 30
0.0
 10
-21.5908
 20
14.78297
 30
0.0
 10
-21.59082
 20
6.77438
 30
0.0
 10
-21.59082
 20
6.77438
 30
0.0
 10
-21.59082
 20
6.77438
 30
0.0
 10
-21.59082
 20
6.77438
 30
0.0
 10
-20.99083
 20
6.77438
 30
0.0
 10
-20.99083
 20
6.77438
 30
0.0
 10
-20.99083
 20
6.77438
 30
0.0
 10
-20.99083
 20
6.77438
 30
0.0
 10
-20.99083
 20
14.72615
 30
0.0
 10
-20.99083
 20
14.72615
 30
0.0
 10
-20.99083
 20
14.72615
 30
0.0
 10
-18.38049
 20
14.39099
 30
0.0
 10
-16.25099
 20
12.92278
 30
0.0
 10
-16.0471
 20
9.82468
 30
0.0
 10
-16.0471
 20
9.82468
 30
0.0
 10
-16.0471
 20
9.82468
 30
0.0
 10
-19.63965
 20
9.82468
 30
0.0
 10
-19.63965
 20
9.82468
 30
0.0
 10
-19.63965
 20
9.82468
 30
0.0
 10
-19.63965
 20
9.82468
 30
0.0
 10
-19.63965
 20
9.22471
 30
0.0
 10
-19.63965
 20
9.22471
 30
0.0
 10
-19.63965
 20
9.22471
 30
0.0
 10
-19.63965
 20
9.22471
 30
0.0
 10
-16.03506
 20
9.22471
 30
0.0
 10
-16.03506
 20
9.22471
 30
0.0
 10
-16.03506
 20
9.22471
 30
0.0
 10
-16.04124
 20
7.87005
 30
0.0
 10
-15.98868
 20
6.85336
 30
0.0
 10
-15.57304
 20
5.40619
 30
0.0
 10
-15.57304
 20
5.40619
 30
0.0
 10
-15.1159
 20
3.81452
 30
0.0
 10
-14.22814
 20
2.26961
 30
0.0
 10
-13.36796
 20
0.85508
 30
0.0
 10
-13.36796
 20
0.85508
 30
0.0
 10
-12.93288
 20
0.13959
 30
0.0
 10
-11.92933
 20
-1.22265
 30
0.0
 10
-11.74126
 20
-1.97487
 30
0.0
 10
-11.74126
 20
-1.97487
 30
0.0
 10
-11.53933
 20
-2.78257
 30
0.0
 10
-12.02041
 20
-3.31341
 30
0.0
 10
-12.24958
 20
-4.04144
 30
0.0
 10
-12.24958
 20
-4.04144
 30
0.0
 10
-13.0014
 20
-6.42986
 30
0.0
 10
-12.87855
 20
-6.22433
 30
0.0
 10
-12.99684
 20
-8.94517
 30
0.0
 10
-12.99684
 20
-8.94517
 30
0.0
 10
-13.0135
 20
-9.32845
 30
0.0
 10
-13.05788
 20
-9.8745
 30
0.0
 10
-13.17201
 20
-10.12449
 30
0.0
 10
-13.17201
 20
-10.12449
 30
0.0
 10
-13.28615
 20
-10.37448
 30
0.0
 10
-13.4811
 20
-10.57449
 30
0.0
 10
-13.67605
 20
-10.7745
 30
0.0
 10
-13.67605
 20
-10.7745
 30
0.0
 10
-13.67605
 20
-10.7745
 30
0.0
 10
-14.26454
 20
-10.7745
 30
0.0
 10
-14.26454
 20
-10.7745
 30
0.0
  0
SPLINE
  5
7F
330
1F
100
AcDbEntity
  8
layer 1
 62
   250
370
     9
100
AcDbSpline
210
0.0
220
0.0
230
1.0
 70
    11
 71
     3
 72
    20
 73
    16
 74
     0
 42
0.000000001
 43
0.0000000001
 40
0.0
 40
0.0
 40
0.0
 40
0.0
 40
0.2
 40
0.2
 40
0.2
 40
0.2
 40
0.4
 40
0.4
 40
0.4
 40
0.4
 40
0.6
 40
0.6
 40
0.6
 40
0.6
 40
1.0
 40
1.0
 40
1.0
 40
1.0
 10
-39.43997
 20
9.22471
 30
0.0
 10
-39.43997
 20
9.22471
 30
0.0
 10
-39.43997
 20
9.82468
 30
0.0
 10
-39.43997
 20
9.82468
 30
0.0
 10
-39.43997
 20
9.82468
 30
0.0
 10
-39.43997
 20
9.82468
 30
0.0
 10
-33.44025
 20
9.82468
 30
0.0
 10
-33.44025
 20
9.82468
 30
0.0
 10
-33.44025
 20
9.82468
 30
0.0
 10
-33.44025
 20
9.82468
 30
0.0
 10
-33.44025
 20
9.22471
 30
0.0
 10
-33.44025
 20
9.22471
 30
0.0
 10
-33.44025
 20
9.22471
 30
0.0
 10
-33.44025
 20
9.22471
 30
0.0
 10
-39.43997
 20
9.22471
 30
0.0
 10
-39.43997
 20
9.22471
 30
0.0
  0
SPLINE
  5
80
330
1F
100
AcDbEntity
  8
layer 1
 62
   250
370
     9
100
AcDbSpline
210
0.0
220
0.0
230
1.0
 70
    11
 71
     3
 72
    20
 73
    16
 74
     0
 42
0.000000001
 43
0.0000000001
 40
0.0
 40
0.0
 40
0.0
 40
0.0
 40
0.2
 40
0.2
 40
0.2
 40
0.2
 40
0.4
 40
0.4
 40
0.4
 40
0.4
 40
0.6
 40
0.6
 40
0.6
 40
0.6
 40
1.0
 40
1.0
 40
1.0
 40
1.0
 10
-29.54043
 20
9.22471
 30
0.0
 10
-29.54043
 20
9.22471
 30
0.0
 10
-29.54043
 20
9.82468
 30
0.0
 10
-29.54043
 20
9.82468
 30
0.0
 10
-29.54043
 20
9.82468
 30
0.0
 10
-29.54043
 20
9.82468
 30
0.0
 10
-23.54071
 20
9.82468
 30
0.0
 10
-23.54071
 20
9.82468
 30
0.0
 10
-23.54071
 20
9.82468
 30
0.0
 10
-23.54071
 20
9.82468
 30
0.0
 10
-23.54071
 20
9.22471
 30
0.0
 10
-23.54071
 20
9.22471
 30
0.0
 10
-23.54071
 20
9.22471
 30
0.0
 10
-23.54071
 20
9.22471
 30
0.0
 10
-29.54043
 20
9.22471
 30
0.0
 10
-29.54043
 20
9.22471
 30
0.0
  0
SPLINE
  5
81
330
1F
100
AcDbEntity
  8
layer 1
 62
   250
370
     9
100
AcDbSpline
210
0.0
220
0.0
230
1.0
 70
    11
 71
     3
 72
    76
 73
    72
 74
     0
 42
0.000000001
 43
0.0000000001
 40
0.0
 40
0.0
 40
0.0
 40
0.0
 40
0.0526315789473684
 40
0.0526315789473684
 40
0.0526315789473684
 40
0.0526315789473684
 40
0.1052631578947368
 40
0.1052631578947368
 40
0.1052631578947368
 40
0.1052631578947368
 40
0.1578947368421053
 40
0.1578947368421053
 40
0.1578947368421053
 40
0.1578947368421053
 40
0.2105263157894737
 40
0.2105263157894737
 40
0.2105263157894737
 40
0.2105263157894737
 40
0.2631578947368421
 40
0.2631578947368421
 40
0.2631578947368421
 40
0.2631578947368421
 40
0.3157894736842105
 40
0.3157894736842105
 40
0.3157894736842105
 40
0.3157894736842105
 40
0.3684210526315789
 40
0.3684210526315789
 40
0.3684210526315789
 40
0.3684210526315789
 40
0.4210526315789473
 40
0.4210526315789473
 40
0.4210526315789473
 40
0.4210526315789473
 40
0.4736842105263158
 40
0.4736842105263158
 40
0.4736842105263158
 40
0.4736842105263158
 40
0.5263157894736842
 40
0.5263157894736842
 40
0.5263157894736842
 40
0.5263157894736842
 40
0.5789473684210527
 40
0.5789473684210527
 40
0.5789473684210527
 40
0.5789473684210527
 40
0.631578947368421
 40
0.631578947368421
 40
0.631578947368421
 40
0.631578947368421
 40
0.6842105263157895
 40
0.6842105263157895
 40
0.6842105263157895
 40
0.6842105263157895
 40
0.7368421052631579
 40
0.7368421052631579
 40
0.7368421052631579
 40
0.7368421052631579
 40
0.7894736842105263
 40
0.7894736842105263
 40
0.7894736842105263
 40
0.7894736842105263
 40
0.8421052631578947
 40
0.8421052631578947
 40
0.8421052631578947
 40
0.8421052631578947
 40
0.8947368421052632
 40
0.8947368421052632
 40
0.8947368421052632
 40
0.8947368421052632
 40
1.0
 40
1.0
 40
1.0
 40
1.0
 10
32.28809
 20
-45.76166
 30
0.0
 10
28.00177
 20
-44.66649
 30
0.0
 10
28.70174
 20
-39.11674
 30
0.0
 10
29.70935
 20
-36.37161
 30
0.0
 10
29.70935
 20
-36.37161
 30
0.0
 10
30.36362
 20
-34.58914
 30
0.0
 10
30.63301
 20
-30.72335
 30
0.0
 10
30.09734
 20
-28.87382
 30
0.0
 10
30.09734
 20
-28.87382
 30
0.0
 10
29.50172
 20
-26.81734
 30
0.0
 10
29.53632
 20
-25.38908
 30
0.0
 10
29.30171
 20
-23.61747
 30
0.0
 10
29.30171
 20
-23.61747
 30
0.0
 10
28.95619
 20
-21.00845
 30
0.0
 10
28.46231
 20
-17.48727
 30
0.0
 10
29.93676
 20
-15.2052
 30
0.0
 10
29.93676
 20
-15.2052
 30
0.0
 10
30.69175
 20
-14.03673
 30
0.0
 10
30.95858
 20
-13.90714
 30
0.0
 10
32.28809
 20
-13.67949
 30
0.0
 10
32.28809
 20
-13.67949
 30
0.0
 10
32.28809
 20
-13.67949
 30
0.0
 10
32.28809
 20
-15.10134
 30
0.0
 10
32.28809
 20
-15.10134
 30
0.0
 10
32.28809
 20
-15.10134
 30
0.0
 10
32.28809
 20
-15.10134
 30
0.0
 10
31.68812
 20
-15.10134
 30
0.0
 10
31.68812
 20
-15.10134
 30
0.0
 10
31.68812
 20
-15.10134
 30
0.0
 10
31.68812
 20
-15.10134
 30
0.0
 10
31.68812
 20
-22.21849
 30
0.0
 10
31.68812
 20
-22.21849
 30
0.0
 10
31.68812
 20
-22.21849
 30
0.0
 10
31.68812
 20
-22.21849
 30
0.0
 10
32.28809
 20
-22.21849
 30
0.0
 10
32.28809
 20
-22.21849
 30
0.0
 10
32.28809
 20
-22.21849
 30
0.0
 10
32.28809
 20
-22.21849
 30
0.0
 10
32.28809
 20
-28.21821
 30
0.0
 10
32.28809
 20
-28.21821
 30
0.0
 10
32.28809
 20
-28.21821
 30
0.0
 10
32.28809
 20
-28.21821
 30
0.0
 10
31.68812
 20
-28.21821
 30
0.0
 10
31.68812
 20
-28.21821
 30
0.0
 10
31.68812
 20
-28.21821
 30
0.0
 10
31.68812
 20
-28.21821
 30
0.0
 10
31.68812
 20
-32.11803
 30
0.0
 10
31.68812
 20
-32.11803
 30
0.0
 10
31.68812
 20
-32.11803
 30
0.0
 10
31.68812
 20
-32.11803
 30
0.0
 10
32.28809
 20
-32.11803
 30
0.0
 10
32.28809
 20
-32.11803
 30
0.0
 10
32.28809
 20
-32.11803
 30
0.0
 10
32.28809
 20
-32.11803
 30
0.0
 10
32.28809
 20
-38.11775
 30
0.0
 10
32.28809
 20
-38.11775
 30
0.0
 10
32.28809
 20
-38.11775
 30
0.0
 10
32.28809
 20
-38.11775
 30
0.0
 10
31.68812
 20
-38.11775
 30
0.0
 10
31.68812
 20
-38.11775
 30
0.0
 10
31.68812
 20
-38.11775
 30
0.0
 10
31.68812
 20
-38.11775
 30
0.0
 10
31.68812
 20
-44.26953
 30
0.0
 10
31.68812
 20
-44.26953
 30
0.0
 10
31.68812
 20
-44.26953
 30
0.0
 10
31.68812
 20
-44.26953
 30
0.0
 10
32.28809
 20
-44.26953
 30
0.0
 10
32.28809
 20
-44.26953
 30
0.0
 10
32.28809
 20
-44.26953
 30
0.0
 10
32.28809
 20
-44.26953
 30
0.0
 10
32.28809
 20
-45.76166
 30
0.0
 10
32.28809
 20
-45.76166
 30
0.0
  0
SPLINE
  5
82
330
1F
100
AcDbEntity
  8
layer 1
 62
   250
370
     9
100
AcDbSpline
210
0.0
220
0.0
230
1.0
 70
    11
 71
     3
 72
    76
 73
    72
 74
     0
 42
0.000000001
 43
0.0000000001
 40
0.0
 40
0.0
 40
0.0
 40
0.0
 40
0.0526315789473684
 40
0.0526315789473684
 40
0.0526315789473684
 40
0.0526315789473684
 40
0.1052631578947368
 40
0.1052631578947368
 40
0.1052631578947368
 40
0.1052631578947368
 40
0.1578947368421053
 40
0.1578947368421053
 40
0.1578947368421053
 40
0.1578947368421053
 40
0.2105263157894737
 40
0.2105263157894737
 40
0.2105263157894737
 40
0.2105263157894737
 40
0.2631578947368421
 40
0.2631578947368421
 40
0.2631578947368421
 40
0.2631578947368421
 40
0.3157894736842105
 40
0.3157894736842105
 40
0.3157894736842105
 40
0.3157894736842105
 40
0.3684210526315789
 40
0.3684210526315789
 40
0.3684210526315789
 40
0.3684210526315789
 40
0.4210526315789473
 40
0.4210526315789473
 40
0.4210526315789473
 40
0.4210526315789473
 40
0.4736842105263158
 40
0.4736842105263158
 40
0.4736842105263158
 40
0.4736842105263158
 40
0.5263157894736842
 40
0.5263157894736842
 40
0.5263157894736842
 40
0.5263157894736842
 40
0.5789473684210527
 40
0.5789473684210527
 40
0.5789473684210527
 40
0.5789473684210527
 40
0.631578947368421
 40
0.631578947368421
 40
0.631578947368421
 40
0.631578947368421
 40
0.6842105263157895
 40
0.6842105263157895
 40
0.6842105263157895
 40
0.6842105263157895
 40
0.7368421052631579
 40
0.7368421052631579
 40
0.7368421052631579
 40
0.7368421052631579
 40
0.7894736842105263
 40
0.7894736842105263
 40
0.7894736842105263
 40
0.7894736842105263
 40
0.8421052631578947
 40
0.8421052631578947
 40
0.8421052631578947
 40
0.8421052631578947
 40
0.8947368421052632
 40
0.8947368421052632
 40
0.8947368421052632
 40
0.8947368421052632
 40
1.0
 40
1.0
 40
1.0
 40
1.0
 10
41.68766
 20
-45.76164
 30
0.0
 10
45.97398
 20
-44.66647
 30
0.0
 10
45.27401
 20
-39.11672
 30
0.0
 10
44.2664
 20
-36.37159
 30
0.0
 10
44.2664
 20
-36.37159
 30
0.0
 10
43.61213
 20
-34.58912
 30
0.0
 10
43.34274
 20
-30.72333
 30
0.0
 10
43.87842
 20
-28.8738
 30
0.0
 10
43.87842
 20
-28.8738
 30
0.0
 10
44.47403
 20
-26.81732
 30
0.0
 10
44.43943
 20
-25.38906
 30
0.0
 10
44.67404
 20
-23.61745
 30
0.0
 10
44.67404
 20
-23.61745
 30
0.0
 10
45.01956
 20
-21.00843
 30
0.0
 10
45.51344
 20
-17.48725
 30
0.0
 10
44.03899
 20
-15.20518
 30
0.0
 10
44.03899
 20
-15.20518
 30
0.0
 10
43.284
 20
-14.03671
 30
0.0
 10
43.01718
 20
-13.90712
 30
0.0
 10
41.68766
 20
-13.67947
 30
0.0
 10
41.68766
 20
-13.67947
 30
0.0
 10
41.68766
 20
-13.67947
 30
0.0
 10
41.68766
 20
-15.10134
 30
0.0
 10
41.68766
 20
-15.10134
 30
0.0
 10
41.68766
 20
-15.10134
 30
0.0
 10
41.68766
 20
-15.10134
 30
0.0
 10
42.28763
 20
-15.10134
 30
0.0
 10
42.28763
 20
-15.10134
 30
0.0
 10
42.28763
 20
-15.10134
 30
0.0
 10
42.28763
 20
-15.10134
 30
0.0
 10
42.28763
 20
-22.21847
 30
0.0
 10
42.28763
 20
-22.21847
 30
0.0
 10
42.28763
 20
-22.21847
 30
0.0
 10
42.28763
 20
-22.21847
 30
0.0
 10
41.68766
 20
-22.21847
 30
0.0
 10
41.68766
 20
-22.21847
 30
0.0
 10
41.68766
 20
-22.21847
 30
0.0
 10
41.68766
 20
-22.21847
 30
0.0
 10
41.68766
 20
-28.21819
 30
0.0
 10
41.68766
 20
-28.21819
 30
0.0
 10
41.68766
 20
-28.21819
 30
0.0
 10
41.68766
 20
-28.21819
 30
0.0
 10
42.28763
 20
-28.21819
 30
0.0
 10
42.28763
 20
-28.21819
 30
0.0
 10
42.28763
 20
-28.21819
 30
0.0
 10
42.28763
 20
-28.21819
 30
0.0
 10
42.28763
 20
-32.11801
 30
0.0
 10
42.28763
 20
-32.11801
 30
0.0
 10
42.28763
 20
-32.11801
 30
0.0
 10
42.28763
 20
-32.11801
 30
0.0
 10
41.68766
 20
-32.11801
 30
0.0
 10
41.68766
 20
-32.11801
 30
0.0
 10
41.68766
 20
-32.11801
 30
0.0
 10
41.68766
 20
-32.11801
 30
0.0
 10
41.68766
 20
-38.11773
 30
0.0
 10
41.68766
 20
-38.11773
 30
0.0
 10
41.68766
 20
-38.11773
 30
0.0
 10
41.68766
 20
-38.11773
 30
0.0
 10
42.28763
 20
-38.11773
 30
0.0
 10
42.28763
 20
-38.11773
 30
0.0
 10
42.28763
 20
-38.11773
 30
0.0
 10
42.28763
 20
-38.11773
 30
0.0
 10
42.28763
 20
-44.26953
 30
0.0
 10
42.28763
 20
-44.26953
 30
0.0
 10
42.28763
 20
-44.26953
 30
0.0
 10
42.28763
 20
-44.26953
 30
0.0
 10
41.68766
 20
-44.26953
 30
0.0
 10
41.68766
 20
-44.26953
 30
0.0
 10
41.68766
 20
-44.26953
 30
0.0
 10
41.68766
 20
-44.26953
 30
0.0
 10
41.68766
 20
-45.76164
 30
0.0
 10
41.68766
 20
-45.76164
 30
0.0
  0
SPLINE
  5
83
330
1F
100
AcDbEntity
  8
layer 1
 62
   250
370
     9
100
AcDbSpline
210
0.0
220
0.0
230
1.0
 70
    11
 71
     3
 72
    52
 73
    48
 74
     0
 42
0.000000001
 43
0.0000000001
 40
0.0
 40
0.0
 40
0.0
 40
0.0
 40
0.0769230769230769
 40
0.0769230769230769
 40
0.0769230769230769
 40
0.0769230769230769
 40
0.1538461538461539
 40
0.1538461538461539
 40
0.1538461538461539
 40
0.1538461538461539
 40
0.2307692307692308
 40
0.2307692307692308
 40
0.2307692307692308
 40
0.2307692307692308
 40
0.3076923076923077
 40
0.3076923076923077
 40
0.3076923076923077
 40
0.3076923076923077
 40
0.3846153846153846
 40
0.3846153846153846
 40
0.3846153846153846
 40
0.3846153846153846
 40
0.4615384615384616
 40
0.4615384615384616
 40
0.4615384615384616
 40
0.4615384615384616
 40
0.5384615384615384
 40
0.5384615384615384
 40
0.5384615384615384
 40
0.5384615384615384
 40
0.6153846153846154
 40
0.6153846153846154
 40
0.6153846153846154
 40
0.6153846153846154
 40
0.6923076923076923
 40
0.6923076923076923
 40
0.6923076923076923
 40
0.6923076923076923
 40
0.7692307692307693
 40
0.7692307692307693
 40
0.7692307692307693
 40
0.7692307692307693
 40
0.8461538461538461
 40
0.8461538461538461
 40
0.8461538461538461
 40
0.8461538461538461
 40
1.0
 40
1.0
 40
1.0
 40
1.0
 10
-41.98985
 20
-15.68139
 30
0.0
 10
-41.98985
 20
-15.68139
 30
0.0
 10
-44.94226
 20
-15.68139
 30
0.0
 10
-44.94226
 20
-15.68139
 30
0.0
 10
-44.94226
 20
-15.68139
 30
0.0
 10
-44.94226
 20
-15.68139
 30
0.0
 10
-44.94226
 20
-15.08142
 30
0.0
 10
-44.94226
 20
-15.08142
 30
0.0
 10
-44.94226
 20
-15.08142
 30
0.0
 10
-44.94226
 20
-15.08142
 30
0.0
 10
-41.98985
 20
-15.08142
 30
0.0
 10
-41.98985
 20
-15.08142
 30
0.0
 10
-41.98985
 20
-15.08142
 30
0.0
 10
-41.98985
 20
-15.08142
 30
0.0
 10
-41.98985
 20
-14.38147
 30
0.0
 10
-41.98985
 20
-14.38147
 30
0.0
 10
-41.98985
 20
-14.38147
 30
0.0
 10
-41.98985
 20
-14.38147
 30
0.0
 10
-41.38988
 20
-14.38147
 30
0.0
 10
-41.38988
 20
-14.38147
 30
0.0
 10
-41.38988
 20
-14.38147
 30
0.0
 10
-41.38988
 20
-14.38147
 30
0.0
 10
-41.38988
 20
-15.08142
 30
0.0
 10
-41.38988
 20
-15.08142
 30
0.0
 10
-41.38988
 20
-15.08142
 30
0.0
 10
-41.38988
 20
-15.08142
 30
0.0
 10
-40.94244
 20
-15.08142
 30
0.0
 10
-40.94244
 20
-15.08142
 30
0.0
 10
-40.94244
 20
-15.08142
 30
0.0
 10
-40.94244
 20
-15.08142
 30
0.0
 10
-40.94244
 20
-15.68139
 30
0.0
 10
-40.94244
 20
-15.68139
 30
0.0
 10
-40.94244
 20
-15.68139
 30
0.0
 10
-40.94244
 20
-15.68139
 30
0.0
 10
-41.38988
 20
-15.68139
 30
0.0
 10
-41.38988
 20
-15.68139
 30
0.0
 10
-41.38988
 20
-15.68139
 30
0.0
 10
-41.38988
 20
-15.68139
 30
0.0
 10
-41.38988
 20
-16.38138
 30
0.0
 10
-41.38988
 20
-16.38138
 30
0.0
 10
-41.38988
 20
-16.38138
 30
0.0
 10
-41.38988
 20
-16.38138
 30
0.0
 10
-41.98985
 20
-16.38138
 30
0.0
 10
-41.98985
 20
-16.38138
 30
0.0
 10
-41.98985
 20
-16.38138
 30
0.0
 10
-41.98985
 20
-16.38138
 30
0.0
 10
-41.98985
 20
-15.68139
 30
0.0
 10
-41.98985
 20
-15.68139
 30
0.0
  0
SPLINE
  5
84
330
1F
100
AcDbEntity
  8
layer 1
 62
   250
370
     9
100
AcDbSpline
210
0.0
220
0.0
230
1.0
 70
    11
 71
     3
 72
    44
 73
    40
 74
     0
 42
0.000000001
 43
0.0000000001
 40
0.0
 40
0.0
 40
0.0
 40
0.0
 40
0.0909090909090909
 40
0.0909090909090909
 40
0.0909090909090909
 40
0.0909090909090909
 40
0.1818181818181818
 40
0.1818181818181818
 40
0.1818181818181818
 40
0.1818181818181818
 40
0.2727272727272727
 40
0.2727272727272727
 40
0.2727272727272727
 40
0.2727272727272727
 40
0.3636363636363636
 40
0.3636363636363636
 40
0.3636363636363636
 40
0.3636363636363636
 40
0.4545454545454545
 40
0.4545454545454545
 40
0.4545454545454545
 40
0.4545454545454545
 40
0.5454545454545454
 40
0.5454545454545454
 40
0.5454545454545454
 40
0.5454545454545454
 40
0.6363636363636364
 40
0.6363636363636364
 40
0.6363636363636364
 40
0.6363636363636364
 40
0.7272727272727273
 40
0.7272727272727273
 40
0.7272727272727273
 40
0.7272727272727273
 40
0.8181818181818182
 40
0.8181818181818182
 40
0.8181818181818182
 40
0.8181818181818182
 40
1.0
 40
1.0
 40
1.0
 40
1.0
 10
-40.18994
 20
-15.38143
 30
0.0
 10
-40.18994
 20
-14.1949
 30
0.0
 10
-41.23955
 20
-13.7604
 30
0.0
 10
-42.26226
 20
-13.91668
 30
0.0
 10
-42.26226
 20
-13.91668
 30
0.0
 10
-42.49249
 20
-13.95185
 30
0.0
 10
-42.7819
 20
-14.02219
 30
0.0
 10
-43.05132
 20
-14.05305
 30
0.0
 10
-43.05132
 20
-14.05305
 30
0.0
 10
-43.66906
 20
-14.12381
 30
0.0
 10
-43.9573
 20
-13.97239
 30
0.0
 10
-44.52184
 20
-13.82902
 30
0.0
 10
-44.52184
 20
-13.82902
 30
0.0
 10
-45.02157
 20
-13.70209
 30
0.0
 10
-45.58685
 20
-13.82054
 30
0.0
 10
-45.72146
 20
-14.39963
 30
0.0
 10
-45.72146
 20
-14.39963
 30
0.0
 10
-46.1825
 20
-14.48865
 30
0.0
 10
-46.5307
 20
-14.89439
 30
0.0
 10
-46.5307
 20
-15.38143
 30
0.0
 10
-46.5307
 20
-15.38143
 30
0.0
 10
-46.5307
 20
-15.86847
 30
0.0
 10
-46.1825
 20
-16.27421
 30
0.0
 10
-45.72146
 20
-16.36322
 30
0.0
 10
-45.72146
 20
-16.36322
 30
0.0
 10
-45.58685
 20
-16.94232
 30
0.0
 10
-45.02157
 20
-17.06077
 30
0.0
 10
-44.52184
 20
-16.93384
 30
0.0
 10
-44.52184
 20
-16.93384
 30
0.0
 10
-43.9573
 20
-16.79046
 30
0.0
 10
-43.66906
 20
-16.63905
 30
0.0
 10
-43.05132
 20
-16.70981
 30
0.0
 10
-43.05132
 20
-16.70981
 30
0.0
 10
-42.7819
 20
-16.74066
 30
0.0
 10
-42.49249
 20
-16.811
 30
0.0
 10
-42.26226
 20
-16.84618
 30
0.0
 10
-42.26226
 20
-16.84618
 30
0.0
 10
-41.23957
 20
-17.00245
 30
0.0
 10
-40.18994
 20
-16.56793
 30
0.0
 10
-40.18994
 20
-15.38143
 30
0.0
  0
SPLINE
  5
85
330
1F
100
AcDbEntity
  8
layer 1
 62
   250
370
     9
100
AcDbSpline
210
0.0
220
0.0
230
1.0
 70
    11
 71
     3
 72
    72
 73
    68
 74
     0
 42
0.000000001
 43
0.0000000001
 40
0.0
 40
0.0
 40
0.0
 40
0.0
 40
0.0555555555555556
 40
0.0555555555555556
 40
0.0555555555555556
 40
0.0555555555555556
 40
0.1111111111111111
 40
0.1111111111111111
 40
0.1111111111111111
 40
0.1111111111111111
 40
0.1666666666666667
 40
0.1666666666666667
 40
0.1666666666666667
 40
0.1666666666666667
 40
0.2222222222222222
 40
0.2222222222222222
 40
0.2222222222222222
 40
0.2222222222222222
 40
0.2777777777777778
 40
0.2777777777777778
 40
0.2777777777777778
 40
0.2777777777777778
 40
0.3333333333333333
 40
0.3333333333333333
 40
0.3333333333333333
 40
0.3333333333333333
 40
0.3888888888888889
 40
0.3888888888888889
 40
0.3888888888888889
 40
0.3888888888888889
 40
0.4444444444444444
 40
0.4444444444444444
 40
0.4444444444444444
 40
0.4444444444444444
 40
0.5
 40
0.5
 40
0.5
 40
0.5
 40
0.5555555555555556
 40
0.5555555555555556
 40
0.5555555555555556
 40
0.5555555555555556
 40
0.6111111111111112
 40
0.6111111111111112
 40
0.6111111111111112
 40
0.6111111111111112
 40
0.6666666666666666
 40
0.6666666666666666
 40
0.6666666666666666
 40
0.6666666666666666
 40
0.7222222222222222
 40
0.7222222222222222
 40
0.7222222222222222
 40
0.7222222222222222
 40
0.7777777777777778
 40
0.7777777777777778
 40
0.7777777777777778
 40
0.7777777777777778
 40
0.8333333333333334
 40
0.8333333333333334
 40
0.8333333333333334
 40
0.8333333333333334
 40
0.8888888888888888
 40
0.8888888888888888
 40
0.8888888888888888
 40
0.8888888888888888
 40
1.0
 40
1.0
 40
1.0
 40
1.0
 10
-20.15279
 20
-35.83802
 30
0.0
 10
-20.15279
 20
-35.83802
 30
0.0
 10
-20.15279
 20
-30.63826
 30
0.0
 10
-20.15279
 20
-30.63826
 30
0.0
 10
-20.15279
 20
-30.63826
 30
0.0
 10
-20.15279
 20
-30.63826
 30
0.0
 10
-22.07772
 20
-30.63826
 30
0.0
 10
-22.07772
 20
-30.63826
 30
0.0
 10
-22.07772
 20
-30.63826
 30
0.0
 10
-22.07772
 20
-30.63826
 30
0.0
 10
-22.07772
 20
-30.03829
 30
0.0
 10
-22.07772
 20
-30.03829
 30
0.0
 10
-22.07772
 20
-30.03829
 30
0.0
 10
-22.07772
 20
-30.03829
 30
0.0
 10
-20.15279
 20
-30.03829
 30
0.0
 10
-20.15279
 20
-30.03829
 30
0.0
 10
-20.15279
 20
-30.03829
 30
0.0
 10
-20.15279
 20
-30.03829
 30
0.0
 10
-20.15279
 20
-22.18667
 30
0.0
 10
-20.15279
 20
-22.18667
 30
0.0
 10
-20.15279
 20
-22.18667
 30
0.0
 10
-21.12322
 20
-22.29031
 30
0.0
 10
-21.5577
 20
-23.56117
 30
0.0
 10
-21.78267
 20
-24.37547
 30
0.0
 10
-21.78267
 20
-24.37547
 30
0.0
 10
-22.25555
 20
-26.08741
 30
0.0
 10
-22.25343
 20
-25.85102
 30
0.0
 10
-23.24086
 20
-27.20562
 30
0.0
 10
-23.24086
 20
-27.20562
 30
0.0
 10
-23.95991
 20
-28.19209
 30
0.0
 10
-24.17906
 20
-29.7981
 30
0.0
 10
-24.06359
 20
-30.98644
 30
0.0
 10
-24.06359
 20
-30.98644
 30
0.0
 10
-23.99747
 20
-31.66681
 30
0.0
 10
-23.79842
 20
-32.18433
 30
0.0
 10
-23.63315
 20
-32.84798
 30
0.0
 10
-23.63315
 20
-32.84798
 30
0.0
 10
-23.46785
 20
-33.51165
 30
0.0
 10
-23.33632
 20
-34.32149
 30
0.0
 10
-23.25944
 20
-35.09227
 30
0.0
 10
-23.25944
 20
-35.09227
 30
0.0
 10
-23.18255
 20
-35.86306
 30
0.0
 10
-23.16033
 20
-36.59478
 30
0.0
 10
-23.10063
 20
-37.1394
 30
0.0
 10
-23.10063
 20
-37.1394
 30
0.0
 10
-22.9251
 20
-38.74036
 30
0.0
 10
-22.48892
 20
-38.82298
 30
0.0
 10
-21.548
 20
-39.80155
 30
0.0
 10
-21.548
 20
-39.80155
 30
0.0
 10
-21.01483
 20
-40.35607
 30
0.0
 10
-21.01507
 20
-40.5884
 30
0.0
 10
-20.15279
 20
-40.66761
 30
0.0
 10
-20.15279
 20
-40.66761
 30
0.0
 10
-20.15279
 20
-40.66761
 30
0.0
 10
-20.15279
 20
-36.43799
 30
0.0
 10
-20.15279
 20
-36.43799
 30
0.0
 10
-20.15279
 20
-36.43799
 30
0.0
 10
-20.15279
 20
-36.43799
 30
0.0
 10
-21.63272
 20
-36.43799
 30
0.0
 10
-21.63272
 20
-36.43799
 30
0.0
 10
-21.63272
 20
-36.43799
 30
0.0
 10
-21.63272
 20
-36.43799
 30
0.0
 10
-21.63272
 20
-35.83802
 30
0.0
 10
-21.63272
 20
-35.83802
 30
0.0
 10
-21.63272
 20
-35.83802
 30
0.0
 10
-21.63272
 20
-35.83802
 30
0.0
 10
-20.15279
 20
-35.83802
 30
0.0
 10
-20.15279
 20
-35.83802
 30
0.0
  0
SPLINE
  5
86
330
1F
100
AcDbEntity
  8
layer 1
 62
   250
370
     9
100
AcDbSpline
210
0.0
220
0.0
230
1.0
 70
    11
 71
     3
 72
    72
 73
    68
 74
     0
 42
0.000000001
 43
0.0000000001
 40
0.0
 40
0.0
 40
0.0
 40
0.0
 40
0.0555555555555556
 40
0.0555555555555556
 40
0.0555555555555556
 40
0.0555555555555556
 40
0.1111111111111111
 40
0.1111111111111111
 40
0.1111111111111111
 40
0.1111111111111111
 40
0.1666666666666667
 40
0.1666666666666667
 40
0.1666666666666667
 40
0.1666666666666667
 40
0.2222222222222222
 40
0.2222222222222222
 40
0.2222222222222222
 40
0.2222222222222222
 40
0.2777777777777778
 40
0.2777777777777778
 40
0.2777777777777778
 40
0.2777777777777778
 40
0.3333333333333333
 40
0.3333333333333333
 40
0.3333333333333333
 40
0.3333333333333333
 40
0.3888888888888889
 40
0.3888888888888889
 40
0.3888888888888889
 40
0.3888888888888889
 40
0.4444444444444444
 40
0.4444444444444444
 40
0.4444444444444444
 40
0.4444444444444444
 40
0.5
 40
0.5
 40
0.5
 40
0.5
 40
0.5555555555555556
 40
0.5555555555555556
 40
0.5555555555555556
 40
0.5555555555555556
 40
0.6111111111111112
 40
0.6111111111111112
 40
0.6111111111111112
 40
0.6111111111111112
 40
0.6666666666666666
 40
0.6666666666666666
 40
0.6666666666666666
 40
0.6666666666666666
 40
0.7222222222222222
 40
0.7222222222222222
 40
0.7222222222222222
 40
0.7222222222222222
 40
0.7777777777777778
 40
0.7777777777777778
 40
0.7777777777777778
 40
0.7777777777777778
 40
0.8333333333333334
 40
0.8333333333333334
 40
0.8333333333333334
 40
0.8333333333333334
 40
0.8888888888888888
 40
0.8888888888888888
 40
0.8888888888888888
 40
0.8888888888888888
 40
1.0
 40
1.0
 40
1.0
 40
1.0
 10
-19.55282
 20
-35.83802
 30
0.0
 10
-19.55282
 20
-35.83802
 30
0.0
 10
-19.55282
 20
-30.63826
 30
0.0
 10
-19.55282
 20
-30.63826
 30
0.0
 10
-19.55282
 20
-30.63826
 30
0.0
 10
-19.55282
 20
-30.63826
 30
0.0
 10
-17.62789
 20
-30.63826
 30
0.0
 10
-17.62789
 20
-30.63826
 30
0.0
 10
-17.62789
 20
-30.63826
 30
0.0
 10
-17.62789
 20
-30.63826
 30
0.0
 10
-17.62789
 20
-30.03829
 30
0.0
 10
-17.62789
 20
-30.03829
 30
0.0
 10
-17.62789
 20
-30.03829
 30
0.0
 10
-17.62789
 20
-30.03829
 30
0.0
 10
-19.55282
 20
-30.03829
 30
0.0
 10
-19.55282
 20
-30.03829
 30
0.0
 10
-19.55282
 20
-30.03829
 30
0.0
 10
-19.55282
 20
-30.03829
 30
0.0
 10
-19.55282
 20
-22.18667
 30
0.0
 10
-19.55282
 20
-22.18667
 30
0.0
 10
-19.55282
 20
-22.18667
 30
0.0
 10
-18.58238
 20
-22.29031
 30
0.0
 10
-18.1479
 20
-23.56117
 30
0.0
 10
-17.92293
 20
-24.37547
 30
0.0
 10
-17.92293
 20
-24.37547
 30
0.0
 10
-17.45005
 20
-26.08741
 30
0.0
 10
-17.45217
 20
-25.85102
 30
0.0
 10
-16.46474
 20
-27.20562
 30
0.0
 10
-16.46474
 20
-27.20562
 30
0.0
 10
-15.74569
 20
-28.19209
 30
0.0
 10
-15.52654
 20
-29.7981
 30
0.0
 10
-15.64202
 20
-30.98644
 30
0.0
 10
-15.64202
 20
-30.98644
 30
0.0
 10
-15.70813
 20
-31.66681
 30
0.0
 10
-15.90719
 20
-32.18433
 30
0.0
 10
-16.07246
 20
-32.84798
 30
0.0
 10
-16.07246
 20
-32.84798
 30
0.0
 10
-16.23775
 20
-33.51165
 30
0.0
 10
-16.36928
 20
-34.32149
 30
0.0
 10
-16.44616
 20
-35.09227
 30
0.0
 10
-16.44616
 20
-35.09227
 30
0.0
 10
-16.52306
 20
-35.86306
 30
0.0
 10
-16.54528
 20
-36.59478
 30
0.0
 10
-16.60497
 20
-37.1394
 30
0.0
 10
-16.60497
 20
-37.1394
 30
0.0
 10
-16.78051
 20
-38.74036
 30
0.0
 10
-17.21668
 20
-38.82298
 30
0.0
 10
-18.1576
 20
-39.80155
 30
0.0
 10
-18.1576
 20
-39.80155
 30
0.0
 10
-18.69078
 20
-40.35607
 30
0.0
 10
-18.69054
 20
-40.5884
 30
0.0
 10
-19.55282
 20
-40.66761
 30
0.0
 10
-19.55282
 20
-40.66761
 30
0.0
 10
-19.55282
 20
-40.66761
 30
0.0
 10
-19.55282
 20
-36.43799
 30
0.0
 10
-19.55282
 20
-36.43799
 30
0.0
 10
-19.55282
 20
-36.43799
 30
0.0
 10
-19.55282
 20
-36.43799
 30
0.0
 10
-18.07289
 20
-36.43799
 30
0.0
 10
-18.07289
 20
-36.43799
 30
0.0
 10
-18.07289
 20
-36.43799
 30
0.0
 10
-18.07289
 20
-36.43799
 30
0.0
 10
-18.07289
 20
-35.83802
 30
0.0
 10
-18.07289
 20
-35.83802
 30
0.0
 10
-18.07289
 20
-35.83802
 30
0.0
 10
-18.07289
 20
-35.83802
 30
0.0
 10
-19.55282
 20
-35.83802
 30
0.0
 10
-19.55282
 20
-35.83802
 30
0.0
  0
SPLINE
  5
87
330
1F
100
AcDbEntity
  8
layer 1
 62
   250
370
     9
100
AcDbSpline
210
0.0
220
0.0
230
1.0
 70
    11
 71
     3
 72
    20
 73
    16
 74
     0
 42
0.000000001
 43
0.0000000001
 40
0.0
 40
0.0
 40
0.0
 40
0.0
 40
0.2
 40
0.2
 40
0.2
 40
0.2
 40
0.4
 40
0.4
 40
0.4
 40
0.4
 40
0.6
 40
0.6
 40
0.6
 40
0.6
 40
1.0
 40
1.0
 40
1.0
 40
1.0
 10
-18.26436
 20
-15.08144
 30
0.0
 10
-18.26436
 20
-15.08144
 30
0.0
 10
-14.26454
 20
-15.08144
 30
0.0
 10
-14.26454
 20
-15.08144
 30
0.0
 10
-14.26454
 20
-15.08144
 30
0.0
 10
-14.26454
 20
-15.08144
 30
0.0
 10
-14.26454
 20
-15.68141
 30
0.0
 10
-14.26454
 20
-15.68141
 30
0.0
 10
-14.26454
 20
-15.68141
 30
0.0
 10
-14.26454
 20
-15.68141
 30
0.0
 10
-18.26436
 20
-15.68141
 30
0.0
 10
-18.26436
 20
-15.68141
 30
0.0
 10
-18.26436
 20
-15.68141
 30
0.0
 10
-18.26436
 20
-15.68141
 30
0.0
 10
-18.26436
 20
-15.08144
 30
0.0
 10
-18.26436
 20
-15.08144
 30
0.0
  0
SPLINE
  5
88
330
1F
100
AcDbEntity
  8
layer 1
 62
   250
370
     9
100
AcDbSpline
210
0.0
220
0.0
230
1.0
 70
    11
 71
     3
 72
    44
 73
    40
 74
     0
 42
0.000000001
 43
0.0000000001
 40
0.0
 40
0.0
 40
0.0
 40
0.0
 40
0.0909090909090909
 40
0.0909090909090909
 40
0.0909090909090909
 40
0.0909090909090909
 40
0.1818181818181818
 40
0.1818181818181818
 40
0.1818181818181818
 40
0.1818181818181818
 40
0.2727272727272727
 40
0.2727272727272727
 40
0.2727272727272727
 40
0.2727272727272727
 40
0.3636363636363636
 40
0.3636363636363636
 40
0.3636363636363636
 40
0.3636363636363636
 40
0.4545454545454545
 40
0.4545454545454545
 40
0.4545454545454545
 40
0.4545454545454545
 40
0.5454545454545454
 40
0.5454545454545454
 40
0.5454545454545454
 40
0.5454545454545454
 40
0.6363636363636364
 40
0.6363636363636364
 40
0.6363636363636364
 40
0.6363636363636364
 40
0.7272727272727273
 40
0.7272727272727273
 40
0.7272727272727273
 40
0.7272727272727273
 40
0.8181818181818182
 40
0.8181818181818182
 40
0.8181818181818182
 40
0.8181818181818182
 40
1.0
 40
1.0
 40
1.0
 40
1.0
 10
-13.51204
 20
-15.38145
 30
0.0
 10
-13.51204
 20
-14.19492
 30
0.0
 10
-14.56165
 20
-13.76042
 30
0.0
 10
-15.58436
 20
-13.9167
 30
0.0
 10
-15.58436
 20
-13.9167
 30
0.0
 10
-15.81459
 20
-13.95187
 30
0.0
 10
-16.104
 20
-14.02221
 30
0.0
 10
-16.37342
 20
-14.05307
 30
0.0
 10
-16.37342
 20
-14.05307
 30
0.0
 10
-16.99116
 20
-14.12383
 30
0.0
 10
-17.2794
 20
-13.97241
 30
0.0
 10
-17.84394
 20
-13.82904
 30
0.0
 10
-17.84394
 20
-13.82904
 30
0.0
 10
-18.34367
 20
-13.70211
 30
0.0
 10
-18.90895
 20
-13.82056
 30
0.0
 10
-19.04356
 20
-14.39965
 30
0.0
 10
-19.04356
 20
-14.39965
 30
0.0
 10
-19.5046
 20
-14.48867
 30
0.0
 10
-19.8528
 20
-14.89441
 30
0.0
 10
-19.8528
 20
-15.38145
 30
0.0
 10
-19.8528
 20
-15.38145
 30
0.0
 10
-19.8528
 20
-15.86849
 30
0.0
 10
-19.5046
 20
-16.27423
 30
0.0
 10
-19.04356
 20
-16.36324
 30
0.0
 10
-19.04356
 20
-16.36324
 30
0.0
 10
-18.90895
 20
-16.94234
 30
0.0
 10
-18.34367
 20
-17.06079
 30
0.0
 10
-17.84394
 20
-16.93386
 30
0.0
 10
-17.84394
 20
-16.93386
 30
0.0
 10
-17.2794
 20
-16.79048
 30
0.0
 10
-16.99116
 20
-16.63907
 30
0.0
 10
-16.37342
 20
-16.70983
 30
0.0
 10
-16.37342
 20
-16.70983
 30
0.0
 10
-16.104
 20
-16.74068
 30
0.0
 10
-15.81459
 20
-16.81102
 30
0.0
 10
-15.58436
 20
-16.8462
 30
0.0
 10
-15.58436
 20
-16.8462
 30
0.0
 10
-14.56167
 20
-17.00247
 30
0.0
 10
-13.51204
 20
-16.56795
 30
0.0
 10
-13.51204
 20
-15.38145
 30
0.0
  0
SPLINE
  5
89
330
1F
100
AcDbEntity
  8
layer 1
 62
   250
370
     9
100
AcDbSpline
210
0.0
220
0.0
230
1.0
 70
    11
 71
     3
 72
   192
 73
   188
 74
     0
 42
0.000000001
 43
0.0000000001
 40
0.0
 40
0.0
 40
0.0
 40
0.0
 40
0.0208333333333333
 40
0.0208333333333333
 40
0.0208333333333333
 40
0.0208333333333333
 40
0.0416666666666667
 40
0.0416666666666667
 40
0.0416666666666667
 40
0.0416666666666667
 40
0.0625
 40
0.0625
 40
0.0625
 40
0.0625
 40
0.0833333333333333
 40
0.0833333333333333
 40
0.0833333333333333
 40
0.0833333333333333
 40
0.1041666666666667
 40
0.1041666666666667
 40
0.1041666666666667
 40
0.1041666666666667
 40
0.125
 40
0.125
 40
0.125
 40
0.125
 40
0.1458333333333333
 40
0.1458333333333333
 40
0.1458333333333333
 40
0.1458333333333333
 40
0.1666666666666667
 40
0.1666666666666667
 40
0.1666666666666667
 40
0.1666666666666667
 40
0.1875
 40
0.1875
 40
0.1875
 40
0.1875
 40
0.2083333333333333
 40
0.2083333333333333
 40
0.2083333333333333
 40
0.2083333333333333
 40
0.2291666666666667
 40
0.2291666666666667
 40
0.2291666666666667
 40
0.2291666666666667
 40
0.25
 40
0.25
 40
0.25
 40
0.25
 40
0.2708333333333333
 40
0.2708333333333333
 40
0.2708333333333333
 40
0.2708333333333333
 40
0.2916666666666667
 40
0.2916666666666667
 40
0.2916666666666667
 40
0.2916666666666667
 40
0.3125
 40
0.3125
 40
0.3125
 40
0.3125
 40
0.3333333333333333
 40
0.3333333333333333
 40
0.3333333333333333
 40
0.3333333333333333
 40
0.3541666666666667
 40
0.3541666666666667
 40
0.3541666666666667
 40
0.3541666666666667
 40
0.375
 40
0.375
 40
0.375
 40
0.375
 40
0.3958333333333333
 40
0.3958333333333333
 40
0.3958333333333333
 40
0.3958333333333333
 40
0.4166666666666667
 40
0.4166666666666667
 40
0.4166666666666667
 40
0.4166666666666667
 40
0.4375
 40
0.4375
 40
0.4375
 40
0.4375
 40
0.4583333333333333
 40
0.4583333333333333
 40
0.4583333333333333
 40
0.4583333333333333
 40
0.4791666666666667
 40
0.4791666666666667
 40
0.4791666666666667
 40
0.4791666666666667
 40
0.5
 40
0.5
 40
0.5
 40
0.5
 40
0.5208333333333334
 40
0.5208333333333334
 40
0.5208333333333334
 40
0.5208333333333334
 40
0.5416666666666666
 40
0.5416666666666666
 40
0.5416666666666666
 40
0.5416666666666666
 40
0.5625
 40
0.5625
 40
0.5625
 40
0.5625
 40
0.5833333333333334
 40
0.5833333333333334
 40
0.5833333333333334
 40
0.5833333333333334
 40
0.6041666666666666
 40
0.6041666666666666
 40
0.6041666666666666
 40
0.6041666666666666
 40
0.625
 40
0.625
 40
0.625
 40
0.625
 40
0.6458333333333334
 40
0.6458333333333334
 40
0.6458333333333334
 40
0.6458333333333334
 40
0.6666666666666666
 40
0.6666666666666666
 40
0.6666666666666666
 40
0.6666666666666666
 40
0.6875
 40
0.6875
 40
0.6875
 40
0.6875
 40
0.7083333333333334
 40
0.7083333333333334
 40
0.7083333333333334
 40
0.7083333333333334
 40
0.7291666666666666
 40
0.7291666666666666
 40
0.7291666666666666
 40
0.7291666666666666
 40
0.75
 40
0.75
 40
0.75
 40
0.75
 40
0.7708333333333334
 40
0.7708333333333334
 40
0.7708333333333334
 40
0.7708333333333334
 40
0.7916666666666666
 40
0.7916666666666666
 40
0.7916666666666666
 40
0.7916666666666666
 40
0.8125
 40
0.8125
 40
0.8125
 40
0.8125
 40
0.8333333333333334
 40
0.8333333333333334
 40
0.8333333333333334
 40
0.8333333333333334
 40
0.8541666666666666
 40
0.8541666666666666
 40
0.8541666666666666
 40
0.8541666666666666
 40
0.875
 40
0.875
 40
0.875
 40
0.875
 40
0.8958333333333334
 40
0.8958333333333334
 40
0.8958333333333334
 40
0.8958333333333334
 40
0.9166666666666666
 40
0.9166666666666666
 40
0.9166666666666666
 40
0.9166666666666666
 40
0.9375
 40
0.9375
 40
0.9375
 40
0.9375
 40
0.9583333333333334
 40
0.9583333333333334
 40
0.9583333333333334
 40
0.9583333333333334
 40
1.0
 40
1.0
 40
1.0
 40
1.0
 10
-47.06266
 20
-30.91143
 30
0.0
 10
-46.82141
 20
-30.90839
 30
0.0
 10
-46.58016
 20
-30.90533
 30
0.0
 10
-46.37359
 20
-30.89625
 30
0.0
 10
-46.37359
 20
-30.89625
 30
0.0
 10
-46.16704
 20
-30.88719
 30
0.0
 10
-45.99515
 20
-30.87211
 30
0.0
 10
-45.81904
 20
-30.86001
 30
0.0
 10
-45.81904
 20
-30.86001
 30
0.0
 10
-45.64292
 20
-30.84793
 30
0.0
 10
-45.46255
 20
-30.83883
 30
0.0
 10
-45.20606
 20
-30.84411
 30
0.0
 10
-45.20606
 20
-30.84411
 30
0.0
 10
-44.94958
 20
-30.84939
 30
0.0
 10
-44.61697
 20
-30.86905
 30
0.0
 10
-44.3312
 20
-30.96798
 30
0.0
 10
-44.3312
 20
-30.96798
 30
0.0
 10
-44.04546
 20
-31.06694
 30
0.0
 10
-43.80655
 20
-31.24521
 30
0.0
 10
-43.61628
 20
-31.48288
 30
0.0
 10
-43.61628
 20
-31.48288
 30
0.0
 10
-43.42601
 20
-31.72057
 30
0.0
 10
-43.28435
 20
-32.01771
 30
0.0
 10
-43.23018
 20
-32.38064
 30
0.0
 10
-43.23018
 20
-32.38064
 30
0.0
 10
-43.19708
 20
-32.60243
 30
0.0
 10
-43.19664
 20
-32.8488
 30
0.0
 10
-43.22058
 20
-33.1077
 30
0.0
 10
-43.22058
 20
-33.1077
 30
0.0
 10
-43.29939
 20
-32.63417
 30
0.0
 10
-43.71099
 20
-32.27314
 30
0.0
 10
-44.20691
 20
-32.27314
 30
0.0
 10
-44.20691
 20
-32.27314
 30
0.0
 10
-44.75916
 20
-32.27314
 30
0.0
 10
-45.20686
 20
-32.72082
 30
0.0
 10
-45.20686
 20
-33.2731
 30
0.0
 10
-45.20686
 20
-33.2731
 30
0.0
 10
-45.20686
 20
-33.82537
 30
0.0
 10
-44.75916
 20
-34.27305
 30
0.0
 10
-44.20691
 20
-34.27305
 30
0.0
 10
-44.20691
 20
-34.27305
 30
0.0
 10
-43.81915
 20
-34.27305
 30
0.0
 10
-43.48292
 20
-34.05236
 30
0.0
 10
-43.31705
 20
-33.72972
 30
0.0
 10
-43.31705
 20
-33.72972
 30
0.0
 10
-43.40181
 20
-34.1343
 30
0.0
 10
-43.52278
 20
-34.54194
 30
0.0
 10
-43.61106
 20
-34.87168
 30
0.0
 10
-43.61106
 20
-34.87168
 30
0.0
 10
-43.68937
 20
-35.16419
 30
0.0
 10
-43.76335
 20
-35.47151
 30
0.0
 10
-43.82273
 20
-35.76844
 30
0.0
 10
-43.82273
 20
-35.76844
 30
0.0
 10
-43.82273
 20
-35.76844
 30
0.0
 10
-45.28274
 20
-35.76844
 30
0.0
 10
-45.28274
 20
-35.76844
 30
0.0
 10
-45.28274
 20
-35.76844
 30
0.0
 10
-45.28274
 20
-35.76844
 30
0.0
 10
-45.28274
 20
-36.36841
 30
0.0
 10
-45.28274
 20
-36.36841
 30
0.0
 10
-45.28274
 20
-36.36841
 30
0.0
 10
-45.28274
 20
-36.36841
 30
0.0
 10
-43.93358
 20
-36.36841
 30
0.0
 10
-43.93358
 20
-36.36841
 30
0.0
 10
-43.93358
 20
-36.36841
 30
0.0
 10
-43.96286
 20
-36.55092
 30
0.0
 10
-43.98288
 20
-36.72294
 30
0.0
 10
-43.98334
 20
-36.87609
 30
0.0
 10
-43.98334
 20
-36.87609
 30
0.0
 10
-43.9846
 20
-37.29457
 30
0.0
 10
-44.07524
 20
-37.87272
 30
0.0
 10
-44.21545
 20
-38.22619
 30
0.0
 10
-44.21545
 20
-38.22619
 30
0.0
 10
-44.35566
 20
-38.57965
 30
0.0
 10
-44.68635
 20
-38.84956
 30
0.0
 10
-45.02737
 20
-39.01621
 30
0.0
 10
-45.02737
 20
-39.01621
 30
0.0
 10
-45.36842
 20
-39.18288
 30
0.0
 10
-45.71978
 20
-39.24628
 30
0.0
 10
-45.98697
 20
-39.29466
 30
0.0
 10
-45.98697
 20
-39.29466
 30
0.0
 10
-46.25416
 20
-39.34303
 30
0.0
 10
-46.43715
 20
-39.37635
 30
0.0
 10
-46.58686
 20
-39.40969
 30
0.0
 10
-46.58686
 20
-39.40969
 30
0.0
 10
-46.65282
 20
-39.42437
 30
0.0
 10
-46.71059
 20
-39.43685
 30
0.0
 10
-46.76267
 20
-39.44709
 30
0.0
 10
-46.76267
 20
-39.44709
 30
0.0
 10
-46.76267
 20
-39.44709
 30
0.0
 10
-46.76267
 20
-35.76844
 30
0.0
 10
-46.76267
 20
-35.76844
 30
0.0
 10
-46.76267
 20
-35.76844
 30
0.0
 10
-46.76267
 20
-35.76844
 30
0.0
 10
-47.36264
 20
-35.76844
 30
0.0
 10
-47.36264
 20
-35.76844
 30
0.0
 10
-47.36264
 20
-35.76844
 30
0.0
 10
-47.36264
 20
-35.76844
 30
0.0
 10
-47.36264
 20
-39.44709
 30
0.0
 10
-47.36264
 20
-39.44709
 30
0.0
 10
-47.36264
 20
-39.44709
 30
0.0
 10
-47.41472
 20
-39.43685
 30
0.0
 10
-47.47252
 20
-39.42437
 30
0.0
 10
-47.53846
 20
-39.40969
 30
0.0
 10
-47.53846
 20
-39.40969
 30
0.0
 10
-47.68817
 20
-39.37635
 30
0.0
 10
-47.87116
 20
-39.34303
 30
0.0
 10
-48.13835
 20
-39.29466
 30
0.0
 10
-48.13835
 20
-39.29466
 30
0.0
 10
-48.40554
 20
-39.24628
 30
0.0
 10
-48.7569
 20
-39.18288
 30
0.0
 10
-49.09794
 20
-39.01621
 30
0.0
 10
-49.09794
 20
-39.01621
 30
0.0
 10
-49.43897
 20
-38.84956
 30
0.0
 10
-49.76965
 20
-38.57965
 30
0.0
 10
-49.90987
 20
-38.22619
 30
0.0
 10
-49.90987
 20
-38.22619
 30
0.0
 10
-50.05008
 20
-37.87272
 30
0.0
 10
-50.14069
 20
-37.29457
 30
0.0
 10
-50.14197
 20
-36.87609
 30
0.0
 10
-50.14197
 20
-36.87609
 30
0.0
 10
-50.14243
 20
-36.72292
 30
0.0
 10
-50.16247
 20
-36.55094
 30
0.0
 10
-50.19173
 20
-36.36841
 30
0.0
 10
-50.19173
 20
-36.36841
 30
0.0
 10
-50.19173
 20
-36.36841
 30
0.0
 10
-48.84257
 20
-36.36841
 30
0.0
 10
-48.84257
 20
-36.36841
 30
0.0
 10
-48.84257
 20
-36.36841
 30
0.0
 10
-48.84257
 20
-36.36841
 30
0.0
 10
-48.84257
 20
-35.76844
 30
0.0
 10
-48.84257
 20
-35.76844
 30
0.0
 10
-48.84257
 20
-35.76844
 30
0.0
 10
-48.84257
 20
-35.76844
 30
0.0
 10
-50.30259
 20
-35.76844
 30
0.0
 10
-50.30259
 20
-35.76844
 30
0.0
 10
-50.30259
 20
-35.76844
 30
0.0
 10
-50.36196
 20
-35.47151
 30
0.0
 10
-50.43594
 20
-35.16419
 30
0.0
 10
-50.51426
 20
-34.87168
 30
0.0
 10
-50.51426
 20
-34.87168
 30
0.0
 10
-50.60253
 20
-34.54194
 30
0.0
 10
-50.72351
 20
-34.13432
 30
0.0
 10
-50.80826
 20
-33.72972
 30
0.0
 10
-50.80826
 20
-33.72972
 30
0.0
 10
-50.64237
 20
-34.05234
 30
0.0
 10
-50.30617
 20
-34.27305
 30
0.0
 10
-49.9184
 20
-34.27305
 30
0.0
 10
-49.9184
 20
-34.27305
 30
0.0
 10
-49.36613
 20
-34.27305
 30
0.0
 10
-48.91845
 20
-33.82537
 30
0.0
 10
-48.91845
 20
-33.2731
 30
0.0
 10
-48.91845
 20
-33.2731
 30
0.0
 10
-48.91845
 20
-32.72082
 30
0.0
 10
-49.36613
 20
-32.27314
 30
0.0
 10
-49.9184
 20
-32.27314
 30
0.0
 10
-49.9184
 20
-32.27314
 30
0.0
 10
-50.41434
 20
-32.27314
 30
0.0
 10
-50.82592
 20
-32.63415
 30
0.0
 10
-50.90474
 20
-33.10768
 30
0.0
 10
-50.90474
 20
-33.10768
 30
0.0
 10
-50.92868
 20
-32.8488
 30
0.0
 10
-50.92824
 20
-32.60243
 30
0.0
 10
-50.89514
 20
-32.38064
 30
0.0
 10
-50.89514
 20
-32.38064
 30
0.0
 10
-50.84096
 20
-32.01771
 30
0.0
 10
-50.69931
 20
-31.72057
 30
0.0
 10
-50.50904
 20
-31.48288
 30
0.0
 10
-50.50904
 20
-31.48288
 30
0.0
 10
-50.31877
 20
-31.24521
 30
0.0
 10
-50.07986
 20
-31.06694
 30
0.0
 10
-49.79411
 20
-30.96798
 30
0.0
 10
-49.79411
 20
-30.96798
 30
0.0
 10
-49.50834
 20
-30.86905
 30
0.0
 10
-49.17574
 20
-30.84939
 30
0.0
 10
-48.91925
 20
-30.84411
 30
0.0
 10
-48.91925
 20
-30.84411
 30
0.0
 10
-48.66276
 20
-30.83883
 30
0.0
 10
-48.48239
 20
-30.84793
 30
0.0
 10
-48.30628
 20
-30.86001
 30
0.0
 10
-48.30628
 20
-30.86001
 30
0.0
 10
-48.13017
 20
-30.87211
 30
0.0
 10
-47.95828
 20
-30.88719
 30
0.0
 10
-47.75173
 20
-30.89625
 30
0.0
 10
-47.75173
 20
-30.89625
 30
0.0
 10
-47.54516
 20
-30.90533
 30
0.0
 10
-47.30391
 20
-30.90839
 30
0.0
 10
-47.06266
 20
-30.91143
 30
0.0
  0
SPLINE
  5
8A
330
1F
100
AcDbEntity
  8
layer 1
 62
   250
370
     9
100
AcDbSpline
210
0.0
220
0.0
230
1.0
 70
    11
 71
     3
 72
   256
 73
   252
 74
     0
 42
0.000000001
 43
0.0000000001
 40
0.0
 40
0.0
 40
0.0
 40
0.0
 40
0.015625
 40
0.015625
 40
0.015625
 40
0.015625
 40
0.03125
 40
0.03125
 40
0.03125
 40
0.03125
 40
0.046875
 40
0.046875
 40
0.046875
 40
0.046875
 40
0.0625
 40
0.0625
 40
0.0625
 40
0.0625
 40
0.078125
 40
0.078125
 40
0.078125
 40
0.078125
 40
0.09375
 40
0.09375
 40
0.09375
 40
0.09375
 40
0.109375
 40
0.109375
 40
0.109375
 40
0.109375
 40
0.125
 40
0.125
 40
0.125
 40
0.125
 40
0.140625
 40
0.140625
 40
0.140625
 40
0.140625
 40
0.15625
 40
0.15625
 40
0.15625
 40
0.15625
 40
0.171875
 40
0.171875
 40
0.171875
 40
0.171875
 40
0.1875
 40
0.1875
 40
0.1875
 40
0.1875
 40
0.203125
 40
0.203125
 40
0.203125
 40
0.203125
 40
0.21875
 40
0.21875
 40
0.21875
 40
0.21875
 40
0.234375
 40
0.234375
 40
0.234375
 40
0.234375
 40
0.25
 40
0.25
 40
0.25
 40
0.25
 40
0.265625
 40
0.265625
 40
0.265625
 40
0.265625
 40
0.28125
 40
0.28125
 40
0.28125
 40
0.28125
 40
0.296875
 40
0.296875
 40
0.296875
 40
0.296875
 40
0.3125
 40
0.3125
 40
0.3125
 40
0.3125
 40
0.328125
 40
0.328125
 40
0.328125
 40
0.328125
 40
0.34375
 40
0.34375
 40
0.34375
 40
0.34375
 40
0.359375
 40
0.359375
 40
0.359375
 40
0.359375
 40
0.375
 40
0.375
 40
0.375
 40
0.375
 40
0.390625
 40
0.390625
 40
0.390625
 40
0.390625
 40
0.40625
 40
0.40625
 40
0.40625
 40
0.40625
 40
0.421875
 40
0.421875
 40
0.421875
 40
0.421875
 40
0.4375
 40
0.4375
 40
0.4375
 40
0.4375
 40
0.453125
 40
0.453125
 40
0.453125
 40
0.453125
 40
0.46875
 40
0.46875
 40
0.46875
 40
0.46875
 40
0.484375
 40
0.484375
 40
0.484375
 40
0.484375
 40
0.5
 40
0.5
 40
0.5
 40
0.5
 40
0.515625
 40
0.515625
 40
0.515625
 40
0.515625
 40
0.53125
 40
0.53125
 40
0.53125
 40
0.53125
 40
0.546875
 40
0.546875
 40
0.546875
 40
0.546875
 40
0.5625
 40
0.5625
 40
0.5625
 40
0.5625
 40
0.578125
 40
0.578125
 40
0.578125
 40
0.578125
 40
0.59375
 40
0.59375
 40
0.59375
 40
0.59375
 40
0.609375
 40
0.609375
 40
0.609375
 40
0.609375
 40
0.625
 40
0.625
 40
0.625
 40
0.625
 40
0.640625
 40
0.640625
 40
0.640625
 40
0.640625
 40
0.65625
 40
0.65625
 40
0.65625
 40
0.65625
 40
0.671875
 40
0.671875
 40
0.671875
 40
0.671875
 40
0.6875
 40
0.6875
 40
0.6875
 40
0.6875
 40
0.703125
 40
0.703125
 40
0.703125
 40
0.703125
 40
0.71875
 40
0.71875
 40
0.71875
 40
0.71875
 40
0.734375
 40
0.734375
 40
0.734375
 40
0.734375
 40
0.75
 40
0.75
 40
0.75
 40
0.75
 40
0.765625
 40
0.765625
 40
0.765625
 40
0.765625
 40
0.78125
 40
0.78125
 40
0.78125
 40
0.78125
 40
0.796875
 40
0.796875
 40
0.796875
 40
0.796875
 40
0.8125
 40
0.8125
 40
0.8125
 40
0.8125
 40
0.828125
 40
0.828125
 40
0.828125
 40
0.828125
 40
0.84375
 40
0.84375
 40
0.84375
 40
0.84375
 40
0.859375
 40
0.859375
 40
0.859375
 40
0.859375
 40
0.875
 40
0.875
 40
0.875
 40
0.875
 40
0.890625
 40
0.890625
 40
0.890625
 40
0.890625
 40
0.90625
 40
0.90625
 40
0.90625
 40
0.90625
 40
0.921875
 40
0.921875
 40
0.921875
 40
0.921875
 40
0.9375
 40
0.9375
 40
0.9375
 40
0.9375
 40
0.953125
 40
0.953125
 40
0.953125
 40
0.953125
 40
0.96875
 40
0.96875
 40
0.96875
 40
0.96875
 40
1.0
 40
1.0
 40
1.0
 40
1.0
 10
-49.63432
 20
-10.7745
 30
0.0
 10
-49.63432
 20
-10.7745
 30
0.0
 10
-49.63432
 20
-11.37447
 30
0.0
 10
-49.63432
 20
-11.37447
 30
0.0
 10
-49.63432
 20
-11.37447
 30
0.0
 10
-49.63432
 20
-11.37447
 30
0.0
 10
-53.63413
 20
-11.37447
 30
0.0
 10
-53.63413
 20
-11.37447
 30
0.0
 10
-53.63413
 20
-11.37447
 30
0.0
 10
-53.63413
 20
-11.37447
 30
0.0
 10
-53.63413
 20
-10.7745
 30
0.0
 10
-53.63413
 20
-10.7745
 30
0.0
 10
-53.63413
 20
-10.7745
 30
0.0
 10
-53.63413
 20
-10.7745
 30
0.0
 10
-54.22262
 20
-10.7745
 30
0.0
 10
-54.22262
 20
-10.7745
 30
0.0
 10
-54.22262
 20
-10.7745
 30
0.0
 10
-54.48835
 20
-9.78549
 30
0.0
 10
-53.91836
 20
-9.03814
 30
0.0
 10
-52.82743
 20
-9.17454
 30
0.0
 10
-52.82743
 20
-9.17454
 30
0.0
 10
-52.56078
 20
-9.20785
 30
0.0
 10
-52.36077
 20
-9.29119
 30
0.0
 10
-52.24412
 20
-9.31619
 30
0.0
 10
-52.24412
 20
-9.31619
 30
0.0
 10
-52.12746
 20
-9.34119
 30
0.0
 10
-51.8057
 20
-9.30215
 30
0.0
 10
-51.74738
 20
-9.08552
 30
0.0
 10
-51.74738
 20
-9.08552
 30
0.0
 10
-51.51969
 20
-8.23982
 30
0.0
 10
-51.48919
 20
-7.11151
 30
0.0
 10
-51.50063
 20
-6.24133
 30
0.0
 10
-51.50063
 20
-6.24133
 30
0.0
 10
-51.51443
 20
-5.1902
 30
0.0
 10
-51.81796
 20
-3.84316
 30
0.0
 10
-52.68578
 20
-3.13316
 30
0.0
 10
-52.68578
 20
-3.13316
 30
0.0
 10
-53.82202
 20
-2.2035
 30
0.0
 10
-55.89305
 20
-1.32646
 30
0.0
 10
-57.26888
 20
-0.37495
 30
0.0
 10
-57.26888
 20
-0.37495
 30
0.0
 10
-58.66968
 20
0.59381
 30
0.0
 10
-59.59236
 20
1.31876
 30
0.0
 10
-60.56139
 20
2.71175
 30
0.0
 10
-60.56139
 20
2.71175
 30
0.0
 10
-62.11656
 20
4.94721
 30
0.0
 10
-63.68531
 20
4.25654
 30
0.0
 10
-65.69349
 20
3.18323
 30
0.0
 10
-65.69349
 20
3.18323
 30
0.0
 10
-67.16032
 20
2.39923
 30
0.0
 10
-69.75786
 20
1.45973
 30
0.0
 10
-71.35991
 20
1.50831
 30
0.0
 10
-71.35991
 20
1.50831
 30
0.0
 10
-72.05674
 20
1.52941
 30
0.0
 10
-73.05523
 20
1.69742
 30
0.0
 10
-73.65146
 20
2.08328
 30
0.0
 10
-73.65146
 20
2.08328
 30
0.0
 10
-73.89279
 20
2.23941
 30
0.0
 10
-73.94859
 20
2.27981
 30
0.0
 10
-74.03478
 20
1.88329
 30
0.0
 10
-74.03478
 20
1.88329
 30
0.0
 10
-74.17804
 20
1.22418
 30
0.0
 10
-73.95943
 20
-0.27121
 30
0.0
 10
-73.85145
 20
-0.95824
 30
0.0
 10
-73.85145
 20
-0.95824
 30
0.0
 10
-73.67084
 20
-2.1077
 30
0.0
 10
-73.52973
 20
-2.51755
 30
0.0
 10
-73.99405
 20
-3.65035
 30
0.0
 10
-73.99405
 20
-3.65035
 30
0.0
 10
-74.16164
 20
-4.05923
 30
0.0
 10
-74.36347
 20
-4.44366
 30
0.0
 10
-74.53012
 20
-5.05197
 30
0.0
 10
-74.53012
 20
-5.05197
 30
0.0
 10
-74.90164
 20
-6.40793
 30
0.0
 10
-74.81907
 20
-7.35086
 30
0.0
 10
-74.9264
 20
-8.66622
 30
0.0
 10
-74.9264
 20
-8.66622
 30
0.0
 10
-74.9923
 20
-9.4732
 30
0.0
 10
-75.20973
 20
-10.22449
 30
0.0
 10
-75.72373
 20
-10.7745
 30
0.0
 10
-75.72373
 20
-10.7745
 30
0.0
 10
-75.72373
 20
-10.7745
 30
0.0
 10
-76.31222
 20
-10.7745
 30
0.0
 10
-76.31222
 20
-10.7745
 30
0.0
 10
-76.31222
 20
-10.7745
 30
0.0
 10
-76.31222
 20
-10.7745
 30
0.0
 10
-76.31222
 20
-11.37447
 30
0.0
 10
-76.31222
 20
-11.37447
 30
0.0
 10
-76.31222
 20
-11.37447
 30
0.0
 10
-76.31222
 20
-11.37447
 30
0.0
 10
-80.31203
 20
-11.37447
 30
0.0
 10
-80.31203
 20
-11.37447
 30
0.0
 10
-80.31203
 20
-11.37447
 30
0.0
 10
-80.31203
 20
-11.37447
 30
0.0
 10
-80.31203
 20
-10.7745
 30
0.0
 10
-80.31203
 20
-10.7745
 30
0.0
 10
-80.31203
 20
-10.7745
 30
0.0
 10
-80.31203
 20
-10.7745
 30
0.0
 10
-80.90052
 20
-10.7745
 30
0.0
 10
-80.90052
 20
-10.7745
 30
0.0
 10
-80.90052
 20
-10.7745
 30
0.0
 10
-81.4371
 20
-9.83549
 30
0.0
 10
-80.82147
 20
-8.98083
 30
0.0
 10
-79.58139
 20
-9.0335
 30
0.0
 10
-79.58139
 20
-9.0335
 30
0.0
 10
-79.13983
 20
-9.05226
 30
0.0
 10
-78.64807
 20
-9.28539
 30
0.0
 10
-78.58723
 20
-8.93553
 30
0.0
 10
-78.58723
 20
-8.93553
 30
0.0
 10
-78.44414
 20
-8.11287
 30
0.0
 10
-78.28645
 20
-6.00854
 30
0.0
 10
-78.50958
 20
-5.18304
 30
0.0
 10
-78.50958
 20
-5.18304
 30
0.0
 10
-78.59289
 20
-4.87474
 30
0.0
 10
-78.72623
 20
-4.47475
 30
0.0
 10
-78.80122
 20
-4.06643
 30
0.0
 10
-78.80122
 20
-4.06643
 30
0.0
 10
-78.87622
 20
-3.65813
 30
0.0
 10
-78.8929
 20
-3.24147
 30
0.0
 10
-78.88456
 20
-2.80815
 30
0.0
 10
-78.88456
 20
-2.80815
 30
0.0
 10
-78.87622
 20
-2.37485
 30
0.0
 10
-78.8429
 20
-1.92487
 30
0.0
 10
-78.87622
 20
-1.46655
 30
0.0
 10
-78.87622
 20
-1.46655
 30
0.0
 10
-78.939
 20
-0.60355
 30
0.0
 10
-79.18466
 20
0.24317
 30
0.0
 10
-79.60936
 20
0.99673
 30
0.0
 10
-79.60936
 20
0.99673
 30
0.0
 10
-79.86769
 20
1.45503
 30
0.0
 10
-80.26359
 20
2.065
 30
0.0
 10
-80.59486
 20
2.60328
 30
0.0
 10
-80.59486
 20
2.60328
 30
0.0
 10
-81.25033
 20
3.66837
 30
0.0
 10
-81.57223
 20
4.65366
 30
0.0
 10
-81.99855
 20
5.76263
 30
0.0
 10
-81.99855
 20
5.76263
 30
0.0
 10
-82.65122
 20
7.46045
 30
0.0
 10
-82.89745
 20
7.41935
 30
0.0
 10
-83.2509
 20
9.22471
 30
0.0
 10
-83.2509
 20
9.22471
 30
0.0
 10
-83.2509
 20
9.22471
 30
0.0
 10
-79.15645
 20
9.22471
 30
0.0
 10
-79.15645
 20
9.22471
 30
0.0
 10
-79.15645
 20
9.22471
 30
0.0
 10
-79.15645
 20
9.22471
 30
0.0
 10
-79.15645
 20
9.82468
 30
0.0
 10
-79.15645
 20
9.82468
 30
0.0
 10
-79.15645
 20
9.82468
 30
0.0
 10
-79.15645
 20
9.82468
 30
0.0
 10
-83.36055
 20
9.82468
 30
0.0
 10
-83.36055
 20
9.82468
 30
0.0
 10
-83.36055
 20
9.82468
 30
0.0
 10
-83.40165
 20
10.06367
 30
0.0
 10
-83.44461
 20
10.32846
 30
0.0
 10
-83.49004
 20
10.62356
 30
0.0
 10
-83.49004
 20
10.62356
 30
0.0
 10
-83.97578
 20
13.777
 30
0.0
 10
-85.37968
 20
18.21077
 30
0.0
 10
-80.30115
 20
18.16587
 30
0.0
 10
-80.30115
 20
18.16587
 30
0.0
 10
-79.29506
 20
18.15695
 30
0.0
 10
-78.31325
 20
17.9589
 30
0.0
 10
-77.35963
 20
17.6559
 30
0.0
 10
-77.35963
 20
17.6559
 30
0.0
 10
-77.35963
 20
17.6559
 30
0.0
 10
-77.35963
 20
4.22492
 30
0.0
 10
-77.35963
 20
4.22492
 30
0.0
 10
-77.35963
 20
4.22492
 30
0.0
 10
-77.35963
 20
4.22492
 30
0.0
 10
-76.75966
 20
4.22492
 30
0.0
 10
-76.75966
 20
4.22492
 30
0.0
 10
-76.75966
 20
4.22492
 30
0.0
 10
-76.75966
 20
4.22492
 30
0.0
 10
-76.75966
 20
17.45081
 30
0.0
 10
-76.75966
 20
17.45081
 30
0.0
 10
-76.75966
 20
17.45081
 30
0.0
 10
-75.98151
 20
17.16686
 30
0.0
 10
-75.22311
 20
16.82334
 30
0.0
 10
-74.48672
 20
16.46777
 30
0.0
 10
-74.48672
 20
16.46777
 30
0.0
 10
-71.19566
 20
14.87865
 30
0.0
 10
-68.99398
 20
13.80566
 30
0.0
 10
-65.27219
 20
13.96847
 30
0.0
 10
-65.27219
 20
13.96847
 30
0.0
 10
-62.72143
 20
14.08002
 30
0.0
 10
-60.04745
 20
14.80221
 30
0.0
 10
-57.58779
 20
14.80221
 30
0.0
 10
-57.58779
 20
14.80221
 30
0.0
 10
-57.37694
 20
14.80221
 30
0.0
 10
-57.16763
 20
14.79585
 30
0.0
 10
-56.96058
 20
14.78297
 30
0.0
 10
-56.96058
 20
14.78297
 30
0.0
 10
-56.96058
 20
14.78297
 30
0.0
 10
-56.9606
 20
6.77438
 30
0.0
 10
-56.9606
 20
6.77438
 30
0.0
 10
-56.9606
 20
6.77438
 30
0.0
 10
-56.9606
 20
6.77438
 30
0.0
 10
-56.36061
 20
6.77438
 30
0.0
 10
-56.36061
 20
6.77438
 30
0.0
 10
-56.36061
 20
6.77438
 30
0.0
 10
-56.36061
 20
6.77438
 30
0.0
 10
-56.36061
 20
14.72615
 30
0.0
 10
-56.36061
 20
14.72615
 30
0.0
 10
-56.36061
 20
14.72615
 30
0.0
 10
-53.75027
 20
14.39099
 30
0.0
 10
-51.62077
 20
12.92278
 30
0.0
 10
-51.41688
 20
9.82468
 30
0.0
 10
-51.41688
 20
9.82468
 30
0.0
 10
-51.41688
 20
9.82468
 30
0.0
 10
-55.00943
 20
9.82468
 30
0.0
 10
-55.00943
 20
9.82468
 30
0.0
 10
-55.00943
 20
9.82468
 30
0.0
 10
-55.00943
 20
9.82468
 30
0.0
 10
-55.00943
 20
9.22471
 30
0.0
 10
-55.00943
 20
9.22471
 30
0.0
 10
-55.00943
 20
9.22471
 30
0.0
 10
-55.00943
 20
9.22471
 30
0.0
 10
-51.40484
 20
9.22471
 30
0.0
 10
-51.40484
 20
9.22471
 30
0.0
 10
-51.40484
 20
9.22471
 30
0.0
 10
-51.41102
 20
7.87005
 30
0.0
 10
-51.35846
 20
6.85336
 30
0.0
 10
-50.94282
 20
5.40619
 30
0.0
 10
-50.94282
 20
5.40619
 30
0.0
 10
-50.48568
 20
3.81452
 30
0.0
 10
-49.59792
 20
2.26961
 30
0.0
 10
-48.73774
 20
0.85508
 30
0.0
 10
-48.73774
 20
0.85508
 30
0.0
 10
-48.30266
 20
0.13959
 30
0.0
 10
-47.29911
 20
-1.22265
 30
0.0
 10
-47.11104
 20
-1.97487
 30
0.0
 10
-47.11104
 20
-1.97487
 30
0.0
 10
-46.9091
 20
-2.78257
 30
0.0
 10
-47.39018
 20
-3.31341
 30
0.0
 10
-47.61935
 20
-4.04144
 30
0.0
 10
-47.61935
 20
-4.04144
 30
0.0
 10
-48.37118
 20
-6.42986
 30
0.0
 10
-48.24832
 20
-6.22433
 30
0.0
 10
-48.36662
 20
-8.94517
 30
0.0
 10
-48.36662
 20
-8.94517
 30
0.0
 10
-48.38328
 20
-9.32845
 30
0.0
 10
-48.42765
 20
-9.8745
 30
0.0
 10
-48.54179
 20
-10.12449
 30
0.0
 10
-48.54179
 20
-10.12449
 30
0.0
 10
-48.65592
 20
-10.37448
 30
0.0
 10
-48.85087
 20
-10.57449
 30
0.0
 10
-49.04583
 20
-10.7745
 30
0.0
 10
-49.04583
 20
-10.7745
 30
0.0
 10
-49.04583
 20
-10.7745
 30
0.0
 10
-49.63432
 20
-10.7745
 30
0.0
 10
-49.63432
 20
-10.7745
 30
0.0
  0
SPLINE
  5
8B
330
1F
100
AcDbEntity
  8
layer 1
 62
   250
370
     9
100
AcDbSpline
210
0.0
220
0.0
230
1.0
 70
    11
 71
     3
 72
    20
 73
    16
 74
     0
 42
0.000000001
 43
0.0000000001
 40
0.0
 40
0.0
 40
0.0
 40
0.0
 40
0.2
 40
0.2
 40
0.2
 40
0.2
 40
0.4
 40
0.4
 40
0.4
 40
0.4
 40
0.6
 40
0.6
 40
0.6
 40
0.6
 40
1.0
 40
1.0
 40
1.0
 40
1.0
 10
-74.80975
 20
9.22471
 30
0.0
 10
-74.80975
 20
9.22471
 30
0.0
 10
-74.80975
 20
9.82468
 30
0.0
 10
-74.80975
 20
9.82468
 30
0.0
 10
-74.80975
 20
9.82468
 30
0.0
 10
-74.80975
 20
9.82468
 30
0.0
 10
-68.81003
 20
9.82468
 30
0.0
 10
-68.81003
 20
9.82468
 30
0.0
 10
-68.81003
 20
9.82468
 30
0.0
 10
-68.81003
 20
9.82468
 30
0.0
 10
-68.81003
 20
9.22471
 30
0.0
 10
-68.81003
 20
9.22471
 30
0.0
 10
-68.81003
 20
9.22471
 30
0.0
 10
-68.81003
 20
9.22471
 30
0.0
 10
-74.80975
 20
9.22471
 30
0.0
 10
-74.80975
 20
9.22471
 30
0.0
  0
SPLINE
  5
8C
330
1F
100
AcDbEntity
  8
layer 1
 62
   250
370
     9
100
AcDbSpline
210
0.0
220
0.0
230
1.0
 70
    11
 71
     3
 72
    20
 73
    16
 74
     0
 42
0.000000001
 43
0.0000000001
 40
0.0
 40
0.0
 40
0.0
 40
0.0
 40
0.2
 40
0.2
 40
0.2
 40
0.2
 40
0.4
 40
0.4
 40
0.4
 40
0.4
 40
0.6
 40
0.6
 40
0.6
 40
0.6
 40
1.0
 40
1.0
 40
1.0
 40
1.0
 10
-64.91021
 20
9.22471
 30
0.0
 10
-64.91021
 20
9.22471
 30
0.0
 10
-64.91021
 20
9.82468
 30
0.0
 10
-64.91021
 20
9.82468
 30
0.0
 10
-64.91021
 20
9.82468
 30
0.0
 10
-64.91021
 20
9.82468
 30
0.0
 10
-58.91049
 20
9.82468
 30
0.0
 10
-58.91049
 20
9.82468
 30
0.0
 10
-58.91049
 20
9.82468
 30
0.0
 10
-58.91049
 20
9.82468
 30
0.0
 10
-58.91049
 20
9.22471
 30
0.0
 10
-58.91049
 20
9.22471
 30
0.0
 10
-58.91049
 20
9.22471
 30
0.0
 10
-58.91049
 20
9.22471
 30
0.0
 10
-64.91021
 20
9.22471
 30
0.0
 10
-64.91021
 20
9.22471
 30
0.0
  0
SPLINE
  5
8D
330
1F
100
AcDbEntity
  8
layer 1
 62
   250
370
     9
100
AcDbSpline
210
0.0
220
0.0
230
1.0
 70
    11
 71
     3
 72
    52
 73
    48
 74
     0
 42
0.000000001
 43
0.0000000001
 40
0.0
 40
0.0
 40
0.0
 40
0.0
 40
0.0769230769230769
 40
0.0769230769230769
 40
0.0769230769230769
 40
0.0769230769230769
 40
0.1538461538461539
 40
0.1538461538461539
 40
0.1538461538461539
 40
0.1538461538461539
 40
0.2307692307692308
 40
0.2307692307692308
 40
0.2307692307692308
 40
0.2307692307692308
 40
0.3076923076923077
 40
0.3076923076923077
 40
0.3076923076923077
 40
0.3076923076923077
 40
0.3846153846153846
 40
0.3846153846153846
 40
0.3846153846153846
 40
0.3846153846153846
 40
0.4615384615384616
 40
0.4615384615384616
 40
0.4615384615384616
 40
0.4615384615384616
 40
0.5384615384615384
 40
0.5384615384615384
 40
0.5384615384615384
 40
0.5384615384615384
 40
0.6153846153846154
 40
0.6153846153846154
 40
0.6153846153846154
 40
0.6153846153846154
 40
0.6923076923076923
 40
0.6923076923076923
 40
0.6923076923076923
 40
0.6923076923076923
 40
0.7692307692307693
 40
0.7692307692307693
 40
0.7692307692307693
 40
0.7692307692307693
 40
0.8461538461538461
 40
0.8461538461538461
 40
0.8461538461538461
 40
0.8461538461538461
 40
1.0
 40
1.0
 40
1.0
 40
1.0
 10
-77.35963
 20
-15.68139
 30
0.0
 10
-77.35963
 20
-15.68139
 30
0.0
 10
-80.31203
 20
-15.68139
 30
0.0
 10
-80.31203
 20
-15.68139
 30
0.0
 10
-80.31203
 20
-15.68139
 30
0.0
 10
-80.31203
 20
-15.68139
 30
0.0
 10
-80.31203
 20
-15.08142
 30
0.0
 10
-80.31203
 20
-15.08142
 30
0.0
 10
-80.31203
 20
-15.08142
 30
0.0
 10
-80.31203
 20
-15.08142
 30
0.0
 10
-77.35963
 20
-15.08142
 30
0.0
 10
-77.35963
 20
-15.08142
 30
0.0
 10
-77.35963
 20
-15.08142
 30
0.0
 10
-77.35963
 20
-15.08142
 30
0.0
 10
-77.35963
 20
-14.38147
 30
0.0
 10
-77.35963
 20
-14.38147
 30
0.0
 10
-77.35963
 20
-14.38147
 30
0.0
 10
-77.35963
 20
-14.38147
 30
0.0
 10
-76.75966
 20
-14.38147
 30
0.0
 10
-76.75966
 20
-14.38147
 30
0.0
 10
-76.75966
 20
-14.38147
 30
0.0
 10
-76.75966
 20
-14.38147
 30
0.0
 10
-76.75966
 20
-15.08142
 30
0.0
 10
-76.75966
 20
-15.08142
 30
0.0
 10
-76.75966
 20
-15.08142
 30
0.0
 10
-76.75966
 20
-15.08142
 30
0.0
 10
-76.31222
 20
-15.08142
 30
0.0
 10
-76.31222
 20
-15.08142
 30
0.0
 10
-76.31222
 20
-15.08142
 30
0.0
 10
-76.31222
 20
-15.08142
 30
0.0
 10
-76.31222
 20
-15.68139
 30
0.0
 10
-76.31222
 20
-15.68139
 30
0.0
 10
-76.31222
 20
-15.68139
 30
0.0
 10
-76.31222
 20
-15.68139
 30
0.0
 10
-76.75966
 20
-15.68139
 30
0.0
 10
-76.75966
 20
-15.68139
 30
0.0
 10
-76.75966
 20
-15.68139
 30
0.0
 10
-76.75966
 20
-15.68139
 30
0.0
 10
-76.75966
 20
-16.38138
 30
0.0
 10
-76.75966
 20
-16.38138
 30
0.0
 10
-76.75966
 20
-16.38138
 30
0.0
 10
-76.75966
 20
-16.38138
 30
0.0
 10
-77.35963
 20
-16.38138
 30
0.0
 10
-77.35963
 20
-16.38138
 30
0.0
 10
-77.35963
 20
-16.38138
 30
0.0
 10
-77.35963
 20
-16.38138
 30
0.0
 10
-77.35963
 20
-15.68139
 30
0.0
 10
-77.35963
 20
-15.68139
 30
0.0
  0
SPLINE
  5
8E
330
1F
100
AcDbEntity
  8
layer 1
 62
   250
370
     9
100
AcDbSpline
210
0.0
220
0.0
230
1.0
 70
    11
 71
     3
 72
    44
 73
    40
 74
     0
 42
0.000000001
 43
0.0000000001
 40
0.0
 40
0.0
 40
0.0
 40
0.0
 40
0.0909090909090909
 40
0.0909090909090909
 40
0.0909090909090909
 40
0.0909090909090909
 40
0.1818181818181818
 40
0.1818181818181818
 40
0.1818181818181818
 40
0.1818181818181818
 40
0.2727272727272727
 40
0.2727272727272727
 40
0.2727272727272727
 40
0.2727272727272727
 40
0.3636363636363636
 40
0.3636363636363636
 40
0.3636363636363636
 40
0.3636363636363636
 40
0.4545454545454545
 40
0.4545454545454545
 40
0.4545454545454545
 40
0.4545454545454545
 40
0.5454545454545454
 40
0.5454545454545454
 40
0.5454545454545454
 40
0.5454545454545454
 40
0.6363636363636364
 40
0.6363636363636364
 40
0.6363636363636364
 40
0.6363636363636364
 40
0.7272727272727273
 40
0.7272727272727273
 40
0.7272727272727273
 40
0.7272727272727273
 40
0.8181818181818182
 40
0.8181818181818182
 40
0.8181818181818182
 40
0.8181818181818182
 40
1.0
 40
1.0
 40
1.0
 40
1.0
 10
-75.55971
 20
-15.38143
 30
0.0
 10
-75.55971
 20
-14.1949
 30
0.0
 10
-76.60932
 20
-13.7604
 30
0.0
 10
-77.63204
 20
-13.91668
 30
0.0
 10
-77.63204
 20
-13.91668
 30
0.0
 10
-77.86227
 20
-13.95185
 30
0.0
 10
-78.15167
 20
-14.02219
 30
0.0
 10
-78.4211
 20
-14.05305
 30
0.0
 10
-78.4211
 20
-14.05305
 30
0.0
 10
-79.03883
 20
-14.12381
 30
0.0
 10
-79.32708
 20
-13.97239
 30
0.0
 10
-79.89161
 20
-13.82902
 30
0.0
 10
-79.89161
 20
-13.82902
 30
0.0
 10
-80.39135
 20
-13.70209
 30
0.0
 10
-80.95662
 20
-13.82054
 30
0.0
 10
-81.09124
 20
-14.39963
 30
0.0
 10
-81.09124
 20
-14.39963
 30
0.0
 10
-81.55227
 20
-14.48865
 30
0.0
 10
-81.90048
 20
-14.89439
 30
0.0
 10
-81.90048
 20
-15.38143
 30
0.0
 10
-81.90048
 20
-15.38143
 30
0.0
 10
-81.90048
 20
-15.86847
 30
0.0
 10
-81.55227
 20
-16.27421
 30
0.0
 10
-81.09124
 20
-16.36322
 30
0.0
 10
-81.09124
 20
-16.36322
 30
0.0
 10
-80.95662
 20
-16.94232
 30
0.0
 10
-80.39135
 20
-17.06077
 30
0.0
 10
-79.89161
 20
-16.93384
 30
0.0
 10
-79.89161
 20
-16.93384
 30
0.0
 10
-79.32708
 20
-16.79046
 30
0.0
 10
-79.03883
 20
-16.63905
 30
0.0
 10
-78.4211
 20
-16.70981
 30
0.0
 10
-78.4211
 20
-16.70981
 30
0.0
 10
-78.15167
 20
-16.74066
 30
0.0
 10
-77.86227
 20
-16.811
 30
0.0
 10
-77.63204
 20
-16.84618
 30
0.0
 10
-77.63204
 20
-16.84618
 30
0.0
 10
-76.60934
 20
-17.00245
 30
0.0
 10
-75.55971
 20
-16.56793
 30
0.0
 10
-75.55971
 20
-15.38143
 30
0.0
  0
SPLINE
  5
8F
330
1F
100
AcDbEntity
  8
layer 1
 62
   250
370
     9
100
AcDbSpline
210
0.0
220
0.0
230
1.0
 70
    11
 71
     3
 72
    20
 73
    16
 74
     0
 42
0.000000001
 43
0.0000000001
 40
0.0
 40
0.0
 40
0.0
 40
0.0
 40
0.2
 40
0.2
 40
0.2
 40
0.2
 40
0.4
 40
0.4
 40
0.4
 40
0.4
 40
0.6
 40
0.6
 40
0.6
 40
0.6
 40
1.0
 40
1.0
 40
1.0
 40
1.0
 10
-53.63413
 20
-15.08144
 30
0.0
 10
-53.63413
 20
-15.08144
 30
0.0
 10
-49.63432
 20
-15.08144
 30
0.0
 10
-49.63432
 20
-15.08144
 30
0.0
 10
-49.63432
 20
-15.08144
 30
0.0
 10
-49.63432
 20
-15.08144
 30
0.0
 10
-49.63432
 20
-15.68141
 30
0.0
 10
-49.63432
 20
-15.68141
 30
0.0
 10
-49.63432
 20
-15.68141
 30
0.0
 10
-49.63432
 20
-15.68141
 30
0.0
 10
-53.63413
 20
-15.68141
 30
0.0
 10
-53.63413
 20
-15.68141
 30
0.0
 10
-53.63413
 20
-15.68141
 30
0.0
 10
-53.63413
 20
-15.68141
 30
0.0
 10
-53.63413
 20
-15.08144
 30
0.0
 10
-53.63413
 20
-15.08144
 30
0.0
  0
SPLINE
  5
90
330
1F
100
AcDbEntity
  8
layer 1
 62
   250
370
     9
100
AcDbSpline
210
0.0
220
0.0
230
1.0
 70
    11
 71
     3
 72
    44
 73
    40
 74
     0
 42
0.000000001
 43
0.0000000001
 40
0.0
 40
0.0
 40
0.0
 40
0.0
 40
0.0909090909090909
 40
0.0909090909090909
 40
0.0909090909090909
 40
0.0909090909090909
 40
0.1818181818181818
 40
0.1818181818181818
 40
0.1818181818181818
 40
0.1818181818181818
 40
0.2727272727272727
 40
0.2727272727272727
 40
0.2727272727272727
 40
0.2727272727272727
 40
0.3636363636363636
 40
0.3636363636363636
 40
0.3636363636363636
 40
0.3636363636363636
 40
0.4545454545454545
 40
0.4545454545454545
 40
0.4545454545454545
 40
0.4545454545454545
 40
0.5454545454545454
 40
0.5454545454545454
 40
0.5454545454545454
 40
0.5454545454545454
 40
0.6363636363636364
 40
0.6363636363636364
 40
0.6363636363636364
 40
0.6363636363636364
 40
0.7272727272727273
 40
0.7272727272727273
 40
0.7272727272727273
 40
0.7272727272727273
 40
0.8181818181818182
 40
0.8181818181818182
 40
0.8181818181818182
 40
0.8181818181818182
 40
1.0
 40
1.0
 40
1.0
 40
1.0
 10
-48.88181
 20
-15.38145
 30
0.0
 10
-48.88181
 20
-14.19492
 30
0.0
 10
-49.93142
 20
-13.76042
 30
0.0
 10
-50.95414
 20
-13.9167
 30
0.0
 10
-50.95414
 20
-13.9167
 30
0.0
 10
-51.18437
 20
-13.95187
 30
0.0
 10
-51.47377
 20
-14.02221
 30
0.0
 10
-51.7432
 20
-14.05307
 30
0.0
 10
-51.7432
 20
-14.05307
 30
0.0
 10
-52.36093
 20
-14.12383
 30
0.0
 10
-52.64918
 20
-13.97241
 30
0.0
 10
-53.21371
 20
-13.82904
 30
0.0
 10
-53.21371
 20
-13.82904
 30
0.0
 10
-53.71345
 20
-13.70211
 30
0.0
 10
-54.27872
 20
-13.82056
 30
0.0
 10
-54.41334
 20
-14.39965
 30
0.0
 10
-54.41334
 20
-14.39965
 30
0.0
 10
-54.87437
 20
-14.48867
 30
0.0
 10
-55.22258
 20
-14.89441
 30
0.0
 10
-55.22258
 20
-15.38145
 30
0.0
 10
-55.22258
 20
-15.38145
 30
0.0
 10
-55.22258
 20
-15.86849
 30
0.0
 10
-54.87437
 20
-16.27423
 30
0.0
 10
-54.41334
 20
-16.36324
 30
0.0
 10
-54.41334
 20
-16.36324
 30
0.0
 10
-54.27872
 20
-16.94234
 30
0.0
 10
-53.71345
 20
-17.06079
 30
0.0
 10
-53.21371
 20
-16.93386
 30
0.0
 10
-53.21371
 20
-16.93386
 30
0.0
 10
-52.64918
 20
-16.79048
 30
0.0
 10
-52.36093
 20
-16.63907
 30
0.0
 10
-51.7432
 20
-16.70983
 30
0.0
 10
-51.7432
 20
-16.70983
 30
0.0
 10
-51.47377
 20
-16.74068
 30
0.0
 10
-51.18437
 20
-16.81102
 30
0.0
 10
-50.95414
 20
-16.8462
 30
0.0
 10
-50.95414
 20
-16.8462
 30
0.0
 10
-49.93144
 20
-17.00247
 30
0.0
 10
-48.88181
 20
-16.56795
 30
0.0
 10
-48.88181
 20
-15.38145
 30
0.0
  0
SPLINE
  5
91
330
1F
100
AcDbEntity
  8
layer 1
 62
   250
370
     9
100
AcDbSpline
210
0.0
220
0.0
230
1.0
 70
    11
 71
     3
 72
   100
 73
    96
 74
     0
 42
0.000000001
 43
0.0000000001
 40
0.0
 40
0.0
 40
0.0
 40
0.0
 40
0.04
 40
0.04
 40
0.04
 40
0.04
 40
0.08
 40
0.08
 40
0.08
 40
0.08
 40
0.12
 40
0.12
 40
0.12
 40
0.12
 40
0.16
 40
0.16
 40
0.16
 40
0.16
 40
0.2
 40
0.2
 40
0.2
 40
0.2
 40
0.24
 40
0.24
 40
0.24
 40
0.24
 40
0.28
 40
0.28
 40
0.28
 40
0.28
 40
0.32
 40
0.32
 40
0.32
 40
0.32
 40
0.36
 40
0.36
 40
0.36
 40
0.36
 40
0.4
 40
0.4
 40
0.4
 40
0.4
 40
0.44
 40
0.44
 40
0.44
 40
0.44
 40
0.48
 40
0.48
 40
0.48
 40
0.48
 40
0.52
 40
0.52
 40
0.52
 40
0.52
 40
0.56
 40
0.56
 40
0.56
 40
0.56
 40
0.6
 40
0.6
 40
0.6
 40
0.6
 40
0.64
 40
0.64
 40
0.64
 40
0.64
 40
0.68
 40
0.68
 40
0.68
 40
0.68
 40
0.72
 40
0.72
 40
0.72
 40
0.72
 40
0.76
 40
0.76
 40
0.76
 40
0.76
 40
0.8
 40
0.8
 40
0.8
 40
0.8
 40
0.84
 40
0.84
 40
0.84
 40
0.84
 40
0.88
 40
0.88
 40
0.88
 40
0.88
 40
0.92
 40
0.92
 40
0.92
 40
0.92
 40
1.0
 40
1.0
 40
1.0
 40
1.0
 10
-62.54408
 20
-31.79667
 30
0.0
 10
-62.81907
 20
-31.61333
 30
0.0
 10
-63.06905
 20
-31.48002
 30
0.0
 10
-63.4107
 20
-31.33835
 30
0.0
 10
-63.4107
 20
-31.33835
 30
0.0
 10
-63.75236
 20
-31.19669
 30
0.0
 10
-64.18566
 20
-31.0467
 30
0.0
 10
-64.56064
 20
-30.95502
 30
0.0
 10
-64.56064
 20
-30.95502
 30
0.0
 10
-64.93563
 20
-30.86337
 30
0.0
 10
-65.25229
 20
-30.83005
 30
0.0
 10
-65.50228
 20
-30.84671
 30
0.0
 10
-65.50228
 20
-30.84671
 30
0.0
 10
-65.75227
 20
-30.86337
 30
0.0
 10
-65.93558
 20
-30.93005
 30
0.0
 10
-66.06057
 20
-31.05504
 30
0.0
 10
-66.06057
 20
-31.05504
 30
0.0
 10
-66.18557
 20
-31.18003
 30
0.0
 10
-66.25225
 20
-31.36335
 30
0.0
 10
-66.30224
 20
-31.67999
 30
0.0
 10
-66.30224
 20
-31.67999
 30
0.0
 10
-66.35224
 20
-31.99666
 30
0.0
 10
-66.38556
 20
-32.44663
 30
0.0
 10
-66.4439
 20
-32.90493
 30
0.0
 10
-66.4439
 20
-32.90493
 30
0.0
 10
-66.50223
 20
-33.36325
 30
0.0
 10
-66.58555
 20
-33.82991
 30
0.0
 10
-66.66889
 20
-34.40488
 30
0.0
 10
-66.66889
 20
-34.40488
 30
0.0
 10
-66.75222
 20
-34.97986
 30
0.0
 10
-66.83554
 20
-35.66315
 30
0.0
 10
-66.88554
 20
-36.32977
 30
0.0
 10
-66.88554
 20
-36.32977
 30
0.0
 10
-66.93553
 20
-36.99642
 30
0.0
 10
-66.95221
 20
-37.64639
 30
0.0
 10
-66.91887
 20
-38.22137
 30
0.0
 10
-66.91887
 20
-38.22137
 30
0.0
 10
-66.88554
 20
-38.79634
 30
0.0
 10
-66.80222
 20
-39.29632
 30
0.0
 10
-66.67723
 20
-39.68796
 30
0.0
 10
-66.67723
 20
-39.68796
 30
0.0
 10
-66.55223
 20
-40.07962
 30
0.0
 10
-66.38556
 20
-40.36293
 30
0.0
 10
-66.15223
 20
-40.56292
 30
0.0
 10
-66.15223
 20
-40.56292
 30
0.0
 10
-65.91892
 20
-40.76291
 30
0.0
 10
-65.61894
 20
-40.87958
 30
0.0
 10
-65.35227
 20
-40.9379
 30
0.0
 10
-65.35227
 20
-40.9379
 30
0.0
 10
-65.08562
 20
-40.99624
 30
0.0
 10
-64.85231
 20
-40.99624
 30
0.0
 10
-64.59398
 20
-40.90456
 30
0.0
 10
-64.59398
 20
-40.90456
 30
0.0
 10
-64.33565
 20
-40.81291
 30
0.0
 10
-64.05235
 20
-40.62959
 30
0.0
 10
-63.78568
 20
-40.33793
 30
0.0
 10
-63.78568
 20
-40.33793
 30
0.0
 10
-63.51903
 20
-40.04628
 30
0.0
 10
-63.26904
 20
-39.6463
 30
0.0
 10
-63.03572
 20
-39.24632
 30
0.0
 10
-63.03572
 20
-39.24632
 30
0.0
 10
-62.80241
 20
-38.84634
 30
0.0
 10
-62.58574
 20
-38.44636
 30
0.0
 10
-62.38575
 20
-38.12137
 30
0.0
 10
-62.38575
 20
-38.12137
 30
0.0
 10
-62.18575
 20
-37.79639
 30
0.0
 10
-62.00244
 20
-37.5464
 30
0.0
 10
-61.83253
 20
-37.34753
 30
0.0
 10
-61.83253
 20
-37.34753
 30
0.0
 10
-61.66264
 20
-37.14866
 30
0.0
 10
-61.50615
 20
-37.0009
 30
0.0
 10
-61.32789
 20
-36.83589
 30
0.0
 10
-61.32789
 20
-36.83589
 30
0.0
 10
-61.14966
 20
-36.67088
 30
0.0
 10
-60.94963
 20
-36.48863
 30
0.0
 10
-60.81122
 20
-36.16252
 30
0.0
 10
-60.81122
 20
-36.16252
 30
0.0
 10
-60.67281
 20
-35.83642
 30
0.0
 10
-60.59599
 20
-35.36646
 30
0.0
 10
-60.57425
 20
-34.99816
 30
0.0
 10
-60.57425
 20
-34.99816
 30
0.0
 10
-60.55251
 20
-34.62987
 30
0.0
 10
-60.58583
 20
-34.36321
 30
0.0
 10
-60.64417
 20
-34.11322
 30
0.0
 10
-60.64417
 20
-34.11322
 30
0.0
 10
-60.7025
 20
-33.86323
 30
0.0
 10
-60.78582
 20
-33.62992
 30
0.0
 10
-60.96081
 20
-33.35493
 30
0.0
 10
-60.96081
 20
-33.35493
 30
0.0
 10
-61.1358
 20
-33.07995
 30
0.0
 10
-61.40247
 20
-32.76328
 30
0.0
 10
-61.68578
 20
-32.48829
 30
0.0
 10
-61.68578
 20
-32.48829
 30
0.0
 10
-61.9691
 20
-32.21331
 30
0.0
 10
-62.26909
 20
-31.98
 30
0.0
 10
-62.54408
 20
-31.79667
 30
0.0
  0
SPLINE
  5
92
330
1F
100
AcDbEntity
  8
layer 1
 62
   250
370
     9
100
AcDbSpline
210
0.0
220
0.0
230
1.0
 70
    11
 71
     3
 72
    20
 73
    16
 74
     0
 42
0.000000001
 43
0.0000000001
 40
0.0
 40
0.0
 40
0.0
 40
0.0
 40
0.2
 40
0.2
 40
0.2
 40
0.2
 40
0.4
 40
0.4
 40
0.4
 40
0.4
 40
0.6
 40
0.6
 40
0.6
 40
0.6
 40
1.0
 40
1.0
 40
1.0
 40
1.0
 10
-64.41493
 20
-35.24844
 30
0.0
 10
-64.41493
 20
-35.24844
 30
0.0
 10
-65.01488
 20
-35.24844
 30
0.0
 10
-65.01488
 20
-35.24844
 30
0.0
 10
-65.01488
 20
-35.24844
 30
0.0
 10
-65.01488
 20
-35.24844
 30
0.0
 10
-65.01488
 20
-33.64852
 30
0.0
 10
-65.01488
 20
-33.64852
 30
0.0
 10
-65.01488
 20
-33.64852
 30
0.0
 10
-65.01488
 20
-33.64852
 30
0.0
 10
-64.41493
 20
-33.64852
 30
0.0
 10
-64.41493
 20
-33.64852
 30
0.0
 10
-64.41493
 20
-33.64852
 30
0.0
 10
-64.41493
 20
-33.64852
 30
0.0
 10
-64.41493
 20
-35.24844
 30
0.0
 10
-64.41493
 20
-35.24844
 30
0.0
  0
ENDSEC
  0
SECTION
  2
OBJECTS
  0
DICTIONARY
  5
C
330
0
100
AcDbDictionary
281
     1
  3
ACAD_DETAILVIEWSTYLE
350
CE
  3
ACAD_GROUP
350
D
  3
ACAD_LAYOUT
350
1A
  3
ACAD_MATERIAL
350
43
  3
ACAD_MLEADERSTYLE
350
6B
  3
ACAD_MLINESTYLE
350
17
  3
ACAD_PLOTSETTINGS
350
19
  3
ACAD_PLOTSTYLENAME
350
E
  3
ACAD_SCALELIST
350
47
  3
ACAD_SECTIONVIEWSTYLE
350
CF
  3
ACAD_TABLESTYLE
350
69
  3
ACAD_VISUALSTYLE
350
2A
  3
ACDB_RECOMPOSE_DATA
350
CB
  3
AcDbVariableDictionary
350
93
  0
SUN
  5
6D
330
29
100
AcDbSun
 90
        1
290
     0
 63
     7
421
 16777215
 40
1.0
291
     1
 91
  2455826
 92
 54000000
292
     0
 70
     2
 71
   256
280
     1
  0
DICTIONARY
  5
CE
102
{ACAD_REACTORS
330
C
102
}
330
C
100
AcDbDictionary
281
     1
  0
DICTIONARY
  5
D
102
{ACAD_REACTORS
330
C
102
}
330
C
100
AcDbDictionary
281
     1
  0
DICTIONARY
  5
1A
102
{ACAD_REACTORS
330
C
102
}
330
C
100
AcDbDictionary
281
     1
  3
Layout1
350
1E
  3
Layout2
350
26
  3
Model
350
22
  0
DICTIONARY
  5
43
102
{ACAD_REACTORS
330
C
102
}
330
C
100
AcDbDictionary
281
     1
  3
ByBlock
350
45
  3
ByLayer
350
44
  3
Global
350
46
  0
DICTIONARY
  5
6B
102
{ACAD_REACTORS
330
C
102
}
330
C
100
AcDbDictionary
281
     1
  3
Standard
350
6C
  0
DICTIONARY
  5
17
102
{ACAD_REACTORS
330
C
102
}
330
C
100
AcDbDictionary
281
     1
  3
Standard
350
18
  0
DICTIONARY
  5
19
102
{ACAD_REACTORS
330
C
102
}
330
C
100
AcDbDictionary
281
     1
  0
ACDBDICTIONARYWDFLT
  5
E
102
{ACAD_REACTORS
330
C
102
}
330
C
100
AcDbDictionary
281
     1
  3
Normal
350
F
100
AcDbDictionaryWithDefault
340
F
  0
DICTIONARY
  5
47
102
{ACAD_REACTORS
330
C
102
}
330
C
100
AcDbDictionary
281
     1
  3
A0
350
48
  3
A1
350
49
  3
A2
350
4A
  3
A3
350
4B
  3
A4
350
4C
  3
A5
350
4D
  3
A6
350
4E
  3
A7
350
4F
  3
A8
350
50
  3
A9
350
51
  3
B0
350
52
  3
B1
350
53
  3
B2
350
54
  3
B3
350
55
  3
B4
350
56
  3
B5
350
57
  3
B6
350
58
  3
B7
350
59
  3
B8
350
5A
  3
B9
350
5B
  3
C0
350
5C
  3
C1
350
5D
  3
C2
350
5E
  3
C3
350
5F
  3
C4
350
60
  3
C5
350
61
  3
C6
350
62
  3
C7
350
63
  3
C8
350
64
  3
C9
350
65
  3
D0
350
66
  3
D1
350
67
  3
D2
350
68
  0
DICTIONARY
  5
CF
102
{ACAD_REACTORS
330
C
102
}
330
C
100
AcDbDictionary
281
     1
  0
DICTIONARY
  5
69
102
{ACAD_REACTORS
330
C
102
}
330
C
100
AcDbDictionary
281
     1
  3
Standard
350
6A
  0
DICTIONARY
  5
2A
102
{ACAD_REACTORS
330
C
102
}
330
C
100
AcDbDictionary
281
     1
  3
2dWireframe
350
2F
  3
Basic
350
32
  3
Brighten
350
36
  3
ColorChange
350
3A
  3
Conceptual
350
34
  3
Dim
350
35
  3
EdgeColorOff
350
3D
  3
Facepattern
350
39
  3
Flat
350
2B
  3
FlatWithEdges
350
2C
  3
Gouraud
350
2D
  3
GouraudWithEdges
350
2E
  3
Hidden
350
31
  3
JitterOff
350
3B
  3
Linepattern
350
38
  3
OverhangOff
350
3C
  3
Realistic
350
33
  3
Shaded
350
42
  3
Shaded with edges
350
41
  3
Shades of Gray
350
3E
  3
Sketchy
350
3F
  3
Thicken
350
37
  3
Wireframe
350
30
  3
X-Ray
350
40
  0
XRECORD
  5
CB
102
{ACAD_REACTORS
330
C
102
}
330
C
100
AcDbXrecord
280
     1
 90
        1
330
6A
  0
DICTIONARY
  5
93
102
{ACAD_REACTORS
330
C
102
}
330
C
100
AcDbDictionary
281
     1
  3
CANNOSCALE
350
94
  3
CMLEADERSTYLE
350
CD
  3
CTABLESTYLE
350
CC
  3
XCLIPFRAME
350
95
  0
LAYOUT
  5
1E
102
{ACAD_REACTORS
330
1A
102
}
330
1A
100
AcDbPlotSettings
  1

  2
none_device
  4

  6

 40
0.0
 41
0.0
 42
0.0
 43
0.0
 44
0.0
 45
0.0
 46
0.0
 47
0.0
 48
0.0
 49
0.0
140
0.0
141
0.0
142
1.0
143
1.0
 70
   688
 72
     0
 73
     0
 74
     5
  7

 75
    16
 76
     0
 77
     2
 78
   300
147
1.0
148
0.0
149
0.0
100
AcDbLayout
  1
Layout1
 70
     1
 71
     1
 10
0.0
 20
0.0
 11
12.0
 21
9.0
 12
0.0
 22
0.0
 32
0.0
 14
1.000000000000000E+20
 24
1.000000000000000E+20
 34
1.000000000000000E+20
 15
-1.000000000000000E+20
 25
-1.000000000000000E+20
 35
-1.000000000000000E+20
146
0.0
 13
0.0
 23
0.0
 33
0.0
 16
1.0
 26
0.0
 36
0.0
 17
0.0
 27
1.0
 37
0.0
 76
     0
330
1B
  0
LAYOUT
  5
26
102
{ACAD_REACTORS
330
1A
102
}
330
1A
100
AcDbPlotSettings
  1

  2
none_device
  4

  6

 40
0.0
 41
0.0
 42
0.0
 43
0.0
 44
0.0
 45
0.0
 46
0.0
 47
0.0
 48
0.0
 49
0.0
140
0.0
141
0.0
142
1.0
143
1.0
 70
   688
 72
     0
 73
     0
 74
     5
  7

 75
    16
 76
     0
 77
     2
 78
   300
147
1.0
148
0.0
149
0.0
100
AcDbLayout
  1
Layout2
 70
     1
 71
     2
 10
0.0
 20
0.0
 11
0.0
 21
0.0
 12
0.0
 22
0.0
 32
0.0
 14
0.0
 24
0.0
 34
0.0
 15
0.0
 25
0.0
 35
0.0
146
0.0
 13
0.0
 23
0.0
 33
0.0
 16
1.0
 26
0.0
 36
0.0
 17
0.0
 27
1.0
 37
0.0
 76
     0
330
23
  0
LAYOUT
  5
22
102
{ACAD_REACTORS
330
1A
102
}
330
1A
100
AcDbPlotSettings
  1

  2
none_device
  4
Letter_(8.50_x_11.00_Inches)
  6

 40
6.35
 41
6.35
 42
6.35000508
 43
6.35000508
 44
215.9
 45
279.4
 46
0.0
 47
0.0
 48
0.0
 49
0.0
140
0.0
141
0.0
142
1.0
143
1.0
 70
  1712
 72
     0
 73
     0
 74
     0
  7

 75
     0
 76
     0
 77
     2
 78
   300
147
1.0
148
0.0
149
0.0
100
AcDbLayout
  1
Model
 70
     1
 71
     0
 10
0.0
 20
0.0
 11
12.0
 21
9.0
 12
0.0
 22
0.0
 32
0.0
 14
-84.04425
 24
-46.07881
 34
0.0
 15
48.73479
 25
18.16969
 35
0.0
146
0.0
 13
0.0
 23
0.0
 33
0.0
 16
1.0
 26
0.0
 36
0.0
 17
0.0
 27
1.0
 37
0.0
 76
     0
330
1F
331
29
  0
MATERIAL
  5
45
102
{ACAD_REACTORS
330
43
102
}
330
43
100
AcDbMaterial
  1
ByBlock
 72
     1
 94
      127
  0
MATERIAL
  5
44
102
{ACAD_REACTORS
330
43
102
}
330
43
100
AcDbMaterial
  1
ByLayer
 72
     1
 94
      127
  0
MATERIAL
  5
46
102
{ACAD_REACTORS
330
43
102
}
330
43
100
AcDbMaterial
  1
Global
 72
     1
 94
      127
  0
MLEADERSTYLE
  5
6C
102
{ACAD_REACTORS
330
6B
102
}
102
{ACAD_XDICTIONARY
360
C9
102
}
330
6B
100
AcDbMLeaderStyle
170
     2
171
     1
172
     0
 90
        2
 40
0.0
 41
0.0
173
     1
 91
-1056964608
340
14
 92
       -2
290
     1
 42
0.09
291
     1
 43
0.36
  3
Standard
341
0
 44
0.18
300

342
11
174
     1
178
     6
175
     1
176
     0
 93
-1056964608
 45
0.18
292
     0
297
     0
 46
0.18
343
0
 94
-1056964608
 47
1.0
 49
1.0
140
1.0
293
     1
141
0.0
294
     1
177
     0
142
1.0
295
     0
296
     0
143
0.125
1001
ACAD_MLEADERVER
1070
     2
  0
MLINESTYLE
  5
18
102
{ACAD_REACTORS
330
17
102
}
330
17
100
AcDbMlineStyle
  2
Standard
 70
     0
  3

 62
   256
 51
90.0
 52
90.0
 71
     2
 49
0.5
 62
   256
  6
BYLAYER
 49
-0.5
 62
   256
  6
BYLAYER
  0
ACDBPLACEHOLDER
  5
F
102
{ACAD_REACTORS
330
E
102
}
330
E
  0
SCALE
  5
48
102
{ACAD_REACTORS
330
47
102
}
330
47
100
AcDbScale
 70
     0
300
1:1
140
1.0
141
1.0
290
     1
  0
SCALE
  5
49
102
{ACAD_REACTORS
330
47
102
}
330
47
100
AcDbScale
 70
     0
300
1:2
140
1.0
141
2.0
290
     0
  0
SCALE
  5
4A
102
{ACAD_REACTORS
330
47
102
}
330
47
100
AcDbScale
 70
     0
300
1:4
140
1.0
141
4.0
290
     0
  0
SCALE
  5
4B
102
{ACAD_REACTORS
330
47
102
}
330
47
100
AcDbScale
 70
     0
300
1:5
140
1.0
141
5.0
290
     0
  0
SCALE
  5
4C
102
{ACAD_REACTORS
330
47
102
}
330
47
100
AcDbScale
 70
     0
300
1:8
140
1.0
141
8.0
290
     0
  0
SCALE
  5
4D
102
{ACAD_REACTORS
330
47
102
}
330
47
100
AcDbScale
 70
     0
300
1:10
140
1.0
141
10.0
290
     0
  0
SCALE
  5
4E
102
{ACAD_REACTORS
330
47
102
}
330
47
100
AcDbScale
 70
     0
300
1:16
140
1.0
141
16.0
290
     0
  0
SCALE
  5
4F
102
{ACAD_REACTORS
330
47
102
}
330
47
100
AcDbScale
 70
     0
300
1:20
140
1.0
141
20.0
290
     0
  0
SCALE
  5
50
102
{ACAD_REACTORS
330
47
102
}
330
47
100
AcDbScale
 70
     0
300
1:30
140
1.0
141
30.0
290
     0
  0
SCALE
  5
51
102
{ACAD_REACTORS
330
47
102
}
330
47
100
AcDbScale
 70
     0
300
1:40
140
1.0
141
40.0
290
     0
  0
SCALE
  5
52
102
{ACAD_REACTORS
330
47
102
}
330
47
100
AcDbScale
 70
     0
300
1:50
140
1.0
141
50.0
290
     0
  0
SCALE
  5
53
102
{ACAD_REACTORS
330
47
102
}
330
47
100
AcDbScale
 70
     0
300
1:100
140
1.0
141
100.0
290
     0
  0
SCALE
  5
54
102
{ACAD_REACTORS
330
47
102
}
330
47
100
AcDbScale
 70
     0
300
2:1
140
2.0
141
1.0
290
     0
  0
SCALE
  5
55
102
{ACAD_REACTORS
330
47
102
}
330
47
100
AcDbScale
 70
     0
300
4:1
140
4.0
141
1.0
290
     0
  0
SCALE
  5
56
102
{ACAD_REACTORS
330
47
102
}
330
47
100
AcDbScale
 70
     0
300
8:1
140
8.0
141
1.0
290
     0
  0
SCALE
  5
57
102
{ACAD_REACTORS
330
47
102
}
330
47
100
AcDbScale
 70
     0
300
10:1
140
10.0
141
1.0
290
     0
  0
SCALE
  5
58
102
{ACAD_REACTORS
330
47
102
}
330
47
100
AcDbScale
 70
     0
300
100:1
140
100.0
141
1.0
290
     0
  0
SCALE
  5
59
102
{ACAD_REACTORS
330
47
102
}
330
47
100
AcDbScale
 70
     0
300
1/128\" = 1\'-0\"
140
0.0078125
141
12.0
290
     0
  0
SCALE
  5
5A
102
{ACAD_REACTORS
330
47
102
}
330
47
100
AcDbScale
 70
     0
300
1/64\" = 1\'-0\"
140
0.015625
141
12.0
290
     0
  0
SCALE
  5
5B
102
{ACAD_REACTORS
330
47
102
}
330
47
100
AcDbScale
 70
     0
300
1/32\" = 1\'-0\"
140
0.03125
141
12.0
290
     0
  0
SCALE
  5
5C
102
{ACAD_REACTORS
330
47
102
}
330
47
100
AcDbScale
 70
     0
300
1/16\" = 1\'-0\"
140
0.0625
141
12.0
290
     0
  0
SCALE
  5
5D
102
{ACAD_REACTORS
330
47
102
}
330
47
100
AcDbScale
 70
     0
300
3/32\" = 1\'-0\"
140
0.09375
141
12.0
290
     0
  0
SCALE
  5
5E
102
{ACAD_REACTORS
330
47
102
}
330
47
100
AcDbScale
 70
     0
300
1/8\" = 1\'-0\"
140
0.125
141
12.0
290
     0
  0
SCALE
  5
5F
102
{ACAD_REACTORS
330
47
102
}
330
47
100
AcDbScale
 70
     0
300
3/16\" = 1\'-0\"
140
0.1875
141
12.0
290
     0
  0
SCALE
  5
60
102
{ACAD_REACTORS
330
47
102
}
330
47
100
AcDbScale
 70
     0
300
1/4\" = 1\'-0\"
140
0.25
141
12.0
290
     0
  0
SCALE
  5
61
102
{ACAD_REACTORS
330
47
102
}
330
47
100
AcDbScale
 70
     0
300
3/8\" = 1\'-0\"
140
0.375
141
12.0
290
     0
  0
SCALE
  5
62
102
{ACAD_REACTORS
330
47
102
}
330
47
100
AcDbScale
 70
     0
300
1/2\" = 1\'-0\"
140
0.5
141
12.0
290
     0
  0
SCALE
  5
63
102
{ACAD_REACTORS
330
47
102
}
330
47
100
AcDbScale
 70
     0
300
3/4\" = 1\'-0\"
140
0.75
141
12.0
290
     0
  0
SCALE
  5
64
102
{ACAD_REACTORS
330
47
102
}
330
47
100
AcDbScale
 70
     0
300
1\" = 1\'-0\"
140
1.0
141
12.0
290
     0
  0
SCALE
  5
65
102
{ACAD_REACTORS
330
47
102
}
330
47
100
AcDbScale
 70
     0
300
1-1/2\" = 1\'-0\"
140
1.5
141
12.0
290
     0
  0
SCALE
  5
66
102
{ACAD_REACTORS
330
47
102
}
330
47
100
AcDbScale
 70
     0
300
3\" = 1\'-0\"
140
3.0
141
12.0
290
     0
  0
SCALE
  5
67
102
{ACAD_REACTORS
330
47
102
}
330
47
100
AcDbScale
 70
     0
300
6\" = 1\'-0\"
140
6.0
141
12.0
290
     0
  0
SCALE
  5
68
102
{ACAD_REACTORS
330
47
102
}
330
47
100
AcDbScale
 70
     0
300
1\'-0\" = 1\'-0\"
140
12.0
141
12.0
290
     0
  0
TABLESTYLE
  5
6A
102
{ACAD_REACTORS
330
69
102
}
102
{ACAD_XDICTIONARY
360
C6
102
}
330
69
100
AcDbTableStyle
  3
Standard
 70
     0
 71
     0
 40
0.06
 41
0.06
280
     0
281
     0
  7
Standard
140
0.18
170
     2
 62
     0
 63
   257
283
     0
 90
        4
 91
        0
  1

274
    -2
284
     1
 64
     0
275
    -2
285
     1
 65
     0
276
    -2
286
     1
 66
     0
277
    -2
287
     1
 67
     0
278
    -2
288
     1
 68
     0
279
    -2
289
     1
 69
     0
  7
Standard
140
0.25
170
     5
 62
     0
 63
   257
283
     0
 90
        4
 91
        0
  1

274
    -2
284
     1
 64
     0
275
    -2
285
     1
 65
     0
276
    -2
286
     1
 66
     0
277
    -2
287
     1
 67
     0
278
    -2
288
     1
 68
     0
279
    -2
289
     1
 69
     0
  7
Standard
140
0.18
170
     5
 62
     0
 63
   257
283
     0
 90
        4
 91
        0
  1

274
    -2
284
     1
 64
     0
275
    -2
285
     1
 65
     0
276
    -2
286
     1
 66
     0
277
    -2
287
     1
 67
     0
278
    -2
288
     1
 68
     0
279
    -2
289
     1
 69
     0
  0
VISUALSTYLE
  5
2F
102
{ACAD_REACTORS
330
2A
102
}
102
{ACAD_XDICTIONARY
360
9E
102
}
330
2A
100
AcDbVisualStyle
  2
2dWireframe
 70
     4
 71
     0
 72
     2
 73
     0
 90
        0
 40
0.6
 41
30.0
 62
     5
 63
     7
421
 16777215
 74
     1
 91
        4
 64
     7
 65
   257
 75
     1
175
     1
 42
1.0
 92
        0
 66
   257
 43
1.0
 76
     1
 77
     6
 78
     2
 67
     7
 79
     5
170
     0
171
     0
290
     0
174
     0
 93
        1
 44
0.0
173
     0
291
     0
 45
0.0
  0
VISUALSTYLE
  5
32
102
{ACAD_REACTORS
330
2A
102
}
102
{ACAD_XDICTIONARY
360
A4
102
}
330
2A
100
AcDbVisualStyle
  2
Basic
 70
     7
 71
     1
 72
     0
 73
     1
 90
        0
 40
0.6
 41
30.0
 62
     5
 63
     7
421
 16777215
 74
     0
 91
        4
 64
     7
 65
   257
 75
     1
175
     1
 42
1.0
 92
        8
 66
     7
 43
1.0
 76
     1
 77
     6
 78
     2
 67
     7
 79
     5
170
     0
171
     0
290
     0
174
     0
 93
        1
 44
0.0
173
     0
291
     1
 45
0.0
  0
VISUALSTYLE
  5
36
102
{ACAD_REACTORS
330
2A
102
}
102
{ACAD_XDICTIONARY
360
AC
102
}
330
2A
100
AcDbVisualStyle
  2
Brighten
 70
    12
 71
     2
 72
     2
 73
     0
 90
        0
 40
0.6
 41
30.0
 62
     5
 63
     7
421
 16777215
 74
     1
 91
        4
 64
     7
 65
   257
 75
     1
175
     1
 42
1.0
 92
        8
 66
     7
 43
1.0
 76
     1
 77
     6
 78
     2
 67
     7
 79
     5
170
     0
171
     0
290
     0
174
     0
 93
        1
 44
50.0
173
     0
291
     1
 45
0.0
  0
VISUALSTYLE
  5
3A
102
{ACAD_REACTORS
330
2A
102
}
102
{ACAD_XDICTIONARY
360
B4
102
}
330
2A
100
AcDbVisualStyle
  2
ColorChange
 70
    16
 71
     2
 72
     2
 73
     3
 90
        0
 40
0.6
 41
30.0
 62
     5
 63
     8
421
  8421504
 74
     1
 91
        4
 64
     7
 65
   257
 75
     1
175
     1
 42
1.0
 92
        8
 66
     8
424
  8421504
 43
1.0
 76
     1
 77
     6
 78
     2
 67
     7
 79
     5
170
     0
171
     0
290
     0
174
     0
 93
        1
 44
0.0
173
     0
291
     1
 45
0.0
  0
VISUALSTYLE
  5
34
102
{ACAD_REACTORS
330
2A
102
}
102
{ACAD_XDICTIONARY
360
A8
102
}
330
2A
100
AcDbVisualStyle
  2
Conceptual
 70
     9
 71
     3
 72
     2
 73
     0
 90
        0
 40
0.6
 41
30.0
 62
     5
 63
     7
421
 16777215
 74
     2
 91
        2
 64
     7
 65
   257
 75
     1
175
     1
 42
179.0
 92
        8
 66
     7
 43
1.0
 76
     1
 77
     6
 78
     2
 67
     7
 79
     3
170
     0
171
     0
290
     0
174
     0
 93
        1
 44
0.0
173
     0
291
     0
 45
0.0
  0
VISUALSTYLE
  5
35
102
{ACAD_REACTORS
330
2A
102
}
102
{ACAD_XDICTIONARY
360
AA
102
}
330
2A
100
AcDbVisualStyle
  2
Dim
 70
    11
 71
     2
 72
     2
 73
     0
 90
        0
 40
0.6
 41
30.0
 62
     5
 63
     7
421
 16777215
 74
     1
 91
        4
 64
     7
 65
   257
 75
     1
175
     1
 42
1.0
 92
        8
 66
     7
 43
1.0
 76
     1
 77
     6
 78
     2
 67
     7
 79
     5
170
     0
171
     0
290
     0
174
     0
 93
        1
 44
-50.0
173
     0
291
     1
 45
0.0
  0
VISUALSTYLE
  5
3D
102
{ACAD_REACTORS
330
2A
102
}
102
{ACAD_XDICTIONARY
360
BA
102
}
330
2A
100
AcDbVisualStyle
  2
EdgeColorOff
 70
    22
 71
     2
 72
     2
 73
     0
 90
        0
 40
0.6
 41
30.0
 62
     5
 63
     7
421
 16777215
 74
     1
 91
        4
 64
     7
 65
   257
 75
     1
175
     1
 42
1.0
 92
        8
 66
     7
 43
1.0
 76
     1
 77
     6
 78
     2
 67
     7
 79
     5
170
     0
171
     0
290
     0
174
     0
 93
        1
 44
0.0
173
     0
291
     1
 45
0.0
  0
VISUALSTYLE
  5
39
102
{ACAD_REACTORS
330
2A
102
}
102
{ACAD_XDICTIONARY
360
B2
102
}
330
2A
100
AcDbVisualStyle
  2
Facepattern
 70
    15
 71
     2
 72
     2
 73
     0
 90
        0
 40
0.6
 41
30.0
 62
     5
 63
     7
421
 16777215
 74
     1
 91
        4
 64
     7
 65
   257
 75
     1
175
     1
 42
1.0
 92
        8
 66
     7
 43
1.0
 76
     1
 77
     6
 78
     2
 67
     7
 79
     5
170
     0
171
     0
290
     0
174
     0
 93
        1
 44
0.0
173
     0
291
     1
 45
0.0
  0
VISUALSTYLE
  5
2B
102
{ACAD_REACTORS
330
2A
102
}
102
{ACAD_XDICTIONARY
360
96
102
}
330
2A
100
AcDbVisualStyle
  2
Flat
 70
     0
 71
     2
 72
     1
 73
     1
 90
        2
 40
0.6
 41
30.0
 62
     5
 63
     7
421
 16777215
 74
     0
 91
        0
 64
     7
 65
   257
 75
     1
175
     1
 42
1.0
 92
        8
 66
     7
 43
1.0
 76
     1
 77
     6
 78
     2
 67
     7
 79
     5
170
     0
171
     0
290
     0
174
     0
 93
       13
 44
0.0
173
     0
291
     1
 45
0.0
  0
VISUALSTYLE
  5
2C
102
{ACAD_REACTORS
330
2A
102
}
102
{ACAD_XDICTIONARY
360
98
102
}
330
2A
100
AcDbVisualStyle
  2
FlatWithEdges
 70
     1
 71
     2
 72
     1
 73
     1
 90
        2
 40
0.6
 41
30.0
 62
     5
 63
     7
421
 16777215
 74
     1
 91
        0
 64
     7
 65
   257
 75
     1
175
     1
 42
1.0
 92
        0
 66
   257
 43
1.0
 76
     1
 77
     6
 78
     2
 67
     7
 79
     5
170
     0
171
     0
290
     0
174
     0
 93
       13
 44
0.0
173
     0
291
     1
 45
0.0
  0
VISUALSTYLE
  5
2D
102
{ACAD_REACTORS
330
2A
102
}
102
{ACAD_XDICTIONARY
360
9A
102
}
330
2A
100
AcDbVisualStyle
  2
Gouraud
 70
     2
 71
     2
 72
     2
 73
     1
 90
        2
 40
0.6
 41
30.0
 62
     5
 63
     7
421
 16777215
 74
     0
 91
        0
 64
     7
 65
   257
 75
     1
175
     1
 42
1.0
 92
        0
 66
     7
 43
1.0
 76
     1
 77
     6
 78
     2
 67
     7
 79
     5
170
     0
171
     0
290
     0
174
     0
 93
       13
 44
0.0
173
     0
291
     1
 45
0.0
  0
VISUALSTYLE
  5
2E
102
{ACAD_REACTORS
330
2A
102
}
102
{ACAD_XDICTIONARY
360
9C
102
}
330
2A
100
AcDbVisualStyle
  2
GouraudWithEdges
 70
     3
 71
     2
 72
     2
 73
     1
 90
        2
 40
0.6
 41
30.0
 62
     5
 63
     7
421
 16777215
 74
     1
 91
        0
 64
     7
 65
   257
 75
     1
175
     1
 42
1.0
 92
        0
 66
   257
 43
1.0
 76
     1
 77
     6
 78
     2
 67
     7
 79
     5
170
     0
171
     0
290
     0
174
     0
 93
       13
 44
0.0
173
     0
291
     1
 45
0.0
  0
VISUALSTYLE
  5
31
102
{ACAD_REACTORS
330
2A
102
}
102
{ACAD_XDICTIONARY
360
A2
102
}
330
2A
100
AcDbVisualStyle
  2
Hidden
 70
     6
 71
     1
 72
     2
 73
     2
 90
        0
 40
0.6
 41
30.0
 62
     5
 63
     7
421
 16777215
 74
     2
 91
        2
 64
     7
 65
   257
 75
     2
175
     1
 42
40.0
 92
        0
 66
   257
 43
1.0
 76
     1
 77
     6
 78
     2
 67
     7
 79
     3
170
     0
171
     0
290
     0
174
     0
 93
        1
 44
0.0
173
     0
291
     0
 45
0.0
  0
VISUALSTYLE
  5
3B
102
{ACAD_REACTORS
330
2A
102
}
102
{ACAD_XDICTIONARY
360
B6
102
}
330
2A
100
AcDbVisualStyle
  2
JitterOff
 70
    20
 71
     2
 72
     2
 73
     0
 90
        0
 40
0.6
 41
30.0
 62
     5
 63
     7
421
 16777215
 74
     1
 91
        4
 64
     7
 65
   257
 75
     1
175
     1
 42
1.0
 92
       10
 66
     7
 43
1.0
 76
     1
 77
     6
 78
     2
 67
     7
 79
     5
170
     0
171
     0
290
     0
174
     0
 93
        1
 44
0.0
173
     0
291
     1
 45
0.0
  0
VISUALSTYLE
  5
38
102
{ACAD_REACTORS
330
2A
102
}
102
{ACAD_XDICTIONARY
360
B0
102
}
330
2A
100
AcDbVisualStyle
  2
Linepattern
 70
    14
 71
     2
 72
     2
 73
     0
 90
        0
 40
0.6
 41
30.0
 62
     5
 63
     7
421
 16777215
 74
     1
 91
        4
 64
     7
 65
   257
 75
     7
175
     7
 42
1.0
 92
        8
 66
     7
 43
1.0
 76
     1
 77
     6
 78
     2
 67
     7
 79
     5
170
     0
171
     0
290
     0
174
     0
 93
        1
 44
0.0
173
     0
291
     1
 45
0.0
  0
VISUALSTYLE
  5
3C
102
{ACAD_REACTORS
330
2A
102
}
102
{ACAD_XDICTIONARY
360
B8
102
}
330
2A
100
AcDbVisualStyle
  2
OverhangOff
 70
    21
 71
     2
 72
     2
 73
     0
 90
        0
 40
0.6
 41
30.0
 62
     5
 63
     7
421
 16777215
 74
     1
 91
        4
 64
     7
 65
   257
 75
     1
175
     1
 42
1.0
 92
        9
 66
     7
 43
1.0
 76
     1
 77
     6
 78
     2
 67
     7
 79
     5
170
     0
171
     0
290
     0
174
     0
 93
        1
 44
0.0
173
     0
291
     1
 45
0.0
  0
VISUALSTYLE
  5
33
102
{ACAD_REACTORS
330
2A
102
}
102
{ACAD_XDICTIONARY
360
A6
102
}
330
2A
100
AcDbVisualStyle
  2
Realistic
 70
     8
 71
     2
 72
     3
 73
     0
 90
        2
 40
0.6
 41
30.0
 62
     5
 63
     7
421
 16777215
 74
     0
 91
        0
 64
     7
 65
   257
 75
     1
175
     1
 42
1.0
 92
        8
 66
   257
 43
1.0
 76
     1
 77
     6
 78
     2
 67
     7
 79
     3
170
     0
171
     0
290
     0
174
     0
 93
       13
 44
0.0
173
     0
291
     0
 45
0.0
  0
VISUALSTYLE
  5
42
102
{ACAD_REACTORS
330
2A
102
}
102
{ACAD_XDICTIONARY
360
C4
102
}
330
2A
100
AcDbVisualStyle
  2
Shaded
 70
    27
 71
     2
 72
     2
 73
     1
 90
        2
 40
0.6
 41
30.0
 62
     5
 63
     7
421
 16777215
 74
     0
 91
        4
 64
     7
 65
   257
 75
     1
175
     1
 42
1.0
 92
        8
 66
   257
 43
1.0
 76
     1
 77
     6
 78
     2
 67
     8
425
  7895160
 79
     3
170
     0
171
     0
290
     0
174
     0
 93
        5
 44
0.0
173
     0
291
     0
 45
0.0
  0
VISUALSTYLE
  5
41
102
{ACAD_REACTORS
330
2A
102
}
102
{ACAD_XDICTIONARY
360
C2
102
}
330
2A
100
AcDbVisualStyle
  2
Shaded with edges
 70
    26
 71
     2
 72
     2
 73
     1
 90
        2
 40
0.6
 41
30.0
 62
     5
 63
     7
421
 16777215
 74
     1
 91
       10
 64
     7
 65
   257
 75
     2
175
     1
 42
1.0
 92
        8
 66
   257
 43
1.0
 76
     1
 77
     6
 78
     2
 67
     7
 79
     3
170
     0
171
     0
290
     0
174
     0
 93
        5
 44
0.0
173
     0
291
     0
 45
0.0
  0
VISUALSTYLE
  5
3E
102
{ACAD_REACTORS
330
2A
102
}
102
{ACAD_XDICTIONARY
360
BC
102
}
330
2A
100
AcDbVisualStyle
  2
Shades of Gray
 70
    23
 71
     2
 72
     2
 73
     3
 90
        0
 40
0.6
 41
30.0
 62
     5
 63
     7
421
 16777215
 74
     2
 91
        2
 64
     7
 65
     7
 75
     1
175
     1
 42
40.0
 92
        8
 66
     7
 43
1.0
 76
     1
 77
     6
 78
     2
 67
     7
 79
     3
170
     0
171
     0
290
     0
174
     0
 93
        1
 44
0.0
173
     0
291
     0
 45
0.0
  0
VISUALSTYLE
  5
3F
102
{ACAD_REACTORS
330
2A
102
}
102
{ACAD_XDICTIONARY
360
BE
102
}
330
2A
100
AcDbVisualStyle
  2
Sketchy
 70
    24
 71
     1
 72
     2
 73
     2
 90
        0
 40
0.6
 41
30.0
 62
     5
 63
     7
421
 16777215
 74
     2
 91
        2
 64
     7
 65
     7
 75
     1
175
     1
 42
40.0
 92
       11
 66
     7
 43
1.0
 76
     1
 77
     6
 78
     2
 67
     7
 79
     6
170
     0
171
     0
290
     0
174
     0
 93
        1
 44
0.0
173
     0
291
     0
 45
0.0
  0
VISUALSTYLE
  5
37
102
{ACAD_REACTORS
330
2A
102
}
102
{ACAD_XDICTIONARY
360
AE
102
}
330
2A
100
AcDbVisualStyle
  2
Thicken
 70
    13
 71
     2
 72
     2
 73
     0
 90
        0
 40
0.6
 41
30.0
 62
     5
 63
     7
421
 16777215
 74
     1
 91
        4
 64
     7
 65
   257
 75
     1
175
     1
 42
1.0
 92
       12
 66
     7
 43
1.0
 76
     1
 77
     6
 78
     2
 67
     7
 79
     5
170
     0
171
     0
290
     0
174
     0
 93
        1
 44
0.0
173
     0
291
     1
 45
0.0
  0
VISUALSTYLE
  5
30
102
{ACAD_REACTORS
330
2A
102
}
102
{ACAD_XDICTIONARY
360
A0
102
}
330
2A
100
AcDbVisualStyle
  2
Wireframe
 70
     5
 71
     0
 72
     2
 73
     0
 90
        0
 40
0.6
 41
30.0
 62
     5
 63
     7
421
 16777215
 74
     1
 91
        4
 64
     7
 65
   257
 75
     1
175
     1
 42
1.0
 92
        0
 66
   257
 43
1.0
 76
     1
 77
     6
 78
     2
 67
     7
 79
     3
170
     0
171
     0
290
     0
174
     0
 93
        1
 44
0.0
173
     0
291
     0
 45
0.0
  0
VISUALSTYLE
  5
40
102
{ACAD_REACTORS
330
2A
102
}
102
{ACAD_XDICTIONARY
360
C0
102
}
330
2A
100
AcDbVisualStyle
  2
X-Ray
 70
    25
 71
     2
 72
     2
 73
     1
 90
        1
 40
0.5
 41
30.0
 62
     5
 63
     7
421
 16777215
 74
     1
 91
        0
 64
     7
 65
   257
 75
     1
175
     1
 42
1.0
 92
        8
 66
     7
 43
1.0
 76
     1
 77
     6
 78
     2
 67
     7
 79
     3
170
     0
171
     0
290
     0
174
     0
 93
       13
 44
0.0
173
     0
291
     0
 45
0.0
  0
DICTIONARYVAR
  5
94
102
{ACAD_REACTORS
330
93
102
}
330
93
100
DictionaryVariables
280
     0
  1
1:1
  0
DICTIONARYVAR
  5
CD
102
{ACAD_REACTORS
330
93
102
}
330
93
100
DictionaryVariables
280
     0
  1
Standard
  0
DICTIONARYVAR
  5
CC
102
{ACAD_REACTORS
330
93
102
}
330
93
100
DictionaryVariables
280
     0
  1
Standard
  0
DICTIONARYVAR
  5
95
102
{ACAD_REACTORS
330
93
102
}
330
93
100
DictionaryVariables
280
     0
  1
2
  0
DICTIONARY
  5
C9
330
6C
100
AcDbDictionary
280
     1
281
     1
  3
ACAD_XREC_ROUNDTRIP
360
CA
  0
DICTIONARY
  5
C6
330
6A
100
AcDbDictionary
280
     1
281
     1
  3
ACAD_ROUNDTRIP_2008_TABLESTYLE_CELLSTYLEMAP
360
C7
  0
DICTIONARY
  5
9E
330
2F
100
AcDbDictionary
280
     1
281
     1
  3
ACAD_XREC_ROUNDTRIP
360
9F
  0
DICTIONARY
  5
A4
330
32
100
AcDbDictionary
280
     1
281
     1
  3
ACAD_XREC_ROUNDTRIP
360
A5
  0
DICTIONARY
  5
AC
330
36
100
AcDbDictionary
280
     1
281
     1
  3
ACAD_XREC_ROUNDTRIP
360
AD
  0
DICTIONARY
  5
B4
330
3A
100
AcDbDictionary
280
     1
281
     1
  3
ACAD_XREC_ROUNDTRIP
360
B5
  0
DICTIONARY
  5
A8
330
34
100
AcDbDictionary
280
     1
281
     1
  3
ACAD_XREC_ROUNDTRIP
360
A9
  0
DICTIONARY
  5
AA
330
35
100
AcDbDictionary
280
     1
281
     1
  3
ACAD_XREC_ROUNDTRIP
360
AB
  0
DICTIONARY
  5
BA
330
3D
100
AcDbDictionary
280
     1
281
     1
  3
ACAD_XREC_ROUNDTRIP
360
BB
  0
DICTIONARY
  5
B2
330
39
100
AcDbDictionary
280
     1
281
     1
  3
ACAD_XREC_ROUNDTRIP
360
B3
  0
DICTIONARY
  5
96
330
2B
100
AcDbDictionary
280
     1
281
     1
  3
ACAD_XREC_ROUNDTRIP
360
97
  0
DICTIONARY
  5
98
330
2C
100
AcDbDictionary
280
     1
281
     1
  3
ACAD_XREC_ROUNDTRIP
360
99
  0
DICTIONARY
  5
9A
330
2D
100
AcDbDictionary
280
     1
281
     1
  3
ACAD_XREC_ROUNDTRIP
360
9B
  0
DICTIONARY
  5
9C
330
2E
100
AcDbDictionary
280
     1
281
     1
  3
ACAD_XREC_ROUNDTRIP
360
9D
  0
DICTIONARY
  5
A2
330
31
100
AcDbDictionary
280
     1
281
     1
  3
ACAD_XREC_ROUNDTRIP
360
A3
  0
DICTIONARY
  5
B6
330
3B
100
AcDbDictionary
280
     1
281
     1
  3
ACAD_XREC_ROUNDTRIP
360
B7
  0
DICTIONARY
  5
B0
330
38
100
AcDbDictionary
280
     1
281
     1
  3
ACAD_XREC_ROUNDTRIP
360
B1
  0
DICTIONARY
  5
B8
330
3C
100
AcDbDictionary
280
     1
281
     1
  3
ACAD_XREC_ROUNDTRIP
360
B9
  0
DICTIONARY
  5
A6
330
33
100
AcDbDictionary
280
     1
281
     1
  3
ACAD_XREC_ROUNDTRIP
360
A7
  0
DICTIONARY
  5
C4
330
42
100
AcDbDictionary
280
     1
281
     1
  3
ACAD_XREC_ROUNDTRIP
360
C5
  0
DICTIONARY
  5
C2
330
41
100
AcDbDictionary
280
     1
281
     1
  3
ACAD_XREC_ROUNDTRIP
360
C3
  0
DICTIONARY
  5
BC
330
3E
100
AcDbDictionary
280
     1
281
     1
  3
ACAD_XREC_ROUNDTRIP
360
BD
  0
DICTIONARY
  5
BE
330
3F
100
AcDbDictionary
280
     1
281
     1
  3
ACAD_XREC_ROUNDTRIP
360
BF
  0
DICTIONARY
  5
AE
330
37
100
AcDbDictionary
280
     1
281
     1
  3
ACAD_XREC_ROUNDTRIP
360
AF
  0
DICTIONARY
  5
A0
330
30
100
AcDbDictionary
280
     1
281
     1
  3
ACAD_XREC_ROUNDTRIP
360
A1
  0
DICTIONARY
  5
C0
330
40
100
AcDbDictionary
280
     1
281
     1
  3
ACAD_XREC_ROUNDTRIP
360
C1
  0
XRECORD
  5
CA
102
{ACAD_REACTORS
330
C9
102
}
330
C9
100
AcDbXrecord
280
     1
102
ACAD_ROUNDTRIP_2010_MLEADER_STYLE
  0
CELLSTYLEMAP
  5
C7
102
{ACAD_REACTORS
330
C6
102
}
330
C6
100
AcDbCellStyleMap
 90
        3
300
CELLSTYLE
  1
TABLEFORMAT_BEGIN
 90
        5
170
     1
 91
        0
 92
    32768
 62
   257
 93
        1
300
CONTENTFORMAT
  1
CONTENTFORMAT_BEGIN
 90
        0
 91
        0
 92
        4
 93
        0
300

 40
0.0
140
1.0
 94
        5
 62
     0
340
11
144
0.25
309
CONTENTFORMAT_END
171
     1
301
MARGIN
  1
CELLMARGIN_BEGIN
 40
0.06
 40
0.06
 40
0.06
 40
0.06
 40
0.06
 40
0.06
309
CELLMARGIN_END
 94
        6
 95
        1
302
GRIDFORMAT
  1
GRIDFORMAT_BEGIN
 90
        0
 91
        1
 62
     0
 92
       -2
340
14
 93
        0
 40
0.045
309
GRIDFORMAT_END
 95
        2
302
GRIDFORMAT
  1
GRIDFORMAT_BEGIN
 90
        0
 91
        1
 62
     0
 92
       -2
340
14
 93
        0
 40
0.045
309
GRIDFORMAT_END
 95
        4
302
GRIDFORMAT
  1
GRIDFORMAT_BEGIN
 90
        0
 91
        1
 62
     0
 92
       -2
340
14
 93
        0
 40
0.045
309
GRIDFORMAT_END
 95
        8
302
GRIDFORMAT
  1
GRIDFORMAT_BEGIN
 90
        0
 91
        1
 62
     0
 92
       -2
340
14
 93
        0
 40
0.045
309
GRIDFORMAT_END
 95
       16
302
GRIDFORMAT
  1
GRIDFORMAT_BEGIN
 90
        0
 91
        1
 62
     0
 92
       -2
340
14
 93
        0
 40
0.045
309
GRIDFORMAT_END
 95
       32
302
GRIDFORMAT
  1
GRIDFORMAT_BEGIN
 90
        0
 91
        1
 62
     0
 92
       -2
340
14
 93
        0
 40
0.045
309
GRIDFORMAT_END
309
TABLEFORMAT_END
  1
CELLSTYLE_BEGIN
 90
        1
 91
        1
300
_TITLE
309
CELLSTYLE_END
300
CELLSTYLE
  1
TABLEFORMAT_BEGIN
 90
        5
170
     1
 91
        0
 92
        0
 62
   257
 93
        1
300
CONTENTFORMAT
  1
CONTENTFORMAT_BEGIN
 90
        0
 91
        0
 92
        4
 93
        0
300

 40
0.0
140
1.0
 94
        5
 62
     0
340
11
144
0.18
309
CONTENTFORMAT_END
171
     1
301
MARGIN
  1
CELLMARGIN_BEGIN
 40
0.06
 40
0.06
 40
0.06
 40
0.06
 40
0.06
 40
0.06
309
CELLMARGIN_END
 94
        6
 95
        1
302
GRIDFORMAT
  1
GRIDFORMAT_BEGIN
 90
        0
 91
        1
 62
     0
 92
       -2
340
14
 93
        0
 40
0.045
309
GRIDFORMAT_END
 95
        2
302
GRIDFORMAT
  1
GRIDFORMAT_BEGIN
 90
        0
 91
        1
 62
     0
 92
       -2
340
14
 93
        0
 40
0.045
309
GRIDFORMAT_END
 95
        4
302
GRIDFORMAT
  1
GRIDFORMAT_BEGIN
 90
        0
 91
        1
 62
     0
 92
       -2
340
14
 93
        0
 40
0.045
309
GRIDFORMAT_END
 95
        8
302
GRIDFORMAT
  1
GRIDFORMAT_BEGIN
 90
        0
 91
        1
 62
     0
 92
       -2
340
14
 93
        0
 40
0.045
309
GRIDFORMAT_END
 95
       16
302
GRIDFORMAT
  1
GRIDFORMAT_BEGIN
 90
        0
 91
        1
 62
     0
 92
       -2
340
14
 93
        0
 40
0.045
309
GRIDFORMAT_END
 95
       32
302
GRIDFORMAT
  1
GRIDFORMAT_BEGIN
 90
        0
 91
        1
 62
     0
 92
       -2
340
14
 93
        0
 40
0.045
309
GRIDFORMAT_END
309
TABLEFORMAT_END
  1
CELLSTYLE_BEGIN
 90
        2
 91
        1
300
_HEADER
309
CELLSTYLE_END
300
CELLSTYLE
  1
TABLEFORMAT_BEGIN
 90
        5
170
     1
 91
        0
 92
        0
 62
   257
 93
        1
300
CONTENTFORMAT
  1
CONTENTFORMAT_BEGIN
 90
        0
 91
        0
 92
        4
 93
        0
300

 40
0.0
140
1.0
 94
        2
 62
     0
340
11
144
0.18
309
CONTENTFORMAT_END
171
     1
301
MARGIN
  1
CELLMARGIN_BEGIN
 40
0.06
 40
0.06
 40
0.06
 40
0.06
 40
0.06
 40
0.06
309
CELLMARGIN_END
 94
        6
 95
        1
302
GRIDFORMAT
  1
GRIDFORMAT_BEGIN
 90
        0
 91
        1
 62
     0
 92
       -2
340
14
 93
        0
 40
0.045
309
GRIDFORMAT_END
 95
        2
302
GRIDFORMAT
  1
GRIDFORMAT_BEGIN
 90
        0
 91
        1
 62
     0
 92
       -2
340
14
 93
        0
 40
0.045
309
GRIDFORMAT_END
 95
        4
302
GRIDFORMAT
  1
GRIDFORMAT_BEGIN
 90
        0
 91
        1
 62
     0
 92
       -2
340
14
 93
        0
 40
0.045
309
GRIDFORMAT_END
 95
        8
302
GRIDFORMAT
  1
GRIDFORMAT_BEGIN
 90
        0
 91
        1
 62
     0
 92
       -2
340
14
 93
        0
 40
0.045
309
GRIDFORMAT_END
 95
       16
302
GRIDFORMAT
  1
GRIDFORMAT_BEGIN
 90
        0
 91
        1
 62
     0
 92
       -2
340
14
 93
        0
 40
0.045
309
GRIDFORMAT_END
 95
       32
302
GRIDFORMAT
  1
GRIDFORMAT_BEGIN
 90
        0
 91
        1
 62
     0
 92
       -2
340
14
 93
        0
 40
0.045
309
GRIDFORMAT_END
309
TABLEFORMAT_END
  1
CELLSTYLE_BEGIN
 90
        3
 91
        2
300
_DATA
309
CELLSTYLE_END
  0
XRECORD
  5
9F
102
{ACAD_REACTORS
330
9E
102
}
330
9E
100
AcDbXrecord
280
     1
102
RTVSPropertyOp0
 70
     1
102
RTVSPropertyOp1
 70
     1
102
RTVSPropertyOp2
 70
     1
102
RTVSPropertyOp3
 70
     1
102
RTVSPropertyOp4
 70
     1
102
RTVSPropertyOp5
 70
     1
102
RTVSPropertyOp6
 70
     1
102
RTVSPropertyOp7
 70
     1
102
RTVSPropertyOp8
 70
     1
102
RTVSPropertyOp9
 70
     1
102
RTVSPropertyOp10
 70
     1
102
RTVSPropertyOp11
 70
     1
102
RTVSPropertyOp12
 70
     1
102
RTVSPropertyOp13
 70
     1
102
RTVSPropertyOp14
 70
     1
102
RTVSPropertyOp15
 70
     1
102
RTVSPropertyOp16
 70
     1
102
RTVSPropertyOp17
 70
     1
102
RTVSPropertyOp18
 70
     1
102
RTVSPropertyOp19
 70
     1
102
RTVSPropertyOp20
 70
     1
102
RTVSPropertyOp21
 70
     1
102
RTVSPropertyOp22
 70
     1
102
RTVSPropertyOp23
 70
     1
102
RTVSPropertyOp24
 70
     1
102
RTVSPropertyOp25
 70
     1
102
RTVSPropertyOp26
 70
     1
102
RTVSPropertyOp27
 70
     1
102
RTVSPropertyOp28
 70
     1
102
RTVSPropertyOp29
 70
     1
102
RTVSPropertyOp30
 70
     1
102
RTVSPropertyOp31
 70
     1
102
RTVSPropertyOp32
 70
     1
102
RTVSPropertyOp33
 70
     1
102
RTVSPropertyOp34
 70
     1
102
RTVSPropertyOp35
 70
     1
102
RTVSPropertyOp36
 70
     1
102
RTVSPropertyOp37
 70
     1
102
RTVSPropertyOp38
 70
     1
102
RTVSPropertyOp39
 70
     1
102
RTVSPropertyOp40
 70
     1
102
RTVSPropertyOp41
 70
     1
102
RTVSPropertyOp42
 70
     1
102
RTVSPropertyOp43
 70
     1
102
RTVSPropertyOp44
 70
     1
102
RTVSPropertyOp45
 70
     1
102
RTVSPropertyOp46
 70
     1
102
RTVSPropertyOp47
 70
     1
102
RTVSPropertyOp48
 70
     1
102
RTVSPropertyOp49
 70
     1
102
RTVSPropertyOp50
 70
     1
102
RTVSPropertyOp51
 70
     0
102
RTVSPropertyOp52
 70
     0
102
RTVSPropertyOp53
 70
     1
102
RTVSPropertyOp54
 70
     1
102
RTVSPropertyOp55
 70
     1
102
RTVSPropertyOp56
 70
     1
102
RTVSPropertyOp57
 70
     1
102
RTVSPost2010Prop28
280
     1
102
RTVSPost2010PropOp28
 70
     1
102
RTVSPost2010Prop29
280
     1
102
RTVSPost2010PropOp29
 70
     1
102
RTVSPost2010Prop30
280
     0
102
RTVSPost2010PropOp30
 70
     1
102
RTVSPost2010Prop31
280
     0
102
RTVSPost2010PropOp31
 70
     1
102
RTVSPost2010Prop32
280
     0
102
RTVSPost2010PropOp32
 70
     1
102
RTVSPost2010Prop33
280
     0
102
RTVSPost2010PropOp33
 70
     1
102
RTVSPost2010Prop34
280
     0
102
RTVSPost2010PropOp34
 70
     1
102
RTVSPost2010Prop35
280
     0
102
RTVSPost2010PropOp35
 70
     1
102
RTVSPost2010Prop36
280
     0
102
RTVSPost2010PropOp36
 70
     1
102
RTVSPost2010Prop37
 90
       50
102
RTVSPost2010PropOp37
 70
     1
102
RTVSPost2010Prop38
140
0.0
102
RTVSPost2010PropOp38
 70
     1
102
RTVSPost2010Prop39
140
1.0
102
RTVSPost2010PropOp39
 70
     1
102
RTVSPost2010Prop40
 90
        0
102
RTVSPost2010PropOp40
 70
     1
102
RTVSPost2010Prop41ColorIndex
 90
       18
102
RTVSPost2010Prop41ColorRGB
 90
        0
102
RTVSPost2010PropOp41
 70
     1
102
RTVSPost2010Prop42
 90
       50
102
RTVSPost2010PropOp42
 70
     1
102
RTVSPost2010Prop43
 90
        3
102
RTVSPost2010PropOp43
 70
     1
102
RTVSPost2010Prop44ColorIndex
 90
        5
102
RTVSPost2010Prop44ColorRGB
 90
      255
102
RTVSPost2010PropOp44
 70
     1
102
RTVSPost2010Prop45
280
     0
102
RTVSPost2010PropOp45
 70
     1
102
RTVSPost2010Prop46
 90
       50
102
RTVSPost2010PropOp46
 70
     1
102
RTVSPost2010Prop47
 90
       50
102
RTVSPost2010PropOp47
 70
     1
102
RTVSPost2010Prop48
 90
       50
102
RTVSPost2010PropOp48
 70
     1
102
RTVSPost2010Prop49
280
     0
102
RTVSPost2010PropOp49
 70
     1
102
RTVSPost2010Prop50
 90
       50
102
RTVSPost2010PropOp50
 70
     1
102
RTVSPost2010Prop51ColorIndex
 90
      256
102
RTVSPost2010Prop51ColorRGB
 90
-16777216
102
RTVSPost2010PropOp51
 70
     0
102
RTVSPost2010Prop52
140
1.0
102
RTVSPost2010PropOp52
 70
     0
102
RTVSPost2010Prop53
 90
        2
102
RTVSPost2010PropOp53
 70
     1
102
RTVSPost2010Prop54
  1
strokes_ogs.tif
102
RTVSPost2010PropOp54
 70
     1
102
RTVSPost2010Prop55
280
     0
102
RTVSPost2010PropOp55
 70
     1
102
RTVSPost2010Prop56
140
1.0
102
RTVSPost2010PropOp56
 70
     1
102
RTVSPost2010Prop57
140
1.0
102
RTVSPost2010PropOp57
 70
     1
  0
XRECORD
  5
A5
102
{ACAD_REACTORS
330
A4
102
}
330
A4
100
AcDbXrecord
280
     1
102
RTVSPropertyOp0
 70
     1
102
RTVSPropertyOp1
 70
     1
102
RTVSPropertyOp2
 70
     1
102
RTVSPropertyOp3
 70
     1
102
RTVSPropertyOp4
 70
     1
102
RTVSPropertyOp5
 70
     1
102
RTVSPropertyOp6
 70
     1
102
RTVSPropertyOp7
 70
     1
102
RTVSPropertyOp8
 70
     1
102
RTVSPropertyOp9
 70
     1
102
RTVSPropertyOp10
 70
     1
102
RTVSPropertyOp11
 70
     1
102
RTVSPropertyOp12
 70
     1
102
RTVSPropertyOp13
 70
     1
102
RTVSPropertyOp14
 70
     1
102
RTVSPropertyOp15
 70
     1
102
RTVSPropertyOp16
 70
     1
102
RTVSPropertyOp17
 70
     1
102
RTVSPropertyOp18
 70
     1
102
RTVSPropertyOp19
 70
     1
102
RTVSPropertyOp20
 70
     1
102
RTVSPropertyOp21
 70
     1
102
RTVSPropertyOp22
 70
     1
102
RTVSPropertyOp23
 70
     1
102
RTVSPropertyOp24
 70
     1
102
RTVSPropertyOp25
 70
     1
102
RTVSPropertyOp26
 70
     1
102
RTVSPropertyOp27
 70
     1
102
RTVSPropertyOp28
 70
     1
102
RTVSPropertyOp29
 70
     1
102
RTVSPropertyOp30
 70
     1
102
RTVSPropertyOp31
 70
     1
102
RTVSPropertyOp32
 70
     1
102
RTVSPropertyOp33
 70
     1
102
RTVSPropertyOp34
 70
     1
102
RTVSPropertyOp35
 70
     1
102
RTVSPropertyOp36
 70
     1
102
RTVSPropertyOp37
 70
     1
102
RTVSPropertyOp38
 70
     1
102
RTVSPropertyOp39
 70
     1
102
RTVSPropertyOp40
 70
     1
102
RTVSPropertyOp41
 70
     1
102
RTVSPropertyOp42
 70
     1
102
RTVSPropertyOp43
 70
     1
102
RTVSPropertyOp44
 70
     1
102
RTVSPropertyOp45
 70
     1
102
RTVSPropertyOp46
 70
     1
102
RTVSPropertyOp47
 70
     1
102
RTVSPropertyOp48
 70
     1
102
RTVSPropertyOp49
 70
     1
102
RTVSPropertyOp50
 70
     1
102
RTVSPropertyOp51
 70
     0
102
RTVSPropertyOp52
 70
     0
102
RTVSPropertyOp53
 70
     1
102
RTVSPropertyOp54
 70
     1
102
RTVSPropertyOp55
 70
     1
102
RTVSPropertyOp56
 70
     1
102
RTVSPropertyOp57
 70
     1
102
RTVSPost2010Prop28
280
     0
102
RTVSPost2010PropOp28
 70
     1
102
RTVSPost2010Prop29
280
     1
102
RTVSPost2010PropOp29
 70
     1
102
RTVSPost2010Prop30
280
     1
102
RTVSPost2010PropOp30
 70
     1
102
RTVSPost2010Prop31
280
     0
102
RTVSPost2010PropOp31
 70
     1
102
RTVSPost2010Prop32
280
     0
102
RTVSPost2010PropOp32
 70
     1
102
RTVSPost2010Prop33
280
     0
102
RTVSPost2010PropOp33
 70
     1
102
RTVSPost2010Prop34
280
     0
102
RTVSPost2010PropOp34
 70
     1
102
RTVSPost2010Prop35
280
     0
102
RTVSPost2010PropOp35
 70
     1
102
RTVSPost2010Prop36
280
     0
102
RTVSPost2010PropOp36
 70
     1
102
RTVSPost2010Prop37
 90
       50
102
RTVSPost2010PropOp37
 70
     1
102
RTVSPost2010Prop38
140
0.0
102
RTVSPost2010PropOp38
 70
     1
102
RTVSPost2010Prop39
140
1.0
102
RTVSPost2010PropOp39
 70
     1
102
RTVSPost2010Prop40
 90
        0
102
RTVSPost2010PropOp40
 70
     1
102
RTVSPost2010Prop41ColorIndex
 90
       18
102
RTVSPost2010Prop41ColorRGB
 90
        0
102
RTVSPost2010PropOp41
 70
     1
102
RTVSPost2010Prop42
 90
       50
102
RTVSPost2010PropOp42
 70
     1
102
RTVSPost2010Prop43
 90
        3
102
RTVSPost2010PropOp43
 70
     1
102
RTVSPost2010Prop44ColorIndex
 90
        5
102
RTVSPost2010Prop44ColorRGB
 90
      255
102
RTVSPost2010PropOp44
 70
     1
102
RTVSPost2010Prop45
280
     0
102
RTVSPost2010PropOp45
 70
     1
102
RTVSPost2010Prop46
 90
       50
102
RTVSPost2010PropOp46
 70
     1
102
RTVSPost2010Prop47
 90
       50
102
RTVSPost2010PropOp47
 70
     1
102
RTVSPost2010Prop48
 90
       50
102
RTVSPost2010PropOp48
 70
     1
102
RTVSPost2010Prop49
280
     0
102
RTVSPost2010PropOp49
 70
     1
102
RTVSPost2010Prop50
 90
       50
102
RTVSPost2010PropOp50
 70
     1
102
RTVSPost2010Prop51ColorIndex
 90
      256
102
RTVSPost2010Prop51ColorRGB
 90
-16777216
102
RTVSPost2010PropOp51
 70
     0
102
RTVSPost2010Prop52
140
1.0
102
RTVSPost2010PropOp52
 70
     0
102
RTVSPost2010Prop53
 90
        2
102
RTVSPost2010PropOp53
 70
     1
102
RTVSPost2010Prop54
  1
strokes_ogs.tif
102
RTVSPost2010PropOp54
 70
     1
102
RTVSPost2010Prop55
280
     0
102
RTVSPost2010PropOp55
 70
     1
102
RTVSPost2010Prop56
140
1.0
102
RTVSPost2010PropOp56
 70
     1
102
RTVSPost2010Prop57
140
1.0
102
RTVSPost2010PropOp57
 70
     1
  0
XRECORD
  5
AD
102
{ACAD_REACTORS
330
AC
102
}
330
AC
100
AcDbXrecord
280
     1
102
RTVSPropertyOp0
 70
     1
102
RTVSPropertyOp1
 70
     1
102
RTVSPropertyOp2
 70
     1
102
RTVSPropertyOp3
 70
     1
102
RTVSPropertyOp4
 70
     1
102
RTVSPropertyOp5
 70
     1
102
RTVSPropertyOp6
 70
     1
102
RTVSPropertyOp7
 70
     1
102
RTVSPropertyOp8
 70
     1
102
RTVSPropertyOp9
 70
     1
102
RTVSPropertyOp10
 70
     1
102
RTVSPropertyOp11
 70
     1
102
RTVSPropertyOp12
 70
     1
102
RTVSPropertyOp13
 70
     1
102
RTVSPropertyOp14
 70
     1
102
RTVSPropertyOp15
 70
     1
102
RTVSPropertyOp16
 70
     1
102
RTVSPropertyOp17
 70
     1
102
RTVSPropertyOp18
 70
     1
102
RTVSPropertyOp19
 70
     1
102
RTVSPropertyOp20
 70
     1
102
RTVSPropertyOp21
 70
     1
102
RTVSPropertyOp22
 70
     1
102
RTVSPropertyOp23
 70
     1
102
RTVSPropertyOp24
 70
     1
102
RTVSPropertyOp25
 70
     1
102
RTVSPropertyOp26
 70
     1
102
RTVSPropertyOp27
 70
     1
102
RTVSPropertyOp28
 70
     1
102
RTVSPropertyOp29
 70
     1
102
RTVSPropertyOp30
 70
     1
102
RTVSPropertyOp31
 70
     1
102
RTVSPropertyOp32
 70
     1
102
RTVSPropertyOp33
 70
     1
102
RTVSPropertyOp34
 70
     1
102
RTVSPropertyOp35
 70
     1
102
RTVSPropertyOp36
 70
     1
102
RTVSPropertyOp37
 70
     1
102
RTVSPropertyOp38
 70
     1
102
RTVSPropertyOp39
 70
     1
102
RTVSPropertyOp40
 70
     1
102
RTVSPropertyOp41
 70
     1
102
RTVSPropertyOp42
 70
     1
102
RTVSPropertyOp43
 70
     1
102
RTVSPropertyOp44
 70
     1
102
RTVSPropertyOp45
 70
     1
102
RTVSPropertyOp46
 70
     1
102
RTVSPropertyOp47
 70
     1
102
RTVSPropertyOp48
 70
     1
102
RTVSPropertyOp49
 70
     1
102
RTVSPropertyOp50
 70
     1
102
RTVSPropertyOp51
 70
     0
102
RTVSPropertyOp52
 70
     0
102
RTVSPropertyOp53
 70
     1
102
RTVSPropertyOp54
 70
     1
102
RTVSPropertyOp55
 70
     1
102
RTVSPropertyOp56
 70
     1
102
RTVSPropertyOp57
 70
     1
102
RTVSPost2010Prop28
280
     0
102
RTVSPost2010PropOp28
 70
     1
102
RTVSPost2010Prop29
280
     1
102
RTVSPost2010PropOp29
 70
     1
102
RTVSPost2010Prop30
280
     1
102
RTVSPost2010PropOp30
 70
     1
102
RTVSPost2010Prop31
280
     0
102
RTVSPost2010PropOp31
 70
     1
102
RTVSPost2010Prop32
280
     0
102
RTVSPost2010PropOp32
 70
     1
102
RTVSPost2010Prop33
280
     0
102
RTVSPost2010PropOp33
 70
     1
102
RTVSPost2010Prop34
280
     0
102
RTVSPost2010PropOp34
 70
     1
102
RTVSPost2010Prop35
280
     0
102
RTVSPost2010PropOp35
 70
     1
102
RTVSPost2010Prop36
280
     0
102
RTVSPost2010PropOp36
 70
     1
102
RTVSPost2010Prop37
 90
       50
102
RTVSPost2010PropOp37
 70
     1
102
RTVSPost2010Prop38
140
0.0
102
RTVSPost2010PropOp38
 70
     1
102
RTVSPost2010Prop39
140
1.0
102
RTVSPost2010PropOp39
 70
     1
102
RTVSPost2010Prop40
 90
        0
102
RTVSPost2010PropOp40
 70
     1
102
RTVSPost2010Prop41ColorIndex
 90
       18
102
RTVSPost2010Prop41ColorRGB
 90
        0
102
RTVSPost2010PropOp41
 70
     1
102
RTVSPost2010Prop42
 90
       50
102
RTVSPost2010PropOp42
 70
     1
102
RTVSPost2010Prop43
 90
        3
102
RTVSPost2010PropOp43
 70
     1
102
RTVSPost2010Prop44ColorIndex
 90
        5
102
RTVSPost2010Prop44ColorRGB
 90
      255
102
RTVSPost2010PropOp44
 70
     1
102
RTVSPost2010Prop45
280
     0
102
RTVSPost2010PropOp45
 70
     1
102
RTVSPost2010Prop46
 90
       50
102
RTVSPost2010PropOp46
 70
     1
102
RTVSPost2010Prop47
 90
       50
102
RTVSPost2010PropOp47
 70
     1
102
RTVSPost2010Prop48
 90
       50
102
RTVSPost2010PropOp48
 70
     1
102
RTVSPost2010Prop49
280
     0
102
RTVSPost2010PropOp49
 70
     1
102
RTVSPost2010Prop50
 90
       50
102
RTVSPost2010PropOp50
 70
     1
102
RTVSPost2010Prop51ColorIndex
 90
      256
102
RTVSPost2010Prop51ColorRGB
 90
-16777216
102
RTVSPost2010PropOp51
 70
     0
102
RTVSPost2010Prop52
140
1.0
102
RTVSPost2010PropOp52
 70
     0
102
RTVSPost2010Prop53
 90
        2
102
RTVSPost2010PropOp53
 70
     1
102
RTVSPost2010Prop54
  1
strokes_ogs.tif
102
RTVSPost2010PropOp54
 70
     1
102
RTVSPost2010Prop55
280
     0
102
RTVSPost2010PropOp55
 70
     1
102
RTVSPost2010Prop56
140
1.0
102
RTVSPost2010PropOp56
 70
     1
102
RTVSPost2010Prop57
140
1.0
102
RTVSPost2010PropOp57
 70
     1
  0
XRECORD
  5
B5
102
{ACAD_REACTORS
330
B4
102
}
330
B4
100
AcDbXrecord
280
     1
102
RTVSPropertyOp0
 70
     1
102
RTVSPropertyOp1
 70
     1
102
RTVSPropertyOp2
 70
     1
102
RTVSPropertyOp3
 70
     1
102
RTVSPropertyOp4
 70
     1
102
RTVSPropertyOp5
 70
     1
102
RTVSPropertyOp6
 70
     1
102
RTVSPropertyOp7
 70
     1
102
RTVSPropertyOp8
 70
     1
102
RTVSPropertyOp9
 70
     1
102
RTVSPropertyOp10
 70
     1
102
RTVSPropertyOp11
 70
     1
102
RTVSPropertyOp12
 70
     1
102
RTVSPropertyOp13
 70
     1
102
RTVSPropertyOp14
 70
     1
102
RTVSPropertyOp15
 70
     1
102
RTVSPropertyOp16
 70
     1
102
RTVSPropertyOp17
 70
     1
102
RTVSPropertyOp18
 70
     1
102
RTVSPropertyOp19
 70
     1
102
RTVSPropertyOp20
 70
     1
102
RTVSPropertyOp21
 70
     1
102
RTVSPropertyOp22
 70
     1
102
RTVSPropertyOp23
 70
     1
102
RTVSPropertyOp24
 70
     1
102
RTVSPropertyOp25
 70
     1
102
RTVSPropertyOp26
 70
     1
102
RTVSPropertyOp27
 70
     1
102
RTVSPropertyOp28
 70
     1
102
RTVSPropertyOp29
 70
     1
102
RTVSPropertyOp30
 70
     1
102
RTVSPropertyOp31
 70
     1
102
RTVSPropertyOp32
 70
     1
102
RTVSPropertyOp33
 70
     1
102
RTVSPropertyOp34
 70
     1
102
RTVSPropertyOp35
 70
     1
102
RTVSPropertyOp36
 70
     1
102
RTVSPropertyOp37
 70
     1
102
RTVSPropertyOp38
 70
     1
102
RTVSPropertyOp39
 70
     1
102
RTVSPropertyOp40
 70
     1
102
RTVSPropertyOp41
 70
     1
102
RTVSPropertyOp42
 70
     1
102
RTVSPropertyOp43
 70
     1
102
RTVSPropertyOp44
 70
     1
102
RTVSPropertyOp45
 70
     1
102
RTVSPropertyOp46
 70
     1
102
RTVSPropertyOp47
 70
     1
102
RTVSPropertyOp48
 70
     1
102
RTVSPropertyOp49
 70
     1
102
RTVSPropertyOp50
 70
     1
102
RTVSPropertyOp51
 70
     0
102
RTVSPropertyOp52
 70
     0
102
RTVSPropertyOp53
 70
     1
102
RTVSPropertyOp54
 70
     1
102
RTVSPropertyOp55
 70
     1
102
RTVSPropertyOp56
 70
     1
102
RTVSPropertyOp57
 70
     1
102
RTVSPost2010Prop28
280
     0
102
RTVSPost2010PropOp28
 70
     1
102
RTVSPost2010Prop29
280
     1
102
RTVSPost2010PropOp29
 70
     1
102
RTVSPost2010Prop30
280
     1
102
RTVSPost2010PropOp30
 70
     1
102
RTVSPost2010Prop31
280
     0
102
RTVSPost2010PropOp31
 70
     1
102
RTVSPost2010Prop32
280
     0
102
RTVSPost2010PropOp32
 70
     1
102
RTVSPost2010Prop33
280
     0
102
RTVSPost2010PropOp33
 70
     1
102
RTVSPost2010Prop34
280
     0
102
RTVSPost2010PropOp34
 70
     1
102
RTVSPost2010Prop35
280
     0
102
RTVSPost2010PropOp35
 70
     1
102
RTVSPost2010Prop36
280
     0
102
RTVSPost2010PropOp36
 70
     1
102
RTVSPost2010Prop37
 90
       50
102
RTVSPost2010PropOp37
 70
     1
102
RTVSPost2010Prop38
140
0.0
102
RTVSPost2010PropOp38
 70
     1
102
RTVSPost2010Prop39
140
1.0
102
RTVSPost2010PropOp39
 70
     1
102
RTVSPost2010Prop40
 90
        0
102
RTVSPost2010PropOp40
 70
     1
102
RTVSPost2010Prop41ColorIndex
 90
       18
102
RTVSPost2010Prop41ColorRGB
 90
        0
102
RTVSPost2010PropOp41
 70
     1
102
RTVSPost2010Prop42
 90
       50
102
RTVSPost2010PropOp42
 70
     1
102
RTVSPost2010Prop43
 90
        3
102
RTVSPost2010PropOp43
 70
     1
102
RTVSPost2010Prop44ColorIndex
 90
        5
102
RTVSPost2010Prop44ColorRGB
 90
      255
102
RTVSPost2010PropOp44
 70
     1
102
RTVSPost2010Prop45
280
     0
102
RTVSPost2010PropOp45
 70
     1
102
RTVSPost2010Prop46
 90
       50
102
RTVSPost2010PropOp46
 70
     1
102
RTVSPost2010Prop47
 90
       50
102
RTVSPost2010PropOp47
 70
     1
102
RTVSPost2010Prop48
 90
       50
102
RTVSPost2010PropOp48
 70
     1
102
RTVSPost2010Prop49
280
     0
102
RTVSPost2010PropOp49
 70
     1
102
RTVSPost2010Prop50
 90
       50
102
RTVSPost2010PropOp50
 70
     1
102
RTVSPost2010Prop51ColorIndex
 90
      256
102
RTVSPost2010Prop51ColorRGB
 90
-16777216
102
RTVSPost2010PropOp51
 70
     0
102
RTVSPost2010Prop52
140
1.0
102
RTVSPost2010PropOp52
 70
     0
102
RTVSPost2010Prop53
 90
        2
102
RTVSPost2010PropOp53
 70
     1
102
RTVSPost2010Prop54
  1
strokes_ogs.tif
102
RTVSPost2010PropOp54
 70
     1
102
RTVSPost2010Prop55
280
     0
102
RTVSPost2010PropOp55
 70
     1
102
RTVSPost2010Prop56
140
1.0
102
RTVSPost2010PropOp56
 70
     1
102
RTVSPost2010Prop57
140
1.0
102
RTVSPost2010PropOp57
 70
     1
  0
XRECORD
  5
A9
102
{ACAD_REACTORS
330
A8
102
}
330
A8
100
AcDbXrecord
280
     1
102
RTVSPropertyOp0
 70
     1
102
RTVSPropertyOp1
 70
     1
102
RTVSPropertyOp2
 70
     1
102
RTVSPropertyOp3
 70
     1
102
RTVSPropertyOp4
 70
     1
102
RTVSPropertyOp5
 70
     1
102
RTVSPropertyOp6
 70
     1
102
RTVSPropertyOp7
 70
     1
102
RTVSPropertyOp8
 70
     1
102
RTVSPropertyOp9
 70
     1
102
RTVSPropertyOp10
 70
     1
102
RTVSPropertyOp11
 70
     1
102
RTVSPropertyOp12
 70
     1
102
RTVSPropertyOp13
 70
     1
102
RTVSPropertyOp14
 70
     1
102
RTVSPropertyOp15
 70
     1
102
RTVSPropertyOp16
 70
     1
102
RTVSPropertyOp17
 70
     1
102
RTVSPropertyOp18
 70
     1
102
RTVSPropertyOp19
 70
     1
102
RTVSPropertyOp20
 70
     1
102
RTVSPropertyOp21
 70
     1
102
RTVSPropertyOp22
 70
     1
102
RTVSPropertyOp23
 70
     1
102
RTVSPropertyOp24
 70
     1
102
RTVSPropertyOp25
 70
     1
102
RTVSPropertyOp26
 70
     1
102
RTVSPropertyOp27
 70
     1
102
RTVSPropertyOp28
 70
     1
102
RTVSPropertyOp29
 70
     1
102
RTVSPropertyOp30
 70
     1
102
RTVSPropertyOp31
 70
     1
102
RTVSPropertyOp32
 70
     1
102
RTVSPropertyOp33
 70
     1
102
RTVSPropertyOp34
 70
     1
102
RTVSPropertyOp35
 70
     1
102
RTVSPropertyOp36
 70
     1
102
RTVSPropertyOp37
 70
     1
102
RTVSPropertyOp38
 70
     1
102
RTVSPropertyOp39
 70
     1
102
RTVSPropertyOp40
 70
     1
102
RTVSPropertyOp41
 70
     1
102
RTVSPropertyOp42
 70
     1
102
RTVSPropertyOp43
 70
     1
102
RTVSPropertyOp44
 70
     1
102
RTVSPropertyOp45
 70
     1
102
RTVSPropertyOp46
 70
     1
102
RTVSPropertyOp47
 70
     1
102
RTVSPropertyOp48
 70
     1
102
RTVSPropertyOp49
 70
     1
102
RTVSPropertyOp50
 70
     1
102
RTVSPropertyOp51
 70
     0
102
RTVSPropertyOp52
 70
     0
102
RTVSPropertyOp53
 70
     1
102
RTVSPropertyOp54
 70
     1
102
RTVSPropertyOp55
 70
     1
102
RTVSPropertyOp56
 70
     1
102
RTVSPropertyOp57
 70
     1
102
RTVSPost2010Prop28
280
     0
102
RTVSPost2010PropOp28
 70
     1
102
RTVSPost2010Prop29
280
     1
102
RTVSPost2010PropOp29
 70
     1
102
RTVSPost2010Prop30
280
     1
102
RTVSPost2010PropOp30
 70
     1
102
RTVSPost2010Prop31
280
     0
102
RTVSPost2010PropOp31
 70
     1
102
RTVSPost2010Prop32
280
     0
102
RTVSPost2010PropOp32
 70
     1
102
RTVSPost2010Prop33
280
     0
102
RTVSPost2010PropOp33
 70
     1
102
RTVSPost2010Prop34
280
     0
102
RTVSPost2010PropOp34
 70
     1
102
RTVSPost2010Prop35
280
     0
102
RTVSPost2010PropOp35
 70
     1
102
RTVSPost2010Prop36
280
     0
102
RTVSPost2010PropOp36
 70
     1
102
RTVSPost2010Prop37
 90
       50
102
RTVSPost2010PropOp37
 70
     1
102
RTVSPost2010Prop38
140
0.0
102
RTVSPost2010PropOp38
 70
     1
102
RTVSPost2010Prop39
140
1.0
102
RTVSPost2010PropOp39
 70
     1
102
RTVSPost2010Prop40
 90
        0
102
RTVSPost2010PropOp40
 70
     1
102
RTVSPost2010Prop41ColorIndex
 90
       18
102
RTVSPost2010Prop41ColorRGB
 90
        0
102
RTVSPost2010PropOp41
 70
     1
102
RTVSPost2010Prop42
 90
       50
102
RTVSPost2010PropOp42
 70
     1
102
RTVSPost2010Prop43
 90
        3
102
RTVSPost2010PropOp43
 70
     1
102
RTVSPost2010Prop44ColorIndex
 90
        5
102
RTVSPost2010Prop44ColorRGB
 90
      255
102
RTVSPost2010PropOp44
 70
     1
102
RTVSPost2010Prop45
280
     0
102
RTVSPost2010PropOp45
 70
     1
102
RTVSPost2010Prop46
 90
       50
102
RTVSPost2010PropOp46
 70
     1
102
RTVSPost2010Prop47
 90
       50
102
RTVSPost2010PropOp47
 70
     1
102
RTVSPost2010Prop48
 90
       50
102
RTVSPost2010PropOp48
 70
     1
102
RTVSPost2010Prop49
280
     0
102
RTVSPost2010PropOp49
 70
     1
102
RTVSPost2010Prop50
 90
       50
102
RTVSPost2010PropOp50
 70
     1
102
RTVSPost2010Prop51ColorIndex
 90
      256
102
RTVSPost2010Prop51ColorRGB
 90
-16777216
102
RTVSPost2010PropOp51
 70
     0
102
RTVSPost2010Prop52
140
1.0
102
RTVSPost2010PropOp52
 70
     0
102
RTVSPost2010Prop53
 90
        2
102
RTVSPost2010PropOp53
 70
     1
102
RTVSPost2010Prop54
  1
strokes_ogs.tif
102
RTVSPost2010PropOp54
 70
     1
102
RTVSPost2010Prop55
280
     0
102
RTVSPost2010PropOp55
 70
     1
102
RTVSPost2010Prop56
140
1.0
102
RTVSPost2010PropOp56
 70
     1
102
RTVSPost2010Prop57
140
1.0
102
RTVSPost2010PropOp57
 70
     1
  0
XRECORD
  5
AB
102
{ACAD_REACTORS
330
AA
102
}
330
AA
100
AcDbXrecord
280
     1
102
RTVSPropertyOp0
 70
     1
102
RTVSPropertyOp1
 70
     1
102
RTVSPropertyOp2
 70
     1
102
RTVSPropertyOp3
 70
     1
102
RTVSPropertyOp4
 70
     1
102
RTVSPropertyOp5
 70
     1
102
RTVSPropertyOp6
 70
     1
102
RTVSPropertyOp7
 70
     1
102
RTVSPropertyOp8
 70
     1
102
RTVSPropertyOp9
 70
     1
102
RTVSPropertyOp10
 70
     1
102
RTVSPropertyOp11
 70
     1
102
RTVSPropertyOp12
 70
     1
102
RTVSPropertyOp13
 70
     1
102
RTVSPropertyOp14
 70
     1
102
RTVSPropertyOp15
 70
     1
102
RTVSPropertyOp16
 70
     1
102
RTVSPropertyOp17
 70
     1
102
RTVSPropertyOp18
 70
     1
102
RTVSPropertyOp19
 70
     1
102
RTVSPropertyOp20
 70
     1
102
RTVSPropertyOp21
 70
     1
102
RTVSPropertyOp22
 70
     1
102
RTVSPropertyOp23
 70
     1
102
RTVSPropertyOp24
 70
     1
102
RTVSPropertyOp25
 70
     1
102
RTVSPropertyOp26
 70
     1
102
RTVSPropertyOp27
 70
     1
102
RTVSPropertyOp28
 70
     1
102
RTVSPropertyOp29
 70
     1
102
RTVSPropertyOp30
 70
     1
102
RTVSPropertyOp31
 70
     1
102
RTVSPropertyOp32
 70
     1
102
RTVSPropertyOp33
 70
     1
102
RTVSPropertyOp34
 70
     1
102
RTVSPropertyOp35
 70
     1
102
RTVSPropertyOp36
 70
     1
102
RTVSPropertyOp37
 70
     1
102
RTVSPropertyOp38
 70
     1
102
RTVSPropertyOp39
 70
     1
102
RTVSPropertyOp40
 70
     1
102
RTVSPropertyOp41
 70
     1
102
RTVSPropertyOp42
 70
     1
102
RTVSPropertyOp43
 70
     1
102
RTVSPropertyOp44
 70
     1
102
RTVSPropertyOp45
 70
     1
102
RTVSPropertyOp46
 70
     1
102
RTVSPropertyOp47
 70
     1
102
RTVSPropertyOp48
 70
     1
102
RTVSPropertyOp49
 70
     1
102
RTVSPropertyOp50
 70
     1
102
RTVSPropertyOp51
 70
     0
102
RTVSPropertyOp52
 70
     0
102
RTVSPropertyOp53
 70
     1
102
RTVSPropertyOp54
 70
     1
102
RTVSPropertyOp55
 70
     1
102
RTVSPropertyOp56
 70
     1
102
RTVSPropertyOp57
 70
     1
102
RTVSPost2010Prop28
280
     0
102
RTVSPost2010PropOp28
 70
     1
102
RTVSPost2010Prop29
280
     1
102
RTVSPost2010PropOp29
 70
     1
102
RTVSPost2010Prop30
280
     1
102
RTVSPost2010PropOp30
 70
     1
102
RTVSPost2010Prop31
280
     0
102
RTVSPost2010PropOp31
 70
     1
102
RTVSPost2010Prop32
280
     0
102
RTVSPost2010PropOp32
 70
     1
102
RTVSPost2010Prop33
280
     0
102
RTVSPost2010PropOp33
 70
     1
102
RTVSPost2010Prop34
280
     0
102
RTVSPost2010PropOp34
 70
     1
102
RTVSPost2010Prop35
280
     0
102
RTVSPost2010PropOp35
 70
     1
102
RTVSPost2010Prop36
280
     0
102
RTVSPost2010PropOp36
 70
     1
102
RTVSPost2010Prop37
 90
       50
102
RTVSPost2010PropOp37
 70
     1
102
RTVSPost2010Prop38
140
0.0
102
RTVSPost2010PropOp38
 70
     1
102
RTVSPost2010Prop39
140
1.0
102
RTVSPost2010PropOp39
 70
     1
102
RTVSPost2010Prop40
 90
        0
102
RTVSPost2010PropOp40
 70
     1
102
RTVSPost2010Prop41ColorIndex
 90
       18
102
RTVSPost2010Prop41ColorRGB
 90
        0
102
RTVSPost2010PropOp41
 70
     1
102
RTVSPost2010Prop42
 90
       50
102
RTVSPost2010PropOp42
 70
     1
102
RTVSPost2010Prop43
 90
        3
102
RTVSPost2010PropOp43
 70
     1
102
RTVSPost2010Prop44ColorIndex
 90
        5
102
RTVSPost2010Prop44ColorRGB
 90
      255
102
RTVSPost2010PropOp44
 70
     1
102
RTVSPost2010Prop45
280
     0
102
RTVSPost2010PropOp45
 70
     1
102
RTVSPost2010Prop46
 90
       50
102
RTVSPost2010PropOp46
 70
     1
102
RTVSPost2010Prop47
 90
       50
102
RTVSPost2010PropOp47
 70
     1
102
RTVSPost2010Prop48
 90
       50
102
RTVSPost2010PropOp48
 70
     1
102
RTVSPost2010Prop49
280
     0
102
RTVSPost2010PropOp49
 70
     1
102
RTVSPost2010Prop50
 90
       50
102
RTVSPost2010PropOp50
 70
     1
102
RTVSPost2010Prop51ColorIndex
 90
      256
102
RTVSPost2010Prop51ColorRGB
 90
-16777216
102
RTVSPost2010PropOp51
 70
     0
102
RTVSPost2010Prop52
140
1.0
102
RTVSPost2010PropOp52
 70
     0
102
RTVSPost2010Prop53
 90
        2
102
RTVSPost2010PropOp53
 70
     1
102
RTVSPost2010Prop54
  1
strokes_ogs.tif
102
RTVSPost2010PropOp54
 70
     1
102
RTVSPost2010Prop55
280
     0
102
RTVSPost2010PropOp55
 70
     1
102
RTVSPost2010Prop56
140
1.0
102
RTVSPost2010PropOp56
 70
     1
102
RTVSPost2010Prop57
140
1.0
102
RTVSPost2010PropOp57
 70
     1
  0
XRECORD
  5
BB
102
{ACAD_REACTORS
330
BA
102
}
330
BA
100
AcDbXrecord
280
     1
102
RTVSPropertyOp0
 70
     0
102
RTVSPropertyOp1
 70
     0
102
RTVSPropertyOp2
 70
     0
102
RTVSPropertyOp3
 70
     0
102
RTVSPropertyOp4
 70
     0
102
RTVSPropertyOp5
 70
     0
102
RTVSPropertyOp6
 70
     0
102
RTVSPropertyOp7
 70
     0
102
RTVSPropertyOp8
 70
     0
102
RTVSPropertyOp9
 70
     0
102
RTVSPropertyOp10
 70
     0
102
RTVSPropertyOp11
 70
     0
102
RTVSPropertyOp12
 70
     0
102
RTVSPropertyOp13
 70
     0
102
RTVSPropertyOp14
 70
     2
102
RTVSPropertyOp15
 70
     0
102
RTVSPropertyOp16
 70
     0
102
RTVSPropertyOp17
 70
     0
102
RTVSPropertyOp18
 70
     0
102
RTVSPropertyOp19
 70
     0
102
RTVSPropertyOp20
 70
     0
102
RTVSPropertyOp21
 70
     0
102
RTVSPropertyOp22
 70
     0
102
RTVSPropertyOp23
 70
     0
102
RTVSPropertyOp24
 70
     0
102
RTVSPropertyOp25
 70
     0
102
RTVSPropertyOp26
 70
     0
102
RTVSPropertyOp27
 70
     0
102
RTVSPropertyOp28
 70
     0
102
RTVSPropertyOp29
 70
     0
102
RTVSPropertyOp30
 70
     0
102
RTVSPropertyOp31
 70
     0
102
RTVSPropertyOp32
 70
     0
102
RTVSPropertyOp33
 70
     0
102
RTVSPropertyOp34
 70
     0
102
RTVSPropertyOp35
 70
     0
102
RTVSPropertyOp36
 70
     0
102
RTVSPropertyOp37
 70
     0
102
RTVSPropertyOp38
 70
     0
102
RTVSPropertyOp39
 70
     0
102
RTVSPropertyOp40
 70
     0
102
RTVSPropertyOp41
 70
     0
102
RTVSPropertyOp42
 70
     0
102
RTVSPropertyOp43
 70
     0
102
RTVSPropertyOp44
 70
     0
102
RTVSPropertyOp45
 70
     0
102
RTVSPropertyOp46
 70
     0
102
RTVSPropertyOp47
 70
     0
102
RTVSPropertyOp48
 70
     0
102
RTVSPropertyOp49
 70
     0
102
RTVSPropertyOp50
 70
     0
102
RTVSPropertyOp51
 70
     0
102
RTVSPropertyOp52
 70
     0
102
RTVSPropertyOp53
 70
     0
102
RTVSPropertyOp54
 70
     0
102
RTVSPropertyOp55
 70
     0
102
RTVSPropertyOp56
 70
     0
102
RTVSPropertyOp57
 70
     0
102
RTVSPost2010Prop28
280
     0
102
RTVSPost2010PropOp28
 70
     0
102
RTVSPost2010Prop29
280
     1
102
RTVSPost2010PropOp29
 70
     0
102
RTVSPost2010Prop30
280
     1
102
RTVSPost2010PropOp30
 70
     0
102
RTVSPost2010Prop31
280
     0
102
RTVSPost2010PropOp31
 70
     0
102
RTVSPost2010Prop32
280
     0
102
RTVSPost2010PropOp32
 70
     0
102
RTVSPost2010Prop33
280
     0
102
RTVSPost2010PropOp33
 70
     0
102
RTVSPost2010Prop34
280
     0
102
RTVSPost2010PropOp34
 70
     0
102
RTVSPost2010Prop35
280
     0
102
RTVSPost2010PropOp35
 70
     0
102
RTVSPost2010Prop36
280
     0
102
RTVSPost2010PropOp36
 70
     0
102
RTVSPost2010Prop37
 90
       50
102
RTVSPost2010PropOp37
 70
     0
102
RTVSPost2010Prop38
140
0.0
102
RTVSPost2010PropOp38
 70
     0
102
RTVSPost2010Prop39
140
1.0
102
RTVSPost2010PropOp39
 70
     0
102
RTVSPost2010Prop40
 90
        0
102
RTVSPost2010PropOp40
 70
     0
102
RTVSPost2010Prop41ColorIndex
 90
       18
102
RTVSPost2010Prop41ColorRGB
 90
        0
102
RTVSPost2010PropOp41
 70
     0
102
RTVSPost2010Prop42
 90
       50
102
RTVSPost2010PropOp42
 70
     0
102
RTVSPost2010Prop43
 90
        3
102
RTVSPost2010PropOp43
 70
     0
102
RTVSPost2010Prop44ColorIndex
 90
        5
102
RTVSPost2010Prop44ColorRGB
 90
      255
102
RTVSPost2010PropOp44
 70
     0
102
RTVSPost2010Prop45
280
     0
102
RTVSPost2010PropOp45
 70
     0
102
RTVSPost2010Prop46
 90
       50
102
RTVSPost2010PropOp46
 70
     0
102
RTVSPost2010Prop47
 90
       50
102
RTVSPost2010PropOp47
 70
     0
102
RTVSPost2010Prop48
 90
       50
102
RTVSPost2010PropOp48
 70
     0
102
RTVSPost2010Prop49
280
     0
102
RTVSPost2010PropOp49
 70
     0
102
RTVSPost2010Prop50
 90
       50
102
RTVSPost2010PropOp50
 70
     0
102
RTVSPost2010Prop51ColorIndex
 90
      256
102
RTVSPost2010Prop51ColorRGB
 90
-16777216
102
RTVSPost2010PropOp51
 70
     0
102
RTVSPost2010Prop52
140
1.0
102
RTVSPost2010PropOp52
 70
     0
102
RTVSPost2010Prop53
 90
        2
102
RTVSPost2010PropOp53
 70
     0
102
RTVSPost2010Prop54
  1
strokes_ogs.tif
102
RTVSPost2010PropOp54
 70
     0
102
RTVSPost2010Prop55
280
     0
102
RTVSPost2010PropOp55
 70
     0
102
RTVSPost2010Prop56
140
1.0
102
RTVSPost2010PropOp56
 70
     0
102
RTVSPost2010Prop57
140
1.0
102
RTVSPost2010PropOp57
 70
     0
  0
XRECORD
  5
B3
102
{ACAD_REACTORS
330
B2
102
}
330
B2
100
AcDbXrecord
280
     1
102
RTVSPropertyOp0
 70
     1
102
RTVSPropertyOp1
 70
     1
102
RTVSPropertyOp2
 70
     1
102
RTVSPropertyOp3
 70
     1
102
RTVSPropertyOp4
 70
     1
102
RTVSPropertyOp5
 70
     1
102
RTVSPropertyOp6
 70
     1
102
RTVSPropertyOp7
 70
     1
102
RTVSPropertyOp8
 70
     1
102
RTVSPropertyOp9
 70
     1
102
RTVSPropertyOp10
 70
     1
102
RTVSPropertyOp11
 70
     1
102
RTVSPropertyOp12
 70
     1
102
RTVSPropertyOp13
 70
     1
102
RTVSPropertyOp14
 70
     1
102
RTVSPropertyOp15
 70
     1
102
RTVSPropertyOp16
 70
     1
102
RTVSPropertyOp17
 70
     1
102
RTVSPropertyOp18
 70
     1
102
RTVSPropertyOp19
 70
     1
102
RTVSPropertyOp20
 70
     1
102
RTVSPropertyOp21
 70
     1
102
RTVSPropertyOp22
 70
     1
102
RTVSPropertyOp23
 70
     1
102
RTVSPropertyOp24
 70
     1
102
RTVSPropertyOp25
 70
     1
102
RTVSPropertyOp26
 70
     1
102
RTVSPropertyOp27
 70
     1
102
RTVSPropertyOp28
 70
     1
102
RTVSPropertyOp29
 70
     1
102
RTVSPropertyOp30
 70
     1
102
RTVSPropertyOp31
 70
     1
102
RTVSPropertyOp32
 70
     1
102
RTVSPropertyOp33
 70
     1
102
RTVSPropertyOp34
 70
     1
102
RTVSPropertyOp35
 70
     1
102
RTVSPropertyOp36
 70
     1
102
RTVSPropertyOp37
 70
     1
102
RTVSPropertyOp38
 70
     1
102
RTVSPropertyOp39
 70
     1
102
RTVSPropertyOp40
 70
     1
102
RTVSPropertyOp41
 70
     1
102
RTVSPropertyOp42
 70
     1
102
RTVSPropertyOp43
 70
     1
102
RTVSPropertyOp44
 70
     1
102
RTVSPropertyOp45
 70
     1
102
RTVSPropertyOp46
 70
     1
102
RTVSPropertyOp47
 70
     1
102
RTVSPropertyOp48
 70
     1
102
RTVSPropertyOp49
 70
     1
102
RTVSPropertyOp50
 70
     1
102
RTVSPropertyOp51
 70
     0
102
RTVSPropertyOp52
 70
     0
102
RTVSPropertyOp53
 70
     1
102
RTVSPropertyOp54
 70
     1
102
RTVSPropertyOp55
 70
     1
102
RTVSPropertyOp56
 70
     1
102
RTVSPropertyOp57
 70
     1
102
RTVSPost2010Prop28
280
     0
102
RTVSPost2010PropOp28
 70
     1
102
RTVSPost2010Prop29
280
     1
102
RTVSPost2010PropOp29
 70
     1
102
RTVSPost2010Prop30
280
     1
102
RTVSPost2010PropOp30
 70
     1
102
RTVSPost2010Prop31
280
     0
102
RTVSPost2010PropOp31
 70
     1
102
RTVSPost2010Prop32
280
     0
102
RTVSPost2010PropOp32
 70
     1
102
RTVSPost2010Prop33
280
     0
102
RTVSPost2010PropOp33
 70
     1
102
RTVSPost2010Prop34
280
     0
102
RTVSPost2010PropOp34
 70
     1
102
RTVSPost2010Prop35
280
     0
102
RTVSPost2010PropOp35
 70
     1
102
RTVSPost2010Prop36
280
     0
102
RTVSPost2010PropOp36
 70
     1
102
RTVSPost2010Prop37
 90
       50
102
RTVSPost2010PropOp37
 70
     1
102
RTVSPost2010Prop38
140
0.0
102
RTVSPost2010PropOp38
 70
     1
102
RTVSPost2010Prop39
140
1.0
102
RTVSPost2010PropOp39
 70
     1
102
RTVSPost2010Prop40
 90
        0
102
RTVSPost2010PropOp40
 70
     1
102
RTVSPost2010Prop41ColorIndex
 90
       18
102
RTVSPost2010Prop41ColorRGB
 90
        0
102
RTVSPost2010PropOp41
 70
     1
102
RTVSPost2010Prop42
 90
       50
102
RTVSPost2010PropOp42
 70
     1
102
RTVSPost2010Prop43
 90
        3
102
RTVSPost2010PropOp43
 70
     1
102
RTVSPost2010Prop44ColorIndex
 90
        5
102
RTVSPost2010Prop44ColorRGB
 90
      255
102
RTVSPost2010PropOp44
 70
     1
102
RTVSPost2010Prop45
280
     0
102
RTVSPost2010PropOp45
 70
     1
102
RTVSPost2010Prop46
 90
       50
102
RTVSPost2010PropOp46
 70
     1
102
RTVSPost2010Prop47
 90
       50
102
RTVSPost2010PropOp47
 70
     1
102
RTVSPost2010Prop48
 90
       50
102
RTVSPost2010PropOp48
 70
     1
102
RTVSPost2010Prop49
280
     0
102
RTVSPost2010PropOp49
 70
     1
102
RTVSPost2010Prop50
 90
       50
102
RTVSPost2010PropOp50
 70
     1
102
RTVSPost2010Prop51ColorIndex
 90
      256
102
RTVSPost2010Prop51ColorRGB
 90
-16777216
102
RTVSPost2010PropOp51
 70
     0
102
RTVSPost2010Prop52
140
1.0
102
RTVSPost2010PropOp52
 70
     0
102
RTVSPost2010Prop53
 90
        2
102
RTVSPost2010PropOp53
 70
     1
102
RTVSPost2010Prop54
  1
strokes_ogs.tif
102
RTVSPost2010PropOp54
 70
     1
102
RTVSPost2010Prop55
280
     0
102
RTVSPost2010PropOp55
 70
     1
102
RTVSPost2010Prop56
140
1.0
102
RTVSPost2010PropOp56
 70
     1
102
RTVSPost2010Prop57
140
1.0
102
RTVSPost2010PropOp57
 70
     1
  0
XRECORD
  5
97
102
{ACAD_REACTORS
330
96
102
}
330
96
100
AcDbXrecord
280
     1
102
RTVSPropertyOp0
 70
     1
102
RTVSPropertyOp1
 70
     1
102
RTVSPropertyOp2
 70
     1
102
RTVSPropertyOp3
 70
     1
102
RTVSPropertyOp4
 70
     1
102
RTVSPropertyOp5
 70
     1
102
RTVSPropertyOp6
 70
     1
102
RTVSPropertyOp7
 70
     1
102
RTVSPropertyOp8
 70
     1
102
RTVSPropertyOp9
 70
     1
102
RTVSPropertyOp10
 70
     1
102
RTVSPropertyOp11
 70
     1
102
RTVSPropertyOp12
 70
     1
102
RTVSPropertyOp13
 70
     1
102
RTVSPropertyOp14
 70
     1
102
RTVSPropertyOp15
 70
     1
102
RTVSPropertyOp16
 70
     1
102
RTVSPropertyOp17
 70
     1
102
RTVSPropertyOp18
 70
     1
102
RTVSPropertyOp19
 70
     1
102
RTVSPropertyOp20
 70
     1
102
RTVSPropertyOp21
 70
     1
102
RTVSPropertyOp22
 70
     1
102
RTVSPropertyOp23
 70
     1
102
RTVSPropertyOp24
 70
     1
102
RTVSPropertyOp25
 70
     1
102
RTVSPropertyOp26
 70
     1
102
RTVSPropertyOp27
 70
     1
102
RTVSPropertyOp28
 70
     1
102
RTVSPropertyOp29
 70
     1
102
RTVSPropertyOp30
 70
     1
102
RTVSPropertyOp31
 70
     1
102
RTVSPropertyOp32
 70
     1
102
RTVSPropertyOp33
 70
     1
102
RTVSPropertyOp34
 70
     1
102
RTVSPropertyOp35
 70
     1
102
RTVSPropertyOp36
 70
     1
102
RTVSPropertyOp37
 70
     1
102
RTVSPropertyOp38
 70
     1
102
RTVSPropertyOp39
 70
     1
102
RTVSPropertyOp40
 70
     1
102
RTVSPropertyOp41
 70
     1
102
RTVSPropertyOp42
 70
     1
102
RTVSPropertyOp43
 70
     1
102
RTVSPropertyOp44
 70
     1
102
RTVSPropertyOp45
 70
     1
102
RTVSPropertyOp46
 70
     1
102
RTVSPropertyOp47
 70
     1
102
RTVSPropertyOp48
 70
     1
102
RTVSPropertyOp49
 70
     1
102
RTVSPropertyOp50
 70
     1
102
RTVSPropertyOp51
 70
     0
102
RTVSPropertyOp52
 70
     0
102
RTVSPropertyOp53
 70
     1
102
RTVSPropertyOp54
 70
     1
102
RTVSPropertyOp55
 70
     1
102
RTVSPropertyOp56
 70
     1
102
RTVSPropertyOp57
 70
     1
102
RTVSPost2010Prop28
280
     0
102
RTVSPost2010PropOp28
 70
     1
102
RTVSPost2010Prop29
280
     1
102
RTVSPost2010PropOp29
 70
     1
102
RTVSPost2010Prop30
280
     1
102
RTVSPost2010PropOp30
 70
     1
102
RTVSPost2010Prop31
280
     0
102
RTVSPost2010PropOp31
 70
     1
102
RTVSPost2010Prop32
280
     0
102
RTVSPost2010PropOp32
 70
     1
102
RTVSPost2010Prop33
280
     0
102
RTVSPost2010PropOp33
 70
     1
102
RTVSPost2010Prop34
280
     0
102
RTVSPost2010PropOp34
 70
     1
102
RTVSPost2010Prop35
280
     0
102
RTVSPost2010PropOp35
 70
     1
102
RTVSPost2010Prop36
280
     0
102
RTVSPost2010PropOp36
 70
     1
102
RTVSPost2010Prop37
 90
       50
102
RTVSPost2010PropOp37
 70
     1
102
RTVSPost2010Prop38
140
0.0
102
RTVSPost2010PropOp38
 70
     1
102
RTVSPost2010Prop39
140
1.0
102
RTVSPost2010PropOp39
 70
     1
102
RTVSPost2010Prop40
 90
        0
102
RTVSPost2010PropOp40
 70
     1
102
RTVSPost2010Prop41ColorIndex
 90
       18
102
RTVSPost2010Prop41ColorRGB
 90
        0
102
RTVSPost2010PropOp41
 70
     1
102
RTVSPost2010Prop42
 90
       50
102
RTVSPost2010PropOp42
 70
     1
102
RTVSPost2010Prop43
 90
        3
102
RTVSPost2010PropOp43
 70
     1
102
RTVSPost2010Prop44ColorIndex
 90
        5
102
RTVSPost2010Prop44ColorRGB
 90
      255
102
RTVSPost2010PropOp44
 70
     1
102
RTVSPost2010Prop45
280
     0
102
RTVSPost2010PropOp45
 70
     1
102
RTVSPost2010Prop46
 90
       50
102
RTVSPost2010PropOp46
 70
     1
102
RTVSPost2010Prop47
 90
       50
102
RTVSPost2010PropOp47
 70
     1
102
RTVSPost2010Prop48
 90
       50
102
RTVSPost2010PropOp48
 70
     1
102
RTVSPost2010Prop49
280
     0
102
RTVSPost2010PropOp49
 70
     1
102
RTVSPost2010Prop50
 90
       50
102
RTVSPost2010PropOp50
 70
     1
102
RTVSPost2010Prop51ColorIndex
 90
      256
102
RTVSPost2010Prop51ColorRGB
 90
-16777216
102
RTVSPost2010PropOp51
 70
     0
102
RTVSPost2010Prop52
140
1.0
102
RTVSPost2010PropOp52
 70
     0
102
RTVSPost2010Prop53
 90
        2
102
RTVSPost2010PropOp53
 70
     1
102
RTVSPost2010Prop54
  1
strokes_ogs.tif
102
RTVSPost2010PropOp54
 70
     1
102
RTVSPost2010Prop55
280
     0
102
RTVSPost2010PropOp55
 70
     1
102
RTVSPost2010Prop56
140
1.0
102
RTVSPost2010PropOp56
 70
     1
102
RTVSPost2010Prop57
140
1.0
102
RTVSPost2010PropOp57
 70
     1
  0
XRECORD
  5
99
102
{ACAD_REACTORS
330
98
102
}
330
98
100
AcDbXrecord
280
     1
102
RTVSPropertyOp0
 70
     1
102
RTVSPropertyOp1
 70
     1
102
RTVSPropertyOp2
 70
     1
102
RTVSPropertyOp3
 70
     1
102
RTVSPropertyOp4
 70
     1
102
RTVSPropertyOp5
 70
     1
102
RTVSPropertyOp6
 70
     1
102
RTVSPropertyOp7
 70
     1
102
RTVSPropertyOp8
 70
     1
102
RTVSPropertyOp9
 70
     1
102
RTVSPropertyOp10
 70
     1
102
RTVSPropertyOp11
 70
     1
102
RTVSPropertyOp12
 70
     1
102
RTVSPropertyOp13
 70
     1
102
RTVSPropertyOp14
 70
     1
102
RTVSPropertyOp15
 70
     1
102
RTVSPropertyOp16
 70
     1
102
RTVSPropertyOp17
 70
     1
102
RTVSPropertyOp18
 70
     1
102
RTVSPropertyOp19
 70
     1
102
RTVSPropertyOp20
 70
     1
102
RTVSPropertyOp21
 70
     1
102
RTVSPropertyOp22
 70
     1
102
RTVSPropertyOp23
 70
     1
102
RTVSPropertyOp24
 70
     1
102
RTVSPropertyOp25
 70
     1
102
RTVSPropertyOp26
 70
     1
102
RTVSPropertyOp27
 70
     1
102
RTVSPropertyOp28
 70
     1
102
RTVSPropertyOp29
 70
     1
102
RTVSPropertyOp30
 70
     1
102
RTVSPropertyOp31
 70
     1
102
RTVSPropertyOp32
 70
     1
102
RTVSPropertyOp33
 70
     1
102
RTVSPropertyOp34
 70
     1
102
RTVSPropertyOp35
 70
     1
102
RTVSPropertyOp36
 70
     1
102
RTVSPropertyOp37
 70
     1
102
RTVSPropertyOp38
 70
     1
102
RTVSPropertyOp39
 70
     1
102
RTVSPropertyOp40
 70
     1
102
RTVSPropertyOp41
 70
     1
102
RTVSPropertyOp42
 70
     1
102
RTVSPropertyOp43
 70
     1
102
RTVSPropertyOp44
 70
     1
102
RTVSPropertyOp45
 70
     1
102
RTVSPropertyOp46
 70
     1
102
RTVSPropertyOp47
 70
     1
102
RTVSPropertyOp48
 70
     1
102
RTVSPropertyOp49
 70
     1
102
RTVSPropertyOp50
 70
     1
102
RTVSPropertyOp51
 70
     0
102
RTVSPropertyOp52
 70
     0
102
RTVSPropertyOp53
 70
     1
102
RTVSPropertyOp54
 70
     1
102
RTVSPropertyOp55
 70
     1
102
RTVSPropertyOp56
 70
     1
102
RTVSPropertyOp57
 70
     1
102
RTVSPost2010Prop28
280
     0
102
RTVSPost2010PropOp28
 70
     1
102
RTVSPost2010Prop29
280
     1
102
RTVSPost2010PropOp29
 70
     1
102
RTVSPost2010Prop30
280
     1
102
RTVSPost2010PropOp30
 70
     1
102
RTVSPost2010Prop31
280
     0
102
RTVSPost2010PropOp31
 70
     1
102
RTVSPost2010Prop32
280
     0
102
RTVSPost2010PropOp32
 70
     1
102
RTVSPost2010Prop33
280
     0
102
RTVSPost2010PropOp33
 70
     1
102
RTVSPost2010Prop34
280
     0
102
RTVSPost2010PropOp34
 70
     1
102
RTVSPost2010Prop35
280
     0
102
RTVSPost2010PropOp35
 70
     1
102
RTVSPost2010Prop36
280
     0
102
RTVSPost2010PropOp36
 70
     1
102
RTVSPost2010Prop37
 90
       50
102
RTVSPost2010PropOp37
 70
     1
102
RTVSPost2010Prop38
140
0.0
102
RTVSPost2010PropOp38
 70
     1
102
RTVSPost2010Prop39
140
1.0
102
RTVSPost2010PropOp39
 70
     1
102
RTVSPost2010Prop40
 90
        0
102
RTVSPost2010PropOp40
 70
     1
102
RTVSPost2010Prop41ColorIndex
 90
       18
102
RTVSPost2010Prop41ColorRGB
 90
        0
102
RTVSPost2010PropOp41
 70
     1
102
RTVSPost2010Prop42
 90
       50
102
RTVSPost2010PropOp42
 70
     1
102
RTVSPost2010Prop43
 90
        3
102
RTVSPost2010PropOp43
 70
     1
102
RTVSPost2010Prop44ColorIndex
 90
        5
102
RTVSPost2010Prop44ColorRGB
 90
      255
102
RTVSPost2010PropOp44
 70
     1
102
RTVSPost2010Prop45
280
     0
102
RTVSPost2010PropOp45
 70
     1
102
RTVSPost2010Prop46
 90
       50
102
RTVSPost2010PropOp46
 70
     1
102
RTVSPost2010Prop47
 90
       50
102
RTVSPost2010PropOp47
 70
     1
102
RTVSPost2010Prop48
 90
       50
102
RTVSPost2010PropOp48
 70
     1
102
RTVSPost2010Prop49
280
     0
102
RTVSPost2010PropOp49
 70
     1
102
RTVSPost2010Prop50
 90
       50
102
RTVSPost2010PropOp50
 70
     1
102
RTVSPost2010Prop51ColorIndex
 90
      256
102
RTVSPost2010Prop51ColorRGB
 90
-16777216
102
RTVSPost2010PropOp51
 70
     0
102
RTVSPost2010Prop52
140
1.0
102
RTVSPost2010PropOp52
 70
     0
102
RTVSPost2010Prop53
 90
        2
102
RTVSPost2010PropOp53
 70
     1
102
RTVSPost2010Prop54
  1
strokes_ogs.tif
102
RTVSPost2010PropOp54
 70
     1
102
RTVSPost2010Prop55
280
     0
102
RTVSPost2010PropOp55
 70
     1
102
RTVSPost2010Prop56
140
1.0
102
RTVSPost2010PropOp56
 70
     1
102
RTVSPost2010Prop57
140
1.0
102
RTVSPost2010PropOp57
 70
     1
  0
XRECORD
  5
9B
102
{ACAD_REACTORS
330
9A
102
}
330
9A
100
AcDbXrecord
280
     1
102
RTVSPropertyOp0
 70
     1
102
RTVSPropertyOp1
 70
     1
102
RTVSPropertyOp2
 70
     1
102
RTVSPropertyOp3
 70
     1
102
RTVSPropertyOp4
 70
     1
102
RTVSPropertyOp5
 70
     1
102
RTVSPropertyOp6
 70
     1
102
RTVSPropertyOp7
 70
     1
102
RTVSPropertyOp8
 70
     1
102
RTVSPropertyOp9
 70
     1
102
RTVSPropertyOp10
 70
     1
102
RTVSPropertyOp11
 70
     1
102
RTVSPropertyOp12
 70
     1
102
RTVSPropertyOp13
 70
     1
102
RTVSPropertyOp14
 70
     1
102
RTVSPropertyOp15
 70
     1
102
RTVSPropertyOp16
 70
     1
102
RTVSPropertyOp17
 70
     1
102
RTVSPropertyOp18
 70
     1
102
RTVSPropertyOp19
 70
     1
102
RTVSPropertyOp20
 70
     1
102
RTVSPropertyOp21
 70
     1
102
RTVSPropertyOp22
 70
     1
102
RTVSPropertyOp23
 70
     1
102
RTVSPropertyOp24
 70
     1
102
RTVSPropertyOp25
 70
     1
102
RTVSPropertyOp26
 70
     1
102
RTVSPropertyOp27
 70
     1
102
RTVSPropertyOp28
 70
     1
102
RTVSPropertyOp29
 70
     1
102
RTVSPropertyOp30
 70
     1
102
RTVSPropertyOp31
 70
     1
102
RTVSPropertyOp32
 70
     1
102
RTVSPropertyOp33
 70
     1
102
RTVSPropertyOp34
 70
     1
102
RTVSPropertyOp35
 70
     1
102
RTVSPropertyOp36
 70
     1
102
RTVSPropertyOp37
 70
     1
102
RTVSPropertyOp38
 70
     1
102
RTVSPropertyOp39
 70
     1
102
RTVSPropertyOp40
 70
     1
102
RTVSPropertyOp41
 70
     1
102
RTVSPropertyOp42
 70
     1
102
RTVSPropertyOp43
 70
     1
102
RTVSPropertyOp44
 70
     1
102
RTVSPropertyOp45
 70
     1
102
RTVSPropertyOp46
 70
     1
102
RTVSPropertyOp47
 70
     1
102
RTVSPropertyOp48
 70
     1
102
RTVSPropertyOp49
 70
     1
102
RTVSPropertyOp50
 70
     1
102
RTVSPropertyOp51
 70
     0
102
RTVSPropertyOp52
 70
     0
102
RTVSPropertyOp53
 70
     1
102
RTVSPropertyOp54
 70
     1
102
RTVSPropertyOp55
 70
     1
102
RTVSPropertyOp56
 70
     1
102
RTVSPropertyOp57
 70
     1
102
RTVSPost2010Prop28
280
     0
102
RTVSPost2010PropOp28
 70
     1
102
RTVSPost2010Prop29
280
     1
102
RTVSPost2010PropOp29
 70
     1
102
RTVSPost2010Prop30
280
     1
102
RTVSPost2010PropOp30
 70
     1
102
RTVSPost2010Prop31
280
     0
102
RTVSPost2010PropOp31
 70
     1
102
RTVSPost2010Prop32
280
     0
102
RTVSPost2010PropOp32
 70
     1
102
RTVSPost2010Prop33
280
     0
102
RTVSPost2010PropOp33
 70
     1
102
RTVSPost2010Prop34
280
     0
102
RTVSPost2010PropOp34
 70
     1
102
RTVSPost2010Prop35
280
     0
102
RTVSPost2010PropOp35
 70
     1
102
RTVSPost2010Prop36
280
     0
102
RTVSPost2010PropOp36
 70
     1
102
RTVSPost2010Prop37
 90
       50
102
RTVSPost2010PropOp37
 70
     1
102
RTVSPost2010Prop38
140
0.0
102
RTVSPost2010PropOp38
 70
     1
102
RTVSPost2010Prop39
140
1.0
102
RTVSPost2010PropOp39
 70
     1
102
RTVSPost2010Prop40
 90
        0
102
RTVSPost2010PropOp40
 70
     1
102
RTVSPost2010Prop41ColorIndex
 90
       18
102
RTVSPost2010Prop41ColorRGB
 90
        0
102
RTVSPost2010PropOp41
 70
     1
102
RTVSPost2010Prop42
 90
       50
102
RTVSPost2010PropOp42
 70
     1
102
RTVSPost2010Prop43
 90
        3
102
RTVSPost2010PropOp43
 70
     1
102
RTVSPost2010Prop44ColorIndex
 90
        5
102
RTVSPost2010Prop44ColorRGB
 90
      255
102
RTVSPost2010PropOp44
 70
     1
102
RTVSPost2010Prop45
280
     0
102
RTVSPost2010PropOp45
 70
     1
102
RTVSPost2010Prop46
 90
       50
102
RTVSPost2010PropOp46
 70
     1
102
RTVSPost2010Prop47
 90
       50
102
RTVSPost2010PropOp47
 70
     1
102
RTVSPost2010Prop48
 90
       50
102
RTVSPost2010PropOp48
 70
     1
102
RTVSPost2010Prop49
280
     0
102
RTVSPost2010PropOp49
 70
     1
102
RTVSPost2010Prop50
 90
       50
102
RTVSPost2010PropOp50
 70
     1
102
RTVSPost2010Prop51ColorIndex
 90
      256
102
RTVSPost2010Prop51ColorRGB
 90
-16777216
102
RTVSPost2010PropOp51
 70
     0
102
RTVSPost2010Prop52
140
1.0
102
RTVSPost2010PropOp52
 70
     0
102
RTVSPost2010Prop53
 90
        2
102
RTVSPost2010PropOp53
 70
     1
102
RTVSPost2010Prop54
  1
strokes_ogs.tif
102
RTVSPost2010PropOp54
 70
     1
102
RTVSPost2010Prop55
280
     0
102
RTVSPost2010PropOp55
 70
     1
102
RTVSPost2010Prop56
140
1.0
102
RTVSPost2010PropOp56
 70
     1
102
RTVSPost2010Prop57
140
1.0
102
RTVSPost2010PropOp57
 70
     1
  0
XRECORD
  5
9D
102
{ACAD_REACTORS
330
9C
102
}
330
9C
100
AcDbXrecord
280
     1
102
RTVSPropertyOp0
 70
     1
102
RTVSPropertyOp1
 70
     1
102
RTVSPropertyOp2
 70
     1
102
RTVSPropertyOp3
 70
     1
102
RTVSPropertyOp4
 70
     1
102
RTVSPropertyOp5
 70
     1
102
RTVSPropertyOp6
 70
     1
102
RTVSPropertyOp7
 70
     1
102
RTVSPropertyOp8
 70
     1
102
RTVSPropertyOp9
 70
     1
102
RTVSPropertyOp10
 70
     1
102
RTVSPropertyOp11
 70
     1
102
RTVSPropertyOp12
 70
     1
102
RTVSPropertyOp13
 70
     1
102
RTVSPropertyOp14
 70
     1
102
RTVSPropertyOp15
 70
     1
102
RTVSPropertyOp16
 70
     1
102
RTVSPropertyOp17
 70
     1
102
RTVSPropertyOp18
 70
     1
102
RTVSPropertyOp19
 70
     1
102
RTVSPropertyOp20
 70
     1
102
RTVSPropertyOp21
 70
     1
102
RTVSPropertyOp22
 70
     1
102
RTVSPropertyOp23
 70
     1
102
RTVSPropertyOp24
 70
     1
102
RTVSPropertyOp25
 70
     1
102
RTVSPropertyOp26
 70
     1
102
RTVSPropertyOp27
 70
     1
102
RTVSPropertyOp28
 70
     1
102
RTVSPropertyOp29
 70
     1
102
RTVSPropertyOp30
 70
     1
102
RTVSPropertyOp31
 70
     1
102
RTVSPropertyOp32
 70
     1
102
RTVSPropertyOp33
 70
     1
102
RTVSPropertyOp34
 70
     1
102
RTVSPropertyOp35
 70
     1
102
RTVSPropertyOp36
 70
     1
102
RTVSPropertyOp37
 70
     1
102
RTVSPropertyOp38
 70
     1
102
RTVSPropertyOp39
 70
     1
102
RTVSPropertyOp40
 70
     1
102
RTVSPropertyOp41
 70
     1
102
RTVSPropertyOp42
 70
     1
102
RTVSPropertyOp43
 70
     1
102
RTVSPropertyOp44
 70
     1
102
RTVSPropertyOp45
 70
     1
102
RTVSPropertyOp46
 70
     1
102
RTVSPropertyOp47
 70
     1
102
RTVSPropertyOp48
 70
     1
102
RTVSPropertyOp49
 70
     1
102
RTVSPropertyOp50
 70
     1
102
RTVSPropertyOp51
 70
     0
102
RTVSPropertyOp52
 70
     0
102
RTVSPropertyOp53
 70
     1
102
RTVSPropertyOp54
 70
     1
102
RTVSPropertyOp55
 70
     1
102
RTVSPropertyOp56
 70
     1
102
RTVSPropertyOp57
 70
     1
102
RTVSPost2010Prop28
280
     0
102
RTVSPost2010PropOp28
 70
     1
102
RTVSPost2010Prop29
280
     1
102
RTVSPost2010PropOp29
 70
     1
102
RTVSPost2010Prop30
280
     1
102
RTVSPost2010PropOp30
 70
     1
102
RTVSPost2010Prop31
280
     0
102
RTVSPost2010PropOp31
 70
     1
102
RTVSPost2010Prop32
280
     0
102
RTVSPost2010PropOp32
 70
     1
102
RTVSPost2010Prop33
280
     0
102
RTVSPost2010PropOp33
 70
     1
102
RTVSPost2010Prop34
280
     0
102
RTVSPost2010PropOp34
 70
     1
102
RTVSPost2010Prop35
280
     0
102
RTVSPost2010PropOp35
 70
     1
102
RTVSPost2010Prop36
280
     0
102
RTVSPost2010PropOp36
 70
     1
102
RTVSPost2010Prop37
 90
       50
102
RTVSPost2010PropOp37
 70
     1
102
RTVSPost2010Prop38
140
0.0
102
RTVSPost2010PropOp38
 70
     1
102
RTVSPost2010Prop39
140
1.0
102
RTVSPost2010PropOp39
 70
     1
102
RTVSPost2010Prop40
 90
        0
102
RTVSPost2010PropOp40
 70
     1
102
RTVSPost2010Prop41ColorIndex
 90
       18
102
RTVSPost2010Prop41ColorRGB
 90
        0
102
RTVSPost2010PropOp41
 70
     1
102
RTVSPost2010Prop42
 90
       50
102
RTVSPost2010PropOp42
 70
     1
102
RTVSPost2010Prop43
 90
        3
102
RTVSPost2010PropOp43
 70
     1
102
RTVSPost2010Prop44ColorIndex
 90
        5
102
RTVSPost2010Prop44ColorRGB
 90
      255
102
RTVSPost2010PropOp44
 70
     1
102
RTVSPost2010Prop45
280
     0
102
RTVSPost2010PropOp45
 70
     1
102
RTVSPost2010Prop46
 90
       50
102
RTVSPost2010PropOp46
 70
     1
102
RTVSPost2010Prop47
 90
       50
102
RTVSPost2010PropOp47
 70
     1
102
RTVSPost2010Prop48
 90
       50
102
RTVSPost2010PropOp48
 70
     1
102
RTVSPost2010Prop49
280
     0
102
RTVSPost2010PropOp49
 70
     1
102
RTVSPost2010Prop50
 90
       50
102
RTVSPost2010PropOp50
 70
     1
102
RTVSPost2010Prop51ColorIndex
 90
      256
102
RTVSPost2010Prop51ColorRGB
 90
-16777216
102
RTVSPost2010PropOp51
 70
     0
102
RTVSPost2010Prop52
140
1.0
102
RTVSPost2010PropOp52
 70
     0
102
RTVSPost2010Prop53
 90
        2
102
RTVSPost2010PropOp53
 70
     1
102
RTVSPost2010Prop54
  1
strokes_ogs.tif
102
RTVSPost2010PropOp54
 70
     1
102
RTVSPost2010Prop55
280
     0
102
RTVSPost2010PropOp55
 70
     1
102
RTVSPost2010Prop56
140
1.0
102
RTVSPost2010PropOp56
 70
     1
102
RTVSPost2010Prop57
140
1.0
102
RTVSPost2010PropOp57
 70
     1
  0
XRECORD
  5
A3
102
{ACAD_REACTORS
330
A2
102
}
330
A2
100
AcDbXrecord
280
     1
102
RTVSPropertyOp0
 70
     1
102
RTVSPropertyOp1
 70
     1
102
RTVSPropertyOp2
 70
     1
102
RTVSPropertyOp3
 70
     1
102
RTVSPropertyOp4
 70
     1
102
RTVSPropertyOp5
 70
     1
102
RTVSPropertyOp6
 70
     1
102
RTVSPropertyOp7
 70
     1
102
RTVSPropertyOp8
 70
     1
102
RTVSPropertyOp9
 70
     1
102
RTVSPropertyOp10
 70
     1
102
RTVSPropertyOp11
 70
     1
102
RTVSPropertyOp12
 70
     1
102
RTVSPropertyOp13
 70
     1
102
RTVSPropertyOp14
 70
     1
102
RTVSPropertyOp15
 70
     1
102
RTVSPropertyOp16
 70
     1
102
RTVSPropertyOp17
 70
     1
102
RTVSPropertyOp18
 70
     1
102
RTVSPropertyOp19
 70
     1
102
RTVSPropertyOp20
 70
     1
102
RTVSPropertyOp21
 70
     1
102
RTVSPropertyOp22
 70
     1
102
RTVSPropertyOp23
 70
     1
102
RTVSPropertyOp24
 70
     1
102
RTVSPropertyOp25
 70
     1
102
RTVSPropertyOp26
 70
     1
102
RTVSPropertyOp27
 70
     1
102
RTVSPropertyOp28
 70
     1
102
RTVSPropertyOp29
 70
     1
102
RTVSPropertyOp30
 70
     1
102
RTVSPropertyOp31
 70
     1
102
RTVSPropertyOp32
 70
     1
102
RTVSPropertyOp33
 70
     1
102
RTVSPropertyOp34
 70
     1
102
RTVSPropertyOp35
 70
     1
102
RTVSPropertyOp36
 70
     1
102
RTVSPropertyOp37
 70
     1
102
RTVSPropertyOp38
 70
     1
102
RTVSPropertyOp39
 70
     1
102
RTVSPropertyOp40
 70
     1
102
RTVSPropertyOp41
 70
     1
102
RTVSPropertyOp42
 70
     1
102
RTVSPropertyOp43
 70
     1
102
RTVSPropertyOp44
 70
     1
102
RTVSPropertyOp45
 70
     1
102
RTVSPropertyOp46
 70
     1
102
RTVSPropertyOp47
 70
     1
102
RTVSPropertyOp48
 70
     1
102
RTVSPropertyOp49
 70
     1
102
RTVSPropertyOp50
 70
     1
102
RTVSPropertyOp51
 70
     0
102
RTVSPropertyOp52
 70
     0
102
RTVSPropertyOp53
 70
     1
102
RTVSPropertyOp54
 70
     1
102
RTVSPropertyOp55
 70
     1
102
RTVSPropertyOp56
 70
     1
102
RTVSPropertyOp57
 70
     1
102
RTVSPost2010Prop28
280
     0
102
RTVSPost2010PropOp28
 70
     1
102
RTVSPost2010Prop29
280
     1
102
RTVSPost2010PropOp29
 70
     1
102
RTVSPost2010Prop30
280
     1
102
RTVSPost2010PropOp30
 70
     1
102
RTVSPost2010Prop31
280
     0
102
RTVSPost2010PropOp31
 70
     1
102
RTVSPost2010Prop32
280
     0
102
RTVSPost2010PropOp32
 70
     1
102
RTVSPost2010Prop33
280
     0
102
RTVSPost2010PropOp33
 70
     1
102
RTVSPost2010Prop34
280
     0
102
RTVSPost2010PropOp34
 70
     1
102
RTVSPost2010Prop35
280
     0
102
RTVSPost2010PropOp35
 70
     1
102
RTVSPost2010Prop36
280
     0
102
RTVSPost2010PropOp36
 70
     1
102
RTVSPost2010Prop37
 90
       50
102
RTVSPost2010PropOp37
 70
     1
102
RTVSPost2010Prop38
140
0.0
102
RTVSPost2010PropOp38
 70
     1
102
RTVSPost2010Prop39
140
1.0
102
RTVSPost2010PropOp39
 70
     1
102
RTVSPost2010Prop40
 90
        0
102
RTVSPost2010PropOp40
 70
     1
102
RTVSPost2010Prop41ColorIndex
 90
       18
102
RTVSPost2010Prop41ColorRGB
 90
        0
102
RTVSPost2010PropOp41
 70
     1
102
RTVSPost2010Prop42
 90
       50
102
RTVSPost2010PropOp42
 70
     1
102
RTVSPost2010Prop43
 90
        3
102
RTVSPost2010PropOp43
 70
     1
102
RTVSPost2010Prop44ColorIndex
 90
        5
102
RTVSPost2010Prop44ColorRGB
 90
      255
102
RTVSPost2010PropOp44
 70
     1
102
RTVSPost2010Prop45
280
     0
102
RTVSPost2010PropOp45
 70
     1
102
RTVSPost2010Prop46
 90
       50
102
RTVSPost2010PropOp46
 70
     1
102
RTVSPost2010Prop47
 90
       50
102
RTVSPost2010PropOp47
 70
     1
102
RTVSPost2010Prop48
 90
       50
102
RTVSPost2010PropOp48
 70
     1
102
RTVSPost2010Prop49
280
     0
102
RTVSPost2010PropOp49
 70
     1
102
RTVSPost2010Prop50
 90
       50
102
RTVSPost2010PropOp50
 70
     1
102
RTVSPost2010Prop51ColorIndex
 90
      256
102
RTVSPost2010Prop51ColorRGB
 90
-16777216
102
RTVSPost2010PropOp51
 70
     0
102
RTVSPost2010Prop52
140
1.0
102
RTVSPost2010PropOp52
 70
     0
102
RTVSPost2010Prop53
 90
        2
102
RTVSPost2010PropOp53
 70
     1
102
RTVSPost2010Prop54
  1
strokes_ogs.tif
102
RTVSPost2010PropOp54
 70
     1
102
RTVSPost2010Prop55
280
     0
102
RTVSPost2010PropOp55
 70
     1
102
RTVSPost2010Prop56
140
1.0
102
RTVSPost2010PropOp56
 70
     1
102
RTVSPost2010Prop57
140
1.0
102
RTVSPost2010PropOp57
 70
     1
  0
XRECORD
  5
B7
102
{ACAD_REACTORS
330
B6
102
}
330
B6
100
AcDbXrecord
280
     1
102
RTVSPropertyOp0
 70
     0
102
RTVSPropertyOp1
 70
     0
102
RTVSPropertyOp2
 70
     0
102
RTVSPropertyOp3
 70
     0
102
RTVSPropertyOp4
 70
     0
102
RTVSPropertyOp5
 70
     0
102
RTVSPropertyOp6
 70
     0
102
RTVSPropertyOp7
 70
     0
102
RTVSPropertyOp8
 70
     0
102
RTVSPropertyOp9
 70
     0
102
RTVSPropertyOp10
 70
     0
102
RTVSPropertyOp11
 70
     0
102
RTVSPropertyOp12
 70
     0
102
RTVSPropertyOp13
 70
     0
102
RTVSPropertyOp14
 70
     2
102
RTVSPropertyOp15
 70
     0
102
RTVSPropertyOp16
 70
     0
102
RTVSPropertyOp17
 70
     0
102
RTVSPropertyOp18
 70
     0
102
RTVSPropertyOp19
 70
     0
102
RTVSPropertyOp20
 70
     0
102
RTVSPropertyOp21
 70
     0
102
RTVSPropertyOp22
 70
     0
102
RTVSPropertyOp23
 70
     0
102
RTVSPropertyOp24
 70
     0
102
RTVSPropertyOp25
 70
     0
102
RTVSPropertyOp26
 70
     0
102
RTVSPropertyOp27
 70
     0
102
RTVSPropertyOp28
 70
     0
102
RTVSPropertyOp29
 70
     0
102
RTVSPropertyOp30
 70
     0
102
RTVSPropertyOp31
 70
     0
102
RTVSPropertyOp32
 70
     0
102
RTVSPropertyOp33
 70
     0
102
RTVSPropertyOp34
 70
     0
102
RTVSPropertyOp35
 70
     0
102
RTVSPropertyOp36
 70
     0
102
RTVSPropertyOp37
 70
     0
102
RTVSPropertyOp38
 70
     0
102
RTVSPropertyOp39
 70
     0
102
RTVSPropertyOp40
 70
     0
102
RTVSPropertyOp41
 70
     0
102
RTVSPropertyOp42
 70
     0
102
RTVSPropertyOp43
 70
     0
102
RTVSPropertyOp44
 70
     0
102
RTVSPropertyOp45
 70
     0
102
RTVSPropertyOp46
 70
     0
102
RTVSPropertyOp47
 70
     0
102
RTVSPropertyOp48
 70
     0
102
RTVSPropertyOp49
 70
     0
102
RTVSPropertyOp50
 70
     0
102
RTVSPropertyOp51
 70
     0
102
RTVSPropertyOp52
 70
     0
102
RTVSPropertyOp53
 70
     0
102
RTVSPropertyOp54
 70
     0
102
RTVSPropertyOp55
 70
     0
102
RTVSPropertyOp56
 70
     0
102
RTVSPropertyOp57
 70
     0
102
RTVSPost2010Prop28
280
     0
102
RTVSPost2010PropOp28
 70
     0
102
RTVSPost2010Prop29
280
     1
102
RTVSPost2010PropOp29
 70
     0
102
RTVSPost2010Prop30
280
     1
102
RTVSPost2010PropOp30
 70
     0
102
RTVSPost2010Prop31
280
     0
102
RTVSPost2010PropOp31
 70
     0
102
RTVSPost2010Prop32
280
     0
102
RTVSPost2010PropOp32
 70
     0
102
RTVSPost2010Prop33
280
     0
102
RTVSPost2010PropOp33
 70
     0
102
RTVSPost2010Prop34
280
     0
102
RTVSPost2010PropOp34
 70
     0
102
RTVSPost2010Prop35
280
     0
102
RTVSPost2010PropOp35
 70
     0
102
RTVSPost2010Prop36
280
     0
102
RTVSPost2010PropOp36
 70
     0
102
RTVSPost2010Prop37
 90
       50
102
RTVSPost2010PropOp37
 70
     0
102
RTVSPost2010Prop38
140
0.0
102
RTVSPost2010PropOp38
 70
     0
102
RTVSPost2010Prop39
140
1.0
102
RTVSPost2010PropOp39
 70
     0
102
RTVSPost2010Prop40
 90
        0
102
RTVSPost2010PropOp40
 70
     0
102
RTVSPost2010Prop41ColorIndex
 90
       18
102
RTVSPost2010Prop41ColorRGB
 90
        0
102
RTVSPost2010PropOp41
 70
     0
102
RTVSPost2010Prop42
 90
       50
102
RTVSPost2010PropOp42
 70
     0
102
RTVSPost2010Prop43
 90
        3
102
RTVSPost2010PropOp43
 70
     0
102
RTVSPost2010Prop44ColorIndex
 90
        5
102
RTVSPost2010Prop44ColorRGB
 90
      255
102
RTVSPost2010PropOp44
 70
     0
102
RTVSPost2010Prop45
280
     0
102
RTVSPost2010PropOp45
 70
     0
102
RTVSPost2010Prop46
 90
       50
102
RTVSPost2010PropOp46
 70
     0
102
RTVSPost2010Prop47
 90
       50
102
RTVSPost2010PropOp47
 70
     0
102
RTVSPost2010Prop48
 90
       50
102
RTVSPost2010PropOp48
 70
     0
102
RTVSPost2010Prop49
280
     0
102
RTVSPost2010PropOp49
 70
     0
102
RTVSPost2010Prop50
 90
       50
102
RTVSPost2010PropOp50
 70
     0
102
RTVSPost2010Prop51ColorIndex
 90
      256
102
RTVSPost2010Prop51ColorRGB
 90
-16777216
102
RTVSPost2010PropOp51
 70
     0
102
RTVSPost2010Prop52
140
1.0
102
RTVSPost2010PropOp52
 70
     0
102
RTVSPost2010Prop53
 90
        2
102
RTVSPost2010PropOp53
 70
     0
102
RTVSPost2010Prop54
  1
strokes_ogs.tif
102
RTVSPost2010PropOp54
 70
     0
102
RTVSPost2010Prop55
280
     0
102
RTVSPost2010PropOp55
 70
     0
102
RTVSPost2010Prop56
140
1.0
102
RTVSPost2010PropOp56
 70
     0
102
RTVSPost2010Prop57
140
1.0
102
RTVSPost2010PropOp57
 70
     0
  0
XRECORD
  5
B1
102
{ACAD_REACTORS
330
B0
102
}
330
B0
100
AcDbXrecord
280
     1
102
RTVSPropertyOp0
 70
     1
102
RTVSPropertyOp1
 70
     1
102
RTVSPropertyOp2
 70
     1
102
RTVSPropertyOp3
 70
     1
102
RTVSPropertyOp4
 70
     1
102
RTVSPropertyOp5
 70
     1
102
RTVSPropertyOp6
 70
     1
102
RTVSPropertyOp7
 70
     1
102
RTVSPropertyOp8
 70
     1
102
RTVSPropertyOp9
 70
     1
102
RTVSPropertyOp10
 70
     1
102
RTVSPropertyOp11
 70
     1
102
RTVSPropertyOp12
 70
     1
102
RTVSPropertyOp13
 70
     1
102
RTVSPropertyOp14
 70
     1
102
RTVSPropertyOp15
 70
     1
102
RTVSPropertyOp16
 70
     1
102
RTVSPropertyOp17
 70
     1
102
RTVSPropertyOp18
 70
     1
102
RTVSPropertyOp19
 70
     1
102
RTVSPropertyOp20
 70
     1
102
RTVSPropertyOp21
 70
     1
102
RTVSPropertyOp22
 70
     1
102
RTVSPropertyOp23
 70
     1
102
RTVSPropertyOp24
 70
     1
102
RTVSPropertyOp25
 70
     1
102
RTVSPropertyOp26
 70
     1
102
RTVSPropertyOp27
 70
     1
102
RTVSPropertyOp28
 70
     1
102
RTVSPropertyOp29
 70
     1
102
RTVSPropertyOp30
 70
     1
102
RTVSPropertyOp31
 70
     1
102
RTVSPropertyOp32
 70
     1
102
RTVSPropertyOp33
 70
     1
102
RTVSPropertyOp34
 70
     1
102
RTVSPropertyOp35
 70
     1
102
RTVSPropertyOp36
 70
     1
102
RTVSPropertyOp37
 70
     1
102
RTVSPropertyOp38
 70
     1
102
RTVSPropertyOp39
 70
     1
102
RTVSPropertyOp40
 70
     1
102
RTVSPropertyOp41
 70
     1
102
RTVSPropertyOp42
 70
     1
102
RTVSPropertyOp43
 70
     1
102
RTVSPropertyOp44
 70
     1
102
RTVSPropertyOp45
 70
     1
102
RTVSPropertyOp46
 70
     1
102
RTVSPropertyOp47
 70
     1
102
RTVSPropertyOp48
 70
     1
102
RTVSPropertyOp49
 70
     1
102
RTVSPropertyOp50
 70
     1
102
RTVSPropertyOp51
 70
     0
102
RTVSPropertyOp52
 70
     0
102
RTVSPropertyOp53
 70
     1
102
RTVSPropertyOp54
 70
     1
102
RTVSPropertyOp55
 70
     1
102
RTVSPropertyOp56
 70
     1
102
RTVSPropertyOp57
 70
     1
102
RTVSPost2010Prop28
280
     0
102
RTVSPost2010PropOp28
 70
     1
102
RTVSPost2010Prop29
280
     1
102
RTVSPost2010PropOp29
 70
     1
102
RTVSPost2010Prop30
280
     1
102
RTVSPost2010PropOp30
 70
     1
102
RTVSPost2010Prop31
280
     0
102
RTVSPost2010PropOp31
 70
     1
102
RTVSPost2010Prop32
280
     0
102
RTVSPost2010PropOp32
 70
     1
102
RTVSPost2010Prop33
280
     0
102
RTVSPost2010PropOp33
 70
     1
102
RTVSPost2010Prop34
280
     0
102
RTVSPost2010PropOp34
 70
     1
102
RTVSPost2010Prop35
280
     0
102
RTVSPost2010PropOp35
 70
     1
102
RTVSPost2010Prop36
280
     0
102
RTVSPost2010PropOp36
 70
     1
102
RTVSPost2010Prop37
 90
       50
102
RTVSPost2010PropOp37
 70
     1
102
RTVSPost2010Prop38
140
0.0
102
RTVSPost2010PropOp38
 70
     1
102
RTVSPost2010Prop39
140
1.0
102
RTVSPost2010PropOp39
 70
     1
102
RTVSPost2010Prop40
 90
        0
102
RTVSPost2010PropOp40
 70
     1
102
RTVSPost2010Prop41ColorIndex
 90
       18
102
RTVSPost2010Prop41ColorRGB
 90
        0
102
RTVSPost2010PropOp41
 70
     1
102
RTVSPost2010Prop42
 90
       50
102
RTVSPost2010PropOp42
 70
     1
102
RTVSPost2010Prop43
 90
        3
102
RTVSPost2010PropOp43
 70
     1
102
RTVSPost2010Prop44ColorIndex
 90
        5
102
RTVSPost2010Prop44ColorRGB
 90
      255
102
RTVSPost2010PropOp44
 70
     1
102
RTVSPost2010Prop45
280
     0
102
RTVSPost2010PropOp45
 70
     1
102
RTVSPost2010Prop46
 90
       50
102
RTVSPost2010PropOp46
 70
     1
102
RTVSPost2010Prop47
 90
       50
102
RTVSPost2010PropOp47
 70
     1
102
RTVSPost2010Prop48
 90
       50
102
RTVSPost2010PropOp48
 70
     1
102
RTVSPost2010Prop49
280
     0
102
RTVSPost2010PropOp49
 70
     1
102
RTVSPost2010Prop50
 90
       50
102
RTVSPost2010PropOp50
 70
     1
102
RTVSPost2010Prop51ColorIndex
 90
      256
102
RTVSPost2010Prop51ColorRGB
 90
-16777216
102
RTVSPost2010PropOp51
 70
     0
102
RTVSPost2010Prop52
140
1.0
102
RTVSPost2010PropOp52
 70
     0
102
RTVSPost2010Prop53
 90
        2
102
RTVSPost2010PropOp53
 70
     1
102
RTVSPost2010Prop54
  1
strokes_ogs.tif
102
RTVSPost2010PropOp54
 70
     1
102
RTVSPost2010Prop55
280
     0
102
RTVSPost2010PropOp55
 70
     1
102
RTVSPost2010Prop56
140
1.0
102
RTVSPost2010PropOp56
 70
     1
102
RTVSPost2010Prop57
140
1.0
102
RTVSPost2010PropOp57
 70
     1
  0
XRECORD
  5
B9
102
{ACAD_REACTORS
330
B8
102
}
330
B8
100
AcDbXrecord
280
     1
102
RTVSPropertyOp0
 70
     0
102
RTVSPropertyOp1
 70
     0
102
RTVSPropertyOp2
 70
     0
102
RTVSPropertyOp3
 70
     0
102
RTVSPropertyOp4
 70
     0
102
RTVSPropertyOp5
 70
     0
102
RTVSPropertyOp6
 70
     0
102
RTVSPropertyOp7
 70
     0
102
RTVSPropertyOp8
 70
     0
102
RTVSPropertyOp9
 70
     0
102
RTVSPropertyOp10
 70
     0
102
RTVSPropertyOp11
 70
     0
102
RTVSPropertyOp12
 70
     0
102
RTVSPropertyOp13
 70
     0
102
RTVSPropertyOp14
 70
     2
102
RTVSPropertyOp15
 70
     0
102
RTVSPropertyOp16
 70
     0
102
RTVSPropertyOp17
 70
     0
102
RTVSPropertyOp18
 70
     0
102
RTVSPropertyOp19
 70
     0
102
RTVSPropertyOp20
 70
     0
102
RTVSPropertyOp21
 70
     0
102
RTVSPropertyOp22
 70
     0
102
RTVSPropertyOp23
 70
     0
102
RTVSPropertyOp24
 70
     0
102
RTVSPropertyOp25
 70
     0
102
RTVSPropertyOp26
 70
     0
102
RTVSPropertyOp27
 70
     0
102
RTVSPropertyOp28
 70
     0
102
RTVSPropertyOp29
 70
     0
102
RTVSPropertyOp30
 70
     0
102
RTVSPropertyOp31
 70
     0
102
RTVSPropertyOp32
 70
     0
102
RTVSPropertyOp33
 70
     0
102
RTVSPropertyOp34
 70
     0
102
RTVSPropertyOp35
 70
     0
102
RTVSPropertyOp36
 70
     0
102
RTVSPropertyOp37
 70
     0
102
RTVSPropertyOp38
 70
     0
102
RTVSPropertyOp39
 70
     0
102
RTVSPropertyOp40
 70
     0
102
RTVSPropertyOp41
 70
     0
102
RTVSPropertyOp42
 70
     0
102
RTVSPropertyOp43
 70
     0
102
RTVSPropertyOp44
 70
     0
102
RTVSPropertyOp45
 70
     0
102
RTVSPropertyOp46
 70
     0
102
RTVSPropertyOp47
 70
     0
102
RTVSPropertyOp48
 70
     0
102
RTVSPropertyOp49
 70
     0
102
RTVSPropertyOp50
 70
     0
102
RTVSPropertyOp51
 70
     0
102
RTVSPropertyOp52
 70
     0
102
RTVSPropertyOp53
 70
     0
102
RTVSPropertyOp54
 70
     0
102
RTVSPropertyOp55
 70
     0
102
RTVSPropertyOp56
 70
     0
102
RTVSPropertyOp57
 70
     0
102
RTVSPost2010Prop28
280
     0
102
RTVSPost2010PropOp28
 70
     0
102
RTVSPost2010Prop29
280
     1
102
RTVSPost2010PropOp29
 70
     0
102
RTVSPost2010Prop30
280
     1
102
RTVSPost2010PropOp30
 70
     0
102
RTVSPost2010Prop31
280
     0
102
RTVSPost2010PropOp31
 70
     0
102
RTVSPost2010Prop32
280
     0
102
RTVSPost2010PropOp32
 70
     0
102
RTVSPost2010Prop33
280
     0
102
RTVSPost2010PropOp33
 70
     0
102
RTVSPost2010Prop34
280
     0
102
RTVSPost2010PropOp34
 70
     0
102
RTVSPost2010Prop35
280
     0
102
RTVSPost2010PropOp35
 70
     0
102
RTVSPost2010Prop36
280
     0
102
RTVSPost2010PropOp36
 70
     0
102
RTVSPost2010Prop37
 90
       50
102
RTVSPost2010PropOp37
 70
     0
102
RTVSPost2010Prop38
140
0.0
102
RTVSPost2010PropOp38
 70
     0
102
RTVSPost2010Prop39
140
1.0
102
RTVSPost2010PropOp39
 70
     0
102
RTVSPost2010Prop40
 90
        0
102
RTVSPost2010PropOp40
 70
     0
102
RTVSPost2010Prop41ColorIndex
 90
       18
102
RTVSPost2010Prop41ColorRGB
 90
        0
102
RTVSPost2010PropOp41
 70
     0
102
RTVSPost2010Prop42
 90
       50
102
RTVSPost2010PropOp42
 70
     0
102
RTVSPost2010Prop43
 90
        3
102
RTVSPost2010PropOp43
 70
     0
102
RTVSPost2010Prop44ColorIndex
 90
        5
102
RTVSPost2010Prop44ColorRGB
 90
      255
102
RTVSPost2010PropOp44
 70
     0
102
RTVSPost2010Prop45
280
     0
102
RTVSPost2010PropOp45
 70
     0
102
RTVSPost2010Prop46
 90
       50
102
RTVSPost2010PropOp46
 70
     0
102
RTVSPost2010Prop47
 90
       50
102
RTVSPost2010PropOp47
 70
     0
102
RTVSPost2010Prop48
 90
       50
102
RTVSPost2010PropOp48
 70
     0
102
RTVSPost2010Prop49
280
     0
102
RTVSPost2010PropOp49
 70
     0
102
RTVSPost2010Prop50
 90
       50
102
RTVSPost2010PropOp50
 70
     0
102
RTVSPost2010Prop51ColorIndex
 90
      256
102
RTVSPost2010Prop51ColorRGB
 90
-16777216
102
RTVSPost2010PropOp51
 70
     0
102
RTVSPost2010Prop52
140
1.0
102
RTVSPost2010PropOp52
 70
     0
102
RTVSPost2010Prop53
 90
        2
102
RTVSPost2010PropOp53
 70
     0
102
RTVSPost2010Prop54
  1
strokes_ogs.tif
102
RTVSPost2010PropOp54
 70
     0
102
RTVSPost2010Prop55
280
     0
102
RTVSPost2010PropOp55
 70
     0
102
RTVSPost2010Prop56
140
1.0
102
RTVSPost2010PropOp56
 70
     0
102
RTVSPost2010Prop57
140
1.0
102
RTVSPost2010PropOp57
 70
     0
  0
XRECORD
  5
A7
102
{ACAD_REACTORS
330
A6
102
}
330
A6
100
AcDbXrecord
280
     1
102
RTVSPropertyOp0
 70
     1
102
RTVSPropertyOp1
 70
     1
102
RTVSPropertyOp2
 70
     1
102
RTVSPropertyOp3
 70
     1
102
RTVSPropertyOp4
 70
     1
102
RTVSPropertyOp5
 70
     1
102
RTVSPropertyOp6
 70
     1
102
RTVSPropertyOp7
 70
     1
102
RTVSPropertyOp8
 70
     1
102
RTVSPropertyOp9
 70
     1
102
RTVSPropertyOp10
 70
     1
102
RTVSPropertyOp11
 70
     1
102
RTVSPropertyOp12
 70
     1
102
RTVSPropertyOp13
 70
     1
102
RTVSPropertyOp14
 70
     1
102
RTVSPropertyOp15
 70
     1
102
RTVSPropertyOp16
 70
     1
102
RTVSPropertyOp17
 70
     1
102
RTVSPropertyOp18
 70
     1
102
RTVSPropertyOp19
 70
     1
102
RTVSPropertyOp20
 70
     1
102
RTVSPropertyOp21
 70
     1
102
RTVSPropertyOp22
 70
     1
102
RTVSPropertyOp23
 70
     1
102
RTVSPropertyOp24
 70
     1
102
RTVSPropertyOp25
 70
     1
102
RTVSPropertyOp26
 70
     1
102
RTVSPropertyOp27
 70
     1
102
RTVSPropertyOp28
 70
     1
102
RTVSPropertyOp29
 70
     1
102
RTVSPropertyOp30
 70
     1
102
RTVSPropertyOp31
 70
     1
102
RTVSPropertyOp32
 70
     1
102
RTVSPropertyOp33
 70
     1
102
RTVSPropertyOp34
 70
     1
102
RTVSPropertyOp35
 70
     1
102
RTVSPropertyOp36
 70
     1
102
RTVSPropertyOp37
 70
     1
102
RTVSPropertyOp38
 70
     1
102
RTVSPropertyOp39
 70
     1
102
RTVSPropertyOp40
 70
     1
102
RTVSPropertyOp41
 70
     1
102
RTVSPropertyOp42
 70
     1
102
RTVSPropertyOp43
 70
     1
102
RTVSPropertyOp44
 70
     1
102
RTVSPropertyOp45
 70
     1
102
RTVSPropertyOp46
 70
     1
102
RTVSPropertyOp47
 70
     1
102
RTVSPropertyOp48
 70
     1
102
RTVSPropertyOp49
 70
     1
102
RTVSPropertyOp50
 70
     1
102
RTVSPropertyOp51
 70
     0
102
RTVSPropertyOp52
 70
     0
102
RTVSPropertyOp53
 70
     1
102
RTVSPropertyOp54
 70
     1
102
RTVSPropertyOp55
 70
     1
102
RTVSPropertyOp56
 70
     1
102
RTVSPropertyOp57
 70
     1
102
RTVSPost2010Prop28
280
     0
102
RTVSPost2010PropOp28
 70
     1
102
RTVSPost2010Prop29
280
     1
102
RTVSPost2010PropOp29
 70
     1
102
RTVSPost2010Prop30
280
     1
102
RTVSPost2010PropOp30
 70
     1
102
RTVSPost2010Prop31
280
     0
102
RTVSPost2010PropOp31
 70
     1
102
RTVSPost2010Prop32
280
     0
102
RTVSPost2010PropOp32
 70
     1
102
RTVSPost2010Prop33
280
     0
102
RTVSPost2010PropOp33
 70
     1
102
RTVSPost2010Prop34
280
     0
102
RTVSPost2010PropOp34
 70
     1
102
RTVSPost2010Prop35
280
     0
102
RTVSPost2010PropOp35
 70
     1
102
RTVSPost2010Prop36
280
     0
102
RTVSPost2010PropOp36
 70
     1
102
RTVSPost2010Prop37
 90
       50
102
RTVSPost2010PropOp37
 70
     1
102
RTVSPost2010Prop38
140
0.0
102
RTVSPost2010PropOp38
 70
     1
102
RTVSPost2010Prop39
140
1.0
102
RTVSPost2010PropOp39
 70
     1
102
RTVSPost2010Prop40
 90
        0
102
RTVSPost2010PropOp40
 70
     1
102
RTVSPost2010Prop41ColorIndex
 90
       18
102
RTVSPost2010Prop41ColorRGB
 90
        0
102
RTVSPost2010PropOp41
 70
     1
102
RTVSPost2010Prop42
 90
       50
102
RTVSPost2010PropOp42
 70
     1
102
RTVSPost2010Prop43
 90
        3
102
RTVSPost2010PropOp43
 70
     1
102
RTVSPost2010Prop44ColorIndex
 90
        5
102
RTVSPost2010Prop44ColorRGB
 90
      255
102
RTVSPost2010PropOp44
 70
     1
102
RTVSPost2010Prop45
280
     0
102
RTVSPost2010PropOp45
 70
     1
102
RTVSPost2010Prop46
 90
       50
102
RTVSPost2010PropOp46
 70
     1
102
RTVSPost2010Prop47
 90
       50
102
RTVSPost2010PropOp47
 70
     1
102
RTVSPost2010Prop48
 90
       50
102
RTVSPost2010PropOp48
 70
     1
102
RTVSPost2010Prop49
280
     0
102
RTVSPost2010PropOp49
 70
     1
102
RTVSPost2010Prop50
 90
       50
102
RTVSPost2010PropOp50
 70
     1
102
RTVSPost2010Prop51ColorIndex
 90
      256
102
RTVSPost2010Prop51ColorRGB
 90
-16777216
102
RTVSPost2010PropOp51
 70
     0
102
RTVSPost2010Prop52
140
1.0
102
RTVSPost2010PropOp52
 70
     0
102
RTVSPost2010Prop53
 90
        2
102
RTVSPost2010PropOp53
 70
     1
102
RTVSPost2010Prop54
  1
strokes_ogs.tif
102
RTVSPost2010PropOp54
 70
     1
102
RTVSPost2010Prop55
280
     0
102
RTVSPost2010PropOp55
 70
     1
102
RTVSPost2010Prop56
140
1.0
102
RTVSPost2010PropOp56
 70
     1
102
RTVSPost2010Prop57
140
1.0
102
RTVSPost2010PropOp57
 70
     1
  0
XRECORD
  5
C5
102
{ACAD_REACTORS
330
C4
102
}
330
C4
100
AcDbXrecord
280
     1
102
RTVSPropertyOp0
 70
     1
102
RTVSPropertyOp1
 70
     1
102
RTVSPropertyOp2
 70
     1
102
RTVSPropertyOp3
 70
     1
102
RTVSPropertyOp4
 70
     1
102
RTVSPropertyOp5
 70
     1
102
RTVSPropertyOp6
 70
     1
102
RTVSPropertyOp7
 70
     1
102
RTVSPropertyOp8
 70
     1
102
RTVSPropertyOp9
 70
     1
102
RTVSPropertyOp10
 70
     1
102
RTVSPropertyOp11
 70
     1
102
RTVSPropertyOp12
 70
     1
102
RTVSPropertyOp13
 70
     1
102
RTVSPropertyOp14
 70
     1
102
RTVSPropertyOp15
 70
     1
102
RTVSPropertyOp16
 70
     1
102
RTVSPropertyOp17
 70
     1
102
RTVSPropertyOp18
 70
     1
102
RTVSPropertyOp19
 70
     1
102
RTVSPropertyOp20
 70
     1
102
RTVSPropertyOp21
 70
     1
102
RTVSPropertyOp22
 70
     1
102
RTVSPropertyOp23
 70
     1
102
RTVSPropertyOp24
 70
     1
102
RTVSPropertyOp25
 70
     1
102
RTVSPropertyOp26
 70
     1
102
RTVSPropertyOp27
 70
     1
102
RTVSPropertyOp28
 70
     1
102
RTVSPropertyOp29
 70
     1
102
RTVSPropertyOp30
 70
     1
102
RTVSPropertyOp31
 70
     1
102
RTVSPropertyOp32
 70
     1
102
RTVSPropertyOp33
 70
     1
102
RTVSPropertyOp34
 70
     1
102
RTVSPropertyOp35
 70
     1
102
RTVSPropertyOp36
 70
     1
102
RTVSPropertyOp37
 70
     1
102
RTVSPropertyOp38
 70
     1
102
RTVSPropertyOp39
 70
     1
102
RTVSPropertyOp40
 70
     1
102
RTVSPropertyOp41
 70
     1
102
RTVSPropertyOp42
 70
     1
102
RTVSPropertyOp43
 70
     1
102
RTVSPropertyOp44
 70
     1
102
RTVSPropertyOp45
 70
     1
102
RTVSPropertyOp46
 70
     1
102
RTVSPropertyOp47
 70
     1
102
RTVSPropertyOp48
 70
     1
102
RTVSPropertyOp49
 70
     1
102
RTVSPropertyOp50
 70
     1
102
RTVSPropertyOp51
 70
     0
102
RTVSPropertyOp52
 70
     0
102
RTVSPropertyOp53
 70
     1
102
RTVSPropertyOp54
 70
     1
102
RTVSPropertyOp55
 70
     1
102
RTVSPropertyOp56
 70
     1
102
RTVSPropertyOp57
 70
     1
102
RTVSPost2010Prop28
280
     0
102
RTVSPost2010PropOp28
 70
     1
102
RTVSPost2010Prop29
280
     1
102
RTVSPost2010PropOp29
 70
     1
102
RTVSPost2010Prop30
280
     1
102
RTVSPost2010PropOp30
 70
     1
102
RTVSPost2010Prop31
280
     0
102
RTVSPost2010PropOp31
 70
     1
102
RTVSPost2010Prop32
280
     0
102
RTVSPost2010PropOp32
 70
     1
102
RTVSPost2010Prop33
280
     0
102
RTVSPost2010PropOp33
 70
     1
102
RTVSPost2010Prop34
280
     0
102
RTVSPost2010PropOp34
 70
     1
102
RTVSPost2010Prop35
280
     0
102
RTVSPost2010PropOp35
 70
     1
102
RTVSPost2010Prop36
280
     0
102
RTVSPost2010PropOp36
 70
     1
102
RTVSPost2010Prop37
 90
       50
102
RTVSPost2010PropOp37
 70
     1
102
RTVSPost2010Prop38
140
0.0
102
RTVSPost2010PropOp38
 70
     1
102
RTVSPost2010Prop39
140
1.0
102
RTVSPost2010PropOp39
 70
     1
102
RTVSPost2010Prop40
 90
        0
102
RTVSPost2010PropOp40
 70
     1
102
RTVSPost2010Prop41ColorIndex
 90
       18
102
RTVSPost2010Prop41ColorRGB
 90
        0
102
RTVSPost2010PropOp41
 70
     1
102
RTVSPost2010Prop42
 90
       50
102
RTVSPost2010PropOp42
 70
     1
102
RTVSPost2010Prop43
 90
        3
102
RTVSPost2010PropOp43
 70
     1
102
RTVSPost2010Prop44ColorIndex
 90
        5
102
RTVSPost2010Prop44ColorRGB
 90
      255
102
RTVSPost2010PropOp44
 70
     1
102
RTVSPost2010Prop45
280
     0
102
RTVSPost2010PropOp45
 70
     1
102
RTVSPost2010Prop46
 90
       50
102
RTVSPost2010PropOp46
 70
     1
102
RTVSPost2010Prop47
 90
       50
102
RTVSPost2010PropOp47
 70
     1
102
RTVSPost2010Prop48
 90
       50
102
RTVSPost2010PropOp48
 70
     1
102
RTVSPost2010Prop49
280
     0
102
RTVSPost2010PropOp49
 70
     1
102
RTVSPost2010Prop50
 90
       50
102
RTVSPost2010PropOp50
 70
     1
102
RTVSPost2010Prop51ColorIndex
 90
      256
102
RTVSPost2010Prop51ColorRGB
 90
-16777216
102
RTVSPost2010PropOp51
 70
     0
102
RTVSPost2010Prop52
140
1.0
102
RTVSPost2010PropOp52
 70
     0
102
RTVSPost2010Prop53
 90
        2
102
RTVSPost2010PropOp53
 70
     1
102
RTVSPost2010Prop54
  1
strokes_ogs.tif
102
RTVSPost2010PropOp54
 70
     1
102
RTVSPost2010Prop55
280
     0
102
RTVSPost2010PropOp55
 70
     1
102
RTVSPost2010Prop56
140
1.0
102
RTVSPost2010PropOp56
 70
     1
102
RTVSPost2010Prop57
140
1.0
102
RTVSPost2010PropOp57
 70
     1
  0
XRECORD
  5
C3
102
{ACAD_REACTORS
330
C2
102
}
330
C2
100
AcDbXrecord
280
     1
102
RTVSPropertyOp0
 70
     1
102
RTVSPropertyOp1
 70
     1
102
RTVSPropertyOp2
 70
     1
102
RTVSPropertyOp3
 70
     1
102
RTVSPropertyOp4
 70
     1
102
RTVSPropertyOp5
 70
     1
102
RTVSPropertyOp6
 70
     1
102
RTVSPropertyOp7
 70
     1
102
RTVSPropertyOp8
 70
     1
102
RTVSPropertyOp9
 70
     1
102
RTVSPropertyOp10
 70
     1
102
RTVSPropertyOp11
 70
     1
102
RTVSPropertyOp12
 70
     1
102
RTVSPropertyOp13
 70
     1
102
RTVSPropertyOp14
 70
     1
102
RTVSPropertyOp15
 70
     1
102
RTVSPropertyOp16
 70
     1
102
RTVSPropertyOp17
 70
     1
102
RTVSPropertyOp18
 70
     1
102
RTVSPropertyOp19
 70
     1
102
RTVSPropertyOp20
 70
     1
102
RTVSPropertyOp21
 70
     1
102
RTVSPropertyOp22
 70
     1
102
RTVSPropertyOp23
 70
     1
102
RTVSPropertyOp24
 70
     1
102
RTVSPropertyOp25
 70
     1
102
RTVSPropertyOp26
 70
     1
102
RTVSPropertyOp27
 70
     1
102
RTVSPropertyOp28
 70
     1
102
RTVSPropertyOp29
 70
     1
102
RTVSPropertyOp30
 70
     1
102
RTVSPropertyOp31
 70
     1
102
RTVSPropertyOp32
 70
     1
102
RTVSPropertyOp33
 70
     1
102
RTVSPropertyOp34
 70
     1
102
RTVSPropertyOp35
 70
     1
102
RTVSPropertyOp36
 70
     1
102
RTVSPropertyOp37
 70
     1
102
RTVSPropertyOp38
 70
     1
102
RTVSPropertyOp39
 70
     1
102
RTVSPropertyOp40
 70
     1
102
RTVSPropertyOp41
 70
     1
102
RTVSPropertyOp42
 70
     1
102
RTVSPropertyOp43
 70
     1
102
RTVSPropertyOp44
 70
     1
102
RTVSPropertyOp45
 70
     1
102
RTVSPropertyOp46
 70
     1
102
RTVSPropertyOp47
 70
     1
102
RTVSPropertyOp48
 70
     1
102
RTVSPropertyOp49
 70
     1
102
RTVSPropertyOp50
 70
     1
102
RTVSPropertyOp51
 70
     0
102
RTVSPropertyOp52
 70
     0
102
RTVSPropertyOp53
 70
     1
102
RTVSPropertyOp54
 70
     1
102
RTVSPropertyOp55
 70
     1
102
RTVSPropertyOp56
 70
     1
102
RTVSPropertyOp57
 70
     1
102
RTVSPost2010Prop28
280
     0
102
RTVSPost2010PropOp28
 70
     1
102
RTVSPost2010Prop29
280
     1
102
RTVSPost2010PropOp29
 70
     1
102
RTVSPost2010Prop30
280
     1
102
RTVSPost2010PropOp30
 70
     1
102
RTVSPost2010Prop31
280
     0
102
RTVSPost2010PropOp31
 70
     1
102
RTVSPost2010Prop32
280
     0
102
RTVSPost2010PropOp32
 70
     1
102
RTVSPost2010Prop33
280
     0
102
RTVSPost2010PropOp33
 70
     1
102
RTVSPost2010Prop34
280
     0
102
RTVSPost2010PropOp34
 70
     1
102
RTVSPost2010Prop35
280
     0
102
RTVSPost2010PropOp35
 70
     1
102
RTVSPost2010Prop36
280
     0
102
RTVSPost2010PropOp36
 70
     1
102
RTVSPost2010Prop37
 90
       50
102
RTVSPost2010PropOp37
 70
     1
102
RTVSPost2010Prop38
140
0.0
102
RTVSPost2010PropOp38
 70
     1
102
RTVSPost2010Prop39
140
1.0
102
RTVSPost2010PropOp39
 70
     1
102
RTVSPost2010Prop40
 90
        0
102
RTVSPost2010PropOp40
 70
     1
102
RTVSPost2010Prop41ColorIndex
 90
       18
102
RTVSPost2010Prop41ColorRGB
 90
        0
102
RTVSPost2010PropOp41
 70
     1
102
RTVSPost2010Prop42
 90
       50
102
RTVSPost2010PropOp42
 70
     1
102
RTVSPost2010Prop43
 90
        3
102
RTVSPost2010PropOp43
 70
     1
102
RTVSPost2010Prop44ColorIndex
 90
        5
102
RTVSPost2010Prop44ColorRGB
 90
      255
102
RTVSPost2010PropOp44
 70
     1
102
RTVSPost2010Prop45
280
     0
102
RTVSPost2010PropOp45
 70
     1
102
RTVSPost2010Prop46
 90
       50
102
RTVSPost2010PropOp46
 70
     1
102
RTVSPost2010Prop47
 90
       50
102
RTVSPost2010PropOp47
 70
     1
102
RTVSPost2010Prop48
 90
       50
102
RTVSPost2010PropOp48
 70
     1
102
RTVSPost2010Prop49
280
     0
102
RTVSPost2010PropOp49
 70
     1
102
RTVSPost2010Prop50
 90
       50
102
RTVSPost2010PropOp50
 70
     1
102
RTVSPost2010Prop51ColorIndex
 90
      256
102
RTVSPost2010Prop51ColorRGB
 90
-16777216
102
RTVSPost2010PropOp51
 70
     0
102
RTVSPost2010Prop52
140
1.0
102
RTVSPost2010PropOp52
 70
     0
102
RTVSPost2010Prop53
 90
        2
102
RTVSPost2010PropOp53
 70
     1
102
RTVSPost2010Prop54
  1
strokes_ogs.tif
102
RTVSPost2010PropOp54
 70
     1
102
RTVSPost2010Prop55
280
     0
102
RTVSPost2010PropOp55
 70
     1
102
RTVSPost2010Prop56
140
1.0
102
RTVSPost2010PropOp56
 70
     1
102
RTVSPost2010Prop57
140
1.0
102
RTVSPost2010PropOp57
 70
     1
  0
XRECORD
  5
BD
102
{ACAD_REACTORS
330
BC
102
}
330
BC
100
AcDbXrecord
280
     1
102
RTVSPropertyOp0
 70
     1
102
RTVSPropertyOp1
 70
     1
102
RTVSPropertyOp2
 70
     1
102
RTVSPropertyOp3
 70
     1
102
RTVSPropertyOp4
 70
     1
102
RTVSPropertyOp5
 70
     1
102
RTVSPropertyOp6
 70
     1
102
RTVSPropertyOp7
 70
     1
102
RTVSPropertyOp8
 70
     1
102
RTVSPropertyOp9
 70
     1
102
RTVSPropertyOp10
 70
     1
102
RTVSPropertyOp11
 70
     1
102
RTVSPropertyOp12
 70
     1
102
RTVSPropertyOp13
 70
     1
102
RTVSPropertyOp14
 70
     1
102
RTVSPropertyOp15
 70
     1
102
RTVSPropertyOp16
 70
     1
102
RTVSPropertyOp17
 70
     1
102
RTVSPropertyOp18
 70
     1
102
RTVSPropertyOp19
 70
     1
102
RTVSPropertyOp20
 70
     1
102
RTVSPropertyOp21
 70
     1
102
RTVSPropertyOp22
 70
     1
102
RTVSPropertyOp23
 70
     1
102
RTVSPropertyOp24
 70
     1
102
RTVSPropertyOp25
 70
     1
102
RTVSPropertyOp26
 70
     1
102
RTVSPropertyOp27
 70
     1
102
RTVSPropertyOp28
 70
     1
102
RTVSPropertyOp29
 70
     1
102
RTVSPropertyOp30
 70
     1
102
RTVSPropertyOp31
 70
     1
102
RTVSPropertyOp32
 70
     1
102
RTVSPropertyOp33
 70
     1
102
RTVSPropertyOp34
 70
     1
102
RTVSPropertyOp35
 70
     1
102
RTVSPropertyOp36
 70
     1
102
RTVSPropertyOp37
 70
     1
102
RTVSPropertyOp38
 70
     1
102
RTVSPropertyOp39
 70
     1
102
RTVSPropertyOp40
 70
     1
102
RTVSPropertyOp41
 70
     1
102
RTVSPropertyOp42
 70
     1
102
RTVSPropertyOp43
 70
     1
102
RTVSPropertyOp44
 70
     1
102
RTVSPropertyOp45
 70
     1
102
RTVSPropertyOp46
 70
     1
102
RTVSPropertyOp47
 70
     1
102
RTVSPropertyOp48
 70
     1
102
RTVSPropertyOp49
 70
     1
102
RTVSPropertyOp50
 70
     1
102
RTVSPropertyOp51
 70
     0
102
RTVSPropertyOp52
 70
     0
102
RTVSPropertyOp53
 70
     1
102
RTVSPropertyOp54
 70
     1
102
RTVSPropertyOp55
 70
     1
102
RTVSPropertyOp56
 70
     1
102
RTVSPropertyOp57
 70
     1
102
RTVSPost2010Prop28
280
     0
102
RTVSPost2010PropOp28
 70
     1
102
RTVSPost2010Prop29
280
     1
102
RTVSPost2010PropOp29
 70
     1
102
RTVSPost2010Prop30
280
     1
102
RTVSPost2010PropOp30
 70
     1
102
RTVSPost2010Prop31
280
     0
102
RTVSPost2010PropOp31
 70
     1
102
RTVSPost2010Prop32
280
     0
102
RTVSPost2010PropOp32
 70
     1
102
RTVSPost2010Prop33
280
     0
102
RTVSPost2010PropOp33
 70
     1
102
RTVSPost2010Prop34
280
     0
102
RTVSPost2010PropOp34
 70
     1
102
RTVSPost2010Prop35
280
     0
102
RTVSPost2010PropOp35
 70
     1
102
RTVSPost2010Prop36
280
     0
102
RTVSPost2010PropOp36
 70
     1
102
RTVSPost2010Prop37
 90
       50
102
RTVSPost2010PropOp37
 70
     1
102
RTVSPost2010Prop38
140
0.0
102
RTVSPost2010PropOp38
 70
     1
102
RTVSPost2010Prop39
140
1.0
102
RTVSPost2010PropOp39
 70
     1
102
RTVSPost2010Prop40
 90
        0
102
RTVSPost2010PropOp40
 70
     1
102
RTVSPost2010Prop41ColorIndex
 90
       18
102
RTVSPost2010Prop41ColorRGB
 90
        0
102
RTVSPost2010PropOp41
 70
     1
102
RTVSPost2010Prop42
 90
       50
102
RTVSPost2010PropOp42
 70
     1
102
RTVSPost2010Prop43
 90
        3
102
RTVSPost2010PropOp43
 70
     1
102
RTVSPost2010Prop44ColorIndex
 90
        5
102
RTVSPost2010Prop44ColorRGB
 90
      255
102
RTVSPost2010PropOp44
 70
     1
102
RTVSPost2010Prop45
280
     0
102
RTVSPost2010PropOp45
 70
     1
102
RTVSPost2010Prop46
 90
       50
102
RTVSPost2010PropOp46
 70
     1
102
RTVSPost2010Prop47
 90
       50
102
RTVSPost2010PropOp47
 70
     1
102
RTVSPost2010Prop48
 90
       50
102
RTVSPost2010PropOp48
 70
     1
102
RTVSPost2010Prop49
280
     0
102
RTVSPost2010PropOp49
 70
     1
102
RTVSPost2010Prop50
 90
       50
102
RTVSPost2010PropOp50
 70
     1
102
RTVSPost2010Prop51ColorIndex
 90
      256
102
RTVSPost2010Prop51ColorRGB
 90
-16777216
102
RTVSPost2010PropOp51
 70
     0
102
RTVSPost2010Prop52
140
1.0
102
RTVSPost2010PropOp52
 70
     0
102
RTVSPost2010Prop53
 90
        2
102
RTVSPost2010PropOp53
 70
     1
102
RTVSPost2010Prop54
  1
strokes_ogs.tif
102
RTVSPost2010PropOp54
 70
     1
102
RTVSPost2010Prop55
280
     0
102
RTVSPost2010PropOp55
 70
     1
102
RTVSPost2010Prop56
140
1.0
102
RTVSPost2010PropOp56
 70
     1
102
RTVSPost2010Prop57
140
1.0
102
RTVSPost2010PropOp57
 70
     1
  0
XRECORD
  5
BF
102
{ACAD_REACTORS
330
BE
102
}
330
BE
100
AcDbXrecord
280
     1
102
RTVSPropertyOp0
 70
     1
102
RTVSPropertyOp1
 70
     1
102
RTVSPropertyOp2
 70
     1
102
RTVSPropertyOp3
 70
     1
102
RTVSPropertyOp4
 70
     1
102
RTVSPropertyOp5
 70
     1
102
RTVSPropertyOp6
 70
     1
102
RTVSPropertyOp7
 70
     1
102
RTVSPropertyOp8
 70
     1
102
RTVSPropertyOp9
 70
     1
102
RTVSPropertyOp10
 70
     1
102
RTVSPropertyOp11
 70
     1
102
RTVSPropertyOp12
 70
     1
102
RTVSPropertyOp13
 70
     1
102
RTVSPropertyOp14
 70
     1
102
RTVSPropertyOp15
 70
     1
102
RTVSPropertyOp16
 70
     1
102
RTVSPropertyOp17
 70
     1
102
RTVSPropertyOp18
 70
     1
102
RTVSPropertyOp19
 70
     1
102
RTVSPropertyOp20
 70
     1
102
RTVSPropertyOp21
 70
     1
102
RTVSPropertyOp22
 70
     1
102
RTVSPropertyOp23
 70
     1
102
RTVSPropertyOp24
 70
     1
102
RTVSPropertyOp25
 70
     1
102
RTVSPropertyOp26
 70
     1
102
RTVSPropertyOp27
 70
     1
102
RTVSPropertyOp28
 70
     1
102
RTVSPropertyOp29
 70
     1
102
RTVSPropertyOp30
 70
     1
102
RTVSPropertyOp31
 70
     1
102
RTVSPropertyOp32
 70
     1
102
RTVSPropertyOp33
 70
     1
102
RTVSPropertyOp34
 70
     1
102
RTVSPropertyOp35
 70
     1
102
RTVSPropertyOp36
 70
     1
102
RTVSPropertyOp37
 70
     1
102
RTVSPropertyOp38
 70
     1
102
RTVSPropertyOp39
 70
     1
102
RTVSPropertyOp40
 70
     1
102
RTVSPropertyOp41
 70
     1
102
RTVSPropertyOp42
 70
     1
102
RTVSPropertyOp43
 70
     1
102
RTVSPropertyOp44
 70
     1
102
RTVSPropertyOp45
 70
     1
102
RTVSPropertyOp46
 70
     1
102
RTVSPropertyOp47
 70
     1
102
RTVSPropertyOp48
 70
     1
102
RTVSPropertyOp49
 70
     1
102
RTVSPropertyOp50
 70
     1
102
RTVSPropertyOp51
 70
     0
102
RTVSPropertyOp52
 70
     0
102
RTVSPropertyOp53
 70
     1
102
RTVSPropertyOp54
 70
     1
102
RTVSPropertyOp55
 70
     1
102
RTVSPropertyOp56
 70
     1
102
RTVSPropertyOp57
 70
     1
102
RTVSPost2010Prop28
280
     0
102
RTVSPost2010PropOp28
 70
     1
102
RTVSPost2010Prop29
280
     1
102
RTVSPost2010PropOp29
 70
     1
102
RTVSPost2010Prop30
280
     1
102
RTVSPost2010PropOp30
 70
     1
102
RTVSPost2010Prop31
280
     0
102
RTVSPost2010PropOp31
 70
     1
102
RTVSPost2010Prop32
280
     0
102
RTVSPost2010PropOp32
 70
     1
102
RTVSPost2010Prop33
280
     0
102
RTVSPost2010PropOp33
 70
     1
102
RTVSPost2010Prop34
280
     0
102
RTVSPost2010PropOp34
 70
     1
102
RTVSPost2010Prop35
280
     0
102
RTVSPost2010PropOp35
 70
     1
102
RTVSPost2010Prop36
280
     0
102
RTVSPost2010PropOp36
 70
     1
102
RTVSPost2010Prop37
 90
       50
102
RTVSPost2010PropOp37
 70
     1
102
RTVSPost2010Prop38
140
0.0
102
RTVSPost2010PropOp38
 70
     1
102
RTVSPost2010Prop39
140
1.0
102
RTVSPost2010PropOp39
 70
     1
102
RTVSPost2010Prop40
 90
        0
102
RTVSPost2010PropOp40
 70
     1
102
RTVSPost2010Prop41ColorIndex
 90
       18
102
RTVSPost2010Prop41ColorRGB
 90
        0
102
RTVSPost2010PropOp41
 70
     1
102
RTVSPost2010Prop42
 90
       50
102
RTVSPost2010PropOp42
 70
     1
102
RTVSPost2010Prop43
 90
        3
102
RTVSPost2010PropOp43
 70
     1
102
RTVSPost2010Prop44ColorIndex
 90
        5
102
RTVSPost2010Prop44ColorRGB
 90
      255
102
RTVSPost2010PropOp44
 70
     1
102
RTVSPost2010Prop45
280
     0
102
RTVSPost2010PropOp45
 70
     1
102
RTVSPost2010Prop46
 90
       50
102
RTVSPost2010PropOp46
 70
     1
102
RTVSPost2010Prop47
 90
       50
102
RTVSPost2010PropOp47
 70
     1
102
RTVSPost2010Prop48
 90
       50
102
RTVSPost2010PropOp48
 70
     1
102
RTVSPost2010Prop49
280
     0
102
RTVSPost2010PropOp49
 70
     1
102
RTVSPost2010Prop50
 90
       50
102
RTVSPost2010PropOp50
 70
     1
102
RTVSPost2010Prop51ColorIndex
 90
      256
102
RTVSPost2010Prop51ColorRGB
 90
-16777216
102
RTVSPost2010PropOp51
 70
     0
102
RTVSPost2010Prop52
140
1.0
102
RTVSPost2010PropOp52
 70
     0
102
RTVSPost2010Prop53
 90
        2
102
RTVSPost2010PropOp53
 70
     1
102
RTVSPost2010Prop54
  1
strokes_ogs.tif
102
RTVSPost2010PropOp54
 70
     1
102
RTVSPost2010Prop55
280
     0
102
RTVSPost2010PropOp55
 70
     1
102
RTVSPost2010Prop56
140
1.0
102
RTVSPost2010PropOp56
 70
     1
102
RTVSPost2010Prop57
140
1.0
102
RTVSPost2010PropOp57
 70
     1
  0
XRECORD
  5
AF
102
{ACAD_REACTORS
330
AE
102
}
330
AE
100
AcDbXrecord
280
     1
102
RTVSPropertyOp0
 70
     1
102
RTVSPropertyOp1
 70
     1
102
RTVSPropertyOp2
 70
     1
102
RTVSPropertyOp3
 70
     1
102
RTVSPropertyOp4
 70
     1
102
RTVSPropertyOp5
 70
     1
102
RTVSPropertyOp6
 70
     1
102
RTVSPropertyOp7
 70
     1
102
RTVSPropertyOp8
 70
     1
102
RTVSPropertyOp9
 70
     1
102
RTVSPropertyOp10
 70
     1
102
RTVSPropertyOp11
 70
     1
102
RTVSPropertyOp12
 70
     1
102
RTVSPropertyOp13
 70
     1
102
RTVSPropertyOp14
 70
     1
102
RTVSPropertyOp15
 70
     1
102
RTVSPropertyOp16
 70
     1
102
RTVSPropertyOp17
 70
     1
102
RTVSPropertyOp18
 70
     1
102
RTVSPropertyOp19
 70
     1
102
RTVSPropertyOp20
 70
     1
102
RTVSPropertyOp21
 70
     1
102
RTVSPropertyOp22
 70
     1
102
RTVSPropertyOp23
 70
     1
102
RTVSPropertyOp24
 70
     1
102
RTVSPropertyOp25
 70
     1
102
RTVSPropertyOp26
 70
     1
102
RTVSPropertyOp27
 70
     1
102
RTVSPropertyOp28
 70
     1
102
RTVSPropertyOp29
 70
     1
102
RTVSPropertyOp30
 70
     1
102
RTVSPropertyOp31
 70
     1
102
RTVSPropertyOp32
 70
     1
102
RTVSPropertyOp33
 70
     1
102
RTVSPropertyOp34
 70
     1
102
RTVSPropertyOp35
 70
     1
102
RTVSPropertyOp36
 70
     1
102
RTVSPropertyOp37
 70
     1
102
RTVSPropertyOp38
 70
     1
102
RTVSPropertyOp39
 70
     1
102
RTVSPropertyOp40
 70
     1
102
RTVSPropertyOp41
 70
     1
102
RTVSPropertyOp42
 70
     1
102
RTVSPropertyOp43
 70
     1
102
RTVSPropertyOp44
 70
     1
102
RTVSPropertyOp45
 70
     1
102
RTVSPropertyOp46
 70
     1
102
RTVSPropertyOp47
 70
     1
102
RTVSPropertyOp48
 70
     1
102
RTVSPropertyOp49
 70
     1
102
RTVSPropertyOp50
 70
     1
102
RTVSPropertyOp51
 70
     0
102
RTVSPropertyOp52
 70
     0
102
RTVSPropertyOp53
 70
     1
102
RTVSPropertyOp54
 70
     1
102
RTVSPropertyOp55
 70
     1
102
RTVSPropertyOp56
 70
     1
102
RTVSPropertyOp57
 70
     1
102
RTVSPost2010Prop28
280
     0
102
RTVSPost2010PropOp28
 70
     1
102
RTVSPost2010Prop29
280
     1
102
RTVSPost2010PropOp29
 70
     1
102
RTVSPost2010Prop30
280
     1
102
RTVSPost2010PropOp30
 70
     1
102
RTVSPost2010Prop31
280
     0
102
RTVSPost2010PropOp31
 70
     1
102
RTVSPost2010Prop32
280
     0
102
RTVSPost2010PropOp32
 70
     1
102
RTVSPost2010Prop33
280
     0
102
RTVSPost2010PropOp33
 70
     1
102
RTVSPost2010Prop34
280
     0
102
RTVSPost2010PropOp34
 70
     1
102
RTVSPost2010Prop35
280
     0
102
RTVSPost2010PropOp35
 70
     1
102
RTVSPost2010Prop36
280
     0
102
RTVSPost2010PropOp36
 70
     1
102
RTVSPost2010Prop37
 90
       50
102
RTVSPost2010PropOp37
 70
     1
102
RTVSPost2010Prop38
140
0.0
102
RTVSPost2010PropOp38
 70
     1
102
RTVSPost2010Prop39
140
1.0
102
RTVSPost2010PropOp39
 70
     1
102
RTVSPost2010Prop40
 90
        0
102
RTVSPost2010PropOp40
 70
     1
102
RTVSPost2010Prop41ColorIndex
 90
       18
102
RTVSPost2010Prop41ColorRGB
 90
        0
102
RTVSPost2010PropOp41
 70
     1
102
RTVSPost2010Prop42
 90
       50
102
RTVSPost2010PropOp42
 70
     1
102
RTVSPost2010Prop43
 90
        3
102
RTVSPost2010PropOp43
 70
     1
102
RTVSPost2010Prop44ColorIndex
 90
        5
102
RTVSPost2010Prop44ColorRGB
 90
      255
102
RTVSPost2010PropOp44
 70
     1
102
RTVSPost2010Prop45
280
     0
102
RTVSPost2010PropOp45
 70
     1
102
RTVSPost2010Prop46
 90
       50
102
RTVSPost2010PropOp46
 70
     1
102
RTVSPost2010Prop47
 90
       50
102
RTVSPost2010PropOp47
 70
     1
102
RTVSPost2010Prop48
 90
       50
102
RTVSPost2010PropOp48
 70
     1
102
RTVSPost2010Prop49
280
     0
102
RTVSPost2010PropOp49
 70
     1
102
RTVSPost2010Prop50
 90
       50
102
RTVSPost2010PropOp50
 70
     1
102
RTVSPost2010Prop51ColorIndex
 90
      256
102
RTVSPost2010Prop51ColorRGB
 90
-16777216
102
RTVSPost2010PropOp51
 70
     0
102
RTVSPost2010Prop52
140
1.0
102
RTVSPost2010PropOp52
 70
     0
102
RTVSPost2010Prop53
 90
        2
102
RTVSPost2010PropOp53
 70
     1
102
RTVSPost2010Prop54
  1
strokes_ogs.tif
102
RTVSPost2010PropOp54
 70
     1
102
RTVSPost2010Prop55
280
     0
102
RTVSPost2010PropOp55
 70
     1
102
RTVSPost2010Prop56
140
1.0
102
RTVSPost2010PropOp56
 70
     1
102
RTVSPost2010Prop57
140
1.0
102
RTVSPost2010PropOp57
 70
     1
  0
XRECORD
  5
A1
102
{ACAD_REACTORS
330
A0
102
}
330
A0
100
AcDbXrecord
280
     1
102
RTVSPropertyOp0
 70
     1
102
RTVSPropertyOp1
 70
     1
102
RTVSPropertyOp2
 70
     1
102
RTVSPropertyOp3
 70
     1
102
RTVSPropertyOp4
 70
     1
102
RTVSPropertyOp5
 70
     1
102
RTVSPropertyOp6
 70
     1
102
RTVSPropertyOp7
 70
     1
102
RTVSPropertyOp8
 70
     1
102
RTVSPropertyOp9
 70
     1
102
RTVSPropertyOp10
 70
     1
102
RTVSPropertyOp11
 70
     1
102
RTVSPropertyOp12
 70
     1
102
RTVSPropertyOp13
 70
     1
102
RTVSPropertyOp14
 70
     1
102
RTVSPropertyOp15
 70
     1
102
RTVSPropertyOp16
 70
     1
102
RTVSPropertyOp17
 70
     1
102
RTVSPropertyOp18
 70
     1
102
RTVSPropertyOp19
 70
     1
102
RTVSPropertyOp20
 70
     1
102
RTVSPropertyOp21
 70
     1
102
RTVSPropertyOp22
 70
     1
102
RTVSPropertyOp23
 70
     1
102
RTVSPropertyOp24
 70
     1
102
RTVSPropertyOp25
 70
     1
102
RTVSPropertyOp26
 70
     1
102
RTVSPropertyOp27
 70
     1
102
RTVSPropertyOp28
 70
     1
102
RTVSPropertyOp29
 70
     1
102
RTVSPropertyOp30
 70
     1
102
RTVSPropertyOp31
 70
     1
102
RTVSPropertyOp32
 70
     1
102
RTVSPropertyOp33
 70
     1
102
RTVSPropertyOp34
 70
     1
102
RTVSPropertyOp35
 70
     1
102
RTVSPropertyOp36
 70
     1
102
RTVSPropertyOp37
 70
     1
102
RTVSPropertyOp38
 70
     1
102
RTVSPropertyOp39
 70
     1
102
RTVSPropertyOp40
 70
     1
102
RTVSPropertyOp41
 70
     1
102
RTVSPropertyOp42
 70
     1
102
RTVSPropertyOp43
 70
     1
102
RTVSPropertyOp44
 70
     1
102
RTVSPropertyOp45
 70
     1
102
RTVSPropertyOp46
 70
     1
102
RTVSPropertyOp47
 70
     1
102
RTVSPropertyOp48
 70
     1
102
RTVSPropertyOp49
 70
     1
102
RTVSPropertyOp50
 70
     1
102
RTVSPropertyOp51
 70
     0
102
RTVSPropertyOp52
 70
     0
102
RTVSPropertyOp53
 70
     1
102
RTVSPropertyOp54
 70
     1
102
RTVSPropertyOp55
 70
     1
102
RTVSPropertyOp56
 70
     1
102
RTVSPropertyOp57
 70
     1
102
RTVSPost2010Prop28
280
     0
102
RTVSPost2010PropOp28
 70
     1
102
RTVSPost2010Prop29
280
     1
102
RTVSPost2010PropOp29
 70
     1
102
RTVSPost2010Prop30
280
     1
102
RTVSPost2010PropOp30
 70
     1
102
RTVSPost2010Prop31
280
     0
102
RTVSPost2010PropOp31
 70
     1
102
RTVSPost2010Prop32
280
     0
102
RTVSPost2010PropOp32
 70
     1
102
RTVSPost2010Prop33
280
     0
102
RTVSPost2010PropOp33
 70
     1
102
RTVSPost2010Prop34
280
     0
102
RTVSPost2010PropOp34
 70
     1
102
RTVSPost2010Prop35
280
     0
102
RTVSPost2010PropOp35
 70
     1
102
RTVSPost2010Prop36
280
     0
102
RTVSPost2010PropOp36
 70
     1
102
RTVSPost2010Prop37
 90
       50
102
RTVSPost2010PropOp37
 70
     1
102
RTVSPost2010Prop38
140
0.0
102
RTVSPost2010PropOp38
 70
     1
102
RTVSPost2010Prop39
140
1.0
102
RTVSPost2010PropOp39
 70
     1
102
RTVSPost2010Prop40
 90
        0
102
RTVSPost2010PropOp40
 70
     1
102
RTVSPost2010Prop41ColorIndex
 90
       18
102
RTVSPost2010Prop41ColorRGB
 90
        0
102
RTVSPost2010PropOp41
 70
     1
102
RTVSPost2010Prop42
 90
       50
102
RTVSPost2010PropOp42
 70
     1
102
RTVSPost2010Prop43
 90
        3
102
RTVSPost2010PropOp43
 70
     1
102
RTVSPost2010Prop44ColorIndex
 90
        5
102
RTVSPost2010Prop44ColorRGB
 90
      255
102
RTVSPost2010PropOp44
 70
     1
102
RTVSPost2010Prop45
280
     0
102
RTVSPost2010PropOp45
 70
     1
102
RTVSPost2010Prop46
 90
       50
102
RTVSPost2010PropOp46
 70
     1
102
RTVSPost2010Prop47
 90
       50
102
RTVSPost2010PropOp47
 70
     1
102
RTVSPost2010Prop48
 90
       50
102
RTVSPost2010PropOp48
 70
     1
102
RTVSPost2010Prop49
280
     0
102
RTVSPost2010PropOp49
 70
     1
102
RTVSPost2010Prop50
 90
       50
102
RTVSPost2010PropOp50
 70
     1
102
RTVSPost2010Prop51ColorIndex
 90
      256
102
RTVSPost2010Prop51ColorRGB
 90
-16777216
102
RTVSPost2010PropOp51
 70
     0
102
RTVSPost2010Prop52
140
1.0
102
RTVSPost2010PropOp52
 70
     0
102
RTVSPost2010Prop53
 90
        2
102
RTVSPost2010PropOp53
 70
     1
102
RTVSPost2010Prop54
  1
strokes_ogs.tif
102
RTVSPost2010PropOp54
 70
     1
102
RTVSPost2010Prop55
280
     0
102
RTVSPost2010PropOp55
 70
     1
102
RTVSPost2010Prop56
140
1.0
102
RTVSPost2010PropOp56
 70
     1
102
RTVSPost2010Prop57
140
1.0
102
RTVSPost2010PropOp57
 70
     1
  0
XRECORD
  5
C1
102
{ACAD_REACTORS
330
C0
102
}
330
C0
100
AcDbXrecord
280
     1
102
RTVSPropertyOp0
 70
     1
102
RTVSPropertyOp1
 70
     1
102
RTVSPropertyOp2
 70
     1
102
RTVSPropertyOp3
 70
     1
102
RTVSPropertyOp4
 70
     1
102
RTVSPropertyOp5
 70
     1
102
RTVSPropertyOp6
 70
     1
102
RTVSPropertyOp7
 70
     1
102
RTVSPropertyOp8
 70
     1
102
RTVSPropertyOp9
 70
     1
102
RTVSPropertyOp10
 70
     1
102
RTVSPropertyOp11
 70
     1
102
RTVSPropertyOp12
 70
     1
102
RTVSPropertyOp13
 70
     1
102
RTVSPropertyOp14
 70
     1
102
RTVSPropertyOp15
 70
     1
102
RTVSPropertyOp16
 70
     1
102
RTVSPropertyOp17
 70
     1
102
RTVSPropertyOp18
 70
     1
102
RTVSPropertyOp19
 70
     1
102
RTVSPropertyOp20
 70
     1
102
RTVSPropertyOp21
 70
     1
102
RTVSPropertyOp22
 70
     1
102
RTVSPropertyOp23
 70
     1
102
RTVSPropertyOp24
 70
     1
102
RTVSPropertyOp25
 70
     1
102
RTVSPropertyOp26
 70
     1
102
RTVSPropertyOp27
 70
     1
102
RTVSPropertyOp28
 70
     1
102
RTVSPropertyOp29
 70
     1
102
RTVSPropertyOp30
 70
     1
102
RTVSPropertyOp31
 70
     1
102
RTVSPropertyOp32
 70
     1
102
RTVSPropertyOp33
 70
     1
102
RTVSPropertyOp34
 70
     1
102
RTVSPropertyOp35
 70
     1
102
RTVSPropertyOp36
 70
     1
102
RTVSPropertyOp37
 70
     1
102
RTVSPropertyOp38
 70
     1
102
RTVSPropertyOp39
 70
     1
102
RTVSPropertyOp40
 70
     1
102
RTVSPropertyOp41
 70
     1
102
RTVSPropertyOp42
 70
     1
102
RTVSPropertyOp43
 70
     1
102
RTVSPropertyOp44
 70
     1
102
RTVSPropertyOp45
 70
     1
102
RTVSPropertyOp46
 70
     1
102
RTVSPropertyOp47
 70
     1
102
RTVSPropertyOp48
 70
     1
102
RTVSPropertyOp49
 70
     1
102
RTVSPropertyOp50
 70
     1
102
RTVSPropertyOp51
 70
     0
102
RTVSPropertyOp52
 70
     0
102
RTVSPropertyOp53
 70
     1
102
RTVSPropertyOp54
 70
     1
102
RTVSPropertyOp55
 70
     1
102
RTVSPropertyOp56
 70
     1
102
RTVSPropertyOp57
 70
     1
102
RTVSPost2010Prop28
280
     0
102
RTVSPost2010PropOp28
 70
     1
102
RTVSPost2010Prop29
280
     1
102
RTVSPost2010PropOp29
 70
     1
102
RTVSPost2010Prop30
280
     1
102
RTVSPost2010PropOp30
 70
     1
102
RTVSPost2010Prop31
280
     0
102
RTVSPost2010PropOp31
 70
     1
102
RTVSPost2010Prop32
280
     0
102
RTVSPost2010PropOp32
 70
     1
102
RTVSPost2010Prop33
280
     0
102
RTVSPost2010PropOp33
 70
     1
102
RTVSPost2010Prop34
280
     0
102
RTVSPost2010PropOp34
 70
     1
102
RTVSPost2010Prop35
280
     0
102
RTVSPost2010PropOp35
 70
     1
102
RTVSPost2010Prop36
280
     0
102
RTVSPost2010PropOp36
 70
     1
102
RTVSPost2010Prop37
 90
       50
102
RTVSPost2010PropOp37
 70
     1
102
RTVSPost2010Prop38
140
0.0
102
RTVSPost2010PropOp38
 70
     1
102
RTVSPost2010Prop39
140
1.0
102
RTVSPost2010PropOp39
 70
     1
102
RTVSPost2010Prop40
 90
        0
102
RTVSPost2010PropOp40
 70
     1
102
RTVSPost2010Prop41ColorIndex
 90
       18
102
RTVSPost2010Prop41ColorRGB
 90
        0
102
RTVSPost2010PropOp41
 70
     1
102
RTVSPost2010Prop42
 90
       50
102
RTVSPost2010PropOp42
 70
     1
102
RTVSPost2010Prop43
 90
        3
102
RTVSPost2010PropOp43
 70
     1
102
RTVSPost2010Prop44ColorIndex
 90
        5
102
RTVSPost2010Prop44ColorRGB
 90
      255
102
RTVSPost2010PropOp44
 70
     1
102
RTVSPost2010Prop45
280
     0
102
RTVSPost2010PropOp45
 70
     1
102
RTVSPost2010Prop46
 90
       50
102
RTVSPost2010PropOp46
 70
     1
102
RTVSPost2010Prop47
 90
       50
102
RTVSPost2010PropOp47
 70
     1
102
RTVSPost2010Prop48
 90
       50
102
RTVSPost2010PropOp48
 70
     1
102
RTVSPost2010Prop49
280
     0
102
RTVSPost2010PropOp49
 70
     1
102
RTVSPost2010Prop50
 90
       50
102
RTVSPost2010PropOp50
 70
     1
102
RTVSPost2010Prop51ColorIndex
 90
      256
102
RTVSPost2010Prop51ColorRGB
 90
-16777216
102
RTVSPost2010PropOp51
 70
     0
102
RTVSPost2010Prop52
140
1.0
102
RTVSPost2010PropOp52
 70
     0
102
RTVSPost2010Prop53
 90
        2
102
RTVSPost2010PropOp53
 70
     1
102
RTVSPost2010Prop54
  1
strokes_ogs.tif
102
RTVSPost2010PropOp54
 70
     1
102
RTVSPost2010Prop55
280
     0
102
RTVSPost2010PropOp55
 70
     1
102
RTVSPost2010Prop56
140
1.0
102
RTVSPost2010PropOp56
 70
     1
102
RTVSPost2010Prop57
140
1.0
102
RTVSPost2010PropOp57
 70
     1
  0
ENDSEC
  0
EOF
