  0
SECTION
  2
HEADER
  9
$ACADVER
  1
AC1006
  9
$INSBASE
 10
0.0
 20
0.0
 30
0.0
  9
$EXTMIN
 10
-33.8765
 20
-17.07963
  9
$EXTMAX
 10
25.3765
 20
6.079618
  9
$LIMMIN
 10
0.0
 20
0.0
  9
$LIMMAX
 10
0.0
 20
0.0
  9
$VIEWCTR
 10
6.591288
 20
4.579184
  9
$VIEWSIZE
 40
9.158369
  9
$SNAPMODE
 70
     0
  9
$SNAPUNIT
 10
1.0
 20
1.0
  9
$SNAPBASE
 10
0.0
 20
0.0
  9
$SNAPANG
 50
0.0
  9
$SNAPSTYLE
 70
     0
  9
$SNAPISOPAIR
 70
     0
  9
$GRIDMODE
 70
     0
  9
$GRIDUNIT
 10
0.0
 20
0.0
  9
$ORTHOMODE
 70
     0
  9
$REGENMODE
 70
     1
  9
$FILLMODE
 70
     1
  9
$QTEXTMODE
 70
     0
  9
$MIRRTEXT
 70
     1
  9
$DRAGMODE
 70
     2
  9
$LTSCALE
 40
1.0
  9
$OSMODE
 70
     0
  9
$ATTMODE
 70
     1
  9
$TEXTSIZE
 40
0.2
  9
$TRACEWID
 40
0.05
  9
$TEXTSTYLE
  7
STANDARD
  9
$CLAYER
  8
0
  9
$CELTYPE
  6
CONTINUOUS
  9
$CECOLOR
 62
   256
  9
$DIMSCALE
 40
1.0
  9
$DIMASZ
 40
0.18
  9
$DIMEXO
 40
0.0625
  9
$DIMDLI
 40
0.38
  9
$DIMRND
 40
0.0
  9
$DIMDLE
 40
0.0
  9
$DIMEXE
 40
0.18
  9
$DIMTP
 40
0.0
  9
$DIMTM
 40
0.0
  9
$DIMTXT
 40
0.18
  9
$DIMCEN
 40
0.09
  9
$DIMTSZ
 40
0.0
  9
$DIMTOL
 70
     0
  9
$DIMLIM
 70
     0
  9
$DIMTIH
 70
     1
  9
$DIMTOH
 70
     1
  9
$DIMSE1
 70
     0
  9
$DIMSE2
 70
     0
  9
$DIMTAD
 70
     0
  9
$DIMZIN
 70
     0
  9
$DIMBLK
  1

  9
$DIMASO
 70
     1
  9
$DIMSHO
 70
     1
  9
$DIMPOST
  1

  9
$DIMAPOST
  1

  9
$DIMALT
 70
     0
  9
$DIMALTD
 70
     2
  9
$DIMALTF
 40
25.4
  9
$DIMLFAC
 40
1.0
  9
$DIMTOFL
 70
     0
  9
$DIMTVP
 40
0.0
  9
$DIMTIX
 70
     0
  9
$DIMSOXD
 70
     0
  9
$DIMSAH
 70
     0
  9
$DIMBLK1
  1

  9
$DIMBLK2
  1

  9
$LUNITS
 70
     2
  9
$LUPREC
 70
     4
  9
$AXISMODE
 70
     0
  9
$AXISUNIT
 10
0.0
 20
0.0
  9
$SKETCHINC
 40
0.1
  9
$FILLETRAD
 40
0.0
  9
$AUNITS
 70
     0
  9
$AUPREC
 70
     0
  9
$MENU
  1
acad
  9
$ELEVATION
 40
0.0
  9
$THICKNESS
 40
0.0
  9
$LIMCHECK
 70
     0
  9
$BLIPMODE
 70
     1
  9
$CHAMFERA
 40
0.0
  9
$CHAMFERB
 40
0.0
  9
$SKPOLY
 70
     0
  9
$TDCREATE
 40
0.000000000
  9
$TDUPDATE
 40
0.000000000
  9
$TDINDWG
 40
0.0000000000
  9
$TDUSRTIMER
 40
0.0000000000
  9
$USRTIMER
 70
     1
  9
$ANGBASE
 50
0.0
  9
$ANGDIR
 70
     0
  9
$PDMODE
 70
     0
  9
$PDSIZE
 40
0.0
  9
$PLINEWID
 40
0.0
  9
$COORDS
 70
     0
  9
$SPLFRAME
 70
     0
  9
$SPLINETYPE
 70
     6
  9
$SPLINESEGS
 70
     8
  9
$ATTDIA
 70
     0
  9
$ATTREQ
 70
     1
  9
$HANDLING
 70
     1
  9
$HANDSEED
  5
80A
  9
$SURFTAB1
 70
     6
  9
$SURFTAB2
 70
     6
  9
$SURFTYPE
 70
     6
  9
$SURFU
 70
     6
  9
$SURFV
 70
     6
  9
$FLATLAND
 70
     0
  9
$UCSNAME
  2

  9
$UCSORG
 10
0.0
 20
0.0
 30
0.0
  9
$UCSXDIR
 10
1.0
 20
0.0
 30
0.0
  9
$UCSYDIR
 10
0.0
 20
1.0
 30
0.0
  9
$USERI1
 70
     0
  9
$USERI2
 70
     0
  9
$USERI3
 70
     0
  9
$USERI4
 70
     0
  9
$USERI5
 70
     0
  9
$USERR1
 40
0.0
  9
$USERR2
 40
0.0
  9
$USERR3
 40
0.0
  9
$USERR4
 40
0.0
  9
$USERR5
 40
0.0
  9
$WORLDVIEW
 70
     1
  0
ENDSEC
  0
SECTION
  2
TABLES
  0
TABLE
  2
VPORT
 70
     1
  0
VPORT
  2
*ACTIVE
 70
     0
 10
0.0
 20
0.0
 11
1.0
 21
1.0
 12
6.591288
 22
4.579184
 13
0.0
 23
0.0
 14
1.0
 24
1.0
 15
0.0
 25
0.0
 16
0.0
 26
0.0
 36
1.0
 17
0.0
 27
0.0
 37
0.0
 40
9.158369
 41
0.688564
 42
50.0
 43
0.0
 44
0.0
 50
0.0
 51
0.0
 71
     0
 72
   100
 73
     1
 74
     1
 75
     0
 76
     0
 77
     0
 78
     0
  0
ENDTAB
  0
TABLE
  2
LTYPE
 70
     1
  0
LTYPE
  2
CONTINUOUS
 70
    64
  3
Solid line
 72
    65
 73
     0
 40
0.0
  0
ENDTAB
  0
TABLE
  2
LAYER
 70
     2
  0
LAYER
  2
0
 70
     0
 62
     7
  6
CONTINUOUS
  0
LAYER
  2
LAYER_1
 70
     0
 62
     7
  6
CONTINUOUS
  0
ENDTAB
  0
TABLE
  2
STYLE
 70
     1
  0
STYLE
  2
STANDARD
 70
     0
 40
0.0
 41
1.0
 50
0.0
 71
     0
 42
0.0
  3
txt
  4

  0
ENDTAB
  0
TABLE
  2
VIEW
 70
     0
  0
ENDTAB
  0
TABLE
  2
UCS
 70
     0
  0
ENDTAB
  0
ENDSEC
  0
SECTION
  2
BLOCKS
  0
ENDSEC
  0
SECTION
  2
ENTITIES
  0
POLYLINE
  8
0
  5
25
 66
     1
 10
0.0
 20
0.0
 30
0.0
  0
VERTEX
  8
0
  5
26
 10
-12.749882
 20
-16.812504
 30
0.0
  0
VERTEX
  8
0
  5
27
 10
-12.765508
 20
-17.07813
 30
0.0
  0
VERTEX
  8
0
  5
28
 10
-28.734508
 20
-17.07813
 30
0.0
  0
VERTEX
  8
0
  5
29
 10
-28.750134
 20
-16.812504
 30
0.0
  0
VERTEX
  8
0
  5
2A
 10
-29.250134
 20
-16.812504
 30
0.0
  0
VERTEX
  8
0
  5
2B
 10
-29.250134
 20
-15.812504
 30
0.0
  0
VERTEX
  8
0
  5
2C
 10
-28.750134
 20
-15.812504
 30
0.0
  0
VERTEX
  8
0
  5
2D
 10
-28.750134
 20
-15.437504
 30
0.0
  0
VERTEX
  8
0
  5
2E
 10
-27.968882
 20
-15.437504
 30
0.0
  0
VERTEX
  8
0
  5
2F
 10
-27.968882
 20
-15.531252
 30
0.0
  0
VERTEX
  8
0
  5
30
 10
-27.718882
 20
-15.531252
 30
0.0
  0
VERTEX
  8
0
  5
31
 10
-27.718882
 20
-15.093756
 30
0.0
  0
VERTEX
  8
0
  5
32
 10
-27.968882
 20
-15.093756
 30
0.0
  0
VERTEX
  8
0
  5
33
 10
-27.968882
 20
-15.187504
 30
0.0
  0
VERTEX
  8
0
  5
34
 10
-28.750134
 20
-15.187504
 30
0.0
  0
VERTEX
  8
0
  5
35
 10
-28.750134
 20
-14.812504
 30
0.0
  0
VERTEX
  8
0
  5
36
 10
-29.250134
 20
-14.812504
 30
0.0
  0
VERTEX
  8
0
  5
37
 10
-29.250134
 20
-13.812504
 30
0.0
  0
VERTEX
  8
0
  5
38
 10
-28.750134
 20
-13.812504
 30
0.0
  0
VERTEX
  8
0
  5
39
 10
-28.750134
 20
-6.812504
 30
0.0
  0
VERTEX
  8
0
  5
3A
 10
-29.250134
 20
-6.812504
 30
0.0
  0
VERTEX
  8
0
  5
3B
 10
-29.250134
 20
-5.812504
 30
0.0
  0
VERTEX
  8
0
  5
3C
 10
-28.750134
 20
-5.812504
 30
0.0
  0
VERTEX
  8
0
  5
3D
 10
-28.750134
 20
-5.437504
 30
0.0
  0
VERTEX
  8
0
  5
3E
 10
-27.968882
 20
-5.437504
 30
0.0
  0
VERTEX
  8
0
  5
3F
 10
-27.968882
 20
-5.531252
 30
0.0
  0
VERTEX
  8
0
  5
40
 10
-27.718882
 20
-5.531252
 30
0.0
  0
VERTEX
  8
0
  5
41
 10
-27.718882
 20
-5.093756
 30
0.0
  0
VERTEX
  8
0
  5
42
 10
-27.968882
 20
-5.093756
 30
0.0
  0
VERTEX
  8
0
  5
43
 10
-27.968882
 20
-5.187504
 30
0.0
  0
VERTEX
  8
0
  5
44
 10
-28.750134
 20
-5.187504
 30
0.0
  0
VERTEX
  8
0
  5
45
 10
-28.750134
 20
-4.812504
 30
0.0
  0
VERTEX
  8
0
  5
46
 10
-29.250134
 20
-4.812504
 30
0.0
  0
VERTEX
  8
0
  5
47
 10
-29.250134
 20
-3.812504
 30
0.0
  0
VERTEX
  8
0
  5
48
 10
-28.750134
 20
-3.812504
 30
0.0
  0
VERTEX
  8
0
  5
49
 10
-28.734508
 20
-3.57813
 30
0.0
  0
VERTEX
  8
0
  5
4A
 10
-12.765508
 20
-3.57813
 30
0.0
  0
VERTEX
  8
0
  5
4B
 10
-12.749882
 20
-3.812504
 30
0.0
  0
VERTEX
  8
0
  5
4C
 10
-12.249882
 20
-3.812504
 30
0.0
  0
VERTEX
  8
0
  5
4D
 10
-12.249882
 20
-4.812504
 30
0.0
  0
VERTEX
  8
0
  5
4E
 10
-12.749882
 20
-4.812504
 30
0.0
  0
VERTEX
  8
0
  5
4F
 10
-12.749882
 20
-5.187504
 30
0.0
  0
VERTEX
  8
0
  5
50
 10
-13.531134
 20
-5.187504
 30
0.0
  0
VERTEX
  8
0
  5
51
 10
-13.531134
 20
-5.093756
 30
0.0
  0
VERTEX
  8
0
  5
52
 10
-13.781134
 20
-5.093756
 30
0.0
  0
VERTEX
  8
0
  5
53
 10
-13.781134
 20
-5.531252
 30
0.0
  0
VERTEX
  8
0
  5
54
 10
-13.531134
 20
-5.531252
 30
0.0
  0
VERTEX
  8
0
  5
55
 10
-13.531134
 20
-5.437504
 30
0.0
  0
VERTEX
  8
0
  5
56
 10
-12.749882
 20
-5.437504
 30
0.0
  0
VERTEX
  8
0
  5
57
 10
-12.749882
 20
-5.812504
 30
0.0
  0
VERTEX
  8
0
  5
58
 10
-12.249882
 20
-5.812504
 30
0.0
  0
VERTEX
  8
0
  5
59
 10
-12.249882
 20
-6.812504
 30
0.0
  0
VERTEX
  8
0
  5
5A
 10
-12.749882
 20
-6.812504
 30
0.0
  0
VERTEX
  8
0
  5
5B
 10
-12.749882
 20
-13.812504
 30
0.0
  0
VERTEX
  8
0
  5
5C
 10
-12.249882
 20
-13.812504
 30
0.0
  0
VERTEX
  8
0
  5
5D
 10
-12.249882
 20
-14.812504
 30
0.0
  0
VERTEX
  8
0
  5
5E
 10
-12.749882
 20
-14.812504
 30
0.0
  0
VERTEX
  8
0
  5
5F
 10
-12.749882
 20
-15.187504
 30
0.0
  0
VERTEX
  8
0
  5
60
 10
-13.531134
 20
-15.187504
 30
0.0
  0
VERTEX
  8
0
  5
61
 10
-13.531134
 20
-15.093756
 30
0.0
  0
VERTEX
  8
0
  5
62
 10
-13.781134
 20
-15.093756
 30
0.0
  0
VERTEX
  8
0
  5
63
 10
-13.781134
 20
-15.531252
 30
0.0
  0
VERTEX
  8
0
  5
64
 10
-13.531134
 20
-15.531252
 30
0.0
  0
VERTEX
  8
0
  5
65
 10
-13.531134
 20
-15.437504
 30
0.0
  0
VERTEX
  8
0
  5
66
 10
-12.749882
 20
-15.437504
 30
0.0
  0
VERTEX
  8
0
  5
67
 10
-12.749882
 20
-15.812504
 30
0.0
  0
VERTEX
  8
0
  5
68
 10
-12.249882
 20
-15.812504
 30
0.0
  0
VERTEX
  8
0
  5
69
 10
-12.249882
 20
-16.812504
 30
0.0
  0
VERTEX
  8
0
  5
6A
 10
-12.749882
 20
-16.812504
 30
0.0
  0
SEQEND
  8
0
  5
6B
  0
POLYLINE
  8
0
  5
6C
 66
     1
 10
0.0
 20
0.0
 30
0.0
  0
VERTEX
  8
0
  5
6D
 10
-9.874921
 20
3.078118
 30
0.0
  0
VERTEX
  8
0
  5
6E
 10
-9.874921
 20
-11.546882
 30
0.0
  0
VERTEX
  8
0
  5
6F
 10
-9.874921
 20
-11.546882
 30
0.0
  0
VERTEX
  8
0
  5
70
 10
-9.86974
 20
-11.648874
 30
0.0
  0
VERTEX
  8
0
  5
71
 10
-9.854539
 20
-11.74798
 30
0.0
  0
VERTEX
  8
0
  5
72
 10
-9.829827
 20
-11.843685
 30
0.0
  0
VERTEX
  8
0
  5
73
 10
-9.796122
 20
-11.935488
 30
0.0
  0
VERTEX
  8
0
  5
74
 10
-9.753913
 20
-12.022866
 30
0.0
  0
VERTEX
  8
0
  5
75
 10
-9.703732
 20
-12.105327
 30
0.0
  0
VERTEX
  8
0
  5
76
 10
-9.646075
 20
-12.182343
 30
0.0
  0
VERTEX
  8
0
  5
77
 10
-9.581461
 20
-12.253421
 30
0.0
  0
VERTEX
  8
0
  5
78
 10
-9.510382
 20
-12.318035
 30
0.0
  0
VERTEX
  8
0
  5
79
 10
-9.433366
 20
-12.375693
 30
0.0
  0
VERTEX
  8
0
  5
7A
 10
-9.350906
 20
-12.425874
 30
0.0
  0
VERTEX
  8
0
  5
7B
 10
-9.263528
 20
-12.468083
 30
0.0
  0
VERTEX
  8
0
  5
7C
 10
-9.171724
 20
-12.501787
 30
0.0
  0
VERTEX
  8
0
  5
7D
 10
-9.07602
 20
-12.5265
 30
0.0
  0
VERTEX
  8
0
  5
7E
 10
-8.976913
 20
-12.541701
 30
0.0
  0
VERTEX
  8
0
  5
7F
 10
3.125075
 20
-11.046886
 30
0.0
  0
VERTEX
  8
0
  5
80
 10
3.125075
 20
-11.046886
 30
0.0
  0
VERTEX
  8
0
  5
81
 10
3.227067
 20
-11.041705
 30
0.0
  0
VERTEX
  8
0
  5
82
 10
3.326173
 20
-11.026504
 30
0.0
  0
VERTEX
  8
0
  5
83
 10
3.421878
 20
-11.001791
 30
0.0
  0
VERTEX
  8
0
  5
84
 10
3.513681
 20
-10.968087
 30
0.0
  0
VERTEX
  8
0
  5
85
 10
3.601059
 20
-10.925878
 30
0.0
  0
VERTEX
  8
0
  5
86
 10
3.68352
 20
-10.875697
 30
0.0
  0
VERTEX
  8
0
  5
87
 10
3.760535
 20
-10.818039
 30
0.0
  0
VERTEX
  8
0
  5
88
 10
3.831614
 20
-10.753425
 30
0.0
  0
VERTEX
  8
0
  5
89
 10
3.896228
 20
-10.682346
 30
0.0
  0
VERTEX
  8
0
  5
8A
 10
3.953886
 20
-10.605331
 30
0.0
  0
VERTEX
  8
0
  5
8B
 10
4.004067
 20
-10.52287
 30
0.0
  0
VERTEX
  8
0
  5
8C
 10
4.046276
 20
-10.435492
 30
0.0
  0
VERTEX
  8
0
  5
8D
 10
4.07998
 20
-10.343689
 30
0.0
  0
VERTEX
  8
0
  5
8E
 10
4.104693
 20
-10.247984
 30
0.0
  0
VERTEX
  8
0
  5
8F
 10
4.119894
 20
-10.148878
 30
0.0
  0
VERTEX
  8
0
  5
90
 10
4.125075
 20
-10.046886
 30
0.0
  0
VERTEX
  8
0
  5
91
 10
4.125075
 20
-9.918169
 30
0.0
  0
VERTEX
  8
0
  5
92
 10
4.125075
 20
-9.553846
 30
0.0
  0
VERTEX
  8
0
  5
93
 10
4.125075
 20
-8.986654
 30
0.0
  0
VERTEX
  8
0
  5
94
 10
4.125075
 20
-8.249335
 30
0.0
  0
VERTEX
  8
0
  5
95
 10
4.125075
 20
-7.37461
 30
0.0
  0
VERTEX
  8
0
  5
96
 10
4.125075
 20
-6.395228
 30
0.0
  0
VERTEX
  8
0
  5
97
 10
4.125075
 20
-5.343917
 30
0.0
  0
VERTEX
  8
0
  5
98
 10
4.125075
 20
-4.253425
 30
0.0
  0
VERTEX
  8
0
  5
99
 10
4.125075
 20
-3.156469
 30
0.0
  0
VERTEX
  8
0
  5
9A
 10
4.125075
 20
-2.085799
 30
0.0
  0
VERTEX
  8
0
  5
9B
 10
4.125075
 20
-1.074146
 30
0.0
  0
VERTEX
  8
0
  5
9C
 10
4.125075
 20
-0.154244
 30
0.0
  0
VERTEX
  8
0
  5
9D
 10
4.125075
 20
0.641161
 30
0.0
  0
VERTEX
  8
0
  5
9E
 10
4.125075
 20
1.27935
 30
0.0
  0
VERTEX
  8
0
  5
9F
 10
4.125075
 20
1.727575
 30
0.0
  0
VERTEX
  8
0
  5
A0
 10
4.125075
 20
1.953114
 30
0.0
  0
VERTEX
  8
0
  5
A1
 10
4.119894
 20
2.055106
 30
0.0
  0
VERTEX
  8
0
  5
A2
 10
4.104693
 20
2.154213
 30
0.0
  0
VERTEX
  8
0
  5
A3
 10
4.07998
 20
2.249917
 30
0.0
  0
VERTEX
  8
0
  5
A4
 10
4.046276
 20
2.34172
 30
0.0
  0
VERTEX
  8
0
  5
A5
 10
4.004067
 20
2.429098
 30
0.0
  0
VERTEX
  8
0
  5
A6
 10
3.953886
 20
2.511559
 30
0.0
  0
VERTEX
  8
0
  5
A7
 10
3.896228
 20
2.588575
 30
0.0
  0
VERTEX
  8
0
  5
A8
 10
3.831614
 20
2.659654
 30
0.0
  0
VERTEX
  8
0
  5
A9
 10
3.760535
 20
2.724268
 30
0.0
  0
VERTEX
  8
0
  5
AA
 10
3.68352
 20
2.781925
 30
0.0
  0
VERTEX
  8
0
  5
AB
 10
3.601059
 20
2.832106
 30
0.0
  0
VERTEX
  8
0
  5
AC
 10
3.513681
 20
2.874315
 30
0.0
  0
VERTEX
  8
0
  5
AD
 10
3.421878
 20
2.90802
 30
0.0
  0
VERTEX
  8
0
  5
AE
 10
3.326173
 20
2.932732
 30
0.0
  0
VERTEX
  8
0
  5
AF
 10
3.227067
 20
2.947933
 30
0.0
  0
VERTEX
  8
0
  5
B0
 10
3.125075
 20
2.953114
 30
0.0
  0
VERTEX
  8
0
  5
B1
 10
2.899535
 20
2.965744
 30
0.0
  0
VERTEX
  8
0
  5
B2
 10
2.451311
 20
3.001449
 30
0.0
  0
VERTEX
  8
0
  5
B3
 10
1.813122
 20
3.056929
 30
0.0
  0
VERTEX
  8
0
  5
B4
 10
1.017717
 20
3.128894
 30
0.0
  0
VERTEX
  8
0
  5
B5
 10
0.097815
 20
3.214031
 30
0.0
  0
VERTEX
  8
0
  5
B6
 10
-0.913835
 20
3.309067
 30
0.0
  0
VERTEX
  8
0
  5
B7
 10
-1.984504
 20
3.410689
 30
0.0
  0
VERTEX
  8
0
  5
B8
 10
-3.081461
 20
3.515614
 30
0.0
  0
VERTEX
  8
0
  5
B9
 10
-4.171953
 20
3.620528
 30
0.0
  0
VERTEX
  8
0
  5
BA
 10
-5.223264
 20
3.722154
 30
0.0
  0
VERTEX
  8
0
  5
BB
 10
-6.202646
 20
3.817185
 30
0.0
  0
VERTEX
  8
0
  5
BC
 10
-7.07737
 20
3.902335
 30
0.0
  0
VERTEX
  8
0
  5
BD
 10
-7.814689
 20
3.974291
 30
0.0
  0
VERTEX
  8
0
  5
BE
 10
-8.381882
 20
4.029776
 30
0.0
  0
VERTEX
  8
0
  5
BF
 10
-8.746205
 20
4.06548
 30
0.0
  0
VERTEX
  8
0
  5
C0
 10
-8.874921
 20
4.078118
 30
0.0
  0
VERTEX
  8
0
  5
C1
 10
-8.976913
 20
4.072937
 30
0.0
  0
VERTEX
  8
0
  5
C2
 10
-9.07602
 20
4.057736
 30
0.0
  0
VERTEX
  8
0
  5
C3
 10
-9.171724
 20
4.033024
 30
0.0
  0
VERTEX
  8
0
  5
C4
 10
-9.263528
 20
3.999319
 30
0.0
  0
VERTEX
  8
0
  5
C5
 10
-9.350906
 20
3.95711
 30
0.0
  0
VERTEX
  8
0
  5
C6
 10
-9.433366
 20
3.906929
 30
0.0
  0
VERTEX
  8
0
  5
C7
 10
-9.510382
 20
3.849272
 30
0.0
  0
VERTEX
  8
0
  5
C8
 10
-9.581461
 20
3.784657
 30
0.0
  0
VERTEX
  8
0
  5
C9
 10
-9.646075
 20
3.713579
 30
0.0
  0
VERTEX
  8
0
  5
CA
 10
-9.703732
 20
3.636563
 30
0.0
  0
VERTEX
  8
0
  5
CB
 10
-9.753913
 20
3.554102
 30
0.0
  0
VERTEX
  8
0
  5
CC
 10
-9.796122
 20
3.466724
 30
0.0
  0
VERTEX
  8
0
  5
CD
 10
-9.829827
 20
3.374921
 30
0.0
  0
VERTEX
  8
0
  5
CE
 10
-9.854539
 20
3.279217
 30
0.0
  0
VERTEX
  8
0
  5
CF
 10
-9.86974
 20
3.18011
 30
0.0
  0
SEQEND
  8
0
  5
D0
  0
POLYLINE
  8
0
  5
D1
 66
     1
 10
0.0
 20
0.0
 30
0.0
  0
VERTEX
  8
0
  5
D2
 10
-11.874921
 20
5.078118
 30
0.0
  0
VERTEX
  8
0
  5
D3
 10
-11.874921
 20
5.078118
 30
0.0
  0
VERTEX
  8
0
  5
D4
 10
-11.86974
 20
5.18011
 30
0.0
  0
VERTEX
  8
0
  5
D5
 10
-11.854539
 20
5.279217
 30
0.0
  0
VERTEX
  8
0
  5
D6
 10
-11.829827
 20
5.374921
 30
0.0
  0
VERTEX
  8
0
  5
D7
 10
-11.796122
 20
5.466724
 30
0.0
  0
VERTEX
  8
0
  5
D8
 10
-11.753913
 20
5.554102
 30
0.0
  0
VERTEX
  8
0
  5
D9
 10
-11.703732
 20
5.636563
 30
0.0
  0
VERTEX
  8
0
  5
DA
 10
-11.646075
 20
5.713579
 30
0.0
  0
VERTEX
  8
0
  5
DB
 10
-11.581461
 20
5.784657
 30
0.0
  0
VERTEX
  8
0
  5
DC
 10
-11.510382
 20
5.849272
 30
0.0
  0
VERTEX
  8
0
  5
DD
 10
-11.433366
 20
5.906929
 30
0.0
  0
VERTEX
  8
0
  5
DE
 10
-11.350906
 20
5.95711
 30
0.0
  0
VERTEX
  8
0
  5
DF
 10
-11.263528
 20
5.999319
 30
0.0
  0
VERTEX
  8
0
  5
E0
 10
-11.171724
 20
6.033024
 30
0.0
  0
VERTEX
  8
0
  5
E1
 10
-11.07602
 20
6.057736
 30
0.0
  0
VERTEX
  8
0
  5
E2
 10
-10.976913
 20
6.072937
 30
0.0
  0
VERTEX
  8
0
  5
E3
 10
6.106417
 20
4.505504
 30
0.0
  0
VERTEX
  8
0
  5
E4
 10
24.037921
 20
6.074307
 30
0.0
  0
VERTEX
  8
0
  5
E5
 10
24.037921
 20
6.074307
 30
0.0
  0
VERTEX
  8
0
  5
E6
 10
24.139972
 20
6.078031
 30
0.0
  0
VERTEX
  8
0
  5
E7
 10
24.240028
 20
6.071528
 30
0.0
  0
VERTEX
  8
0
  5
E8
 10
24.337524
 20
6.055252
 30
0.0
  0
VERTEX
  8
0
  5
E9
 10
24.431917
 20
6.029677
 30
0.0
  0
VERTEX
  8
0
  5
EA
 10
24.522642
 20
5.995248
 30
0.0
  0
VERTEX
  8
0
  5
EB
 10
24.609161
 20
5.952445
 30
0.0
  0
VERTEX
  8
0
  5
EC
 10
24.690909
 20
5.90172
 30
0.0
  0
VERTEX
  8
0
  5
ED
 10
24.76735
 20
5.843547
 30
0.0
  0
VERTEX
  8
0
  5
EE
 10
24.837913
 20
5.77837
 30
0.0
  0
VERTEX
  8
0
  5
EF
 10
24.902063
 20
5.706669
 30
0.0
  0
VERTEX
  8
0
  5
F0
 10
24.95924
 20
5.628902
 30
0.0
  0
VERTEX
  8
0
  5
F1
 10
25.008902
 20
5.545531
 30
0.0
  0
VERTEX
  8
0
  5
F2
 10
25.05048
 20
5.457016
 30
0.0
  0
VERTEX
  8
0
  5
F3
 10
25.083437
 20
5.363831
 30
0.0
  0
VERTEX
  8
0
  5
F4
 10
25.107217
 20
5.266425
 30
0.0
  0
VERTEX
  8
0
  5
F5
 10
25.121268
 20
5.165276
 30
0.0
  0
VERTEX
  8
0
  5
F6
 10
25.124992
 20
5.063213
 30
0.0
  0
VERTEX
  8
0
  5
F7
 10
25.118488
 20
4.963157
 30
0.0
  0
VERTEX
  8
0
  5
F8
 10
25.102213
 20
4.865654
 30
0.0
  0
VERTEX
  8
0
  5
F9
 10
25.076638
 20
4.771268
 30
0.0
  0
VERTEX
  8
0
  5
FA
 10
25.042209
 20
4.680535
 30
0.0
  0
VERTEX
  8
0
  5
FB
 10
24.999406
 20
4.594024
 30
0.0
  0
VERTEX
  8
0
  5
FC
 10
24.948681
 20
4.512272
 30
0.0
  0
VERTEX
  8
0
  5
FD
 10
24.890508
 20
4.435839
 30
0.0
  0
VERTEX
  8
0
  5
FE
 10
24.825331
 20
4.365268
 30
0.0
  0
VERTEX
  8
0
  5
FF
 10
24.75363
 20
4.301118
 30
0.0
  0
VERTEX
  8
0
  5
100
 10
24.675862
 20
4.243937
 30
0.0
  0
VERTEX
  8
0
  5
101
 10
24.592492
 20
4.194283
 30
0.0
  0
VERTEX
  8
0
  5
102
 10
24.503976
 20
4.152701
 30
0.0
  0
VERTEX
  8
0
  5
103
 10
24.410791
 20
4.119748
 30
0.0
  0
VERTEX
  8
0
  5
104
 10
24.313386
 20
4.095969
 30
0.0
  0
VERTEX
  8
0
  5
105
 10
7.125079
 20
2.578122
 30
0.0
  0
VERTEX
  8
0
  5
106
 10
7.125079
 20
2.578122
 30
0.0
  0
VERTEX
  8
0
  5
107
 10
7.023079
 20
2.572937
 30
0.0
  0
VERTEX
  8
0
  5
108
 10
6.923972
 20
2.557736
 30
0.0
  0
VERTEX
  8
0
  5
109
 10
6.82826
 20
2.533024
 30
0.0
  0
VERTEX
  8
0
  5
10A
 10
6.736465
 20
2.499319
 30
0.0
  0
VERTEX
  8
0
  5
10B
 10
6.649079
 20
2.45711
 30
0.0
  0
VERTEX
  8
0
  5
10C
 10
6.566626
 20
2.406929
 30
0.0
  0
VERTEX
  8
0
  5
10D
 10
6.489606
 20
2.349272
 30
0.0
  0
VERTEX
  8
0
  5
10E
 10
6.418535
 20
2.284657
 30
0.0
  0
VERTEX
  8
0
  5
10F
 10
6.353909
 20
2.213579
 30
0.0
  0
VERTEX
  8
0
  5
110
 10
6.296252
 20
2.136563
 30
0.0
  0
VERTEX
  8
0
  5
111
 10
6.246067
 20
2.054102
 30
0.0
  0
VERTEX
  8
0
  5
112
 10
6.20387
 20
1.966724
 30
0.0
  0
VERTEX
  8
0
  5
113
 10
6.170157
 20
1.874921
 30
0.0
  0
VERTEX
  8
0
  5
114
 10
6.145453
 20
1.779217
 30
0.0
  0
VERTEX
  8
0
  5
115
 10
6.130252
 20
1.68011
 30
0.0
  0
VERTEX
  8
0
  5
116
 10
6.125079
 20
1.578118
 30
0.0
  0
VERTEX
  8
0
  5
117
 10
6.125031
 20
1.340913
 30
0.0
  0
VERTEX
  8
0
  5
118
 10
6.124913
 20
0.859673
 30
0.0
  0
VERTEX
  8
0
  5
119
 10
6.124732
 20
0.170102
 30
0.0
  0
VERTEX
  8
0
  5
11A
 10
6.124512
 20
-0.692083
 30
0.0
  0
VERTEX
  8
0
  5
11B
 10
6.124248
 20
-1.691177
 30
0.0
  0
VERTEX
  8
0
  5
11C
 10
6.123969
 20
-2.791472
 30
0.0
  0
VERTEX
  8
0
  5
11D
 10
6.123681
 20
-3.957244
 30
0.0
  0
VERTEX
  8
0
  5
11E
 10
6.123409
 20
-5.152791
 30
0.0
  0
VERTEX
  8
0
  5
11F
 10
6.12315
 20
-6.342382
 30
0.0
  0
VERTEX
  8
0
  5
120
 10
6.122933
 20
-7.490327
 30
0.0
  0
VERTEX
  8
0
  5
121
 10
6.12276
 20
-8.560898
 30
0.0
  0
VERTEX
  8
0
  5
122
 10
6.122661
 20
-9.518394
 30
0.0
  0
VERTEX
  8
0
  5
123
 10
6.122634
 20
-10.327091
 30
0.0
  0
VERTEX
  8
0
  5
124
 10
6.122705
 20
-10.951283
 30
0.0
  0
VERTEX
  8
0
  5
125
 10
6.122874
 20
-11.355256
 30
0.0
  0
VERTEX
  8
0
  5
126
 10
6.123173
 20
-11.503303
 30
0.0
  0
VERTEX
  8
0
  5
127
 10
6.118335
 20
-11.612965
 30
0.0
  0
VERTEX
  8
0
  5
128
 10
6.1035
 20
-11.718783
 30
0.0
  0
VERTEX
  8
0
  5
129
 10
6.079244
 20
-11.820299
 30
0.0
  0
VERTEX
  8
0
  5
12A
 10
6.04615
 20
-11.917075
 30
0.0
  0
VERTEX
  8
0
  5
12B
 10
6.004776
 20
-12.008654
 30
0.0
  0
VERTEX
  8
0
  5
12C
 10
5.955717
 20
-12.094587
 30
0.0
  0
VERTEX
  8
0
  5
12D
 10
5.899539
 20
-12.174433
 30
0.0
  0
VERTEX
  8
0
  5
12E
 10
5.836823
 20
-12.24774
 30
0.0
  0
VERTEX
  8
0
  5
12F
 10
5.768134
 20
-12.314055
 30
0.0
  0
VERTEX
  8
0
  5
130
 10
5.694055
 20
-12.372933
 30
0.0
  0
VERTEX
  8
0
  5
131
 10
5.615165
 20
-12.423929
 30
0.0
  0
VERTEX
  8
0
  5
132
 10
5.532039
 20
-12.466598
 30
0.0
  0
VERTEX
  8
0
  5
133
 10
5.445244
 20
-12.50048
 30
0.0
  0
VERTEX
  8
0
  5
134
 10
5.355366
 20
-12.525138
 30
0.0
  0
VERTEX
  8
0
  5
135
 10
5.262976
 20
-12.540118
 30
0.0
  0
VERTEX
  8
0
  5
136
 10
-10.874921
 20
-14.546882
 30
0.0
  0
VERTEX
  8
0
  5
137
 10
-10.874921
 20
-14.546882
 30
0.0
  0
VERTEX
  8
0
  5
138
 10
-10.976913
 20
-14.541701
 30
0.0
  0
VERTEX
  8
0
  5
139
 10
-11.07602
 20
-14.5265
 30
0.0
  0
VERTEX
  8
0
  5
13A
 10
-11.171724
 20
-14.501787
 30
0.0
  0
VERTEX
  8
0
  5
13B
 10
-11.263528
 20
-14.468083
 30
0.0
  0
VERTEX
  8
0
  5
13C
 10
-11.350906
 20
-14.425874
 30
0.0
  0
VERTEX
  8
0
  5
13D
 10
-11.433366
 20
-14.375693
 30
0.0
  0
VERTEX
  8
0
  5
13E
 10
-11.510382
 20
-14.318035
 30
0.0
  0
VERTEX
  8
0
  5
13F
 10
-11.581461
 20
-14.253421
 30
0.0
  0
VERTEX
  8
0
  5
140
 10
-11.646075
 20
-14.182343
 30
0.0
  0
VERTEX
  8
0
  5
141
 10
-11.703732
 20
-14.105327
 30
0.0
  0
VERTEX
  8
0
  5
142
 10
-11.753913
 20
-14.022866
 30
0.0
  0
VERTEX
  8
0
  5
143
 10
-11.796122
 20
-13.935488
 30
0.0
  0
VERTEX
  8
0
  5
144
 10
-11.829827
 20
-13.843685
 30
0.0
  0
VERTEX
  8
0
  5
145
 10
-11.854539
 20
-13.74798
 30
0.0
  0
VERTEX
  8
0
  5
146
 10
-11.86974
 20
-13.648874
 30
0.0
  0
VERTEX
  8
0
  5
147
 10
-11.874921
 20
5.078118
 30
0.0
  0
SEQEND
  8
0
  5
148
  0
POLYLINE
  8
0
  5
149
 66
     1
 10
0.0
 20
0.0
 30
0.0
  0
VERTEX
  8
0
  5
14A
 10
-10.749921
 20
3.078118
 30
0.0
  0
VERTEX
  8
0
  5
14B
 10
-10.749921
 20
3.078118
 30
0.0
  0
VERTEX
  8
0
  5
14C
 10
-10.750563
 20
3.090858
 30
0.0
  0
VERTEX
  8
0
  5
14D
 10
-10.752465
 20
3.103248
 30
0.0
  0
VERTEX
  8
0
  5
14E
 10
-10.755551
 20
3.115213
 30
0.0
  0
VERTEX
  8
0
  5
14F
 10
-10.759768
 20
3.126689
 30
0.0
  0
VERTEX
  8
0
  5
150
 10
-10.765035
 20
3.137606
 30
0.0
  0
VERTEX
  8
0
  5
151
 10
-10.771311
 20
3.147917
 30
0.0
  0
VERTEX
  8
0
  5
152
 10
-10.778516
 20
3.157543
 30
0.0
  0
VERTEX
  8
0
  5
153
 10
-10.786598
 20
3.166433
 30
0.0
  0
VERTEX
  8
0
  5
154
 10
-10.79548
 20
3.174508
 30
0.0
  0
VERTEX
  8
0
  5
155
 10
-10.805106
 20
3.181717
 30
0.0
  0
VERTEX
  8
0
  5
156
 10
-10.815413
 20
3.187984
 30
0.0
  0
VERTEX
  8
0
  5
157
 10
-10.826339
 20
3.193264
 30
0.0
  0
VERTEX
  8
0
  5
158
 10
-10.837811
 20
3.197476
 30
0.0
  0
VERTEX
  8
0
  5
159
 10
-10.84978
 20
3.200567
 30
0.0
  0
VERTEX
  8
0
  5
15A
 10
-10.862169
 20
3.202469
 30
0.0
  0
VERTEX
  8
0
  5
15B
 10
-10.874921
 20
3.203118
 30
0.0
  0
VERTEX
  8
0
  5
15C
 10
-10.887661
 20
3.202469
 30
0.0
  0
VERTEX
  8
0
  5
15D
 10
-10.900051
 20
3.200567
 30
0.0
  0
VERTEX
  8
0
  5
15E
 10
-10.912016
 20
3.197476
 30
0.0
  0
VERTEX
  8
0
  5
15F
 10
-10.923492
 20
3.193264
 30
0.0
  0
VERTEX
  8
0
  5
160
 10
-10.934409
 20
3.187984
 30
0.0
  0
VERTEX
  8
0
  5
161
 10
-10.94472
 20
3.181717
 30
0.0
  0
VERTEX
  8
0
  5
162
 10
-10.954346
 20
3.174508
 30
0.0
  0
VERTEX
  8
0
  5
163
 10
-10.963236
 20
3.166433
 30
0.0
  0
VERTEX
  8
0
  5
164
 10
-10.971311
 20
3.157543
 30
0.0
  0
VERTEX
  8
0
  5
165
 10
-10.97852
 20
3.147917
 30
0.0
  0
VERTEX
  8
0
  5
166
 10
-10.984787
 20
3.137606
 30
0.0
  0
VERTEX
  8
0
  5
167
 10
-10.990067
 20
3.126689
 30
0.0
  0
VERTEX
  8
0
  5
168
 10
-10.99428
 20
3.115213
 30
0.0
  0
VERTEX
  8
0
  5
169
 10
-10.99737
 20
3.103248
 30
0.0
  0
VERTEX
  8
0
  5
16A
 10
-10.999272
 20
3.090858
 30
0.0
  0
VERTEX
  8
0
  5
16B
 10
-10.999921
 20
3.078118
 30
0.0
  0
VERTEX
  8
0
  5
16C
 10
-10.999272
 20
3.065366
 30
0.0
  0
VERTEX
  8
0
  5
16D
 10
-10.99737
 20
3.052976
 30
0.0
  0
VERTEX
  8
0
  5
16E
 10
-10.99428
 20
3.041008
 30
0.0
  0
VERTEX
  8
0
  5
16F
 10
-10.990067
 20
3.029535
 30
0.0
  0
VERTEX
  8
0
  5
170
 10
-10.984787
 20
3.01861
 30
0.0
  0
VERTEX
  8
0
  5
171
 10
-10.97852
 20
3.008303
 30
0.0
  0
VERTEX
  8
0
  5
172
 10
-10.971311
 20
2.998677
 30
0.0
  0
VERTEX
  8
0
  5
173
 10
-10.963236
 20
2.989795
 30
0.0
  0
VERTEX
  8
0
  5
174
 10
-10.954346
 20
2.981713
 30
0.0
  0
VERTEX
  8
0
  5
175
 10
-10.94472
 20
2.974508
 30
0.0
  0
VERTEX
  8
0
  5
176
 10
-10.934409
 20
2.968232
 30
0.0
  0
VERTEX
  8
0
  5
177
 10
-10.923492
 20
2.962965
 30
0.0
  0
VERTEX
  8
0
  5
178
 10
-10.912016
 20
2.958748
 30
0.0
  0
VERTEX
  8
0
  5
179
 10
-10.900051
 20
2.955661
 30
0.0
  0
VERTEX
  8
0
  5
17A
 10
-10.887661
 20
2.95376
 30
0.0
  0
VERTEX
  8
0
  5
17B
 10
-10.874921
 20
2.953118
 30
0.0
  0
VERTEX
  8
0
  5
17C
 10
-10.862169
 20
2.95376
 30
0.0
  0
VERTEX
  8
0
  5
17D
 10
-10.84978
 20
2.955661
 30
0.0
  0
VERTEX
  8
0
  5
17E
 10
-10.837811
 20
2.958748
 30
0.0
  0
VERTEX
  8
0
  5
17F
 10
-10.826339
 20
2.962965
 30
0.0
  0
VERTEX
  8
0
  5
180
 10
-10.815413
 20
2.968232
 30
0.0
  0
VERTEX
  8
0
  5
181
 10
-10.805106
 20
2.974508
 30
0.0
  0
VERTEX
  8
0
  5
182
 10
-10.79548
 20
2.981713
 30
0.0
  0
VERTEX
  8
0
  5
183
 10
-10.786598
 20
2.989795
 30
0.0
  0
VERTEX
  8
0
  5
184
 10
-10.778516
 20
2.998677
 30
0.0
  0
VERTEX
  8
0
  5
185
 10
-10.771311
 20
3.008303
 30
0.0
  0
VERTEX
  8
0
  5
186
 10
-10.765035
 20
3.01861
 30
0.0
  0
VERTEX
  8
0
  5
187
 10
-10.759768
 20
3.029535
 30
0.0
  0
VERTEX
  8
0
  5
188
 10
-10.755551
 20
3.041008
 30
0.0
  0
VERTEX
  8
0
  5
189
 10
-10.752465
 20
3.052976
 30
0.0
  0
VERTEX
  8
0
  5
18A
 10
-10.750563
 20
3.065366
 30
0.0
  0
SEQEND
  8
0
  5
18B
  0
POLYLINE
  8
0
  5
18C
 66
     1
 10
0.0
 20
0.0
 30
0.0
  0
VERTEX
  8
0
  5
18D
 10
-10.624921
 20
2.578118
 30
0.0
  0
VERTEX
  8
0
  5
18E
 10
-10.624921
 20
2.078118
 30
0.0
  0
VERTEX
  8
0
  5
18F
 10
-11.124921
 20
2.078118
 30
0.0
  0
VERTEX
  8
0
  5
190
 10
-11.124921
 20
2.578118
 30
0.0
  0
VERTEX
  8
0
  5
191
 10
-10.624921
 20
2.578118
 30
0.0
  0
SEQEND
  8
0
  5
192
  0
POLYLINE
  8
0
  5
193
 66
     1
 10
0.0
 20
0.0
 30
0.0
  0
VERTEX
  8
0
  5
194
 10
-10.624921
 20
4.078118
 30
0.0
  0
VERTEX
  8
0
  5
195
 10
-10.624921
 20
3.578118
 30
0.0
  0
VERTEX
  8
0
  5
196
 10
-11.124921
 20
3.578118
 30
0.0
  0
VERTEX
  8
0
  5
197
 10
-11.124921
 20
4.078118
 30
0.0
  0
VERTEX
  8
0
  5
198
 10
-10.624921
 20
4.078118
 30
0.0
  0
SEQEND
  8
0
  5
199
  0
POLYLINE
  8
0
  5
19A
 66
     1
 10
0.0
 20
0.0
 30
0.0
  0
VERTEX
  8
0
  5
19B
 10
-10.749921
 20
-12.921882
 30
0.0
  0
VERTEX
  8
0
  5
19C
 10
-10.749921
 20
-12.921882
 30
0.0
  0
VERTEX
  8
0
  5
19D
 10
-10.750563
 20
-12.90913
 30
0.0
  0
VERTEX
  8
0
  5
19E
 10
-10.752465
 20
-12.89674
 30
0.0
  0
VERTEX
  8
0
  5
19F
 10
-10.755551
 20
-12.884772
 30
0.0
  0
VERTEX
  8
0
  5
1A0
 10
-10.759768
 20
-12.873299
 30
0.0
  0
VERTEX
  8
0
  5
1A1
 10
-10.765035
 20
-12.862374
 30
0.0
  0
VERTEX
  8
0
  5
1A2
 10
-10.771311
 20
-12.852067
 30
0.0
  0
VERTEX
  8
0
  5
1A3
 10
-10.778516
 20
-12.842441
 30
0.0
  0
VERTEX
  8
0
  5
1A4
 10
-10.786598
 20
-12.833559
 30
0.0
  0
VERTEX
  8
0
  5
1A5
 10
-10.79548
 20
-12.825476
 30
0.0
  0
VERTEX
  8
0
  5
1A6
 10
-10.805106
 20
-12.818272
 30
0.0
  0
VERTEX
  8
0
  5
1A7
 10
-10.815413
 20
-12.811996
 30
0.0
  0
VERTEX
  8
0
  5
1A8
 10
-10.826339
 20
-12.806728
 30
0.0
  0
VERTEX
  8
0
  5
1A9
 10
-10.837811
 20
-12.802512
 30
0.0
  0
VERTEX
  8
0
  5
1AA
 10
-10.84978
 20
-12.799425
 30
0.0
  0
VERTEX
  8
0
  5
1AB
 10
-10.862169
 20
-12.797524
 30
0.0
  0
VERTEX
  8
0
  5
1AC
 10
-10.874921
 20
-12.796882
 30
0.0
  0
VERTEX
  8
0
  5
1AD
 10
-10.887661
 20
-12.797524
 30
0.0
  0
VERTEX
  8
0
  5
1AE
 10
-10.900051
 20
-12.799425
 30
0.0
  0
VERTEX
  8
0
  5
1AF
 10
-10.912016
 20
-12.802512
 30
0.0
  0
VERTEX
  8
0
  5
1B0
 10
-10.923492
 20
-12.806728
 30
0.0
  0
VERTEX
  8
0
  5
1B1
 10
-10.934409
 20
-12.811996
 30
0.0
  0
VERTEX
  8
0
  5
1B2
 10
-10.94472
 20
-12.818272
 30
0.0
  0
VERTEX
  8
0
  5
1B3
 10
-10.954346
 20
-12.825476
 30
0.0
  0
VERTEX
  8
0
  5
1B4
 10
-10.963236
 20
-12.833559
 30
0.0
  0
VERTEX
  8
0
  5
1B5
 10
-10.971311
 20
-12.842441
 30
0.0
  0
VERTEX
  8
0
  5
1B6
 10
-10.97852
 20
-12.852067
 30
0.0
  0
VERTEX
  8
0
  5
1B7
 10
-10.984787
 20
-12.862374
 30
0.0
  0
VERTEX
  8
0
  5
1B8
 10
-10.990067
 20
-12.873299
 30
0.0
  0
VERTEX
  8
0
  5
1B9
 10
-10.99428
 20
-12.884772
 30
0.0
  0
VERTEX
  8
0
  5
1BA
 10
-10.99737
 20
-12.89674
 30
0.0
  0
VERTEX
  8
0
  5
1BB
 10
-10.999272
 20
-12.90913
 30
0.0
  0
VERTEX
  8
0
  5
1BC
 10
-10.999921
 20
-12.921882
 30
0.0
  0
VERTEX
  8
0
  5
1BD
 10
-10.999272
 20
-12.934622
 30
0.0
  0
VERTEX
  8
0
  5
1BE
 10
-10.99737
 20
-12.947012
 30
0.0
  0
VERTEX
  8
0
  5
1BF
 10
-10.99428
 20
-12.958976
 30
0.0
  0
VERTEX
  8
0
  5
1C0
 10
-10.990067
 20
-12.970453
 30
0.0
  0
VERTEX
  8
0
  5
1C1
 10
-10.984787
 20
-12.98137
 30
0.0
  0
VERTEX
  8
0
  5
1C2
 10
-10.97852
 20
-12.991681
 30
0.0
  0
VERTEX
  8
0
  5
1C3
 10
-10.971311
 20
-13.001307
 30
0.0
  0
VERTEX
  8
0
  5
1C4
 10
-10.963236
 20
-13.010197
 30
0.0
  0
VERTEX
  8
0
  5
1C5
 10
-10.954346
 20
-13.018272
 30
0.0
  0
VERTEX
  8
0
  5
1C6
 10
-10.94472
 20
-13.02548
 30
0.0
  0
VERTEX
  8
0
  5
1C7
 10
-10.934409
 20
-13.031748
 30
0.0
  0
VERTEX
  8
0
  5
1C8
 10
-10.923492
 20
-13.037028
 30
0.0
  0
VERTEX
  8
0
  5
1C9
 10
-10.912016
 20
-13.04124
 30
0.0
  0
VERTEX
  8
0
  5
1CA
 10
-10.900051
 20
-13.044331
 30
0.0
  0
VERTEX
  8
0
  5
1CB
 10
-10.887661
 20
-13.046232
 30
0.0
  0
VERTEX
  8
0
  5
1CC
 10
-10.874921
 20
-13.046882
 30
0.0
  0
VERTEX
  8
0
  5
1CD
 10
-10.862169
 20
-13.046232
 30
0.0
  0
VERTEX
  8
0
  5
1CE
 10
-10.84978
 20
-13.044331
 30
0.0
  0
VERTEX
  8
0
  5
1CF
 10
-10.837811
 20
-13.04124
 30
0.0
  0
VERTEX
  8
0
  5
1D0
 10
-10.826339
 20
-13.037028
 30
0.0
  0
VERTEX
  8
0
  5
1D1
 10
-10.815413
 20
-13.031748
 30
0.0
  0
VERTEX
  8
0
  5
1D2
 10
-10.805106
 20
-13.02548
 30
0.0
  0
VERTEX
  8
0
  5
1D3
 10
-10.79548
 20
-13.018272
 30
0.0
  0
VERTEX
  8
0
  5
1D4
 10
-10.786598
 20
-13.010197
 30
0.0
  0
VERTEX
  8
0
  5
1D5
 10
-10.778516
 20
-13.001307
 30
0.0
  0
VERTEX
  8
0
  5
1D6
 10
-10.771311
 20
-12.991681
 30
0.0
  0
VERTEX
  8
0
  5
1D7
 10
-10.765035
 20
-12.98137
 30
0.0
  0
VERTEX
  8
0
  5
1D8
 10
-10.759768
 20
-12.970453
 30
0.0
  0
VERTEX
  8
0
  5
1D9
 10
-10.755551
 20
-12.958976
 30
0.0
  0
VERTEX
  8
0
  5
1DA
 10
-10.752465
 20
-12.947012
 30
0.0
  0
VERTEX
  8
0
  5
1DB
 10
-10.750563
 20
-12.934622
 30
0.0
  0
SEQEND
  8
0
  5
1DC
  0
POLYLINE
  8
0
  5
1DD
 66
     1
 10
0.0
 20
0.0
 30
0.0
  0
VERTEX
  8
0
  5
1DE
 10
-10.624921
 20
-13.421882
 30
0.0
  0
VERTEX
  8
0
  5
1DF
 10
-10.624921
 20
-13.921882
 30
0.0
  0
VERTEX
  8
0
  5
1E0
 10
-11.124921
 20
-13.921882
 30
0.0
  0
VERTEX
  8
0
  5
1E1
 10
-11.124921
 20
-13.421882
 30
0.0
  0
VERTEX
  8
0
  5
1E2
 10
-10.624921
 20
-13.421882
 30
0.0
  0
SEQEND
  8
0
  5
1E3
  0
POLYLINE
  8
0
  5
1E4
 66
     1
 10
0.0
 20
0.0
 30
0.0
  0
VERTEX
  8
0
  5
1E5
 10
-10.624921
 20
-11.921882
 30
0.0
  0
VERTEX
  8
0
  5
1E6
 10
-10.624921
 20
-12.421882
 30
0.0
  0
VERTEX
  8
0
  5
1E7
 10
-11.124921
 20
-12.421882
 30
0.0
  0
VERTEX
  8
0
  5
1E8
 10
-11.124921
 20
-11.921882
 30
0.0
  0
VERTEX
  8
0
  5
1E9
 10
-10.624921
 20
-11.921882
 30
0.0
  0
SEQEND
  8
0
  5
1EA
  0
POLYLINE
  8
0
  5
1EB
 66
     1
 10
0.0
 20
0.0
 30
0.0
  0
VERTEX
  8
0
  5
1EC
 10
-10.749921
 20
-4.921882
 30
0.0
  0
VERTEX
  8
0
  5
1ED
 10
-10.749921
 20
-4.921882
 30
0.0
  0
VERTEX
  8
0
  5
1EE
 10
-10.750563
 20
-4.90913
 30
0.0
  0
VERTEX
  8
0
  5
1EF
 10
-10.752465
 20
-4.89674
 30
0.0
  0
VERTEX
  8
0
  5
1F0
 10
-10.755551
 20
-4.884772
 30
0.0
  0
VERTEX
  8
0
  5
1F1
 10
-10.759768
 20
-4.873299
 30
0.0
  0
VERTEX
  8
0
  5
1F2
 10
-10.765035
 20
-4.862374
 30
0.0
  0
VERTEX
  8
0
  5
1F3
 10
-10.771311
 20
-4.852067
 30
0.0
  0
VERTEX
  8
0
  5
1F4
 10
-10.778516
 20
-4.842441
 30
0.0
  0
VERTEX
  8
0
  5
1F5
 10
-10.786598
 20
-4.833559
 30
0.0
  0
VERTEX
  8
0
  5
1F6
 10
-10.79548
 20
-4.825476
 30
0.0
  0
VERTEX
  8
0
  5
1F7
 10
-10.805106
 20
-4.818272
 30
0.0
  0
VERTEX
  8
0
  5
1F8
 10
-10.815413
 20
-4.811996
 30
0.0
  0
VERTEX
  8
0
  5
1F9
 10
-10.826339
 20
-4.806728
 30
0.0
  0
VERTEX
  8
0
  5
1FA
 10
-10.837811
 20
-4.802512
 30
0.0
  0
VERTEX
  8
0
  5
1FB
 10
-10.84978
 20
-4.799425
 30
0.0
  0
VERTEX
  8
0
  5
1FC
 10
-10.862169
 20
-4.797524
 30
0.0
  0
VERTEX
  8
0
  5
1FD
 10
-10.874921
 20
-4.796882
 30
0.0
  0
VERTEX
  8
0
  5
1FE
 10
-10.887661
 20
-4.797524
 30
0.0
  0
VERTEX
  8
0
  5
1FF
 10
-10.900051
 20
-4.799425
 30
0.0
  0
VERTEX
  8
0
  5
200
 10
-10.912016
 20
-4.802512
 30
0.0
  0
VERTEX
  8
0
  5
201
 10
-10.923492
 20
-4.806728
 30
0.0
  0
VERTEX
  8
0
  5
202
 10
-10.934409
 20
-4.811996
 30
0.0
  0
VERTEX
  8
0
  5
203
 10
-10.94472
 20
-4.818272
 30
0.0
  0
VERTEX
  8
0
  5
204
 10
-10.954346
 20
-4.825476
 30
0.0
  0
VERTEX
  8
0
  5
205
 10
-10.963236
 20
-4.833559
 30
0.0
  0
VERTEX
  8
0
  5
206
 10
-10.971311
 20
-4.842441
 30
0.0
  0
VERTEX
  8
0
  5
207
 10
-10.97852
 20
-4.852067
 30
0.0
  0
VERTEX
  8
0
  5
208
 10
-10.984787
 20
-4.862374
 30
0.0
  0
VERTEX
  8
0
  5
209
 10
-10.990067
 20
-4.873299
 30
0.0
  0
VERTEX
  8
0
  5
20A
 10
-10.99428
 20
-4.884772
 30
0.0
  0
VERTEX
  8
0
  5
20B
 10
-10.99737
 20
-4.89674
 30
0.0
  0
VERTEX
  8
0
  5
20C
 10
-10.999272
 20
-4.90913
 30
0.0
  0
VERTEX
  8
0
  5
20D
 10
-10.999921
 20
-4.921882
 30
0.0
  0
VERTEX
  8
0
  5
20E
 10
-10.999272
 20
-4.934622
 30
0.0
  0
VERTEX
  8
0
  5
20F
 10
-10.99737
 20
-4.947012
 30
0.0
  0
VERTEX
  8
0
  5
210
 10
-10.99428
 20
-4.958976
 30
0.0
  0
VERTEX
  8
0
  5
211
 10
-10.990067
 20
-4.970453
 30
0.0
  0
VERTEX
  8
0
  5
212
 10
-10.984787
 20
-4.98137
 30
0.0
  0
VERTEX
  8
0
  5
213
 10
-10.97852
 20
-4.991681
 30
0.0
  0
VERTEX
  8
0
  5
214
 10
-10.971311
 20
-5.001307
 30
0.0
  0
VERTEX
  8
0
  5
215
 10
-10.963236
 20
-5.010197
 30
0.0
  0
VERTEX
  8
0
  5
216
 10
-10.954346
 20
-5.018272
 30
0.0
  0
VERTEX
  8
0
  5
217
 10
-10.94472
 20
-5.02548
 30
0.0
  0
VERTEX
  8
0
  5
218
 10
-10.934409
 20
-5.031748
 30
0.0
  0
VERTEX
  8
0
  5
219
 10
-10.923492
 20
-5.037028
 30
0.0
  0
VERTEX
  8
0
  5
21A
 10
-10.912016
 20
-5.04124
 30
0.0
  0
VERTEX
  8
0
  5
21B
 10
-10.900051
 20
-5.044331
 30
0.0
  0
VERTEX
  8
0
  5
21C
 10
-10.887661
 20
-5.046232
 30
0.0
  0
VERTEX
  8
0
  5
21D
 10
-10.874921
 20
-5.046882
 30
0.0
  0
VERTEX
  8
0
  5
21E
 10
-10.862169
 20
-5.046232
 30
0.0
  0
VERTEX
  8
0
  5
21F
 10
-10.84978
 20
-5.044331
 30
0.0
  0
VERTEX
  8
0
  5
220
 10
-10.837811
 20
-5.04124
 30
0.0
  0
VERTEX
  8
0
  5
221
 10
-10.826339
 20
-5.037028
 30
0.0
  0
VERTEX
  8
0
  5
222
 10
-10.815413
 20
-5.031748
 30
0.0
  0
VERTEX
  8
0
  5
223
 10
-10.805106
 20
-5.02548
 30
0.0
  0
VERTEX
  8
0
  5
224
 10
-10.79548
 20
-5.018272
 30
0.0
  0
VERTEX
  8
0
  5
225
 10
-10.786598
 20
-5.010197
 30
0.0
  0
VERTEX
  8
0
  5
226
 10
-10.778516
 20
-5.001307
 30
0.0
  0
VERTEX
  8
0
  5
227
 10
-10.771311
 20
-4.991681
 30
0.0
  0
VERTEX
  8
0
  5
228
 10
-10.765035
 20
-4.98137
 30
0.0
  0
VERTEX
  8
0
  5
229
 10
-10.759768
 20
-4.970453
 30
0.0
  0
VERTEX
  8
0
  5
22A
 10
-10.755551
 20
-4.958976
 30
0.0
  0
VERTEX
  8
0
  5
22B
 10
-10.752465
 20
-4.947012
 30
0.0
  0
VERTEX
  8
0
  5
22C
 10
-10.750563
 20
-4.934622
 30
0.0
  0
SEQEND
  8
0
  5
22D
  0
POLYLINE
  8
0
  5
22E
 66
     1
 10
0.0
 20
0.0
 30
0.0
  0
VERTEX
  8
0
  5
22F
 10
-10.624921
 20
-5.421882
 30
0.0
  0
VERTEX
  8
0
  5
230
 10
-10.624921
 20
-5.921882
 30
0.0
  0
VERTEX
  8
0
  5
231
 10
-11.124921
 20
-5.921882
 30
0.0
  0
VERTEX
  8
0
  5
232
 10
-11.124921
 20
-5.421882
 30
0.0
  0
VERTEX
  8
0
  5
233
 10
-10.624921
 20
-5.421882
 30
0.0
  0
SEQEND
  8
0
  5
234
  0
POLYLINE
  8
0
  5
235
 66
     1
 10
0.0
 20
0.0
 30
0.0
  0
VERTEX
  8
0
  5
236
 10
-10.624921
 20
-3.921882
 30
0.0
  0
VERTEX
  8
0
  5
237
 10
-10.624921
 20
-4.421882
 30
0.0
  0
VERTEX
  8
0
  5
238
 10
-11.124921
 20
-4.421882
 30
0.0
  0
VERTEX
  8
0
  5
239
 10
-11.124921
 20
-3.921882
 30
0.0
  0
VERTEX
  8
0
  5
23A
 10
-10.624921
 20
-3.921882
 30
0.0
  0
SEQEND
  8
0
  5
23B
  0
POLYLINE
  8
0
  5
23C
 66
     1
 10
0.0
 20
0.0
 30
0.0
  0
VERTEX
  8
0
  5
23D
 10
5.250094
 20
0.234366
 30
0.0
  0
VERTEX
  8
0
  5
23E
 10
5.250094
 20
0.234366
 30
0.0
  0
VERTEX
  8
0
  5
23F
 10
5.249445
 20
0.247106
 30
0.0
  0
VERTEX
  8
0
  5
240
 10
5.247543
 20
0.259496
 30
0.0
  0
VERTEX
  8
0
  5
241
 10
5.244453
 20
0.271461
 30
0.0
  0
VERTEX
  8
0
  5
242
 10
5.24024
 20
0.282937
 30
0.0
  0
VERTEX
  8
0
  5
243
 10
5.234961
 20
0.293854
 30
0.0
  0
VERTEX
  8
0
  5
244
 10
5.228693
 20
0.304165
 30
0.0
  0
VERTEX
  8
0
  5
245
 10
5.221484
 20
0.313791
 30
0.0
  0
VERTEX
  8
0
  5
246
 10
5.213409
 20
0.322681
 30
0.0
  0
VERTEX
  8
0
  5
247
 10
5.20452
 20
0.330756
 30
0.0
  0
VERTEX
  8
0
  5
248
 10
5.194894
 20
0.337965
 30
0.0
  0
VERTEX
  8
0
  5
249
 10
5.184583
 20
0.344232
 30
0.0
  0
VERTEX
  8
0
  5
24A
 10
5.173665
 20
0.349512
 30
0.0
  0
VERTEX
  8
0
  5
24B
 10
5.162189
 20
0.353724
 30
0.0
  0
VERTEX
  8
0
  5
24C
 10
5.150224
 20
0.356815
 30
0.0
  0
VERTEX
  8
0
  5
24D
 10
5.137835
 20
0.358717
 30
0.0
  0
VERTEX
  8
0
  5
24E
 10
5.125094
 20
0.359366
 30
0.0
  0
VERTEX
  8
0
  5
24F
 10
5.112343
 20
0.358717
 30
0.0
  0
VERTEX
  8
0
  5
250
 10
5.099953
 20
0.356815
 30
0.0
  0
VERTEX
  8
0
  5
251
 10
5.087984
 20
0.353724
 30
0.0
  0
VERTEX
  8
0
  5
252
 10
5.076512
 20
0.349512
 30
0.0
  0
VERTEX
  8
0
  5
253
 10
5.065587
 20
0.344232
 30
0.0
  0
VERTEX
  8
0
  5
254
 10
5.05528
 20
0.337965
 30
0.0
  0
VERTEX
  8
0
  5
255
 10
5.045654
 20
0.330756
 30
0.0
  0
VERTEX
  8
0
  5
256
 10
5.036772
 20
0.322681
 30
0.0
  0
VERTEX
  8
0
  5
257
 10
5.028689
 20
0.313791
 30
0.0
  0
VERTEX
  8
0
  5
258
 10
5.021484
 20
0.304165
 30
0.0
  0
VERTEX
  8
0
  5
259
 10
5.015209
 20
0.293854
 30
0.0
  0
VERTEX
  8
0
  5
25A
 10
5.009941
 20
0.282937
 30
0.0
  0
VERTEX
  8
0
  5
25B
 10
5.005724
 20
0.271461
 30
0.0
  0
VERTEX
  8
0
  5
25C
 10
5.002638
 20
0.259496
 30
0.0
  0
VERTEX
  8
0
  5
25D
 10
5.000736
 20
0.247106
 30
0.0
  0
VERTEX
  8
0
  5
25E
 10
5.000094
 20
0.234366
 30
0.0
  0
VERTEX
  8
0
  5
25F
 10
5.000736
 20
0.221614
 30
0.0
  0
VERTEX
  8
0
  5
260
 10
5.002638
 20
0.209224
 30
0.0
  0
VERTEX
  8
0
  5
261
 10
5.005724
 20
0.197256
 30
0.0
  0
VERTEX
  8
0
  5
262
 10
5.009941
 20
0.185783
 30
0.0
  0
VERTEX
  8
0
  5
263
 10
5.015209
 20
0.174858
 30
0.0
  0
VERTEX
  8
0
  5
264
 10
5.021484
 20
0.164551
 30
0.0
  0
VERTEX
  8
0
  5
265
 10
5.028689
 20
0.154925
 30
0.0
  0
VERTEX
  8
0
  5
266
 10
5.036772
 20
0.146043
 30
0.0
  0
VERTEX
  8
0
  5
267
 10
5.045654
 20
0.137961
 30
0.0
  0
VERTEX
  8
0
  5
268
 10
5.05528
 20
0.130756
 30
0.0
  0
VERTEX
  8
0
  5
269
 10
5.065587
 20
0.12448
 30
0.0
  0
VERTEX
  8
0
  5
26A
 10
5.076512
 20
0.119213
 30
0.0
  0
VERTEX
  8
0
  5
26B
 10
5.087984
 20
0.114996
 30
0.0
  0
VERTEX
  8
0
  5
26C
 10
5.099953
 20
0.111909
 30
0.0
  0
VERTEX
  8
0
  5
26D
 10
5.112343
 20
0.110008
 30
0.0
  0
VERTEX
  8
0
  5
26E
 10
5.125094
 20
0.109366
 30
0.0
  0
VERTEX
  8
0
  5
26F
 10
5.137835
 20
0.110008
 30
0.0
  0
VERTEX
  8
0
  5
270
 10
5.150224
 20
0.111909
 30
0.0
  0
VERTEX
  8
0
  5
271
 10
5.162189
 20
0.114996
 30
0.0
  0
VERTEX
  8
0
  5
272
 10
5.173665
 20
0.119213
 30
0.0
  0
VERTEX
  8
0
  5
273
 10
5.184583
 20
0.12448
 30
0.0
  0
VERTEX
  8
0
  5
274
 10
5.194894
 20
0.130756
 30
0.0
  0
VERTEX
  8
0
  5
275
 10
5.20452
 20
0.137961
 30
0.0
  0
VERTEX
  8
0
  5
276
 10
5.213409
 20
0.146043
 30
0.0
  0
VERTEX
  8
0
  5
277
 10
5.221484
 20
0.154925
 30
0.0
  0
VERTEX
  8
0
  5
278
 10
5.228693
 20
0.164551
 30
0.0
  0
VERTEX
  8
0
  5
279
 10
5.234961
 20
0.174858
 30
0.0
  0
VERTEX
  8
0
  5
27A
 10
5.24024
 20
0.185783
 30
0.0
  0
VERTEX
  8
0
  5
27B
 10
5.244453
 20
0.197256
 30
0.0
  0
VERTEX
  8
0
  5
27C
 10
5.247543
 20
0.209224
 30
0.0
  0
VERTEX
  8
0
  5
27D
 10
5.249445
 20
0.221614
 30
0.0
  0
SEQEND
  8
0
  5
27E
  0
POLYLINE
  8
0
  5
27F
 66
     1
 10
0.0
 20
0.0
 30
0.0
  0
VERTEX
  8
0
  5
280
 10
5.375094
 20
-0.265634
 30
0.0
  0
VERTEX
  8
0
  5
281
 10
5.375094
 20
-1.265634
 30
0.0
  0
VERTEX
  8
0
  5
282
 10
4.875094
 20
-1.265634
 30
0.0
  0
VERTEX
  8
0
  5
283
 10
4.875094
 20
-0.265634
 30
0.0
  0
VERTEX
  8
0
  5
284
 10
5.375094
 20
-0.265634
 30
0.0
  0
SEQEND
  8
0
  5
285
  0
POLYLINE
  8
0
  5
286
 66
     1
 10
0.0
 20
0.0
 30
0.0
  0
VERTEX
  8
0
  5
287
 10
5.375094
 20
1.734366
 30
0.0
  0
VERTEX
  8
0
  5
288
 10
5.375094
 20
0.734366
 30
0.0
  0
VERTEX
  8
0
  5
289
 10
4.875094
 20
0.734366
 30
0.0
  0
VERTEX
  8
0
  5
28A
 10
4.875094
 20
1.734366
 30
0.0
  0
VERTEX
  8
0
  5
28B
 10
5.375094
 20
1.734366
 30
0.0
  0
SEQEND
  8
0
  5
28C
  0
POLYLINE
  8
0
  5
28D
 66
     1
 10
0.0
 20
0.0
 30
0.0
  0
VERTEX
  8
0
  5
28E
 10
5.250094
 20
-9.765634
 30
0.0
  0
VERTEX
  8
0
  5
28F
 10
5.250094
 20
-9.765634
 30
0.0
  0
VERTEX
  8
0
  5
290
 10
5.249445
 20
-9.752882
 30
0.0
  0
VERTEX
  8
0
  5
291
 10
5.247543
 20
-9.740492
 30
0.0
  0
VERTEX
  8
0
  5
292
 10
5.244453
 20
-9.728524
 30
0.0
  0
VERTEX
  8
0
  5
293
 10
5.24024
 20
-9.717051
 30
0.0
  0
VERTEX
  8
0
  5
294
 10
5.234961
 20
-9.706126
 30
0.0
  0
VERTEX
  8
0
  5
295
 10
5.228693
 20
-9.695819
 30
0.0
  0
VERTEX
  8
0
  5
296
 10
5.221484
 20
-9.686193
 30
0.0
  0
VERTEX
  8
0
  5
297
 10
5.213409
 20
-9.677311
 30
0.0
  0
VERTEX
  8
0
  5
298
 10
5.20452
 20
-9.669228
 30
0.0
  0
VERTEX
  8
0
  5
299
 10
5.194894
 20
-9.662024
 30
0.0
  0
VERTEX
  8
0
  5
29A
 10
5.184583
 20
-9.655748
 30
0.0
  0
VERTEX
  8
0
  5
29B
 10
5.173665
 20
-9.65048
 30
0.0
  0
VERTEX
  8
0
  5
29C
 10
5.162189
 20
-9.646264
 30
0.0
  0
VERTEX
  8
0
  5
29D
 10
5.150224
 20
-9.643177
 30
0.0
  0
VERTEX
  8
0
  5
29E
 10
5.137835
 20
-9.641276
 30
0.0
  0
VERTEX
  8
0
  5
29F
 10
5.125094
 20
-9.640634
 30
0.0
  0
VERTEX
  8
0
  5
2A0
 10
5.112343
 20
-9.641276
 30
0.0
  0
VERTEX
  8
0
  5
2A1
 10
5.099953
 20
-9.643177
 30
0.0
  0
VERTEX
  8
0
  5
2A2
 10
5.087984
 20
-9.646264
 30
0.0
  0
VERTEX
  8
0
  5
2A3
 10
5.076512
 20
-9.65048
 30
0.0
  0
VERTEX
  8
0
  5
2A4
 10
5.065587
 20
-9.655748
 30
0.0
  0
VERTEX
  8
0
  5
2A5
 10
5.05528
 20
-9.662024
 30
0.0
  0
VERTEX
  8
0
  5
2A6
 10
5.045654
 20
-9.669228
 30
0.0
  0
VERTEX
  8
0
  5
2A7
 10
5.036772
 20
-9.677311
 30
0.0
  0
VERTEX
  8
0
  5
2A8
 10
5.028689
 20
-9.686193
 30
0.0
  0
VERTEX
  8
0
  5
2A9
 10
5.021484
 20
-9.695819
 30
0.0
  0
VERTEX
  8
0
  5
2AA
 10
5.015209
 20
-9.706126
 30
0.0
  0
VERTEX
  8
0
  5
2AB
 10
5.009941
 20
-9.717051
 30
0.0
  0
VERTEX
  8
0
  5
2AC
 10
5.005724
 20
-9.728524
 30
0.0
  0
VERTEX
  8
0
  5
2AD
 10
5.002638
 20
-9.740492
 30
0.0
  0
VERTEX
  8
0
  5
2AE
 10
5.000736
 20
-9.752882
 30
0.0
  0
VERTEX
  8
0
  5
2AF
 10
5.000094
 20
-9.765634
 30
0.0
  0
VERTEX
  8
0
  5
2B0
 10
5.000736
 20
-9.778374
 30
0.0
  0
VERTEX
  8
0
  5
2B1
 10
5.002638
 20
-9.790764
 30
0.0
  0
VERTEX
  8
0
  5
2B2
 10
5.005724
 20
-9.802728
 30
0.0
  0
VERTEX
  8
0
  5
2B3
 10
5.009941
 20
-9.814205
 30
0.0
  0
VERTEX
  8
0
  5
2B4
 10
5.015209
 20
-9.825122
 30
0.0
  0
VERTEX
  8
0
  5
2B5
 10
5.021484
 20
-9.835433
 30
0.0
  0
VERTEX
  8
0
  5
2B6
 10
5.028689
 20
-9.845059
 30
0.0
  0
VERTEX
  8
0
  5
2B7
 10
5.036772
 20
-9.853949
 30
0.0
  0
VERTEX
  8
0
  5
2B8
 10
5.045654
 20
-9.862024
 30
0.0
  0
VERTEX
  8
0
  5
2B9
 10
5.05528
 20
-9.869232
 30
0.0
  0
VERTEX
  8
0
  5
2BA
 10
5.065587
 20
-9.8755
 30
0.0
  0
VERTEX
  8
0
  5
2BB
 10
5.076512
 20
-9.88078
 30
0.0
  0
VERTEX
  8
0
  5
2BC
 10
5.087984
 20
-9.884992
 30
0.0
  0
VERTEX
  8
0
  5
2BD
 10
5.099953
 20
-9.888083
 30
0.0
  0
VERTEX
  8
0
  5
2BE
 10
5.112343
 20
-9.889984
 30
0.0
  0
VERTEX
  8
0
  5
2BF
 10
5.125094
 20
-9.890634
 30
0.0
  0
VERTEX
  8
0
  5
2C0
 10
5.137835
 20
-9.889984
 30
0.0
  0
VERTEX
  8
0
  5
2C1
 10
5.150224
 20
-9.888083
 30
0.0
  0
VERTEX
  8
0
  5
2C2
 10
5.162189
 20
-9.884992
 30
0.0
  0
VERTEX
  8
0
  5
2C3
 10
5.173665
 20
-9.88078
 30
0.0
  0
VERTEX
  8
0
  5
2C4
 10
5.184583
 20
-9.8755
 30
0.0
  0
VERTEX
  8
0
  5
2C5
 10
5.194894
 20
-9.869232
 30
0.0
  0
VERTEX
  8
0
  5
2C6
 10
5.20452
 20
-9.862024
 30
0.0
  0
VERTEX
  8
0
  5
2C7
 10
5.213409
 20
-9.853949
 30
0.0
  0
VERTEX
  8
0
  5
2C8
 10
5.221484
 20
-9.845059
 30
0.0
  0
VERTEX
  8
0
  5
2C9
 10
5.228693
 20
-9.835433
 30
0.0
  0
VERTEX
  8
0
  5
2CA
 10
5.234961
 20
-9.825122
 30
0.0
  0
VERTEX
  8
0
  5
2CB
 10
5.24024
 20
-9.814205
 30
0.0
  0
VERTEX
  8
0
  5
2CC
 10
5.244453
 20
-9.802728
 30
0.0
  0
VERTEX
  8
0
  5
2CD
 10
5.247543
 20
-9.790764
 30
0.0
  0
VERTEX
  8
0
  5
2CE
 10
5.249445
 20
-9.778374
 30
0.0
  0
SEQEND
  8
0
  5
2CF
  0
POLYLINE
  8
0
  5
2D0
 66
     1
 10
0.0
 20
0.0
 30
0.0
  0
VERTEX
  8
0
  5
2D1
 10
5.375094
 20
-10.265634
 30
0.0
  0
VERTEX
  8
0
  5
2D2
 10
5.375094
 20
-11.265634
 30
0.0
  0
VERTEX
  8
0
  5
2D3
 10
4.875094
 20
-11.265634
 30
0.0
  0
VERTEX
  8
0
  5
2D4
 10
4.875094
 20
-10.265634
 30
0.0
  0
VERTEX
  8
0
  5
2D5
 10
5.375094
 20
-10.265634
 30
0.0
  0
SEQEND
  8
0
  5
2D6
  0
POLYLINE
  8
0
  5
2D7
 66
     1
 10
0.0
 20
0.0
 30
0.0
  0
VERTEX
  8
0
  5
2D8
 10
5.375094
 20
-8.265634
 30
0.0
  0
VERTEX
  8
0
  5
2D9
 10
5.375094
 20
-9.265634
 30
0.0
  0
VERTEX
  8
0
  5
2DA
 10
4.875094
 20
-9.265634
 30
0.0
  0
VERTEX
  8
0
  5
2DB
 10
4.875094
 20
-8.265634
 30
0.0
  0
VERTEX
  8
0
  5
2DC
 10
5.375094
 20
-8.265634
 30
0.0
  0
SEQEND
  8
0
  5
2DD
  0
POLYLINE
  8
0
  5
2DE
 66
     1
 10
0.0
 20
0.0
 30
0.0
  0
VERTEX
  8
0
  5
2DF
 10
14.112283
 20
4.30872
 30
0.0
  0
VERTEX
  8
0
  5
2E0
 10
14.112283
 20
4.30872
 30
0.0
  0
VERTEX
  8
0
  5
2E1
 10
14.099634
 20
4.306961
 30
0.0
  0
VERTEX
  8
0
  5
2E2
 10
14.087457
 20
4.303988
 30
0.0
  0
VERTEX
  8
0
  5
2E3
 10
14.075803
 20
4.299866
 30
0.0
  0
VERTEX
  8
0
  5
2E4
 10
14.064744
 20
4.294673
 30
0.0
  0
VERTEX
  8
0
  5
2E5
 10
14.054319
 20
4.288461
 30
0.0
  0
VERTEX
  8
0
  5
2E6
 10
14.044598
 20
4.281315
 30
0.0
  0
VERTEX
  8
0
  5
2E7
 10
14.035634
 20
4.273295
 30
0.0
  0
VERTEX
  8
0
  5
2E8
 10
14.027492
 20
4.26448
 30
0.0
  0
VERTEX
  8
0
  5
2E9
 10
14.020217
 20
4.254921
 30
0.0
  0
VERTEX
  8
0
  5
2EA
 10
14.013878
 20
4.244705
 30
0.0
  0
VERTEX
  8
0
  5
2EB
 10
14.008524
 20
4.233886
 30
0.0
  0
VERTEX
  8
0
  5
2EC
 10
14.004224
 20
4.222551
 30
0.0
  0
VERTEX
  8
0
  5
2ED
 10
14.001024
 20
4.210748
 30
0.0
  0
VERTEX
  8
0
  5
2EE
 10
13.998992
 20
4.198563
 30
0.0
  0
VERTEX
  8
0
  5
2EF
 10
13.998181
 20
4.186055
 30
0.0
  0
VERTEX
  8
0
  5
2F0
 10
13.998654
 20
4.173303
 30
0.0
  0
VERTEX
  8
0
  5
2F1
 10
14.000406
 20
4.160654
 30
0.0
  0
VERTEX
  8
0
  5
2F2
 10
14.003378
 20
4.148476
 30
0.0
  0
VERTEX
  8
0
  5
2F3
 10
14.007492
 20
4.136823
 30
0.0
  0
VERTEX
  8
0
  5
2F4
 10
14.012693
 20
4.125764
 30
0.0
  0
VERTEX
  8
0
  5
2F5
 10
14.018894
 20
4.115339
 30
0.0
  0
VERTEX
  8
0
  5
2F6
 10
14.026043
 20
4.105622
 30
0.0
  0
VERTEX
  8
0
  5
2F7
 10
14.034063
 20
4.096657
 30
0.0
  0
VERTEX
  8
0
  5
2F8
 10
14.04289
 20
4.088516
 30
0.0
  0
VERTEX
  8
0
  5
2F9
 10
14.052441
 20
4.08124
 30
0.0
  0
VERTEX
  8
0
  5
2FA
 10
14.062657
 20
4.074902
 30
0.0
  0
VERTEX
  8
0
  5
2FB
 10
14.073472
 20
4.069547
 30
0.0
  0
VERTEX
  8
0
  5
2FC
 10
14.084815
 20
4.065248
 30
0.0
  0
VERTEX
  8
0
  5
2FD
 10
14.09661
 20
4.062047
 30
0.0
  0
VERTEX
  8
0
  5
2FE
 10
14.108803
 20
4.060016
 30
0.0
  0
VERTEX
  8
0
  5
2FF
 10
14.121307
 20
4.059201
 30
0.0
  0
VERTEX
  8
0
  5
300
 10
14.134071
 20
4.059673
 30
0.0
  0
VERTEX
  8
0
  5
301
 10
14.146709
 20
4.061425
 30
0.0
  0
VERTEX
  8
0
  5
302
 10
14.158886
 20
4.064398
 30
0.0
  0
VERTEX
  8
0
  5
303
 10
14.170531
 20
4.068512
 30
0.0
  0
VERTEX
  8
0
  5
304
 10
14.181598
 20
4.073717
 30
0.0
  0
VERTEX
  8
0
  5
305
 10
14.192016
 20
4.079917
 30
0.0
  0
VERTEX
  8
0
  5
306
 10
14.20174
 20
4.087067
 30
0.0
  0
VERTEX
  8
0
  5
307
 10
14.210701
 20
4.095087
 30
0.0
  0
VERTEX
  8
0
  5
308
 10
14.21885
 20
4.103913
 30
0.0
  0
VERTEX
  8
0
  5
309
 10
14.226118
 20
4.113465
 30
0.0
  0
VERTEX
  8
0
  5
30A
 10
14.232461
 20
4.123681
 30
0.0
  0
VERTEX
  8
0
  5
30B
 10
14.237811
 20
4.134496
 30
0.0
  0
VERTEX
  8
0
  5
30C
 10
14.242118
 20
4.145839
 30
0.0
  0
VERTEX
  8
0
  5
30D
 10
14.245311
 20
4.157634
 30
0.0
  0
VERTEX
  8
0
  5
30E
 10
14.24735
 20
4.169823
 30
0.0
  0
VERTEX
  8
0
  5
30F
 10
14.248161
 20
4.182327
 30
0.0
  0
VERTEX
  8
0
  5
310
 10
14.247701
 20
4.195091
 30
0.0
  0
VERTEX
  8
0
  5
311
 10
14.245941
 20
4.207728
 30
0.0
  0
VERTEX
  8
0
  5
312
 10
14.242969
 20
4.219906
 30
0.0
  0
VERTEX
  8
0
  5
313
 10
14.238846
 20
4.231551
 30
0.0
  0
VERTEX
  8
0
  5
314
 10
14.233654
 20
4.242618
 30
0.0
  0
VERTEX
  8
0
  5
315
 10
14.227441
 20
4.253035
 30
0.0
  0
VERTEX
  8
0
  5
316
 10
14.220295
 20
4.26276
 30
0.0
  0
VERTEX
  8
0
  5
317
 10
14.212276
 20
4.27172
 30
0.0
  0
VERTEX
  8
0
  5
318
 10
14.203461
 20
4.27987
 30
0.0
  0
VERTEX
  8
0
  5
319
 10
14.193902
 20
4.287138
 30
0.0
  0
VERTEX
  8
0
  5
31A
 10
14.183685
 20
4.29348
 30
0.0
  0
VERTEX
  8
0
  5
31B
 10
14.172866
 20
4.298831
 30
0.0
  0
VERTEX
  8
0
  5
31C
 10
14.161531
 20
4.303138
 30
0.0
  0
VERTEX
  8
0
  5
31D
 10
14.149728
 20
4.306331
 30
0.0
  0
VERTEX
  8
0
  5
31E
 10
14.137543
 20
4.30837
 30
0.0
  0
VERTEX
  8
0
  5
31F
 10
14.125035
 20
4.309181
 30
0.0
  0
SEQEND
  8
0
  5
320
  0
POLYLINE
  8
0
  5
321
 66
     1
 10
0.0
 20
0.0
 30
0.0
  0
VERTEX
  8
0
  5
322
 10
14.599484
 20
4.476823
 30
0.0
  0
VERTEX
  8
0
  5
323
 10
15.097583
 20
4.520402
 30
0.0
  0
VERTEX
  8
0
  5
324
 10
15.141161
 20
4.022303
 30
0.0
  0
VERTEX
  8
0
  5
325
 10
14.643063
 20
3.978724
 30
0.0
  0
VERTEX
  8
0
  5
326
 10
14.599484
 20
4.476823
 30
0.0
  0
SEQEND
  8
0
  5
327
  0
POLYLINE
  8
0
  5
328
 66
     1
 10
0.0
 20
0.0
 30
0.0
  0
VERTEX
  8
0
  5
329
 10
13.105193
 20
4.346091
 30
0.0
  0
VERTEX
  8
0
  5
32A
 10
13.603291
 20
4.389665
 30
0.0
  0
VERTEX
  8
0
  5
32B
 10
13.646866
 20
3.891571
 30
0.0
  0
VERTEX
  8
0
  5
32C
 10
13.148772
 20
3.847992
 30
0.0
  0
VERTEX
  8
0
  5
32D
 10
13.105193
 20
4.346091
 30
0.0
  0
SEQEND
  8
0
  5
32E
  0
POLYLINE
  8
0
  5
32F
 66
     1
 10
0.0
 20
0.0
 30
0.0
  0
VERTEX
  8
0
  5
330
 10
19.093256
 20
4.7445
 30
0.0
  0
VERTEX
  8
0
  5
331
 10
19.093256
 20
4.7445
 30
0.0
  0
VERTEX
  8
0
  5
332
 10
19.080606
 20
4.74274
 30
0.0
  0
VERTEX
  8
0
  5
333
 10
19.068429
 20
4.739768
 30
0.0
  0
VERTEX
  8
0
  5
334
 10
19.056776
 20
4.735646
 30
0.0
  0
VERTEX
  8
0
  5
335
 10
19.045717
 20
4.730453
 30
0.0
  0
VERTEX
  8
0
  5
336
 10
19.035291
 20
4.72424
 30
0.0
  0
VERTEX
  8
0
  5
337
 10
19.025575
 20
4.717094
 30
0.0
  0
VERTEX
  8
0
  5
338
 10
19.01661
 20
4.709075
 30
0.0
  0
VERTEX
  8
0
  5
339
 10
19.008469
 20
4.700256
 30
0.0
  0
VERTEX
  8
0
  5
33A
 10
19.001193
 20
4.690697
 30
0.0
  0
VERTEX
  8
0
  5
33B
 10
18.994854
 20
4.68048
 30
0.0
  0
VERTEX
  8
0
  5
33C
 10
18.9895
 20
4.669661
 30
0.0
  0
VERTEX
  8
0
  5
33D
 10
18.985201
 20
4.658327
 30
0.0
  0
VERTEX
  8
0
  5
33E
 10
18.982
 20
4.646524
 30
0.0
  0
VERTEX
  8
0
  5
33F
 10
18.979969
 20
4.634339
 30
0.0
  0
VERTEX
  8
0
  5
340
 10
18.979154
 20
4.621831
 30
0.0
  0
VERTEX
  8
0
  5
341
 10
18.979626
 20
4.609079
 30
0.0
  0
VERTEX
  8
0
  5
342
 10
18.981378
 20
4.596429
 30
0.0
  0
VERTEX
  8
0
  5
343
 10
18.98435
 20
4.584256
 30
0.0
  0
VERTEX
  8
0
  5
344
 10
18.988465
 20
4.572602
 30
0.0
  0
VERTEX
  8
0
  5
345
 10
18.993669
 20
4.561543
 30
0.0
  0
VERTEX
  8
0
  5
346
 10
18.99987
 20
4.551118
 30
0.0
  0
VERTEX
  8
0
  5
347
 10
19.00702
 20
4.541398
 30
0.0
  0
VERTEX
  8
0
  5
348
 10
19.015039
 20
4.532433
 30
0.0
  0
VERTEX
  8
0
  5
349
 10
19.023866
 20
4.524291
 30
0.0
  0
VERTEX
  8
0
  5
34A
 10
19.033417
 20
4.517016
 30
0.0
  0
VERTEX
  8
0
  5
34B
 10
19.043634
 20
4.510677
 30
0.0
  0
VERTEX
  8
0
  5
34C
 10
19.054449
 20
4.505323
 30
0.0
  0
VERTEX
  8
0
  5
34D
 10
19.065791
 20
4.501024
 30
0.0
  0
VERTEX
  8
0
  5
34E
 10
19.077587
 20
4.497823
 30
0.0
  0
VERTEX
  8
0
  5
34F
 10
19.089776
 20
4.495791
 30
0.0
  0
VERTEX
  8
0
  5
350
 10
19.10228
 20
4.494976
 30
0.0
  0
VERTEX
  8
0
  5
351
 10
19.115043
 20
4.495449
 30
0.0
  0
VERTEX
  8
0
  5
352
 10
19.127681
 20
4.497201
 30
0.0
  0
VERTEX
  8
0
  5
353
 10
19.139858
 20
4.500173
 30
0.0
  0
VERTEX
  8
0
  5
354
 10
19.151504
 20
4.504287
 30
0.0
  0
VERTEX
  8
0
  5
355
 10
19.162571
 20
4.509492
 30
0.0
  0
VERTEX
  8
0
  5
356
 10
19.172988
 20
4.515693
 30
0.0
  0
VERTEX
  8
0
  5
357
 10
19.182713
 20
4.522843
 30
0.0
  0
VERTEX
  8
0
  5
358
 10
19.191673
 20
4.530862
 30
0.0
  0
VERTEX
  8
0
  5
359
 10
19.199823
 20
4.539689
 30
0.0
  0
VERTEX
  8
0
  5
35A
 10
19.207091
 20
4.54924
 30
0.0
  0
VERTEX
  8
0
  5
35B
 10
19.213433
 20
4.559457
 30
0.0
  0
VERTEX
  8
0
  5
35C
 10
19.218783
 20
4.570272
 30
0.0
  0
VERTEX
  8
0
  5
35D
 10
19.223091
 20
4.581614
 30
0.0
  0
VERTEX
  8
0
  5
35E
 10
19.226283
 20
4.593409
 30
0.0
  0
VERTEX
  8
0
  5
35F
 10
19.228323
 20
4.605602
 30
0.0
  0
VERTEX
  8
0
  5
360
 10
19.229134
 20
4.618106
 30
0.0
  0
VERTEX
  8
0
  5
361
 10
19.228673
 20
4.63087
 30
0.0
  0
VERTEX
  8
0
  5
362
 10
19.226913
 20
4.643508
 30
0.0
  0
VERTEX
  8
0
  5
363
 10
19.223941
 20
4.655685
 30
0.0
  0
VERTEX
  8
0
  5
364
 10
19.219819
 20
4.667331
 30
0.0
  0
VERTEX
  8
0
  5
365
 10
19.214626
 20
4.678398
 30
0.0
  0
VERTEX
  8
0
  5
366
 10
19.208413
 20
4.688815
 30
0.0
  0
VERTEX
  8
0
  5
367
 10
19.201268
 20
4.698539
 30
0.0
  0
VERTEX
  8
0
  5
368
 10
19.193248
 20
4.7075
 30
0.0
  0
VERTEX
  8
0
  5
369
 10
19.184433
 20
4.71565
 30
0.0
  0
VERTEX
  8
0
  5
36A
 10
19.174874
 20
4.722917
 30
0.0
  0
VERTEX
  8
0
  5
36B
 10
19.164657
 20
4.72926
 30
0.0
  0
VERTEX
  8
0
  5
36C
 10
19.153839
 20
4.73461
 30
0.0
  0
VERTEX
  8
0
  5
36D
 10
19.142504
 20
4.738917
 30
0.0
  0
VERTEX
  8
0
  5
36E
 10
19.130701
 20
4.74211
 30
0.0
  0
VERTEX
  8
0
  5
36F
 10
19.118516
 20
4.74415
 30
0.0
  0
VERTEX
  8
0
  5
370
 10
19.106008
 20
4.744961
 30
0.0
  0
SEQEND
  8
0
  5
371
  0
POLYLINE
  8
0
  5
372
 66
     1
 10
0.0
 20
0.0
 30
0.0
  0
VERTEX
  8
0
  5
373
 10
19.580457
 20
4.912602
 30
0.0
  0
VERTEX
  8
0
  5
374
 10
20.078555
 20
4.956177
 30
0.0
  0
VERTEX
  8
0
  5
375
 10
20.122134
 20
4.458083
 30
0.0
  0
VERTEX
  8
0
  5
376
 10
19.624035
 20
4.414504
 30
0.0
  0
VERTEX
  8
0
  5
377
 10
19.580457
 20
4.912602
 30
0.0
  0
SEQEND
  8
0
  5
378
  0
POLYLINE
  8
0
  5
379
 66
     1
 10
0.0
 20
0.0
 30
0.0
  0
VERTEX
  8
0
  5
37A
 10
18.086165
 20
4.781866
 30
0.0
  0
VERTEX
  8
0
  5
37B
 10
18.584264
 20
4.825445
 30
0.0
  0
VERTEX
  8
0
  5
37C
 10
18.627843
 20
4.327346
 30
0.0
  0
VERTEX
  8
0
  5
37D
 10
18.129744
 20
4.283772
 30
0.0
  0
VERTEX
  8
0
  5
37E
 10
18.086165
 20
4.781866
 30
0.0
  0
SEQEND
  8
0
  5
37F
  0
POLYLINE
  8
0
  5
380
 66
     1
 10
0.0
 20
0.0
 30
0.0
  0
VERTEX
  8
0
  5
381
 10
23.078035
 20
5.093122
 30
0.0
  0
VERTEX
  8
0
  5
382
 10
23.078035
 20
5.093122
 30
0.0
  0
VERTEX
  8
0
  5
383
 10
23.065386
 20
5.091362
 30
0.0
  0
VERTEX
  8
0
  5
384
 10
23.053209
 20
5.08839
 30
0.0
  0
VERTEX
  8
0
  5
385
 10
23.041555
 20
5.084268
 30
0.0
  0
VERTEX
  8
0
  5
386
 10
23.030496
 20
5.079075
 30
0.0
  0
VERTEX
  8
0
  5
387
 10
23.020071
 20
5.072862
 30
0.0
  0
VERTEX
  8
0
  5
388
 10
23.010354
 20
5.065717
 30
0.0
  0
VERTEX
  8
0
  5
389
 10
23.00139
 20
5.057697
 30
0.0
  0
VERTEX
  8
0
  5
38A
 10
22.993248
 20
5.048882
 30
0.0
  0
VERTEX
  8
0
  5
38B
 10
22.985972
 20
5.039323
 30
0.0
  0
VERTEX
  8
0
  5
38C
 10
22.979634
 20
5.029106
 30
0.0
  0
VERTEX
  8
0
  5
38D
 10
22.97428
 20
5.018287
 30
0.0
  0
VERTEX
  8
0
  5
38E
 10
22.96998
 20
5.006953
 30
0.0
  0
VERTEX
  8
0
  5
38F
 10
22.96678
 20
4.99515
 30
0.0
  0
VERTEX
  8
0
  5
390
 10
22.964748
 20
4.982965
 30
0.0
  0
VERTEX
  8
0
  5
391
 10
22.963933
 20
4.970457
 30
0.0
  0
VERTEX
  8
0
  5
392
 10
22.964406
 20
4.957705
 30
0.0
  0
VERTEX
  8
0
  5
393
 10
22.966157
 20
4.945055
 30
0.0
  0
VERTEX
  8
0
  5
394
 10
22.96913
 20
4.932878
 30
0.0
  0
VERTEX
  8
0
  5
395
 10
22.973244
 20
4.921224
 30
0.0
  0
VERTEX
  8
0
  5
396
 10
22.978449
 20
4.910165
 30
0.0
  0
VERTEX
  8
0
  5
397
 10
22.98465
 20
4.89974
 30
0.0
  0
VERTEX
  8
0
  5
398
 10
22.991799
 20
4.890024
 30
0.0
  0
VERTEX
  8
0
  5
399
 10
22.999819
 20
4.881059
 30
0.0
  0
VERTEX
  8
0
  5
39A
 10
23.008646
 20
4.872917
 30
0.0
  0
VERTEX
  8
0
  5
39B
 10
23.018197
 20
4.865642
 30
0.0
  0
VERTEX
  8
0
  5
39C
 10
23.028413
 20
4.859303
 30
0.0
  0
VERTEX
  8
0
  5
39D
 10
23.039228
 20
4.853949
 30
0.0
  0
VERTEX
  8
0
  5
39E
 10
23.050571
 20
4.84965
 30
0.0
  0
VERTEX
  8
0
  5
39F
 10
23.062366
 20
4.846449
 30
0.0
  0
VERTEX
  8
0
  5
3A0
 10
23.074555
 20
4.844417
 30
0.0
  0
VERTEX
  8
0
  5
3A1
 10
23.087059
 20
4.843602
 30
0.0
  0
VERTEX
  8
0
  5
3A2
 10
23.099823
 20
4.844075
 30
0.0
  0
VERTEX
  8
0
  5
3A3
 10
23.112461
 20
4.845827
 30
0.0
  0
VERTEX
  8
0
  5
3A4
 10
23.124638
 20
4.848799
 30
0.0
  0
VERTEX
  8
0
  5
3A5
 10
23.136283
 20
4.852913
 30
0.0
  0
VERTEX
  8
0
  5
3A6
 10
23.14735
 20
4.858118
 30
0.0
  0
VERTEX
  8
0
  5
3A7
 10
23.157768
 20
4.864319
 30
0.0
  0
VERTEX
  8
0
  5
3A8
 10
23.167492
 20
4.871469
 30
0.0
  0
VERTEX
  8
0
  5
3A9
 10
23.176453
 20
4.879488
 30
0.0
  0
VERTEX
  8
0
  5
3AA
 10
23.184602
 20
4.888315
 30
0.0
  0
VERTEX
  8
0
  5
3AB
 10
23.19187
 20
4.897866
 30
0.0
  0
VERTEX
  8
0
  5
3AC
 10
23.198213
 20
4.908083
 30
0.0
  0
VERTEX
  8
0
  5
3AD
 10
23.203563
 20
4.918898
 30
0.0
  0
VERTEX
  8
0
  5
3AE
 10
23.20787
 20
4.93024
 30
0.0
  0
VERTEX
  8
0
  5
3AF
 10
23.211063
 20
4.942035
 30
0.0
  0
VERTEX
  8
0
  5
3B0
 10
23.213102
 20
4.954224
 30
0.0
  0
VERTEX
  8
0
  5
3B1
 10
23.213913
 20
4.966728
 30
0.0
  0
VERTEX
  8
0
  5
3B2
 10
23.213453
 20
4.979492
 30
0.0
  0
VERTEX
  8
0
  5
3B3
 10
23.211693
 20
4.99213
 30
0.0
  0
VERTEX
  8
0
  5
3B4
 10
23.20872
 20
5.004307
 30
0.0
  0
VERTEX
  8
0
  5
3B5
 10
23.204598
 20
5.015953
 30
0.0
  0
VERTEX
  8
0
  5
3B6
 10
23.199406
 20
5.02702
 30
0.0
  0
VERTEX
  8
0
  5
3B7
 10
23.193193
 20
5.037437
 30
0.0
  0
VERTEX
  8
0
  5
3B8
 10
23.186047
 20
5.047161
 30
0.0
  0
VERTEX
  8
0
  5
3B9
 10
23.178028
 20
5.056122
 30
0.0
  0
VERTEX
  8
0
  5
3BA
 10
23.169213
 20
5.064272
 30
0.0
  0
VERTEX
  8
0
  5
3BB
 10
23.159654
 20
5.071539
 30
0.0
  0
VERTEX
  8
0
  5
3BC
 10
23.149437
 20
5.077882
 30
0.0
  0
VERTEX
  8
0
  5
3BD
 10
23.138618
 20
5.083232
 30
0.0
  0
VERTEX
  8
0
  5
3BE
 10
23.127283
 20
5.087539
 30
0.0
  0
VERTEX
  8
0
  5
3BF
 10
23.11548
 20
5.090732
 30
0.0
  0
VERTEX
  8
0
  5
3C0
 10
23.103295
 20
5.092772
 30
0.0
  0
VERTEX
  8
0
  5
3C1
 10
23.090787
 20
5.093583
 30
0.0
  0
SEQEND
  8
0
  5
3C2
  0
POLYLINE
  8
0
  5
3C3
 66
     1
 10
0.0
 20
0.0
 30
0.0
  0
VERTEX
  8
0
  5
3C4
 10
23.565236
 20
5.261224
 30
0.0
  0
VERTEX
  8
0
  5
3C5
 10
24.063335
 20
5.304803
 30
0.0
  0
VERTEX
  8
0
  5
3C6
 10
24.106913
 20
4.806705
 30
0.0
  0
VERTEX
  8
0
  5
3C7
 10
23.608815
 20
4.763126
 30
0.0
  0
VERTEX
  8
0
  5
3C8
 10
23.565236
 20
5.261224
 30
0.0
  0
SEQEND
  8
0
  5
3C9
  0
POLYLINE
  8
0
  5
3CA
 66
     1
 10
0.0
 20
0.0
 30
0.0
  0
VERTEX
  8
0
  5
3CB
 10
22.070945
 20
5.130492
 30
0.0
  0
VERTEX
  8
0
  5
3CC
 10
22.569043
 20
5.174067
 30
0.0
  0
VERTEX
  8
0
  5
3CD
 10
22.612618
 20
4.675972
 30
0.0
  0
VERTEX
  8
0
  5
3CE
 10
22.114524
 20
4.632394
 30
0.0
  0
VERTEX
  8
0
  5
3CF
 10
22.070945
 20
5.130492
 30
0.0
  0
SEQEND
  8
0
  5
3D0
  0
POLYLINE
  8
0
  5
3D1
 66
     1
 10
0.0
 20
0.0
 30
0.0
  0
VERTEX
  8
0
  5
3D2
 10
-31.875
 20
4.672244
 30
0.0
  0
VERTEX
  8
0
  5
3D3
 10
-31.875
 20
-11.328008
 30
0.0
  0
VERTEX
  8
0
  5
3D4
 10
-31.875
 20
-11.828008
 30
0.0
  0
VERTEX
  8
0
  5
3D5
 10
-32.375
 20
-11.828008
 30
0.0
  0
VERTEX
  8
0
  5
3D6
 10
-32.375
 20
-11.328008
 30
0.0
  0
VERTEX
  8
0
  5
3D7
 10
-32.75
 20
-11.328008
 30
0.0
  0
VERTEX
  8
0
  5
3D8
 10
-32.75
 20
-10.546756
 30
0.0
  0
VERTEX
  8
0
  5
3D9
 10
-32.656252
 20
-10.546756
 30
0.0
  0
VERTEX
  8
0
  5
3DA
 10
-32.656252
 20
-10.296756
 30
0.0
  0
VERTEX
  8
0
  5
3DB
 10
-33.093748
 20
-10.296756
 30
0.0
  0
VERTEX
  8
0
  5
3DC
 10
-33.093748
 20
-10.546756
 30
0.0
  0
VERTEX
  8
0
  5
3DD
 10
-33.0
 20
-10.546756
 30
0.0
  0
VERTEX
  8
0
  5
3DE
 10
-33.0
 20
-11.328008
 30
0.0
  0
VERTEX
  8
0
  5
3DF
 10
-33.375
 20
-11.328008
 30
0.0
  0
VERTEX
  8
0
  5
3E0
 10
-33.375
 20
-11.828008
 30
0.0
  0
VERTEX
  8
0
  5
3E1
 10
-33.875
 20
-11.828008
 30
0.0
  0
VERTEX
  8
0
  5
3E2
 10
-33.875
 20
-11.328008
 30
0.0
  0
VERTEX
  8
0
  5
3E3
 10
-33.875
 20
4.672244
 30
0.0
  0
VERTEX
  8
0
  5
3E4
 10
-33.875
 20
5.172244
 30
0.0
  0
VERTEX
  8
0
  5
3E5
 10
-33.375
 20
5.172244
 30
0.0
  0
VERTEX
  8
0
  5
3E6
 10
-33.375
 20
4.672244
 30
0.0
  0
VERTEX
  8
0
  5
3E7
 10
-33.0
 20
4.672244
 30
0.0
  0
VERTEX
  8
0
  5
3E8
 10
-33.0
 20
3.890992
 30
0.0
  0
VERTEX
  8
0
  5
3E9
 10
-33.093748
 20
3.890992
 30
0.0
  0
VERTEX
  8
0
  5
3EA
 10
-33.093748
 20
3.640992
 30
0.0
  0
VERTEX
  8
0
  5
3EB
 10
-32.656252
 20
3.640992
 30
0.0
  0
VERTEX
  8
0
  5
3EC
 10
-32.656252
 20
3.890992
 30
0.0
  0
VERTEX
  8
0
  5
3ED
 10
-32.75
 20
3.890992
 30
0.0
  0
VERTEX
  8
0
  5
3EE
 10
-32.75
 20
4.672244
 30
0.0
  0
VERTEX
  8
0
  5
3EF
 10
-32.375
 20
4.672244
 30
0.0
  0
VERTEX
  8
0
  5
3F0
 10
-32.375
 20
5.172244
 30
0.0
  0
VERTEX
  8
0
  5
3F1
 10
-31.875
 20
5.172244
 30
0.0
  0
VERTEX
  8
0
  5
3F2
 10
-31.875
 20
4.672244
 30
0.0
  0
SEQEND
  8
0
  5
3F3
  0
POLYLINE
  8
0
  5
3F4
 66
     1
 10
0.0
 20
0.0
 30
0.0
  0
VERTEX
  8
0
  5
3F5
 10
-29.625
 20
4.672244
 30
0.0
  0
VERTEX
  8
0
  5
3F6
 10
-29.625
 20
-11.328008
 30
0.0
  0
VERTEX
  8
0
  5
3F7
 10
-29.625
 20
-11.828008
 30
0.0
  0
VERTEX
  8
0
  5
3F8
 10
-30.125
 20
-11.828008
 30
0.0
  0
VERTEX
  8
0
  5
3F9
 10
-30.125
 20
-11.328008
 30
0.0
  0
VERTEX
  8
0
  5
3FA
 10
-30.5
 20
-11.328008
 30
0.0
  0
VERTEX
  8
0
  5
3FB
 10
-30.5
 20
-10.546756
 30
0.0
  0
VERTEX
  8
0
  5
3FC
 10
-30.406252
 20
-10.546756
 30
0.0
  0
VERTEX
  8
0
  5
3FD
 10
-30.406252
 20
-10.296756
 30
0.0
  0
VERTEX
  8
0
  5
3FE
 10
-30.843748
 20
-10.296756
 30
0.0
  0
VERTEX
  8
0
  5
3FF
 10
-30.843748
 20
-10.546756
 30
0.0
  0
VERTEX
  8
0
  5
400
 10
-30.75
 20
-10.546756
 30
0.0
  0
VERTEX
  8
0
  5
401
 10
-30.75
 20
-11.328008
 30
0.0
  0
VERTEX
  8
0
  5
402
 10
-31.125
 20
-11.328008
 30
0.0
  0
VERTEX
  8
0
  5
403
 10
-31.125
 20
-11.828008
 30
0.0
  0
VERTEX
  8
0
  5
404
 10
-31.625
 20
-11.828008
 30
0.0
  0
VERTEX
  8
0
  5
405
 10
-31.625
 20
-11.328008
 30
0.0
  0
VERTEX
  8
0
  5
406
 10
-31.625
 20
4.672244
 30
0.0
  0
VERTEX
  8
0
  5
407
 10
-31.625
 20
5.172244
 30
0.0
  0
VERTEX
  8
0
  5
408
 10
-31.125
 20
5.172244
 30
0.0
  0
VERTEX
  8
0
  5
409
 10
-31.125
 20
4.672244
 30
0.0
  0
VERTEX
  8
0
  5
40A
 10
-30.75
 20
4.672244
 30
0.0
  0
VERTEX
  8
0
  5
40B
 10
-30.75
 20
3.890992
 30
0.0
  0
VERTEX
  8
0
  5
40C
 10
-30.843748
 20
3.890992
 30
0.0
  0
VERTEX
  8
0
  5
40D
 10
-30.843748
 20
3.640992
 30
0.0
  0
VERTEX
  8
0
  5
40E
 10
-30.406252
 20
3.640992
 30
0.0
  0
VERTEX
  8
0
  5
40F
 10
-30.406252
 20
3.890992
 30
0.0
  0
VERTEX
  8
0
  5
410
 10
-30.5
 20
3.890992
 30
0.0
  0
VERTEX
  8
0
  5
411
 10
-30.5
 20
4.672244
 30
0.0
  0
VERTEX
  8
0
  5
412
 10
-30.125
 20
4.672244
 30
0.0
  0
VERTEX
  8
0
  5
413
 10
-30.125
 20
5.172244
 30
0.0
  0
VERTEX
  8
0
  5
414
 10
-29.625
 20
5.172244
 30
0.0
  0
VERTEX
  8
0
  5
415
 10
-29.625
 20
4.672244
 30
0.0
  0
SEQEND
  8
0
  5
416
  0
POLYLINE
  8
0
  5
417
 66
     1
 10
0.0
 20
0.0
 30
0.0
  0
VERTEX
  8
0
  5
418
 10
-12.749874
 20
3.547118
 30
0.0
  0
VERTEX
  8
0
  5
419
 10
-28.750126
 20
3.547118
 30
0.0
  0
VERTEX
  8
0
  5
41A
 10
-29.250126
 20
3.547118
 30
0.0
  0
VERTEX
  8
0
  5
41B
 10
-29.250126
 20
4.047118
 30
0.0
  0
VERTEX
  8
0
  5
41C
 10
-28.750126
 20
4.047118
 30
0.0
  0
VERTEX
  8
0
  5
41D
 10
-28.750126
 20
4.422118
 30
0.0
  0
VERTEX
  8
0
  5
41E
 10
-27.968874
 20
4.422118
 30
0.0
  0
VERTEX
  8
0
  5
41F
 10
-27.968874
 20
4.32837
 30
0.0
  0
VERTEX
  8
0
  5
420
 10
-27.718874
 20
4.32837
 30
0.0
  0
VERTEX
  8
0
  5
421
 10
-27.718874
 20
4.765866
 30
0.0
  0
VERTEX
  8
0
  5
422
 10
-27.968874
 20
4.765866
 30
0.0
  0
VERTEX
  8
0
  5
423
 10
-27.968874
 20
4.672118
 30
0.0
  0
VERTEX
  8
0
  5
424
 10
-28.750126
 20
4.672118
 30
0.0
  0
VERTEX
  8
0
  5
425
 10
-28.750126
 20
5.047118
 30
0.0
  0
VERTEX
  8
0
  5
426
 10
-29.250126
 20
5.047118
 30
0.0
  0
VERTEX
  8
0
  5
427
 10
-29.250126
 20
5.547118
 30
0.0
  0
VERTEX
  8
0
  5
428
 10
-28.750126
 20
5.547118
 30
0.0
  0
VERTEX
  8
0
  5
429
 10
-12.749874
 20
5.547118
 30
0.0
  0
VERTEX
  8
0
  5
42A
 10
-12.249874
 20
5.547118
 30
0.0
  0
VERTEX
  8
0
  5
42B
 10
-12.249874
 20
5.047118
 30
0.0
  0
VERTEX
  8
0
  5
42C
 10
-12.749874
 20
5.047118
 30
0.0
  0
VERTEX
  8
0
  5
42D
 10
-12.749874
 20
4.672118
 30
0.0
  0
VERTEX
  8
0
  5
42E
 10
-13.531126
 20
4.672118
 30
0.0
  0
VERTEX
  8
0
  5
42F
 10
-13.531126
 20
4.765866
 30
0.0
  0
VERTEX
  8
0
  5
430
 10
-13.781126
 20
4.765866
 30
0.0
  0
VERTEX
  8
0
  5
431
 10
-13.781126
 20
4.32837
 30
0.0
  0
VERTEX
  8
0
  5
432
 10
-13.531126
 20
4.32837
 30
0.0
  0
VERTEX
  8
0
  5
433
 10
-13.531126
 20
4.422118
 30
0.0
  0
VERTEX
  8
0
  5
434
 10
-12.749874
 20
4.422118
 30
0.0
  0
VERTEX
  8
0
  5
435
 10
-12.749874
 20
4.047118
 30
0.0
  0
VERTEX
  8
0
  5
436
 10
-12.249874
 20
4.047118
 30
0.0
  0
VERTEX
  8
0
  5
437
 10
-12.249874
 20
3.547118
 30
0.0
  0
VERTEX
  8
0
  5
438
 10
-12.749874
 20
3.547118
 30
0.0
  0
SEQEND
  8
0
  5
439
  0
POLYLINE
  8
0
  5
43A
 66
     1
 10
0.0
 20
0.0
 30
0.0
  0
VERTEX
  8
0
  5
43B
 10
-12.749874
 20
1.297118
 30
0.0
  0
VERTEX
  8
0
  5
43C
 10
-28.750126
 20
1.297118
 30
0.0
  0
VERTEX
  8
0
  5
43D
 10
-29.250126
 20
1.297118
 30
0.0
  0
VERTEX
  8
0
  5
43E
 10
-29.250126
 20
1.797118
 30
0.0
  0
VERTEX
  8
0
  5
43F
 10
-28.750126
 20
1.797118
 30
0.0
  0
VERTEX
  8
0
  5
440
 10
-28.750126
 20
2.172118
 30
0.0
  0
VERTEX
  8
0
  5
441
 10
-27.968874
 20
2.172118
 30
0.0
  0
VERTEX
  8
0
  5
442
 10
-27.968874
 20
2.07837
 30
0.0
  0
VERTEX
  8
0
  5
443
 10
-27.718874
 20
2.07837
 30
0.0
  0
VERTEX
  8
0
  5
444
 10
-27.718874
 20
2.515866
 30
0.0
  0
VERTEX
  8
0
  5
445
 10
-27.968874
 20
2.515866
 30
0.0
  0
VERTEX
  8
0
  5
446
 10
-27.968874
 20
2.422118
 30
0.0
  0
VERTEX
  8
0
  5
447
 10
-28.750126
 20
2.422118
 30
0.0
  0
VERTEX
  8
0
  5
448
 10
-28.750126
 20
2.797118
 30
0.0
  0
VERTEX
  8
0
  5
449
 10
-29.250126
 20
2.797118
 30
0.0
  0
VERTEX
  8
0
  5
44A
 10
-29.250126
 20
3.297118
 30
0.0
  0
VERTEX
  8
0
  5
44B
 10
-28.750126
 20
3.297118
 30
0.0
  0
VERTEX
  8
0
  5
44C
 10
-12.749874
 20
3.297118
 30
0.0
  0
VERTEX
  8
0
  5
44D
 10
-12.249874
 20
3.297118
 30
0.0
  0
VERTEX
  8
0
  5
44E
 10
-12.249874
 20
2.797118
 30
0.0
  0
VERTEX
  8
0
  5
44F
 10
-12.749874
 20
2.797118
 30
0.0
  0
VERTEX
  8
0
  5
450
 10
-12.749874
 20
2.422118
 30
0.0
  0
VERTEX
  8
0
  5
451
 10
-13.531126
 20
2.422118
 30
0.0
  0
VERTEX
  8
0
  5
452
 10
-13.531126
 20
2.515866
 30
0.0
  0
VERTEX
  8
0
  5
453
 10
-13.781126
 20
2.515866
 30
0.0
  0
VERTEX
  8
0
  5
454
 10
-13.781126
 20
2.07837
 30
0.0
  0
VERTEX
  8
0
  5
455
 10
-13.531126
 20
2.07837
 30
0.0
  0
VERTEX
  8
0
  5
456
 10
-13.531126
 20
2.172118
 30
0.0
  0
VERTEX
  8
0
  5
457
 10
-12.749874
 20
2.172118
 30
0.0
  0
VERTEX
  8
0
  5
458
 10
-12.749874
 20
1.797118
 30
0.0
  0
VERTEX
  8
0
  5
459
 10
-12.249874
 20
1.797118
 30
0.0
  0
VERTEX
  8
0
  5
45A
 10
-12.249874
 20
1.297118
 30
0.0
  0
VERTEX
  8
0
  5
45B
 10
-12.749874
 20
1.297118
 30
0.0
  0
SEQEND
  8
0
  5
45C
  0
POLYLINE
  8
0
  5
45D
 66
     1
 10
0.0
 20
0.0
 30
0.0
  0
VERTEX
  8
0
  5
45E
 10
-12.749874
 20
-0.952882
 30
0.0
  0
VERTEX
  8
0
  5
45F
 10
-28.750126
 20
-0.952882
 30
0.0
  0
VERTEX
  8
0
  5
460
 10
-29.250126
 20
-0.952882
 30
0.0
  0
VERTEX
  8
0
  5
461
 10
-29.250126
 20
-0.452882
 30
0.0
  0
VERTEX
  8
0
  5
462
 10
-28.750126
 20
-0.452882
 30
0.0
  0
VERTEX
  8
0
  5
463
 10
-28.750126
 20
-0.077882
 30
0.0
  0
VERTEX
  8
0
  5
464
 10
-27.968874
 20
-0.077882
 30
0.0
  0
VERTEX
  8
0
  5
465
 10
-27.968874
 20
-0.17163
 30
0.0
  0
VERTEX
  8
0
  5
466
 10
-27.718874
 20
-0.17163
 30
0.0
  0
VERTEX
  8
0
  5
467
 10
-27.718874
 20
0.265866
 30
0.0
  0
VERTEX
  8
0
  5
468
 10
-27.968874
 20
0.265866
 30
0.0
  0
VERTEX
  8
0
  5
469
 10
-27.968874
 20
0.172118
 30
0.0
  0
VERTEX
  8
0
  5
46A
 10
-28.750126
 20
0.172118
 30
0.0
  0
VERTEX
  8
0
  5
46B
 10
-28.750126
 20
0.547118
 30
0.0
  0
VERTEX
  8
0
  5
46C
 10
-29.250126
 20
0.547118
 30
0.0
  0
VERTEX
  8
0
  5
46D
 10
-29.250126
 20
1.047118
 30
0.0
  0
VERTEX
  8
0
  5
46E
 10
-28.750126
 20
1.047118
 30
0.0
  0
VERTEX
  8
0
  5
46F
 10
-12.749874
 20
1.047118
 30
0.0
  0
VERTEX
  8
0
  5
470
 10
-12.249874
 20
1.047118
 30
0.0
  0
VERTEX
  8
0
  5
471
 10
-12.249874
 20
0.547118
 30
0.0
  0
VERTEX
  8
0
  5
472
 10
-12.749874
 20
0.547118
 30
0.0
  0
VERTEX
  8
0
  5
473
 10
-12.749874
 20
0.172118
 30
0.0
  0
VERTEX
  8
0
  5
474
 10
-13.531126
 20
0.172118
 30
0.0
  0
VERTEX
  8
0
  5
475
 10
-13.531126
 20
0.265866
 30
0.0
  0
VERTEX
  8
0
  5
476
 10
-13.781126
 20
0.265866
 30
0.0
  0
VERTEX
  8
0
  5
477
 10
-13.781126
 20
-0.17163
 30
0.0
  0
VERTEX
  8
0
  5
478
 10
-13.531126
 20
-0.17163
 30
0.0
  0
VERTEX
  8
0
  5
479
 10
-13.531126
 20
-0.077882
 30
0.0
  0
VERTEX
  8
0
  5
47A
 10
-12.749874
 20
-0.077882
 30
0.0
  0
VERTEX
  8
0
  5
47B
 10
-12.749874
 20
-0.452882
 30
0.0
  0
VERTEX
  8
0
  5
47C
 10
-12.249874
 20
-0.452882
 30
0.0
  0
VERTEX
  8
0
  5
47D
 10
-12.249874
 20
-0.952882
 30
0.0
  0
VERTEX
  8
0
  5
47E
 10
-12.749874
 20
-0.952882
 30
0.0
  0
SEQEND
  8
0
  5
47F
  0
POLYLINE
  8
0
  5
480
 66
     1
 10
0.0
 20
0.0
 30
0.0
  0
VERTEX
  8
0
  5
481
 10
-12.749874
 20
-3.202882
 30
0.0
  0
VERTEX
  8
0
  5
482
 10
-28.750126
 20
-3.202882
 30
0.0
  0
VERTEX
  8
0
  5
483
 10
-29.250126
 20
-3.202882
 30
0.0
  0
VERTEX
  8
0
  5
484
 10
-29.250126
 20
-2.702882
 30
0.0
  0
VERTEX
  8
0
  5
485
 10
-28.750126
 20
-2.702882
 30
0.0
  0
VERTEX
  8
0
  5
486
 10
-28.750126
 20
-2.327882
 30
0.0
  0
VERTEX
  8
0
  5
487
 10
-27.968874
 20
-2.327882
 30
0.0
  0
VERTEX
  8
0
  5
488
 10
-27.968874
 20
-2.42163
 30
0.0
  0
VERTEX
  8
0
  5
489
 10
-27.718874
 20
-2.42163
 30
0.0
  0
VERTEX
  8
0
  5
48A
 10
-27.718874
 20
-1.984134
 30
0.0
  0
VERTEX
  8
0
  5
48B
 10
-27.968874
 20
-1.984134
 30
0.0
  0
VERTEX
  8
0
  5
48C
 10
-27.968874
 20
-2.077882
 30
0.0
  0
VERTEX
  8
0
  5
48D
 10
-28.750126
 20
-2.077882
 30
0.0
  0
VERTEX
  8
0
  5
48E
 10
-28.750126
 20
-1.702882
 30
0.0
  0
VERTEX
  8
0
  5
48F
 10
-29.250126
 20
-1.702882
 30
0.0
  0
VERTEX
  8
0
  5
490
 10
-29.250126
 20
-1.202882
 30
0.0
  0
VERTEX
  8
0
  5
491
 10
-28.750126
 20
-1.202882
 30
0.0
  0
VERTEX
  8
0
  5
492
 10
-12.749874
 20
-1.202882
 30
0.0
  0
VERTEX
  8
0
  5
493
 10
-12.249874
 20
-1.202882
 30
0.0
  0
VERTEX
  8
0
  5
494
 10
-12.249874
 20
-1.702882
 30
0.0
  0
VERTEX
  8
0
  5
495
 10
-12.749874
 20
-1.702882
 30
0.0
  0
VERTEX
  8
0
  5
496
 10
-12.749874
 20
-2.077882
 30
0.0
  0
VERTEX
  8
0
  5
497
 10
-13.531126
 20
-2.077882
 30
0.0
  0
VERTEX
  8
0
  5
498
 10
-13.531126
 20
-1.984134
 30
0.0
  0
VERTEX
  8
0
  5
499
 10
-13.781126
 20
-1.984134
 30
0.0
  0
VERTEX
  8
0
  5
49A
 10
-13.781126
 20
-2.42163
 30
0.0
  0
VERTEX
  8
0
  5
49B
 10
-13.531126
 20
-2.42163
 30
0.0
  0
VERTEX
  8
0
  5
49C
 10
-13.531126
 20
-2.327882
 30
0.0
  0
VERTEX
  8
0
  5
49D
 10
-12.749874
 20
-2.327882
 30
0.0
  0
VERTEX
  8
0
  5
49E
 10
-12.749874
 20
-2.702882
 30
0.0
  0
VERTEX
  8
0
  5
49F
 10
-12.249874
 20
-2.702882
 30
0.0
  0
VERTEX
  8
0
  5
4A0
 10
-12.249874
 20
-3.202882
 30
0.0
  0
VERTEX
  8
0
  5
4A1
 10
-12.749874
 20
-3.202882
 30
0.0
  0
SEQEND
  8
0
  5
4A2
  0
POLYLINE
  8
0
  5
4A3
 66
     1
 10
0.0
 20
0.0
 30
0.0
  0
VERTEX
  8
0
  5
4A4
 10
23.375
 20
-14.046882
 30
0.0
  0
VERTEX
  8
0
  5
4A5
 10
23.375
 20
0.578118
 30
0.0
  0
VERTEX
  8
0
  5
4A6
 10
23.375
 20
0.578118
 30
0.0
  0
VERTEX
  8
0
  5
4A7
 10
23.369819
 20
0.68011
 30
0.0
  0
VERTEX
  8
0
  5
4A8
 10
23.354618
 20
0.779217
 30
0.0
  0
VERTEX
  8
0
  5
4A9
 10
23.329906
 20
0.874921
 30
0.0
  0
VERTEX
  8
0
  5
4AA
 10
23.296201
 20
0.966724
 30
0.0
  0
VERTEX
  8
0
  5
4AB
 10
23.253992
 20
1.054102
 30
0.0
  0
VERTEX
  8
0
  5
4AC
 10
23.203811
 20
1.136563
 30
0.0
  0
VERTEX
  8
0
  5
4AD
 10
23.146154
 20
1.213579
 30
0.0
  0
VERTEX
  8
0
  5
4AE
 10
23.081539
 20
1.284657
 30
0.0
  0
VERTEX
  8
0
  5
4AF
 10
23.010461
 20
1.349272
 30
0.0
  0
VERTEX
  8
0
  5
4B0
 10
22.933445
 20
1.406929
 30
0.0
  0
VERTEX
  8
0
  5
4B1
 10
22.850984
 20
1.45711
 30
0.0
  0
VERTEX
  8
0
  5
4B2
 10
22.763606
 20
1.499319
 30
0.0
  0
VERTEX
  8
0
  5
4B3
 10
22.671803
 20
1.533024
 30
0.0
  0
VERTEX
  8
0
  5
4B4
 10
22.576098
 20
1.557736
 30
0.0
  0
VERTEX
  8
0
  5
4B5
 10
22.476992
 20
1.572937
 30
0.0
  0
VERTEX
  8
0
  5
4B6
 10
10.375004
 20
0.078122
 30
0.0
  0
VERTEX
  8
0
  5
4B7
 10
10.375004
 20
0.078122
 30
0.0
  0
VERTEX
  8
0
  5
4B8
 10
10.273004
 20
0.072941
 30
0.0
  0
VERTEX
  8
0
  5
4B9
 10
10.173898
 20
0.05774
 30
0.0
  0
VERTEX
  8
0
  5
4BA
 10
10.078185
 20
0.033031
 30
0.0
  0
VERTEX
  8
0
  5
4BB
 10
9.98639
 20
-0.000673
 30
0.0
  0
VERTEX
  8
0
  5
4BC
 10
9.899004
 20
-0.04287
 30
0.0
  0
VERTEX
  8
0
  5
4BD
 10
9.816551
 20
-0.093055
 30
0.0
  0
VERTEX
  8
0
  5
4BE
 10
9.739531
 20
-0.150709
 30
0.0
  0
VERTEX
  8
0
  5
4BF
 10
9.668461
 20
-0.215335
 30
0.0
  0
VERTEX
  8
0
  5
4C0
 10
9.603835
 20
-0.286406
 30
0.0
  0
VERTEX
  8
0
  5
4C1
 10
9.546177
 20
-0.363425
 30
0.0
  0
VERTEX
  8
0
  5
4C2
 10
9.495992
 20
-0.445878
 30
0.0
  0
VERTEX
  8
0
  5
4C3
 10
9.453795
 20
-0.533264
 30
0.0
  0
VERTEX
  8
0
  5
4C4
 10
9.420083
 20
-0.625059
 30
0.0
  0
VERTEX
  8
0
  5
4C5
 10
9.395378
 20
-0.720772
 30
0.0
  0
VERTEX
  8
0
  5
4C6
 10
9.380177
 20
-0.819878
 30
0.0
  0
VERTEX
  8
0
  5
4C7
 10
9.375004
 20
-0.921878
 30
0.0
  0
VERTEX
  8
0
  5
4C8
 10
9.375004
 20
-1.050587
 30
0.0
  0
VERTEX
  8
0
  5
4C9
 10
9.375004
 20
-1.414909
 30
0.0
  0
VERTEX
  8
0
  5
4CA
 10
9.375004
 20
-1.982098
 30
0.0
  0
VERTEX
  8
0
  5
4CB
 10
9.375004
 20
-2.719421
 30
0.0
  0
VERTEX
  8
0
  5
4CC
 10
9.375004
 20
-3.594138
 30
0.0
  0
VERTEX
  8
0
  5
4CD
 10
9.375004
 20
-4.57352
 30
0.0
  0
VERTEX
  8
0
  5
4CE
 10
9.375004
 20
-5.624831
 30
0.0
  0
VERTEX
  8
0
  5
4CF
 10
9.375004
 20
-6.715335
 30
0.0
  0
VERTEX
  8
0
  5
4D0
 10
9.375004
 20
-7.812283
 30
0.0
  0
VERTEX
  8
0
  5
4D1
 10
9.375004
 20
-8.882957
 30
0.0
  0
VERTEX
  8
0
  5
4D2
 10
9.375004
 20
-9.89461
 30
0.0
  0
VERTEX
  8
0
  5
4D3
 10
9.375004
 20
-10.814516
 30
0.0
  0
VERTEX
  8
0
  5
4D4
 10
9.375004
 20
-11.609925
 30
0.0
  0
VERTEX
  8
0
  5
4D5
 10
9.375004
 20
-12.248114
 30
0.0
  0
VERTEX
  8
0
  5
4D6
 10
9.375004
 20
-12.696339
 30
0.0
  0
VERTEX
  8
0
  5
4D7
 10
9.375004
 20
-12.921878
 30
0.0
  0
VERTEX
  8
0
  5
4D8
 10
9.380177
 20
-13.02387
 30
0.0
  0
VERTEX
  8
0
  5
4D9
 10
9.395378
 20
-13.122976
 30
0.0
  0
VERTEX
  8
0
  5
4DA
 10
9.420083
 20
-13.218681
 30
0.0
  0
VERTEX
  8
0
  5
4DB
 10
9.453795
 20
-13.310484
 30
0.0
  0
VERTEX
  8
0
  5
4DC
 10
9.495992
 20
-13.397862
 30
0.0
  0
VERTEX
  8
0
  5
4DD
 10
9.546177
 20
-13.480323
 30
0.0
  0
VERTEX
  8
0
  5
4DE
 10
9.603835
 20
-13.557339
 30
0.0
  0
VERTEX
  8
0
  5
4DF
 10
9.668461
 20
-13.628417
 30
0.0
  0
VERTEX
  8
0
  5
4E0
 10
9.739531
 20
-13.693031
 30
0.0
  0
VERTEX
  8
0
  5
4E1
 10
9.816551
 20
-13.750689
 30
0.0
  0
VERTEX
  8
0
  5
4E2
 10
9.899004
 20
-13.80087
 30
0.0
  0
VERTEX
  8
0
  5
4E3
 10
9.98639
 20
-13.843079
 30
0.0
  0
VERTEX
  8
0
  5
4E4
 10
10.078185
 20
-13.876783
 30
0.0
  0
VERTEX
  8
0
  5
4E5
 10
10.173898
 20
-13.901496
 30
0.0
  0
VERTEX
  8
0
  5
4E6
 10
10.273004
 20
-13.916697
 30
0.0
  0
VERTEX
  8
0
  5
4E7
 10
10.375004
 20
-13.921878
 30
0.0
  0
VERTEX
  8
0
  5
4E8
 10
10.600531
 20
-13.934508
 30
0.0
  0
VERTEX
  8
0
  5
4E9
 10
11.048756
 20
-13.970213
 30
0.0
  0
VERTEX
  8
0
  5
4EA
 10
11.686941
 20
-14.025693
 30
0.0
  0
VERTEX
  8
0
  5
4EB
 10
12.482358
 20
-14.097657
 30
0.0
  0
VERTEX
  8
0
  5
4EC
 10
13.40226
 20
-14.182795
 30
0.0
  0
VERTEX
  8
0
  5
4ED
 10
14.413913
 20
-14.277831
 30
0.0
  0
VERTEX
  8
0
  5
4EE
 10
15.484583
 20
-14.379453
 30
0.0
  0
VERTEX
  8
0
  5
4EF
 10
16.581539
 20
-14.484378
 30
0.0
  0
VERTEX
  8
0
  5
4F0
 10
17.672031
 20
-14.589291
 30
0.0
  0
VERTEX
  8
0
  5
4F1
 10
18.723343
 20
-14.690917
 30
0.0
  0
VERTEX
  8
0
  5
4F2
 10
19.702724
 20
-14.785949
 30
0.0
  0
VERTEX
  8
0
  5
4F3
 10
20.577449
 20
-14.871098
 30
0.0
  0
VERTEX
  8
0
  5
4F4
 10
21.314768
 20
-14.943055
 30
0.0
  0
VERTEX
  8
0
  5
4F5
 10
21.881961
 20
-14.998539
 30
0.0
  0
VERTEX
  8
0
  5
4F6
 10
22.246283
 20
-15.034244
 30
0.0
  0
VERTEX
  8
0
  5
4F7
 10
22.375
 20
-15.046882
 30
0.0
  0
VERTEX
  8
0
  5
4F8
 10
22.476992
 20
-15.041701
 30
0.0
  0
VERTEX
  8
0
  5
4F9
 10
22.576098
 20
-15.0265
 30
0.0
  0
VERTEX
  8
0
  5
4FA
 10
22.671803
 20
-15.001787
 30
0.0
  0
VERTEX
  8
0
  5
4FB
 10
22.763606
 20
-14.968083
 30
0.0
  0
VERTEX
  8
0
  5
4FC
 10
22.850984
 20
-14.925874
 30
0.0
  0
VERTEX
  8
0
  5
4FD
 10
22.933445
 20
-14.875693
 30
0.0
  0
VERTEX
  8
0
  5
4FE
 10
23.010461
 20
-14.818035
 30
0.0
  0
VERTEX
  8
0
  5
4FF
 10
23.081539
 20
-14.753421
 30
0.0
  0
VERTEX
  8
0
  5
500
 10
23.146154
 20
-14.682343
 30
0.0
  0
VERTEX
  8
0
  5
501
 10
23.203811
 20
-14.605327
 30
0.0
  0
VERTEX
  8
0
  5
502
 10
23.253992
 20
-14.522866
 30
0.0
  0
VERTEX
  8
0
  5
503
 10
23.296201
 20
-14.435488
 30
0.0
  0
VERTEX
  8
0
  5
504
 10
23.329906
 20
-14.343685
 30
0.0
  0
VERTEX
  8
0
  5
505
 10
23.354618
 20
-14.24798
 30
0.0
  0
VERTEX
  8
0
  5
506
 10
23.369819
 20
-14.148874
 30
0.0
  0
SEQEND
  8
0
  5
507
  0
POLYLINE
  8
0
  5
508
 66
     1
 10
0.0
 20
0.0
 30
0.0
  0
VERTEX
  8
0
  5
509
 10
25.375
 20
-16.046882
 30
0.0
  0
VERTEX
  8
0
  5
50A
 10
25.375
 20
-16.046882
 30
0.0
  0
VERTEX
  8
0
  5
50B
 10
25.369819
 20
-16.148874
 30
0.0
  0
VERTEX
  8
0
  5
50C
 10
25.354618
 20
-16.24798
 30
0.0
  0
VERTEX
  8
0
  5
50D
 10
25.329906
 20
-16.343685
 30
0.0
  0
VERTEX
  8
0
  5
50E
 10
25.296201
 20
-16.435488
 30
0.0
  0
VERTEX
  8
0
  5
50F
 10
25.253992
 20
-16.522866
 30
0.0
  0
VERTEX
  8
0
  5
510
 10
25.203811
 20
-16.605327
 30
0.0
  0
VERTEX
  8
0
  5
511
 10
25.146154
 20
-16.682343
 30
0.0
  0
VERTEX
  8
0
  5
512
 10
25.081539
 20
-16.753421
 30
0.0
  0
VERTEX
  8
0
  5
513
 10
25.010461
 20
-16.818035
 30
0.0
  0
VERTEX
  8
0
  5
514
 10
24.933445
 20
-16.875693
 30
0.0
  0
VERTEX
  8
0
  5
515
 10
24.850984
 20
-16.925874
 30
0.0
  0
VERTEX
  8
0
  5
516
 10
24.763606
 20
-16.968083
 30
0.0
  0
VERTEX
  8
0
  5
517
 10
24.671803
 20
-17.001787
 30
0.0
  0
VERTEX
  8
0
  5
518
 10
24.576098
 20
-17.0265
 30
0.0
  0
VERTEX
  8
0
  5
519
 10
24.476992
 20
-17.041701
 30
0.0
  0
VERTEX
  8
0
  5
51A
 10
7.393661
 20
-15.474268
 30
0.0
  0
VERTEX
  8
0
  5
51B
 10
-10.537843
 20
-17.043071
 30
0.0
  0
VERTEX
  8
0
  5
51C
 10
-10.537843
 20
-17.043071
 30
0.0
  0
VERTEX
  8
0
  5
51D
 10
-10.639894
 20
-17.046795
 30
0.0
  0
VERTEX
  8
0
  5
51E
 10
-10.739949
 20
-17.040291
 30
0.0
  0
VERTEX
  8
0
  5
51F
 10
-10.837445
 20
-17.024016
 30
0.0
  0
VERTEX
  8
0
  5
520
 10
-10.931839
 20
-16.998441
 30
0.0
  0
VERTEX
  8
0
  5
521
 10
-11.022563
 20
-16.964012
 30
0.0
  0
VERTEX
  8
0
  5
522
 10
-11.109083
 20
-16.921209
 30
0.0
  0
VERTEX
  8
0
  5
523
 10
-11.190831
 20
-16.870484
 30
0.0
  0
VERTEX
  8
0
  5
524
 10
-11.267272
 20
-16.812311
 30
0.0
  0
VERTEX
  8
0
  5
525
 10
-11.337835
 20
-16.747134
 30
0.0
  0
VERTEX
  8
0
  5
526
 10
-11.401984
 20
-16.675433
 30
0.0
  0
VERTEX
  8
0
  5
527
 10
-11.459161
 20
-16.597665
 30
0.0
  0
VERTEX
  8
0
  5
528
 10
-11.508823
 20
-16.514295
 30
0.0
  0
VERTEX
  8
0
  5
529
 10
-11.550402
 20
-16.42578
 30
0.0
  0
VERTEX
  8
0
  5
52A
 10
-11.583358
 20
-16.332594
 30
0.0
  0
VERTEX
  8
0
  5
52B
 10
-11.607138
 20
-16.235189
 30
0.0
  0
VERTEX
  8
0
  5
52C
 10
-11.621189
 20
-16.134039
 30
0.0
  0
VERTEX
  8
0
  5
52D
 10
-11.624913
 20
-16.031976
 30
0.0
  0
VERTEX
  8
0
  5
52E
 10
-11.618409
 20
-15.931921
 30
0.0
  0
VERTEX
  8
0
  5
52F
 10
-11.602134
 20
-15.834417
 30
0.0
  0
VERTEX
  8
0
  5
530
 10
-11.576559
 20
-15.740031
 30
0.0
  0
VERTEX
  8
0
  5
531
 10
-11.54213
 20
-15.649299
 30
0.0
  0
VERTEX
  8
0
  5
532
 10
-11.499327
 20
-15.562787
 30
0.0
  0
VERTEX
  8
0
  5
533
 10
-11.448602
 20
-15.481035
 30
0.0
  0
VERTEX
  8
0
  5
534
 10
-11.390429
 20
-15.404602
 30
0.0
  0
VERTEX
  8
0
  5
535
 10
-11.325252
 20
-15.334031
 30
0.0
  0
VERTEX
  8
0
  5
536
 10
-11.253551
 20
-15.269882
 30
0.0
  0
VERTEX
  8
0
  5
537
 10
-11.175783
 20
-15.212701
 30
0.0
  0
VERTEX
  8
0
  5
538
 10
-11.092413
 20
-15.163047
 30
0.0
  0
VERTEX
  8
0
  5
539
 10
-11.003898
 20
-15.121465
 30
0.0
  0
VERTEX
  8
0
  5
53A
 10
-10.910713
 20
-15.088512
 30
0.0
  0
VERTEX
  8
0
  5
53B
 10
-10.813307
 20
-15.064732
 30
0.0
  0
VERTEX
  8
0
  5
53C
 10
6.375
 20
-13.546886
 30
0.0
  0
VERTEX
  8
0
  5
53D
 10
6.375
 20
-13.546886
 30
0.0
  0
VERTEX
  8
0
  5
53E
 10
6.476992
 20
-13.541701
 30
0.0
  0
VERTEX
  8
0
  5
53F
 10
6.576098
 20
-13.5265
 30
0.0
  0
VERTEX
  8
0
  5
540
 10
6.671803
 20
-13.501787
 30
0.0
  0
VERTEX
  8
0
  5
541
 10
6.763606
 20
-13.468083
 30
0.0
  0
VERTEX
  8
0
  5
542
 10
6.850984
 20
-13.425874
 30
0.0
  0
VERTEX
  8
0
  5
543
 10
6.933445
 20
-13.375693
 30
0.0
  0
VERTEX
  8
0
  5
544
 10
7.010461
 20
-13.318035
 30
0.0
  0
VERTEX
  8
0
  5
545
 10
7.081539
 20
-13.253421
 30
0.0
  0
VERTEX
  8
0
  5
546
 10
7.146154
 20
-13.182343
 30
0.0
  0
VERTEX
  8
0
  5
547
 10
7.203811
 20
-13.105327
 30
0.0
  0
VERTEX
  8
0
  5
548
 10
7.253992
 20
-13.022866
 30
0.0
  0
VERTEX
  8
0
  5
549
 10
7.296201
 20
-12.935488
 30
0.0
  0
VERTEX
  8
0
  5
54A
 10
7.329906
 20
-12.843685
 30
0.0
  0
VERTEX
  8
0
  5
54B
 10
7.354618
 20
-12.74798
 30
0.0
  0
VERTEX
  8
0
  5
54C
 10
7.369819
 20
-12.648874
 30
0.0
  0
VERTEX
  8
0
  5
54D
 10
7.375
 20
-12.546882
 30
0.0
  0
VERTEX
  8
0
  5
54E
 10
7.375039
 20
-12.309677
 30
0.0
  0
VERTEX
  8
0
  5
54F
 10
7.375157
 20
-11.828437
 30
0.0
  0
VERTEX
  8
0
  5
550
 10
7.375331
 20
-11.138862
 30
0.0
  0
VERTEX
  8
0
  5
551
 10
7.375559
 20
-10.276673
 30
0.0
  0
VERTEX
  8
0
  5
552
 10
7.375815
 20
-9.277575
 30
0.0
  0
VERTEX
  8
0
  5
553
 10
7.376094
 20
-8.177283
 30
0.0
  0
VERTEX
  8
0
  5
554
 10
7.376378
 20
-7.011508
 30
0.0
  0
VERTEX
  8
0
  5
555
 10
7.376661
 20
-5.815969
 30
0.0
  0
VERTEX
  8
0
  5
556
 10
7.376909
 20
-4.626366
 30
0.0
  0
VERTEX
  8
0
  5
557
 10
7.37713
 20
-3.478425
 30
0.0
  0
VERTEX
  8
0
  5
558
 10
7.377295
 20
-2.40785
 30
0.0
  0
VERTEX
  8
0
  5
559
 10
7.377406
 20
-1.450362
 30
0.0
  0
VERTEX
  8
0
  5
55A
 10
7.377425
 20
-0.641661
 30
0.0
  0
VERTEX
  8
0
  5
55B
 10
7.377362
 20
-0.017476
 30
0.0
  0
VERTEX
  8
0
  5
55C
 10
7.377193
 20
0.386492
 30
0.0
  0
VERTEX
  8
0
  5
55D
 10
7.376906
 20
0.534539
 30
0.0
  0
VERTEX
  8
0
  5
55E
 10
7.381732
 20
0.644201
 30
0.0
  0
VERTEX
  8
0
  5
55F
 10
7.396567
 20
0.75002
 30
0.0
  0
VERTEX
  8
0
  5
560
 10
7.420815
 20
0.851535
 30
0.0
  0
VERTEX
  8
0
  5
561
 10
7.453917
 20
0.948311
 30
0.0
  0
VERTEX
  8
0
  5
562
 10
7.49528
 20
1.03989
 30
0.0
  0
VERTEX
  8
0
  5
563
 10
7.544346
 20
1.125823
 30
0.0
  0
VERTEX
  8
0
  5
564
 10
7.600524
 20
1.205669
 30
0.0
  0
VERTEX
  8
0
  5
565
 10
7.663248
 20
1.278976
 30
0.0
  0
VERTEX
  8
0
  5
566
 10
7.731929
 20
1.345291
 30
0.0
  0
VERTEX
  8
0
  5
567
 10
7.806008
 20
1.404169
 30
0.0
  0
VERTEX
  8
0
  5
568
 10
7.884898
 20
1.455165
 30
0.0
  0
VERTEX
  8
0
  5
569
 10
7.968031
 20
1.497835
 30
0.0
  0
VERTEX
  8
0
  5
56A
 10
8.054819
 20
1.531717
 30
0.0
  0
VERTEX
  8
0
  5
56B
 10
8.144701
 20
1.556374
 30
0.0
  0
VERTEX
  8
0
  5
56C
 10
8.237091
 20
1.571354
 30
0.0
  0
VERTEX
  8
0
  5
56D
 10
24.375
 20
3.578118
 30
0.0
  0
VERTEX
  8
0
  5
56E
 10
24.375
 20
3.578118
 30
0.0
  0
VERTEX
  8
0
  5
56F
 10
24.476992
 20
3.572937
 30
0.0
  0
VERTEX
  8
0
  5
570
 10
24.576098
 20
3.557736
 30
0.0
  0
VERTEX
  8
0
  5
571
 10
24.671803
 20
3.533024
 30
0.0
  0
VERTEX
  8
0
  5
572
 10
24.763606
 20
3.499319
 30
0.0
  0
VERTEX
  8
0
  5
573
 10
24.850984
 20
3.45711
 30
0.0
  0
VERTEX
  8
0
  5
574
 10
24.933445
 20
3.406929
 30
0.0
  0
VERTEX
  8
0
  5
575
 10
25.010461
 20
3.349272
 30
0.0
  0
VERTEX
  8
0
  5
576
 10
25.081539
 20
3.284657
 30
0.0
  0
VERTEX
  8
0
  5
577
 10
25.146154
 20
3.213579
 30
0.0
  0
VERTEX
  8
0
  5
578
 10
25.203811
 20
3.136563
 30
0.0
  0
VERTEX
  8
0
  5
579
 10
25.253992
 20
3.054102
 30
0.0
  0
VERTEX
  8
0
  5
57A
 10
25.296201
 20
2.966724
 30
0.0
  0
VERTEX
  8
0
  5
57B
 10
25.329906
 20
2.874921
 30
0.0
  0
VERTEX
  8
0
  5
57C
 10
25.354618
 20
2.779217
 30
0.0
  0
VERTEX
  8
0
  5
57D
 10
25.369819
 20
2.68011
 30
0.0
  0
VERTEX
  8
0
  5
57E
 10
25.375
 20
-16.046882
 30
0.0
  0
SEQEND
  8
0
  5
57F
  0
POLYLINE
  8
0
  5
580
 66
     1
 10
0.0
 20
0.0
 30
0.0
  0
VERTEX
  8
0
  5
581
 10
24.25
 20
-14.046882
 30
0.0
  0
VERTEX
  8
0
  5
582
 10
24.25
 20
-14.046882
 30
0.0
  0
VERTEX
  8
0
  5
583
 10
24.250642
 20
-14.059622
 30
0.0
  0
VERTEX
  8
0
  5
584
 10
24.252543
 20
-14.072012
 30
0.0
  0
VERTEX
  8
0
  5
585
 10
24.25563
 20
-14.083976
 30
0.0
  0
VERTEX
  8
0
  5
586
 10
24.259846
 20
-14.095453
 30
0.0
  0
VERTEX
  8
0
  5
587
 10
24.265114
 20
-14.10637
 30
0.0
  0
VERTEX
  8
0
  5
588
 10
24.27139
 20
-14.116681
 30
0.0
  0
VERTEX
  8
0
  5
589
 10
24.278594
 20
-14.126307
 30
0.0
  0
VERTEX
  8
0
  5
58A
 10
24.286677
 20
-14.135197
 30
0.0
  0
VERTEX
  8
0
  5
58B
 10
24.295559
 20
-14.143272
 30
0.0
  0
VERTEX
  8
0
  5
58C
 10
24.305185
 20
-14.15048
 30
0.0
  0
VERTEX
  8
0
  5
58D
 10
24.315492
 20
-14.156748
 30
0.0
  0
VERTEX
  8
0
  5
58E
 10
24.326417
 20
-14.162028
 30
0.0
  0
VERTEX
  8
0
  5
58F
 10
24.33789
 20
-14.16624
 30
0.0
  0
VERTEX
  8
0
  5
590
 10
24.349858
 20
-14.169331
 30
0.0
  0
VERTEX
  8
0
  5
591
 10
24.362248
 20
-14.171232
 30
0.0
  0
VERTEX
  8
0
  5
592
 10
24.375
 20
-14.171882
 30
0.0
  0
VERTEX
  8
0
  5
593
 10
24.38774
 20
-14.171232
 30
0.0
  0
VERTEX
  8
0
  5
594
 10
24.40013
 20
-14.169331
 30
0.0
  0
VERTEX
  8
0
  5
595
 10
24.412094
 20
-14.16624
 30
0.0
  0
VERTEX
  8
0
  5
596
 10
24.423571
 20
-14.162028
 30
0.0
  0
VERTEX
  8
0
  5
597
 10
24.434488
 20
-14.156748
 30
0.0
  0
VERTEX
  8
0
  5
598
 10
24.444799
 20
-14.15048
 30
0.0
  0
VERTEX
  8
0
  5
599
 10
24.454425
 20
-14.143272
 30
0.0
  0
VERTEX
  8
0
  5
59A
 10
24.463315
 20
-14.135197
 30
0.0
  0
VERTEX
  8
0
  5
59B
 10
24.47139
 20
-14.126307
 30
0.0
  0
VERTEX
  8
0
  5
59C
 10
24.478598
 20
-14.116681
 30
0.0
  0
VERTEX
  8
0
  5
59D
 10
24.484866
 20
-14.10637
 30
0.0
  0
VERTEX
  8
0
  5
59E
 10
24.490146
 20
-14.095453
 30
0.0
  0
VERTEX
  8
0
  5
59F
 10
24.494358
 20
-14.083976
 30
0.0
  0
VERTEX
  8
0
  5
5A0
 10
24.497449
 20
-14.072012
 30
0.0
  0
VERTEX
  8
0
  5
5A1
 10
24.49935
 20
-14.059622
 30
0.0
  0
VERTEX
  8
0
  5
5A2
 10
24.5
 20
-14.046882
 30
0.0
  0
VERTEX
  8
0
  5
5A3
 10
24.49935
 20
-14.03413
 30
0.0
  0
VERTEX
  8
0
  5
5A4
 10
24.497449
 20
-14.02174
 30
0.0
  0
VERTEX
  8
0
  5
5A5
 10
24.494358
 20
-14.009772
 30
0.0
  0
VERTEX
  8
0
  5
5A6
 10
24.490146
 20
-13.998299
 30
0.0
  0
VERTEX
  8
0
  5
5A7
 10
24.484866
 20
-13.987374
 30
0.0
  0
VERTEX
  8
0
  5
5A8
 10
24.478598
 20
-13.977067
 30
0.0
  0
VERTEX
  8
0
  5
5A9
 10
24.47139
 20
-13.967441
 30
0.0
  0
VERTEX
  8
0
  5
5AA
 10
24.463315
 20
-13.958559
 30
0.0
  0
VERTEX
  8
0
  5
5AB
 10
24.454425
 20
-13.950476
 30
0.0
  0
VERTEX
  8
0
  5
5AC
 10
24.444799
 20
-13.943272
 30
0.0
  0
VERTEX
  8
0
  5
5AD
 10
24.434488
 20
-13.936996
 30
0.0
  0
VERTEX
  8
0
  5
5AE
 10
24.423571
 20
-13.931728
 30
0.0
  0
VERTEX
  8
0
  5
5AF
 10
24.412094
 20
-13.927512
 30
0.0
  0
VERTEX
  8
0
  5
5B0
 10
24.40013
 20
-13.924425
 30
0.0
  0
VERTEX
  8
0
  5
5B1
 10
24.38774
 20
-13.922524
 30
0.0
  0
VERTEX
  8
0
  5
5B2
 10
24.375
 20
-13.921882
 30
0.0
  0
VERTEX
  8
0
  5
5B3
 10
24.362248
 20
-13.922524
 30
0.0
  0
VERTEX
  8
0
  5
5B4
 10
24.349858
 20
-13.924425
 30
0.0
  0
VERTEX
  8
0
  5
5B5
 10
24.33789
 20
-13.927512
 30
0.0
  0
VERTEX
  8
0
  5
5B6
 10
24.326417
 20
-13.931728
 30
0.0
  0
VERTEX
  8
0
  5
5B7
 10
24.315492
 20
-13.936996
 30
0.0
  0
VERTEX
  8
0
  5
5B8
 10
24.305185
 20
-13.943272
 30
0.0
  0
VERTEX
  8
0
  5
5B9
 10
24.295559
 20
-13.950476
 30
0.0
  0
VERTEX
  8
0
  5
5BA
 10
24.286677
 20
-13.958559
 30
0.0
  0
VERTEX
  8
0
  5
5BB
 10
24.278594
 20
-13.967441
 30
0.0
  0
VERTEX
  8
0
  5
5BC
 10
24.27139
 20
-13.977067
 30
0.0
  0
VERTEX
  8
0
  5
5BD
 10
24.265114
 20
-13.987374
 30
0.0
  0
VERTEX
  8
0
  5
5BE
 10
24.259846
 20
-13.998299
 30
0.0
  0
VERTEX
  8
0
  5
5BF
 10
24.25563
 20
-14.009772
 30
0.0
  0
VERTEX
  8
0
  5
5C0
 10
24.252543
 20
-14.02174
 30
0.0
  0
VERTEX
  8
0
  5
5C1
 10
24.250642
 20
-14.03413
 30
0.0
  0
SEQEND
  8
0
  5
5C2
  0
POLYLINE
  8
0
  5
5C3
 66
     1
 10
0.0
 20
0.0
 30
0.0
  0
VERTEX
  8
0
  5
5C4
 10
24.125
 20
-13.546882
 30
0.0
  0
VERTEX
  8
0
  5
5C5
 10
24.125
 20
-13.046882
 30
0.0
  0
VERTEX
  8
0
  5
5C6
 10
24.625
 20
-13.046882
 30
0.0
  0
VERTEX
  8
0
  5
5C7
 10
24.625
 20
-13.546882
 30
0.0
  0
VERTEX
  8
0
  5
5C8
 10
24.125
 20
-13.546882
 30
0.0
  0
SEQEND
  8
0
  5
5C9
  0
POLYLINE
  8
0
  5
5CA
 66
     1
 10
0.0
 20
0.0
 30
0.0
  0
VERTEX
  8
0
  5
5CB
 10
24.125
 20
-15.046882
 30
0.0
  0
VERTEX
  8
0
  5
5CC
 10
24.125
 20
-14.546882
 30
0.0
  0
VERTEX
  8
0
  5
5CD
 10
24.625
 20
-14.546882
 30
0.0
  0
VERTEX
  8
0
  5
5CE
 10
24.625
 20
-15.046882
 30
0.0
  0
VERTEX
  8
0
  5
5CF
 10
24.125
 20
-15.046882
 30
0.0
  0
SEQEND
  8
0
  5
5D0
  0
POLYLINE
  8
0
  5
5D1
 66
     1
 10
0.0
 20
0.0
 30
0.0
  0
VERTEX
  8
0
  5
5D2
 10
24.25
 20
1.953118
 30
0.0
  0
VERTEX
  8
0
  5
5D3
 10
24.25
 20
1.953118
 30
0.0
  0
VERTEX
  8
0
  5
5D4
 10
24.250642
 20
1.940366
 30
0.0
  0
VERTEX
  8
0
  5
5D5
 10
24.252543
 20
1.927976
 30
0.0
  0
VERTEX
  8
0
  5
5D6
 10
24.25563
 20
1.916008
 30
0.0
  0
VERTEX
  8
0
  5
5D7
 10
24.259846
 20
1.904535
 30
0.0
  0
VERTEX
  8
0
  5
5D8
 10
24.265114
 20
1.89361
 30
0.0
  0
VERTEX
  8
0
  5
5D9
 10
24.27139
 20
1.883303
 30
0.0
  0
VERTEX
  8
0
  5
5DA
 10
24.278594
 20
1.873677
 30
0.0
  0
VERTEX
  8
0
  5
5DB
 10
24.286677
 20
1.864795
 30
0.0
  0
VERTEX
  8
0
  5
5DC
 10
24.295559
 20
1.856713
 30
0.0
  0
VERTEX
  8
0
  5
5DD
 10
24.305185
 20
1.849508
 30
0.0
  0
VERTEX
  8
0
  5
5DE
 10
24.315492
 20
1.843232
 30
0.0
  0
VERTEX
  8
0
  5
5DF
 10
24.326417
 20
1.837965
 30
0.0
  0
VERTEX
  8
0
  5
5E0
 10
24.33789
 20
1.833748
 30
0.0
  0
VERTEX
  8
0
  5
5E1
 10
24.349858
 20
1.830661
 30
0.0
  0
VERTEX
  8
0
  5
5E2
 10
24.362248
 20
1.82876
 30
0.0
  0
VERTEX
  8
0
  5
5E3
 10
24.375
 20
1.828118
 30
0.0
  0
VERTEX
  8
0
  5
5E4
 10
24.38774
 20
1.82876
 30
0.0
  0
VERTEX
  8
0
  5
5E5
 10
24.40013
 20
1.830661
 30
0.0
  0
VERTEX
  8
0
  5
5E6
 10
24.412094
 20
1.833748
 30
0.0
  0
VERTEX
  8
0
  5
5E7
 10
24.423571
 20
1.837965
 30
0.0
  0
VERTEX
  8
0
  5
5E8
 10
24.434488
 20
1.843232
 30
0.0
  0
VERTEX
  8
0
  5
5E9
 10
24.444799
 20
1.849508
 30
0.0
  0
VERTEX
  8
0
  5
5EA
 10
24.454425
 20
1.856713
 30
0.0
  0
VERTEX
  8
0
  5
5EB
 10
24.463315
 20
1.864795
 30
0.0
  0
VERTEX
  8
0
  5
5EC
 10
24.47139
 20
1.873677
 30
0.0
  0
VERTEX
  8
0
  5
5ED
 10
24.478598
 20
1.883303
 30
0.0
  0
VERTEX
  8
0
  5
5EE
 10
24.484866
 20
1.89361
 30
0.0
  0
VERTEX
  8
0
  5
5EF
 10
24.490146
 20
1.904535
 30
0.0
  0
VERTEX
  8
0
  5
5F0
 10
24.494358
 20
1.916008
 30
0.0
  0
VERTEX
  8
0
  5
5F1
 10
24.497449
 20
1.927976
 30
0.0
  0
VERTEX
  8
0
  5
5F2
 10
24.49935
 20
1.940366
 30
0.0
  0
VERTEX
  8
0
  5
5F3
 10
24.5
 20
1.953118
 30
0.0
  0
VERTEX
  8
0
  5
5F4
 10
24.49935
 20
1.965858
 30
0.0
  0
VERTEX
  8
0
  5
5F5
 10
24.497449
 20
1.978248
 30
0.0
  0
VERTEX
  8
0
  5
5F6
 10
24.494358
 20
1.990213
 30
0.0
  0
VERTEX
  8
0
  5
5F7
 10
24.490146
 20
2.001689
 30
0.0
  0
VERTEX
  8
0
  5
5F8
 10
24.484866
 20
2.012606
 30
0.0
  0
VERTEX
  8
0
  5
5F9
 10
24.478598
 20
2.022917
 30
0.0
  0
VERTEX
  8
0
  5
5FA
 10
24.47139
 20
2.032543
 30
0.0
  0
VERTEX
  8
0
  5
5FB
 10
24.463315
 20
2.041433
 30
0.0
  0
VERTEX
  8
0
  5
5FC
 10
24.454425
 20
2.049508
 30
0.0
  0
VERTEX
  8
0
  5
5FD
 10
24.444799
 20
2.056717
 30
0.0
  0
VERTEX
  8
0
  5
5FE
 10
24.434488
 20
2.062984
 30
0.0
  0
VERTEX
  8
0
  5
5FF
 10
24.423571
 20
2.068264
 30
0.0
  0
VERTEX
  8
0
  5
600
 10
24.412094
 20
2.072476
 30
0.0
  0
VERTEX
  8
0
  5
601
 10
24.40013
 20
2.075567
 30
0.0
  0
VERTEX
  8
0
  5
602
 10
24.38774
 20
2.077469
 30
0.0
  0
VERTEX
  8
0
  5
603
 10
24.375
 20
2.078118
 30
0.0
  0
VERTEX
  8
0
  5
604
 10
24.362248
 20
2.077469
 30
0.0
  0
VERTEX
  8
0
  5
605
 10
24.349858
 20
2.075567
 30
0.0
  0
VERTEX
  8
0
  5
606
 10
24.33789
 20
2.072476
 30
0.0
  0
VERTEX
  8
0
  5
607
 10
24.326417
 20
2.068264
 30
0.0
  0
VERTEX
  8
0
  5
608
 10
24.315492
 20
2.062984
 30
0.0
  0
VERTEX
  8
0
  5
609
 10
24.305185
 20
2.056717
 30
0.0
  0
VERTEX
  8
0
  5
60A
 10
24.295559
 20
2.049508
 30
0.0
  0
VERTEX
  8
0
  5
60B
 10
24.286677
 20
2.041433
 30
0.0
  0
VERTEX
  8
0
  5
60C
 10
24.278594
 20
2.032543
 30
0.0
  0
VERTEX
  8
0
  5
60D
 10
24.27139
 20
2.022917
 30
0.0
  0
VERTEX
  8
0
  5
60E
 10
24.265114
 20
2.012606
 30
0.0
  0
VERTEX
  8
0
  5
60F
 10
24.259846
 20
2.001689
 30
0.0
  0
VERTEX
  8
0
  5
610
 10
24.25563
 20
1.990213
 30
0.0
  0
VERTEX
  8
0
  5
611
 10
24.252543
 20
1.978248
 30
0.0
  0
VERTEX
  8
0
  5
612
 10
24.250642
 20
1.965858
 30
0.0
  0
SEQEND
  8
0
  5
613
  0
POLYLINE
  8
0
  5
614
 66
     1
 10
0.0
 20
0.0
 30
0.0
  0
VERTEX
  8
0
  5
615
 10
24.125
 20
2.453118
 30
0.0
  0
VERTEX
  8
0
  5
616
 10
24.125
 20
2.953118
 30
0.0
  0
VERTEX
  8
0
  5
617
 10
24.625
 20
2.953118
 30
0.0
  0
VERTEX
  8
0
  5
618
 10
24.625
 20
2.453118
 30
0.0
  0
VERTEX
  8
0
  5
619
 10
24.125
 20
2.453118
 30
0.0
  0
SEQEND
  8
0
  5
61A
  0
POLYLINE
  8
0
  5
61B
 66
     1
 10
0.0
 20
0.0
 30
0.0
  0
VERTEX
  8
0
  5
61C
 10
24.125
 20
0.953118
 30
0.0
  0
VERTEX
  8
0
  5
61D
 10
24.125
 20
1.453118
 30
0.0
  0
VERTEX
  8
0
  5
61E
 10
24.625
 20
1.453118
 30
0.0
  0
VERTEX
  8
0
  5
61F
 10
24.625
 20
0.953118
 30
0.0
  0
VERTEX
  8
0
  5
620
 10
24.125
 20
0.953118
 30
0.0
  0
SEQEND
  8
0
  5
621
  0
POLYLINE
  8
0
  5
622
 66
     1
 10
0.0
 20
0.0
 30
0.0
  0
VERTEX
  8
0
  5
623
 10
24.25
 20
-6.046882
 30
0.0
  0
VERTEX
  8
0
  5
624
 10
24.25
 20
-6.046882
 30
0.0
  0
VERTEX
  8
0
  5
625
 10
24.250642
 20
-6.059622
 30
0.0
  0
VERTEX
  8
0
  5
626
 10
24.252543
 20
-6.072012
 30
0.0
  0
VERTEX
  8
0
  5
627
 10
24.25563
 20
-6.083976
 30
0.0
  0
VERTEX
  8
0
  5
628
 10
24.259846
 20
-6.095453
 30
0.0
  0
VERTEX
  8
0
  5
629
 10
24.265114
 20
-6.10637
 30
0.0
  0
VERTEX
  8
0
  5
62A
 10
24.27139
 20
-6.116681
 30
0.0
  0
VERTEX
  8
0
  5
62B
 10
24.278594
 20
-6.126307
 30
0.0
  0
VERTEX
  8
0
  5
62C
 10
24.286677
 20
-6.135197
 30
0.0
  0
VERTEX
  8
0
  5
62D
 10
24.295559
 20
-6.143272
 30
0.0
  0
VERTEX
  8
0
  5
62E
 10
24.305185
 20
-6.15048
 30
0.0
  0
VERTEX
  8
0
  5
62F
 10
24.315492
 20
-6.156748
 30
0.0
  0
VERTEX
  8
0
  5
630
 10
24.326417
 20
-6.162028
 30
0.0
  0
VERTEX
  8
0
  5
631
 10
24.33789
 20
-6.16624
 30
0.0
  0
VERTEX
  8
0
  5
632
 10
24.349858
 20
-6.169331
 30
0.0
  0
VERTEX
  8
0
  5
633
 10
24.362248
 20
-6.171232
 30
0.0
  0
VERTEX
  8
0
  5
634
 10
24.375
 20
-6.171882
 30
0.0
  0
VERTEX
  8
0
  5
635
 10
24.38774
 20
-6.171232
 30
0.0
  0
VERTEX
  8
0
  5
636
 10
24.40013
 20
-6.169331
 30
0.0
  0
VERTEX
  8
0
  5
637
 10
24.412094
 20
-6.16624
 30
0.0
  0
VERTEX
  8
0
  5
638
 10
24.423571
 20
-6.162028
 30
0.0
  0
VERTEX
  8
0
  5
639
 10
24.434488
 20
-6.156748
 30
0.0
  0
VERTEX
  8
0
  5
63A
 10
24.444799
 20
-6.15048
 30
0.0
  0
VERTEX
  8
0
  5
63B
 10
24.454425
 20
-6.143272
 30
0.0
  0
VERTEX
  8
0
  5
63C
 10
24.463315
 20
-6.135197
 30
0.0
  0
VERTEX
  8
0
  5
63D
 10
24.47139
 20
-6.126307
 30
0.0
  0
VERTEX
  8
0
  5
63E
 10
24.478598
 20
-6.116681
 30
0.0
  0
VERTEX
  8
0
  5
63F
 10
24.484866
 20
-6.10637
 30
0.0
  0
VERTEX
  8
0
  5
640
 10
24.490146
 20
-6.095453
 30
0.0
  0
VERTEX
  8
0
  5
641
 10
24.494358
 20
-6.083976
 30
0.0
  0
VERTEX
  8
0
  5
642
 10
24.497449
 20
-6.072012
 30
0.0
  0
VERTEX
  8
0
  5
643
 10
24.49935
 20
-6.059622
 30
0.0
  0
VERTEX
  8
0
  5
644
 10
24.5
 20
-6.046882
 30
0.0
  0
VERTEX
  8
0
  5
645
 10
24.49935
 20
-6.03413
 30
0.0
  0
VERTEX
  8
0
  5
646
 10
24.497449
 20
-6.02174
 30
0.0
  0
VERTEX
  8
0
  5
647
 10
24.494358
 20
-6.009772
 30
0.0
  0
VERTEX
  8
0
  5
648
 10
24.490146
 20
-5.998299
 30
0.0
  0
VERTEX
  8
0
  5
649
 10
24.484866
 20
-5.987374
 30
0.0
  0
VERTEX
  8
0
  5
64A
 10
24.478598
 20
-5.977067
 30
0.0
  0
VERTEX
  8
0
  5
64B
 10
24.47139
 20
-5.967441
 30
0.0
  0
VERTEX
  8
0
  5
64C
 10
24.463315
 20
-5.958559
 30
0.0
  0
VERTEX
  8
0
  5
64D
 10
24.454425
 20
-5.950476
 30
0.0
  0
VERTEX
  8
0
  5
64E
 10
24.444799
 20
-5.943272
 30
0.0
  0
VERTEX
  8
0
  5
64F
 10
24.434488
 20
-5.936996
 30
0.0
  0
VERTEX
  8
0
  5
650
 10
24.423571
 20
-5.931728
 30
0.0
  0
VERTEX
  8
0
  5
651
 10
24.412094
 20
-5.927512
 30
0.0
  0
VERTEX
  8
0
  5
652
 10
24.40013
 20
-5.924425
 30
0.0
  0
VERTEX
  8
0
  5
653
 10
24.38774
 20
-5.922524
 30
0.0
  0
VERTEX
  8
0
  5
654
 10
24.375
 20
-5.921882
 30
0.0
  0
VERTEX
  8
0
  5
655
 10
24.362248
 20
-5.922524
 30
0.0
  0
VERTEX
  8
0
  5
656
 10
24.349858
 20
-5.924425
 30
0.0
  0
VERTEX
  8
0
  5
657
 10
24.33789
 20
-5.927512
 30
0.0
  0
VERTEX
  8
0
  5
658
 10
24.326417
 20
-5.931728
 30
0.0
  0
VERTEX
  8
0
  5
659
 10
24.315492
 20
-5.936996
 30
0.0
  0
VERTEX
  8
0
  5
65A
 10
24.305185
 20
-5.943272
 30
0.0
  0
VERTEX
  8
0
  5
65B
 10
24.295559
 20
-5.950476
 30
0.0
  0
VERTEX
  8
0
  5
65C
 10
24.286677
 20
-5.958559
 30
0.0
  0
VERTEX
  8
0
  5
65D
 10
24.278594
 20
-5.967441
 30
0.0
  0
VERTEX
  8
0
  5
65E
 10
24.27139
 20
-5.977067
 30
0.0
  0
VERTEX
  8
0
  5
65F
 10
24.265114
 20
-5.987374
 30
0.0
  0
VERTEX
  8
0
  5
660
 10
24.259846
 20
-5.998299
 30
0.0
  0
VERTEX
  8
0
  5
661
 10
24.25563
 20
-6.009772
 30
0.0
  0
VERTEX
  8
0
  5
662
 10
24.252543
 20
-6.02174
 30
0.0
  0
VERTEX
  8
0
  5
663
 10
24.250642
 20
-6.03413
 30
0.0
  0
SEQEND
  8
0
  5
664
  0
POLYLINE
  8
0
  5
665
 66
     1
 10
0.0
 20
0.0
 30
0.0
  0
VERTEX
  8
0
  5
666
 10
24.125
 20
-5.546882
 30
0.0
  0
VERTEX
  8
0
  5
667
 10
24.125
 20
-5.046882
 30
0.0
  0
VERTEX
  8
0
  5
668
 10
24.625
 20
-5.046882
 30
0.0
  0
VERTEX
  8
0
  5
669
 10
24.625
 20
-5.546882
 30
0.0
  0
VERTEX
  8
0
  5
66A
 10
24.125
 20
-5.546882
 30
0.0
  0
SEQEND
  8
0
  5
66B
  0
POLYLINE
  8
0
  5
66C
 66
     1
 10
0.0
 20
0.0
 30
0.0
  0
VERTEX
  8
0
  5
66D
 10
24.125
 20
-7.046882
 30
0.0
  0
VERTEX
  8
0
  5
66E
 10
24.125
 20
-6.546882
 30
0.0
  0
VERTEX
  8
0
  5
66F
 10
24.625
 20
-6.546882
 30
0.0
  0
VERTEX
  8
0
  5
670
 10
24.625
 20
-7.046882
 30
0.0
  0
VERTEX
  8
0
  5
671
 10
24.125
 20
-7.046882
 30
0.0
  0
SEQEND
  8
0
  5
672
  0
POLYLINE
  8
0
  5
673
 66
     1
 10
0.0
 20
0.0
 30
0.0
  0
VERTEX
  8
0
  5
674
 10
8.249984
 20
-11.20313
 30
0.0
  0
VERTEX
  8
0
  5
675
 10
8.249984
 20
-11.20313
 30
0.0
  0
VERTEX
  8
0
  5
676
 10
8.250626
 20
-11.21587
 30
0.0
  0
VERTEX
  8
0
  5
677
 10
8.252528
 20
-11.22826
 30
0.0
  0
VERTEX
  8
0
  5
678
 10
8.255614
 20
-11.240224
 30
0.0
  0
VERTEX
  8
0
  5
679
 10
8.259831
 20
-11.251701
 30
0.0
  0
VERTEX
  8
0
  5
67A
 10
8.265098
 20
-11.262618
 30
0.0
  0
VERTEX
  8
0
  5
67B
 10
8.271374
 20
-11.272929
 30
0.0
  0
VERTEX
  8
0
  5
67C
 10
8.278579
 20
-11.282555
 30
0.0
  0
VERTEX
  8
0
  5
67D
 10
8.286661
 20
-11.291445
 30
0.0
  0
VERTEX
  8
0
  5
67E
 10
8.295543
 20
-11.29952
 30
0.0
  0
VERTEX
  8
0
  5
67F
 10
8.305169
 20
-11.306728
 30
0.0
  0
VERTEX
  8
0
  5
680
 10
8.315476
 20
-11.312996
 30
0.0
  0
VERTEX
  8
0
  5
681
 10
8.326402
 20
-11.318276
 30
0.0
  0
VERTEX
  8
0
  5
682
 10
8.337874
 20
-11.322488
 30
0.0
  0
VERTEX
  8
0
  5
683
 10
8.349843
 20
-11.325579
 30
0.0
  0
VERTEX
  8
0
  5
684
 10
8.362232
 20
-11.32748
 30
0.0
  0
VERTEX
  8
0
  5
685
 10
8.374984
 20
-11.32813
 30
0.0
  0
VERTEX
  8
0
  5
686
 10
8.387724
 20
-11.32748
 30
0.0
  0
VERTEX
  8
0
  5
687
 10
8.400114
 20
-11.325579
 30
0.0
  0
VERTEX
  8
0
  5
688
 10
8.412079
 20
-11.322488
 30
0.0
  0
VERTEX
  8
0
  5
689
 10
8.423555
 20
-11.318276
 30
0.0
  0
VERTEX
  8
0
  5
68A
 10
8.434472
 20
-11.312996
 30
0.0
  0
VERTEX
  8
0
  5
68B
 10
8.444783
 20
-11.306728
 30
0.0
  0
VERTEX
  8
0
  5
68C
 10
8.454409
 20
-11.29952
 30
0.0
  0
VERTEX
  8
0
  5
68D
 10
8.463299
 20
-11.291445
 30
0.0
  0
VERTEX
  8
0
  5
68E
 10
8.471374
 20
-11.282555
 30
0.0
  0
VERTEX
  8
0
  5
68F
 10
8.478583
 20
-11.272929
 30
0.0
  0
VERTEX
  8
0
  5
690
 10
8.48485
 20
-11.262618
 30
0.0
  0
VERTEX
  8
0
  5
691
 10
8.49013
 20
-11.251701
 30
0.0
  0
VERTEX
  8
0
  5
692
 10
8.494343
 20
-11.240224
 30
0.0
  0
VERTEX
  8
0
  5
693
 10
8.497433
 20
-11.22826
 30
0.0
  0
VERTEX
  8
0
  5
694
 10
8.499335
 20
-11.21587
 30
0.0
  0
VERTEX
  8
0
  5
695
 10
8.499984
 20
-11.20313
 30
0.0
  0
VERTEX
  8
0
  5
696
 10
8.499335
 20
-11.190378
 30
0.0
  0
VERTEX
  8
0
  5
697
 10
8.497433
 20
-11.177988
 30
0.0
  0
VERTEX
  8
0
  5
698
 10
8.494343
 20
-11.16602
 30
0.0
  0
VERTEX
  8
0
  5
699
 10
8.49013
 20
-11.154547
 30
0.0
  0
VERTEX
  8
0
  5
69A
 10
8.48485
 20
-11.143622
 30
0.0
  0
VERTEX
  8
0
  5
69B
 10
8.478583
 20
-11.133315
 30
0.0
  0
VERTEX
  8
0
  5
69C
 10
8.471374
 20
-11.123689
 30
0.0
  0
VERTEX
  8
0
  5
69D
 10
8.463299
 20
-11.114807
 30
0.0
  0
VERTEX
  8
0
  5
69E
 10
8.454409
 20
-11.106724
 30
0.0
  0
VERTEX
  8
0
  5
69F
 10
8.444783
 20
-11.09952
 30
0.0
  0
VERTEX
  8
0
  5
6A0
 10
8.434472
 20
-11.093244
 30
0.0
  0
VERTEX
  8
0
  5
6A1
 10
8.423555
 20
-11.087976
 30
0.0
  0
VERTEX
  8
0
  5
6A2
 10
8.412079
 20
-11.08376
 30
0.0
  0
VERTEX
  8
0
  5
6A3
 10
8.400114
 20
-11.080673
 30
0.0
  0
VERTEX
  8
0
  5
6A4
 10
8.387724
 20
-11.078772
 30
0.0
  0
VERTEX
  8
0
  5
6A5
 10
8.374984
 20
-11.07813
 30
0.0
  0
VERTEX
  8
0
  5
6A6
 10
8.362232
 20
-11.078772
 30
0.0
  0
VERTEX
  8
0
  5
6A7
 10
8.349843
 20
-11.080673
 30
0.0
  0
VERTEX
  8
0
  5
6A8
 10
8.337874
 20
-11.08376
 30
0.0
  0
VERTEX
  8
0
  5
6A9
 10
8.326402
 20
-11.087976
 30
0.0
  0
VERTEX
  8
0
  5
6AA
 10
8.315476
 20
-11.093244
 30
0.0
  0
VERTEX
  8
0
  5
6AB
 10
8.305169
 20
-11.09952
 30
0.0
  0
VERTEX
  8
0
  5
6AC
 10
8.295543
 20
-11.106724
 30
0.0
  0
VERTEX
  8
0
  5
6AD
 10
8.286661
 20
-11.114807
 30
0.0
  0
VERTEX
  8
0
  5
6AE
 10
8.278579
 20
-11.123689
 30
0.0
  0
VERTEX
  8
0
  5
6AF
 10
8.271374
 20
-11.133315
 30
0.0
  0
VERTEX
  8
0
  5
6B0
 10
8.265098
 20
-11.143622
 30
0.0
  0
VERTEX
  8
0
  5
6B1
 10
8.259831
 20
-11.154547
 30
0.0
  0
VERTEX
  8
0
  5
6B2
 10
8.255614
 20
-11.16602
 30
0.0
  0
VERTEX
  8
0
  5
6B3
 10
8.252528
 20
-11.177988
 30
0.0
  0
VERTEX
  8
0
  5
6B4
 10
8.250626
 20
-11.190378
 30
0.0
  0
SEQEND
  8
0
  5
6B5
  0
POLYLINE
  8
0
  5
6B6
 66
     1
 10
0.0
 20
0.0
 30
0.0
  0
VERTEX
  8
0
  5
6B7
 10
8.124984
 20
-10.70313
 30
0.0
  0
VERTEX
  8
0
  5
6B8
 10
8.124984
 20
-9.70313
 30
0.0
  0
VERTEX
  8
0
  5
6B9
 10
8.624984
 20
-9.70313
 30
0.0
  0
VERTEX
  8
0
  5
6BA
 10
8.624984
 20
-10.70313
 30
0.0
  0
VERTEX
  8
0
  5
6BB
 10
8.124984
 20
-10.70313
 30
0.0
  0
SEQEND
  8
0
  5
6BC
  0
POLYLINE
  8
0
  5
6BD
 66
     1
 10
0.0
 20
0.0
 30
0.0
  0
VERTEX
  8
0
  5
6BE
 10
8.124984
 20
-12.70313
 30
0.0
  0
VERTEX
  8
0
  5
6BF
 10
8.124984
 20
-11.70313
 30
0.0
  0
VERTEX
  8
0
  5
6C0
 10
8.624984
 20
-11.70313
 30
0.0
  0
VERTEX
  8
0
  5
6C1
 10
8.624984
 20
-12.70313
 30
0.0
  0
VERTEX
  8
0
  5
6C2
 10
8.124984
 20
-12.70313
 30
0.0
  0
SEQEND
  8
0
  5
6C3
  0
POLYLINE
  8
0
  5
6C4
 66
     1
 10
0.0
 20
0.0
 30
0.0
  0
VERTEX
  8
0
  5
6C5
 10
8.249984
 20
-1.20313
 30
0.0
  0
VERTEX
  8
0
  5
6C6
 10
8.249984
 20
-1.20313
 30
0.0
  0
VERTEX
  8
0
  5
6C7
 10
8.250626
 20
-1.21587
 30
0.0
  0
VERTEX
  8
0
  5
6C8
 10
8.252528
 20
-1.22826
 30
0.0
  0
VERTEX
  8
0
  5
6C9
 10
8.255614
 20
-1.240224
 30
0.0
  0
VERTEX
  8
0
  5
6CA
 10
8.259831
 20
-1.251701
 30
0.0
  0
VERTEX
  8
0
  5
6CB
 10
8.265098
 20
-1.262618
 30
0.0
  0
VERTEX
  8
0
  5
6CC
 10
8.271374
 20
-1.272929
 30
0.0
  0
VERTEX
  8
0
  5
6CD
 10
8.278579
 20
-1.282555
 30
0.0
  0
VERTEX
  8
0
  5
6CE
 10
8.286661
 20
-1.291445
 30
0.0
  0
VERTEX
  8
0
  5
6CF
 10
8.295543
 20
-1.29952
 30
0.0
  0
VERTEX
  8
0
  5
6D0
 10
8.305169
 20
-1.306728
 30
0.0
  0
VERTEX
  8
0
  5
6D1
 10
8.315476
 20
-1.312996
 30
0.0
  0
VERTEX
  8
0
  5
6D2
 10
8.326402
 20
-1.318276
 30
0.0
  0
VERTEX
  8
0
  5
6D3
 10
8.337874
 20
-1.322488
 30
0.0
  0
VERTEX
  8
0
  5
6D4
 10
8.349843
 20
-1.325579
 30
0.0
  0
VERTEX
  8
0
  5
6D5
 10
8.362232
 20
-1.32748
 30
0.0
  0
VERTEX
  8
0
  5
6D6
 10
8.374984
 20
-1.32813
 30
0.0
  0
VERTEX
  8
0
  5
6D7
 10
8.387724
 20
-1.32748
 30
0.0
  0
VERTEX
  8
0
  5
6D8
 10
8.400114
 20
-1.325579
 30
0.0
  0
VERTEX
  8
0
  5
6D9
 10
8.412079
 20
-1.322488
 30
0.0
  0
VERTEX
  8
0
  5
6DA
 10
8.423555
 20
-1.318276
 30
0.0
  0
VERTEX
  8
0
  5
6DB
 10
8.434472
 20
-1.312996
 30
0.0
  0
VERTEX
  8
0
  5
6DC
 10
8.444783
 20
-1.306728
 30
0.0
  0
VERTEX
  8
0
  5
6DD
 10
8.454409
 20
-1.29952
 30
0.0
  0
VERTEX
  8
0
  5
6DE
 10
8.463299
 20
-1.291445
 30
0.0
  0
VERTEX
  8
0
  5
6DF
 10
8.471374
 20
-1.282555
 30
0.0
  0
VERTEX
  8
0
  5
6E0
 10
8.478583
 20
-1.272929
 30
0.0
  0
VERTEX
  8
0
  5
6E1
 10
8.48485
 20
-1.262618
 30
0.0
  0
VERTEX
  8
0
  5
6E2
 10
8.49013
 20
-1.251701
 30
0.0
  0
VERTEX
  8
0
  5
6E3
 10
8.494343
 20
-1.240224
 30
0.0
  0
VERTEX
  8
0
  5
6E4
 10
8.497433
 20
-1.22826
 30
0.0
  0
VERTEX
  8
0
  5
6E5
 10
8.499335
 20
-1.21587
 30
0.0
  0
VERTEX
  8
0
  5
6E6
 10
8.499984
 20
-1.20313
 30
0.0
  0
VERTEX
  8
0
  5
6E7
 10
8.499335
 20
-1.190378
 30
0.0
  0
VERTEX
  8
0
  5
6E8
 10
8.497433
 20
-1.177988
 30
0.0
  0
VERTEX
  8
0
  5
6E9
 10
8.494343
 20
-1.16602
 30
0.0
  0
VERTEX
  8
0
  5
6EA
 10
8.49013
 20
-1.154547
 30
0.0
  0
VERTEX
  8
0
  5
6EB
 10
8.48485
 20
-1.143622
 30
0.0
  0
VERTEX
  8
0
  5
6EC
 10
8.478583
 20
-1.133315
 30
0.0
  0
VERTEX
  8
0
  5
6ED
 10
8.471374
 20
-1.123689
 30
0.0
  0
VERTEX
  8
0
  5
6EE
 10
8.463299
 20
-1.114807
 30
0.0
  0
VERTEX
  8
0
  5
6EF
 10
8.454409
 20
-1.106724
 30
0.0
  0
VERTEX
  8
0
  5
6F0
 10
8.444783
 20
-1.09952
 30
0.0
  0
VERTEX
  8
0
  5
6F1
 10
8.434472
 20
-1.093244
 30
0.0
  0
VERTEX
  8
0
  5
6F2
 10
8.423555
 20
-1.087976
 30
0.0
  0
VERTEX
  8
0
  5
6F3
 10
8.412079
 20
-1.08376
 30
0.0
  0
VERTEX
  8
0
  5
6F4
 10
8.400114
 20
-1.080673
 30
0.0
  0
VERTEX
  8
0
  5
6F5
 10
8.387724
 20
-1.078772
 30
0.0
  0
VERTEX
  8
0
  5
6F6
 10
8.374984
 20
-1.07813
 30
0.0
  0
VERTEX
  8
0
  5
6F7
 10
8.362232
 20
-1.078772
 30
0.0
  0
VERTEX
  8
0
  5
6F8
 10
8.349843
 20
-1.080673
 30
0.0
  0
VERTEX
  8
0
  5
6F9
 10
8.337874
 20
-1.08376
 30
0.0
  0
VERTEX
  8
0
  5
6FA
 10
8.326402
 20
-1.087976
 30
0.0
  0
VERTEX
  8
0
  5
6FB
 10
8.315476
 20
-1.093244
 30
0.0
  0
VERTEX
  8
0
  5
6FC
 10
8.305169
 20
-1.09952
 30
0.0
  0
VERTEX
  8
0
  5
6FD
 10
8.295543
 20
-1.106724
 30
0.0
  0
VERTEX
  8
0
  5
6FE
 10
8.286661
 20
-1.114807
 30
0.0
  0
VERTEX
  8
0
  5
6FF
 10
8.278579
 20
-1.123689
 30
0.0
  0
VERTEX
  8
0
  5
700
 10
8.271374
 20
-1.133315
 30
0.0
  0
VERTEX
  8
0
  5
701
 10
8.265098
 20
-1.143622
 30
0.0
  0
VERTEX
  8
0
  5
702
 10
8.259831
 20
-1.154547
 30
0.0
  0
VERTEX
  8
0
  5
703
 10
8.255614
 20
-1.16602
 30
0.0
  0
VERTEX
  8
0
  5
704
 10
8.252528
 20
-1.177988
 30
0.0
  0
VERTEX
  8
0
  5
705
 10
8.250626
 20
-1.190378
 30
0.0
  0
SEQEND
  8
0
  5
706
  0
POLYLINE
  8
0
  5
707
 66
     1
 10
0.0
 20
0.0
 30
0.0
  0
VERTEX
  8
0
  5
708
 10
8.124984
 20
-0.70313
 30
0.0
  0
VERTEX
  8
0
  5
709
 10
8.124984
 20
0.29687
 30
0.0
  0
VERTEX
  8
0
  5
70A
 10
8.624984
 20
0.29687
 30
0.0
  0
VERTEX
  8
0
  5
70B
 10
8.624984
 20
-0.70313
 30
0.0
  0
VERTEX
  8
0
  5
70C
 10
8.124984
 20
-0.70313
 30
0.0
  0
SEQEND
  8
0
  5
70D
  0
POLYLINE
  8
0
  5
70E
 66
     1
 10
0.0
 20
0.0
 30
0.0
  0
VERTEX
  8
0
  5
70F
 10
8.124984
 20
-2.70313
 30
0.0
  0
VERTEX
  8
0
  5
710
 10
8.124984
 20
-1.70313
 30
0.0
  0
VERTEX
  8
0
  5
711
 10
8.624984
 20
-1.70313
 30
0.0
  0
VERTEX
  8
0
  5
712
 10
8.624984
 20
-2.70313
 30
0.0
  0
VERTEX
  8
0
  5
713
 10
8.124984
 20
-2.70313
 30
0.0
  0
SEQEND
  8
0
  5
714
  0
POLYLINE
  8
0
  5
715
 66
     1
 10
0.0
 20
0.0
 30
0.0
  0
VERTEX
  8
0
  5
716
 10
-0.612205
 20
-15.277484
 30
0.0
  0
VERTEX
  8
0
  5
717
 10
-0.612205
 20
-15.277484
 30
0.0
  0
VERTEX
  8
0
  5
718
 10
-0.599555
 20
-15.275724
 30
0.0
  0
VERTEX
  8
0
  5
719
 10
-0.587378
 20
-15.272752
 30
0.0
  0
VERTEX
  8
0
  5
71A
 10
-0.575724
 20
-15.26863
 30
0.0
  0
VERTEX
  8
0
  5
71B
 10
-0.564665
 20
-15.263437
 30
0.0
  0
VERTEX
  8
0
  5
71C
 10
-0.55424
 20
-15.257224
 30
0.0
  0
VERTEX
  8
0
  5
71D
 10
-0.54452
 20
-15.250079
 30
0.0
  0
VERTEX
  8
0
  5
71E
 10
-0.535555
 20
-15.242059
 30
0.0
  0
VERTEX
  8
0
  5
71F
 10
-0.527413
 20
-15.233244
 30
0.0
  0
VERTEX
  8
0
  5
720
 10
-0.520138
 20
-15.223685
 30
0.0
  0
VERTEX
  8
0
  5
721
 10
-0.513799
 20
-15.213469
 30
0.0
  0
VERTEX
  8
0
  5
722
 10
-0.508445
 20
-15.20265
 30
0.0
  0
VERTEX
  8
0
  5
723
 10
-0.504146
 20
-15.191315
 30
0.0
  0
VERTEX
  8
0
  5
724
 10
-0.500945
 20
-15.179512
 30
0.0
  0
VERTEX
  8
0
  5
725
 10
-0.498913
 20
-15.167327
 30
0.0
  0
VERTEX
  8
0
  5
726
 10
-0.498102
 20
-15.154819
 30
0.0
  0
VERTEX
  8
0
  5
727
 10
-0.498575
 20
-15.142067
 30
0.0
  0
VERTEX
  8
0
  5
728
 10
-0.500327
 20
-15.129417
 30
0.0
  0
VERTEX
  8
0
  5
729
 10
-0.503299
 20
-15.11724
 30
0.0
  0
VERTEX
  8
0
  5
72A
 10
-0.507413
 20
-15.105587
 30
0.0
  0
VERTEX
  8
0
  5
72B
 10
-0.512614
 20
-15.094528
 30
0.0
  0
VERTEX
  8
0
  5
72C
 10
-0.518815
 20
-15.084102
 30
0.0
  0
VERTEX
  8
0
  5
72D
 10
-0.525965
 20
-15.074386
 30
0.0
  0
VERTEX
  8
0
  5
72E
 10
-0.533984
 20
-15.065421
 30
0.0
  0
VERTEX
  8
0
  5
72F
 10
-0.542811
 20
-15.05728
 30
0.0
  0
VERTEX
  8
0
  5
730
 10
-0.552362
 20
-15.050004
 30
0.0
  0
VERTEX
  8
0
  5
731
 10
-0.562579
 20
-15.043665
 30
0.0
  0
VERTEX
  8
0
  5
732
 10
-0.573394
 20
-15.038311
 30
0.0
  0
VERTEX
  8
0
  5
733
 10
-0.584736
 20
-15.034012
 30
0.0
  0
VERTEX
  8
0
  5
734
 10
-0.596531
 20
-15.030811
 30
0.0
  0
VERTEX
  8
0
  5
735
 10
-0.608724
 20
-15.02878
 30
0.0
  0
VERTEX
  8
0
  5
736
 10
-0.621228
 20
-15.027965
 30
0.0
  0
VERTEX
  8
0
  5
737
 10
-0.633992
 20
-15.028437
 30
0.0
  0
VERTEX
  8
0
  5
738
 10
-0.64663
 20
-15.030189
 30
0.0
  0
VERTEX
  8
0
  5
739
 10
-0.658807
 20
-15.033161
 30
0.0
  0
VERTEX
  8
0
  5
73A
 10
-0.670453
 20
-15.037276
 30
0.0
  0
VERTEX
  8
0
  5
73B
 10
-0.68152
 20
-15.04248
 30
0.0
  0
VERTEX
  8
0
  5
73C
 10
-0.691937
 20
-15.048681
 30
0.0
  0
VERTEX
  8
0
  5
73D
 10
-0.701661
 20
-15.055831
 30
0.0
  0
VERTEX
  8
0
  5
73E
 10
-0.710622
 20
-15.06385
 30
0.0
  0
VERTEX
  8
0
  5
73F
 10
-0.718772
 20
-15.072677
 30
0.0
  0
VERTEX
  8
0
  5
740
 10
-0.726039
 20
-15.082228
 30
0.0
  0
VERTEX
  8
0
  5
741
 10
-0.732382
 20
-15.092445
 30
0.0
  0
VERTEX
  8
0
  5
742
 10
-0.737732
 20
-15.10326
 30
0.0
  0
VERTEX
  8
0
  5
743
 10
-0.742039
 20
-15.114602
 30
0.0
  0
VERTEX
  8
0
  5
744
 10
-0.745232
 20
-15.126398
 30
0.0
  0
VERTEX
  8
0
  5
745
 10
-0.747272
 20
-15.138587
 30
0.0
  0
VERTEX
  8
0
  5
746
 10
-0.748083
 20
-15.151091
 30
0.0
  0
VERTEX
  8
0
  5
747
 10
-0.747622
 20
-15.163854
 30
0.0
  0
VERTEX
  8
0
  5
748
 10
-0.745862
 20
-15.176492
 30
0.0
  0
VERTEX
  8
0
  5
749
 10
-0.74289
 20
-15.188669
 30
0.0
  0
VERTEX
  8
0
  5
74A
 10
-0.738768
 20
-15.200315
 30
0.0
  0
VERTEX
  8
0
  5
74B
 10
-0.733575
 20
-15.211382
 30
0.0
  0
VERTEX
  8
0
  5
74C
 10
-0.727362
 20
-15.221799
 30
0.0
  0
VERTEX
  8
0
  5
74D
 10
-0.720217
 20
-15.231524
 30
0.0
  0
VERTEX
  8
0
  5
74E
 10
-0.712197
 20
-15.240484
 30
0.0
  0
VERTEX
  8
0
  5
74F
 10
-0.703382
 20
-15.248634
 30
0.0
  0
VERTEX
  8
0
  5
750
 10
-0.693823
 20
-15.255902
 30
0.0
  0
VERTEX
  8
0
  5
751
 10
-0.683606
 20
-15.262244
 30
0.0
  0
VERTEX
  8
0
  5
752
 10
-0.672787
 20
-15.267594
 30
0.0
  0
VERTEX
  8
0
  5
753
 10
-0.661453
 20
-15.271902
 30
0.0
  0
VERTEX
  8
0
  5
754
 10
-0.64965
 20
-15.275094
 30
0.0
  0
VERTEX
  8
0
  5
755
 10
-0.637465
 20
-15.277134
 30
0.0
  0
VERTEX
  8
0
  5
756
 10
-0.624957
 20
-15.277945
 30
0.0
  0
SEQEND
  8
0
  5
757
  0
POLYLINE
  8
0
  5
758
 66
     1
 10
0.0
 20
0.0
 30
0.0
  0
VERTEX
  8
0
  5
759
 10
-1.099406
 20
-15.445587
 30
0.0
  0
VERTEX
  8
0
  5
75A
 10
-1.597504
 20
-15.489165
 30
0.0
  0
VERTEX
  8
0
  5
75B
 10
-1.641083
 20
-14.991067
 30
0.0
  0
VERTEX
  8
0
  5
75C
 10
-1.142984
 20
-14.947488
 30
0.0
  0
VERTEX
  8
0
  5
75D
 10
-1.099406
 20
-15.445587
 30
0.0
  0
SEQEND
  8
0
  5
75E
  0
POLYLINE
  8
0
  5
75F
 66
     1
 10
0.0
 20
0.0
 30
0.0
  0
VERTEX
  8
0
  5
760
 10
0.394886
 20
-15.314854
 30
0.0
  0
VERTEX
  8
0
  5
761
 10
-0.103213
 20
-15.358429
 30
0.0
  0
VERTEX
  8
0
  5
762
 10
-0.146787
 20
-14.860335
 30
0.0
  0
VERTEX
  8
0
  5
763
 10
0.351307
 20
-14.816756
 30
0.0
  0
VERTEX
  8
0
  5
764
 10
0.394886
 20
-15.314854
 30
0.0
  0
SEQEND
  8
0
  5
765
  0
POLYLINE
  8
0
  5
766
 66
     1
 10
0.0
 20
0.0
 30
0.0
  0
VERTEX
  8
0
  5
767
 10
-5.593177
 20
-15.713264
 30
0.0
  0
VERTEX
  8
0
  5
768
 10
-5.593177
 20
-15.713264
 30
0.0
  0
VERTEX
  8
0
  5
769
 10
-5.580528
 20
-15.711504
 30
0.0
  0
VERTEX
  8
0
  5
76A
 10
-5.56835
 20
-15.708531
 30
0.0
  0
VERTEX
  8
0
  5
76B
 10
-5.556697
 20
-15.704409
 30
0.0
  0
VERTEX
  8
0
  5
76C
 10
-5.545638
 20
-15.699217
 30
0.0
  0
VERTEX
  8
0
  5
76D
 10
-5.535213
 20
-15.693004
 30
0.0
  0
VERTEX
  8
0
  5
76E
 10
-5.525496
 20
-15.685858
 30
0.0
  0
VERTEX
  8
0
  5
76F
 10
-5.516531
 20
-15.677839
 30
0.0
  0
VERTEX
  8
0
  5
770
 10
-5.50839
 20
-15.66902
 30
0.0
  0
VERTEX
  8
0
  5
771
 10
-5.501114
 20
-15.659461
 30
0.0
  0
VERTEX
  8
0
  5
772
 10
-5.494776
 20
-15.649244
 30
0.0
  0
VERTEX
  8
0
  5
773
 10
-5.489421
 20
-15.638425
 30
0.0
  0
VERTEX
  8
0
  5
774
 10
-5.485122
 20
-15.627091
 30
0.0
  0
VERTEX
  8
0
  5
775
 10
-5.481921
 20
-15.615287
 30
0.0
  0
VERTEX
  8
0
  5
776
 10
-5.47989
 20
-15.603102
 30
0.0
  0
VERTEX
  8
0
  5
777
 10
-5.479075
 20
-15.590594
 30
0.0
  0
VERTEX
  8
0
  5
778
 10
-5.479547
 20
-15.577843
 30
0.0
  0
VERTEX
  8
0
  5
779
 10
-5.481299
 20
-15.565193
 30
0.0
  0
VERTEX
  8
0
  5
77A
 10
-5.484272
 20
-15.55302
 30
0.0
  0
VERTEX
  8
0
  5
77B
 10
-5.488386
 20
-15.541366
 30
0.0
  0
VERTEX
  8
0
  5
77C
 10
-5.493591
 20
-15.530307
 30
0.0
  0
VERTEX
  8
0
  5
77D
 10
-5.499791
 20
-15.519882
 30
0.0
  0
VERTEX
  8
0
  5
77E
 10
-5.506941
 20
-15.510161
 30
0.0
  0
VERTEX
  8
0
  5
77F
 10
-5.514961
 20
-15.501197
 30
0.0
  0
VERTEX
  8
0
  5
780
 10
-5.523787
 20
-15.493055
 30
0.0
  0
VERTEX
  8
0
  5
781
 10
-5.533339
 20
-15.48578
 30
0.0
  0
VERTEX
  8
0
  5
782
 10
-5.543555
 20
-15.479441
 30
0.0
  0
VERTEX
  8
0
  5
783
 10
-5.55437
 20
-15.474087
 30
0.0
  0
VERTEX
  8
0
  5
784
 10
-5.565713
 20
-15.469787
 30
0.0
  0
VERTEX
  8
0
  5
785
 10
-5.577508
 20
-15.466587
 30
0.0
  0
VERTEX
  8
0
  5
786
 10
-5.589697
 20
-15.464555
 30
0.0
  0
VERTEX
  8
0
  5
787
 10
-5.602201
 20
-15.46374
 30
0.0
  0
VERTEX
  8
0
  5
788
 10
-5.614965
 20
-15.464213
 30
0.0
  0
VERTEX
  8
0
  5
789
 10
-5.627602
 20
-15.465965
 30
0.0
  0
VERTEX
  8
0
  5
78A
 10
-5.63978
 20
-15.468937
 30
0.0
  0
VERTEX
  8
0
  5
78B
 10
-5.651425
 20
-15.473051
 30
0.0
  0
VERTEX
  8
0
  5
78C
 10
-5.662492
 20
-15.478256
 30
0.0
  0
VERTEX
  8
0
  5
78D
 10
-5.672909
 20
-15.484457
 30
0.0
  0
VERTEX
  8
0
  5
78E
 10
-5.682634
 20
-15.491606
 30
0.0
  0
VERTEX
  8
0
  5
78F
 10
-5.691594
 20
-15.499626
 30
0.0
  0
VERTEX
  8
0
  5
790
 10
-5.699744
 20
-15.508453
 30
0.0
  0
VERTEX
  8
0
  5
791
 10
-5.707012
 20
-15.518004
 30
0.0
  0
VERTEX
  8
0
  5
792
 10
-5.713354
 20
-15.52822
 30
0.0
  0
VERTEX
  8
0
  5
793
 10
-5.718705
 20
-15.539035
 30
0.0
  0
VERTEX
  8
0
  5
794
 10
-5.723012
 20
-15.550378
 30
0.0
  0
VERTEX
  8
0
  5
795
 10
-5.726205
 20
-15.562173
 30
0.0
  0
VERTEX
  8
0
  5
796
 10
-5.728244
 20
-15.574366
 30
0.0
  0
VERTEX
  8
0
  5
797
 10
-5.729055
 20
-15.58687
 30
0.0
  0
VERTEX
  8
0
  5
798
 10
-5.728594
 20
-15.599634
 30
0.0
  0
VERTEX
  8
0
  5
799
 10
-5.726835
 20
-15.612272
 30
0.0
  0
VERTEX
  8
0
  5
79A
 10
-5.723862
 20
-15.624449
 30
0.0
  0
VERTEX
  8
0
  5
79B
 10
-5.71974
 20
-15.636094
 30
0.0
  0
VERTEX
  8
0
  5
79C
 10
-5.714547
 20
-15.647161
 30
0.0
  0
VERTEX
  8
0
  5
79D
 10
-5.708335
 20
-15.657579
 30
0.0
  0
VERTEX
  8
0
  5
79E
 10
-5.701189
 20
-15.667303
 30
0.0
  0
VERTEX
  8
0
  5
79F
 10
-5.693169
 20
-15.676264
 30
0.0
  0
VERTEX
  8
0
  5
7A0
 10
-5.684354
 20
-15.684413
 30
0.0
  0
VERTEX
  8
0
  5
7A1
 10
-5.674795
 20
-15.691681
 30
0.0
  0
VERTEX
  8
0
  5
7A2
 10
-5.664579
 20
-15.698024
 30
0.0
  0
VERTEX
  8
0
  5
7A3
 10
-5.65376
 20
-15.703374
 30
0.0
  0
VERTEX
  8
0
  5
7A4
 10
-5.642425
 20
-15.707681
 30
0.0
  0
VERTEX
  8
0
  5
7A5
 10
-5.630622
 20
-15.710874
 30
0.0
  0
VERTEX
  8
0
  5
7A6
 10
-5.618437
 20
-15.712913
 30
0.0
  0
VERTEX
  8
0
  5
7A7
 10
-5.605929
 20
-15.713724
 30
0.0
  0
SEQEND
  8
0
  5
7A8
  0
POLYLINE
  8
0
  5
7A9
 66
     1
 10
0.0
 20
0.0
 30
0.0
  0
VERTEX
  8
0
  5
7AA
 10
-6.080378
 20
-15.881366
 30
0.0
  0
VERTEX
  8
0
  5
7AB
 10
-6.578476
 20
-15.924941
 30
0.0
  0
VERTEX
  8
0
  5
7AC
 10
-6.622055
 20
-15.426846
 30
0.0
  0
VERTEX
  8
0
  5
7AD
 10
-6.123957
 20
-15.383268
 30
0.0
  0
VERTEX
  8
0
  5
7AE
 10
-6.080378
 20
-15.881366
 30
0.0
  0
SEQEND
  8
0
  5
7AF
  0
POLYLINE
  8
0
  5
7B0
 66
     1
 10
0.0
 20
0.0
 30
0.0
  0
VERTEX
  8
0
  5
7B1
 10
-4.586087
 20
-15.75063
 30
0.0
  0
VERTEX
  8
0
  5
7B2
 10
-5.084185
 20
-15.794209
 30
0.0
  0
VERTEX
  8
0
  5
7B3
 10
-5.127764
 20
-15.29611
 30
0.0
  0
VERTEX
  8
0
  5
7B4
 10
-4.629665
 20
-15.252535
 30
0.0
  0
VERTEX
  8
0
  5
7B5
 10
-4.586087
 20
-15.75063
 30
0.0
  0
SEQEND
  8
0
  5
7B6
  0
POLYLINE
  8
0
  5
7B7
 66
     1
 10
0.0
 20
0.0
 30
0.0
  0
VERTEX
  8
0
  5
7B8
 10
-9.577957
 20
-16.061886
 30
0.0
  0
VERTEX
  8
0
  5
7B9
 10
-9.577957
 20
-16.061886
 30
0.0
  0
VERTEX
  8
0
  5
7BA
 10
-9.565307
 20
-16.060126
 30
0.0
  0
VERTEX
  8
0
  5
7BB
 10
-9.55313
 20
-16.057154
 30
0.0
  0
VERTEX
  8
0
  5
7BC
 10
-9.541476
 20
-16.053031
 30
0.0
  0
VERTEX
  8
0
  5
7BD
 10
-9.530417
 20
-16.047839
 30
0.0
  0
VERTEX
  8
0
  5
7BE
 10
-9.519992
 20
-16.041626
 30
0.0
  0
VERTEX
  8
0
  5
7BF
 10
-9.510276
 20
-16.03448
 30
0.0
  0
VERTEX
  8
0
  5
7C0
 10
-9.501311
 20
-16.026461
 30
0.0
  0
VERTEX
  8
0
  5
7C1
 10
-9.493169
 20
-16.017646
 30
0.0
  0
VERTEX
  8
0
  5
7C2
 10
-9.485894
 20
-16.008087
 30
0.0
  0
VERTEX
  8
0
  5
7C3
 10
-9.479555
 20
-15.99787
 30
0.0
  0
VERTEX
  8
0
  5
7C4
 10
-9.474201
 20
-15.987051
 30
0.0
  0
VERTEX
  8
0
  5
7C5
 10
-9.469902
 20
-15.975717
 30
0.0
  0
VERTEX
  8
0
  5
7C6
 10
-9.466701
 20
-15.963913
 30
0.0
  0
VERTEX
  8
0
  5
7C7
 10
-9.464669
 20
-15.951728
 30
0.0
  0
VERTEX
  8
0
  5
7C8
 10
-9.463854
 20
-15.93922
 30
0.0
  0
VERTEX
  8
0
  5
7C9
 10
-9.464327
 20
-15.926469
 30
0.0
  0
VERTEX
  8
0
  5
7CA
 10
-9.466079
 20
-15.913819
 30
0.0
  0
VERTEX
  8
0
  5
7CB
 10
-9.469051
 20
-15.901642
 30
0.0
  0
VERTEX
  8
0
  5
7CC
 10
-9.473165
 20
-15.889988
 30
0.0
  0
VERTEX
  8
0
  5
7CD
 10
-9.47837
 20
-15.878929
 30
0.0
  0
VERTEX
  8
0
  5
7CE
 10
-9.484571
 20
-15.868504
 30
0.0
  0
VERTEX
  8
0
  5
7CF
 10
-9.49172
 20
-15.858787
 30
0.0
  0
VERTEX
  8
0
  5
7D0
 10
-9.49974
 20
-15.849823
 30
0.0
  0
VERTEX
  8
0
  5
7D1
 10
-9.508567
 20
-15.841681
 30
0.0
  0
VERTEX
  8
0
  5
7D2
 10
-9.518118
 20
-15.834406
 30
0.0
  0
VERTEX
  8
0
  5
7D3
 10
-9.528335
 20
-15.828067
 30
0.0
  0
VERTEX
  8
0
  5
7D4
 10
-9.53915
 20
-15.822713
 30
0.0
  0
VERTEX
  8
0
  5
7D5
 10
-9.550492
 20
-15.818413
 30
0.0
  0
VERTEX
  8
0
  5
7D6
 10
-9.562287
 20
-15.815213
 30
0.0
  0
VERTEX
  8
0
  5
7D7
 10
-9.574476
 20
-15.813181
 30
0.0
  0
VERTEX
  8
0
  5
7D8
 10
-9.58698
 20
-15.812366
 30
0.0
  0
VERTEX
  8
0
  5
7D9
 10
-9.599744
 20
-15.812839
 30
0.0
  0
VERTEX
  8
0
  5
7DA
 10
-9.612382
 20
-15.814591
 30
0.0
  0
VERTEX
  8
0
  5
7DB
 10
-9.624559
 20
-15.817563
 30
0.0
  0
VERTEX
  8
0
  5
7DC
 10
-9.636205
 20
-15.821677
 30
0.0
  0
VERTEX
  8
0
  5
7DD
 10
-9.647272
 20
-15.826882
 30
0.0
  0
VERTEX
  8
0
  5
7DE
 10
-9.657689
 20
-15.833083
 30
0.0
  0
VERTEX
  8
0
  5
7DF
 10
-9.667413
 20
-15.840232
 30
0.0
  0
VERTEX
  8
0
  5
7E0
 10
-9.676374
 20
-15.848252
 30
0.0
  0
VERTEX
  8
0
  5
7E1
 10
-9.684524
 20
-15.857079
 30
0.0
  0
VERTEX
  8
0
  5
7E2
 10
-9.691791
 20
-15.86663
 30
0.0
  0
VERTEX
  8
0
  5
7E3
 10
-9.698134
 20
-15.876846
 30
0.0
  0
VERTEX
  8
0
  5
7E4
 10
-9.703484
 20
-15.887661
 30
0.0
  0
VERTEX
  8
0
  5
7E5
 10
-9.707791
 20
-15.899004
 30
0.0
  0
VERTEX
  8
0
  5
7E6
 10
-9.710984
 20
-15.910799
 30
0.0
  0
VERTEX
  8
0
  5
7E7
 10
-9.713024
 20
-15.922988
 30
0.0
  0
VERTEX
  8
0
  5
7E8
 10
-9.713835
 20
-15.935492
 30
0.0
  0
VERTEX
  8
0
  5
7E9
 10
-9.713374
 20
-15.948256
 30
0.0
  0
VERTEX
  8
0
  5
7EA
 10
-9.711614
 20
-15.960894
 30
0.0
  0
VERTEX
  8
0
  5
7EB
 10
-9.708642
 20
-15.973071
 30
0.0
  0
VERTEX
  8
0
  5
7EC
 10
-9.70452
 20
-15.984717
 30
0.0
  0
VERTEX
  8
0
  5
7ED
 10
-9.699327
 20
-15.995783
 30
0.0
  0
VERTEX
  8
0
  5
7EE
 10
-9.693114
 20
-16.006201
 30
0.0
  0
VERTEX
  8
0
  5
7EF
 10
-9.685969
 20
-16.015925
 30
0.0
  0
VERTEX
  8
0
  5
7F0
 10
-9.677949
 20
-16.024886
 30
0.0
  0
VERTEX
  8
0
  5
7F1
 10
-9.669134
 20
-16.033035
 30
0.0
  0
VERTEX
  8
0
  5
7F2
 10
-9.659575
 20
-16.040303
 30
0.0
  0
VERTEX
  8
0
  5
7F3
 10
-9.649358
 20
-16.046646
 30
0.0
  0
VERTEX
  8
0
  5
7F4
 10
-9.638539
 20
-16.051996
 30
0.0
  0
VERTEX
  8
0
  5
7F5
 10
-9.627205
 20
-16.056303
 30
0.0
  0
VERTEX
  8
0
  5
7F6
 10
-9.615402
 20
-16.059496
 30
0.0
  0
VERTEX
  8
0
  5
7F7
 10
-9.603217
 20
-16.061535
 30
0.0
  0
VERTEX
  8
0
  5
7F8
 10
-9.590709
 20
-16.062346
 30
0.0
  0
SEQEND
  8
0
  5
7F9
  0
POLYLINE
  8
0
  5
7FA
 66
     1
 10
0.0
 20
0.0
 30
0.0
  0
VERTEX
  8
0
  5
7FB
 10
-10.065157
 20
-16.229988
 30
0.0
  0
VERTEX
  8
0
  5
7FC
 10
-10.563256
 20
-16.273567
 30
0.0
  0
VERTEX
  8
0
  5
7FD
 10
-10.606835
 20
-15.775469
 30
0.0
  0
VERTEX
  8
0
  5
7FE
 10
-10.108736
 20
-15.73189
 30
0.0
  0
VERTEX
  8
0
  5
7FF
 10
-10.065157
 20
-16.229988
 30
0.0
  0
SEQEND
  8
0
  5
800
  0
POLYLINE
  8
0
  5
801
 66
     1
 10
0.0
 20
0.0
 30
0.0
  0
VERTEX
  8
0
  5
802
 10
-8.570866
 20
-16.099256
 30
0.0
  0
VERTEX
  8
0
  5
803
 10
-9.068965
 20
-16.142831
 30
0.0
  0
VERTEX
  8
0
  5
804
 10
-9.112539
 20
-15.644736
 30
0.0
  0
VERTEX
  8
0
  5
805
 10
-8.614445
 20
-15.601157
 30
0.0
  0
VERTEX
  8
0
  5
806
 10
-8.570866
 20
-16.099256
 30
0.0
  0
SEQEND
  8
0
  5
807
  0
ENDSEC
  0
EOF
