  0
SECTION
  2
HEADER
  9
$ACADVER
  1
AC1021
  9
$ACADMAINTVER
 70
    25
  9
$DWGCODEPAGE
  3
ANSI_1252
  9
$INSBASE
 10
0.0
 20
0.0
 30
0.0
  9
$EXTMIN
 10
-235.32306
 20
-51.66653
 30
0.0
  9
$EXTMAX
 10
-40.91944
 20
10.67406
 30
0.0
  9
$LIMMIN
 10
0.0
 20
0.0
  9
$LIMMAX
 10
12.0
 20
9.0
  9
$ORTHOMODE
 70
     0
  9
$REGENMODE
 70
     1
  9
$FILLMODE
 70
     1
  9
$QTEXTMODE
 70
     0
  9
$MIRRTEXT
 70
     1
  9
$LTSCALE
 40
1.0
  9
$ATTMODE
 70
     1
  9
$TEXTSIZE
 40
0.2
  9
$TRACEWID
 40
0.05
  9
$TEXTSTYLE
  7
Standard
  9
$CLAYER
  8
0
  9
$CELTYPE
  6
ByLayer
  9
$CECOLOR
 62
   256
  9
$CELTSCALE
 40
1.0
  9
$DISPSILH
 70
     0
  9
$DIMSCALE
 40
1.0
  9
$DIMASZ
 40
0.18
  9
$DIMEXO
 40
0.0625
  9
$DIMDLI
 40
0.38
  9
$DIMRND
 40
0.0
  9
$DIMDLE
 40
0.0
  9
$DIMEXE
 40
0.18
  9
$DIMTP
 40
0.0
  9
$DIMTM
 40
0.0
  9
$DIMTXT
 40
0.18
  9
$DIMCEN
 40
0.09
  9
$DIMTSZ
 40
0.0
  9
$DIMTOL
 70
     0
  9
$DIMLIM
 70
     0
  9
$DIMTIH
 70
     1
  9
$DIMTOH
 70
     1
  9
$DIMSE1
 70
     0
  9
$DIMSE2
 70
     0
  9
$DIMTAD
 70
     0
  9
$DIMZIN
 70
     0
  9
$DIMBLK
  1

  9
$DIMASO
 70
     1
  9
$DIMSHO
 70
     1
  9
$DIMPOST
  1

  9
$DIMAPOST
  1

  9
$DIMALT
 70
     0
  9
$DIMALTD
 70
     2
  9
$DIMALTF
 40
25.4
  9
$DIMLFAC
 40
1.0
  9
$DIMTOFL
 70
     0
  9
$DIMTVP
 40
0.0
  9
$DIMTIX
 70
     0
  9
$DIMSOXD
 70
     0
  9
$DIMSAH
 70
     0
  9
$DIMBLK1
  1

  9
$DIMBLK2
  1

  9
$DIMSTYLE
  2
Standard
  9
$DIMCLRD
 70
     0
  9
$DIMCLRE
 70
     0
  9
$DIMCLRT
 70
     0
  9
$DIMTFAC
 40
1.0
  9
$DIMGAP
 40
0.09
  9
$DIMJUST
 70
     0
  9
$DIMSD1
 70
     0
  9
$DIMSD2
 70
     0
  9
$DIMTOLJ
 70
     1
  9
$DIMTZIN
 70
     0
  9
$DIMALTZ
 70
     0
  9
$DIMALTTZ
 70
     0
  9
$DIMUPT
 70
     0
  9
$DIMDEC
 70
     4
  9
$DIMTDEC
 70
     4
  9
$DIMALTU
 70
     2
  9
$DIMALTTD
 70
     2
  9
$DIMTXSTY
  7
Standard
  9
$DIMAUNIT
 70
     0
  9
$DIMADEC
 70
     0
  9
$DIMALTRND
 40
0.0
  9
$DIMAZIN
 70
     0
  9
$DIMDSEP
 70
    46
  9
$DIMATFIT
 70
     3
  9
$DIMFRAC
 70
     0
  9
$DIMLDRBLK
  1

  9
$DIMLUNIT
 70
     2
  9
$DIMLWD
 70
    -2
  9
$DIMLWE
 70
    -2
  9
$DIMTMOVE
 70
     0
  9
$DIMFXL
 40
1.0
  9
$DIMFXLON
 70
     0
  9
$DIMJOGANG
 40
0.7853981633974483
  9
$DIMTFILL
 70
     0
  9
$DIMTFILLCLR
 70
     0
  9
$DIMARCSYM
 70
     0
  9
$DIMLTYPE
  6

  9
$DIMLTEX1
  6

  9
$DIMLTEX2
  6

  9
$LUNITS
 70
     2
  9
$LUPREC
 70
     4
  9
$SKETCHINC
 40
0.1
  9
$FILLETRAD
 40
0.5
  9
$AUNITS
 70
     0
  9
$AUPREC
 70
     0
  9
$MENU
  1
.
  9
$ELEVATION
 40
0.0
  9
$PELEVATION
 40
0.0
  9
$THICKNESS
 40
0.0
  9
$LIMCHECK
 70
     0
  9
$CHAMFERA
 40
0.5
  9
$CHAMFERB
 40
0.5
  9
$CHAMFERC
 40
1.0
  9
$CHAMFERD
 40
0.0
  9
$SKPOLY
 70
     0
  9
$TDCREATE
 40
2457636.894219838
  9
$TDUCREATE
 40
2457637.019219838
  9
$TDUPDATE
 40
2457636.894221308
  9
$TDUUPDATE
 40
2457637.019221308
  9
$TDINDWG
 40
0.0000000116
  9
$TDUSRTIMER
 40
0.0000000116
  9
$USRTIMER
 70
     1
  9
$ANGBASE
 50
0.0
  9
$ANGDIR
 70
     0
  9
$PDMODE
 70
     0
  9
$PDSIZE
 40
0.0
  9
$PLINEWID
 40
0.0
  9
$SPLFRAME
 70
     0
  9
$SPLINETYPE
 70
     6
  9
$SPLINESEGS
 70
     8
  9
$HANDSEED
  5
76
  9
$SURFTAB1
 70
     6
  9
$SURFTAB2
 70
     6
  9
$SURFTYPE
 70
     6
  9
$SURFU
 70
     6
  9
$SURFV
 70
     6
  9
$UCSBASE
  2

  9
$UCSNAME
  2

  9
$UCSORG
 10
0.0
 20
0.0
 30
0.0
  9
$UCSXDIR
 10
1.0
 20
0.0
 30
0.0
  9
$UCSYDIR
 10
0.0
 20
1.0
 30
0.0
  9
$UCSORTHOREF
  2

  9
$UCSORTHOVIEW
 70
     0
  9
$UCSORGTOP
 10
0.0
 20
0.0
 30
0.0
  9
$UCSORGBOTTOM
 10
0.0
 20
0.0
 30
0.0
  9
$UCSORGLEFT
 10
0.0
 20
0.0
 30
0.0
  9
$UCSORGRIGHT
 10
0.0
 20
0.0
 30
0.0
  9
$UCSORGFRONT
 10
0.0
 20
0.0
 30
0.0
  9
$UCSORGBACK
 10
0.0
 20
0.0
 30
0.0
  9
$PUCSBASE
  2

  9
$PUCSNAME
  2

  9
$PUCSORG
 10
0.0
 20
0.0
 30
0.0
  9
$PUCSXDIR
 10
1.0
 20
0.0
 30
0.0
  9
$PUCSYDIR
 10
0.0
 20
1.0
 30
0.0
  9
$PUCSORTHOREF
  2

  9
$PUCSORTHOVIEW
 70
     0
  9
$PUCSORGTOP
 10
0.0
 20
0.0
 30
0.0
  9
$PUCSORGBOTTOM
 10
0.0
 20
0.0
 30
0.0
  9
$PUCSORGLEFT
 10
0.0
 20
0.0
 30
0.0
  9
$PUCSORGRIGHT
 10
0.0
 20
0.0
 30
0.0
  9
$PUCSORGFRONT
 10
0.0
 20
0.0
 30
0.0
  9
$PUCSORGBACK
 10
0.0
 20
0.0
 30
0.0
  9
$USERI1
 70
     0
  9
$USERI2
 70
     0
  9
$USERI3
 70
     0
  9
$USERI4
 70
     0
  9
$USERI5
 70
     0
  9
$USERR1
 40
0.0
  9
$USERR2
 40
0.0
  9
$USERR3
 40
0.0
  9
$USERR4
 40
0.0
  9
$USERR5
 40
0.0
  9
$WORLDVIEW
 70
     1
  9
$SHADEDGE
 70
     3
  9
$SHADEDIF
 70
    70
  9
$TILEMODE
 70
     1
  9
$MAXACTVP
 70
    64
  9
$PINSBASE
 10
0.0
 20
0.0
 30
0.0
  9
$PLIMCHECK
 70
     0
  9
$PEXTMIN
 10
1.000000000000000E+20
 20
1.000000000000000E+20
 30
1.000000000000000E+20
  9
$PEXTMAX
 10
-1.000000000000000E+20
 20
-1.000000000000000E+20
 30
-1.000000000000000E+20
  9
$PLIMMIN
 10
0.0
 20
0.0
  9
$PLIMMAX
 10
12.0
 20
9.0
  9
$UNITMODE
 70
     0
  9
$VISRETAIN
 70
     1
  9
$PLINEGEN
 70
     0
  9
$PSLTSCALE
 70
     1
  9
$TREEDEPTH
 70
  3020
  9
$CMLSTYLE
  2
Standard
  9
$CMLJUST
 70
     0
  9
$CMLSCALE
 40
1.0
  9
$PROXYGRAPHICS
 70
     1
  9
$MEASUREMENT
 70
     0
  9
$CELWEIGHT
370
    -1
  9
$ENDCAPS
280
     0
  9
$JOINSTYLE
280
     0
  9
$LWDISPLAY
290
     0
  9
$INSUNITS
 70
     5
  9
$HYPERLINKBASE
  1

  9
$STYLESHEET
  1

  9
$XEDIT
290
     1
  9
$CEPSNTYPE
380
     0
  9
$PSTYLEMODE
290
     1
  9
$FINGERPRINTGUID
  2
{BD45B072-3B0E-4F35-B88E-E536478F5FBA}
  9
$VERSIONGUID
  2
{FAEB1C32-E019-11D5-929B-00C0DF256EC4}
  9
$EXTNAMES
290
     1
  9
$PSVPSCALE
 40
0.0
  9
$OLESTARTUP
290
     0
  9
$SORTENTS
280
   127
  9
$INDEXCTL
280
     0
  9
$HIDETEXT
280
     1
  9
$XCLIPFRAME
290
     0
  9
$HALOGAP
280
     0
  9
$OBSCOLOR
 70
   257
  9
$OBSLTYPE
280
     0
  9
$INTERSECTIONDISPLAY
280
     0
  9
$INTERSECTIONCOLOR
 70
   257
  9
$DIMASSOC
280
     2
  9
$PROJECTNAME
  1

  9
$CAMERADISPLAY
290
     0
  9
$LENSLENGTH
 40
50.0
  9
$CAMERAHEIGHT
 40
0.0
  9
$STEPSPERSEC
 40
2.0
  9
$STEPSIZE
 40
6.0
  9
$3DDWFPREC
 40
2.0
  9
$PSOLWIDTH
 40
0.25
  9
$PSOLHEIGHT
 40
4.0
  9
$LOFTANG1
 40
1.570796326794897
  9
$LOFTANG2
 40
1.570796326794897
  9
$LOFTMAG1
 40
0.0
  9
$LOFTMAG2
 40
0.0
  9
$LOFTPARAM
 70
     7
  9
$LOFTNORMALS
280
     1
  9
$LATITUDE
 40
37.795
  9
$LONGITUDE
 40
-122.394
  9
$NORTHDIRECTION
 40
0.0
  9
$TIMEZONE
 70
 -8000
  9
$LIGHTGLYPHDISPLAY
280
     1
  9
$TILEMODELIGHTSYNCH
280
     1
  9
$SOLIDHIST
280
     1
  9
$SHOWHIST
280
     1
  9
$DWFFRAME
280
     2
  9
$DGNFRAME
280
     2
  9
$REALWORLDSCALE
290
     1
  9
$INTERFERECOLOR
 62
   256
  9
$CSHADOW
280
     0
  9
$SHADOWPLANELOCATION
 40
0.0
  0
ENDSEC
  0
SECTION
  2
CLASSES
  0
CLASS
  1
ACDBDICTIONARYWDFLT
  2
AcDbDictionaryWithDefault
  3
ObjectDBX Classes
 90
        0
 91
        4
280
     0
281
     0
  0
CLASS
  1
VISUALSTYLE
  2
AcDbVisualStyle
  3
ObjectDBX Classes
 90
     4095
 91
        4
280
     0
281
     0
  0
CLASS
  1
MATERIAL
  2
AcDbMaterial
  3
ObjectDBX Classes
 90
     1153
 91
        4
280
     0
281
     0
  0
ENDSEC
  0
SECTION
  2
TABLES
  0
TABLE
  2
VPORT
  5
8
330
0
100
AcDbSymbolTable
 70
     1
  0
VPORT
  5
29
330
8
100
AcDbSymbolTableRecord
100
AcDbViewportTableRecord
  2
*Active
 70
     0
 10
0.0
 20
0.0
 11
1.0
 21
1.0
 12
10.42990654205607
 22
4.5
 13
0.0
 23
0.0
 14
0.5
 24
0.5
 15
0.5
 25
0.5
 16
0.0
 26
0.0
 36
1.0
 17
0.0
 27
0.0
 37
0.0
 40
9.0
 41
1.972972972850329
 42
50.0
 43
0.0
 44
0.0
 50
0.0
 51
0.0
 71
     0
 72
   100
 73
     1
 74
     3
 75
     0
 76
     0
 77
     0
 78
     0
281
     0
 65
     1
110
0.0
120
0.0
130
0.0
111
1.0
121
0.0
131
0.0
112
0.0
122
1.0
132
0.0
 79
     0
146
0.0
 60
     3
 61
     5
292
     1
282
     1
141
0.0
142
0.0
 63
   250
  0
ENDTAB
  0
TABLE
  2
LTYPE
  5
5
330
0
100
AcDbSymbolTable
 70
     1
  0
LTYPE
  5
14
330
5
100
AcDbSymbolTableRecord
100
AcDbLinetypeTableRecord
  2
ByBlock
 70
     0
  3

 72
    65
 73
     0
 40
0.0
  0
LTYPE
  5
15
330
5
100
AcDbSymbolTableRecord
100
AcDbLinetypeTableRecord
  2
ByLayer
 70
     0
  3

 72
    65
 73
     0
 40
0.0
  0
LTYPE
  5
16
330
5
100
AcDbSymbolTableRecord
100
AcDbLinetypeTableRecord
  2
Continuous
 70
     0
  3
Solid line
 72
    65
 73
     0
 40
0.0
  0
ENDTAB
  0
TABLE
  2
LAYER
  5
2
330
0
100
AcDbSymbolTable
 70
     2
  0
LAYER
  5
10
330
2
100
AcDbSymbolTableRecord
100
AcDbLayerTableRecord
  2
0
 70
     0
 62
     7
  6
Continuous
370
    -3
390
F
347
3E
  0
LAYER
  5
40
330
2
100
AcDbSymbolTableRecord
100
AcDbLayerTableRecord
  2
Capa 1
 70
     0
 62
     7
  6
Continuous
370
    -3
390
F
347
3E
  0
ENDTAB
  0
TABLE
  2
STYLE
  5
3
330
0
100
AcDbSymbolTable
 70
     1
  0
STYLE
  5
11
330
3
100
AcDbSymbolTableRecord
100
AcDbTextStyleTableRecord
  2
Standard
 70
     0
 40
0.0
 41
1.0
 50
0.0
 71
     0
 42
0.2
  3
txt
  4

  0
ENDTAB
  0
TABLE
  2
VIEW
  5
6
330
0
100
AcDbSymbolTable
 70
     0
  0
ENDTAB
  0
TABLE
  2
UCS
  5
7
330
0
100
AcDbSymbolTable
 70
     0
  0
ENDTAB
  0
TABLE
  2
APPID
  5
9
330
0
100
AcDbSymbolTable
 70
     2
  0
APPID
  5
12
330
9
100
AcDbSymbolTableRecord
100
AcDbRegAppTableRecord
  2
ACAD
 70
     0
  0
APPID
  5
3F
330
9
100
AcDbSymbolTableRecord
100
AcDbRegAppTableRecord
  2
ODA
 70
     0
  0
ENDTAB
  0
TABLE
  2
DIMSTYLE
  5
A
330
0
100
AcDbSymbolTable
 70
     1
100
AcDbDimStyleTable
  0
DIMSTYLE
105
27
330
A
100
AcDbSymbolTableRecord
100
AcDbDimStyleTableRecord
  2
Standard
 70
     0
178
     0
340
11
  0
ENDTAB
  0
TABLE
  2
BLOCK_RECORD
  5
1
330
0
100
AcDbSymbolTable
 70
     1
  0
BLOCK_RECORD
  5
1F
330
1
100
AcDbSymbolTableRecord
100
AcDbBlockTableRecord
  2
*Model_Space
340
22
 70
     0
280
     1
281
     0
  0
BLOCK_RECORD
  5
1B
330
1
100
AcDbSymbolTableRecord
100
AcDbBlockTableRecord
  2
*Paper_Space
340
1E
 70
     0
280
     1
281
     0
  0
BLOCK_RECORD
  5
23
330
1
100
AcDbSymbolTableRecord
100
AcDbBlockTableRecord
  2
*Paper_Space0
340
26
 70
     0
280
     1
281
     0
  0
ENDTAB
  0
ENDSEC
  0
SECTION
  2
BLOCKS
  0
BLOCK
  5
20
330
1F
100
AcDbEntity
  8
0
100
AcDbBlockBegin
  2
*Model_Space
 70
     0
 10
0.0
 20
0.0
 30
0.0
  3
*Model_Space
  1

  0
ENDBLK
  5
21
330
1F
100
AcDbEntity
  8
0
100
AcDbBlockEnd
  0
BLOCK
  5
1C
330
1B
100
AcDbEntity
 67
     1
  8
0
100
AcDbBlockBegin
  2
*Paper_Space
 70
     0
 10
0.0
 20
0.0
 30
0.0
  3
*Paper_Space
  1

  0
ENDBLK
  5
1D
330
1B
100
AcDbEntity
 67
     1
  8
0
100
AcDbBlockEnd
  0
BLOCK
  5
24
330
23
100
AcDbEntity
  8
0
100
AcDbBlockBegin
  2
*Paper_Space0
 70
     0
 10
0.0
 20
0.0
 30
0.0
  3
*Paper_Space0
  1

  0
ENDBLK
  5
25
330
23
100
AcDbEntity
  8
0
100
AcDbBlockEnd
  0
ENDSEC
  0
SECTION
  2
ENTITIES
  0
SPLINE
  5
41
330
1F
100
AcDbEntity
  8
Capa 1
 62
   240
370
    35
100
AcDbSpline
210
0.0
220
0.0
230
1.0
 70
    24
 71
     3
 72
     8
 73
     4
 74
     0
 42
0.0000000001
 43
0.0000000001
 12
1.0
 22
0.0
 32
0.0
 13
1.0
 23
0.0
 33
0.0
 40
0.0
 40
0.0
 40
0.0
 40
0.0
 40
1.0
 40
1.0
 40
1.0
 40
1.0
 10
-149.07375
 20
-46.62375
 30
0.0
 10
-149.07375
 20
-46.62375
 30
0.0
 10
-181.76875
 20
-46.61625
 30
0.0
 10
-181.76875
 20
-46.61625
 30
0.0
  0
SPLINE
  5
42
330
1F
100
AcDbEntity
  8
Capa 1
 62
   240
370
    35
100
AcDbSpline
210
0.0
220
0.0
230
1.0
 70
     8
 71
     3
 72
    88
 73
    84
 74
     0
 42
0.0000000001
 43
0.0000000001
 12
1.0
 22
0.0
 32
0.0
 13
1.0
 23
0.0
 33
0.0
 40
0.0
 40
0.0
 40
0.0
 40
0.0
 40
0.0454545454545455
 40
0.0454545454545455
 40
0.0454545454545455
 40
0.0454545454545455
 40
0.0909090909090909
 40
0.0909090909090909
 40
0.0909090909090909
 40
0.0909090909090909
 40
0.1363636363636364
 40
0.1363636363636364
 40
0.1363636363636364
 40
0.1363636363636364
 40
0.1818181818181818
 40
0.1818181818181818
 40
0.1818181818181818
 40
0.1818181818181818
 40
0.2272727272727273
 40
0.2272727272727273
 40
0.2272727272727273
 40
0.2272727272727273
 40
0.2727272727272727
 40
0.2727272727272727
 40
0.2727272727272727
 40
0.2727272727272727
 40
0.3181818181818182
 40
0.3181818181818182
 40
0.3181818181818182
 40
0.3181818181818182
 40
0.3636363636363636
 40
0.3636363636363636
 40
0.3636363636363636
 40
0.3636363636363636
 40
0.4090909090909091
 40
0.4090909090909091
 40
0.4090909090909091
 40
0.4090909090909091
 40
0.4545454545454545
 40
0.4545454545454545
 40
0.4545454545454545
 40
0.4545454545454545
 40
0.5
 40
0.5
 40
0.5
 40
0.5
 40
0.5454545454545454
 40
0.5454545454545454
 40
0.5454545454545454
 40
0.5454545454545454
 40
0.5909090909090909
 40
0.5909090909090909
 40
0.5909090909090909
 40
0.5909090909090909
 40
0.6363636363636364
 40
0.6363636363636364
 40
0.6363636363636364
 40
0.6363636363636364
 40
0.6818181818181818
 40
0.6818181818181818
 40
0.6818181818181818
 40
0.6818181818181818
 40
0.7272727272727273
 40
0.7272727272727273
 40
0.7272727272727273
 40
0.7272727272727273
 40
0.7727272727272727
 40
0.7727272727272727
 40
0.7727272727272727
 40
0.7727272727272727
 40
0.8181818181818182
 40
0.8181818181818182
 40
0.8181818181818182
 40
0.8181818181818182
 40
0.8636363636363636
 40
0.8636363636363636
 40
0.8636363636363636
 40
0.8636363636363636
 40
0.9090909090909091
 40
0.9090909090909091
 40
0.9090909090909091
 40
0.9090909090909091
 40
1.0
 40
1.0
 40
1.0
 40
1.0
 10
-186.88875
 20
9.39125
 30
0.0
 10
-186.88875
 20
9.39125
 30
0.0
 10
-186.20375
 20
7.78625
 30
0.0
 10
-186.20375
 20
7.78625
 30
0.0
 10
-186.20375
 20
7.78625
 30
0.0
 10
-186.20375
 20
7.78625
 30
0.0
 10
-184.24125
 20
3.79374
 30
0.0
 10
-184.24125
 20
3.79374
 30
0.0
 10
-184.24125
 20
3.79374
 30
0.0
 10
-184.24125
 20
3.79374
 30
0.0
 10
-183.00125
 20
1.31374
 30
0.0
 10
-183.00125
 20
1.31374
 30
0.0
 10
-183.00125
 20
1.31374
 30
0.0
 10
-183.00125
 20
1.31374
 30
0.0
 10
-180.54875
 20
-4.30625
 30
0.0
 10
-180.54875
 20
-4.30625
 30
0.0
 10
-180.54875
 20
-4.30625
 30
0.0
 10
-180.54875
 20
-4.30625
 30
0.0
 10
-179.80625
 20
-6.86875
 30
0.0
 10
-179.80625
 20
-6.86875
 30
0.0
 10
-179.80625
 20
-6.86875
 30
0.0
 10
-179.80625
 20
-6.86875
 30
0.0
 10
-178.95125
 20
-9.15625
 30
0.0
 10
-178.95125
 20
-9.15625
 30
0.0
 10
-178.95125
 20
-9.15625
 30
0.0
 10
-178.95125
 20
-9.15625
 30
0.0
 10
-178.20875
 20
-11.93875
 30
0.0
 10
-178.20875
 20
-11.93875
 30
0.0
 10
-178.20875
 20
-11.93875
 30
0.0
 10
-178.20875
 20
-11.93875
 30
0.0
 10
-177.51875
 20
-15.35375
 30
0.0
 10
-177.51875
 20
-15.35375
 30
0.0
 10
-177.51875
 20
-15.35375
 30
0.0
 10
-177.51875
 20
-15.35375
 30
0.0
 10
-177.13375
 20
-19.07375
 30
0.0
 10
-177.13375
 20
-19.07375
 30
0.0
 10
-177.13375
 20
-19.07375
 30
0.0
 10
-177.13375
 20
-19.07375
 30
0.0
 10
-177.21625
 20
-21.99375
 30
0.0
 10
-177.21625
 20
-21.99375
 30
0.0
 10
-177.21625
 20
-21.99375
 30
0.0
 10
-177.21625
 20
-21.99375
 30
0.0
 10
-177.65625
 20
-24.99625
 30
0.0
 10
-177.65625
 20
-24.99625
 30
0.0
 10
-177.65625
 20
-24.99625
 30
0.0
 10
-177.65625
 20
-24.99625
 30
0.0
 10
-178.15375
 20
-27.22875
 30
0.0
 10
-178.15375
 20
-27.22875
 30
0.0
 10
-178.15375
 20
-27.22875
 30
0.0
 10
-178.15375
 20
-27.22875
 30
0.0
 10
-179.17125
 20
-30.67125
 30
0.0
 10
-179.17125
 20
-30.67125
 30
0.0
 10
-179.17125
 20
-30.67125
 30
0.0
 10
-179.17125
 20
-30.67125
 30
0.0
 10
-179.83375
 20
-32.49125
 30
0.0
 10
-179.83375
 20
-32.49125
 30
0.0
 10
-179.83375
 20
-32.49125
 30
0.0
 10
-179.83375
 20
-32.49125
 30
0.0
 10
-180.57625
 20
-34.72124
 30
0.0
 10
-180.57625
 20
-34.72124
 30
0.0
 10
-180.57625
 20
-34.72124
 30
0.0
 10
-180.57625
 20
-34.72124
 30
0.0
 10
-181.07375
 20
-36.04375
 30
0.0
 10
-181.07375
 20
-36.04375
 30
0.0
 10
-181.07375
 20
-36.04375
 30
0.0
 10
-181.07375
 20
-36.04375
 30
0.0
 10
-181.67875
 20
-38.02875
 30
0.0
 10
-181.67875
 20
-38.02875
 30
0.0
 10
-181.67875
 20
-38.02875
 30
0.0
 10
-181.67875
 20
-38.02875
 30
0.0
 10
-181.92625
 20
-39.73625
 30
0.0
 10
-181.92625
 20
-39.73625
 30
0.0
 10
-181.92625
 20
-39.73625
 30
0.0
 10
-181.92625
 20
-39.73625
 30
0.0
 10
-182.00875
 20
-41.69125
 30
0.0
 10
-182.00875
 20
-41.69125
 30
0.0
 10
-182.00875
 20
-41.69125
 30
0.0
 10
-182.00875
 20
-41.69125
 30
0.0
 10
-181.95375
 20
-44.61375
 30
0.0
 10
-181.95375
 20
-44.61375
 30
0.0
 10
-181.95375
 20
-44.61375
 30
0.0
 10
-181.95375
 20
-44.61375
 30
0.0
 10
-181.60375
 20
-48.55625
 30
0.0
 10
-181.60375
 20
-48.55625
 30
0.0
  0
SPLINE
  5
43
330
1F
100
AcDbEntity
  8
Capa 1
 62
   240
370
    35
100
AcDbSpline
210
0.0
220
0.0
230
1.0
 70
     8
 71
     3
 72
    88
 73
    84
 74
     0
 42
0.0000000001
 43
0.0000000001
 12
1.0
 22
0.0
 32
0.0
 13
1.0
 23
0.0
 33
0.0
 40
0.0
 40
0.0
 40
0.0
 40
0.0
 40
0.0454545454545455
 40
0.0454545454545455
 40
0.0454545454545455
 40
0.0454545454545455
 40
0.0909090909090909
 40
0.0909090909090909
 40
0.0909090909090909
 40
0.0909090909090909
 40
0.1363636363636364
 40
0.1363636363636364
 40
0.1363636363636364
 40
0.1363636363636364
 40
0.1818181818181818
 40
0.1818181818181818
 40
0.1818181818181818
 40
0.1818181818181818
 40
0.2272727272727273
 40
0.2272727272727273
 40
0.2272727272727273
 40
0.2272727272727273
 40
0.2727272727272727
 40
0.2727272727272727
 40
0.2727272727272727
 40
0.2727272727272727
 40
0.3181818181818182
 40
0.3181818181818182
 40
0.3181818181818182
 40
0.3181818181818182
 40
0.3636363636363636
 40
0.3636363636363636
 40
0.3636363636363636
 40
0.3636363636363636
 40
0.4090909090909091
 40
0.4090909090909091
 40
0.4090909090909091
 40
0.4090909090909091
 40
0.4545454545454545
 40
0.4545454545454545
 40
0.4545454545454545
 40
0.4545454545454545
 40
0.5
 40
0.5
 40
0.5
 40
0.5
 40
0.5454545454545454
 40
0.5454545454545454
 40
0.5454545454545454
 40
0.5454545454545454
 40
0.5909090909090909
 40
0.5909090909090909
 40
0.5909090909090909
 40
0.5909090909090909
 40
0.6363636363636364
 40
0.6363636363636364
 40
0.6363636363636364
 40
0.6363636363636364
 40
0.6818181818181818
 40
0.6818181818181818
 40
0.6818181818181818
 40
0.6818181818181818
 40
0.7272727272727273
 40
0.7272727272727273
 40
0.7272727272727273
 40
0.7272727272727273
 40
0.7727272727272727
 40
0.7727272727272727
 40
0.7727272727272727
 40
0.7727272727272727
 40
0.8181818181818182
 40
0.8181818181818182
 40
0.8181818181818182
 40
0.8181818181818182
 40
0.8636363636363636
 40
0.8636363636363636
 40
0.8636363636363636
 40
0.8636363636363636
 40
0.9090909090909091
 40
0.9090909090909091
 40
0.9090909090909091
 40
0.9090909090909091
 40
1.0
 40
1.0
 40
1.0
 40
1.0
 10
-149.29125
 20
-48.54125
 30
0.0
 10
-149.29125
 20
-48.54125
 30
0.0
 10
-148.87625
 20
-44.78375
 30
0.0
 10
-148.87625
 20
-44.78375
 30
0.0
 10
-148.87625
 20
-44.78375
 30
0.0
 10
-148.87625
 20
-44.78375
 30
0.0
 10
-148.82125
 20
-43.07625
 30
0.0
 10
-148.82125
 20
-43.07625
 30
0.0
 10
-148.82125
 20
-43.07625
 30
0.0
 10
-148.82125
 20
-43.07625
 30
0.0
 10
-148.82125
 20
-41.11875
 30
0.0
 10
-148.82125
 20
-41.11875
 30
0.0
 10
-148.82125
 20
-41.11875
 30
0.0
 10
-148.82125
 20
-41.11875
 30
0.0
 10
-148.87625
 20
-39.52124
 30
0.0
 10
-148.87625
 20
-39.52124
 30
0.0
 10
-148.87625
 20
-39.52124
 30
0.0
 10
-148.87625
 20
-39.52124
 30
0.0
 10
-149.15125
 20
-37.89624
 30
0.0
 10
-149.15125
 20
-37.89624
 30
0.0
 10
-149.15125
 20
-37.89624
 30
0.0
 10
-149.15125
 20
-37.89624
 30
0.0
 10
-149.89625
 20
-35.49875
 30
0.0
 10
-149.89625
 20
-35.49875
 30
0.0
 10
-149.89625
 20
-35.49875
 30
0.0
 10
-149.89625
 20
-35.49875
 30
0.0
 10
-152.23875
 20
-29.71375
 30
0.0
 10
-152.23875
 20
-29.71375
 30
0.0
 10
-152.23875
 20
-29.71375
 30
0.0
 10
-152.23875
 20
-29.71375
 30
0.0
 10
-153.06375
 20
-27.26125
 30
0.0
 10
-153.06375
 20
-27.26125
 30
0.0
 10
-153.06375
 20
-27.26125
 30
0.0
 10
-153.06375
 20
-27.26125
 30
0.0
 10
-154.02875
 20
-23.04625
 30
0.0
 10
-154.02875
 20
-23.04625
 30
0.0
 10
-154.02875
 20
-23.04625
 30
0.0
 10
-154.02875
 20
-23.04625
 30
0.0
 10
-154.38625
 20
-19.54875
 30
0.0
 10
-154.38625
 20
-19.54875
 30
0.0
 10
-154.38625
 20
-19.54875
 30
0.0
 10
-154.38625
 20
-19.54875
 30
0.0
 10
-154.30375
 20
-16.10375
 30
0.0
 10
-154.30375
 20
-16.10375
 30
0.0
 10
-154.30375
 20
-16.10375
 30
0.0
 10
-154.30375
 20
-16.10375
 30
0.0
 10
-154.05625
 20
-13.78875
 30
0.0
 10
-154.05625
 20
-13.78875
 30
0.0
 10
-154.05625
 20
-13.78875
 30
0.0
 10
-154.05625
 20
-13.78875
 30
0.0
 10
-153.58875
 20
-11.17375
 30
0.0
 10
-153.58875
 20
-11.17375
 30
0.0
 10
-153.58875
 20
-11.17375
 30
0.0
 10
-153.58875
 20
-11.17375
 30
0.0
 10
-153.06375
 20
-9.10625
 30
0.0
 10
-153.06375
 20
-9.10625
 30
0.0
 10
-153.06375
 20
-9.10625
 30
0.0
 10
-153.06375
 20
-9.10625
 30
0.0
 10
-152.43125
 20
-6.87375
 30
0.0
 10
-152.43125
 20
-6.87375
 30
0.0
 10
-152.43125
 20
-6.87375
 30
0.0
 10
-152.43125
 20
-6.87375
 30
0.0
 10
-151.74124
 20
-4.86375
 30
0.0
 10
-151.74124
 20
-4.86375
 30
0.0
 10
-151.74124
 20
-4.86375
 30
0.0
 10
-151.74124
 20
-4.86375
 30
0.0
 10
-150.99875
 20
-2.52125
 30
0.0
 10
-150.99875
 20
-2.52125
 30
0.0
 10
-150.99875
 20
-2.52125
 30
0.0
 10
-150.99875
 20
-2.52125
 30
0.0
 10
-149.09625
 20
2.13375
 30
0.0
 10
-149.09625
 20
2.13375
 30
0.0
 10
-149.09625
 20
2.13375
 30
0.0
 10
-149.09625
 20
2.13375
 30
0.0
 10
-148.05125
 20
4.55875
 30
0.0
 10
-148.05125
 20
4.55875
 30
0.0
 10
-148.05125
 20
4.55875
 30
0.0
 10
-148.05125
 20
4.55875
 30
0.0
 10
-147.41625
 20
5.79875
 30
0.0
 10
-147.41625
 20
5.79875
 30
0.0
 10
-147.41625
 20
5.79875
 30
0.0
 10
-147.41625
 20
5.79875
 30
0.0
 10
-145.84625
 20
9.35125
 30
0.0
 10
-145.84625
 20
9.35125
 30
0.0
  0
SPLINE
  5
44
330
1F
100
AcDbEntity
  8
Capa 1
 62
   250
370
    35
100
AcDbSpline
210
0.0
220
0.0
230
1.0
 70
    11
 71
     3
 72
   248
 73
   244
 74
     0
 42
0.0000000001
 43
0.0000000001
 12
1.0
 22
0.0
 32
0.0
 13
1.0
 23
0.0
 33
0.0
 40
0.0
 40
0.0
 40
0.0
 40
0.0
 40
0.0161290322580645
 40
0.0161290322580645
 40
0.0161290322580645
 40
0.0161290322580645
 40
0.032258064516129
 40
0.032258064516129
 40
0.032258064516129
 40
0.032258064516129
 40
0.0483870967741935
 40
0.0483870967741935
 40
0.0483870967741935
 40
0.0483870967741935
 40
0.0645161290322581
 40
0.0645161290322581
 40
0.0645161290322581
 40
0.0645161290322581
 40
0.0806451612903226
 40
0.0806451612903226
 40
0.0806451612903226
 40
0.0806451612903226
 40
0.0967741935483871
 40
0.0967741935483871
 40
0.0967741935483871
 40
0.0967741935483871
 40
0.1129032258064516
 40
0.1129032258064516
 40
0.1129032258064516
 40
0.1129032258064516
 40
0.1290322580645161
 40
0.1290322580645161
 40
0.1290322580645161
 40
0.1290322580645161
 40
0.1451612903225807
 40
0.1451612903225807
 40
0.1451612903225807
 40
0.1451612903225807
 40
0.1612903225806452
 40
0.1612903225806452
 40
0.1612903225806452
 40
0.1612903225806452
 40
0.1774193548387097
 40
0.1774193548387097
 40
0.1774193548387097
 40
0.1774193548387097
 40
0.1935483870967742
 40
0.1935483870967742
 40
0.1935483870967742
 40
0.1935483870967742
 40
0.2096774193548387
 40
0.2096774193548387
 40
0.2096774193548387
 40
0.2096774193548387
 40
0.2258064516129032
 40
0.2258064516129032
 40
0.2258064516129032
 40
0.2258064516129032
 40
0.2419354838709677
 40
0.2419354838709677
 40
0.2419354838709677
 40
0.2419354838709677
 40
0.2580645161290323
 40
0.2580645161290323
 40
0.2580645161290323
 40
0.2580645161290323
 40
0.2741935483870968
 40
0.2741935483870968
 40
0.2741935483870968
 40
0.2741935483870968
 40
0.2903225806451613
 40
0.2903225806451613
 40
0.2903225806451613
 40
0.2903225806451613
 40
0.3064516129032258
 40
0.3064516129032258
 40
0.3064516129032258
 40
0.3064516129032258
 40
0.3225806451612903
 40
0.3225806451612903
 40
0.3225806451612903
 40
0.3225806451612903
 40
0.3387096774193548
 40
0.3387096774193548
 40
0.3387096774193548
 40
0.3387096774193548
 40
0.3548387096774194
 40
0.3548387096774194
 40
0.3548387096774194
 40
0.3548387096774194
 40
0.3709677419354839
 40
0.3709677419354839
 40
0.3709677419354839
 40
0.3709677419354839
 40
0.3870967741935484
 40
0.3870967741935484
 40
0.3870967741935484
 40
0.3870967741935484
 40
0.4032258064516129
 40
0.4032258064516129
 40
0.4032258064516129
 40
0.4032258064516129
 40
0.4193548387096774
 40
0.4193548387096774
 40
0.4193548387096774
 40
0.4193548387096774
 40
0.4354838709677419
 40
0.4354838709677419
 40
0.4354838709677419
 40
0.4354838709677419
 40
0.4516129032258064
 40
0.4516129032258064
 40
0.4516129032258064
 40
0.4516129032258064
 40
0.4677419354838709
 40
0.4677419354838709
 40
0.4677419354838709
 40
0.4677419354838709
 40
0.4838709677419355
 40
0.4838709677419355
 40
0.4838709677419355
 40
0.4838709677419355
 40
0.5
 40
0.5
 40
0.5
 40
0.5
 40
0.5161290322580645
 40
0.5161290322580645
 40
0.5161290322580645
 40
0.5161290322580645
 40
0.532258064516129
 40
0.532258064516129
 40
0.532258064516129
 40
0.532258064516129
 40
0.5483870967741935
 40
0.5483870967741935
 40
0.5483870967741935
 40
0.5483870967741935
 40
0.5645161290322581
 40
0.5645161290322581
 40
0.5645161290322581
 40
0.5645161290322581
 40
0.5806451612903226
 40
0.5806451612903226
 40
0.5806451612903226
 40
0.5806451612903226
 40
0.5967741935483871
 40
0.5967741935483871
 40
0.5967741935483871
 40
0.5967741935483871
 40
0.6129032258064516
 40
0.6129032258064516
 40
0.6129032258064516
 40
0.6129032258064516
 40
0.6290322580645161
 40
0.6290322580645161
 40
0.6290322580645161
 40
0.6290322580645161
 40
0.6451612903225806
 40
0.6451612903225806
 40
0.6451612903225806
 40
0.6451612903225806
 40
0.6612903225806451
 40
0.6612903225806451
 40
0.6612903225806451
 40
0.6612903225806451
 40
0.6774193548387096
 40
0.6774193548387096
 40
0.6774193548387096
 40
0.6774193548387096
 40
0.6935483870967742
 40
0.6935483870967742
 40
0.6935483870967742
 40
0.6935483870967742
 40
0.7096774193548387
 40
0.7096774193548387
 40
0.7096774193548387
 40
0.7096774193548387
 40
0.7258064516129032
 40
0.7258064516129032
 40
0.7258064516129032
 40
0.7258064516129032
 40
0.7419354838709677
 40
0.7419354838709677
 40
0.7419354838709677
 40
0.7419354838709677
 40
0.7580645161290323
 40
0.7580645161290323
 40
0.7580645161290323
 40
0.7580645161290323
 40
0.7741935483870968
 40
0.7741935483870968
 40
0.7741935483870968
 40
0.7741935483870968
 40
0.7903225806451613
 40
0.7903225806451613
 40
0.7903225806451613
 40
0.7903225806451613
 40
0.8064516129032258
 40
0.8064516129032258
 40
0.8064516129032258
 40
0.8064516129032258
 40
0.8225806451612904
 40
0.8225806451612904
 40
0.8225806451612904
 40
0.8225806451612904
 40
0.8387096774193549
 40
0.8387096774193549
 40
0.8387096774193549
 40
0.8387096774193549
 40
0.8548387096774194
 40
0.8548387096774194
 40
0.8548387096774194
 40
0.8548387096774194
 40
0.8709677419354839
 40
0.8709677419354839
 40
0.8709677419354839
 40
0.8709677419354839
 40
0.8870967741935484
 40
0.8870967741935484
 40
0.8870967741935484
 40
0.8870967741935484
 40
0.9032258064516129
 40
0.9032258064516129
 40
0.9032258064516129
 40
0.9032258064516129
 40
0.9193548387096774
 40
0.9193548387096774
 40
0.9193548387096774
 40
0.9193548387096774
 40
0.9354838709677419
 40
0.9354838709677419
 40
0.9354838709677419
 40
0.9354838709677419
 40
0.9516129032258065
 40
0.9516129032258065
 40
0.9516129032258065
 40
0.9516129032258065
 40
0.967741935483871
 40
0.967741935483871
 40
0.967741935483871
 40
0.967741935483871
 40
1.0
 40
1.0
 40
1.0
 40
1.0
 10
-188.38625
 20
9.39125
 30
0.0
 10
-188.38625
 20
9.39125
 30
0.0
 10
-188.11625
 20
8.75125
 30
0.0
 10
-188.11625
 20
8.75125
 30
0.0
 10
-188.11625
 20
8.75125
 30
0.0
 10
-188.11625
 20
8.75125
 30
0.0
 10
-187.69875
 20
7.77625
 30
0.0
 10
-187.69875
 20
7.77625
 30
0.0
 10
-187.69875
 20
7.77625
 30
0.0
 10
-187.69875
 20
7.77625
 30
0.0
 10
-187.41625
 20
7.18375
 30
0.0
 10
-187.41625
 20
7.18375
 30
0.0
 10
-187.41625
 20
7.18375
 30
0.0
 10
-187.41625
 20
7.18375
 30
0.0
 10
-186.50625
 20
5.29625
 30
0.0
 10
-186.50625
 20
5.29625
 30
0.0
 10
-186.50625
 20
5.29625
 30
0.0
 10
-186.50625
 20
5.29625
 30
0.0
 10
-185.73375
 20
3.78125
 30
0.0
 10
-185.73375
 20
3.78125
 30
0.0
 10
-185.73375
 20
3.78125
 30
0.0
 10
-185.73375
 20
3.78125
 30
0.0
 10
-184.49375
 20
1.30125
 30
0.0
 10
-184.49375
 20
1.30125
 30
0.0
 10
-184.49375
 20
1.30125
 30
0.0
 10
-184.49375
 20
1.30125
 30
0.0
 10
-183.28375
 20
-1.50875
 30
0.0
 10
-183.28375
 20
-1.50875
 30
0.0
 10
-183.28375
 20
-1.50875
 30
0.0
 10
-183.28375
 20
-1.50875
 30
0.0
 10
-182.04375
 20
-4.31874
 30
0.0
 10
-182.04375
 20
-4.31874
 30
0.0
 10
-182.04375
 20
-4.31874
 30
0.0
 10
-182.04375
 20
-4.31874
 30
0.0
 10
-181.29875
 20
-6.88125
 30
0.0
 10
-181.29875
 20
-6.88125
 30
0.0
 10
-181.29875
 20
-6.88125
 30
0.0
 10
-181.29875
 20
-6.88125
 30
0.0
 10
-180.44375
 20
-9.16625
 30
0.0
 10
-180.44375
 20
-9.16625
 30
0.0
 10
-180.44375
 20
-9.16625
 30
0.0
 10
-180.44375
 20
-9.16625
 30
0.0
 10
-179.70125
 20
-11.94875
 30
0.0
 10
-179.70125
 20
-11.94875
 30
0.0
 10
-179.70125
 20
-11.94875
 30
0.0
 10
-179.70125
 20
-11.94875
 30
0.0
 10
-179.01125
 20
-15.36625
 30
0.0
 10
-179.01125
 20
-15.36625
 30
0.0
 10
-179.01125
 20
-15.36625
 30
0.0
 10
-179.01125
 20
-15.36625
 30
0.0
 10
-178.62625
 20
-19.08375
 30
0.0
 10
-178.62625
 20
-19.08375
 30
0.0
 10
-178.62625
 20
-19.08375
 30
0.0
 10
-178.62625
 20
-19.08375
 30
0.0
 10
-178.70875
 20
-22.00625
 30
0.0
 10
-178.70875
 20
-22.00625
 30
0.0
 10
-178.70875
 20
-22.00625
 30
0.0
 10
-178.70875
 20
-22.00625
 30
0.0
 10
-179.15125
 20
-25.00875
 30
0.0
 10
-179.15125
 20
-25.00875
 30
0.0
 10
-179.15125
 20
-25.00875
 30
0.0
 10
-179.15125
 20
-25.00875
 30
0.0
 10
-179.64625
 20
-27.23875
 30
0.0
 10
-179.64625
 20
-27.23875
 30
0.0
 10
-179.64625
 20
-27.23875
 30
0.0
 10
-179.64625
 20
-27.23875
 30
0.0
 10
-180.25125
 20
-29.27875
 30
0.0
 10
-180.25125
 20
-29.27875
 30
0.0
 10
-180.25125
 20
-29.27875
 30
0.0
 10
-180.25125
 20
-29.27875
 30
0.0
 10
-180.66625
 20
-30.68375
 30
0.0
 10
-180.66625
 20
-30.68375
 30
0.0
 10
-180.66625
 20
-30.68375
 30
0.0
 10
-180.66625
 20
-30.68375
 30
0.0
 10
-181.32625
 20
-32.50125
 30
0.0
 10
-181.32625
 20
-32.50125
 30
0.0
 10
-181.32625
 20
-32.50125
 30
0.0
 10
-181.32625
 20
-32.50125
 30
0.0
 10
-182.07125
 20
-34.73375
 30
0.0
 10
-182.07125
 20
-34.73375
 30
0.0
 10
-182.07125
 20
-34.73375
 30
0.0
 10
-182.07125
 20
-34.73375
 30
0.0
 10
-182.56625
 20
-36.05625
 30
0.0
 10
-182.56625
 20
-36.05625
 30
0.0
 10
-182.56625
 20
-36.05625
 30
0.0
 10
-182.56625
 20
-36.05625
 30
0.0
 10
-183.17125
 20
-38.03875
 30
0.0
 10
-183.17125
 20
-38.03875
 30
0.0
 10
-183.17125
 20
-38.03875
 30
0.0
 10
-183.17125
 20
-38.03875
 30
0.0
 10
-183.42125
 20
-39.74625
 30
0.0
 10
-183.42125
 20
-39.74625
 30
0.0
 10
-183.42125
 20
-39.74625
 30
0.0
 10
-183.42125
 20
-39.74625
 30
0.0
 10
-183.50375
 20
-41.70375
 30
0.0
 10
-183.50375
 20
-41.70375
 30
0.0
 10
-183.50375
 20
-41.70375
 30
0.0
 10
-183.50375
 20
-41.70375
 30
0.0
 10
-183.44875
 20
-44.62375
 30
0.0
 10
-183.44875
 20
-44.62375
 30
0.0
 10
-183.44875
 20
-44.62375
 30
0.0
 10
-183.44875
 20
-44.62375
 30
0.0
 10
-183.17125
 20
-47.59875
 30
0.0
 10
-183.17125
 20
-47.59875
 30
0.0
 10
-183.17125
 20
-47.59875
 30
0.0
 10
-183.17125
 20
-47.59875
 30
0.0
 10
-182.40125
 20
-50.60875
 30
0.0
 10
-182.40125
 20
-50.60875
 30
0.0
 10
-182.40125
 20
-50.60875
 30
0.0
 10
-182.40125
 20
-50.60875
 30
0.0
 10
-165.97625
 20
-50.60875
 30
0.0
 10
-165.97625
 20
-50.60875
 30
0.0
 10
-165.97625
 20
-50.60875
 30
0.0
 10
-165.97625
 20
-50.60875
 30
0.0
 10
-162.05624
 20
-50.60875
 30
0.0
 10
-162.05624
 20
-50.60875
 30
0.0
 10
-162.05624
 20
-50.60875
 30
0.0
 10
-162.05624
 20
-50.60875
 30
0.0
 10
-160.01375
 20
-50.60875
 30
0.0
 10
-160.01375
 20
-50.60875
 30
0.0
 10
-160.01375
 20
-50.60875
 30
0.0
 10
-160.01375
 20
-50.60875
 30
0.0
 10
-157.88625
 20
-50.60875
 30
0.0
 10
-157.88625
 20
-50.60875
 30
0.0
 10
-157.88625
 20
-50.60875
 30
0.0
 10
-157.88625
 20
-50.60875
 30
0.0
 10
-148.15625
 20
-50.60875
 30
0.0
 10
-148.15625
 20
-50.60875
 30
0.0
 10
-148.15625
 20
-50.60875
 30
0.0
 10
-148.15625
 20
-50.60875
 30
0.0
 10
-147.79875
 20
-48.89375
 30
0.0
 10
-147.79875
 20
-48.89375
 30
0.0
 10
-147.79875
 20
-48.89375
 30
0.0
 10
-147.79875
 20
-48.89375
 30
0.0
 10
-147.55125
 20
-46.60625
 30
0.0
 10
-147.55125
 20
-46.60625
 30
0.0
 10
-147.55125
 20
-46.60625
 30
0.0
 10
-147.55125
 20
-46.60625
 30
0.0
 10
-147.35625
 20
-44.78875
 30
0.0
 10
-147.35625
 20
-44.78875
 30
0.0
 10
-147.35625
 20
-44.78875
 30
0.0
 10
-147.35625
 20
-44.78875
 30
0.0
 10
-147.30125
 20
-43.08125
 30
0.0
 10
-147.30125
 20
-43.08125
 30
0.0
 10
-147.30125
 20
-43.08125
 30
0.0
 10
-147.30125
 20
-43.08125
 30
0.0
 10
-147.30125
 20
-41.12375
 30
0.0
 10
-147.30125
 20
-41.12375
 30
0.0
 10
-147.30125
 20
-41.12375
 30
0.0
 10
-147.30125
 20
-41.12375
 30
0.0
 10
-147.35625
 20
-39.52625
 30
0.0
 10
-147.35625
 20
-39.52625
 30
0.0
 10
-147.35625
 20
-39.52625
 30
0.0
 10
-147.35625
 20
-39.52625
 30
0.0
 10
-147.63375
 20
-37.90125
 30
0.0
 10
-147.63375
 20
-37.90125
 30
0.0
 10
-147.63375
 20
-37.90125
 30
0.0
 10
-147.63375
 20
-37.90125
 30
0.0
 10
-148.37625
 20
-35.50375
 30
0.0
 10
-148.37625
 20
-35.50375
 30
0.0
 10
-148.37625
 20
-35.50375
 30
0.0
 10
-148.37625
 20
-35.50375
 30
0.0
 10
-149.36875
 20
-33.05375
 30
0.0
 10
-149.36875
 20
-33.05375
 30
0.0
 10
-149.36875
 20
-33.05375
 30
0.0
 10
-149.36875
 20
-33.05375
 30
0.0
 10
-150.71875
 20
-29.71875
 30
0.0
 10
-150.71875
 20
-29.71875
 30
0.0
 10
-150.71875
 20
-29.71875
 30
0.0
 10
-150.71875
 20
-29.71875
 30
0.0
 10
-151.54375
 20
-27.26625
 30
0.0
 10
-151.54375
 20
-27.26625
 30
0.0
 10
-151.54375
 20
-27.26625
 30
0.0
 10
-151.54375
 20
-27.26625
 30
0.0
 10
-152.12375
 20
-24.81625
 30
0.0
 10
-152.12375
 20
-24.81625
 30
0.0
 10
-152.12375
 20
-24.81625
 30
0.0
 10
-152.12375
 20
-24.81625
 30
0.0
 10
-152.50875
 20
-23.05125
 30
0.0
 10
-152.50875
 20
-23.05125
 30
0.0
 10
-152.50875
 20
-23.05125
 30
0.0
 10
-152.50875
 20
-23.05125
 30
0.0
 10
-152.72875
 20
-21.09625
 30
0.0
 10
-152.72875
 20
-21.09625
 30
0.0
 10
-152.72875
 20
-21.09625
 30
0.0
 10
-152.72875
 20
-21.09625
 30
0.0
 10
-152.86625
 20
-19.55375
 30
0.0
 10
-152.86625
 20
-19.55375
 30
0.0
 10
-152.86625
 20
-19.55375
 30
0.0
 10
-152.86625
 20
-19.55375
 30
0.0
 10
-152.83875
 20
-17.92875
 30
0.0
 10
-152.83875
 20
-17.92875
 30
0.0
 10
-152.83875
 20
-17.92875
 30
0.0
 10
-152.83875
 20
-17.92875
 30
0.0
 10
-152.78375
 20
-16.10875
 30
0.0
 10
-152.78375
 20
-16.10875
 30
0.0
 10
-152.78375
 20
-16.10875
 30
0.0
 10
-152.78375
 20
-16.10875
 30
0.0
 10
-152.53624
 20
-13.79625
 30
0.0
 10
-152.53624
 20
-13.79625
 30
0.0
 10
-152.53624
 20
-13.79625
 30
0.0
 10
-152.53624
 20
-13.79625
 30
0.0
 10
-152.06875
 20
-11.17875
 30
0.0
 10
-152.06875
 20
-11.17875
 30
0.0
 10
-152.06875
 20
-11.17875
 30
0.0
 10
-152.06875
 20
-11.17875
 30
0.0
 10
-151.54375
 20
-9.11125
 30
0.0
 10
-151.54375
 20
-9.11125
 30
0.0
 10
-151.54375
 20
-9.11125
 30
0.0
 10
-151.54375
 20
-9.11125
 30
0.0
 10
-150.91125
 20
-6.88125
 30
0.0
 10
-150.91125
 20
-6.88125
 30
0.0
 10
-150.91125
 20
-6.88125
 30
0.0
 10
-150.91125
 20
-6.88125
 30
0.0
 10
-150.22375
 20
-4.86875
 30
0.0
 10
-150.22375
 20
-4.86875
 30
0.0
 10
-150.22375
 20
-4.86875
 30
0.0
 10
-150.22375
 20
-4.86875
 30
0.0
 10
-149.47875
 20
-2.52625
 30
0.0
 10
-149.47875
 20
-2.52625
 30
0.0
 10
-149.47875
 20
-2.52625
 30
0.0
 10
-149.47875
 20
-2.52625
 30
0.0
 10
-148.54125
 20
-0.24124
 30
0.0
 10
-148.54125
 20
-0.24124
 30
0.0
 10
-148.54125
 20
-0.24124
 30
0.0
 10
-148.54125
 20
-0.24124
 30
0.0
 10
-147.57875
 20
2.12875
 30
0.0
 10
-147.57875
 20
2.12875
 30
0.0
 10
-147.57875
 20
2.12875
 30
0.0
 10
-147.57875
 20
2.12875
 30
0.0
 10
-146.53125
 20
4.55375
 30
0.0
 10
-146.53125
 20
4.55375
 30
0.0
 10
-146.53125
 20
4.55375
 30
0.0
 10
-146.53125
 20
4.55375
 30
0.0
 10
-145.89625
 20
5.79375
 30
0.0
 10
-145.89625
 20
5.79375
 30
0.0
 10
-145.89625
 20
5.79375
 30
0.0
 10
-145.89625
 20
5.79375
 30
0.0
 10
-144.32625
 20
9.34625
 30
0.0
 10
-144.32625
 20
9.34625
 30
0.0
 10
-144.32625
 20
9.34625
 30
0.0
 10
-144.32625
 20
9.34625
 30
0.0
 10
-188.38625
 20
9.39125
 30
0.0
 10
-188.38625
 20
9.39125
 30
0.0
  0
SPLINE
  5
45
330
1F
100
AcDbEntity
  8
Capa 1
 62
   240
370
    35
100
AcDbSpline
210
0.0
220
0.0
230
1.0
 70
    24
 71
     3
 72
     8
 73
     4
 74
     0
 42
0.0000000001
 43
0.0000000001
 12
1.0
 22
0.0
 32
0.0
 13
1.0
 23
0.0
 33
0.0
 40
0.0
 40
0.0
 40
0.0
 40
0.0
 40
1.0
 40
1.0
 40
1.0
 40
1.0
 10
-195.98375
 20
-45.35875
 30
0.0
 10
-195.98375
 20
-45.35875
 30
0.0
 10
-228.67875
 20
-45.35125
 30
0.0
 10
-228.67875
 20
-45.35125
 30
0.0
  0
SPLINE
  5
46
330
1F
100
AcDbEntity
  8
Capa 1
 62
   175
370
    35
100
AcDbSpline
210
0.0
220
0.0
230
1.0
 70
    11
 71
     3
 72
   100
 73
    96
 74
     0
 42
0.0000000001
 43
0.0000000001
 12
1.0
 22
0.0
 32
0.0
 13
1.0
 23
0.0
 33
0.0
 40
0.0
 40
0.0
 40
0.0
 40
0.0
 40
0.04
 40
0.04
 40
0.04
 40
0.04
 40
0.08
 40
0.08
 40
0.08
 40
0.08
 40
0.12
 40
0.12
 40
0.12
 40
0.12
 40
0.16
 40
0.16
 40
0.16
 40
0.16
 40
0.2
 40
0.2
 40
0.2
 40
0.2
 40
0.24
 40
0.24
 40
0.24
 40
0.24
 40
0.28
 40
0.28
 40
0.28
 40
0.28
 40
0.32
 40
0.32
 40
0.32
 40
0.32
 40
0.36
 40
0.36
 40
0.36
 40
0.36
 40
0.4
 40
0.4
 40
0.4
 40
0.4
 40
0.44
 40
0.44
 40
0.44
 40
0.44
 40
0.48
 40
0.48
 40
0.48
 40
0.48
 40
0.52
 40
0.52
 40
0.52
 40
0.52
 40
0.56
 40
0.56
 40
0.56
 40
0.56
 40
0.6
 40
0.6
 40
0.6
 40
0.6
 40
0.64
 40
0.64
 40
0.64
 40
0.64
 40
0.68
 40
0.68
 40
0.68
 40
0.68
 40
0.72
 40
0.72
 40
0.72
 40
0.72
 40
0.76
 40
0.76
 40
0.76
 40
0.76
 40
0.8
 40
0.8
 40
0.8
 40
0.8
 40
0.84
 40
0.84
 40
0.84
 40
0.84
 40
0.88
 40
0.88
 40
0.88
 40
0.88
 40
0.92
 40
0.92
 40
0.92
 40
0.92
 40
1.0
 40
1.0
 40
1.0
 40
1.0
 10
-226.69125
 20
-41.35375
 30
0.0
 10
-226.69125
 20
-41.35375
 30
0.0
 10
-214.17625
 20
-44.26875
 30
0.0
 10
-214.17625
 20
-44.26875
 30
0.0
 10
-214.17625
 20
-44.26875
 30
0.0
 10
-214.17625
 20
-44.26875
 30
0.0
 10
-198.16625
 20
-40.56625
 30
0.0
 10
-198.16625
 20
-40.56625
 30
0.0
 10
-198.16625
 20
-40.56625
 30
0.0
 10
-198.16625
 20
-40.56625
 30
0.0
 10
-198.01875
 20
-39.89625
 30
0.0
 10
-198.01875
 20
-39.89625
 30
0.0
 10
-198.01875
 20
-39.89625
 30
0.0
 10
-198.01875
 20
-39.89625
 30
0.0
 10
-198.26125
 20
-36.97875
 30
0.0
 10
-198.26125
 20
-36.97875
 30
0.0
 10
-198.26125
 20
-36.97875
 30
0.0
 10
-198.26125
 20
-36.97875
 30
0.0
 10
-199.47625
 20
-33.69875
 30
0.0
 10
-199.47625
 20
-33.69875
 30
0.0
 10
-199.47625
 20
-33.69875
 30
0.0
 10
-199.47625
 20
-33.69875
 30
0.0
 10
-200.69125
 20
-30.66375
 30
0.0
 10
-200.69125
 20
-30.66375
 30
0.0
 10
-200.69125
 20
-30.66375
 30
0.0
 10
-200.69125
 20
-30.66375
 30
0.0
 10
-202.02875
 20
-27.86875
 30
0.0
 10
-202.02875
 20
-27.86875
 30
0.0
 10
-202.02875
 20
-27.86875
 30
0.0
 10
-202.02875
 20
-27.86875
 30
0.0
 10
-202.87875
 20
-23.98125
 30
0.0
 10
-202.87875
 20
-23.98125
 30
0.0
 10
-202.87875
 20
-23.98125
 30
0.0
 10
-202.87875
 20
-23.98125
 30
0.0
 10
-203.36375
 20
-20.94375
 30
0.0
 10
-203.36375
 20
-20.94375
 30
0.0
 10
-203.36375
 20
-20.94375
 30
0.0
 10
-203.36375
 20
-20.94375
 30
0.0
 10
-203.72875
 20
-18.02875
 30
0.0
 10
-203.72875
 20
-18.02875
 30
0.0
 10
-203.72875
 20
-18.02875
 30
0.0
 10
-203.72875
 20
-18.02875
 30
0.0
 10
-203.97125
 20
-15.47625
 30
0.0
 10
-203.97125
 20
-15.47625
 30
0.0
 10
-203.97125
 20
-15.47625
 30
0.0
 10
-203.97125
 20
-15.47625
 30
0.0
 10
-204.21625
 20
-12.92375
 30
0.0
 10
-204.21625
 20
-12.92375
 30
0.0
 10
-204.21625
 20
-12.92375
 30
0.0
 10
-204.21625
 20
-12.92375
 30
0.0
 10
-204.21625
 20
-10.61625
 30
0.0
 10
-204.21625
 20
-10.61625
 30
0.0
 10
-204.21625
 20
-10.61625
 30
0.0
 10
-204.21625
 20
-10.61625
 30
0.0
 10
-215.14875
 20
-13.77625
 30
0.0
 10
-215.14875
 20
-13.77625
 30
0.0
 10
-215.14875
 20
-13.77625
 30
0.0
 10
-215.14875
 20
-13.77625
 30
0.0
 10
-221.95375
 20
-11.10375
 30
0.0
 10
-221.95375
 20
-11.10375
 30
0.0
 10
-221.95375
 20
-11.10375
 30
0.0
 10
-221.95375
 20
-11.10375
 30
0.0
 10
-221.70875
 20
-13.89625
 30
0.0
 10
-221.70875
 20
-13.89625
 30
0.0
 10
-221.70875
 20
-13.89625
 30
0.0
 10
-221.70875
 20
-13.89625
 30
0.0
 10
-221.70875
 20
-17.54125
 30
0.0
 10
-221.70875
 20
-17.54125
 30
0.0
 10
-221.70875
 20
-17.54125
 30
0.0
 10
-221.70875
 20
-17.54125
 30
0.0
 10
-222.07375
 20
-20.82125
 30
0.0
 10
-222.07375
 20
-20.82125
 30
0.0
 10
-222.07375
 20
-20.82125
 30
0.0
 10
-222.07375
 20
-20.82125
 30
0.0
 10
-222.56125
 20
-23.73875
 30
0.0
 10
-222.56125
 20
-23.73875
 30
0.0
 10
-222.56125
 20
-23.73875
 30
0.0
 10
-222.56125
 20
-23.73875
 30
0.0
 10
-223.41125
 20
-26.89625
 30
0.0
 10
-223.41125
 20
-26.89625
 30
0.0
 10
-223.41125
 20
-26.89625
 30
0.0
 10
-223.41125
 20
-26.89625
 30
0.0
 10
-225.11125
 20
-33.09125
 30
0.0
 10
-225.11125
 20
-33.09125
 30
0.0
 10
-225.11125
 20
-33.09125
 30
0.0
 10
-225.11125
 20
-33.09125
 30
0.0
 10
-225.96125
 20
-36.49375
 30
0.0
 10
-225.96125
 20
-36.49375
 30
0.0
 10
-225.96125
 20
-36.49375
 30
0.0
 10
-225.96125
 20
-36.49375
 30
0.0
 10
-226.56875
 20
-39.53125
 30
0.0
 10
-226.56875
 20
-39.53125
 30
0.0
 10
-226.56875
 20
-39.53125
 30
0.0
 10
-226.56875
 20
-39.53125
 30
0.0
 10
-226.69125
 20
-41.35375
 30
0.0
 10
-226.69125
 20
-41.35375
 30
0.0
  0
SPLINE
  5
47
330
1F
100
AcDbEntity
  8
Capa 1
 62
   240
370
    35
100
AcDbSpline
210
0.0
220
0.0
230
1.0
 70
     8
 71
     3
 72
    88
 73
    84
 74
     0
 42
0.0000000001
 43
0.0000000001
 12
1.0
 22
0.0
 32
0.0
 13
1.0
 23
0.0
 33
0.0
 40
0.0
 40
0.0
 40
0.0
 40
0.0
 40
0.0454545454545455
 40
0.0454545454545455
 40
0.0454545454545455
 40
0.0454545454545455
 40
0.0909090909090909
 40
0.0909090909090909
 40
0.0909090909090909
 40
0.0909090909090909
 40
0.1363636363636364
 40
0.1363636363636364
 40
0.1363636363636364
 40
0.1363636363636364
 40
0.1818181818181818
 40
0.1818181818181818
 40
0.1818181818181818
 40
0.1818181818181818
 40
0.2272727272727273
 40
0.2272727272727273
 40
0.2272727272727273
 40
0.2272727272727273
 40
0.2727272727272727
 40
0.2727272727272727
 40
0.2727272727272727
 40
0.2727272727272727
 40
0.3181818181818182
 40
0.3181818181818182
 40
0.3181818181818182
 40
0.3181818181818182
 40
0.3636363636363636
 40
0.3636363636363636
 40
0.3636363636363636
 40
0.3636363636363636
 40
0.4090909090909091
 40
0.4090909090909091
 40
0.4090909090909091
 40
0.4090909090909091
 40
0.4545454545454545
 40
0.4545454545454545
 40
0.4545454545454545
 40
0.4545454545454545
 40
0.5
 40
0.5
 40
0.5
 40
0.5
 40
0.5454545454545454
 40
0.5454545454545454
 40
0.5454545454545454
 40
0.5454545454545454
 40
0.5909090909090909
 40
0.5909090909090909
 40
0.5909090909090909
 40
0.5909090909090909
 40
0.6363636363636364
 40
0.6363636363636364
 40
0.6363636363636364
 40
0.6363636363636364
 40
0.6818181818181818
 40
0.6818181818181818
 40
0.6818181818181818
 40
0.6818181818181818
 40
0.7272727272727273
 40
0.7272727272727273
 40
0.7272727272727273
 40
0.7272727272727273
 40
0.7727272727272727
 40
0.7727272727272727
 40
0.7727272727272727
 40
0.7727272727272727
 40
0.8181818181818182
 40
0.8181818181818182
 40
0.8181818181818182
 40
0.8181818181818182
 40
0.8636363636363636
 40
0.8636363636363636
 40
0.8636363636363636
 40
0.8636363636363636
 40
0.9090909090909091
 40
0.9090909090909091
 40
0.9090909090909091
 40
0.9090909090909091
 40
1.0
 40
1.0
 40
1.0
 40
1.0
 10
-233.79625
 20
10.65375
 30
0.0
 10
-233.79625
 20
10.65375
 30
0.0
 10
-233.11375
 20
9.05124
 30
0.0
 10
-233.11375
 20
9.05124
 30
0.0
 10
-233.11375
 20
9.05124
 30
0.0
 10
-233.11375
 20
9.05124
 30
0.0
 10
-231.15125
 20
5.05625
 30
0.0
 10
-231.15125
 20
5.05625
 30
0.0
 10
-231.15125
 20
5.05625
 30
0.0
 10
-231.15125
 20
5.05625
 30
0.0
 10
-229.91125
 20
2.57874
 30
0.0
 10
-229.91125
 20
2.57874
 30
0.0
 10
-229.91125
 20
2.57874
 30
0.0
 10
-229.91125
 20
2.57874
 30
0.0
 10
-227.45875
 20
-3.04374
 30
0.0
 10
-227.45875
 20
-3.04374
 30
0.0
 10
-227.45875
 20
-3.04374
 30
0.0
 10
-227.45875
 20
-3.04374
 30
0.0
 10
-226.71375
 20
-5.60375
 30
0.0
 10
-226.71375
 20
-5.60375
 30
0.0
 10
-226.71375
 20
-5.60375
 30
0.0
 10
-226.71375
 20
-5.60375
 30
0.0
 10
-225.86125
 20
-7.89125
 30
0.0
 10
-225.86125
 20
-7.89125
 30
0.0
 10
-225.86125
 20
-7.89125
 30
0.0
 10
-225.86125
 20
-7.89125
 30
0.0
 10
-225.11625
 20
-10.67375
 30
0.0
 10
-225.11625
 20
-10.67375
 30
0.0
 10
-225.11625
 20
-10.67375
 30
0.0
 10
-225.11625
 20
-10.67375
 30
0.0
 10
-224.42875
 20
-14.09125
 30
0.0
 10
-224.42875
 20
-14.09125
 30
0.0
 10
-224.42875
 20
-14.09125
 30
0.0
 10
-224.42875
 20
-14.09125
 30
0.0
 10
-224.04125
 20
-17.80875
 30
0.0
 10
-224.04125
 20
-17.80875
 30
0.0
 10
-224.04125
 20
-17.80875
 30
0.0
 10
-224.04125
 20
-17.80875
 30
0.0
 10
-224.12375
 20
-20.72875
 30
0.0
 10
-224.12375
 20
-20.72875
 30
0.0
 10
-224.12375
 20
-20.72875
 30
0.0
 10
-224.12375
 20
-20.72875
 30
0.0
 10
-224.56625
 20
-23.73375
 30
0.0
 10
-224.56625
 20
-23.73375
 30
0.0
 10
-224.56625
 20
-23.73375
 30
0.0
 10
-224.56625
 20
-23.73375
 30
0.0
 10
-225.06125
 20
-25.96375
 30
0.0
 10
-225.06125
 20
-25.96375
 30
0.0
 10
-225.06125
 20
-25.96375
 30
0.0
 10
-225.06125
 20
-25.96375
 30
0.0
 10
-226.08125
 20
-29.40875
 30
0.0
 10
-226.08125
 20
-29.40875
 30
0.0
 10
-226.08125
 20
-29.40875
 30
0.0
 10
-226.08125
 20
-29.40875
 30
0.0
 10
-226.74125
 20
-31.22625
 30
0.0
 10
-226.74125
 20
-31.22625
 30
0.0
 10
-226.74125
 20
-31.22625
 30
0.0
 10
-226.74125
 20
-31.22625
 30
0.0
 10
-227.48625
 20
-33.45875
 30
0.0
 10
-227.48625
 20
-33.45875
 30
0.0
 10
-227.48625
 20
-33.45875
 30
0.0
 10
-227.48625
 20
-33.45875
 30
0.0
 10
-227.98125
 20
-34.78125
 30
0.0
 10
-227.98125
 20
-34.78125
 30
0.0
 10
-227.98125
 20
-34.78125
 30
0.0
 10
-227.98125
 20
-34.78125
 30
0.0
 10
-228.58875
 20
-36.76374
 30
0.0
 10
-228.58875
 20
-36.76374
 30
0.0
 10
-228.58875
 20
-36.76374
 30
0.0
 10
-228.58875
 20
-36.76374
 30
0.0
 10
-228.83625
 20
-38.47124
 30
0.0
 10
-228.83625
 20
-38.47124
 30
0.0
 10
-228.83625
 20
-38.47124
 30
0.0
 10
-228.83625
 20
-38.47124
 30
0.0
 10
-228.91875
 20
-40.42875
 30
0.0
 10
-228.91875
 20
-40.42875
 30
0.0
 10
-228.91875
 20
-40.42875
 30
0.0
 10
-228.91875
 20
-40.42875
 30
0.0
 10
-228.86375
 20
-43.34875
 30
0.0
 10
-228.86375
 20
-43.34875
 30
0.0
 10
-228.86375
 20
-43.34875
 30
0.0
 10
-228.86375
 20
-43.34875
 30
0.0
 10
-228.51125
 20
-47.29375
 30
0.0
 10
-228.51125
 20
-47.29375
 30
0.0
  0
SPLINE
  5
48
330
1F
100
AcDbEntity
  8
Capa 1
 62
   240
370
    35
100
AcDbSpline
210
0.0
220
0.0
230
1.0
 70
     8
 71
     3
 72
    88
 73
    84
 74
     0
 42
0.0000000001
 43
0.0000000001
 12
1.0
 22
0.0
 32
0.0
 13
1.0
 23
0.0
 33
0.0
 40
0.0
 40
0.0
 40
0.0
 40
0.0
 40
0.0454545454545455
 40
0.0454545454545455
 40
0.0454545454545455
 40
0.0454545454545455
 40
0.0909090909090909
 40
0.0909090909090909
 40
0.0909090909090909
 40
0.0909090909090909
 40
0.1363636363636364
 40
0.1363636363636364
 40
0.1363636363636364
 40
0.1363636363636364
 40
0.1818181818181818
 40
0.1818181818181818
 40
0.1818181818181818
 40
0.1818181818181818
 40
0.2272727272727273
 40
0.2272727272727273
 40
0.2272727272727273
 40
0.2272727272727273
 40
0.2727272727272727
 40
0.2727272727272727
 40
0.2727272727272727
 40
0.2727272727272727
 40
0.3181818181818182
 40
0.3181818181818182
 40
0.3181818181818182
 40
0.3181818181818182
 40
0.3636363636363636
 40
0.3636363636363636
 40
0.3636363636363636
 40
0.3636363636363636
 40
0.4090909090909091
 40
0.4090909090909091
 40
0.4090909090909091
 40
0.4090909090909091
 40
0.4545454545454545
 40
0.4545454545454545
 40
0.4545454545454545
 40
0.4545454545454545
 40
0.5
 40
0.5
 40
0.5
 40
0.5
 40
0.5454545454545454
 40
0.5454545454545454
 40
0.5454545454545454
 40
0.5454545454545454
 40
0.5909090909090909
 40
0.5909090909090909
 40
0.5909090909090909
 40
0.5909090909090909
 40
0.6363636363636364
 40
0.6363636363636364
 40
0.6363636363636364
 40
0.6363636363636364
 40
0.6818181818181818
 40
0.6818181818181818
 40
0.6818181818181818
 40
0.6818181818181818
 40
0.7272727272727273
 40
0.7272727272727273
 40
0.7272727272727273
 40
0.7272727272727273
 40
0.7727272727272727
 40
0.7727272727272727
 40
0.7727272727272727
 40
0.7727272727272727
 40
0.8181818181818182
 40
0.8181818181818182
 40
0.8181818181818182
 40
0.8181818181818182
 40
0.8636363636363636
 40
0.8636363636363636
 40
0.8636363636363636
 40
0.8636363636363636
 40
0.9090909090909091
 40
0.9090909090909091
 40
0.9090909090909091
 40
0.9090909090909091
 40
1.0
 40
1.0
 40
1.0
 40
1.0
 10
-196.19875
 20
-47.27625
 30
0.0
 10
-196.19875
 20
-47.27625
 30
0.0
 10
-195.78625
 20
-43.51875
 30
0.0
 10
-195.78625
 20
-43.51875
 30
0.0
 10
-195.78625
 20
-43.51875
 30
0.0
 10
-195.78625
 20
-43.51875
 30
0.0
 10
-195.73125
 20
-41.81125
 30
0.0
 10
-195.73125
 20
-41.81125
 30
0.0
 10
-195.73125
 20
-41.81125
 30
0.0
 10
-195.73125
 20
-41.81125
 30
0.0
 10
-195.73125
 20
-39.85625
 30
0.0
 10
-195.73125
 20
-39.85625
 30
0.0
 10
-195.73125
 20
-39.85625
 30
0.0
 10
-195.73125
 20
-39.85625
 30
0.0
 10
-195.78625
 20
-38.25625
 30
0.0
 10
-195.78625
 20
-38.25625
 30
0.0
 10
-195.78625
 20
-38.25625
 30
0.0
 10
-195.78625
 20
-38.25625
 30
0.0
 10
-196.06125
 20
-36.63125
 30
0.0
 10
-196.06125
 20
-36.63125
 30
0.0
 10
-196.06125
 20
-36.63125
 30
0.0
 10
-196.06125
 20
-36.63125
 30
0.0
 10
-196.80375
 20
-34.23375
 30
0.0
 10
-196.80375
 20
-34.23375
 30
0.0
 10
-196.80375
 20
-34.23375
 30
0.0
 10
-196.80375
 20
-34.23375
 30
0.0
 10
-199.14625
 20
-28.44875
 30
0.0
 10
-199.14625
 20
-28.44875
 30
0.0
 10
-199.14625
 20
-28.44875
 30
0.0
 10
-199.14625
 20
-28.44875
 30
0.0
 10
-199.97375
 20
-25.99875
 30
0.0
 10
-199.97375
 20
-25.99875
 30
0.0
 10
-199.97375
 20
-25.99875
 30
0.0
 10
-199.97375
 20
-25.99875
 30
0.0
 10
-200.93625
 20
-21.78125
 30
0.0
 10
-200.93625
 20
-21.78125
 30
0.0
 10
-200.93625
 20
-21.78125
 30
0.0
 10
-200.93625
 20
-21.78125
 30
0.0
 10
-201.29625
 20
-18.28375
 30
0.0
 10
-201.29625
 20
-18.28375
 30
0.0
 10
-201.29625
 20
-18.28375
 30
0.0
 10
-201.29625
 20
-18.28375
 30
0.0
 10
-201.21375
 20
-14.83875
 30
0.0
 10
-201.21375
 20
-14.83875
 30
0.0
 10
-201.21375
 20
-14.83875
 30
0.0
 10
-201.21375
 20
-14.83875
 30
0.0
 10
-200.96375
 20
-12.52625
 30
0.0
 10
-200.96375
 20
-12.52625
 30
0.0
 10
-200.96375
 20
-12.52625
 30
0.0
 10
-200.96375
 20
-12.52625
 30
0.0
 10
-200.49625
 20
-9.90875
 30
0.0
 10
-200.49625
 20
-9.90875
 30
0.0
 10
-200.49625
 20
-9.90875
 30
0.0
 10
-200.49625
 20
-9.90875
 30
0.0
 10
-199.97375
 20
-7.84125
 30
0.0
 10
-199.97375
 20
-7.84125
 30
0.0
 10
-199.97375
 20
-7.84125
 30
0.0
 10
-199.97375
 20
-7.84125
 30
0.0
 10
-199.33875
 20
-5.61125
 30
0.0
 10
-199.33875
 20
-5.61125
 30
0.0
 10
-199.33875
 20
-5.61125
 30
0.0
 10
-199.33875
 20
-5.61125
 30
0.0
 10
-198.65125
 20
-3.59875
 30
0.0
 10
-198.65125
 20
-3.59875
 30
0.0
 10
-198.65125
 20
-3.59875
 30
0.0
 10
-198.65125
 20
-3.59875
 30
0.0
 10
-197.90625
 20
-1.25874
 30
0.0
 10
-197.90625
 20
-1.25874
 30
0.0
 10
-197.90625
 20
-1.25874
 30
0.0
 10
-197.90625
 20
-1.25874
 30
0.0
 10
-196.00625
 20
3.39875
 30
0.0
 10
-196.00625
 20
3.39875
 30
0.0
 10
-196.00625
 20
3.39875
 30
0.0
 10
-196.00625
 20
3.39875
 30
0.0
 10
-194.95875
 20
5.82375
 30
0.0
 10
-194.95875
 20
5.82375
 30
0.0
 10
-194.95875
 20
5.82375
 30
0.0
 10
-194.95875
 20
5.82375
 30
0.0
 10
-194.32625
 20
7.06125
 30
0.0
 10
-194.32625
 20
7.06125
 30
0.0
 10
-194.32625
 20
7.06125
 30
0.0
 10
-194.32625
 20
7.06125
 30
0.0
 10
-192.75375
 20
10.61625
 30
0.0
 10
-192.75375
 20
10.61625
 30
0.0
  0
SPLINE
  5
49
330
1F
100
AcDbEntity
  8
Capa 1
 62
   175
370
    35
100
AcDbSpline
210
0.0
220
0.0
230
1.0
 70
    11
 71
     3
 72
    76
 73
    72
 74
     0
 42
0.0000000001
 43
0.0000000001
 12
1.0
 22
0.0
 32
0.0
 13
1.0
 23
0.0
 33
0.0
 40
0.0
 40
0.0
 40
0.0
 40
0.0
 40
0.0526315789473684
 40
0.0526315789473684
 40
0.0526315789473684
 40
0.0526315789473684
 40
0.1052631578947368
 40
0.1052631578947368
 40
0.1052631578947368
 40
0.1052631578947368
 40
0.1578947368421053
 40
0.1578947368421053
 40
0.1578947368421053
 40
0.1578947368421053
 40
0.2105263157894737
 40
0.2105263157894737
 40
0.2105263157894737
 40
0.2105263157894737
 40
0.2631578947368421
 40
0.2631578947368421
 40
0.2631578947368421
 40
0.2631578947368421
 40
0.3157894736842105
 40
0.3157894736842105
 40
0.3157894736842105
 40
0.3157894736842105
 40
0.3684210526315789
 40
0.3684210526315789
 40
0.3684210526315789
 40
0.3684210526315789
 40
0.4210526315789473
 40
0.4210526315789473
 40
0.4210526315789473
 40
0.4210526315789473
 40
0.4736842105263158
 40
0.4736842105263158
 40
0.4736842105263158
 40
0.4736842105263158
 40
0.5263157894736842
 40
0.5263157894736842
 40
0.5263157894736842
 40
0.5263157894736842
 40
0.5789473684210527
 40
0.5789473684210527
 40
0.5789473684210527
 40
0.5789473684210527
 40
0.631578947368421
 40
0.631578947368421
 40
0.631578947368421
 40
0.631578947368421
 40
0.6842105263157895
 40
0.6842105263157895
 40
0.6842105263157895
 40
0.6842105263157895
 40
0.7368421052631579
 40
0.7368421052631579
 40
0.7368421052631579
 40
0.7368421052631579
 40
0.7894736842105263
 40
0.7894736842105263
 40
0.7894736842105263
 40
0.7894736842105263
 40
0.8421052631578947
 40
0.8421052631578947
 40
0.8421052631578947
 40
0.8421052631578947
 40
0.8947368421052632
 40
0.8947368421052632
 40
0.8947368421052632
 40
0.8947368421052632
 40
1.0
 40
1.0
 40
1.0
 40
1.0
 10
-229.30875
 20
6.91125
 30
0.0
 10
-229.30875
 20
6.91125
 30
0.0
 10
-197.94375
 20
6.75874
 30
0.0
 10
-197.94375
 20
6.75874
 30
0.0
 10
-197.94375
 20
6.75874
 30
0.0
 10
-197.94375
 20
6.75874
 30
0.0
 10
-198.76875
 20
5.18875
 30
0.0
 10
-198.76875
 20
5.18875
 30
0.0
 10
-198.76875
 20
5.18875
 30
0.0
 10
-198.76875
 20
5.18875
 30
0.0
 10
-199.59625
 20
3.64625
 30
0.0
 10
-199.59625
 20
3.64625
 30
0.0
 10
-199.59625
 20
3.64625
 30
0.0
 10
-199.59625
 20
3.64625
 30
0.0
 10
-200.64375
 20
1.49624
 30
0.0
 10
-200.64375
 20
1.49624
 30
0.0
 10
-200.64375
 20
1.49624
 30
0.0
 10
-200.64375
 20
1.49624
 30
0.0
 10
-201.41375
 20
-0.32124
 30
0.0
 10
-201.41375
 20
-0.32124
 30
0.0
 10
-201.41375
 20
-0.32124
 30
0.0
 10
-201.41375
 20
-0.32124
 30
0.0
 10
-202.04875
 20
-1.80874
 30
0.0
 10
-202.04875
 20
-1.80874
 30
0.0
 10
-202.04875
 20
-1.80874
 30
0.0
 10
-202.04875
 20
-1.80874
 30
0.0
 10
-202.57125
 20
-3.18625
 30
0.0
 10
-202.57125
 20
-3.18625
 30
0.0
 10
-202.57125
 20
-3.18625
 30
0.0
 10
-202.57125
 20
-3.18625
 30
0.0
 10
-203.42625
 20
-5.80375
 30
0.0
 10
-203.42625
 20
-5.80375
 30
0.0
 10
-203.42625
 20
-5.80375
 30
0.0
 10
-203.42625
 20
-5.80375
 30
0.0
 10
-203.83875
 20
-7.51125
 30
0.0
 10
-203.83875
 20
-7.51125
 30
0.0
 10
-203.83875
 20
-7.51125
 30
0.0
 10
-203.83875
 20
-7.51125
 30
0.0
 10
-205.13375
 20
-7.70375
 30
0.0
 10
-205.13375
 20
-7.70375
 30
0.0
 10
-205.13375
 20
-7.70375
 30
0.0
 10
-205.13375
 20
-7.70375
 30
0.0
 10
-206.73125
 20
-8.03625
 30
0.0
 10
-206.73125
 20
-8.03625
 30
0.0
 10
-206.73125
 20
-8.03625
 30
0.0
 10
-206.73125
 20
-8.03625
 30
0.0
 10
-215.32625
 20
-9.46875
 30
0.0
 10
-215.32625
 20
-9.46875
 30
0.0
 10
-215.32625
 20
-9.46875
 30
0.0
 10
-215.32625
 20
-9.46875
 30
0.0
 10
-222.40875
 20
-7.34625
 30
0.0
 10
-222.40875
 20
-7.34625
 30
0.0
 10
-222.40875
 20
-7.34625
 30
0.0
 10
-222.40875
 20
-7.34625
 30
0.0
 10
-223.45375
 20
-4.75625
 30
0.0
 10
-223.45375
 20
-4.75625
 30
0.0
 10
-223.45375
 20
-4.75625
 30
0.0
 10
-223.45375
 20
-4.75625
 30
0.0
 10
-224.76625
 20
-1.70625
 30
0.0
 10
-224.76625
 20
-1.70625
 30
0.0
 10
-224.76625
 20
-1.70625
 30
0.0
 10
-224.76625
 20
-1.70625
 30
0.0
 10
-226.15125
 20
1.17374
 30
0.0
 10
-226.15125
 20
1.17374
 30
0.0
 10
-226.15125
 20
1.17374
 30
0.0
 10
-226.15125
 20
1.17374
 30
0.0
 10
-227.64875
 20
4.00625
 30
0.0
 10
-227.64875
 20
4.00625
 30
0.0
 10
-227.64875
 20
4.00625
 30
0.0
 10
-227.64875
 20
4.00625
 30
0.0
 10
-229.30875
 20
6.91125
 30
0.0
 10
-229.30875
 20
6.91125
 30
0.0
  0
SPLINE
  5
4A
330
1F
100
AcDbEntity
  8
Capa 1
 62
   250
370
    35
100
AcDbSpline
210
0.0
220
0.0
230
1.0
 70
    11
 71
     3
 72
   252
 73
   248
 74
     0
 42
0.0000000001
 43
0.0000000001
 12
1.0
 22
0.0
 32
0.0
 13
1.0
 23
0.0
 33
0.0
 40
0.0
 40
0.0
 40
0.0
 40
0.0
 40
0.0158730158730159
 40
0.0158730158730159
 40
0.0158730158730159
 40
0.0158730158730159
 40
0.0317460317460317
 40
0.0317460317460317
 40
0.0317460317460317
 40
0.0317460317460317
 40
0.0476190476190476
 40
0.0476190476190476
 40
0.0476190476190476
 40
0.0476190476190476
 40
0.0634920634920635
 40
0.0634920634920635
 40
0.0634920634920635
 40
0.0634920634920635
 40
0.0793650793650794
 40
0.0793650793650794
 40
0.0793650793650794
 40
0.0793650793650794
 40
0.0952380952380952
 40
0.0952380952380952
 40
0.0952380952380952
 40
0.0952380952380952
 40
0.1111111111111111
 40
0.1111111111111111
 40
0.1111111111111111
 40
0.1111111111111111
 40
0.126984126984127
 40
0.126984126984127
 40
0.126984126984127
 40
0.126984126984127
 40
0.1428571428571428
 40
0.1428571428571428
 40
0.1428571428571428
 40
0.1428571428571428
 40
0.1587301587301587
 40
0.1587301587301587
 40
0.1587301587301587
 40
0.1587301587301587
 40
0.1746031746031746
 40
0.1746031746031746
 40
0.1746031746031746
 40
0.1746031746031746
 40
0.1904761904761905
 40
0.1904761904761905
 40
0.1904761904761905
 40
0.1904761904761905
 40
0.2063492063492063
 40
0.2063492063492063
 40
0.2063492063492063
 40
0.2063492063492063
 40
0.2222222222222222
 40
0.2222222222222222
 40
0.2222222222222222
 40
0.2222222222222222
 40
0.2380952380952381
 40
0.2380952380952381
 40
0.2380952380952381
 40
0.2380952380952381
 40
0.253968253968254
 40
0.253968253968254
 40
0.253968253968254
 40
0.253968253968254
 40
0.2698412698412698
 40
0.2698412698412698
 40
0.2698412698412698
 40
0.2698412698412698
 40
0.2857142857142857
 40
0.2857142857142857
 40
0.2857142857142857
 40
0.2857142857142857
 40
0.3015873015873016
 40
0.3015873015873016
 40
0.3015873015873016
 40
0.3015873015873016
 40
0.3174603174603174
 40
0.3174603174603174
 40
0.3174603174603174
 40
0.3174603174603174
 40
0.3333333333333333
 40
0.3333333333333333
 40
0.3333333333333333
 40
0.3333333333333333
 40
0.3492063492063492
 40
0.3492063492063492
 40
0.3492063492063492
 40
0.3492063492063492
 40
0.3650793650793651
 40
0.3650793650793651
 40
0.3650793650793651
 40
0.3650793650793651
 40
0.3809523809523809
 40
0.3809523809523809
 40
0.3809523809523809
 40
0.3809523809523809
 40
0.3968253968253968
 40
0.3968253968253968
 40
0.3968253968253968
 40
0.3968253968253968
 40
0.4126984126984127
 40
0.4126984126984127
 40
0.4126984126984127
 40
0.4126984126984127
 40
0.4285714285714285
 40
0.4285714285714285
 40
0.4285714285714285
 40
0.4285714285714285
 40
0.4444444444444444
 40
0.4444444444444444
 40
0.4444444444444444
 40
0.4444444444444444
 40
0.4603174603174603
 40
0.4603174603174603
 40
0.4603174603174603
 40
0.4603174603174603
 40
0.4761904761904762
 40
0.4761904761904762
 40
0.4761904761904762
 40
0.4761904761904762
 40
0.492063492063492
 40
0.492063492063492
 40
0.492063492063492
 40
0.492063492063492
 40
0.5079365079365079
 40
0.5079365079365079
 40
0.5079365079365079
 40
0.5079365079365079
 40
0.5238095238095238
 40
0.5238095238095238
 40
0.5238095238095238
 40
0.5238095238095238
 40
0.5396825396825397
 40
0.5396825396825397
 40
0.5396825396825397
 40
0.5396825396825397
 40
0.5555555555555556
 40
0.5555555555555556
 40
0.5555555555555556
 40
0.5555555555555556
 40
0.5714285714285714
 40
0.5714285714285714
 40
0.5714285714285714
 40
0.5714285714285714
 40
0.5873015873015873
 40
0.5873015873015873
 40
0.5873015873015873
 40
0.5873015873015873
 40
0.6031746031746031
 40
0.6031746031746031
 40
0.6031746031746031
 40
0.6031746031746031
 40
0.6190476190476191
 40
0.6190476190476191
 40
0.6190476190476191
 40
0.6190476190476191
 40
0.6349206349206349
 40
0.6349206349206349
 40
0.6349206349206349
 40
0.6349206349206349
 40
0.6507936507936508
 40
0.6507936507936508
 40
0.6507936507936508
 40
0.6507936507936508
 40
0.6666666666666666
 40
0.6666666666666666
 40
0.6666666666666666
 40
0.6666666666666666
 40
0.6825396825396826
 40
0.6825396825396826
 40
0.6825396825396826
 40
0.6825396825396826
 40
0.6984126984126984
 40
0.6984126984126984
 40
0.6984126984126984
 40
0.6984126984126984
 40
0.7142857142857143
 40
0.7142857142857143
 40
0.7142857142857143
 40
0.7142857142857143
 40
0.7301587301587301
 40
0.7301587301587301
 40
0.7301587301587301
 40
0.7301587301587301
 40
0.746031746031746
 40
0.746031746031746
 40
0.746031746031746
 40
0.746031746031746
 40
0.7619047619047619
 40
0.7619047619047619
 40
0.7619047619047619
 40
0.7619047619047619
 40
0.7777777777777778
 40
0.7777777777777778
 40
0.7777777777777778
 40
0.7777777777777778
 40
0.7936507936507936
 40
0.7936507936507936
 40
0.7936507936507936
 40
0.7936507936507936
 40
0.8095238095238095
 40
0.8095238095238095
 40
0.8095238095238095
 40
0.8095238095238095
 40
0.8253968253968254
 40
0.8253968253968254
 40
0.8253968253968254
 40
0.8253968253968254
 40
0.8412698412698413
 40
0.8412698412698413
 40
0.8412698412698413
 40
0.8412698412698413
 40
0.8571428571428571
 40
0.8571428571428571
 40
0.8571428571428571
 40
0.8571428571428571
 40
0.873015873015873
 40
0.873015873015873
 40
0.873015873015873
 40
0.873015873015873
 40
0.8888888888888888
 40
0.8888888888888888
 40
0.8888888888888888
 40
0.8888888888888888
 40
0.9047619047619048
 40
0.9047619047619048
 40
0.9047619047619048
 40
0.9047619047619048
 40
0.9206349206349206
 40
0.9206349206349206
 40
0.9206349206349206
 40
0.9206349206349206
 40
0.9365079365079365
 40
0.9365079365079365
 40
0.9365079365079365
 40
0.9365079365079365
 40
0.9523809523809523
 40
0.9523809523809523
 40
0.9523809523809523
 40
0.9523809523809523
 40
0.9682539682539683
 40
0.9682539682539683
 40
0.9682539682539683
 40
0.9682539682539683
 40
1.0
 40
1.0
 40
1.0
 40
1.0
 10
-235.29625
 20
10.65625
 30
0.0
 10
-235.29625
 20
10.65625
 30
0.0
 10
-235.02625
 20
10.01625
 30
0.0
 10
-235.02625
 20
10.01625
 30
0.0
 10
-235.02625
 20
10.01625
 30
0.0
 10
-235.02625
 20
10.01625
 30
0.0
 10
-234.60625
 20
9.03875
 30
0.0
 10
-234.60625
 20
9.03875
 30
0.0
 10
-234.60625
 20
9.03875
 30
0.0
 10
-234.60625
 20
9.03875
 30
0.0
 10
-234.32375
 20
8.44875
 30
0.0
 10
-234.32375
 20
8.44875
 30
0.0
 10
-234.32375
 20
8.44875
 30
0.0
 10
-234.32375
 20
8.44875
 30
0.0
 10
-233.41375
 20
6.56124
 30
0.0
 10
-233.41375
 20
6.56124
 30
0.0
 10
-233.41375
 20
6.56124
 30
0.0
 10
-233.41375
 20
6.56124
 30
0.0
 10
-232.64375
 20
5.04625
 30
0.0
 10
-232.64375
 20
5.04625
 30
0.0
 10
-232.64375
 20
5.04625
 30
0.0
 10
-232.64375
 20
5.04625
 30
0.0
 10
-231.40375
 20
2.56625
 30
0.0
 10
-231.40375
 20
2.56625
 30
0.0
 10
-231.40375
 20
2.56625
 30
0.0
 10
-231.40375
 20
2.56625
 30
0.0
 10
-230.19125
 20
-0.24375
 30
0.0
 10
-230.19125
 20
-0.24375
 30
0.0
 10
-230.19125
 20
-0.24375
 30
0.0
 10
-230.19125
 20
-0.24375
 30
0.0
 10
-228.95125
 20
-3.05374
 30
0.0
 10
-228.95125
 20
-3.05374
 30
0.0
 10
-228.95125
 20
-3.05374
 30
0.0
 10
-228.95125
 20
-3.05374
 30
0.0
 10
-228.20875
 20
-5.61625
 30
0.0
 10
-228.20875
 20
-5.61625
 30
0.0
 10
-228.20875
 20
-5.61625
 30
0.0
 10
-228.20875
 20
-5.61625
 30
0.0
 10
-227.35375
 20
-7.90375
 30
0.0
 10
-227.35375
 20
-7.90375
 30
0.0
 10
-227.35375
 20
-7.90375
 30
0.0
 10
-227.35375
 20
-7.90375
 30
0.0
 10
-226.60875
 20
-10.68625
 30
0.0
 10
-226.60875
 20
-10.68625
 30
0.0
 10
-226.60875
 20
-10.68625
 30
0.0
 10
-226.60875
 20
-10.68625
 30
0.0
 10
-225.92125
 20
-14.10125
 30
0.0
 10
-225.92125
 20
-14.10125
 30
0.0
 10
-225.92125
 20
-14.10125
 30
0.0
 10
-225.92125
 20
-14.10125
 30
0.0
 10
-225.53625
 20
-17.82125
 30
0.0
 10
-225.53625
 20
-17.82125
 30
0.0
 10
-225.53625
 20
-17.82125
 30
0.0
 10
-225.53625
 20
-17.82125
 30
0.0
 10
-225.61875
 20
-20.74125
 30
0.0
 10
-225.61875
 20
-20.74125
 30
0.0
 10
-225.61875
 20
-20.74125
 30
0.0
 10
-225.61875
 20
-20.74125
 30
0.0
 10
-226.05875
 20
-23.74375
 30
0.0
 10
-226.05875
 20
-23.74375
 30
0.0
 10
-226.05875
 20
-23.74375
 30
0.0
 10
-226.05875
 20
-23.74375
 30
0.0
 10
-226.55375
 20
-25.97625
 30
0.0
 10
-226.55375
 20
-25.97625
 30
0.0
 10
-226.55375
 20
-25.97625
 30
0.0
 10
-226.55375
 20
-25.97625
 30
0.0
 10
-227.16125
 20
-28.01374
 30
0.0
 10
-227.16125
 20
-28.01374
 30
0.0
 10
-227.16125
 20
-28.01374
 30
0.0
 10
-227.16125
 20
-28.01374
 30
0.0
 10
-227.57375
 20
-29.41875
 30
0.0
 10
-227.57375
 20
-29.41875
 30
0.0
 10
-227.57375
 20
-29.41875
 30
0.0
 10
-227.57375
 20
-29.41875
 30
0.0
 10
-228.23625
 20
-31.23625
 30
0.0
 10
-228.23625
 20
-31.23625
 30
0.0
 10
-228.23625
 20
-31.23625
 30
0.0
 10
-228.23625
 20
-31.23625
 30
0.0
 10
-228.97875
 20
-33.46875
 30
0.0
 10
-228.97875
 20
-33.46875
 30
0.0
 10
-228.97875
 20
-33.46875
 30
0.0
 10
-228.97875
 20
-33.46875
 30
0.0
 10
-229.47625
 20
-34.79125
 30
0.0
 10
-229.47625
 20
-34.79125
 30
0.0
 10
-229.47625
 20
-34.79125
 30
0.0
 10
-229.47625
 20
-34.79125
 30
0.0
 10
-230.08125
 20
-36.77375
 30
0.0
 10
-230.08125
 20
-36.77375
 30
0.0
 10
-230.08125
 20
-36.77375
 30
0.0
 10
-230.08125
 20
-36.77375
 30
0.0
 10
-230.32875
 20
-38.48375
 30
0.0
 10
-230.32875
 20
-38.48375
 30
0.0
 10
-230.32875
 20
-38.48375
 30
0.0
 10
-230.32875
 20
-38.48375
 30
0.0
 10
-230.41125
 20
-40.43875
 30
0.0
 10
-230.41125
 20
-40.43875
 30
0.0
 10
-230.41125
 20
-40.43875
 30
0.0
 10
-230.41125
 20
-40.43875
 30
0.0
 10
-230.35625
 20
-43.35875
 30
0.0
 10
-230.35625
 20
-43.35875
 30
0.0
 10
-230.35625
 20
-43.35875
 30
0.0
 10
-230.35625
 20
-43.35875
 30
0.0
 10
-230.08125
 20
-46.33375
 30
0.0
 10
-230.08125
 20
-46.33375
 30
0.0
 10
-230.08125
 20
-46.33375
 30
0.0
 10
-230.08125
 20
-46.33375
 30
0.0
 10
-229.30875
 20
-49.34375
 30
0.0
 10
-229.30875
 20
-49.34375
 30
0.0
 10
-229.30875
 20
-49.34375
 30
0.0
 10
-229.30875
 20
-49.34375
 30
0.0
 10
-218.56625
 20
-49.34375
 30
0.0
 10
-218.56625
 20
-49.34375
 30
0.0
 10
-218.56625
 20
-49.34375
 30
0.0
 10
-218.56625
 20
-49.34375
 30
0.0
 10
-220.63125
 20
-46.27875
 30
0.0
 10
-220.63125
 20
-46.27875
 30
0.0
 10
-220.63125
 20
-46.27875
 30
0.0
 10
-220.63125
 20
-46.27875
 30
0.0
 10
-214.79125
 20
-48.75875
 30
0.0
 10
-214.79125
 20
-48.75875
 30
0.0
 10
-214.79125
 20
-48.75875
 30
0.0
 10
-214.79125
 20
-48.75875
 30
0.0
 10
-204.59625
 20
-46.11375
 30
0.0
 10
-204.59625
 20
-46.11375
 30
0.0
 10
-204.59625
 20
-46.11375
 30
0.0
 10
-204.59625
 20
-46.11375
 30
0.0
 10
-205.50625
 20
-49.34375
 30
0.0
 10
-205.50625
 20
-49.34375
 30
0.0
 10
-205.50625
 20
-49.34375
 30
0.0
 10
-205.50625
 20
-49.34375
 30
0.0
 10
-195.06625
 20
-49.34375
 30
0.0
 10
-195.06625
 20
-49.34375
 30
0.0
 10
-195.06625
 20
-49.34375
 30
0.0
 10
-195.06625
 20
-49.34375
 30
0.0
 10
-194.70625
 20
-47.62875
 30
0.0
 10
-194.70625
 20
-47.62875
 30
0.0
 10
-194.70625
 20
-47.62875
 30
0.0
 10
-194.70625
 20
-47.62875
 30
0.0
 10
-194.45875
 20
-45.34375
 30
0.0
 10
-194.45875
 20
-45.34375
 30
0.0
 10
-194.45875
 20
-45.34375
 30
0.0
 10
-194.45875
 20
-45.34375
 30
0.0
 10
-194.26625
 20
-43.52375
 30
0.0
 10
-194.26625
 20
-43.52375
 30
0.0
 10
-194.26625
 20
-43.52375
 30
0.0
 10
-194.26625
 20
-43.52375
 30
0.0
 10
-194.21125
 20
-41.81625
 30
0.0
 10
-194.21125
 20
-41.81625
 30
0.0
 10
-194.21125
 20
-41.81625
 30
0.0
 10
-194.21125
 20
-41.81625
 30
0.0
 10
-194.21125
 20
-39.86125
 30
0.0
 10
-194.21125
 20
-39.86125
 30
0.0
 10
-194.21125
 20
-39.86125
 30
0.0
 10
-194.21125
 20
-39.86125
 30
0.0
 10
-194.26625
 20
-38.26375
 30
0.0
 10
-194.26625
 20
-38.26375
 30
0.0
 10
-194.26625
 20
-38.26375
 30
0.0
 10
-194.26625
 20
-38.26375
 30
0.0
 10
-194.54125
 20
-36.63625
 30
0.0
 10
-194.54125
 20
-36.63625
 30
0.0
 10
-194.54125
 20
-36.63625
 30
0.0
 10
-194.54125
 20
-36.63625
 30
0.0
 10
-195.28625
 20
-34.24125
 30
0.0
 10
-195.28625
 20
-34.24125
 30
0.0
 10
-195.28625
 20
-34.24125
 30
0.0
 10
-195.28625
 20
-34.24125
 30
0.0
 10
-196.27625
 20
-31.78875
 30
0.0
 10
-196.27625
 20
-31.78875
 30
0.0
 10
-196.27625
 20
-31.78875
 30
0.0
 10
-196.27625
 20
-31.78875
 30
0.0
 10
-197.62625
 20
-28.45375
 30
0.0
 10
-197.62625
 20
-28.45375
 30
0.0
 10
-197.62625
 20
-28.45375
 30
0.0
 10
-197.62625
 20
-28.45375
 30
0.0
 10
-198.45375
 20
-26.00375
 30
0.0
 10
-198.45375
 20
-26.00375
 30
0.0
 10
-198.45375
 20
-26.00375
 30
0.0
 10
-198.45375
 20
-26.00375
 30
0.0
 10
-199.03125
 20
-23.55125
 30
0.0
 10
-199.03125
 20
-23.55125
 30
0.0
 10
-199.03125
 20
-23.55125
 30
0.0
 10
-199.03125
 20
-23.55125
 30
0.0
 10
-199.41875
 20
-21.78875
 30
0.0
 10
-199.41875
 20
-21.78875
 30
0.0
 10
-199.41875
 20
-21.78875
 30
0.0
 10
-199.41875
 20
-21.78875
 30
0.0
 10
-199.63875
 20
-19.83125
 30
0.0
 10
-199.63875
 20
-19.83125
 30
0.0
 10
-199.63875
 20
-19.83125
 30
0.0
 10
-199.63875
 20
-19.83125
 30
0.0
 10
-199.77625
 20
-18.28875
 30
0.0
 10
-199.77625
 20
-18.28875
 30
0.0
 10
-199.77625
 20
-18.28875
 30
0.0
 10
-199.77625
 20
-18.28875
 30
0.0
 10
-199.74875
 20
-16.66375
 30
0.0
 10
-199.74875
 20
-16.66375
 30
0.0
 10
-199.74875
 20
-16.66375
 30
0.0
 10
-199.74875
 20
-16.66375
 30
0.0
 10
-199.69375
 20
-14.84625
 30
0.0
 10
-199.69375
 20
-14.84625
 30
0.0
 10
-199.69375
 20
-14.84625
 30
0.0
 10
-199.69375
 20
-14.84625
 30
0.0
 10
-199.44625
 20
-12.53125
 30
0.0
 10
-199.44625
 20
-12.53125
 30
0.0
 10
-199.44625
 20
-12.53125
 30
0.0
 10
-199.44625
 20
-12.53125
 30
0.0
 10
-198.97625
 20
-9.91375
 30
0.0
 10
-198.97625
 20
-9.91375
 30
0.0
 10
-198.97625
 20
-9.91375
 30
0.0
 10
-198.97625
 20
-9.91375
 30
0.0
 10
-198.45375
 20
-7.84625
 30
0.0
 10
-198.45375
 20
-7.84625
 30
0.0
 10
-198.45375
 20
-7.84625
 30
0.0
 10
-198.45375
 20
-7.84625
 30
0.0
 10
-197.82125
 20
-5.61625
 30
0.0
 10
-197.82125
 20
-5.61625
 30
0.0
 10
-197.82125
 20
-5.61625
 30
0.0
 10
-197.82125
 20
-5.61625
 30
0.0
 10
-197.13125
 20
-3.60375
 30
0.0
 10
-197.13125
 20
-3.60375
 30
0.0
 10
-197.13125
 20
-3.60375
 30
0.0
 10
-197.13125
 20
-3.60375
 30
0.0
 10
-196.38875
 20
-1.26374
 30
0.0
 10
-196.38875
 20
-1.26374
 30
0.0
 10
-196.38875
 20
-1.26374
 30
0.0
 10
-196.38875
 20
-1.26374
 30
0.0
 10
-195.45125
 20
1.02375
 30
0.0
 10
-195.45125
 20
1.02375
 30
0.0
 10
-195.45125
 20
1.02375
 30
0.0
 10
-195.45125
 20
1.02375
 30
0.0
 10
-194.48625
 20
3.39375
 30
0.0
 10
-194.48625
 20
3.39375
 30
0.0
 10
-194.48625
 20
3.39375
 30
0.0
 10
-194.48625
 20
3.39375
 30
0.0
 10
-193.43875
 20
5.81625
 30
0.0
 10
-193.43875
 20
5.81625
 30
0.0
 10
-193.43875
 20
5.81625
 30
0.0
 10
-193.43875
 20
5.81625
 30
0.0
 10
-192.80625
 20
7.05624
 30
0.0
 10
-192.80625
 20
7.05624
 30
0.0
 10
-192.80625
 20
7.05624
 30
0.0
 10
-192.80625
 20
7.05624
 30
0.0
 10
-191.23625
 20
10.61125
 30
0.0
 10
-191.23625
 20
10.61125
 30
0.0
 10
-191.23625
 20
10.61125
 30
0.0
 10
-191.23625
 20
10.61125
 30
0.0
 10
-235.29625
 20
10.65625
 30
0.0
 10
-235.29625
 20
10.65625
 30
0.0
  0
SPLINE
  5
4B
330
1F
100
AcDbEntity
  8
Capa 1
 62
   240
370
    35
100
AcDbSpline
210
0.0
220
0.0
230
1.0
 70
     8
 71
     3
 72
    92
 73
    88
 74
     0
 42
0.0000000001
 43
0.0000000001
 12
1.0
 22
0.0
 32
0.0
 13
1.0
 23
0.0
 33
0.0
 40
0.0
 40
0.0
 40
0.0
 40
0.0
 40
0.0434782608695652
 40
0.0434782608695652
 40
0.0434782608695652
 40
0.0434782608695652
 40
0.0869565217391304
 40
0.0869565217391304
 40
0.0869565217391304
 40
0.0869565217391304
 40
0.1304347826086956
 40
0.1304347826086956
 40
0.1304347826086956
 40
0.1304347826086956
 40
0.1739130434782609
 40
0.1739130434782609
 40
0.1739130434782609
 40
0.1739130434782609
 40
0.2173913043478261
 40
0.2173913043478261
 40
0.2173913043478261
 40
0.2173913043478261
 40
0.2608695652173913
 40
0.2608695652173913
 40
0.2608695652173913
 40
0.2608695652173913
 40
0.3043478260869565
 40
0.3043478260869565
 40
0.3043478260869565
 40
0.3043478260869565
 40
0.3478260869565217
 40
0.3478260869565217
 40
0.3478260869565217
 40
0.3478260869565217
 40
0.391304347826087
 40
0.391304347826087
 40
0.391304347826087
 40
0.391304347826087
 40
0.4347826086956522
 40
0.4347826086956522
 40
0.4347826086956522
 40
0.4347826086956522
 40
0.4782608695652174
 40
0.4782608695652174
 40
0.4782608695652174
 40
0.4782608695652174
 40
0.5217391304347826
 40
0.5217391304347826
 40
0.5217391304347826
 40
0.5217391304347826
 40
0.5652173913043478
 40
0.5652173913043478
 40
0.5652173913043478
 40
0.5652173913043478
 40
0.6086956521739131
 40
0.6086956521739131
 40
0.6086956521739131
 40
0.6086956521739131
 40
0.6521739130434783
 40
0.6521739130434783
 40
0.6521739130434783
 40
0.6521739130434783
 40
0.6956521739130435
 40
0.6956521739130435
 40
0.6956521739130435
 40
0.6956521739130435
 40
0.7391304347826086
 40
0.7391304347826086
 40
0.7391304347826086
 40
0.7391304347826086
 40
0.782608695652174
 40
0.782608695652174
 40
0.782608695652174
 40
0.782608695652174
 40
0.8260869565217391
 40
0.8260869565217391
 40
0.8260869565217391
 40
0.8260869565217391
 40
0.8695652173913043
 40
0.8695652173913043
 40
0.8695652173913043
 40
0.8695652173913043
 40
0.9130434782608695
 40
0.9130434782608695
 40
0.9130434782608695
 40
0.9130434782608695
 40
1.0
 40
1.0
 40
1.0
 40
1.0
 10
-137.01875
 20
9.08875
 30
0.0
 10
-137.01875
 20
9.08875
 30
0.0
 10
-136.33624
 20
7.48374
 30
0.0
 10
-136.33624
 20
7.48374
 30
0.0
 10
-136.33624
 20
7.48374
 30
0.0
 10
-136.33624
 20
7.48374
 30
0.0
 10
-134.37375
 20
3.49124
 30
0.0
 10
-134.37375
 20
3.49124
 30
0.0
 10
-134.37375
 20
3.49124
 30
0.0
 10
-134.37375
 20
3.49124
 30
0.0
 10
-133.13375
 20
1.01124
 30
0.0
 10
-133.13375
 20
1.01124
 30
0.0
 10
-133.13375
 20
1.01124
 30
0.0
 10
-133.13375
 20
1.01124
 30
0.0
 10
-130.68125
 20
-4.60875
 30
0.0
 10
-130.68125
 20
-4.60875
 30
0.0
 10
-130.68125
 20
-4.60875
 30
0.0
 10
-130.68125
 20
-4.60875
 30
0.0
 10
-129.93625
 20
-7.17125
 30
0.0
 10
-129.93625
 20
-7.17125
 30
0.0
 10
-129.93625
 20
-7.17125
 30
0.0
 10
-129.93625
 20
-7.17125
 30
0.0
 10
-129.08375
 20
-9.45875
 30
0.0
 10
-129.08375
 20
-9.45875
 30
0.0
 10
-129.08375
 20
-9.45875
 30
0.0
 10
-129.08375
 20
-9.45875
 30
0.0
 10
-128.33875
 20
-12.24125
 30
0.0
 10
-128.33875
 20
-12.24125
 30
0.0
 10
-128.33875
 20
-12.24125
 30
0.0
 10
-128.33875
 20
-12.24125
 30
0.0
 10
-127.65125
 20
-15.65625
 30
0.0
 10
-127.65125
 20
-15.65625
 30
0.0
 10
-127.65125
 20
-15.65625
 30
0.0
 10
-127.65125
 20
-15.65625
 30
0.0
 10
-127.26375
 20
-19.37625
 30
0.0
 10
-127.26375
 20
-19.37625
 30
0.0
 10
-127.26375
 20
-19.37625
 30
0.0
 10
-127.26375
 20
-19.37625
 30
0.0
 10
-127.34875
 20
-22.29625
 30
0.0
 10
-127.34875
 20
-22.29625
 30
0.0
 10
-127.34875
 20
-22.29625
 30
0.0
 10
-127.34875
 20
-22.29625
 30
0.0
 10
-127.78875
 20
-25.29875
 30
0.0
 10
-127.78875
 20
-25.29875
 30
0.0
 10
-127.78875
 20
-25.29875
 30
0.0
 10
-127.78875
 20
-25.29875
 30
0.0
 10
-128.28375
 20
-27.53125
 30
0.0
 10
-128.28375
 20
-27.53125
 30
0.0
 10
-128.28375
 20
-27.53125
 30
0.0
 10
-128.28375
 20
-27.53125
 30
0.0
 10
-129.30375
 20
-30.97375
 30
0.0
 10
-129.30375
 20
-30.97375
 30
0.0
 10
-129.30375
 20
-30.97375
 30
0.0
 10
-129.30375
 20
-30.97375
 30
0.0
 10
-129.96375
 20
-32.79125
 30
0.0
 10
-129.96375
 20
-32.79125
 30
0.0
 10
-129.96375
 20
-32.79125
 30
0.0
 10
-129.96375
 20
-32.79125
 30
0.0
 10
-130.70874
 20
-35.02375
 30
0.0
 10
-130.70874
 20
-35.02375
 30
0.0
 10
-130.70874
 20
-35.02375
 30
0.0
 10
-130.70874
 20
-35.02375
 30
0.0
 10
-131.20375
 20
-36.34624
 30
0.0
 10
-131.20375
 20
-36.34624
 30
0.0
 10
-131.20375
 20
-36.34624
 30
0.0
 10
-131.20375
 20
-36.34624
 30
0.0
 10
-131.81124
 20
-38.32875
 30
0.0
 10
-131.81124
 20
-38.32875
 30
0.0
 10
-131.81124
 20
-38.32875
 30
0.0
 10
-131.81124
 20
-38.32875
 30
0.0
 10
-132.05874
 20
-40.03874
 30
0.0
 10
-132.05874
 20
-40.03874
 30
0.0
 10
-132.05874
 20
-40.03874
 30
0.0
 10
-132.05874
 20
-40.03874
 30
0.0
 10
-132.14125
 20
-41.99375
 30
0.0
 10
-132.14125
 20
-41.99375
 30
0.0
 10
-132.14125
 20
-41.99375
 30
0.0
 10
-132.14125
 20
-41.99375
 30
0.0
 10
-132.08625
 20
-44.91375
 30
0.0
 10
-132.08625
 20
-44.91375
 30
0.0
 10
-132.08625
 20
-44.91375
 30
0.0
 10
-132.08625
 20
-44.91375
 30
0.0
 10
-131.81124
 20
-47.88875
 30
0.0
 10
-131.81124
 20
-47.88875
 30
0.0
 10
-131.81124
 20
-47.88875
 30
0.0
 10
-131.81124
 20
-47.88875
 30
0.0
 10
-131.28875
 20
-49.90625
 30
0.0
 10
-131.28875
 20
-49.90625
 30
0.0
  0
SPLINE
  5
4C
330
1F
100
AcDbEntity
  8
Capa 1
 62
   240
370
    35
100
AcDbSpline
210
0.0
220
0.0
230
1.0
 70
     8
 71
     3
 72
    92
 73
    88
 74
     0
 42
0.0000000001
 43
0.0000000001
 12
1.0
 22
0.0
 32
0.0
 13
1.0
 23
0.0
 33
0.0
 40
0.0
 40
0.0
 40
0.0
 40
0.0
 40
0.0434782608695652
 40
0.0434782608695652
 40
0.0434782608695652
 40
0.0434782608695652
 40
0.0869565217391304
 40
0.0869565217391304
 40
0.0869565217391304
 40
0.0869565217391304
 40
0.1304347826086956
 40
0.1304347826086956
 40
0.1304347826086956
 40
0.1304347826086956
 40
0.1739130434782609
 40
0.1739130434782609
 40
0.1739130434782609
 40
0.1739130434782609
 40
0.2173913043478261
 40
0.2173913043478261
 40
0.2173913043478261
 40
0.2173913043478261
 40
0.2608695652173913
 40
0.2608695652173913
 40
0.2608695652173913
 40
0.2608695652173913
 40
0.3043478260869565
 40
0.3043478260869565
 40
0.3043478260869565
 40
0.3043478260869565
 40
0.3478260869565217
 40
0.3478260869565217
 40
0.3478260869565217
 40
0.3478260869565217
 40
0.391304347826087
 40
0.391304347826087
 40
0.391304347826087
 40
0.391304347826087
 40
0.4347826086956522
 40
0.4347826086956522
 40
0.4347826086956522
 40
0.4347826086956522
 40
0.4782608695652174
 40
0.4782608695652174
 40
0.4782608695652174
 40
0.4782608695652174
 40
0.5217391304347826
 40
0.5217391304347826
 40
0.5217391304347826
 40
0.5217391304347826
 40
0.5652173913043478
 40
0.5652173913043478
 40
0.5652173913043478
 40
0.5652173913043478
 40
0.6086956521739131
 40
0.6086956521739131
 40
0.6086956521739131
 40
0.6086956521739131
 40
0.6521739130434783
 40
0.6521739130434783
 40
0.6521739130434783
 40
0.6521739130434783
 40
0.6956521739130435
 40
0.6956521739130435
 40
0.6956521739130435
 40
0.6956521739130435
 40
0.7391304347826086
 40
0.7391304347826086
 40
0.7391304347826086
 40
0.7391304347826086
 40
0.782608695652174
 40
0.782608695652174
 40
0.782608695652174
 40
0.782608695652174
 40
0.8260869565217391
 40
0.8260869565217391
 40
0.8260869565217391
 40
0.8260869565217391
 40
0.8695652173913043
 40
0.8695652173913043
 40
0.8695652173913043
 40
0.8695652173913043
 40
0.9130434782608695
 40
0.9130434782608695
 40
0.9130434782608695
 40
0.9130434782608695
 40
1.0
 40
1.0
 40
1.0
 40
1.0
 10
-99.54625
 20
-49.90375
 30
0.0
 10
-99.54625
 20
-49.90375
 30
0.0
 10
-99.44875
 20
-49.19125
 30
0.0
 10
-99.44875
 20
-49.19125
 30
0.0
 10
-99.44875
 20
-49.19125
 30
0.0
 10
-99.44875
 20
-49.19125
 30
0.0
 10
-99.00875
 20
-45.08625
 30
0.0
 10
-99.00875
 20
-45.08625
 30
0.0
 10
-99.00875
 20
-45.08625
 30
0.0
 10
-99.00875
 20
-45.08625
 30
0.0
 10
-98.95374
 20
-43.37625
 30
0.0
 10
-98.95374
 20
-43.37625
 30
0.0
 10
-98.95374
 20
-43.37625
 30
0.0
 10
-98.95374
 20
-43.37625
 30
0.0
 10
-98.95374
 20
-41.42125
 30
0.0
 10
-98.95374
 20
-41.42125
 30
0.0
 10
-98.95374
 20
-41.42125
 30
0.0
 10
-98.95374
 20
-41.42125
 30
0.0
 10
-99.00875
 20
-39.82375
 30
0.0
 10
-99.00875
 20
-39.82375
 30
0.0
 10
-99.00875
 20
-39.82375
 30
0.0
 10
-99.00875
 20
-39.82375
 30
0.0
 10
-99.28375
 20
-38.19875
 30
0.0
 10
-99.28375
 20
-38.19875
 30
0.0
 10
-99.28375
 20
-38.19875
 30
0.0
 10
-99.28375
 20
-38.19875
 30
0.0
 10
-100.02625
 20
-35.80125
 30
0.0
 10
-100.02625
 20
-35.80125
 30
0.0
 10
-100.02625
 20
-35.80125
 30
0.0
 10
-100.02625
 20
-35.80125
 30
0.0
 10
-102.36874
 20
-30.01625
 30
0.0
 10
-102.36874
 20
-30.01625
 30
0.0
 10
-102.36874
 20
-30.01625
 30
0.0
 10
-102.36874
 20
-30.01625
 30
0.0
 10
-103.19625
 20
-27.56375
 30
0.0
 10
-103.19625
 20
-27.56375
 30
0.0
 10
-103.19625
 20
-27.56375
 30
0.0
 10
-103.19625
 20
-27.56375
 30
0.0
 10
-104.15875
 20
-23.34875
 30
0.0
 10
-104.15875
 20
-23.34875
 30
0.0
 10
-104.15875
 20
-23.34875
 30
0.0
 10
-104.15875
 20
-23.34875
 30
0.0
 10
-104.51875
 20
-19.84875
 30
0.0
 10
-104.51875
 20
-19.84875
 30
0.0
 10
-104.51875
 20
-19.84875
 30
0.0
 10
-104.51875
 20
-19.84875
 30
0.0
 10
-104.43624
 20
-16.40625
 30
0.0
 10
-104.43624
 20
-16.40625
 30
0.0
 10
-104.43624
 20
-16.40625
 30
0.0
 10
-104.43624
 20
-16.40625
 30
0.0
 10
-104.18625
 20
-14.09125
 30
0.0
 10
-104.18625
 20
-14.09125
 30
0.0
 10
-104.18625
 20
-14.09125
 30
0.0
 10
-104.18625
 20
-14.09125
 30
0.0
 10
-103.71874
 20
-11.47375
 30
0.0
 10
-103.71874
 20
-11.47375
 30
0.0
 10
-103.71874
 20
-11.47375
 30
0.0
 10
-103.71874
 20
-11.47375
 30
0.0
 10
-103.19625
 20
-9.40875
 30
0.0
 10
-103.19625
 20
-9.40875
 30
0.0
 10
-103.19625
 20
-9.40875
 30
0.0
 10
-103.19625
 20
-9.40875
 30
0.0
 10
-102.56125
 20
-7.17625
 30
0.0
 10
-102.56125
 20
-7.17625
 30
0.0
 10
-102.56125
 20
-7.17625
 30
0.0
 10
-102.56125
 20
-7.17625
 30
0.0
 10
-101.87375
 20
-5.16625
 30
0.0
 10
-101.87375
 20
-5.16625
 30
0.0
 10
-101.87375
 20
-5.16625
 30
0.0
 10
-101.87375
 20
-5.16625
 30
0.0
 10
-101.12875
 20
-2.82375
 30
0.0
 10
-101.12875
 20
-2.82375
 30
0.0
 10
-101.12875
 20
-2.82375
 30
0.0
 10
-101.12875
 20
-2.82375
 30
0.0
 10
-99.22875
 20
1.83125
 30
0.0
 10
-99.22875
 20
1.83125
 30
0.0
 10
-99.22875
 20
1.83125
 30
0.0
 10
-99.22875
 20
1.83125
 30
0.0
 10
-98.18125
 20
4.25625
 30
0.0
 10
-98.18125
 20
4.25625
 30
0.0
 10
-98.18125
 20
4.25625
 30
0.0
 10
-98.18125
 20
4.25625
 30
0.0
 10
-97.54875
 20
5.49625
 30
0.0
 10
-97.54875
 20
5.49625
 30
0.0
 10
-97.54875
 20
5.49625
 30
0.0
 10
-97.54875
 20
5.49625
 30
0.0
 10
-95.97875
 20
9.05124
 30
0.0
 10
-95.97875
 20
9.05124
 30
0.0
  0
SPLINE
  5
4D
330
1F
100
AcDbEntity
  8
Capa 1
 62
   250
370
    35
100
AcDbSpline
210
0.0
220
0.0
230
1.0
 70
    11
 71
     3
 72
   232
 73
   228
 74
     0
 42
0.0000000001
 43
0.0000000001
 12
1.0
 22
0.0
 32
0.0
 13
1.0
 23
0.0
 33
0.0
 40
0.0
 40
0.0
 40
0.0
 40
0.0
 40
0.0172413793103448
 40
0.0172413793103448
 40
0.0172413793103448
 40
0.0172413793103448
 40
0.0344827586206897
 40
0.0344827586206897
 40
0.0344827586206897
 40
0.0344827586206897
 40
0.0517241379310345
 40
0.0517241379310345
 40
0.0517241379310345
 40
0.0517241379310345
 40
0.0689655172413793
 40
0.0689655172413793
 40
0.0689655172413793
 40
0.0689655172413793
 40
0.0862068965517241
 40
0.0862068965517241
 40
0.0862068965517241
 40
0.0862068965517241
 40
0.103448275862069
 40
0.103448275862069
 40
0.103448275862069
 40
0.103448275862069
 40
0.1206896551724138
 40
0.1206896551724138
 40
0.1206896551724138
 40
0.1206896551724138
 40
0.1379310344827586
 40
0.1379310344827586
 40
0.1379310344827586
 40
0.1379310344827586
 40
0.1551724137931035
 40
0.1551724137931035
 40
0.1551724137931035
 40
0.1551724137931035
 40
0.1724137931034483
 40
0.1724137931034483
 40
0.1724137931034483
 40
0.1724137931034483
 40
0.1896551724137931
 40
0.1896551724137931
 40
0.1896551724137931
 40
0.1896551724137931
 40
0.2068965517241379
 40
0.2068965517241379
 40
0.2068965517241379
 40
0.2068965517241379
 40
0.2241379310344828
 40
0.2241379310344828
 40
0.2241379310344828
 40
0.2241379310344828
 40
0.2413793103448276
 40
0.2413793103448276
 40
0.2413793103448276
 40
0.2413793103448276
 40
0.2586206896551724
 40
0.2586206896551724
 40
0.2586206896551724
 40
0.2586206896551724
 40
0.2758620689655172
 40
0.2758620689655172
 40
0.2758620689655172
 40
0.2758620689655172
 40
0.293103448275862
 40
0.293103448275862
 40
0.293103448275862
 40
0.293103448275862
 40
0.3103448275862069
 40
0.3103448275862069
 40
0.3103448275862069
 40
0.3103448275862069
 40
0.3275862068965517
 40
0.3275862068965517
 40
0.3275862068965517
 40
0.3275862068965517
 40
0.3448275862068966
 40
0.3448275862068966
 40
0.3448275862068966
 40
0.3448275862068966
 40
0.3620689655172414
 40
0.3620689655172414
 40
0.3620689655172414
 40
0.3620689655172414
 40
0.3793103448275862
 40
0.3793103448275862
 40
0.3793103448275862
 40
0.3793103448275862
 40
0.396551724137931
 40
0.396551724137931
 40
0.396551724137931
 40
0.396551724137931
 40
0.4137931034482759
 40
0.4137931034482759
 40
0.4137931034482759
 40
0.4137931034482759
 40
0.4310344827586207
 40
0.4310344827586207
 40
0.4310344827586207
 40
0.4310344827586207
 40
0.4482758620689655
 40
0.4482758620689655
 40
0.4482758620689655
 40
0.4482758620689655
 40
0.4655172413793103
 40
0.4655172413793103
 40
0.4655172413793103
 40
0.4655172413793103
 40
0.4827586206896552
 40
0.4827586206896552
 40
0.4827586206896552
 40
0.4827586206896552
 40
0.5
 40
0.5
 40
0.5
 40
0.5
 40
0.5172413793103449
 40
0.5172413793103449
 40
0.5172413793103449
 40
0.5172413793103449
 40
0.5344827586206896
 40
0.5344827586206896
 40
0.5344827586206896
 40
0.5344827586206896
 40
0.5517241379310345
 40
0.5517241379310345
 40
0.5517241379310345
 40
0.5517241379310345
 40
0.5689655172413793
 40
0.5689655172413793
 40
0.5689655172413793
 40
0.5689655172413793
 40
0.5862068965517241
 40
0.5862068965517241
 40
0.5862068965517241
 40
0.5862068965517241
 40
0.603448275862069
 40
0.603448275862069
 40
0.603448275862069
 40
0.603448275862069
 40
0.6206896551724138
 40
0.6206896551724138
 40
0.6206896551724138
 40
0.6206896551724138
 40
0.6379310344827587
 40
0.6379310344827587
 40
0.6379310344827587
 40
0.6379310344827587
 40
0.6551724137931034
 40
0.6551724137931034
 40
0.6551724137931034
 40
0.6551724137931034
 40
0.6724137931034483
 40
0.6724137931034483
 40
0.6724137931034483
 40
0.6724137931034483
 40
0.6896551724137931
 40
0.6896551724137931
 40
0.6896551724137931
 40
0.6896551724137931
 40
0.7068965517241379
 40
0.7068965517241379
 40
0.7068965517241379
 40
0.7068965517241379
 40
0.7241379310344828
 40
0.7241379310344828
 40
0.7241379310344828
 40
0.7241379310344828
 40
0.7413793103448276
 40
0.7413793103448276
 40
0.7413793103448276
 40
0.7413793103448276
 40
0.7586206896551724
 40
0.7586206896551724
 40
0.7586206896551724
 40
0.7586206896551724
 40
0.7758620689655172
 40
0.7758620689655172
 40
0.7758620689655172
 40
0.7758620689655172
 40
0.7931034482758621
 40
0.7931034482758621
 40
0.7931034482758621
 40
0.7931034482758621
 40
0.8103448275862069
 40
0.8103448275862069
 40
0.8103448275862069
 40
0.8103448275862069
 40
0.8275862068965517
 40
0.8275862068965517
 40
0.8275862068965517
 40
0.8275862068965517
 40
0.8448275862068966
 40
0.8448275862068966
 40
0.8448275862068966
 40
0.8448275862068966
 40
0.8620689655172413
 40
0.8620689655172413
 40
0.8620689655172413
 40
0.8620689655172413
 40
0.8793103448275862
 40
0.8793103448275862
 40
0.8793103448275862
 40
0.8793103448275862
 40
0.896551724137931
 40
0.896551724137931
 40
0.896551724137931
 40
0.896551724137931
 40
0.9137931034482759
 40
0.9137931034482759
 40
0.9137931034482759
 40
0.9137931034482759
 40
0.9310344827586207
 40
0.9310344827586207
 40
0.9310344827586207
 40
0.9310344827586207
 40
0.9482758620689655
 40
0.9482758620689655
 40
0.9482758620689655
 40
0.9482758620689655
 40
0.9655172413793104
 40
0.9655172413793104
 40
0.9655172413793104
 40
0.9655172413793104
 40
1.0
 40
1.0
 40
1.0
 40
1.0
 10
-138.51875
 20
9.09124
 30
0.0
 10
-138.51875
 20
9.09124
 30
0.0
 10
-138.24874
 20
8.45125
 30
0.0
 10
-138.24874
 20
8.45125
 30
0.0
 10
-138.24874
 20
8.45125
 30
0.0
 10
-138.24874
 20
8.45125
 30
0.0
 10
-137.82875
 20
7.47374
 30
0.0
 10
-137.82875
 20
7.47374
 30
0.0
 10
-137.82875
 20
7.47374
 30
0.0
 10
-137.82875
 20
7.47374
 30
0.0
 10
-137.54625
 20
6.88125
 30
0.0
 10
-137.54625
 20
6.88125
 30
0.0
 10
-137.54625
 20
6.88125
 30
0.0
 10
-137.54625
 20
6.88125
 30
0.0
 10
-136.63625
 20
4.99625
 30
0.0
 10
-136.63625
 20
4.99625
 30
0.0
 10
-136.63625
 20
4.99625
 30
0.0
 10
-136.63625
 20
4.99625
 30
0.0
 10
-135.86624
 20
3.47875
 30
0.0
 10
-135.86624
 20
3.47875
 30
0.0
 10
-135.86624
 20
3.47875
 30
0.0
 10
-135.86624
 20
3.47875
 30
0.0
 10
-134.62625
 20
1.00124
 30
0.0
 10
-134.62625
 20
1.00124
 30
0.0
 10
-134.62625
 20
1.00124
 30
0.0
 10
-134.62625
 20
1.00124
 30
0.0
 10
-133.41375
 20
-1.80874
 30
0.0
 10
-133.41375
 20
-1.80874
 30
0.0
 10
-133.41375
 20
-1.80874
 30
0.0
 10
-133.41375
 20
-1.80874
 30
0.0
 10
-132.17375
 20
-4.61875
 30
0.0
 10
-132.17375
 20
-4.61875
 30
0.0
 10
-132.17375
 20
-4.61875
 30
0.0
 10
-132.17375
 20
-4.61875
 30
0.0
 10
-131.43125
 20
-7.18125
 30
0.0
 10
-131.43125
 20
-7.18125
 30
0.0
 10
-131.43125
 20
-7.18125
 30
0.0
 10
-131.43125
 20
-7.18125
 30
0.0
 10
-130.57625
 20
-9.46875
 30
0.0
 10
-130.57625
 20
-9.46875
 30
0.0
 10
-130.57625
 20
-9.46875
 30
0.0
 10
-130.57625
 20
-9.46875
 30
0.0
 10
-129.83124
 20
-12.25125
 30
0.0
 10
-129.83124
 20
-12.25125
 30
0.0
 10
-129.83124
 20
-12.25125
 30
0.0
 10
-129.83124
 20
-12.25125
 30
0.0
 10
-129.14375
 20
-15.66625
 30
0.0
 10
-129.14375
 20
-15.66625
 30
0.0
 10
-129.14375
 20
-15.66625
 30
0.0
 10
-129.14375
 20
-15.66625
 30
0.0
 10
-128.75875
 20
-19.38625
 30
0.0
 10
-128.75875
 20
-19.38625
 30
0.0
 10
-128.75875
 20
-19.38625
 30
0.0
 10
-128.75875
 20
-19.38625
 30
0.0
 10
-128.84125
 20
-22.30625
 30
0.0
 10
-128.84125
 20
-22.30625
 30
0.0
 10
-128.84125
 20
-22.30625
 30
0.0
 10
-128.84125
 20
-22.30625
 30
0.0
 10
-129.28124
 20
-25.30875
 30
0.0
 10
-129.28124
 20
-25.30875
 30
0.0
 10
-129.28124
 20
-25.30875
 30
0.0
 10
-129.28124
 20
-25.30875
 30
0.0
 10
-129.77625
 20
-27.54125
 30
0.0
 10
-129.77625
 20
-27.54125
 30
0.0
 10
-129.77625
 20
-27.54125
 30
0.0
 10
-129.77625
 20
-27.54125
 30
0.0
 10
-130.38374
 20
-29.58124
 30
0.0
 10
-130.38374
 20
-29.58124
 30
0.0
 10
-130.38374
 20
-29.58124
 30
0.0
 10
-130.38374
 20
-29.58124
 30
0.0
 10
-130.79625
 20
-30.98625
 30
0.0
 10
-130.79625
 20
-30.98625
 30
0.0
 10
-130.79625
 20
-30.98625
 30
0.0
 10
-130.79625
 20
-30.98625
 30
0.0
 10
-131.45875
 20
-32.80375
 30
0.0
 10
-131.45875
 20
-32.80375
 30
0.0
 10
-131.45875
 20
-32.80375
 30
0.0
 10
-131.45875
 20
-32.80375
 30
0.0
 10
-132.20125
 20
-35.03625
 30
0.0
 10
-132.20125
 20
-35.03625
 30
0.0
 10
-132.20125
 20
-35.03625
 30
0.0
 10
-132.20125
 20
-35.03625
 30
0.0
 10
-132.69875
 20
-36.35625
 30
0.0
 10
-132.69875
 20
-36.35625
 30
0.0
 10
-132.69875
 20
-36.35625
 30
0.0
 10
-132.69875
 20
-36.35625
 30
0.0
 10
-133.30375
 20
-38.34125
 30
0.0
 10
-133.30375
 20
-38.34125
 30
0.0
 10
-133.30375
 20
-38.34125
 30
0.0
 10
-133.30375
 20
-38.34125
 30
0.0
 10
-133.55125
 20
-40.04875
 30
0.0
 10
-133.55125
 20
-40.04875
 30
0.0
 10
-133.55125
 20
-40.04875
 30
0.0
 10
-133.55125
 20
-40.04875
 30
0.0
 10
-133.63375
 20
-42.00625
 30
0.0
 10
-133.63375
 20
-42.00625
 30
0.0
 10
-133.63375
 20
-42.00625
 30
0.0
 10
-133.63375
 20
-42.00625
 30
0.0
 10
-133.57875
 20
-44.92625
 30
0.0
 10
-133.57875
 20
-44.92625
 30
0.0
 10
-133.57875
 20
-44.92625
 30
0.0
 10
-133.57875
 20
-44.92625
 30
0.0
 10
-133.30375
 20
-47.90125
 30
0.0
 10
-133.30375
 20
-47.90125
 30
0.0
 10
-133.30375
 20
-47.90125
 30
0.0
 10
-133.30375
 20
-47.90125
 30
0.0
 10
-132.53124
 20
-50.90875
 30
0.0
 10
-132.53124
 20
-50.90875
 30
0.0
 10
-132.53124
 20
-50.90875
 30
0.0
 10
-132.53124
 20
-50.90875
 30
0.0
 10
-98.28875
 20
-50.90875
 30
0.0
 10
-98.28875
 20
-50.90875
 30
0.0
 10
-98.28875
 20
-50.90875
 30
0.0
 10
-98.28875
 20
-50.90875
 30
0.0
 10
-97.92875
 20
-49.19625
 30
0.0
 10
-97.92875
 20
-49.19625
 30
0.0
 10
-97.92875
 20
-49.19625
 30
0.0
 10
-97.92875
 20
-49.19625
 30
0.0
 10
-97.68124
 20
-46.90875
 30
0.0
 10
-97.68124
 20
-46.90875
 30
0.0
 10
-97.68124
 20
-46.90875
 30
0.0
 10
-97.68124
 20
-46.90875
 30
0.0
 10
-97.48875
 20
-45.09125
 30
0.0
 10
-97.48875
 20
-45.09125
 30
0.0
 10
-97.48875
 20
-45.09125
 30
0.0
 10
-97.48875
 20
-45.09125
 30
0.0
 10
-97.43375
 20
-43.38375
 30
0.0
 10
-97.43375
 20
-43.38375
 30
0.0
 10
-97.43375
 20
-43.38375
 30
0.0
 10
-97.43375
 20
-43.38375
 30
0.0
 10
-97.43375
 20
-41.42624
 30
0.0
 10
-97.43375
 20
-41.42624
 30
0.0
 10
-97.43375
 20
-41.42624
 30
0.0
 10
-97.43375
 20
-41.42624
 30
0.0
 10
-97.48875
 20
-39.82875
 30
0.0
 10
-97.48875
 20
-39.82875
 30
0.0
 10
-97.48875
 20
-39.82875
 30
0.0
 10
-97.48875
 20
-39.82875
 30
0.0
 10
-97.76374
 20
-38.20375
 30
0.0
 10
-97.76374
 20
-38.20375
 30
0.0
 10
-97.76374
 20
-38.20375
 30
0.0
 10
-97.76374
 20
-38.20375
 30
0.0
 10
-98.50875
 20
-35.80625
 30
0.0
 10
-98.50875
 20
-35.80625
 30
0.0
 10
-98.50875
 20
-35.80625
 30
0.0
 10
-98.50875
 20
-35.80625
 30
0.0
 10
-99.49875
 20
-33.35375
 30
0.0
 10
-99.49875
 20
-33.35375
 30
0.0
 10
-99.49875
 20
-33.35375
 30
0.0
 10
-99.49875
 20
-33.35375
 30
0.0
 10
-100.84875
 20
-30.02125
 30
0.0
 10
-100.84875
 20
-30.02125
 30
0.0
 10
-100.84875
 20
-30.02125
 30
0.0
 10
-100.84875
 20
-30.02125
 30
0.0
 10
-101.67625
 20
-27.56875
 30
0.0
 10
-101.67625
 20
-27.56875
 30
0.0
 10
-101.67625
 20
-27.56875
 30
0.0
 10
-101.67625
 20
-27.56875
 30
0.0
 10
-102.25375
 20
-25.11625
 30
0.0
 10
-102.25375
 20
-25.11625
 30
0.0
 10
-102.25375
 20
-25.11625
 30
0.0
 10
-102.25375
 20
-25.11625
 30
0.0
 10
-102.64125
 20
-23.35375
 30
0.0
 10
-102.64125
 20
-23.35375
 30
0.0
 10
-102.64125
 20
-23.35375
 30
0.0
 10
-102.64125
 20
-23.35375
 30
0.0
 10
-102.86125
 20
-21.39875
 30
0.0
 10
-102.86125
 20
-21.39875
 30
0.0
 10
-102.86125
 20
-21.39875
 30
0.0
 10
-102.86125
 20
-21.39875
 30
0.0
 10
-102.99874
 20
-19.85625
 30
0.0
 10
-102.99874
 20
-19.85625
 30
0.0
 10
-102.99874
 20
-19.85625
 30
0.0
 10
-102.99874
 20
-19.85625
 30
0.0
 10
-102.97125
 20
-18.22875
 30
0.0
 10
-102.97125
 20
-18.22875
 30
0.0
 10
-102.97125
 20
-18.22875
 30
0.0
 10
-102.97125
 20
-18.22875
 30
0.0
 10
-102.91625
 20
-16.41125
 30
0.0
 10
-102.91625
 20
-16.41125
 30
0.0
 10
-102.91625
 20
-16.41125
 30
0.0
 10
-102.91625
 20
-16.41125
 30
0.0
 10
-102.66875
 20
-14.09625
 30
0.0
 10
-102.66875
 20
-14.09625
 30
0.0
 10
-102.66875
 20
-14.09625
 30
0.0
 10
-102.66875
 20
-14.09625
 30
0.0
 10
-102.19875
 20
-11.47875
 30
0.0
 10
-102.19875
 20
-11.47875
 30
0.0
 10
-102.19875
 20
-11.47875
 30
0.0
 10
-102.19875
 20
-11.47875
 30
0.0
 10
-101.67625
 20
-9.41375
 30
0.0
 10
-101.67625
 20
-9.41375
 30
0.0
 10
-101.67625
 20
-9.41375
 30
0.0
 10
-101.67625
 20
-9.41375
 30
0.0
 10
-101.04375
 20
-7.18125
 30
0.0
 10
-101.04375
 20
-7.18125
 30
0.0
 10
-101.04375
 20
-7.18125
 30
0.0
 10
-101.04375
 20
-7.18125
 30
0.0
 10
-100.35375
 20
-5.17125
 30
0.0
 10
-100.35375
 20
-5.17125
 30
0.0
 10
-100.35375
 20
-5.17125
 30
0.0
 10
-100.35375
 20
-5.17125
 30
0.0
 10
-99.61125
 20
-2.82875
 30
0.0
 10
-99.61125
 20
-2.82875
 30
0.0
 10
-99.61125
 20
-2.82875
 30
0.0
 10
-99.61125
 20
-2.82875
 30
0.0
 10
-98.67375
 20
-0.54125
 30
0.0
 10
-98.67375
 20
-0.54125
 30
0.0
 10
-98.67375
 20
-0.54125
 30
0.0
 10
-98.67375
 20
-0.54125
 30
0.0
 10
-97.70875
 20
1.82625
 30
0.0
 10
-97.70875
 20
1.82625
 30
0.0
 10
-97.70875
 20
1.82625
 30
0.0
 10
-97.70875
 20
1.82625
 30
0.0
 10
-96.66125
 20
4.25125
 30
0.0
 10
-96.66125
 20
4.25125
 30
0.0
 10
-96.66125
 20
4.25125
 30
0.0
 10
-96.66125
 20
4.25125
 30
0.0
 10
-96.02875
 20
5.49125
 30
0.0
 10
-96.02875
 20
5.49125
 30
0.0
 10
-96.02875
 20
5.49125
 30
0.0
 10
-96.02875
 20
5.49125
 30
0.0
 10
-94.45875
 20
9.04375
 30
0.0
 10
-94.45875
 20
9.04375
 30
0.0
 10
-94.45875
 20
9.04375
 30
0.0
 10
-94.45875
 20
9.04375
 30
0.0
 10
-138.51875
 20
9.09124
 30
0.0
 10
-138.51875
 20
9.09124
 30
0.0
  0
SPLINE
  5
4E
330
1F
100
AcDbEntity
  8
Capa 1
 62
   240
370
    35
100
AcDbSpline
210
0.0
220
0.0
230
1.0
 70
     8
 71
     3
 72
    92
 73
    88
 74
     0
 42
0.0000000001
 43
0.0000000001
 12
1.0
 22
0.0
 32
0.0
 13
1.0
 23
0.0
 33
0.0
 40
0.0
 40
0.0
 40
0.0
 40
0.0
 40
0.0434782608695652
 40
0.0434782608695652
 40
0.0434782608695652
 40
0.0434782608695652
 40
0.0869565217391304
 40
0.0869565217391304
 40
0.0869565217391304
 40
0.0869565217391304
 40
0.1304347826086956
 40
0.1304347826086956
 40
0.1304347826086956
 40
0.1304347826086956
 40
0.1739130434782609
 40
0.1739130434782609
 40
0.1739130434782609
 40
0.1739130434782609
 40
0.2173913043478261
 40
0.2173913043478261
 40
0.2173913043478261
 40
0.2173913043478261
 40
0.2608695652173913
 40
0.2608695652173913
 40
0.2608695652173913
 40
0.2608695652173913
 40
0.3043478260869565
 40
0.3043478260869565
 40
0.3043478260869565
 40
0.3043478260869565
 40
0.3478260869565217
 40
0.3478260869565217
 40
0.3478260869565217
 40
0.3478260869565217
 40
0.391304347826087
 40
0.391304347826087
 40
0.391304347826087
 40
0.391304347826087
 40
0.4347826086956522
 40
0.4347826086956522
 40
0.4347826086956522
 40
0.4347826086956522
 40
0.4782608695652174
 40
0.4782608695652174
 40
0.4782608695652174
 40
0.4782608695652174
 40
0.5217391304347826
 40
0.5217391304347826
 40
0.5217391304347826
 40
0.5217391304347826
 40
0.5652173913043478
 40
0.5652173913043478
 40
0.5652173913043478
 40
0.5652173913043478
 40
0.6086956521739131
 40
0.6086956521739131
 40
0.6086956521739131
 40
0.6086956521739131
 40
0.6521739130434783
 40
0.6521739130434783
 40
0.6521739130434783
 40
0.6521739130434783
 40
0.6956521739130435
 40
0.6956521739130435
 40
0.6956521739130435
 40
0.6956521739130435
 40
0.7391304347826086
 40
0.7391304347826086
 40
0.7391304347826086
 40
0.7391304347826086
 40
0.782608695652174
 40
0.782608695652174
 40
0.782608695652174
 40
0.782608695652174
 40
0.8260869565217391
 40
0.8260869565217391
 40
0.8260869565217391
 40
0.8260869565217391
 40
0.8695652173913043
 40
0.8695652173913043
 40
0.8695652173913043
 40
0.8695652173913043
 40
0.9130434782608695
 40
0.9130434782608695
 40
0.9130434782608695
 40
0.9130434782608695
 40
1.0
 40
1.0
 40
1.0
 40
1.0
 10
-42.44375
 20
8.34875
 30
0.0
 10
-42.44375
 20
8.34875
 30
0.0
 10
-43.12875
 20
6.74625
 30
0.0
 10
-43.12875
 20
6.74625
 30
0.0
 10
-43.12875
 20
6.74625
 30
0.0
 10
-43.12875
 20
6.74625
 30
0.0
 10
-45.09125
 20
2.75124
 30
0.0
 10
-45.09125
 20
2.75124
 30
0.0
 10
-45.09125
 20
2.75124
 30
0.0
 10
-45.09125
 20
2.75124
 30
0.0
 10
-46.33125
 20
0.27375
 30
0.0
 10
-46.33125
 20
0.27375
 30
0.0
 10
-46.33125
 20
0.27375
 30
0.0
 10
-46.33125
 20
0.27375
 30
0.0
 10
-48.78375
 20
-5.34875
 30
0.0
 10
-48.78375
 20
-5.34875
 30
0.0
 10
-48.78375
 20
-5.34875
 30
0.0
 10
-48.78375
 20
-5.34875
 30
0.0
 10
-49.52625
 20
-7.90875
 30
0.0
 10
-49.52625
 20
-7.90875
 30
0.0
 10
-49.52625
 20
-7.90875
 30
0.0
 10
-49.52625
 20
-7.90875
 30
0.0
 10
-50.38125
 20
-10.19625
 30
0.0
 10
-50.38125
 20
-10.19625
 30
0.0
 10
-50.38125
 20
-10.19625
 30
0.0
 10
-50.38125
 20
-10.19625
 30
0.0
 10
-51.12375
 20
-12.97875
 30
0.0
 10
-51.12375
 20
-12.97875
 30
0.0
 10
-51.12375
 20
-12.97875
 30
0.0
 10
-51.12375
 20
-12.97875
 30
0.0
 10
-51.81375
 20
-16.39625
 30
0.0
 10
-51.81375
 20
-16.39625
 30
0.0
 10
-51.81375
 20
-16.39625
 30
0.0
 10
-51.81375
 20
-16.39625
 30
0.0
 10
-52.19875
 20
-20.11375
 30
0.0
 10
-52.19875
 20
-20.11375
 30
0.0
 10
-52.19875
 20
-20.11375
 30
0.0
 10
-52.19875
 20
-20.11375
 30
0.0
 10
-52.11625
 20
-23.03375
 30
0.0
 10
-52.11625
 20
-23.03375
 30
0.0
 10
-52.11625
 20
-23.03375
 30
0.0
 10
-52.11625
 20
-23.03375
 30
0.0
 10
-51.67625
 20
-26.03875
 30
0.0
 10
-51.67625
 20
-26.03875
 30
0.0
 10
-51.67625
 20
-26.03875
 30
0.0
 10
-51.67625
 20
-26.03875
 30
0.0
 10
-51.17875
 20
-28.26875
 30
0.0
 10
-51.17875
 20
-28.26875
 30
0.0
 10
-51.17875
 20
-28.26875
 30
0.0
 10
-51.17875
 20
-28.26875
 30
0.0
 10
-50.16125
 20
-31.71375
 30
0.0
 10
-50.16125
 20
-31.71375
 30
0.0
 10
-50.16125
 20
-31.71375
 30
0.0
 10
-50.16125
 20
-31.71375
 30
0.0
 10
-49.49875
 20
-33.53125
 30
0.0
 10
-49.49875
 20
-33.53125
 30
0.0
 10
-49.49875
 20
-33.53125
 30
0.0
 10
-49.49875
 20
-33.53125
 30
0.0
 10
-48.75625
 20
-35.76375
 30
0.0
 10
-48.75625
 20
-35.76375
 30
0.0
 10
-48.75625
 20
-35.76375
 30
0.0
 10
-48.75625
 20
-35.76375
 30
0.0
 10
-48.25875
 20
-37.08625
 30
0.0
 10
-48.25875
 20
-37.08625
 30
0.0
 10
-48.25875
 20
-37.08625
 30
0.0
 10
-48.25875
 20
-37.08625
 30
0.0
 10
-47.65374
 20
-39.06875
 30
0.0
 10
-47.65374
 20
-39.06875
 30
0.0
 10
-47.65374
 20
-39.06875
 30
0.0
 10
-47.65374
 20
-39.06875
 30
0.0
 10
-47.40625
 20
-40.77625
 30
0.0
 10
-47.40625
 20
-40.77625
 30
0.0
 10
-47.40625
 20
-40.77625
 30
0.0
 10
-47.40625
 20
-40.77625
 30
0.0
 10
-47.32375
 20
-42.73375
 30
0.0
 10
-47.32375
 20
-42.73375
 30
0.0
 10
-47.32375
 20
-42.73375
 30
0.0
 10
-47.32375
 20
-42.73375
 30
0.0
 10
-47.37875
 20
-45.65375
 30
0.0
 10
-47.37875
 20
-45.65375
 30
0.0
 10
-47.37875
 20
-45.65375
 30
0.0
 10
-47.37875
 20
-45.65375
 30
0.0
 10
-47.65374
 20
-48.62875
 30
0.0
 10
-47.65374
 20
-48.62875
 30
0.0
 10
-47.65374
 20
-48.62875
 30
0.0
 10
-47.65374
 20
-48.62875
 30
0.0
 10
-48.17375
 20
-50.64375
 30
0.0
 10
-48.17375
 20
-50.64375
 30
0.0
  0
SPLINE
  5
4F
330
1F
100
AcDbEntity
  8
Capa 1
 62
   240
370
    35
100
AcDbSpline
210
0.0
220
0.0
230
1.0
 70
     8
 71
     3
 72
    92
 73
    88
 74
     0
 42
0.0000000001
 43
0.0000000001
 12
1.0
 22
0.0
 32
0.0
 13
1.0
 23
0.0
 33
0.0
 40
0.0
 40
0.0
 40
0.0
 40
0.0
 40
0.0434782608695652
 40
0.0434782608695652
 40
0.0434782608695652
 40
0.0434782608695652
 40
0.0869565217391304
 40
0.0869565217391304
 40
0.0869565217391304
 40
0.0869565217391304
 40
0.1304347826086956
 40
0.1304347826086956
 40
0.1304347826086956
 40
0.1304347826086956
 40
0.1739130434782609
 40
0.1739130434782609
 40
0.1739130434782609
 40
0.1739130434782609
 40
0.2173913043478261
 40
0.2173913043478261
 40
0.2173913043478261
 40
0.2173913043478261
 40
0.2608695652173913
 40
0.2608695652173913
 40
0.2608695652173913
 40
0.2608695652173913
 40
0.3043478260869565
 40
0.3043478260869565
 40
0.3043478260869565
 40
0.3043478260869565
 40
0.3478260869565217
 40
0.3478260869565217
 40
0.3478260869565217
 40
0.3478260869565217
 40
0.391304347826087
 40
0.391304347826087
 40
0.391304347826087
 40
0.391304347826087
 40
0.4347826086956522
 40
0.4347826086956522
 40
0.4347826086956522
 40
0.4347826086956522
 40
0.4782608695652174
 40
0.4782608695652174
 40
0.4782608695652174
 40
0.4782608695652174
 40
0.5217391304347826
 40
0.5217391304347826
 40
0.5217391304347826
 40
0.5217391304347826
 40
0.5652173913043478
 40
0.5652173913043478
 40
0.5652173913043478
 40
0.5652173913043478
 40
0.6086956521739131
 40
0.6086956521739131
 40
0.6086956521739131
 40
0.6086956521739131
 40
0.6521739130434783
 40
0.6521739130434783
 40
0.6521739130434783
 40
0.6521739130434783
 40
0.6956521739130435
 40
0.6956521739130435
 40
0.6956521739130435
 40
0.6956521739130435
 40
0.7391304347826086
 40
0.7391304347826086
 40
0.7391304347826086
 40
0.7391304347826086
 40
0.782608695652174
 40
0.782608695652174
 40
0.782608695652174
 40
0.782608695652174
 40
0.8260869565217391
 40
0.8260869565217391
 40
0.8260869565217391
 40
0.8260869565217391
 40
0.8695652173913043
 40
0.8695652173913043
 40
0.8695652173913043
 40
0.8695652173913043
 40
0.9130434782608695
 40
0.9130434782608695
 40
0.9130434782608695
 40
0.9130434782608695
 40
1.0
 40
1.0
 40
1.0
 40
1.0
 10
-79.91875
 20
-50.64125
 30
0.0
 10
-79.91875
 20
-50.64125
 30
0.0
 10
-80.01625
 20
-49.92875
 30
0.0
 10
-80.01625
 20
-49.92875
 30
0.0
 10
-80.01625
 20
-49.92875
 30
0.0
 10
-80.01625
 20
-49.92875
 30
0.0
 10
-80.45625
 20
-45.82375
 30
0.0
 10
-80.45625
 20
-45.82375
 30
0.0
 10
-80.45625
 20
-45.82375
 30
0.0
 10
-80.45625
 20
-45.82375
 30
0.0
 10
-80.51125
 20
-44.11625
 30
0.0
 10
-80.51125
 20
-44.11625
 30
0.0
 10
-80.51125
 20
-44.11625
 30
0.0
 10
-80.51125
 20
-44.11625
 30
0.0
 10
-80.51125
 20
-42.16125
 30
0.0
 10
-80.51125
 20
-42.16125
 30
0.0
 10
-80.51125
 20
-42.16125
 30
0.0
 10
-80.51125
 20
-42.16125
 30
0.0
 10
-80.45625
 20
-40.56125
 30
0.0
 10
-80.45625
 20
-40.56125
 30
0.0
 10
-80.45625
 20
-40.56125
 30
0.0
 10
-80.45625
 20
-40.56125
 30
0.0
 10
-80.18125
 20
-38.93625
 30
0.0
 10
-80.18125
 20
-38.93625
 30
0.0
 10
-80.18125
 20
-38.93625
 30
0.0
 10
-80.18125
 20
-38.93625
 30
0.0
 10
-79.43625
 20
-36.53875
 30
0.0
 10
-79.43625
 20
-36.53875
 30
0.0
 10
-79.43625
 20
-36.53875
 30
0.0
 10
-79.43625
 20
-36.53875
 30
0.0
 10
-77.09375
 20
-30.75375
 30
0.0
 10
-77.09375
 20
-30.75375
 30
0.0
 10
-77.09375
 20
-30.75375
 30
0.0
 10
-77.09375
 20
-30.75375
 30
0.0
 10
-76.26875
 20
-28.30125
 30
0.0
 10
-76.26875
 20
-28.30125
 30
0.0
 10
-76.26875
 20
-28.30125
 30
0.0
 10
-76.26875
 20
-28.30125
 30
0.0
 10
-75.30375
 20
-24.08625
 30
0.0
 10
-75.30375
 20
-24.08625
 30
0.0
 10
-75.30375
 20
-24.08625
 30
0.0
 10
-75.30375
 20
-24.08625
 30
0.0
 10
-74.94625
 20
-20.58875
 30
0.0
 10
-74.94625
 20
-20.58875
 30
0.0
 10
-74.94625
 20
-20.58875
 30
0.0
 10
-74.94625
 20
-20.58875
 30
0.0
 10
-75.02875
 20
-17.14375
 30
0.0
 10
-75.02875
 20
-17.14375
 30
0.0
 10
-75.02875
 20
-17.14375
 30
0.0
 10
-75.02875
 20
-17.14375
 30
0.0
 10
-75.27625
 20
-14.83125
 30
0.0
 10
-75.27625
 20
-14.83125
 30
0.0
 10
-75.27625
 20
-14.83125
 30
0.0
 10
-75.27625
 20
-14.83125
 30
0.0
 10
-75.74375
 20
-12.21375
 30
0.0
 10
-75.74375
 20
-12.21375
 30
0.0
 10
-75.74375
 20
-12.21375
 30
0.0
 10
-75.74375
 20
-12.21375
 30
0.0
 10
-76.26875
 20
-10.14625
 30
0.0
 10
-76.26875
 20
-10.14625
 30
0.0
 10
-76.26875
 20
-10.14625
 30
0.0
 10
-76.26875
 20
-10.14625
 30
0.0
 10
-76.90125
 20
-7.91625
 30
0.0
 10
-76.90125
 20
-7.91625
 30
0.0
 10
-76.90125
 20
-7.91625
 30
0.0
 10
-76.90125
 20
-7.91625
 30
0.0
 10
-77.59125
 20
-5.90375
 30
0.0
 10
-77.59125
 20
-5.90375
 30
0.0
 10
-77.59125
 20
-5.90375
 30
0.0
 10
-77.59125
 20
-5.90375
 30
0.0
 10
-78.33375
 20
-3.56124
 30
0.0
 10
-78.33375
 20
-3.56124
 30
0.0
 10
-78.33375
 20
-3.56124
 30
0.0
 10
-78.33375
 20
-3.56124
 30
0.0
 10
-80.23625
 20
1.09375
 30
0.0
 10
-80.23625
 20
1.09375
 30
0.0
 10
-80.23625
 20
1.09375
 30
0.0
 10
-80.23625
 20
1.09375
 30
0.0
 10
-81.28375
 20
3.51875
 30
0.0
 10
-81.28375
 20
3.51875
 30
0.0
 10
-81.28375
 20
3.51875
 30
0.0
 10
-81.28375
 20
3.51875
 30
0.0
 10
-81.91625
 20
4.75875
 30
0.0
 10
-81.91625
 20
4.75875
 30
0.0
 10
-81.91625
 20
4.75875
 30
0.0
 10
-81.91625
 20
4.75875
 30
0.0
 10
-83.48624
 20
8.31125
 30
0.0
 10
-83.48624
 20
8.31125
 30
0.0
  0
SPLINE
  5
50
330
1F
100
AcDbEntity
  8
Capa 1
 62
   175
370
    35
100
AcDbSpline
210
0.0
220
0.0
230
1.0
 70
    11
 71
     3
 72
    72
 73
    68
 74
     0
 42
0.0000000001
 43
0.0000000001
 12
1.0
 22
0.0
 32
0.0
 13
1.0
 23
0.0
 33
0.0
 40
0.0
 40
0.0
 40
0.0
 40
0.0
 40
0.0555555555555556
 40
0.0555555555555556
 40
0.0555555555555556
 40
0.0555555555555556
 40
0.1111111111111111
 40
0.1111111111111111
 40
0.1111111111111111
 40
0.1111111111111111
 40
0.1666666666666667
 40
0.1666666666666667
 40
0.1666666666666667
 40
0.1666666666666667
 40
0.2222222222222222
 40
0.2222222222222222
 40
0.2222222222222222
 40
0.2222222222222222
 40
0.2777777777777778
 40
0.2777777777777778
 40
0.2777777777777778
 40
0.2777777777777778
 40
0.3333333333333333
 40
0.3333333333333333
 40
0.3333333333333333
 40
0.3333333333333333
 40
0.3888888888888889
 40
0.3888888888888889
 40
0.3888888888888889
 40
0.3888888888888889
 40
0.4444444444444444
 40
0.4444444444444444
 40
0.4444444444444444
 40
0.4444444444444444
 40
0.5
 40
0.5
 40
0.5
 40
0.5
 40
0.5555555555555556
 40
0.5555555555555556
 40
0.5555555555555556
 40
0.5555555555555556
 40
0.6111111111111112
 40
0.6111111111111112
 40
0.6111111111111112
 40
0.6111111111111112
 40
0.6666666666666666
 40
0.6666666666666666
 40
0.6666666666666666
 40
0.6666666666666666
 40
0.7222222222222222
 40
0.7222222222222222
 40
0.7222222222222222
 40
0.7222222222222222
 40
0.7777777777777778
 40
0.7777777777777778
 40
0.7777777777777778
 40
0.7777777777777778
 40
0.8333333333333334
 40
0.8333333333333334
 40
0.8333333333333334
 40
0.8333333333333334
 40
0.8888888888888888
 40
0.8888888888888888
 40
0.8888888888888888
 40
0.8888888888888888
 40
1.0
 40
1.0
 40
1.0
 40
1.0
 10
-53.22875
 20
-30.55875
 30
0.0
 10
-53.22875
 20
-30.55875
 30
0.0
 10
-52.50875
 20
-31.97625
 30
0.0
 10
-52.50875
 20
-31.97625
 30
0.0
 10
-52.50875
 20
-31.97625
 30
0.0
 10
-52.50875
 20
-31.97625
 30
0.0
 10
-51.90625
 20
-33.47375
 30
0.0
 10
-51.90625
 20
-33.47375
 30
0.0
 10
-51.90625
 20
-33.47375
 30
0.0
 10
-51.90625
 20
-33.47375
 30
0.0
 10
-51.40875
 20
-35.03125
 30
0.0
 10
-51.40875
 20
-35.03125
 30
0.0
 10
-51.40875
 20
-35.03125
 30
0.0
 10
-51.40875
 20
-35.03125
 30
0.0
 10
-51.01125
 20
-36.62875
 30
0.0
 10
-51.01125
 20
-36.62875
 30
0.0
 10
-51.01125
 20
-36.62875
 30
0.0
 10
-51.01125
 20
-36.62875
 30
0.0
 10
-50.70375
 20
-38.24625
 30
0.0
 10
-50.70375
 20
-38.24625
 30
0.0
 10
-50.70375
 20
-38.24625
 30
0.0
 10
-50.70375
 20
-38.24625
 30
0.0
 10
-50.47375
 20
-39.86125
 30
0.0
 10
-50.47375
 20
-39.86125
 30
0.0
 10
-50.47375
 20
-39.86125
 30
0.0
 10
-50.47375
 20
-39.86125
 30
0.0
 10
-50.22375
 20
-43.01375
 30
0.0
 10
-50.22375
 20
-43.01375
 30
0.0
 10
-50.22375
 20
-43.01375
 30
0.0
 10
-50.22375
 20
-43.01375
 30
0.0
 10
-61.52125
 20
-46.56125
 30
0.0
 10
-61.52125
 20
-46.56125
 30
0.0
 10
-61.52125
 20
-46.56125
 30
0.0
 10
-61.52125
 20
-46.56125
 30
0.0
 10
-77.94125
 20
-42.43125
 30
0.0
 10
-77.94125
 20
-42.43125
 30
0.0
 10
-77.94125
 20
-42.43125
 30
0.0
 10
-77.94125
 20
-42.43125
 30
0.0
 10
-77.62375
 20
-39.29625
 30
0.0
 10
-77.62375
 20
-39.29625
 30
0.0
 10
-77.62375
 20
-39.29625
 30
0.0
 10
-77.62375
 20
-39.29625
 30
0.0
 10
-77.11625
 20
-36.15375
 30
0.0
 10
-77.11625
 20
-36.15375
 30
0.0
 10
-77.11625
 20
-36.15375
 30
0.0
 10
-77.11625
 20
-36.15375
 30
0.0
 10
-76.76125
 20
-34.60875
 30
0.0
 10
-76.76125
 20
-34.60875
 30
0.0
 10
-76.76125
 20
-34.60875
 30
0.0
 10
-76.76125
 20
-34.60875
 30
0.0
 10
-76.32625
 20
-33.09875
 30
0.0
 10
-76.32625
 20
-33.09875
 30
0.0
 10
-76.32625
 20
-33.09875
 30
0.0
 10
-76.32625
 20
-33.09875
 30
0.0
 10
-75.79375
 20
-31.63125
 30
0.0
 10
-75.79375
 20
-31.63125
 30
0.0
 10
-75.79375
 20
-31.63125
 30
0.0
 10
-75.79375
 20
-31.63125
 30
0.0
 10
-75.15875
 20
-30.21875
 30
0.0
 10
-75.15875
 20
-30.21875
 30
0.0
 10
-75.15875
 20
-30.21875
 30
0.0
 10
-75.15875
 20
-30.21875
 30
0.0
 10
-61.60375
 20
-33.19625
 30
0.0
 10
-61.60375
 20
-33.19625
 30
0.0
 10
-61.60375
 20
-33.19625
 30
0.0
 10
-61.60375
 20
-33.19625
 30
0.0
 10
-53.22875
 20
-30.55875
 30
0.0
 10
-53.22875
 20
-30.55875
 30
0.0
  0
SPLINE
  5
51
330
1F
100
AcDbEntity
  8
Capa 1
 62
   175
370
    35
100
AcDbSpline
210
0.0
220
0.0
230
1.0
 70
    11
 71
     3
 72
    64
 73
    60
 74
     0
 42
0.0000000001
 43
0.0000000001
 12
1.0
 22
0.0
 32
0.0
 13
1.0
 23
0.0
 33
0.0
 40
0.0
 40
0.0
 40
0.0
 40
0.0
 40
0.0625
 40
0.0625
 40
0.0625
 40
0.0625
 40
0.125
 40
0.125
 40
0.125
 40
0.125
 40
0.1875
 40
0.1875
 40
0.1875
 40
0.1875
 40
0.25
 40
0.25
 40
0.25
 40
0.25
 40
0.3125
 40
0.3125
 40
0.3125
 40
0.3125
 40
0.375
 40
0.375
 40
0.375
 40
0.375
 40
0.4375
 40
0.4375
 40
0.4375
 40
0.4375
 40
0.5
 40
0.5
 40
0.5
 40
0.5
 40
0.5625
 40
0.5625
 40
0.5625
 40
0.5625
 40
0.625
 40
0.625
 40
0.625
 40
0.625
 40
0.6875
 40
0.6875
 40
0.6875
 40
0.6875
 40
0.75
 40
0.75
 40
0.75
 40
0.75
 40
0.8125
 40
0.8125
 40
0.8125
 40
0.8125
 40
0.875
 40
0.875
 40
0.875
 40
0.875
 40
1.0
 40
1.0
 40
1.0
 40
1.0
 10
-53.53125
 20
-12.76375
 30
0.0
 10
-53.53125
 20
-12.76375
 30
0.0
 10
-53.78625
 20
-14.62125
 30
0.0
 10
-53.78625
 20
-14.62125
 30
0.0
 10
-53.78625
 20
-14.62125
 30
0.0
 10
-53.78625
 20
-14.62125
 30
0.0
 10
-53.96125
 20
-16.43875
 30
0.0
 10
-53.96125
 20
-16.43875
 30
0.0
 10
-53.96125
 20
-16.43875
 30
0.0
 10
-53.96125
 20
-16.43875
 30
0.0
 10
-54.06625
 20
-20.00875
 30
0.0
 10
-54.06625
 20
-20.00875
 30
0.0
 10
-54.06625
 20
-20.00875
 30
0.0
 10
-54.06625
 20
-20.00875
 30
0.0
 10
-54.00125
 20
-21.78375
 30
0.0
 10
-54.00125
 20
-21.78375
 30
0.0
 10
-54.00125
 20
-21.78375
 30
0.0
 10
-54.00125
 20
-21.78375
 30
0.0
 10
-53.85625
 20
-23.57125
 30
0.0
 10
-53.85625
 20
-23.57125
 30
0.0
 10
-53.85625
 20
-23.57125
 30
0.0
 10
-53.85625
 20
-23.57125
 30
0.0
 10
-53.33875
 20
-27.22875
 30
0.0
 10
-53.33875
 20
-27.22875
 30
0.0
 10
-53.33875
 20
-27.22875
 30
0.0
 10
-53.33875
 20
-27.22875
 30
0.0
 10
-61.35625
 20
-30.12125
 30
0.0
 10
-61.35625
 20
-30.12125
 30
0.0
 10
-61.35625
 20
-30.12125
 30
0.0
 10
-61.35625
 20
-30.12125
 30
0.0
 10
-73.80875
 20
-27.88875
 30
0.0
 10
-73.80875
 20
-27.88875
 30
0.0
 10
-73.80875
 20
-27.88875
 30
0.0
 10
-73.80875
 20
-27.88875
 30
0.0
 10
-73.42875
 20
-24.09375
 30
0.0
 10
-73.42875
 20
-24.09375
 30
0.0
 10
-73.42875
 20
-24.09375
 30
0.0
 10
-73.42875
 20
-24.09375
 30
0.0
 10
-73.01625
 20
-20.40125
 30
0.0
 10
-73.01625
 20
-20.40125
 30
0.0
 10
-73.01625
 20
-20.40125
 30
0.0
 10
-73.01625
 20
-20.40125
 30
0.0
 10
-72.73875
 20
-16.68375
 30
0.0
 10
-72.73875
 20
-16.68375
 30
0.0
 10
-72.73875
 20
-16.68375
 30
0.0
 10
-72.73875
 20
-16.68375
 30
0.0
 10
-72.70125
 20
-14.77875
 30
0.0
 10
-72.70125
 20
-14.77875
 30
0.0
 10
-72.70125
 20
-14.77875
 30
0.0
 10
-72.70125
 20
-14.77875
 30
0.0
 10
-72.76125
 20
-12.81875
 30
0.0
 10
-72.76125
 20
-12.81875
 30
0.0
 10
-72.76125
 20
-12.81875
 30
0.0
 10
-72.76125
 20
-12.81875
 30
0.0
 10
-60.85875
 20
-14.66625
 30
0.0
 10
-60.85875
 20
-14.66625
 30
0.0
 10
-60.85875
 20
-14.66625
 30
0.0
 10
-60.85875
 20
-14.66625
 30
0.0
 10
-53.53125
 20
-12.76375
 30
0.0
 10
-53.53125
 20
-12.76375
 30
0.0
  0
SPLINE
  5
52
330
1F
100
AcDbEntity
  8
Capa 1
 62
   175
370
    35
100
AcDbSpline
210
0.0
220
0.0
230
1.0
 70
    11
 71
     3
 72
    76
 73
    72
 74
     0
 42
0.0000000001
 43
0.0000000001
 12
1.0
 22
0.0
 32
0.0
 13
1.0
 23
0.0
 33
0.0
 40
0.0
 40
0.0
 40
0.0
 40
0.0
 40
0.0526315789473684
 40
0.0526315789473684
 40
0.0526315789473684
 40
0.0526315789473684
 40
0.1052631578947368
 40
0.1052631578947368
 40
0.1052631578947368
 40
0.1052631578947368
 40
0.1578947368421053
 40
0.1578947368421053
 40
0.1578947368421053
 40
0.1578947368421053
 40
0.2105263157894737
 40
0.2105263157894737
 40
0.2105263157894737
 40
0.2105263157894737
 40
0.2631578947368421
 40
0.2631578947368421
 40
0.2631578947368421
 40
0.2631578947368421
 40
0.3157894736842105
 40
0.3157894736842105
 40
0.3157894736842105
 40
0.3157894736842105
 40
0.3684210526315789
 40
0.3684210526315789
 40
0.3684210526315789
 40
0.3684210526315789
 40
0.4210526315789473
 40
0.4210526315789473
 40
0.4210526315789473
 40
0.4210526315789473
 40
0.4736842105263158
 40
0.4736842105263158
 40
0.4736842105263158
 40
0.4736842105263158
 40
0.5263157894736842
 40
0.5263157894736842
 40
0.5263157894736842
 40
0.5263157894736842
 40
0.5789473684210527
 40
0.5789473684210527
 40
0.5789473684210527
 40
0.5789473684210527
 40
0.631578947368421
 40
0.631578947368421
 40
0.631578947368421
 40
0.631578947368421
 40
0.6842105263157895
 40
0.6842105263157895
 40
0.6842105263157895
 40
0.6842105263157895
 40
0.7368421052631579
 40
0.7368421052631579
 40
0.7368421052631579
 40
0.7368421052631579
 40
0.7894736842105263
 40
0.7894736842105263
 40
0.7894736842105263
 40
0.7894736842105263
 40
0.8421052631578947
 40
0.8421052631578947
 40
0.8421052631578947
 40
0.8421052631578947
 40
0.8947368421052632
 40
0.8947368421052632
 40
0.8947368421052632
 40
0.8947368421052632
 40
1.0
 40
1.0
 40
1.0
 40
1.0
 10
-46.93375
 20
4.60625
 30
0.0
 10
-46.93375
 20
4.60625
 30
0.0
 10
-78.29875
 20
4.45374
 30
0.0
 10
-78.29875
 20
4.45374
 30
0.0
 10
-78.29875
 20
4.45374
 30
0.0
 10
-78.29875
 20
4.45374
 30
0.0
 10
-77.47125
 20
2.88375
 30
0.0
 10
-77.47125
 20
2.88375
 30
0.0
 10
-77.47125
 20
2.88375
 30
0.0
 10
-77.47125
 20
2.88375
 30
0.0
 10
-76.64625
 20
1.34125
 30
0.0
 10
-76.64625
 20
1.34125
 30
0.0
 10
-76.64625
 20
1.34125
 30
0.0
 10
-76.64625
 20
1.34125
 30
0.0
 10
-75.59875
 20
-0.80875
 30
0.0
 10
-75.59875
 20
-0.80875
 30
0.0
 10
-75.59875
 20
-0.80875
 30
0.0
 10
-75.59875
 20
-0.80875
 30
0.0
 10
-74.82625
 20
-2.62625
 30
0.0
 10
-74.82625
 20
-2.62625
 30
0.0
 10
-74.82625
 20
-2.62625
 30
0.0
 10
-74.82625
 20
-2.62625
 30
0.0
 10
-74.19375
 20
-4.11375
 30
0.0
 10
-74.19375
 20
-4.11375
 30
0.0
 10
-74.19375
 20
-4.11375
 30
0.0
 10
-74.19375
 20
-4.11375
 30
0.0
 10
-73.66875
 20
-5.49125
 30
0.0
 10
-73.66875
 20
-5.49125
 30
0.0
 10
-73.66875
 20
-5.49125
 30
0.0
 10
-73.66875
 20
-5.49125
 30
0.0
 10
-72.81625
 20
-8.10875
 30
0.0
 10
-72.81625
 20
-8.10875
 30
0.0
 10
-72.81625
 20
-8.10875
 30
0.0
 10
-72.81625
 20
-8.10875
 30
0.0
 10
-72.40375
 20
-9.81624
 30
0.0
 10
-72.40375
 20
-9.81624
 30
0.0
 10
-72.40375
 20
-9.81624
 30
0.0
 10
-72.40375
 20
-9.81624
 30
0.0
 10
-71.10875
 20
-10.00875
 30
0.0
 10
-71.10875
 20
-10.00875
 30
0.0
 10
-71.10875
 20
-10.00875
 30
0.0
 10
-71.10875
 20
-10.00875
 30
0.0
 10
-69.50875
 20
-10.34125
 30
0.0
 10
-69.50875
 20
-10.34125
 30
0.0
 10
-69.50875
 20
-10.34125
 30
0.0
 10
-69.50875
 20
-10.34125
 30
0.0
 10
-60.91375
 20
-11.77375
 30
0.0
 10
-60.91375
 20
-11.77375
 30
0.0
 10
-60.91375
 20
-11.77375
 30
0.0
 10
-60.91375
 20
-11.77375
 30
0.0
 10
-53.83375
 20
-9.65125
 30
0.0
 10
-53.83375
 20
-9.65125
 30
0.0
 10
-53.83375
 20
-9.65125
 30
0.0
 10
-53.83375
 20
-9.65125
 30
0.0
 10
-52.78625
 20
-7.06125
 30
0.0
 10
-52.78625
 20
-7.06125
 30
0.0
 10
-52.78625
 20
-7.06125
 30
0.0
 10
-52.78625
 20
-7.06125
 30
0.0
 10
-51.47375
 20
-4.01124
 30
0.0
 10
-51.47375
 20
-4.01124
 30
0.0
 10
-51.47375
 20
-4.01124
 30
0.0
 10
-51.47375
 20
-4.01124
 30
0.0
 10
-50.09125
 20
-1.13125
 30
0.0
 10
-50.09125
 20
-1.13125
 30
0.0
 10
-50.09125
 20
-1.13125
 30
0.0
 10
-50.09125
 20
-1.13125
 30
0.0
 10
-48.59125
 20
1.70124
 30
0.0
 10
-48.59125
 20
1.70124
 30
0.0
 10
-48.59125
 20
1.70124
 30
0.0
 10
-48.59125
 20
1.70124
 30
0.0
 10
-46.93375
 20
4.60625
 30
0.0
 10
-46.93375
 20
4.60625
 30
0.0
  0
SPLINE
  5
53
330
1F
100
AcDbEntity
  8
Capa 1
 62
   250
370
    35
100
AcDbSpline
210
0.0
220
0.0
230
1.0
 70
    11
 71
     3
 72
   252
 73
   248
 74
     0
 42
0.0000000001
 43
0.0000000001
 12
1.0
 22
0.0
 32
0.0
 13
1.0
 23
0.0
 33
0.0
 40
0.0
 40
0.0
 40
0.0
 40
0.0
 40
0.0158730158730159
 40
0.0158730158730159
 40
0.0158730158730159
 40
0.0158730158730159
 40
0.0317460317460317
 40
0.0317460317460317
 40
0.0317460317460317
 40
0.0317460317460317
 40
0.0476190476190476
 40
0.0476190476190476
 40
0.0476190476190476
 40
0.0476190476190476
 40
0.0634920634920635
 40
0.0634920634920635
 40
0.0634920634920635
 40
0.0634920634920635
 40
0.0793650793650794
 40
0.0793650793650794
 40
0.0793650793650794
 40
0.0793650793650794
 40
0.0952380952380952
 40
0.0952380952380952
 40
0.0952380952380952
 40
0.0952380952380952
 40
0.1111111111111111
 40
0.1111111111111111
 40
0.1111111111111111
 40
0.1111111111111111
 40
0.126984126984127
 40
0.126984126984127
 40
0.126984126984127
 40
0.126984126984127
 40
0.1428571428571428
 40
0.1428571428571428
 40
0.1428571428571428
 40
0.1428571428571428
 40
0.1587301587301587
 40
0.1587301587301587
 40
0.1587301587301587
 40
0.1587301587301587
 40
0.1746031746031746
 40
0.1746031746031746
 40
0.1746031746031746
 40
0.1746031746031746
 40
0.1904761904761905
 40
0.1904761904761905
 40
0.1904761904761905
 40
0.1904761904761905
 40
0.2063492063492063
 40
0.2063492063492063
 40
0.2063492063492063
 40
0.2063492063492063
 40
0.2222222222222222
 40
0.2222222222222222
 40
0.2222222222222222
 40
0.2222222222222222
 40
0.2380952380952381
 40
0.2380952380952381
 40
0.2380952380952381
 40
0.2380952380952381
 40
0.253968253968254
 40
0.253968253968254
 40
0.253968253968254
 40
0.253968253968254
 40
0.2698412698412698
 40
0.2698412698412698
 40
0.2698412698412698
 40
0.2698412698412698
 40
0.2857142857142857
 40
0.2857142857142857
 40
0.2857142857142857
 40
0.2857142857142857
 40
0.3015873015873016
 40
0.3015873015873016
 40
0.3015873015873016
 40
0.3015873015873016
 40
0.3174603174603174
 40
0.3174603174603174
 40
0.3174603174603174
 40
0.3174603174603174
 40
0.3333333333333333
 40
0.3333333333333333
 40
0.3333333333333333
 40
0.3333333333333333
 40
0.3492063492063492
 40
0.3492063492063492
 40
0.3492063492063492
 40
0.3492063492063492
 40
0.3650793650793651
 40
0.3650793650793651
 40
0.3650793650793651
 40
0.3650793650793651
 40
0.3809523809523809
 40
0.3809523809523809
 40
0.3809523809523809
 40
0.3809523809523809
 40
0.3968253968253968
 40
0.3968253968253968
 40
0.3968253968253968
 40
0.3968253968253968
 40
0.4126984126984127
 40
0.4126984126984127
 40
0.4126984126984127
 40
0.4126984126984127
 40
0.4285714285714285
 40
0.4285714285714285
 40
0.4285714285714285
 40
0.4285714285714285
 40
0.4444444444444444
 40
0.4444444444444444
 40
0.4444444444444444
 40
0.4444444444444444
 40
0.4603174603174603
 40
0.4603174603174603
 40
0.4603174603174603
 40
0.4603174603174603
 40
0.4761904761904762
 40
0.4761904761904762
 40
0.4761904761904762
 40
0.4761904761904762
 40
0.492063492063492
 40
0.492063492063492
 40
0.492063492063492
 40
0.492063492063492
 40
0.5079365079365079
 40
0.5079365079365079
 40
0.5079365079365079
 40
0.5079365079365079
 40
0.5238095238095238
 40
0.5238095238095238
 40
0.5238095238095238
 40
0.5238095238095238
 40
0.5396825396825397
 40
0.5396825396825397
 40
0.5396825396825397
 40
0.5396825396825397
 40
0.5555555555555556
 40
0.5555555555555556
 40
0.5555555555555556
 40
0.5555555555555556
 40
0.5714285714285714
 40
0.5714285714285714
 40
0.5714285714285714
 40
0.5714285714285714
 40
0.5873015873015873
 40
0.5873015873015873
 40
0.5873015873015873
 40
0.5873015873015873
 40
0.6031746031746031
 40
0.6031746031746031
 40
0.6031746031746031
 40
0.6031746031746031
 40
0.6190476190476191
 40
0.6190476190476191
 40
0.6190476190476191
 40
0.6190476190476191
 40
0.6349206349206349
 40
0.6349206349206349
 40
0.6349206349206349
 40
0.6349206349206349
 40
0.6507936507936508
 40
0.6507936507936508
 40
0.6507936507936508
 40
0.6507936507936508
 40
0.6666666666666666
 40
0.6666666666666666
 40
0.6666666666666666
 40
0.6666666666666666
 40
0.6825396825396826
 40
0.6825396825396826
 40
0.6825396825396826
 40
0.6825396825396826
 40
0.6984126984126984
 40
0.6984126984126984
 40
0.6984126984126984
 40
0.6984126984126984
 40
0.7142857142857143
 40
0.7142857142857143
 40
0.7142857142857143
 40
0.7142857142857143
 40
0.7301587301587301
 40
0.7301587301587301
 40
0.7301587301587301
 40
0.7301587301587301
 40
0.746031746031746
 40
0.746031746031746
 40
0.746031746031746
 40
0.746031746031746
 40
0.7619047619047619
 40
0.7619047619047619
 40
0.7619047619047619
 40
0.7619047619047619
 40
0.7777777777777778
 40
0.7777777777777778
 40
0.7777777777777778
 40
0.7777777777777778
 40
0.7936507936507936
 40
0.7936507936507936
 40
0.7936507936507936
 40
0.7936507936507936
 40
0.8095238095238095
 40
0.8095238095238095
 40
0.8095238095238095
 40
0.8095238095238095
 40
0.8253968253968254
 40
0.8253968253968254
 40
0.8253968253968254
 40
0.8253968253968254
 40
0.8412698412698413
 40
0.8412698412698413
 40
0.8412698412698413
 40
0.8412698412698413
 40
0.8571428571428571
 40
0.8571428571428571
 40
0.8571428571428571
 40
0.8571428571428571
 40
0.873015873015873
 40
0.873015873015873
 40
0.873015873015873
 40
0.873015873015873
 40
0.8888888888888888
 40
0.8888888888888888
 40
0.8888888888888888
 40
0.8888888888888888
 40
0.9047619047619048
 40
0.9047619047619048
 40
0.9047619047619048
 40
0.9047619047619048
 40
0.9206349206349206
 40
0.9206349206349206
 40
0.9206349206349206
 40
0.9206349206349206
 40
0.9365079365079365
 40
0.9365079365079365
 40
0.9365079365079365
 40
0.9365079365079365
 40
0.9523809523809523
 40
0.9523809523809523
 40
0.9523809523809523
 40
0.9523809523809523
 40
0.9682539682539683
 40
0.9682539682539683
 40
0.9682539682539683
 40
0.9682539682539683
 40
1.0
 40
1.0
 40
1.0
 40
1.0
 10
-40.94625
 20
8.35125
 30
0.0
 10
-40.94625
 20
8.35125
 30
0.0
 10
-41.21625
 20
7.71124
 30
0.0
 10
-41.21625
 20
7.71124
 30
0.0
 10
-41.21625
 20
7.71124
 30
0.0
 10
-41.21625
 20
7.71124
 30
0.0
 10
-41.63625
 20
6.73375
 30
0.0
 10
-41.63625
 20
6.73375
 30
0.0
 10
-41.63625
 20
6.73375
 30
0.0
 10
-41.63625
 20
6.73375
 30
0.0
 10
-41.91625
 20
6.14374
 30
0.0
 10
-41.91625
 20
6.14374
 30
0.0
 10
-41.91625
 20
6.14374
 30
0.0
 10
-41.91625
 20
6.14374
 30
0.0
 10
-42.82625
 20
4.25625
 30
0.0
 10
-42.82625
 20
4.25625
 30
0.0
 10
-42.82625
 20
4.25625
 30
0.0
 10
-42.82625
 20
4.25625
 30
0.0
 10
-43.59875
 20
2.74125
 30
0.0
 10
-43.59875
 20
2.74125
 30
0.0
 10
-43.59875
 20
2.74125
 30
0.0
 10
-43.59875
 20
2.74125
 30
0.0
 10
-44.83875
 20
0.26124
 30
0.0
 10
-44.83875
 20
0.26124
 30
0.0
 10
-44.83875
 20
0.26124
 30
0.0
 10
-44.83875
 20
0.26124
 30
0.0
 10
-46.05125
 20
-2.54874
 30
0.0
 10
-46.05125
 20
-2.54874
 30
0.0
 10
-46.05125
 20
-2.54874
 30
0.0
 10
-46.05125
 20
-2.54874
 30
0.0
 10
-47.28875
 20
-5.35875
 30
0.0
 10
-47.28875
 20
-5.35875
 30
0.0
 10
-47.28875
 20
-5.35875
 30
0.0
 10
-47.28875
 20
-5.35875
 30
0.0
 10
-48.03375
 20
-7.92125
 30
0.0
 10
-48.03375
 20
-7.92125
 30
0.0
 10
-48.03375
 20
-7.92125
 30
0.0
 10
-48.03375
 20
-7.92125
 30
0.0
 10
-48.88875
 20
-10.20625
 30
0.0
 10
-48.88875
 20
-10.20625
 30
0.0
 10
-48.88875
 20
-10.20625
 30
0.0
 10
-48.88875
 20
-10.20625
 30
0.0
 10
-49.63125
 20
-12.99125
 30
0.0
 10
-49.63125
 20
-12.99125
 30
0.0
 10
-49.63125
 20
-12.99125
 30
0.0
 10
-49.63125
 20
-12.99125
 30
0.0
 10
-50.32125
 20
-16.40625
 30
0.0
 10
-50.32125
 20
-16.40625
 30
0.0
 10
-50.32125
 20
-16.40625
 30
0.0
 10
-50.32125
 20
-16.40625
 30
0.0
 10
-50.70625
 20
-20.12625
 30
0.0
 10
-50.70625
 20
-20.12625
 30
0.0
 10
-50.70625
 20
-20.12625
 30
0.0
 10
-50.70625
 20
-20.12625
 30
0.0
 10
-50.62375
 20
-23.04625
 30
0.0
 10
-50.62375
 20
-23.04625
 30
0.0
 10
-50.62375
 20
-23.04625
 30
0.0
 10
-50.62375
 20
-23.04625
 30
0.0
 10
-50.18375
 20
-26.04874
 30
0.0
 10
-50.18375
 20
-26.04874
 30
0.0
 10
-50.18375
 20
-26.04874
 30
0.0
 10
-50.18375
 20
-26.04874
 30
0.0
 10
-49.68625
 20
-28.28125
 30
0.0
 10
-49.68625
 20
-28.28125
 30
0.0
 10
-49.68625
 20
-28.28125
 30
0.0
 10
-49.68625
 20
-28.28125
 30
0.0
 10
-49.08125
 20
-30.31875
 30
0.0
 10
-49.08125
 20
-30.31875
 30
0.0
 10
-49.08125
 20
-30.31875
 30
0.0
 10
-49.08125
 20
-30.31875
 30
0.0
 10
-48.66625
 20
-31.72375
 30
0.0
 10
-48.66625
 20
-31.72375
 30
0.0
 10
-48.66625
 20
-31.72375
 30
0.0
 10
-48.66625
 20
-31.72375
 30
0.0
 10
-48.00625
 20
-33.54125
 30
0.0
 10
-48.00625
 20
-33.54125
 30
0.0
 10
-48.00625
 20
-33.54125
 30
0.0
 10
-48.00625
 20
-33.54125
 30
0.0
 10
-47.26125
 20
-35.77375
 30
0.0
 10
-47.26125
 20
-35.77375
 30
0.0
 10
-47.26125
 20
-35.77375
 30
0.0
 10
-47.26125
 20
-35.77375
 30
0.0
 10
-46.76625
 20
-37.09625
 30
0.0
 10
-46.76625
 20
-37.09625
 30
0.0
 10
-46.76625
 20
-37.09625
 30
0.0
 10
-46.76625
 20
-37.09625
 30
0.0
 10
-46.16125
 20
-39.07875
 30
0.0
 10
-46.16125
 20
-39.07875
 30
0.0
 10
-46.16125
 20
-39.07875
 30
0.0
 10
-46.16125
 20
-39.07875
 30
0.0
 10
-45.91125
 20
-40.78875
 30
0.0
 10
-45.91125
 20
-40.78875
 30
0.0
 10
-45.91125
 20
-40.78875
 30
0.0
 10
-45.91125
 20
-40.78875
 30
0.0
 10
-45.82874
 20
-42.74375
 30
0.0
 10
-45.82874
 20
-42.74375
 30
0.0
 10
-45.82874
 20
-42.74375
 30
0.0
 10
-45.82874
 20
-42.74375
 30
0.0
 10
-45.88375
 20
-45.66375
 30
0.0
 10
-45.88375
 20
-45.66375
 30
0.0
 10
-45.88375
 20
-45.66375
 30
0.0
 10
-45.88375
 20
-45.66375
 30
0.0
 10
-46.16125
 20
-48.63875
 30
0.0
 10
-46.16125
 20
-48.63875
 30
0.0
 10
-46.16125
 20
-48.63875
 30
0.0
 10
-46.16125
 20
-48.63875
 30
0.0
 10
-46.93125
 20
-51.64875
 30
0.0
 10
-46.93125
 20
-51.64875
 30
0.0
 10
-46.93125
 20
-51.64875
 30
0.0
 10
-46.93125
 20
-51.64875
 30
0.0
 10
-57.67625
 20
-51.64875
 30
0.0
 10
-57.67625
 20
-51.64875
 30
0.0
 10
-57.67625
 20
-51.64875
 30
0.0
 10
-57.67625
 20
-51.64875
 30
0.0
 10
-55.60875
 20
-48.58375
 30
0.0
 10
-55.60875
 20
-48.58375
 30
0.0
 10
-55.60875
 20
-48.58375
 30
0.0
 10
-55.60875
 20
-48.58375
 30
0.0
 10
-61.45125
 20
-51.06375
 30
0.0
 10
-61.45125
 20
-51.06375
 30
0.0
 10
-61.45125
 20
-51.06375
 30
0.0
 10
-61.45125
 20
-51.06375
 30
0.0
 10
-71.64375
 20
-48.41875
 30
0.0
 10
-71.64375
 20
-48.41875
 30
0.0
 10
-71.64375
 20
-48.41875
 30
0.0
 10
-71.64375
 20
-48.41875
 30
0.0
 10
-70.73375
 20
-51.64875
 30
0.0
 10
-70.73375
 20
-51.64875
 30
0.0
 10
-70.73375
 20
-51.64875
 30
0.0
 10
-70.73375
 20
-51.64875
 30
0.0
 10
-81.17625
 20
-51.64875
 30
0.0
 10
-81.17625
 20
-51.64875
 30
0.0
 10
-81.17625
 20
-51.64875
 30
0.0
 10
-81.17625
 20
-51.64875
 30
0.0
 10
-81.53375
 20
-49.93375
 30
0.0
 10
-81.53375
 20
-49.93375
 30
0.0
 10
-81.53375
 20
-49.93375
 30
0.0
 10
-81.53375
 20
-49.93375
 30
0.0
 10
-81.78125
 20
-47.64875
 30
0.0
 10
-81.78125
 20
-47.64875
 30
0.0
 10
-81.78125
 20
-47.64875
 30
0.0
 10
-81.78125
 20
-47.64875
 30
0.0
 10
-81.97625
 20
-45.82875
 30
0.0
 10
-81.97625
 20
-45.82875
 30
0.0
 10
-81.97625
 20
-45.82875
 30
0.0
 10
-81.97625
 20
-45.82875
 30
0.0
 10
-82.03125
 20
-44.12125
 30
0.0
 10
-82.03125
 20
-44.12125
 30
0.0
 10
-82.03125
 20
-44.12125
 30
0.0
 10
-82.03125
 20
-44.12125
 30
0.0
 10
-82.03125
 20
-42.16625
 30
0.0
 10
-82.03125
 20
-42.16625
 30
0.0
 10
-82.03125
 20
-42.16625
 30
0.0
 10
-82.03125
 20
-42.16625
 30
0.0
 10
-81.97625
 20
-40.56875
 30
0.0
 10
-81.97625
 20
-40.56875
 30
0.0
 10
-81.97625
 20
-40.56875
 30
0.0
 10
-81.97625
 20
-40.56875
 30
0.0
 10
-81.69875
 20
-38.94125
 30
0.0
 10
-81.69875
 20
-38.94125
 30
0.0
 10
-81.69875
 20
-38.94125
 30
0.0
 10
-81.69875
 20
-38.94125
 30
0.0
 10
-80.95625
 20
-36.54624
 30
0.0
 10
-80.95625
 20
-36.54624
 30
0.0
 10
-80.95625
 20
-36.54624
 30
0.0
 10
-80.95625
 20
-36.54624
 30
0.0
 10
-79.96375
 20
-34.09375
 30
0.0
 10
-79.96375
 20
-34.09375
 30
0.0
 10
-79.96375
 20
-34.09375
 30
0.0
 10
-79.96375
 20
-34.09375
 30
0.0
 10
-78.61375
 20
-30.75875
 30
0.0
 10
-78.61375
 20
-30.75875
 30
0.0
 10
-78.61375
 20
-30.75875
 30
0.0
 10
-78.61375
 20
-30.75875
 30
0.0
 10
-77.78875
 20
-28.30875
 30
0.0
 10
-77.78875
 20
-28.30875
 30
0.0
 10
-77.78875
 20
-28.30875
 30
0.0
 10
-77.78875
 20
-28.30875
 30
0.0
 10
-77.20875
 20
-25.85625
 30
0.0
 10
-77.20875
 20
-25.85625
 30
0.0
 10
-77.20875
 20
-25.85625
 30
0.0
 10
-77.20875
 20
-25.85625
 30
0.0
 10
-76.82375
 20
-24.09375
 30
0.0
 10
-76.82375
 20
-24.09375
 30
0.0
 10
-76.82375
 20
-24.09375
 30
0.0
 10
-76.82375
 20
-24.09375
 30
0.0
 10
-76.60375
 20
-22.13625
 30
0.0
 10
-76.60375
 20
-22.13625
 30
0.0
 10
-76.60375
 20
-22.13625
 30
0.0
 10
-76.60375
 20
-22.13625
 30
0.0
 10
-76.46625
 20
-20.59375
 30
0.0
 10
-76.46625
 20
-20.59375
 30
0.0
 10
-76.46625
 20
-20.59375
 30
0.0
 10
-76.46625
 20
-20.59375
 30
0.0
 10
-76.49375
 20
-18.96875
 30
0.0
 10
-76.49375
 20
-18.96875
 30
0.0
 10
-76.49375
 20
-18.96875
 30
0.0
 10
-76.49375
 20
-18.96875
 30
0.0
 10
-76.54875
 20
-17.15125
 30
0.0
 10
-76.54875
 20
-17.15125
 30
0.0
 10
-76.54875
 20
-17.15125
 30
0.0
 10
-76.54875
 20
-17.15125
 30
0.0
 10
-76.79625
 20
-14.83625
 30
0.0
 10
-76.79625
 20
-14.83625
 30
0.0
 10
-76.79625
 20
-14.83625
 30
0.0
 10
-76.79625
 20
-14.83625
 30
0.0
 10
-77.26375
 20
-12.21875
 30
0.0
 10
-77.26375
 20
-12.21875
 30
0.0
 10
-77.26375
 20
-12.21875
 30
0.0
 10
-77.26375
 20
-12.21875
 30
0.0
 10
-77.78875
 20
-10.15125
 30
0.0
 10
-77.78875
 20
-10.15125
 30
0.0
 10
-77.78875
 20
-10.15125
 30
0.0
 10
-77.78875
 20
-10.15125
 30
0.0
 10
-78.42125
 20
-7.92125
 30
0.0
 10
-78.42125
 20
-7.92125
 30
0.0
 10
-78.42125
 20
-7.92125
 30
0.0
 10
-78.42125
 20
-7.92125
 30
0.0
 10
-79.11125
 20
-5.90875
 30
0.0
 10
-79.11125
 20
-5.90875
 30
0.0
 10
-79.11125
 20
-5.90875
 30
0.0
 10
-79.11125
 20
-5.90875
 30
0.0
 10
-79.85375
 20
-3.56875
 30
0.0
 10
-79.85375
 20
-3.56875
 30
0.0
 10
-79.85375
 20
-3.56875
 30
0.0
 10
-79.85375
 20
-3.56875
 30
0.0
 10
-80.79125
 20
-1.28125
 30
0.0
 10
-80.79125
 20
-1.28125
 30
0.0
 10
-80.79125
 20
-1.28125
 30
0.0
 10
-80.79125
 20
-1.28125
 30
0.0
 10
-81.75375
 20
1.08875
 30
0.0
 10
-81.75375
 20
1.08875
 30
0.0
 10
-81.75375
 20
1.08875
 30
0.0
 10
-81.75375
 20
1.08875
 30
0.0
 10
-82.80125
 20
3.51124
 30
0.0
 10
-82.80125
 20
3.51124
 30
0.0
 10
-82.80125
 20
3.51124
 30
0.0
 10
-82.80125
 20
3.51124
 30
0.0
 10
-83.43625
 20
4.75124
 30
0.0
 10
-83.43625
 20
4.75124
 30
0.0
 10
-83.43625
 20
4.75124
 30
0.0
 10
-83.43625
 20
4.75124
 30
0.0
 10
-85.00625
 20
8.30624
 30
0.0
 10
-85.00625
 20
8.30624
 30
0.0
 10
-85.00625
 20
8.30624
 30
0.0
 10
-85.00625
 20
8.30624
 30
0.0
 10
-40.94625
 20
8.35125
 30
0.0
 10
-40.94625
 20
8.35125
 30
0.0
  0
ENDSEC
  0
SECTION
  2
OBJECTS
  0
DICTIONARY
  5
C
330
0
100
AcDbDictionary
281
     1
  3
ACAD_GROUP
350
D
  3
ACAD_LAYOUT
350
1A
  3
ACAD_MATERIAL
350
3B
  3
ACAD_MLEADERSTYLE
350
75
  3
ACAD_MLINESTYLE
350
17
  3
ACAD_PLOTSETTINGS
350
19
  3
ACAD_PLOTSTYLENAME
350
E
  3
ACAD_TABLESTYLE
350
74
  3
ACAD_VISUALSTYLE
350
2A
  0
DICTIONARY
  5
D
102
{ACAD_REACTORS
330
C
102
}
330
C
100
AcDbDictionary
281
     1
  0
DICTIONARY
  5
1A
102
{ACAD_REACTORS
330
C
102
}
330
C
100
AcDbDictionary
281
     1
  3
Layout1
350
1E
  3
Layout2
350
26
  3
Model
350
22
  0
DICTIONARY
  5
3B
102
{ACAD_REACTORS
330
C
102
}
330
C
100
AcDbDictionary
281
     1
  3
ByBlock
350
3D
  3
ByLayer
350
3C
  3
Global
350
3E
  0
DICTIONARY
  5
75
102
{ACAD_REACTORS
330
C
102
}
330
C
100
AcDbDictionary
281
     1
  0
DICTIONARY
  5
17
102
{ACAD_REACTORS
330
C
102
}
330
C
100
AcDbDictionary
281
     1
  3
Standard
350
18
  0
DICTIONARY
  5
19
102
{ACAD_REACTORS
330
C
102
}
330
C
100
AcDbDictionary
281
     1
  0
ACDBDICTIONARYWDFLT
  5
E
102
{ACAD_REACTORS
330
C
102
}
330
C
100
AcDbDictionary
281
     1
  3
Normal
350
F
100
AcDbDictionaryWithDefault
340
F
  0
DICTIONARY
  5
74
102
{ACAD_REACTORS
330
C
102
}
330
C
100
AcDbDictionary
281
     1
  0
DICTIONARY
  5
2A
102
{ACAD_REACTORS
330
C
102
}
330
C
100
AcDbDictionary
281
     1
  3
2dWireframe
350
2F
  3
3D Hidden
350
31
  3
3dWireframe
350
30
  3
Basic
350
32
  3
Brighten
350
36
  3
ColorChange
350
3A
  3
Conceptual
350
34
  3
Dim
350
35
  3
Facepattern
350
39
  3
Flat
350
2B
  3
FlatWithEdges
350
2C
  3
Gouraud
350
2D
  3
GouraudWithEdges
350
2E
  3
Linepattern
350
38
  3
Realistic
350
33
  3
Thicken
350
37
  0
LAYOUT
  5
1E
102
{ACAD_REACTORS
330
1A
102
}
330
1A
100
AcDbPlotSettings
  1

  2
none_device
  4

  6

 40
0.0
 41
0.0
 42
0.0
 43
0.0
 44
0.0
 45
0.0
 46
0.0
 47
0.0
 48
0.0
 49
0.0
140
0.0
141
0.0
142
1.0
143
1.0
 70
   688
 72
     0
 73
     0
 74
     5
  7

 75
    16
 76
     0
 77
     2
 78
   300
147
1.0
148
0.0
149
0.0
100
AcDbLayout
  1
Layout1
 70
     1
 71
     1
 10
0.0
 20
0.0
 11
12.0
 21
9.0
 12
0.0
 22
0.0
 32
0.0
 14
1.000000000000000E+20
 24
1.000000000000000E+20
 34
1.000000000000000E+20
 15
-1.000000000000000E+20
 25
-1.000000000000000E+20
 35
-1.000000000000000E+20
146
0.0
 13
0.0
 23
0.0
 33
0.0
 16
1.0
 26
0.0
 36
0.0
 17
0.0
 27
1.0
 37
0.0
 76
     0
330
1B
  0
LAYOUT
  5
26
102
{ACAD_REACTORS
330
1A
102
}
330
1A
100
AcDbPlotSettings
  1

  2
none_device
  4

  6

 40
0.0
 41
0.0
 42
0.0
 43
0.0
 44
0.0
 45
0.0
 46
0.0
 47
0.0
 48
0.0
 49
0.0
140
0.0
141
0.0
142
1.0
143
1.0
 70
   688
 72
     0
 73
     0
 74
     5
  7

 75
    16
 76
     0
 77
     2
 78
   300
147
1.0
148
0.0
149
0.0
100
AcDbLayout
  1
Layout2
 70
     1
 71
     2
 10
0.0
 20
0.0
 11
0.0
 21
0.0
 12
0.0
 22
0.0
 32
0.0
 14
0.0
 24
0.0
 34
0.0
 15
0.0
 25
0.0
 35
0.0
146
0.0
 13
0.0
 23
0.0
 33
0.0
 16
1.0
 26
0.0
 36
0.0
 17
0.0
 27
1.0
 37
0.0
 76
     0
330
23
  0
LAYOUT
  5
22
102
{ACAD_REACTORS
330
1A
102
}
330
1A
100
AcDbPlotSettings
  1

  2
none_device
  4

  6

 40
0.0
 41
0.0
 42
0.0
 43
0.0
 44
0.0
 45
0.0
 46
0.0
 47
0.0
 48
0.0
 49
0.0
140
0.0
141
0.0
142
1.0
143
1.0
 70
  1712
 72
     0
 73
     0
 74
     0
  7

 75
     0
 76
     0
 77
     2
 78
   300
147
1.0
148
0.0
149
0.0
100
AcDbLayout
  1
Model
 70
     1
 71
     0
 10
0.0
 20
0.0
 11
12.0
 21
9.0
 12
0.0
 22
0.0
 32
0.0
 14
-235.32306
 24
-51.66653
 34
0.0
 15
-40.91944
 25
10.67406
 35
0.0
146
0.0
 13
0.0
 23
0.0
 33
0.0
 16
1.0
 26
0.0
 36
0.0
 17
0.0
 27
1.0
 37
0.0
 76
     0
330
1F
331
29
  0
MATERIAL
  5
3D
102
{ACAD_REACTORS
330
3B
102
}
330
3B
100
AcDbMaterial
  1
ByBlock
 72
     1
 94
      127
  0
MATERIAL
  5
3C
102
{ACAD_REACTORS
330
3B
102
}
330
3B
100
AcDbMaterial
  1
ByLayer
 72
     1
 94
      127
  0
MATERIAL
  5
3E
102
{ACAD_REACTORS
330
3B
102
}
330
3B
100
AcDbMaterial
  1
Global
 72
     1
 94
      127
  0
MLINESTYLE
  5
18
102
{ACAD_REACTORS
330
17
102
}
330
17
100
AcDbMlineStyle
  2
Standard
 70
     0
  3

 62
   256
 51
90.0
 52
90.0
 71
     2
 49
0.5
 62
   256
  6
BYLAYER
 49
-0.5
 62
   256
  6
BYLAYER
  0
ACDBPLACEHOLDER
  5
F
102
{ACAD_REACTORS
330
E
102
}
330
E
  0
VISUALSTYLE
  5
2F
102
{ACAD_REACTORS
330
2A
102
}
102
{ACAD_XDICTIONARY
360
5C
102
}
330
2A
100
AcDbVisualStyle
  2
2dWireframe
 70
     4
 71
     0
 72
     2
 73
     0
 90
        0
 40
-0.6
 41
-30.0
 62
     5
 63
     7
421
 16777215
 74
     1
 91
        4
 64
     7
 65
   257
 75
     1
175
     1
 42
1.0
 92
        0
 66
   257
 43
1.0
 76
     1
 77
     6
 78
     2
 67
     7
 79
     5
170
     0
171
     0
290
     0
174
     0
 93
        1
 44
0.0
173
     0
291
     0
 45
0.0
  0
VISUALSTYLE
  5
31
102
{ACAD_REACTORS
330
2A
102
}
102
{ACAD_XDICTIONARY
360
60
102
}
330
2A
100
AcDbVisualStyle
  2
3D Hidden
 70
     6
 71
     1
 72
     2
 73
     2
 90
        0
 40
-0.6
 41
-30.0
 62
     5
 63
     7
421
 16777215
 74
     2
 91
        2
 64
     7
 65
   257
 75
     2
175
     1
 42
40.0
 92
        0
 66
   257
 43
1.0
 76
     1
 77
     6
 78
     2
 67
     7
 79
     3
170
     0
171
     0
290
     0
174
     0
 93
        1
 44
0.0
173
     0
291
     0
 45
0.0
  0
VISUALSTYLE
  5
30
102
{ACAD_REACTORS
330
2A
102
}
102
{ACAD_XDICTIONARY
360
5E
102
}
330
2A
100
AcDbVisualStyle
  2
3dWireframe
 70
     5
 71
     0
 72
     2
 73
     0
 90
        0
 40
-0.6
 41
-30.0
 62
     5
 63
     7
421
 16777215
 74
     1
 91
        4
 64
     7
 65
   257
 75
     1
175
     1
 42
1.0
 92
        0
 66
   257
 43
1.0
 76
     1
 77
     6
 78
     2
 67
     7
 79
     5
170
     0
171
     0
290
     0
174
     0
 93
        1
 44
0.0
173
     0
291
     0
 45
0.0
  0
VISUALSTYLE
  5
32
102
{ACAD_REACTORS
330
2A
102
}
102
{ACAD_XDICTIONARY
360
62
102
}
330
2A
100
AcDbVisualStyle
  2
Basic
 70
     7
 71
     1
 72
     0
 73
     1
 90
        0
 40
-0.6
 41
-30.0
 62
     5
 63
     7
421
 16777215
 74
     0
 91
        4
 64
     7
 65
   257
 75
     1
175
     1
 42
1.0
 92
        8
 66
     7
 43
1.0
 76
     1
 77
     6
 78
     2
 67
     7
 79
     5
170
     0
171
     0
290
     0
174
     0
 93
        1
 44
0.0
173
     0
291
     1
 45
0.0
  0
VISUALSTYLE
  5
36
102
{ACAD_REACTORS
330
2A
102
}
102
{ACAD_XDICTIONARY
360
6A
102
}
330
2A
100
AcDbVisualStyle
  2
Brighten
 70
    12
 71
     2
 72
     2
 73
     0
 90
        0
 40
-0.6
 41
-30.0
 62
     5
 63
     7
421
 16777215
 74
     1
 91
        4
 64
     7
 65
   257
 75
     1
175
     1
 42
1.0
 92
        8
 66
     7
 43
1.0
 76
     1
 77
     6
 78
     2
 67
     7
 79
     5
170
     0
171
     0
290
     0
174
     0
 93
        1
 44
50.0
173
     0
291
     1
 45
0.0
  0
VISUALSTYLE
  5
3A
102
{ACAD_REACTORS
330
2A
102
}
102
{ACAD_XDICTIONARY
360
72
102
}
330
2A
100
AcDbVisualStyle
  2
ColorChange
 70
    16
 71
     2
 72
     2
 73
     3
 90
        0
 40
-0.6
 41
-30.0
 62
     5
 63
     8
421
  8421504
 74
     1
 91
        4
 64
     7
 65
   257
 75
     1
175
     1
 42
1.0
 92
        8
 66
     8
424
  8421504
 43
1.0
 76
     1
 77
     6
 78
     2
 67
     7
 79
     5
170
     0
171
     0
290
     0
174
     0
 93
        1
 44
0.0
173
     0
291
     1
 45
0.0
  0
VISUALSTYLE
  5
34
102
{ACAD_REACTORS
330
2A
102
}
102
{ACAD_XDICTIONARY
360
66
102
}
330
2A
100
AcDbVisualStyle
  2
Conceptual
 70
     9
 71
     3
 72
     2
 73
     0
 90
        0
 40
-0.6
 41
-30.0
 62
     5
 63
     7
421
 16777215
 74
     2
 91
        2
 64
     7
 65
   257
 75
     1
175
     1
 42
40.0
 92
        8
 66
     7
 43
1.0
 76
     1
 77
     6
 78
     2
 67
     7
 79
     3
170
     0
171
     0
290
     0
174
     0
 93
        1
 44
0.0
173
     0
291
     0
 45
0.0
  0
VISUALSTYLE
  5
35
102
{ACAD_REACTORS
330
2A
102
}
102
{ACAD_XDICTIONARY
360
68
102
}
330
2A
100
AcDbVisualStyle
  2
Dim
 70
    11
 71
     2
 72
     2
 73
     0
 90
        0
 40
-0.6
 41
-30.0
 62
     5
 63
     7
421
 16777215
 74
     1
 91
        4
 64
     7
 65
   257
 75
     1
175
     1
 42
1.0
 92
        8
 66
     7
 43
1.0
 76
     1
 77
     6
 78
     2
 67
     7
 79
     5
170
     0
171
     0
290
     0
174
     0
 93
        1
 44
-50.0
173
     0
291
     1
 45
0.0
  0
VISUALSTYLE
  5
39
102
{ACAD_REACTORS
330
2A
102
}
102
{ACAD_XDICTIONARY
360
70
102
}
330
2A
100
AcDbVisualStyle
  2
Facepattern
 70
    15
 71
     2
 72
     2
 73
     0
 90
        0
 40
-0.6
 41
-30.0
 62
     5
 63
     7
421
 16777215
 74
     1
 91
        4
 64
     7
 65
   257
 75
     1
175
     1
 42
1.0
 92
        8
 66
     7
 43
1.0
 76
     1
 77
     6
 78
     2
 67
     7
 79
     5
170
     0
171
     0
290
     0
174
     0
 93
        1
 44
0.0
173
     0
291
     1
 45
0.0
  0
VISUALSTYLE
  5
2B
102
{ACAD_REACTORS
330
2A
102
}
102
{ACAD_XDICTIONARY
360
54
102
}
330
2A
100
AcDbVisualStyle
  2
Flat
 70
     0
 71
     2
 72
     1
 73
     1
 90
        2
 40
-0.6
 41
30.0
 62
     5
 63
     7
421
 16777215
 74
     0
 91
        4
 64
     7
 65
   257
 75
     1
175
     1
 42
1.0
 92
        8
 66
     7
 43
1.0
 76
     1
 77
     6
 78
     2
 67
     7
 79
     5
170
     0
171
     0
290
     0
174
     0
 93
       13
 44
0.0
173
     0
291
     1
 45
0.0
  0
VISUALSTYLE
  5
2C
102
{ACAD_REACTORS
330
2A
102
}
102
{ACAD_XDICTIONARY
360
56
102
}
330
2A
100
AcDbVisualStyle
  2
FlatWithEdges
 70
     1
 71
     2
 72
     1
 73
     1
 90
        2
 40
-0.6
 41
30.0
 62
     5
 63
     7
421
 16777215
 74
     1
 91
        4
 64
     7
 65
   257
 75
     1
175
     1
 42
1.0
 92
        0
 66
   257
 43
1.0
 76
     1
 77
     6
 78
     2
 67
     7
 79
     5
170
     0
171
     0
290
     0
174
     0
 93
       13
 44
0.0
173
     0
291
     1
 45
0.0
  0
VISUALSTYLE
  5
2D
102
{ACAD_REACTORS
330
2A
102
}
102
{ACAD_XDICTIONARY
360
58
102
}
330
2A
100
AcDbVisualStyle
  2
Gouraud
 70
     2
 71
     2
 72
     2
 73
     1
 90
        2
 40
-0.6
 41
30.0
 62
     5
 63
     7
421
 16777215
 74
     0
 91
        4
 64
     7
 65
   257
 75
     1
175
     1
 42
1.0
 92
        0
 66
     7
 43
1.0
 76
     1
 77
     6
 78
     2
 67
     7
 79
     5
170
     0
171
     0
290
     0
174
     0
 93
       13
 44
0.0
173
     0
291
     1
 45
0.0
  0
VISUALSTYLE
  5
2E
102
{ACAD_REACTORS
330
2A
102
}
102
{ACAD_XDICTIONARY
360
5A
102
}
330
2A
100
AcDbVisualStyle
  2
GouraudWithEdges
 70
     3
 71
     2
 72
     2
 73
     1
 90
        2
 40
-0.6
 41
30.0
 62
     5
 63
     7
421
 16777215
 74
     1
 91
        4
 64
     7
 65
   257
 75
     1
175
     1
 42
1.0
 92
        0
 66
   257
 43
1.0
 76
     1
 77
     6
 78
     2
 67
     7
 79
     5
170
     0
171
     0
290
     0
174
     0
 93
       13
 44
0.0
173
     0
291
     1
 45
0.0
  0
VISUALSTYLE
  5
38
102
{ACAD_REACTORS
330
2A
102
}
102
{ACAD_XDICTIONARY
360
6E
102
}
330
2A
100
AcDbVisualStyle
  2
Linepattern
 70
    14
 71
     2
 72
     2
 73
     0
 90
        0
 40
-0.6
 41
-30.0
 62
     5
 63
     7
421
 16777215
 74
     1
 91
        4
 64
     7
 65
   257
 75
     7
175
     7
 42
1.0
 92
        8
 66
     7
 43
1.0
 76
     1
 77
     6
 78
     2
 67
     7
 79
     5
170
     0
171
     0
290
     0
174
     0
 93
        1
 44
0.0
173
     0
291
     1
 45
0.0
  0
VISUALSTYLE
  5
33
102
{ACAD_REACTORS
330
2A
102
}
102
{ACAD_XDICTIONARY
360
64
102
}
330
2A
100
AcDbVisualStyle
  2
Realistic
 70
     8
 71
     2
 72
     2
 73
     0
 90
        0
 40
-0.6
 41
-30.0
 62
     5
 63
     7
421
 16777215
 74
     1
 91
        0
 64
     7
 65
   257
 75
     1
175
     1
 42
1.0
 92
        8
 66
     8
424
  7895160
 43
1.0
 76
     1
 77
     6
 78
     2
 67
     7
 79
     5
170
     0
171
     0
290
     0
174
     0
 93
       13
 44
0.0
173
     0
291
     0
 45
0.0
  0
VISUALSTYLE
  5
37
102
{ACAD_REACTORS
330
2A
102
}
102
{ACAD_XDICTIONARY
360
6C
102
}
330
2A
100
AcDbVisualStyle
  2
Thicken
 70
    13
 71
     2
 72
     2
 73
     0
 90
        0
 40
-0.6
 41
-30.0
 62
     5
 63
     7
421
 16777215
 74
     1
 91
        4
 64
     7
 65
   257
 75
     1
175
     1
 42
1.0
 92
       12
 66
     7
 43
1.0
 76
     1
 77
     6
 78
     2
 67
     7
 79
     5
170
     0
171
     0
290
     0
174
     0
 93
        1
 44
0.0
173
     0
291
     1
 45
0.0
  0
DICTIONARY
  5
5C
330
2F
100
AcDbDictionary
280
     1
281
     1
  3
ACAD_XREC_ROUNDTRIP
360
5D
  0
DICTIONARY
  5
60
330
31
100
AcDbDictionary
280
     1
281
     1
  3
ACAD_XREC_ROUNDTRIP
360
61
  0
DICTIONARY
  5
5E
330
30
100
AcDbDictionary
280
     1
281
     1
  3
ACAD_XREC_ROUNDTRIP
360
5F
  0
DICTIONARY
  5
62
330
32
100
AcDbDictionary
280
     1
281
     1
  3
ACAD_XREC_ROUNDTRIP
360
63
  0
DICTIONARY
  5
6A
330
36
100
AcDbDictionary
280
     1
281
     1
  3
ACAD_XREC_ROUNDTRIP
360
6B
  0
DICTIONARY
  5
72
330
3A
100
AcDbDictionary
280
     1
281
     1
  3
ACAD_XREC_ROUNDTRIP
360
73
  0
DICTIONARY
  5
66
330
34
100
AcDbDictionary
280
     1
281
     1
  3
ACAD_XREC_ROUNDTRIP
360
67
  0
DICTIONARY
  5
68
330
35
100
AcDbDictionary
280
     1
281
     1
  3
ACAD_XREC_ROUNDTRIP
360
69
  0
DICTIONARY
  5
70
330
39
100
AcDbDictionary
280
     1
281
     1
  3
ACAD_XREC_ROUNDTRIP
360
71
  0
DICTIONARY
  5
54
330
2B
100
AcDbDictionary
280
     1
281
     1
  3
ACAD_XREC_ROUNDTRIP
360
55
  0
DICTIONARY
  5
56
330
2C
100
AcDbDictionary
280
     1
281
     1
  3
ACAD_XREC_ROUNDTRIP
360
57
  0
DICTIONARY
  5
58
330
2D
100
AcDbDictionary
280
     1
281
     1
  3
ACAD_XREC_ROUNDTRIP
360
59
  0
DICTIONARY
  5
5A
330
2E
100
AcDbDictionary
280
     1
281
     1
  3
ACAD_XREC_ROUNDTRIP
360
5B
  0
DICTIONARY
  5
6E
330
38
100
AcDbDictionary
280
     1
281
     1
  3
ACAD_XREC_ROUNDTRIP
360
6F
  0
DICTIONARY
  5
64
330
33
100
AcDbDictionary
280
     1
281
     1
  3
ACAD_XREC_ROUNDTRIP
360
65
  0
DICTIONARY
  5
6C
330
37
100
AcDbDictionary
280
     1
281
     1
  3
ACAD_XREC_ROUNDTRIP
360
6D
  0
XRECORD
  5
5D
102
{ACAD_REACTORS
330
5C
102
}
330
5C
100
AcDbXrecord
280
     1
102
RTVSPropertyOp0
 70
     1
102
RTVSPropertyOp1
 70
     1
102
RTVSPropertyOp2
 70
     1
102
RTVSPropertyOp3
 70
     1
102
RTVSPropertyOp4
 70
     1
102
RTVSPropertyOp5
 70
     1
102
RTVSPropertyOp6
 70
     1
102
RTVSPropertyOp7
 70
     1
102
RTVSPropertyOp8
 70
     1
102
RTVSPropertyOp9
 70
     1
102
RTVSPropertyOp10
 70
     1
102
RTVSPropertyOp11
 70
     1
102
RTVSPropertyOp12
 70
     1
102
RTVSPropertyOp13
 70
     1
102
RTVSPropertyOp14
 70
     1
102
RTVSPropertyOp15
 70
     1
102
RTVSPropertyOp16
 70
     1
102
RTVSPropertyOp17
 70
     1
102
RTVSPropertyOp18
 70
     1
102
RTVSPropertyOp19
 70
     1
102
RTVSPropertyOp20
 70
     1
102
RTVSPropertyOp21
 70
     1
102
RTVSPropertyOp22
 70
     1
102
RTVSPropertyOp23
 70
     1
102
RTVSPropertyOp24
 70
     1
102
RTVSPropertyOp25
 70
     1
102
RTVSPropertyOp26
 70
     1
102
RTVSPropertyOp27
 70
     1
102
RTVSPropertyOp28
 70
     1
102
RTVSPropertyOp29
 70
     1
102
RTVSPropertyOp30
 70
     1
102
RTVSPropertyOp31
 70
     1
102
RTVSPropertyOp32
 70
     1
  0
XRECORD
  5
61
102
{ACAD_REACTORS
330
60
102
}
330
60
100
AcDbXrecord
280
     1
102
RTVSPropertyOp0
 70
     1
102
RTVSPropertyOp1
 70
     1
102
RTVSPropertyOp2
 70
     1
102
RTVSPropertyOp3
 70
     1
102
RTVSPropertyOp4
 70
     1
102
RTVSPropertyOp5
 70
     1
102
RTVSPropertyOp6
 70
     1
102
RTVSPropertyOp7
 70
     1
102
RTVSPropertyOp8
 70
     1
102
RTVSPropertyOp9
 70
     1
102
RTVSPropertyOp10
 70
     1
102
RTVSPropertyOp11
 70
     1
102
RTVSPropertyOp12
 70
     1
102
RTVSPropertyOp13
 70
     1
102
RTVSPropertyOp14
 70
     1
102
RTVSPropertyOp15
 70
     1
102
RTVSPropertyOp16
 70
     1
102
RTVSPropertyOp17
 70
     1
102
RTVSPropertyOp18
 70
     1
102
RTVSPropertyOp19
 70
     1
102
RTVSPropertyOp20
 70
     1
102
RTVSPropertyOp21
 70
     1
102
RTVSPropertyOp22
 70
     1
102
RTVSPropertyOp23
 70
     1
102
RTVSPropertyOp24
 70
     1
102
RTVSPropertyOp25
 70
     1
102
RTVSPropertyOp26
 70
     1
102
RTVSPropertyOp27
 70
     1
102
RTVSPropertyOp28
 70
     1
102
RTVSPropertyOp29
 70
     1
102
RTVSPropertyOp30
 70
     1
102
RTVSPropertyOp31
 70
     1
102
RTVSPropertyOp32
 70
     1
  0
XRECORD
  5
5F
102
{ACAD_REACTORS
330
5E
102
}
330
5E
100
AcDbXrecord
280
     1
102
RTVSPropertyOp0
 70
     1
102
RTVSPropertyOp1
 70
     1
102
RTVSPropertyOp2
 70
     1
102
RTVSPropertyOp3
 70
     1
102
RTVSPropertyOp4
 70
     1
102
RTVSPropertyOp5
 70
     1
102
RTVSPropertyOp6
 70
     1
102
RTVSPropertyOp7
 70
     1
102
RTVSPropertyOp8
 70
     1
102
RTVSPropertyOp9
 70
     1
102
RTVSPropertyOp10
 70
     1
102
RTVSPropertyOp11
 70
     1
102
RTVSPropertyOp12
 70
     1
102
RTVSPropertyOp13
 70
     1
102
RTVSPropertyOp14
 70
     1
102
RTVSPropertyOp15
 70
     1
102
RTVSPropertyOp16
 70
     1
102
RTVSPropertyOp17
 70
     1
102
RTVSPropertyOp18
 70
     1
102
RTVSPropertyOp19
 70
     1
102
RTVSPropertyOp20
 70
     1
102
RTVSPropertyOp21
 70
     1
102
RTVSPropertyOp22
 70
     1
102
RTVSPropertyOp23
 70
     1
102
RTVSPropertyOp24
 70
     1
102
RTVSPropertyOp25
 70
     1
102
RTVSPropertyOp26
 70
     1
102
RTVSPropertyOp27
 70
     1
102
RTVSPropertyOp28
 70
     1
102
RTVSPropertyOp29
 70
     1
102
RTVSPropertyOp30
 70
     1
102
RTVSPropertyOp31
 70
     1
102
RTVSPropertyOp32
 70
     1
  0
XRECORD
  5
63
102
{ACAD_REACTORS
330
62
102
}
330
62
100
AcDbXrecord
280
     1
102
RTVSPropertyOp0
 70
     1
102
RTVSPropertyOp1
 70
     1
102
RTVSPropertyOp2
 70
     1
102
RTVSPropertyOp3
 70
     1
102
RTVSPropertyOp4
 70
     1
102
RTVSPropertyOp5
 70
     1
102
RTVSPropertyOp6
 70
     1
102
RTVSPropertyOp7
 70
     1
102
RTVSPropertyOp8
 70
     1
102
RTVSPropertyOp9
 70
     1
102
RTVSPropertyOp10
 70
     1
102
RTVSPropertyOp11
 70
     1
102
RTVSPropertyOp12
 70
     1
102
RTVSPropertyOp13
 70
     1
102
RTVSPropertyOp14
 70
     1
102
RTVSPropertyOp15
 70
     1
102
RTVSPropertyOp16
 70
     1
102
RTVSPropertyOp17
 70
     1
102
RTVSPropertyOp18
 70
     1
102
RTVSPropertyOp19
 70
     1
102
RTVSPropertyOp20
 70
     1
102
RTVSPropertyOp21
 70
     1
102
RTVSPropertyOp22
 70
     1
102
RTVSPropertyOp23
 70
     1
102
RTVSPropertyOp24
 70
     1
102
RTVSPropertyOp25
 70
     1
102
RTVSPropertyOp26
 70
     1
102
RTVSPropertyOp27
 70
     1
102
RTVSPropertyOp28
 70
     1
102
RTVSPropertyOp29
 70
     1
102
RTVSPropertyOp30
 70
     1
102
RTVSPropertyOp31
 70
     1
102
RTVSPropertyOp32
 70
     1
  0
XRECORD
  5
6B
102
{ACAD_REACTORS
330
6A
102
}
330
6A
100
AcDbXrecord
280
     1
102
RTVSPropertyOp0
 70
     1
102
RTVSPropertyOp1
 70
     1
102
RTVSPropertyOp2
 70
     1
102
RTVSPropertyOp3
 70
     1
102
RTVSPropertyOp4
 70
     1
102
RTVSPropertyOp5
 70
     1
102
RTVSPropertyOp6
 70
     1
102
RTVSPropertyOp7
 70
     1
102
RTVSPropertyOp8
 70
     1
102
RTVSPropertyOp9
 70
     1
102
RTVSPropertyOp10
 70
     1
102
RTVSPropertyOp11
 70
     1
102
RTVSPropertyOp12
 70
     1
102
RTVSPropertyOp13
 70
     1
102
RTVSPropertyOp14
 70
     1
102
RTVSPropertyOp15
 70
     1
102
RTVSPropertyOp16
 70
     1
102
RTVSPropertyOp17
 70
     1
102
RTVSPropertyOp18
 70
     1
102
RTVSPropertyOp19
 70
     1
102
RTVSPropertyOp20
 70
     1
102
RTVSPropertyOp21
 70
     1
102
RTVSPropertyOp22
 70
     1
102
RTVSPropertyOp23
 70
     1
102
RTVSPropertyOp24
 70
     1
102
RTVSPropertyOp25
 70
     1
102
RTVSPropertyOp26
 70
     1
102
RTVSPropertyOp27
 70
     1
102
RTVSPropertyOp28
 70
     1
102
RTVSPropertyOp29
 70
     1
102
RTVSPropertyOp30
 70
     1
102
RTVSPropertyOp31
 70
     1
102
RTVSPropertyOp32
 70
     1
  0
XRECORD
  5
73
102
{ACAD_REACTORS
330
72
102
}
330
72
100
AcDbXrecord
280
     1
102
RTVSPropertyOp0
 70
     1
102
RTVSPropertyOp1
 70
     1
102
RTVSPropertyOp2
 70
     1
102
RTVSPropertyOp3
 70
     1
102
RTVSPropertyOp4
 70
     1
102
RTVSPropertyOp5
 70
     1
102
RTVSPropertyOp6
 70
     1
102
RTVSPropertyOp7
 70
     1
102
RTVSPropertyOp8
 70
     1
102
RTVSPropertyOp9
 70
     1
102
RTVSPropertyOp10
 70
     1
102
RTVSPropertyOp11
 70
     1
102
RTVSPropertyOp12
 70
     1
102
RTVSPropertyOp13
 70
     1
102
RTVSPropertyOp14
 70
     1
102
RTVSPropertyOp15
 70
     1
102
RTVSPropertyOp16
 70
     1
102
RTVSPropertyOp17
 70
     1
102
RTVSPropertyOp18
 70
     1
102
RTVSPropertyOp19
 70
     1
102
RTVSPropertyOp20
 70
     1
102
RTVSPropertyOp21
 70
     1
102
RTVSPropertyOp22
 70
     1
102
RTVSPropertyOp23
 70
     1
102
RTVSPropertyOp24
 70
     1
102
RTVSPropertyOp25
 70
     1
102
RTVSPropertyOp26
 70
     1
102
RTVSPropertyOp27
 70
     1
102
RTVSPropertyOp28
 70
     1
102
RTVSPropertyOp29
 70
     1
102
RTVSPropertyOp30
 70
     1
102
RTVSPropertyOp31
 70
     1
102
RTVSPropertyOp32
 70
     1
  0
XRECORD
  5
67
102
{ACAD_REACTORS
330
66
102
}
330
66
100
AcDbXrecord
280
     1
102
RTVSPropertyOp0
 70
     1
102
RTVSPropertyOp1
 70
     1
102
RTVSPropertyOp2
 70
     1
102
RTVSPropertyOp3
 70
     1
102
RTVSPropertyOp4
 70
     1
102
RTVSPropertyOp5
 70
     1
102
RTVSPropertyOp6
 70
     1
102
RTVSPropertyOp7
 70
     1
102
RTVSPropertyOp8
 70
     1
102
RTVSPropertyOp9
 70
     1
102
RTVSPropertyOp10
 70
     1
102
RTVSPropertyOp11
 70
     1
102
RTVSPropertyOp12
 70
     1
102
RTVSPropertyOp13
 70
     1
102
RTVSPropertyOp14
 70
     1
102
RTVSPropertyOp15
 70
     1
102
RTVSPropertyOp16
 70
     1
102
RTVSPropertyOp17
 70
     1
102
RTVSPropertyOp18
 70
     1
102
RTVSPropertyOp19
 70
     1
102
RTVSPropertyOp20
 70
     1
102
RTVSPropertyOp21
 70
     1
102
RTVSPropertyOp22
 70
     1
102
RTVSPropertyOp23
 70
     1
102
RTVSPropertyOp24
 70
     1
102
RTVSPropertyOp25
 70
     1
102
RTVSPropertyOp26
 70
     1
102
RTVSPropertyOp27
 70
     1
102
RTVSPropertyOp28
 70
     1
102
RTVSPropertyOp29
 70
     1
102
RTVSPropertyOp30
 70
     1
102
RTVSPropertyOp31
 70
     1
102
RTVSPropertyOp32
 70
     1
  0
XRECORD
  5
69
102
{ACAD_REACTORS
330
68
102
}
330
68
100
AcDbXrecord
280
     1
102
RTVSPropertyOp0
 70
     1
102
RTVSPropertyOp1
 70
     1
102
RTVSPropertyOp2
 70
     1
102
RTVSPropertyOp3
 70
     1
102
RTVSPropertyOp4
 70
     1
102
RTVSPropertyOp5
 70
     1
102
RTVSPropertyOp6
 70
     1
102
RTVSPropertyOp7
 70
     1
102
RTVSPropertyOp8
 70
     1
102
RTVSPropertyOp9
 70
     1
102
RTVSPropertyOp10
 70
     1
102
RTVSPropertyOp11
 70
     1
102
RTVSPropertyOp12
 70
     1
102
RTVSPropertyOp13
 70
     1
102
RTVSPropertyOp14
 70
     1
102
RTVSPropertyOp15
 70
     1
102
RTVSPropertyOp16
 70
     1
102
RTVSPropertyOp17
 70
     1
102
RTVSPropertyOp18
 70
     1
102
RTVSPropertyOp19
 70
     1
102
RTVSPropertyOp20
 70
     1
102
RTVSPropertyOp21
 70
     1
102
RTVSPropertyOp22
 70
     1
102
RTVSPropertyOp23
 70
     1
102
RTVSPropertyOp24
 70
     1
102
RTVSPropertyOp25
 70
     1
102
RTVSPropertyOp26
 70
     1
102
RTVSPropertyOp27
 70
     1
102
RTVSPropertyOp28
 70
     1
102
RTVSPropertyOp29
 70
     1
102
RTVSPropertyOp30
 70
     1
102
RTVSPropertyOp31
 70
     1
102
RTVSPropertyOp32
 70
     1
  0
XRECORD
  5
71
102
{ACAD_REACTORS
330
70
102
}
330
70
100
AcDbXrecord
280
     1
102
RTVSPropertyOp0
 70
     1
102
RTVSPropertyOp1
 70
     1
102
RTVSPropertyOp2
 70
     1
102
RTVSPropertyOp3
 70
     1
102
RTVSPropertyOp4
 70
     1
102
RTVSPropertyOp5
 70
     1
102
RTVSPropertyOp6
 70
     1
102
RTVSPropertyOp7
 70
     1
102
RTVSPropertyOp8
 70
     1
102
RTVSPropertyOp9
 70
     1
102
RTVSPropertyOp10
 70
     1
102
RTVSPropertyOp11
 70
     1
102
RTVSPropertyOp12
 70
     1
102
RTVSPropertyOp13
 70
     1
102
RTVSPropertyOp14
 70
     1
102
RTVSPropertyOp15
 70
     1
102
RTVSPropertyOp16
 70
     1
102
RTVSPropertyOp17
 70
     1
102
RTVSPropertyOp18
 70
     1
102
RTVSPropertyOp19
 70
     1
102
RTVSPropertyOp20
 70
     1
102
RTVSPropertyOp21
 70
     1
102
RTVSPropertyOp22
 70
     1
102
RTVSPropertyOp23
 70
     1
102
RTVSPropertyOp24
 70
     1
102
RTVSPropertyOp25
 70
     1
102
RTVSPropertyOp26
 70
     1
102
RTVSPropertyOp27
 70
     1
102
RTVSPropertyOp28
 70
     1
102
RTVSPropertyOp29
 70
     1
102
RTVSPropertyOp30
 70
     1
102
RTVSPropertyOp31
 70
     1
102
RTVSPropertyOp32
 70
     1
  0
XRECORD
  5
55
102
{ACAD_REACTORS
330
54
102
}
330
54
100
AcDbXrecord
280
     1
102
RTVSPropertyOp0
 70
     1
102
RTVSPropertyOp1
 70
     1
102
RTVSPropertyOp2
 70
     1
102
RTVSPropertyOp3
 70
     1
102
RTVSPropertyOp4
 70
     1
102
RTVSPropertyOp5
 70
     1
102
RTVSPropertyOp6
 70
     1
102
RTVSPropertyOp7
 70
     1
102
RTVSPropertyOp8
 70
     1
102
RTVSPropertyOp9
 70
     1
102
RTVSPropertyOp10
 70
     1
102
RTVSPropertyOp11
 70
     1
102
RTVSPropertyOp12
 70
     1
102
RTVSPropertyOp13
 70
     1
102
RTVSPropertyOp14
 70
     1
102
RTVSPropertyOp15
 70
     1
102
RTVSPropertyOp16
 70
     1
102
RTVSPropertyOp17
 70
     1
102
RTVSPropertyOp18
 70
     1
102
RTVSPropertyOp19
 70
     1
102
RTVSPropertyOp20
 70
     1
102
RTVSPropertyOp21
 70
     1
102
RTVSPropertyOp22
 70
     1
102
RTVSPropertyOp23
 70
     1
102
RTVSPropertyOp24
 70
     1
102
RTVSPropertyOp25
 70
     1
102
RTVSPropertyOp26
 70
     1
102
RTVSPropertyOp27
 70
     1
102
RTVSPropertyOp28
 70
     1
102
RTVSPropertyOp29
 70
     1
102
RTVSPropertyOp30
 70
     1
102
RTVSPropertyOp31
 70
     1
102
RTVSPropertyOp32
 70
     1
  0
XRECORD
  5
57
102
{ACAD_REACTORS
330
56
102
}
330
56
100
AcDbXrecord
280
     1
102
RTVSPropertyOp0
 70
     1
102
RTVSPropertyOp1
 70
     1
102
RTVSPropertyOp2
 70
     1
102
RTVSPropertyOp3
 70
     1
102
RTVSPropertyOp4
 70
     1
102
RTVSPropertyOp5
 70
     1
102
RTVSPropertyOp6
 70
     1
102
RTVSPropertyOp7
 70
     1
102
RTVSPropertyOp8
 70
     1
102
RTVSPropertyOp9
 70
     1
102
RTVSPropertyOp10
 70
     1
102
RTVSPropertyOp11
 70
     1
102
RTVSPropertyOp12
 70
     1
102
RTVSPropertyOp13
 70
     1
102
RTVSPropertyOp14
 70
     1
102
RTVSPropertyOp15
 70
     1
102
RTVSPropertyOp16
 70
     1
102
RTVSPropertyOp17
 70
     1
102
RTVSPropertyOp18
 70
     1
102
RTVSPropertyOp19
 70
     1
102
RTVSPropertyOp20
 70
     1
102
RTVSPropertyOp21
 70
     1
102
RTVSPropertyOp22
 70
     1
102
RTVSPropertyOp23
 70
     1
102
RTVSPropertyOp24
 70
     1
102
RTVSPropertyOp25
 70
     1
102
RTVSPropertyOp26
 70
     1
102
RTVSPropertyOp27
 70
     1
102
RTVSPropertyOp28
 70
     1
102
RTVSPropertyOp29
 70
     1
102
RTVSPropertyOp30
 70
     1
102
RTVSPropertyOp31
 70
     1
102
RTVSPropertyOp32
 70
     1
  0
XRECORD
  5
59
102
{ACAD_REACTORS
330
58
102
}
330
58
100
AcDbXrecord
280
     1
102
RTVSPropertyOp0
 70
     1
102
RTVSPropertyOp1
 70
     1
102
RTVSPropertyOp2
 70
     1
102
RTVSPropertyOp3
 70
     1
102
RTVSPropertyOp4
 70
     1
102
RTVSPropertyOp5
 70
     1
102
RTVSPropertyOp6
 70
     1
102
RTVSPropertyOp7
 70
     1
102
RTVSPropertyOp8
 70
     1
102
RTVSPropertyOp9
 70
     1
102
RTVSPropertyOp10
 70
     1
102
RTVSPropertyOp11
 70
     1
102
RTVSPropertyOp12
 70
     1
102
RTVSPropertyOp13
 70
     1
102
RTVSPropertyOp14
 70
     1
102
RTVSPropertyOp15
 70
     1
102
RTVSPropertyOp16
 70
     1
102
RTVSPropertyOp17
 70
     1
102
RTVSPropertyOp18
 70
     1
102
RTVSPropertyOp19
 70
     1
102
RTVSPropertyOp20
 70
     1
102
RTVSPropertyOp21
 70
     1
102
RTVSPropertyOp22
 70
     1
102
RTVSPropertyOp23
 70
     1
102
RTVSPropertyOp24
 70
     1
102
RTVSPropertyOp25
 70
     1
102
RTVSPropertyOp26
 70
     1
102
RTVSPropertyOp27
 70
     1
102
RTVSPropertyOp28
 70
     1
102
RTVSPropertyOp29
 70
     1
102
RTVSPropertyOp30
 70
     1
102
RTVSPropertyOp31
 70
     1
102
RTVSPropertyOp32
 70
     1
  0
XRECORD
  5
5B
102
{ACAD_REACTORS
330
5A
102
}
330
5A
100
AcDbXrecord
280
     1
102
RTVSPropertyOp0
 70
     1
102
RTVSPropertyOp1
 70
     1
102
RTVSPropertyOp2
 70
     1
102
RTVSPropertyOp3
 70
     1
102
RTVSPropertyOp4
 70
     1
102
RTVSPropertyOp5
 70
     1
102
RTVSPropertyOp6
 70
     1
102
RTVSPropertyOp7
 70
     1
102
RTVSPropertyOp8
 70
     1
102
RTVSPropertyOp9
 70
     1
102
RTVSPropertyOp10
 70
     1
102
RTVSPropertyOp11
 70
     1
102
RTVSPropertyOp12
 70
     1
102
RTVSPropertyOp13
 70
     1
102
RTVSPropertyOp14
 70
     1
102
RTVSPropertyOp15
 70
     1
102
RTVSPropertyOp16
 70
     1
102
RTVSPropertyOp17
 70
     1
102
RTVSPropertyOp18
 70
     1
102
RTVSPropertyOp19
 70
     1
102
RTVSPropertyOp20
 70
     1
102
RTVSPropertyOp21
 70
     1
102
RTVSPropertyOp22
 70
     1
102
RTVSPropertyOp23
 70
     1
102
RTVSPropertyOp24
 70
     1
102
RTVSPropertyOp25
 70
     1
102
RTVSPropertyOp26
 70
     1
102
RTVSPropertyOp27
 70
     1
102
RTVSPropertyOp28
 70
     1
102
RTVSPropertyOp29
 70
     1
102
RTVSPropertyOp30
 70
     1
102
RTVSPropertyOp31
 70
     1
102
RTVSPropertyOp32
 70
     1
  0
XRECORD
  5
6F
102
{ACAD_REACTORS
330
6E
102
}
330
6E
100
AcDbXrecord
280
     1
102
RTVSPropertyOp0
 70
     1
102
RTVSPropertyOp1
 70
     1
102
RTVSPropertyOp2
 70
     1
102
RTVSPropertyOp3
 70
     1
102
RTVSPropertyOp4
 70
     1
102
RTVSPropertyOp5
 70
     1
102
RTVSPropertyOp6
 70
     1
102
RTVSPropertyOp7
 70
     1
102
RTVSPropertyOp8
 70
     1
102
RTVSPropertyOp9
 70
     1
102
RTVSPropertyOp10
 70
     1
102
RTVSPropertyOp11
 70
     1
102
RTVSPropertyOp12
 70
     1
102
RTVSPropertyOp13
 70
     1
102
RTVSPropertyOp14
 70
     1
102
RTVSPropertyOp15
 70
     1
102
RTVSPropertyOp16
 70
     1
102
RTVSPropertyOp17
 70
     1
102
RTVSPropertyOp18
 70
     1
102
RTVSPropertyOp19
 70
     1
102
RTVSPropertyOp20
 70
     1
102
RTVSPropertyOp21
 70
     1
102
RTVSPropertyOp22
 70
     1
102
RTVSPropertyOp23
 70
     1
102
RTVSPropertyOp24
 70
     1
102
RTVSPropertyOp25
 70
     1
102
RTVSPropertyOp26
 70
     1
102
RTVSPropertyOp27
 70
     1
102
RTVSPropertyOp28
 70
     1
102
RTVSPropertyOp29
 70
     1
102
RTVSPropertyOp30
 70
     1
102
RTVSPropertyOp31
 70
     1
102
RTVSPropertyOp32
 70
     1
  0
XRECORD
  5
65
102
{ACAD_REACTORS
330
64
102
}
330
64
100
AcDbXrecord
280
     1
102
RTVSPropertyOp0
 70
     1
102
RTVSPropertyOp1
 70
     1
102
RTVSPropertyOp2
 70
     1
102
RTVSPropertyOp3
 70
     1
102
RTVSPropertyOp4
 70
     1
102
RTVSPropertyOp5
 70
     1
102
RTVSPropertyOp6
 70
     1
102
RTVSPropertyOp7
 70
     1
102
RTVSPropertyOp8
 70
     1
102
RTVSPropertyOp9
 70
     1
102
RTVSPropertyOp10
 70
     1
102
RTVSPropertyOp11
 70
     1
102
RTVSPropertyOp12
 70
     1
102
RTVSPropertyOp13
 70
     1
102
RTVSPropertyOp14
 70
     1
102
RTVSPropertyOp15
 70
     1
102
RTVSPropertyOp16
 70
     1
102
RTVSPropertyOp17
 70
     1
102
RTVSPropertyOp18
 70
     1
102
RTVSPropertyOp19
 70
     1
102
RTVSPropertyOp20
 70
     1
102
RTVSPropertyOp21
 70
     1
102
RTVSPropertyOp22
 70
     1
102
RTVSPropertyOp23
 70
     1
102
RTVSPropertyOp24
 70
     1
102
RTVSPropertyOp25
 70
     1
102
RTVSPropertyOp26
 70
     1
102
RTVSPropertyOp27
 70
     1
102
RTVSPropertyOp28
 70
     1
102
RTVSPropertyOp29
 70
     1
102
RTVSPropertyOp30
 70
     1
102
RTVSPropertyOp31
 70
     1
102
RTVSPropertyOp32
 70
     1
  0
XRECORD
  5
6D
102
{ACAD_REACTORS
330
6C
102
}
330
6C
100
AcDbXrecord
280
     1
102
RTVSPropertyOp0
 70
     1
102
RTVSPropertyOp1
 70
     1
102
RTVSPropertyOp2
 70
     1
102
RTVSPropertyOp3
 70
     1
102
RTVSPropertyOp4
 70
     1
102
RTVSPropertyOp5
 70
     1
102
RTVSPropertyOp6
 70
     1
102
RTVSPropertyOp7
 70
     1
102
RTVSPropertyOp8
 70
     1
102
RTVSPropertyOp9
 70
     1
102
RTVSPropertyOp10
 70
     1
102
RTVSPropertyOp11
 70
     1
102
RTVSPropertyOp12
 70
     1
102
RTVSPropertyOp13
 70
     1
102
RTVSPropertyOp14
 70
     1
102
RTVSPropertyOp15
 70
     1
102
RTVSPropertyOp16
 70
     1
102
RTVSPropertyOp17
 70
     1
102
RTVSPropertyOp18
 70
     1
102
RTVSPropertyOp19
 70
     1
102
RTVSPropertyOp20
 70
     1
102
RTVSPropertyOp21
 70
     1
102
RTVSPropertyOp22
 70
     1
102
RTVSPropertyOp23
 70
     1
102
RTVSPropertyOp24
 70
     1
102
RTVSPropertyOp25
 70
     1
102
RTVSPropertyOp26
 70
     1
102
RTVSPropertyOp27
 70
     1
102
RTVSPropertyOp28
 70
     1
102
RTVSPropertyOp29
 70
     1
102
RTVSPropertyOp30
 70
     1
102
RTVSPropertyOp31
 70
     1
102
RTVSPropertyOp32
 70
     1
  0
ENDSEC
  0
EOF
