0
SECTION
2
HEADER
9
$ACADVER
1
AC1009
9
$ANGDIR
70
0
9
$EXTMIN
10
0
20
0
9
$EXTMAX
10
24.0000
20
18.0000
0
ENDSEC
0
SECTION
2
ENTITIES
0
ARC
8
Camada 1
10
336.5988
20
-56.5554
40
282.7047
50
113.8724
51
121.3712
0
LINE
8
Camada 1
10
189.4283
20
184.8215
11
189.2135
21
184.6802
0
ARC
8
Camada 1
10
190.3201
20
183.0082
40
2.0050
50
123.4995
51
213.1476
0
LINE
8
Camada 1
10
188.6414
20
181.9119
11
190.2652
21
179.4017
0
ARC
8
Camada 1
10
187.8309
20
177.8969
40
2.8618
50
-48.4288
51
31.7231
0
LINE
8
Camada 1
10
189.7299
20
175.7559
11
183.5142
21
170.6528
0
ARC
8
Camada 1
10
182.1096
20
172.3267
40
2.1851
50
223.5274
51
310.0002
0
ARC
8
Camada 1
10
182.2336
20
172.0336
40
2.0945
50
129.5173
51
215.3492
0
LINE
8
Camada 1
10
180.9009
20
173.6493
11
184.3157
21
176.4531
0
ARC
8
Camada 1
10
183.0266
20
178.0116
40
2.0225
50
309.5949
51
398.2708
0
ARC
8
Camada 1
10
182.9420
20
178.1570
40
2.0058
50
33.5076
51
121.7849
0
ARC
8
Camada 1
10
270.7693
20
50.3340
40
157.0918
50
124.4584
51
133.0945
0
ARC
8
Camada 1
10
175.3417
20
152.4489
40
17.3284
50
133.3636
51
154.2670
0
ARC
8
Camada 1
10
181.4422
20
148.7883
40
24.4218
50
152.7446
51
167.5676
0
ARC
8
Camada 1
10
179.6422
20
149.1002
40
22.5970
50
167.3572
51
199.3301
0
ARC
8
Camada 1
10
173.2962
20
147.6278
40
16.1371
50
201.8562
51
246.7339
0
ARC
8
Camada 1
10
176.4870
20
153.6761
40
22.9603
50
245.3807
51
261.1530
0
ARC
8
Camada 1
10
178.8546
20
164.9911
40
34.5100
50
260.1580
51
270.6493
0
LINE
8
Camada 1
10
179.2457
20
130.4833
11
329.7685
21
130.4833
0
LINE
8
Camada 1
10
329.7685
20
130.4833
11
414.7543
21
130.4833
0
ARC
8
Camada 1
10
414.7460
20
169.9587
40
39.4754
50
270.0120
51
279.1806
0
ARC
8
Camada 1
10
416.5563
20
156.8586
40
26.2560
50
279.8418
51
293.6239
0
ARC
8
Camada 1
10
419.9500
20
148.3633
40
17.1152
50
294.6118
51
336.7980
0
ARC
8
Camada 1
10
418.8437
20
148.3759
40
18.1420
50
338.1380
51
358.0965
0
ARC
8
Camada 1
10
414.0377
20
148.8557
40
22.9635
50
357.2983
51
373.0632
0
ARC
8
Camada 1
10
411.8733
20
148.5415
40
25.1435
50
12.6459
51
27.0411
0
ARC
8
Camada 1
10
416.2502
20
150.6873
40
20.2697
50
27.2632
51
45.1066
0
ARC
8
Camada 1
10
323.2307
20
50.3340
40
157.0918
50
46.9055
51
55.5416
0
ARC
8
Camada 1
10
411.0578
20
178.1577
40
2.0053
50
58.2006
51
146.5069
0
ARC
8
Camada 1
10
410.9497
20
178.0091
40
2.0056
50
141.2538
51
230.8805
0
LINE
8
Camada 1
10
409.6843
20
176.4531
11
413.0991
21
173.6493
0
ARC
8
Camada 1
10
411.8172
20
172.0403
40
2.0572
50
-36.3212
51
51.4548
0
ARC
8
Camada 1
10
411.8996
20
172.1631
40
2.0688
50
226.8894
51
319.5830
0
LINE
8
Camada 1
10
410.4858
20
170.6528
11
404.2701
21
175.7559
0
ARC
8
Camada 1
10
405.9952
20
177.8714
40
2.7297
50
145.9015
51
230.8042
0
LINE
8
Camada 1
10
403.7348
20
179.4017
11
405.3586
21
181.9119
0
ARC
8
Camada 1
10
403.6799
20
183.0083
40
2.0050
50
326.8510
51
416.5019
0
LINE
8
Camada 1
10
404.7865
20
184.6802
11
404.5717
21
184.8215
0
ARC
8
Camada 1
10
276.5583
20
-19.9433
40
241.4871
50
57.9875
51
66.7685
0
ARC
8
Camada 1
10
212.8794
20
-157.1561
40
392.7171
50
66.1277
51
71.5268
0
ARC
8
Camada 1
10
282.1729
20
53.9348
40
170.5508
50
71.1359
51
72.0675
0
ARC
8
Camada 1
10
339.5776
20
230.6584
40
15.2636
50
240.9134
51
251.3043
0
ARC
8
Camada 1
10
334.2671
20
220.3367
40
3.6813
50
185.6200
51
235.0364
0
ARC
8
Camada 1
10
355.9030
20
226.1405
40
26.0397
50
186.7646
51
193.6936
0
ARC
8
Camada 1
10
322.7321
20
221.4646
40
7.4873
50
12.4068
51
42.8999
0
ARC
8
Camada 1
10
325.0601
20
223.2245
40
4.5935
50
46.5881
51
96.4718
0
ARC
8
Camada 1
10
320.9032
20
282.4640
40
54.7962
50
258.1495
51
273.8079
0
ARC
8
Camada 1
10
319.8836
20
278.7538
40
50.9562
50
241.5861
51
258.4147
0
ARC
8
Camada 1
10
313.3596
20
265.2425
40
35.9748
50
228.5637
51
240.4854
0
ARC
8
Camada 1
10
308.5897
20
259.4566
40
28.4817
50
212.9972
51
228.0546
0
ARC
8
Camada 1
10
306.2383
20
257.6779
40
25.5418
50
178.9157
51
212.5234
0
ARC
8
Camada 1
10
297.0023
20
258.1590
40
16.3012
50
90.0080
51
179.9920
0
ARC
8
Camada 1
10
296.9965
20
258.1517
40
16.3085
50
14.4969
51
89.9877
0
ARC
8
Camada 1
10
321.5916
20
264.4915
40
9.0906
50
194.3775
51
230.4581
0
ARC
8
Camada 1
10
320.0077
20
263.1609
40
7.0661
50
233.4946
51
280.0816
0
ARC
8
Camada 1
10
320.0480
20
263.2696
40
7.1664
50
279.6127
51
325.4865
0
ARC
8
Camada 1
10
319.6495
20
263.4375
40
7.5903
50
326.1470
51
369.6274
0
LINE
8
Camada 1
10
327.1329
20
264.7069
11
327.1774
21
264.7204
0
LINE
8
Camada 1
10
327.1774
20
264.7204
11
327.1316
21
264.7204
0
ARC
8
Camada 1
10
299.7320
20
261.9810
40
27.5362
50
5.7094
51
89.8173
0
LINE
8
Camada 1
10
299.8198
20
289.5171
11
294.0663
21
289.5171
0
ARC
8
Camada 1
10
294.0746
20
260.5088
40
29.0083
50
90.0164
51
130.8845
0
ARC
8
Camada 1
10
293.8540
20
260.2754
40
29.0422
50
130.2541
51
150.6433
0
ARC
8
Camada 1
10
291.0217
20
262.0705
40
25.6941
50
151.0359
51
174.3002
0
LINE
8
Camada 1
10
265.4546
20
264.6224
11
265.4525
21
264.5869
0
ARC
8
Camada 1
10
293.6910
20
261.9986
40
28.3568
50
174.7629
51
178.4575
0
LINE
8
Camada 1
10
265.3444
20
262.7619
11
263.0954
21
224.8336
0
ARC
8
Camada 1
10
251.6394
20
225.5230
40
11.4768
50
326.3737
51
356.5564
0
ARC
8
Camada 1
10
252.7075
20
224.5643
40
10.0586
50
293.2847
51
327.5512
0
ARC
8
Camada 1
10
409.2759
20
-229.8425
40
470.5937
50
108.9204
51
113.4255
0
LINE
8
Camada 1
10
222.9020
20
184.7525
11
219.5835
21
183.0765
0
LINE
8
Camada 1
10
219.5835
20
183.0765
11
216.3229
21
181.3895
0
LINE
8
Camada 1
10
216.3229
20
181.3895
11
213.1265
21
179.6960
0
LINE
8
Camada 1
10
213.1265
20
179.6960
11
209.9998
21
178.0005
0
LINE
8
Camada 1
10
209.9998
20
178.0005
11
206.9482
21
176.3078
0
LINE
8
Camada 1
10
206.9482
20
176.3078
11
203.9786
21
174.6232
0
LINE
8
Camada 1
10
203.9786
20
174.6232
11
201.0965
21
172.9509
0
LINE
8
Camada 1
10
201.0965
20
172.9509
11
198.3076
21
171.2961
0
LINE
8
Camada 1
10
198.3076
20
171.2961
11
195.6181
21
169.6638
0
LINE
8
Camada 1
10
195.6181
20
169.6638
11
193.0347
21
168.0594
0
LINE
8
Camada 1
10
193.0347
20
168.0594
11
190.5635
21
166.4881
0
LINE
8
Camada 1
10
190.5635
20
166.4881
11
188.2113
21
164.9556
0
LINE
8
Camada 1
10
188.2113
20
164.9556
11
185.9846
21
163.4673
0
LINE
8
Camada 1
10
185.9846
20
163.4673
11
183.8912
21
162.0302
0
LINE
8
Camada 1
10
183.8912
20
162.0302
11
181.9386
21
160.6508
0
LINE
8
Camada 1
10
181.9386
20
160.6508
11
180.1355
21
159.3369
0
LINE
8
Camada 1
10
180.1355
20
159.3369
11
178.4908
21
158.0970
0
LINE
8
Camada 1
10
178.4908
20
158.0970
11
177.0156
21
156.9421
0
LINE
8
Camada 1
10
177.0156
20
156.9421
11
175.7224
21
155.8851
0
ARC
8
Camada 1
10
180.2166
20
150.3815
40
7.1055
50
129.2350
51
159.6944
0
ARC
8
Camada 1
10
179.2050
20
150.8315
40
6.0010
50
160.3720
51
196.4042
0
ARC
8
Camada 1
10
178.1306
20
150.6616
40
4.9244
50
198.0386
51
242.0236
0
ARC
8
Camada 1
10
179.0997
20
152.2985
40
6.8251
50
241.2855
51
273.0895
0
LINE
8
Camada 1
10
179.4675
20
145.4833
11
297.0000
21
145.4830
0
LINE
8
Camada 1
10
297.0000
20
145.4830
11
414.5325
21
145.4833
0
ARC
8
Camada 1
10
414.5450
20
153.8605
40
8.3772
50
269.9146
51
295.7116
0
ARC
8
Camada 1
10
415.7348
20
150.7746
40
5.0876
50
298.7172
51
341.2197
0
ARC
8
Camada 1
10
415.3003
20
150.8458
40
5.5224
50
341.9720
51
381.2496
0
ARC
8
Camada 1
10
414.0331
20
150.5600
40
6.8097
50
19.6261
51
51.4428
0
LINE
8
Camada 1
10
418.2776
20
155.8851
11
416.9844
21
156.9421
0
LINE
8
Camada 1
10
416.9844
20
156.9421
11
415.5092
21
158.0970
0
LINE
8
Camada 1
10
415.5092
20
158.0970
11
413.8645
21
159.3369
0
LINE
8
Camada 1
10
413.8645
20
159.3369
11
412.0614
21
160.6508
0
LINE
8
Camada 1
10
412.0614
20
160.6508
11
410.1088
21
162.0302
0
LINE
8
Camada 1
10
410.1088
20
162.0302
11
408.0154
21
163.4673
0
LINE
8
Camada 1
10
408.0154
20
163.4673
11
405.7887
21
164.9556
0
LINE
8
Camada 1
10
405.7887
20
164.9556
11
403.4365
21
166.4881
0
LINE
8
Camada 1
10
403.4365
20
166.4881
11
400.9653
21
168.0594
0
LINE
8
Camada 1
10
400.9653
20
168.0594
11
398.3819
21
169.6638
0
LINE
8
Camada 1
10
398.3819
20
169.6638
11
395.6924
21
171.2961
0
LINE
8
Camada 1
10
395.6924
20
171.2961
11
392.9035
21
172.9509
0
LINE
8
Camada 1
10
392.9035
20
172.9509
11
390.0214
21
174.6232
0
LINE
8
Camada 1
10
390.0214
20
174.6232
11
387.0518
21
176.3078
0
LINE
8
Camada 1
10
387.0518
20
176.3078
11
384.0002
21
178.0005
0
LINE
8
Camada 1
10
384.0002
20
178.0005
11
380.8735
21
179.6960
0
LINE
8
Camada 1
10
380.8735
20
179.6960
11
377.6771
21
181.3895
0
LINE
8
Camada 1
10
377.6771
20
181.3895
11
374.4165
21
183.0765
0
LINE
8
Camada 1
10
374.4165
20
183.0765
11
371.0980
21
184.7525
0
ARC
8
Camada 1
10
296.0673
20
35.5645
40
166.9930
50
63.3009
51
89.6800
0
ARC
8
Camada 1
10
297.9327
20
35.5645
40
166.9930
50
90.3200
51
116.6991
0
ENDSEC
0
EOF
