  0
SECTION
  2
HEADER
  9
$ACADVER
  1
AC1009
  9
$INSBASE
 10
0.0
 20
0.0
 30
0.0
  9
$EXTMIN
 10
5214.5275938298582
 20
-8623.6415060595718
 30
-0.0279476441129418
  9
$EXTMAX
 10
8115.7958883773108
 20
-5754.6145717750878
 30
0.0089034793937799
  9
$LIMMIN
 10
0.0
 20
0.0
  9
$LIMMAX
 10
420.0
 20
297.0
  9
$ORTHOMODE
 70
     0
  9
$REGENMODE
 70
     1
  9
$FILLMODE
 70
     1
  9
$QTEXTMODE
 70
     0
  9
$MIRRTEXT
 70
     0
  9
$DRAGMODE
 70
     2
  9
$LTSCALE
 40
1.0
  9
$OSMODE
 70
  3071
  9
$ATTMODE
 70
     1
  9
$TEXTSIZE
 40
2.5
  9
$TRACEWID
 40
1.0
  9
$TEXTSTYLE
  7
STANDARD
  9
$CLAYER
  8
0
  9
$CELTYPE
  6
BYLAYER
  9
$CECOLOR
 62
   256
  9
$DIMSCALE
 40
1.0
  9
$DIMASZ
 40
2.5
  9
$DIMEXO
 40
0.625
  9
$DIMDLI
 40
3.75
  9
$DIMRND
 40
0.0
  9
$DIMDLE
 40
0.0
  9
$DIMEXE
 40
1.25
  9
$DIMTP
 40
0.0
  9
$DIMTM
 40
0.0
  9
$DIMTXT
 40
2.5
  9
$DIMCEN
 40
2.5
  9
$DIMTSZ
 40
0.0
  9
$DIMTOL
 70
     0
  9
$DIMLIM
 70
     0
  9
$DIMTIH
 70
     0
  9
$DIMTOH
 70
     0
  9
$DIMSE1
 70
     0
  9
$DIMSE2
 70
     0
  9
$DIMTAD
 70
     1
  9
$DIMZIN
 70
     8
  9
$DIMBLK
  1

  9
$DIMASO
 70
     1
  9
$DIMSHO
 70
     1
  9
$DIMPOST
  1

  9
$DIMAPOST
  1

  9
$DIMALT
 70
     0
  9
$DIMALTD
 70
     3
  9
$DIMALTF
 40
0.03937007874016
  9
$DIMLFAC
 40
1.0
  9
$DIMTOFL
 70
     1
  9
$DIMTVP
 40
0.0
  9
$DIMTIX
 70
     0
  9
$DIMSOXD
 70
     0
  9
$DIMSAH
 70
     0
  9
$DIMBLK1
  1

  9
$DIMBLK2
  1

  9
$DIMSTYLE
  2
ISO-25
  9
$DIMCLRD
 70
     0
  9
$DIMCLRE
 70
     0
  9
$DIMCLRT
 70
     0
  9
$DIMTFAC
 40
1.0
  9
$DIMGAP
 40
0.625
  9
$LUNITS
 70
     2
  9
$LUPREC
 70
     4
  9
$SKETCHINC
 40
1.0
  9
$FILLETRAD
 40
40.0
  9
$AUNITS
 70
     0
  9
$AUPREC
 70
     0
  9
$MENU
  1
.
  9
$ELEVATION
 40
0.0
  9
$PELEVATION
 40
0.0
  9
$THICKNESS
 40
0.0
  9
$LIMCHECK
 70
     0
  9
$BLIPMODE
 70
     0
  9
$CHAMFERA
 40
0.0
  9
$CHAMFERB
 40
0.0
  9
$SKPOLY
 70
     0
  9
$TDCREATE
 40
2457253.0403553708
  9
$TDUPDATE
 40
2457869.4738135422
  9
$TDINDWG
 40
0.7196564931
  9
$TDUSRTIMER
 40
0.7196561343
  9
$USRTIMER
 70
     1
  9
$ANGBASE
 50
0.0
  9
$ANGDIR
 70
     0
  9
$PDMODE
 70
     0
  9
$PDSIZE
 40
0.0
  9
$PLINEWID
 40
0.0
  9
$COORDS
 70
     2
  9
$SPLFRAME
 70
     0
  9
$SPLINETYPE
 70
     6
  9
$SPLINESEGS
 70
     8
  9
$ATTDIA
 70
     1
  9
$ATTREQ
 70
     1
  9
$HANDLING
 70
     1
  9
$HANDSEED
  5
DAE3
  9
$SURFTAB1
 70
     6
  9
$SURFTAB2
 70
     6
  9
$SURFTYPE
 70
     6
  9
$SURFU
 70
     6
  9
$SURFV
 70
     6
  9
$UCSNAME
  2

  9
$UCSORG
 10
0.0
 20
0.0
 30
0.0
  9
$UCSXDIR
 10
1.0
 20
0.0
 30
0.0
  9
$UCSYDIR
 10
0.0
 20
1.0
 30
0.0
  9
$PUCSNAME
  2

  9
$PUCSORG
 10
0.0
 20
0.0
 30
0.0
  9
$PUCSXDIR
 10
1.0
 20
0.0
 30
0.0
  9
$PUCSYDIR
 10
0.0
 20
1.0
 30
0.0
  9
$USERI1
 70
     0
  9
$USERI2
 70
     0
  9
$USERI3
 70
     0
  9
$USERI4
 70
     0
  9
$USERI5
 70
     0
  9
$USERR1
 40
0.0
  9
$USERR2
 40
0.0
  9
$USERR3
 40
0.0
  9
$USERR4
 40
0.0
  9
$USERR5
 40
0.0
  9
$WORLDVIEW
 70
     1
  9
$SHADEDGE
 70
     3
  9
$SHADEDIF
 70
    70
  9
$TILEMODE
 70
     1
  9
$MAXACTVP
 70
    64
  9
$PLIMCHECK
 70
     0
  9
$PEXTMIN
 10
0.0
 20
0.0
 30
0.0
  9
$PEXTMAX
 10
0.0
 20
0.0
 30
0.0
  9
$PLIMMIN
 10
0.0
 20
0.0
  9
$PLIMMAX
 10
12.0
 20
9.0
  9
$UNITMODE
 70
     0
  9
$VISRETAIN
 70
     1
  9
$PLINEGEN
 70
     0
  9
$PSLTSCALE
 70
     1
  0
ENDSEC
  0
SECTION
  2
TABLES
  0
TABLE
  2
VPORT
 70
     1
  0
VPORT
  2
*ACTIVE
 70
     0
 10
0.0
 20
0.0
 11
1.0
 21
1.0
 12
6428.6254952725503
 22
-8553.780846945574
 13
0.0
 23
0.0
 14
10.0
 24
10.0
 15
10.0
 25
10.0
 16
0.0
 26
0.0
 36
1.0
 17
189.56072235107411
 27
1448.7900390625
 37
0.0000000000000887
 40
4620.8864746607942
 41
2.2241579558652731
 42
50.0
 43
0.0
 44
0.0
 50
0.0
 51
0.0
 71
     0
 72
 20000
 73
     1
 74
     3
 75
     0
 76
     0
 77
     0
 78
     0
  0
ENDTAB
  0
TABLE
  2
LTYPE
 70
     2
  0
LTYPE
  2
CONTINUOUS
 70
     0
  3
Solid line
 72
    65
 73
     0
 40
0.0
  0
ENDTAB
  0
TABLE
  2
LAYER
 70
     9
  0
LAYER
  2
0
 70
     0
 62
     7
  6
CONTINUOUS
  0
LAYER
  2
KATMAN_1
 70
     0
 62
     7
  6
CONTINUOUS
  0
LAYER
  2
PAFTA
 70
     0
 62
    52
  6
CONTINUOUS
  0
LAYER
  2
LAYER_1
 70
     0
 62
     7
  6
CONTINUOUS
  0
LAYER
  2
1_AHSAP_TAR_1
 70
     0
 62
    35
  6
CONTINUOUS
  0
LAYER
  2
DEFPOINTS
 70
     0
 62
     7
  6
CONTINUOUS
  0
LAYER
  2
OL��
 70
     0
 62
     7
  6
CONTINUOUS
  0
LAYER
  2
LAYER1
 70
     0
 62
     7
  6
CONTINUOUS
  0
LAYER
  2
DESEN
 70
     0
 62
     7
  6
CONTINUOUS
  0
ENDTAB
  0
TABLE
  2
STYLE
 70
     2
  0
STYLE
  2
STANDARD
 70
     0
 40
0.0
 41
1.0
 50
0.0
 71
     0
 42
2.5
  3
txt
  4

  0
STYLE
  2
ANNOTATIVE
 70
     0
 40
0.0
 41
1.0
 50
0.0
 71
     0
 42
2.5
  3
txt
  4

  0
ENDTAB
  0
TABLE
  2
VIEW
 70
     0
  0
ENDTAB
  0
TABLE
  2
UCS
 70
     0
  0
ENDTAB
  0
TABLE
  2
APPID
 70
    15
  0
APPID
  2
ACAD
 70
     0
  0
APPID
  2
ACADANNOTATIVE
 70
     0
  0
APPID
  2
ACAD_PSEXT
 70
     0
  0
APPID
  2
ACADANNOPO
 70
     0
  0
APPID
  2
ACAD_DSTYLE_DIMJAG
 70
     0
  0
APPID
  2
ACAD_DSTYLE_DIMTALN
 70
     0
  0
APPID
  2
ACAD_MLEADERVER
 70
     0
  0
APPID
  2
ACAD_NAV_VCDISPLAY
 70
     0
  0
APPID
  2
ACAD_EXEMPT_FROM_CAD_STANDARDS
 70
     0
  0
APPID
  2
ACAD_DSTYLE_DIMRADIAL_EXTENSION
 70
     0
  0
APPID
  2
ACAD_OBJECT_CHANGE_GUID
 70
     0
  0
APPID
  2
ACDBBLOCKREPETAG
 70
     0
  0
APPID
  2
GRADIENTCOLOR1ACI
 70
     0
  0
APPID
  2
GRADIENTCOLOR2ACI
 70
     0
  0
APPID
  2
ACAECLAYERSTANDARD
 70
     0
  0
ENDTAB
  0
TABLE
  2
DIMSTYLE
 70
     5
  0
DIMSTYLE
  2
STANDARD
 70
     0
  3

  4

  5

  6

  7

 40
1.0
 41
0.18
 42
0.0625
 43
0.38
 44
0.18
 45
0.0
 46
0.0
 47
0.0
 48
0.0
140
0.18
141
0.09
142
0.0
143
25.399999999999999
144
1.0
145
0.0
146
1.0
147
0.09
 71
     0
 72
     0
 73
     1
 74
     1
 75
     0
 76
     0
 77
     0
 78
     0
170
     0
171
     2
172
     0
173
     0
174
     0
175
     0
176
     0
177
     0
178
     0
  0
DIMSTYLE
  2
ANNOTATIVE
 70
     0
  3

  4

  5

  6

  7

 40
0.0
 41
2.5
 42
0.625
 43
3.75
 44
1.25
 45
0.0
 46
0.0
 47
0.0
 48
0.0
140
2.5
141
2.5
142
0.0
143
0.03937007874016
144
1.0
145
0.0
146
1.0
147
0.625
 71
     0
 72
     0
 73
     0
 74
     0
 75
     0
 76
     0
 77
     1
 78
     8
170
     0
171
     3
172
     1
173
     0
174
     0
175
     0
176
     0
177
     0
178
     0
  0
DIMSTYLE
  2
ISO-25
 70
     0
  3

  4

  5

  6

  7

 40
1.0
 41
2.5
 42
0.625
 43
3.75
 44
1.25
 45
0.0
 46
0.0
 47
0.0
 48
0.0
140
2.5
141
2.5
142
0.0
143
0.03937007874016
144
1.0
145
0.0
146
1.0
147
0.625
 71
     0
 72
     0
 73
     0
 74
     0
 75
     0
 76
     0
 77
     1
 78
     8
170
     0
171
     3
172
     1
173
     0
174
     0
175
     0
176
     0
177
     0
178
     0
  0
DIMSTYLE
  2
OZAN_B�Y�K
 70
     0
  3

  4

  5
OBLIQUE
  6

  7

 40
1.0
 41
5.0
 42
10.0
 43
5.0
 44
5.0
 45
0.0
 46
0.0
 47
0.0
 48
0.0
140
20.0
141
5.0
142
0.0
143
0.03937007874016
144
1.0
145
0.0
146
1.0
147
10.0
 71
     0
 72
     0
 73
     0
 74
     1
 75
     0
 76
     0
 77
     1
 78
     8
170
     0
171
     3
172
     1
173
     0
174
     0
175
     0
176
     0
177
     0
178
     0
  0
ENDTAB
  0
ENDSEC
  0
SECTION
  2
BLOCKS
  0
BLOCK
  8
0
  2
$MODEL_SPACE
 70
     0
 10
0.0
 20
0.0
 30
0.0
  3
$MODEL_SPACE
  1

  0
ENDBLK
  5
2597
  8
0
  0
BLOCK
 67
     1
  8
0
  2
$PAPER_SPACE
 70
     0
 10
0.0
 20
0.0
 30
0.0
  3
$PAPER_SPACE
  1

  0
ENDBLK
  5
2593
 67
     1
  8
0
  0
BLOCK
  8
0
  2
*D2
 70
     1
 10
0.0
 20
0.0
 30
0.0
  3
*D2
  1

  0
LINE
  5
B1FD
  8
0
  6
CONTINUOUS
 62
     0
 10
-1115.444657254264
 20
5627.7795670546438
 30
0.0
 11
-1115.444657254264
 21
5696.8739273423016
 31
0.0
  0
LINE
  5
B1FE
  8
0
  6
CONTINUOUS
 62
     0
 10
-505.44465725426369
 20
5627.7795670546438
 30
0.0
 11
-505.44465725426369
 21
5696.8739273423016
 31
0.0
  0
LINE
  5
B1FF
  8
0
  6
CONTINUOUS
 62
     0
 10
-1115.264657254264
 20
5696.6939273423022
 30
0.0
 11
-811.05965725426381
 21
5696.6939273423022
 31
0.0
  0
LINE
  5
B200
  8
0
  6
CONTINUOUS
 62
     0
 10
-505.6246572542637
 20
5696.6939273423022
 30
0.0
 11
-809.82965725426379
 21
5696.6939273423022
 31
0.0
  0
SOLID
  5
B201
  8
0
  6
CONTINUOUS
 62
     0
 10
-1115.264657254264
 20
5696.7239273423011
 30
0.0
 11
-1115.264657254264
 21
5696.6639273423016
 31
0.0
 12
-1115.444657254264
 22
5696.6939273423022
 32
0.0
 13
-1115.444657254264
 23
5696.6939273423022
 33
0.0
  0
SOLID
  5
B202
  8
0
  6
CONTINUOUS
 62
     0
 10
-505.6246572542637
 20
5696.7239273423011
 30
0.0
 11
-505.6246572542637
 21
5696.6639273423016
 31
0.0
 12
-505.44465725426369
 22
5696.6939273423022
 32
0.0
 13
-505.44465725426369
 23
5696.6939273423022
 33
0.0
  0
INSERT
  5
B203
  8
0
  2
*U18
 10
0.0
 20
0.0
 30
0.0
  0
POINT
  5
B204
  8
DEFPOINTS
  6
CONTINUOUS
 62
     0
 10
-1115.444657254264
 20
5627.7170670546438
 30
0.0
  0
POINT
  5
B205
  8
DEFPOINTS
  6
CONTINUOUS
 62
     0
 10
-505.44465725426369
 20
5627.7170670546438
 30
0.0
  0
POINT
  5
B206
  8
DEFPOINTS
  6
CONTINUOUS
 62
     0
 10
-505.44465725426369
 20
5696.6939273423022
 30
0.0
  0
ENDBLK
  5
B163
  8
0
  0
BLOCK
  8
0
  2
*D3
 70
     1
 10
0.0
 20
0.0
 30
0.0
  3
*D3
  1

  0
LINE
  5
B207
  8
0
  6
CONTINUOUS
 62
     0
 10
-505.3821572542638
 20
5627.7170670546438
 30
0.0
 11
-386.89813620724368
 21
5627.7170670546438
 31
0.0
  0
LINE
  5
B208
  8
0
  6
CONTINUOUS
 62
     0
 10
-505.3821572542638
 20
4917.7170670546438
 30
0.0
 11
-386.89813620724391
 21
4917.7170670546438
 31
0.0
  0
LINE
  5
B209
  8
0
  6
CONTINUOUS
 62
     0
 10
-387.07813620724369
 20
5627.5370670546426
 30
0.0
 11
-387.0781362072438
 21
5272.8970670546441
 31
0.0
  0
LINE
  5
B20A
  8
0
  6
CONTINUOUS
 62
     0
 10
-387.07813620724392
 20
4917.8970670546441
 30
0.0
 11
-387.0781362072438
 21
5272.5370670546436
 31
0.0
  0
SOLID
  5
B20B
  8
0
  6
CONTINUOUS
 62
     0
 10
-387.10813620724372
 20
5627.5370670546426
 30
0.0
 11
-387.04813620724377
 21
5627.5370670546426
 31
0.0
 12
-387.07813620724369
 22
5627.7170670546438
 32
0.0
 13
-387.07813620724369
 23
5627.7170670546438
 33
0.0
  0
SOLID
  5
B20C
  8
0
  6
CONTINUOUS
 62
     0
 10
-387.10813620724389
 20
4917.8970670546441
 30
0.0
 11
-387.04813620724389
 21
4917.8970670546441
 31
0.0
 12
-387.07813620724392
 22
4917.7170670546438
 32
0.0
 13
-387.07813620724392
 23
4917.7170670546438
 33
0.0
  0
INSERT
  5
B20D
  8
0
  2
*U19
 10
0.0
 20
0.0
 30
0.0
  0
POINT
  5
B20E
  8
DEFPOINTS
  6
CONTINUOUS
 62
     0
 10
-505.44465725426369
 20
5627.7170670546438
 30
0.0
  0
POINT
  5
B20F
  8
DEFPOINTS
  6
CONTINUOUS
 62
     0
 10
-505.44465725426369
 20
4917.7170670546438
 30
0.0
  0
POINT
  5
B210
  8
DEFPOINTS
  6
CONTINUOUS
 62
     0
 10
-387.07813620724392
 20
4917.7170670546438
 30
0.0
  0
ENDBLK
  5
B170
  8
0
  0
BLOCK
  8
0
  2
*D4
 70
     1
 10
0.0
 20
0.0
 30
0.0
  3
*D4
  1

  0
LINE
  5
B211
  8
0
  6
CONTINUOUS
 62
     0
 10
-2306.9577130910752
 20
5442.7795670546429
 30
0.0
 11
-2306.9577130910752
 21
5524.4328735094778
 31
0.0
  0
LINE
  5
B212
  8
0
  6
CONTINUOUS
 62
     0
 10
-1446.957713091075
 20
5442.7795670546429
 30
0.0
 11
-1446.957713091075
 21
5524.4328735094778
 31
0.0
  0
LINE
  5
B213
  8
0
  6
CONTINUOUS
 62
     0
 10
-2306.7777130910749
 20
5524.2528735094784
 30
0.0
 11
-1877.602713091075
 21
5524.2528735094784
 31
0.0
  0
LINE
  5
B214
  8
0
  6
CONTINUOUS
 62
     0
 10
-1447.1377130910751
 20
5524.2528735094784
 30
0.0
 11
-1876.312713091075
 21
5524.2528735094784
 31
0.0
  0
SOLID
  5
B215
  8
0
  6
CONTINUOUS
 62
     0
 10
-2306.7777130910749
 20
5524.2828735094781
 30
0.0
 11
-2306.7777130910749
 21
5524.2228735094777
 31
0.0
 12
-2306.9577130910752
 22
5524.2528735094784
 32
0.0
 13
-2306.9577130910752
 23
5524.2528735094784
 33
0.0
  0
SOLID
  5
B216
  8
0
  6
CONTINUOUS
 62
     0
 10
-1447.1377130910751
 20
5524.2828735094781
 30
0.0
 11
-1447.1377130910751
 21
5524.2228735094777
 31
0.0
 12
-1446.957713091075
 22
5524.2528735094784
 32
0.0
 13
-1446.957713091075
 23
5524.2528735094784
 33
0.0
  0
INSERT
  5
B217
  8
0
  2
*U20
 10
0.0
 20
0.0
 30
0.0
  0
POINT
  5
B218
  8
DEFPOINTS
  6
CONTINUOUS
 62
     0
 10
-2306.9577130910752
 20
5442.7170670546438
 30
0.0
  0
POINT
  5
B219
  8
DEFPOINTS
  6
CONTINUOUS
 62
     0
 10
-1446.957713091075
 20
5442.7170670546438
 30
0.0
  0
POINT
  5
B21A
  8
DEFPOINTS
  6
CONTINUOUS
 62
     0
 10
-1446.957713091075
 20
5524.2528735094784
 30
0.0
  0
ENDBLK
  5
B17D
  8
0
  0
BLOCK
  8
0
  2
*D5
 70
     1
 10
0.0
 20
0.0
 30
0.0
  3
*D5
  1

  0
LINE
  5
B21B
  8
0
  6
CONTINUOUS
 62
     0
 10
-1446.895213091075
 20
5442.7170670546438
 30
0.0
 11
-1339.464857011254
 21
5442.7170670546438
 31
0.0
  0
LINE
  5
B21C
  8
0
  6
CONTINUOUS
 62
     0
 10
-1446.895213091075
 20
4917.7170670546438
 30
0.0
 11
-1339.464857011254
 21
4917.7170670546438
 31
0.0
  0
LINE
  5
B21D
  8
0
  6
CONTINUOUS
 62
     0
 10
-1339.6448570112541
 20
5442.5370670546436
 30
0.0
 11
-1339.6448570112541
 21
5180.3970670546441
 31
0.0
  0
LINE
  5
B21E
  8
0
  6
CONTINUOUS
 62
     0
 10
-1339.6448570112541
 20
4917.8970670546441
 30
0.0
 11
-1339.6448570112541
 21
5180.0370670546436
 31
0.0
  0
SOLID
  5
B21F
  8
0
  6
CONTINUOUS
 62
     0
 10
-1339.6748570112541
 20
5442.5370670546436
 30
0.0
 11
-1339.6148570112539
 21
5442.5370670546436
 31
0.0
 12
-1339.6448570112541
 22
5442.7170670546438
 32
0.0
 13
-1339.6448570112541
 23
5442.7170670546438
 33
0.0
  0
SOLID
  5
B220
  8
0
  6
CONTINUOUS
 62
     0
 10
-1339.6748570112541
 20
4917.8970670546441
 30
0.0
 11
-1339.6148570112539
 21
4917.8970670546441
 31
0.0
 12
-1339.6448570112541
 22
4917.7170670546438
 32
0.0
 13
-1339.6448570112541
 23
4917.7170670546438
 33
0.0
  0
INSERT
  5
B221
  8
0
  2
*U21
 10
0.0
 20
0.0
 30
0.0
  0
POINT
  5
B222
  8
DEFPOINTS
  6
CONTINUOUS
 62
     0
 10
-1446.957713091075
 20
5442.7170670546438
 30
0.0
  0
POINT
  5
B223
  8
DEFPOINTS
  6
CONTINUOUS
 62
     0
 10
-1446.957713091075
 20
4917.7170670546438
 30
0.0
  0
POINT
  5
B224
  8
DEFPOINTS
  6
CONTINUOUS
 62
     0
 10
-1339.6448570112541
 20
4917.7170670546438
 30
0.0
  0
ENDBLK
  5
B18A
  8
0
  0
BLOCK
  8
0
  2
*D6
 70
     1
 10
0.0
 20
0.0
 30
0.0
  3
*D6
  1

  0
LINE
  5
B225
  8
0
  6
CONTINUOUS
 62
     0
 10
-3857.3848790177799
 20
6420.7793670546453
 30
0.0
 11
-3857.3848790177799
 21
6499.1341465844644
 31
0.0
  0
LINE
  5
B226
  8
0
  6
CONTINUOUS
 62
     0
 10
-2657.384879733328
 20
6420.7793670546453
 30
0.0
 11
-2657.384879733328
 21
6499.1341465844644
 31
0.0
  0
LINE
  5
B227
  8
0
  6
CONTINUOUS
 62
     0
 10
-3857.2048790177801
 20
6498.9541465844641
 30
0.0
 11
-3258.0748793755538
 21
6498.9541465844641
 31
0.0
  0
LINE
  5
B228
  8
0
  6
CONTINUOUS
 62
     0
 10
-2657.5648797333279
 20
6498.9541465844641
 30
0.0
 11
-3256.6948793755541
 21
6498.9541465844641
 31
0.0
  0
SOLID
  5
B229
  8
0
  6
CONTINUOUS
 62
     0
 10
-3857.2048790177801
 20
6498.9841465844629
 30
0.0
 11
-3857.2048790177801
 21
6498.9241465844634
 31
0.0
 12
-3857.3848790177799
 22
6498.9541465844641
 32
0.0
 13
-3857.3848790177799
 23
6498.9541465844641
 33
0.0
  0
SOLID
  5
B22A
  8
0
  6
CONTINUOUS
 62
     0
 10
-2657.5648797333279
 20
6498.9841465844629
 30
0.0
 11
-2657.5648797333279
 21
6498.9241465844634
 31
0.0
 12
-2657.384879733328
 22
6498.9541465844641
 32
0.0
 13
-2657.384879733328
 23
6498.9541465844641
 33
0.0
  0
INSERT
  5
B22B
  8
0
  2
*U22
 10
0.0
 20
0.0
 30
0.0
  0
POINT
  5
B22C
  8
DEFPOINTS
  6
CONTINUOUS
 62
     0
 10
-3857.3848790177799
 20
6420.7168670546453
 30
0.0
  0
POINT
  5
B22D
  8
DEFPOINTS
  6
CONTINUOUS
 62
     0
 10
-2657.384879733328
 20
6420.7168670546453
 30
0.0
  0
POINT
  5
B22E
  8
DEFPOINTS
  6
CONTINUOUS
 62
     0
 10
-2657.384879733328
 20
6498.9541465844641
 30
0.0
  0
ENDBLK
  5
B197
  8
0
  0
BLOCK
  8
0
  2
*D7
 70
     1
 10
0.0
 20
0.0
 30
0.0
  3
*D7
  1

  0
LINE
  5
B22F
  8
0
  6
CONTINUOUS
 62
     0
 10
-2657.322379733328
 20
6420.7168670546453
 30
0.0
 11
-2538.7621703606769
 21
6420.7168670546453
 31
0.0
  0
LINE
  5
B230
  8
0
  6
CONTINUOUS
 62
     0
 10
-2657.322379733328
 20
4917.7170670546438
 30
0.0
 11
-2538.7621703606769
 21
4917.7170670546438
 31
0.0
  0
LINE
  5
B231
  8
0
  6
CONTINUOUS
 62
     0
 10
-2538.9421703606772
 20
6420.536867054645
 30
0.0
 11
-2538.9421703606772
 21
5669.3969670546439
 31
0.0
  0
LINE
  5
B232
  8
0
  6
CONTINUOUS
 62
     0
 10
-2538.9421703606772
 20
4917.8970670546441
 30
0.0
 11
-2538.9421703606772
 21
5669.0369670546434
 31
0.0
  0
SOLID
  5
B233
  8
0
  6
CONTINUOUS
 62
     0
 10
-2538.972170360677
 20
6420.536867054645
 30
0.0
 11
-2538.9121703606761
 21
6420.536867054645
 31
0.0
 12
-2538.9421703606772
 22
6420.7168670546453
 32
0.0
 13
-2538.9421703606772
 23
6420.7168670546453
 33
0.0
  0
SOLID
  5
B234
  8
0
  6
CONTINUOUS
 62
     0
 10
-2538.972170360677
 20
4917.8970670546441
 30
0.0
 11
-2538.9121703606761
 21
4917.8970670546441
 31
0.0
 12
-2538.9421703606772
 22
4917.7170670546438
 32
0.0
 13
-2538.9421703606772
 23
4917.7170670546438
 33
0.0
  0
INSERT
  5
B235
  8
0
  2
*U23
 10
0.0
 20
0.0
 30
0.0
  0
POINT
  5
B236
  8
DEFPOINTS
  6
CONTINUOUS
 62
     0
 10
-2657.384879733328
 20
6420.7168670546453
 30
0.0
  0
POINT
  5
B237
  8
DEFPOINTS
  6
CONTINUOUS
 62
     0
 10
-2657.384879733328
 20
4917.7170670546438
 30
0.0
  0
POINT
  5
B238
  8
DEFPOINTS
  6
CONTINUOUS
 62
     0
 10
-2538.9421703606772
 20
4917.7170670546438
 30
0.0
  0
ENDBLK
  5
B1A4
  8
0
  0
BLOCK
  8
0
  2
*D8
 70
     1
 10
0.0
 20
0.0
 30
0.0
  3
*D8
  1

  0
LINE
  5
B239
  8
0
  6
CONTINUOUS
 62
     0
 10
-5098.8330137811108
 20
5557.7795670546438
 30
0.0
 11
-5098.8330137811108
 21
5644.6433327279919
 31
0.0
  0
LINE
  5
B23A
  8
0
  6
CONTINUOUS
 62
     0
 10
-4183.8330137811099
 20
5557.7795670546438
 30
0.0
 11
-4183.8330137811099
 21
5644.6433327279919
 31
0.0
  0
LINE
  5
B23B
  8
0
  6
CONTINUOUS
 62
     0
 10
-5098.6530137811114
 20
5644.4633327279907
 30
0.0
 11
-4641.96301378111
 21
5644.4633327279907
 31
0.0
  0
LINE
  5
B23C
  8
0
  6
CONTINUOUS
 62
     0
 10
-4184.0130137811102
 20
5644.4633327279907
 30
0.0
 11
-4640.7030137811098
 21
5644.4633327279907
 31
0.0
  0
SOLID
  5
B23D
  8
0
  6
CONTINUOUS
 62
     0
 10
-5098.6530137811114
 20
5644.4933327279914
 30
0.0
 11
-5098.6530137811114
 21
5644.4333327279919
 31
0.0
 12
-5098.8330137811108
 22
5644.4633327279907
 32
0.0
 13
-5098.8330137811108
 23
5644.4633327279907
 33
0.0
  0
SOLID
  5
B23E
  8
0
  6
CONTINUOUS
 62
     0
 10
-4184.0130137811102
 20
5644.4933327279914
 30
0.0
 11
-4184.0130137811102
 21
5644.4333327279919
 31
0.0
 12
-4183.8330137811099
 22
5644.4633327279907
 32
0.0
 13
-4183.8330137811099
 23
5644.4633327279907
 33
0.0
  0
INSERT
  5
B23F
  8
0
  2
*U24
 10
0.0
 20
0.0
 30
0.0
  0
POINT
  5
B240
  8
DEFPOINTS
  6
CONTINUOUS
 62
     0
 10
-5098.8330137811108
 20
5557.7170670546429
 30
0.0
  0
POINT
  5
B241
  8
DEFPOINTS
  6
CONTINUOUS
 62
     0
 10
-4183.8330137811099
 20
5557.7170670546429
 30
0.0
  0
POINT
  5
B242
  8
DEFPOINTS
  6
CONTINUOUS
 62
     0
 10
-4183.8330137811099
 20
5644.4633327279907
 30
0.0
  0
ENDBLK
  5
B1B1
  8
0
  0
BLOCK
  8
0
  2
*D9
 70
     1
 10
0.0
 20
0.0
 30
0.0
  3
*D9
  1

  0
LINE
  5
B243
  8
0
  6
CONTINUOUS
 62
     0
 10
-4183.7705137811099
 20
5557.7170670546429
 30
0.0
 11
-4061.0290773645879
 21
5557.7170670546429
 31
0.0
  0
LINE
  5
B244
  8
0
  6
CONTINUOUS
 62
     0
 10
-4183.7705137811099
 20
4917.7170670546438
 30
0.0
 11
-4061.0290773645879
 21
4917.7170670546438
 31
0.0
  0
LINE
  5
B245
  8
0
  6
CONTINUOUS
 62
     0
 10
-4061.2090773645882
 20
5557.5370670546426
 30
0.0
 11
-4061.2090773645882
 21
5237.8970670546441
 31
0.0
  0
LINE
  5
B246
  8
0
  6
CONTINUOUS
 62
     0
 10
-4061.2090773645891
 20
4917.8970670546441
 30
0.0
 11
-4061.2090773645882
 21
5237.5370670546436
 31
0.0
  0
SOLID
  5
B247
  8
0
  6
CONTINUOUS
 62
     0
 10
-4061.2390773645889
 20
5557.5370670546426
 30
0.0
 11
-4061.1790773645871
 21
5557.5370670546426
 31
0.0
 12
-4061.2090773645882
 22
5557.7170670546429
 32
0.0
 13
-4061.2090773645882
 23
5557.7170670546429
 33
0.0
  0
SOLID
  5
B248
  8
0
  6
CONTINUOUS
 62
     0
 10
-4061.2390773645889
 20
4917.8970670546441
 30
0.0
 11
-4061.179077364588
 21
4917.8970670546441
 31
0.0
 12
-4061.2090773645891
 22
4917.7170670546438
 32
0.0
 13
-4061.2090773645891
 23
4917.7170670546438
 33
0.0
  0
INSERT
  5
B249
  8
0
  2
*U25
 10
0.0
 20
0.0
 30
0.0
  0
POINT
  5
B24A
  8
DEFPOINTS
  6
CONTINUOUS
 62
     0
 10
-4183.8330137811099
 20
5557.7170670546429
 30
0.0
  0
POINT
  5
B24B
  8
DEFPOINTS
  6
CONTINUOUS
 62
     0
 10
-4183.8330137811099
 20
4917.7170670546438
 30
0.0
  0
POINT
  5
B24C
  8
DEFPOINTS
  6
CONTINUOUS
 62
     0
 10
-4061.2090773645891
 20
4917.7170670546438
 30
0.0
  0
ENDBLK
  5
B1BE
  8
0
  0
BLOCK
  8
0
  2
*D10
 70
     1
 10
0.0
 20
0.0
 30
0.0
  3
*D10
  1

  0
LINE
  5
B24D
  8
0
  6
CONTINUOUS
 62
     0
 10
-6278.1959331011076
 20
5557.7795670546438
 30
0.0
 11
-6278.1959331011076
 21
5644.6433327279919
 31
0.0
  0
LINE
  5
B24E
  8
0
  6
CONTINUOUS
 62
     0
 10
-5343.1959331011076
 20
5557.7795670546438
 30
0.0
 11
-5343.1959331011076
 21
5644.6433327279919
 31
0.0
  0
LINE
  5
B24F
  8
0
  6
CONTINUOUS
 62
     0
 10
-6278.0159331011082
 20
5644.4633327279907
 30
0.0
 11
-5811.3559331011083
 21
5644.4633327279907
 31
0.0
  0
LINE
  5
B250
  8
0
  6
CONTINUOUS
 62
     0
 10
-5343.3759331011079
 20
5644.4633327279907
 30
0.0
 11
-5810.0359331011077
 21
5644.4633327279907
 31
0.0
  0
SOLID
  5
B251
  8
0
  6
CONTINUOUS
 62
     0
 10
-6278.0159331011082
 20
5644.4933327279914
 30
0.0
 11
-6278.0159331011082
 21
5644.4333327279919
 31
0.0
 12
-6278.1959331011076
 22
5644.4633327279907
 32
0.0
 13
-6278.1959331011076
 23
5644.4633327279907
 33
0.0
  0
SOLID
  5
B252
  8
0
  6
CONTINUOUS
 62
     0
 10
-5343.3759331011079
 20
5644.4933327279914
 30
0.0
 11
-5343.3759331011079
 21
5644.4333327279919
 31
0.0
 12
-5343.1959331011076
 22
5644.4633327279907
 32
0.0
 13
-5343.1959331011076
 23
5644.4633327279907
 33
0.0
  0
INSERT
  5
B253
  8
0
  2
*U26
 10
0.0
 20
0.0
 30
0.0
  0
POINT
  5
B254
  8
DEFPOINTS
  6
CONTINUOUS
 62
     0
 10
-6278.1959331011076
 20
5557.7170670546429
 30
0.0
  0
POINT
  5
B255
  8
DEFPOINTS
  6
CONTINUOUS
 62
     0
 10
-5343.1959331011076
 20
5557.7170670546429
 30
0.0
  0
POINT
  5
B256
  8
DEFPOINTS
  6
CONTINUOUS
 62
     0
 10
-5343.1959331011076
 20
5644.4633327279907
 30
0.0
  0
ENDBLK
  5
B1CB
  8
0
  0
BLOCK
  8
0
  2
*D11
 70
     1
 10
0.0
 20
0.0
 30
0.0
  3
*D11
  1

  0
LINE
  5
B257
  8
0
  6
CONTINUOUS
 62
     0
 10
-5343.1334331011076
 20
5557.7170670546429
 30
0.0
 11
-5234.9333623321918
 21
5557.7170670546429
 31
0.0
  0
LINE
  5
B258
  8
0
  6
CONTINUOUS
 62
     0
 10
-5343.1334331011076
 20
4917.7170670546438
 30
0.0
 11
-5234.9333623321918
 21
4917.7170670546438
 31
0.0
  0
LINE
  5
B259
  8
0
  6
CONTINUOUS
 62
     0
 10
-5235.1133623321921
 20
5557.5370670546426
 30
0.0
 11
-5235.1133623321921
 21
5237.8970670546441
 31
0.0
  0
LINE
  5
B25A
  8
0
  6
CONTINUOUS
 62
     0
 10
-5235.1133623321921
 20
4917.8970670546441
 30
0.0
 11
-5235.1133623321921
 21
5237.5370670546436
 31
0.0
  0
SOLID
  5
B25B
  8
0
  6
CONTINUOUS
 62
     0
 10
-5235.1433623321927
 20
5557.5370670546426
 30
0.0
 11
-5235.0833623321932
 21
5557.5370670546426
 31
0.0
 12
-5235.1133623321921
 22
5557.7170670546429
 32
0.0
 13
-5235.1133623321921
 23
5557.7170670546429
 33
0.0
  0
SOLID
  5
B25C
  8
0
  6
CONTINUOUS
 62
     0
 10
-5235.1433623321927
 20
4917.8970670546441
 30
0.0
 11
-5235.0833623321932
 21
4917.8970670546441
 31
0.0
 12
-5235.1133623321921
 22
4917.7170670546438
 32
0.0
 13
-5235.1133623321921
 23
4917.7170670546438
 33
0.0
  0
INSERT
  5
B25D
  8
0
  2
*U27
 10
0.0
 20
0.0
 30
0.0
  0
POINT
  5
B25E
  8
DEFPOINTS
  6
CONTINUOUS
 62
     0
 10
-5343.1959331011076
 20
5557.7170670546429
 30
0.0
  0
POINT
  5
B25F
  8
DEFPOINTS
  6
CONTINUOUS
 62
     0
 10
-5343.1959331011076
 20
4917.7170670546438
 30
0.0
  0
POINT
  5
B260
  8
DEFPOINTS
  6
CONTINUOUS
 62
     0
 10
-5235.1133623321921
 20
4917.7170670546438
 30
0.0
  0
ENDBLK
  5
B1D8
  8
0
  0
BLOCK
  8
0
  2
*D12
 70
     1
 10
0.0
 20
0.0
 30
0.0
  3
*D12
  1

  0
LINE
  5
B261
  8
0
  6
CONTINUOUS
 62
     0
 10
-7840.9570519665494
 20
6937.7795670546438
 30
0.0
 11
-7840.9570519665494
 21
7029.449147570097
 31
0.0
  0
LINE
  5
B262
  8
0
  6
CONTINUOUS
 62
     0
 10
-6570.9570519665494
 20
6937.7795670546438
 30
0.0
 11
-6570.9570519665494
 21
7029.449147570097
 31
0.0
  0
LINE
  5
B263
  8
0
  6
CONTINUOUS
 62
     0
 10
-7840.7770519665492
 20
7029.2691475700958
 30
0.0
 11
-7206.6620519665494
 21
7029.2691475700958
 31
0.0
  0
LINE
  5
B264
  8
0
  6
CONTINUOUS
 62
     0
 10
-6571.1370519665488
 20
7029.2691475700958
 30
0.0
 11
-7205.2520519665486
 21
7029.2691475700958
 31
0.0
  0
SOLID
  5
B265
  8
0
  6
CONTINUOUS
 62
     0
 10
-7840.7770519665492
 20
7029.2991475700956
 30
0.0
 11
-7840.7770519665492
 21
7029.239147570097
 31
0.0
 12
-7840.9570519665494
 22
7029.2691475700958
 32
0.0
 13
-7840.9570519665494
 23
7029.2691475700958
 33
0.0
  0
SOLID
  5
B266
  8
0
  6
CONTINUOUS
 62
     0
 10
-6571.1370519665488
 20
7029.2991475700956
 30
0.0
 11
-6571.1370519665488
 21
7029.239147570097
 31
0.0
 12
-6570.9570519665494
 22
7029.2691475700958
 32
0.0
 13
-6570.9570519665494
 23
7029.2691475700958
 33
0.0
  0
INSERT
  5
B267
  8
0
  2
*U28
 10
0.0
 20
0.0
 30
0.0
  0
POINT
  5
B268
  8
DEFPOINTS
  6
CONTINUOUS
 62
     0
 10
-7840.9570519665494
 20
6937.7170670546429
 30
0.0
  0
POINT
  5
B269
  8
DEFPOINTS
  6
CONTINUOUS
 62
     0
 10
-6570.9570519665494
 20
6937.7170670546429
 30
0.0
  0
POINT
  5
B26A
  8
DEFPOINTS
  6
CONTINUOUS
 62
     0
 10
-6570.9570519665494
 20
7029.2691475700958
 30
0.0
  0
ENDBLK
  5
B1E5
  8
0
  0
BLOCK
  8
0
  2
*D13
 70
     1
 10
0.0
 20
0.0
 30
0.0
  3
*D13
  1

  0
LINE
  5
B26B
  8
0
  6
CONTINUOUS
 62
     0
 10
-6570.8945519665494
 20
6937.7170670546429
 30
0.0
 11
-6427.7835159524157
 21
6937.7170670546429
 31
0.0
  0
LINE
  5
B26C
  8
0
  6
CONTINUOUS
 62
     0
 10
-6570.8945519665494
 20
4917.7170670546438
 30
0.0
 11
-6427.7835159524166
 21
4917.7170670546438
 31
0.0
  0
LINE
  5
B26D
  8
0
  6
CONTINUOUS
 62
     0
 10
-6427.9635159524159
 20
6937.5370670546426
 30
0.0
 11
-6427.9635159524169
 21
5927.8970670546441
 31
0.0
  0
LINE
  5
B26E
  8
0
  6
CONTINUOUS
 62
     0
 10
-6427.9635159524169
 20
4917.8970670546441
 30
0.0
 11
-6427.9635159524169
 21
5927.5370670546426
 31
0.0
  0
SOLID
  5
B26F
  8
0
  6
CONTINUOUS
 62
     0
 10
-6427.9935159524148
 20
6937.5370670546426
 30
0.0
 11
-6427.9335159524171
 21
6937.5370670546426
 31
0.0
 12
-6427.9635159524159
 22
6937.7170670546429
 32
0.0
 13
-6427.9635159524159
 23
6937.7170670546429
 33
0.0
  0
SOLID
  5
B270
  8
0
  6
CONTINUOUS
 62
     0
 10
-6427.9935159524166
 20
4917.8970670546441
 30
0.0
 11
-6427.9335159524171
 21
4917.8970670546441
 31
0.0
 12
-6427.9635159524169
 22
4917.7170670546438
 32
0.0
 13
-6427.9635159524169
 23
4917.7170670546438
 33
0.0
  0
INSERT
  5
B271
  8
0
  2
*U29
 10
0.0
 20
0.0
 30
0.0
  0
POINT
  5
B272
  8
DEFPOINTS
  6
CONTINUOUS
 62
     0
 10
-6570.9570519665494
 20
6937.7170670546429
 30
0.0
  0
POINT
  5
B273
  8
DEFPOINTS
  6
CONTINUOUS
 62
     0
 10
-6570.9570519665494
 20
4917.7170670546438
 30
0.0
  0
POINT
  5
B274
  8
DEFPOINTS
  6
CONTINUOUS
 62
     0
 10
-6427.9635159524169
 20
4917.7170670546438
 30
0.0
  0
ENDBLK
  5
B1F2
  8
0
  0
BLOCK
  8
0
  2
_DOT
 70
     0
 10
0.0
 20
0.0
 30
0.0
  3
_DOT
  1

  0
POLYLINE
  5
B528
  8
OL��
 62
     0
 66
     1
 10
0.0
 20
0.0
 30
0.0
 70
     1
 40
0.5
 41
0.5
  0
VERTEX
  5
DADB
  8
OL��
 62
     0
 10
-0.25
 20
0.0
 30
0.0
 42
1.0
  0
VERTEX
  5
DADC
  8
OL��
 62
     0
 10
0.25
 20
0.0
 30
0.0
 42
1.0
  0
SEQEND
  5
DADD
  8
OL��
 62
     0
  0
LINE
  5
B529
  8
OL��
 62
     0
 10
-0.5
 20
0.0
 30
0.0
 11
-1.0
 21
0.0
 31
0.0
  0
ENDBLK
  5
B52A
  8
0
  0
BLOCK
  8
0
  2
OK_1
 70
     0
 10
0.0
 20
0.0
 30
0.0
  3
OK_1
  1

  0
LINE
  5
B52D
  8
OL��
 10
0.0
 20
0.0
 30
0.0
 11
12.0
 21
0.0
 31
0.0
  0
CIRCLE
  5
B52E
  8
OL��
 10
0.0
 20
0.0
 30
0.0
 40
6.0
  0
LINE
  5
B52F
  8
OL��
 10
0.0
 20
0.0
 30
0.0
 11
0.0
 21
12.0
 31
0.0
  0
LINE
  5
B530
  8
OL��
 10
0.0
 20
0.0
 30
0.0
 11
-12.0
 21
0.0
 31
0.0
  0
LINE
  5
B531
  8
OL��
 10
0.0
 20
0.0
 30
0.0
 11
0.0
 21
12.0
 31
0.0
  0
LINE
  5
B532
  8
OL��
 10
0.0
 20
0.0
 30
0.0
 11
0.0
 21
-12.0
 31
0.0
  0
LINE
  5
B533
  8
OL��
 10
0.0
 20
0.0
 30
0.0
 11
0.0
 21
-12.0
 31
0.0
  0
ENDBLK
  5
B534
  8
0
  0
BLOCK
  8
0
  2
_OBLIQUE
 70
     0
 10
0.0
 20
0.0
 30
0.0
  3
_OBLIQUE
  1

  0
LINE
  5
B608
  8
0
  6
BYBLOCK
 62
     0
 10
-0.5
 20
-0.5
 30
0.0
 11
0.5
 21
0.5
 31
0.0
  0
ENDBLK
  5
B609
  8
0
  0
BLOCK
  8
0
  2
*U18
 70
     1
 10
0.0
 20
0.0
 30
0.0
  3
*U18
  1

  0
TEXT
  5
DAAC
  8
0
 62
     0
 10
-810.96965725426378
 20
5696.6039273423021
 30
0.0
 40
0.18
  1
610.0000
  0
ENDBLK
  5
DAAE
  8
0
  0
BLOCK
  8
0
  2
*U19
 70
     1
 10
0.0
 20
0.0
 30
0.0
  3
*U19
  1

  0
TEXT
  5
DAB0
  8
0
 62
     0
 10
-387.60313620724457
 20
5272.6270670546437
 30
0.0
 40
0.18
  1
710.0000
  0
ENDBLK
  5
DAB2
  8
0
  0
BLOCK
  8
0
  2
*U20
 70
     1
 10
0.0
 20
0.0
 30
0.0
  3
*U20
  1

  0
TEXT
  5
DAB4
  8
0
 62
     0
 10
-1877.5127130910751
 20
5524.1628735094782
 30
0.0
 40
0.18
  1
860.0000
  0
ENDBLK
  5
DAB6
  8
0
  0
BLOCK
  8
0
  2
*U21
 70
     1
 10
0.0
 20
0.0
 30
0.0
  3
*U21
  1

  0
TEXT
  5
DAB8
  8
0
 62
     0
 10
-1340.2148570112549
 20
5180.1270670546437
 30
0.0
 40
0.18
  1
525.0000
  0
ENDBLK
  5
DABA
  8
0
  0
BLOCK
  8
0
  2
*U22
 70
     1
 10
0.0
 20
0.0
 30
0.0
  3
*U22
  1

  0
TEXT
  5
DABC
  8
0
 62
     0
 10
-3257.9848793755541
 20
6498.864146584463
 30
0.0
 40
0.18
  1
1200.0000
  0
ENDBLK
  5
DABE
  8
0
  0
BLOCK
  8
0
  2
*U23
 70
     1
 10
0.0
 20
0.0
 30
0.0
  3
*U23
  1

  0
TEXT
  5
DAC0
  8
0
 62
     0
 10
-2539.6171703606778
 20
5669.1269670546417
 30
0.0
 40
0.18
  1
1502.9998
  0
ENDBLK
  5
DAC2
  8
0
  0
BLOCK
  8
0
  2
*U24
 70
     1
 10
0.0
 20
0.0
 30
0.0
  3
*U24
  1

  0
TEXT
  5
DAC4
  8
0
 62
     0
 10
-4641.8730137811099
 20
5644.3733327279906
 30
0.0
 40
0.18
  1
915.0000
  0
ENDBLK
  5
DAC6
  8
0
  0
BLOCK
  8
0
  2
*U25
 70
     1
 10
0.0
 20
0.0
 30
0.0
  3
*U25
  1

  0
TEXT
  5
DAC8
  8
0
 62
     0
 10
-4061.764077364588
 20
5237.6270670546428
 30
0.0
 40
0.18
  1
640.0000
  0
ENDBLK
  5
DACA
  8
0
  0
BLOCK
  8
0
  2
*U26
 70
     1
 10
0.0
 20
0.0
 30
0.0
  3
*U26
  1

  0
TEXT
  5
DACC
  8
0
 62
     0
 10
-5811.2659331011082
 20
5644.3733327279906
 30
0.0
 40
0.18
  1
935.0000
  0
ENDBLK
  5
DACE
  8
0
  0
BLOCK
  8
0
  2
*U27
 70
     1
 10
0.0
 20
0.0
 30
0.0
  3
*U27
  1

  0
TEXT
  5
DAD0
  8
0
 62
     0
 10
-5235.6683623321942
 20
5237.6270670546428
 30
0.0
 40
0.18
  1
640.0000
  0
ENDBLK
  5
DAD2
  8
0
  0
BLOCK
  8
0
  2
*U28
 70
     1
 10
0.0
 20
0.0
 30
0.0
  3
*U28
  1

  0
TEXT
  5
DAD4
  8
0
 62
     0
 10
-7206.5720519665492
 20
7029.1791475700957
 30
0.0
 40
0.18
  1
1270.0000
  0
ENDBLK
  5
DAD6
  8
0
  0
BLOCK
  8
0
  2
*U29
 70
     1
 10
0.0
 20
0.0
 30
0.0
  3
*U29
  1

  0
TEXT
  5
DAD8
  8
0
 62
     0
 10
-6428.5935159524179
 20
5927.6270670546419
 30
0.0
 40
0.18
  1
2020.0000
  0
ENDBLK
  5
DADA
  8
0
  0
ENDSEC
  0
SECTION
  2
ENTITIES
  0
POLYLINE
  5
2E4C
  8
0
 66
     1
 10
0.0
 20
0.0
 30
0.0
 70
     1
  0
VERTEX
  5
D8B8
  8
0
 10
6926.6949724826663
 20
-8622.7789194735669
 30
0.0
  0
VERTEX
  5
D8B9
  8
0
 10
7101.9414062061151
 20
-8622.7789194735669
 30
0.0
  0
VERTEX
  5
D8BA
  8
0
 10
7101.9414062061151
 20
-8605.1259536156977
 30
0.0
 42
0.4142135623729998
  0
VERTEX
  5
D8BB
  8
0
 10
7090.7478591608242
 20
-8593.9324065704113
 30
0.0
  0
VERTEX
  5
D8BC
  8
0
 10
7070.3304262089259
 20
-8593.9324065706187
 30
0.0
 42
0.4070423533392086
  0
VERTEX
  5
D8BD
  8
0
 10
7034.0807222952571
 20
-8563.4055309055839
 30
0.0
 42
0.5467877473638975
  0
VERTEX
  5
D8BE
  8
0
 10
7016.6719085584837
 20
-8545.0484301365941
 30
0.0
 42
0.8004239459705512
  0
VERTEX
  5
D8BF
  8
0
 10
6960.5809655881176
 20
-8518.3009221649681
 30
0.0
 42
0.4412634495248302
  0
VERTEX
  5
D8C0
  8
0
 10
6915.6457860518531
 20
-8502.8097962440734
 30
0.0
 42
0.4956514440300649
  0
VERTEX
  5
D8C1
  8
0
 10
6826.5959940737312
 20
-8422.5438631324942
 30
0.0
 42
-0.0756389250660008
  0
VERTEX
  5
D8C2
  8
0
 10
6736.871174760814
 20
-8433.7729561611795
 30
0.0
 42
-0.9340814559156088
  0
VERTEX
  5
D8C3
  8
0
 10
6731.4129468433857
 20
-8371.7113108220565
 30
0.0
 42
-0.2648278297213459
  0
VERTEX
  5
D8C4
  8
0
 10
6773.4841221840443
 20
-8384.6125649079113
 30
0.0
 42
0.9649491477931809
  0
VERTEX
  5
D8C5
  8
0
 10
6814.753605918756
 20
-8336.7883884605289
 30
0.0
 42
0.0750616376327435
  0
VERTEX
  5
D8C6
  8
0
 10
6787.3266677939801
 20
-8316.8171742238846
 30
0.0
 42
-0.1217433069061387
  0
VERTEX
  5
D8C7
  8
0
 10
6782.2815237996429
 20
-8312.3758909438329
 30
0.0
 42
-0.4669625515155199
  0
VERTEX
  5
D8C8
  8
0
 10
6798.3432676384191
 20
-8253.6713011942502
 30
0.0
 42
0.6364906136793929
  0
VERTEX
  5
D8C9
  8
0
 10
6809.7875309160108
 20
-8072.7399281386497
 30
0.0
 42
0.1607533091656277
  0
VERTEX
  5
D8CA
  8
0
 10
6745.9525301264694
 20
-8059.6718768296587
 30
0.0
  0
VERTEX
  5
D8CB
  8
0
 10
6745.9525301264412
 20
-8039.0617901242913
 30
0.0
 42
-1.21346241140536
  0
VERTEX
  5
D8CC
  8
0
 10
6741.9259920691802
 20
-7958.6694094581881
 30
0.0
  0
VERTEX
  5
D8CD
  8
0
 10
6741.9259920690347
 20
-7941.8702221289886
 30
0.0
 42
0.4724150021346371
  0
VERTEX
  5
D8CE
  8
0
 10
6799.8909462261317
 20
-7878.0519792212126
 30
0.0
  0
VERTEX
  5
D8CF
  8
0
 10
6851.2492710591614
 20
-7878.0519792212126
 30
0.0
  0
VERTEX
  5
D8D0
  8
0
 10
6851.2492710591614
 20
-7843.9324065704213
 30
0.0
  0
VERTEX
  5
D8D1
  8
0
 10
6608.6857808909954
 20
-7843.9324065704177
 30
0.0
  0
VERTEX
  5
D8D2
  8
0
 10
6366.1222907228293
 20
-7843.9324065704177
 30
0.0
  0
VERTEX
  5
D8D3
  8
0
 10
6366.1222907228293
 20
-7878.0519792212099
 30
0.0
  0
VERTEX
  5
D8D4
  8
0
 10
6417.4806155558535
 20
-7878.0519792212099
 30
0.0
 42
0.4724150021346475
  0
VERTEX
  5
D8D5
  8
0
 10
6475.4455697129524
 20
-7941.8702221289868
 30
0.0
  0
VERTEX
  5
D8D6
  8
0
 10
6475.4455697128069
 20
-7958.6694094581871
 30
0.0
 42
-1.2134624114053629
  0
VERTEX
  5
D8D7
  8
0
 10
6471.4190316555469
 20
-8039.0617901242886
 30
0.0
  0
VERTEX
  5
D8D8
  8
0
 10
6471.4190316555178
 20
-8059.671876829655
 30
0.0
 42
0.1607533091656299
  0
VERTEX
  5
D8D9
  8
0
 10
6407.584030865979
 20
-8072.7399281386479
 30
0.0
 42
0.6364906136794036
  0
VERTEX
  5
D8DA
  8
0
 10
6419.0282941435689
 20
-8253.6713011942484
 30
0.0
 42
-0.4669625515155342
  0
VERTEX
  5
D8DB
  8
0
 10
6435.090037982347
 20
-8312.3758909438311
 30
0.0
 42
-0.1217433069061497
  0
VERTEX
  5
D8DC
  8
0
 10
6430.044893988008
 20
-8316.8171742238828
 30
0.0
 42
0.0750616376327421
  0
VERTEX
  5
D8DD
  8
0
 10
6402.6179558632321
 20
-8336.7883884605271
 30
0.0
 42
0.9649491477931398
  0
VERTEX
  5
D8DE
  8
0
 10
6443.8874395979474
 20
-8384.6125649079095
 30
0.0
 42
-0.2648278297213555
  0
VERTEX
  5
D8DF
  8
0
 10
6485.9586149386023
 20
-8371.7113108220547
 30
0.0
 42
-0.9340814559156088
  0
VERTEX
  5
D8E0
  8
0
 10
6480.5003870211731
 20
-8433.7729561611777
 30
0.0
 42
-0.075638925066001
  0
VERTEX
  5
D8E1
  8
0
 10
6390.7755677082559
 20
-8422.5438631324923
 30
0.0
 42
0.49565144403005
  0
VERTEX
  5
D8E2
  8
0
 10
6301.7257757301377
 20
-8502.8097962440697
 30
0.0
 42
0.4412634495248537
  0
VERTEX
  5
D8E3
  8
0
 10
6256.7905961938741
 20
-8518.3009221649663
 30
0.0
 42
0.8004239459706216
  0
VERTEX
  5
D8E4
  8
0
 10
6200.6996532235034
 20
-8545.0484301365923
 30
0.0
 42
0.5467877473638974
  0
VERTEX
  5
D8E5
  8
0
 10
6183.29083948673
 20
-8563.4055309055821
 30
0.0
 42
0.4070423533392201
  0
VERTEX
  5
D8E6
  8
0
 10
6147.0411355730612
 20
-8593.9324065706169
 30
0.0
  0
VERTEX
  5
D8E7
  8
0
 10
6126.6237026211666
 20
-8593.9324065704095
 30
0.0
 42
0.4142135623729998
  0
VERTEX
  5
D8E8
  8
0
 10
6115.430155575872
 20
-8605.1259536156958
 30
0.0
  0
VERTEX
  5
D8E9
  8
0
 10
6115.430155575872
 20
-8622.7789194735651
 30
0.0
  0
VERTEX
  5
D8EA
  8
0
 10
6290.6765892993199
 20
-8622.7789194735651
 30
0.0
  0
VERTEX
  5
D8EB
  8
0
 10
6290.6765892993199
 20
-8593.9324065704095
 30
0.0
  0
VERTEX
  5
D8EC
  8
0
 10
6595.6857808909954
 20
-8593.9324065704186
 30
0.0
  0
VERTEX
  5
D8ED
  8
0
 10
6595.6857808909954
 20
-8225.9214524956787
 30
0.0
  0
VERTEX
  5
D8EE
  8
0
 10
6621.6857808909954
 20
-8225.9214524956787
 30
0.0
  0
VERTEX
  5
D8EF
  8
0
 10
6621.6857808909954
 20
-8593.9324065704186
 30
0.0
  0
VERTEX
  5
D8F0
  8
0
 10
6926.6949724826663
 20
-8593.932406570555
 30
0.0
  0
SEQEND
  5
D8F1
  8
0
  0
POLYLINE
  5
2E4E
  8
0
 66
     1
 10
0.0
 20
0.0
 30
0.0
 70
     1
  0
VERTEX
  5
D8F2
  8
0
 10
7379.1434638775499
 20
-7878.0519792212126
 30
0.0
  0
VERTEX
  5
D8F3
  8
0
 10
7430.5017887105778
 20
-7878.0519792212126
 30
0.0
 42
0.4724150021346347
  0
VERTEX
  5
D8F4
  8
0
 10
7488.4667428676721
 20
-7941.8702221289886
 30
0.0
  0
VERTEX
  5
D8F5
  8
0
 10
7488.4667428675302
 20
-7958.6694094581881
 30
0.0
 42
-1.213462411405333
  0
VERTEX
  5
D8F6
  8
0
 10
7484.4402048102656
 20
-8039.0617901242931
 30
0.0
  0
VERTEX
  5
D8F7
  8
0
 10
7484.4402048102402
 20
-8059.6718768296587
 30
0.0
 42
0.1607533091656308
  0
VERTEX
  5
D8F8
  8
0
 10
7420.6052040206987
 20
-8072.7399281386497
 30
0.0
 42
0.6364906136794114
  0
VERTEX
  5
D8F9
  8
0
 10
7432.0494672982913
 20
-8253.671301194252
 30
0.0
 42
-0.4669625515155542
  0
VERTEX
  5
D8FA
  8
0
 10
7448.1112111370658
 20
-8312.3758909438347
 30
0.0
 42
-0.1217433069061389
  0
VERTEX
  5
D8FB
  8
0
 10
7443.0660671427322
 20
-8316.8171742238846
 30
0.0
 42
0.0750616376327432
  0
VERTEX
  5
D8FC
  8
0
 10
7415.6391290179554
 20
-8336.7883884605308
 30
0.0
 42
0.9649491477931615
  0
VERTEX
  5
D8FD
  8
0
 10
7456.9086127526698
 20
-8384.6125649079113
 30
0.0
 42
-0.2648278297213588
  0
VERTEX
  5
D8FE
  8
0
 10
7498.9797880933247
 20
-8371.7113108220583
 30
0.0
 42
-0.9340814559155852
  0
VERTEX
  5
D8FF
  8
0
 10
7493.5215601758973
 20
-8433.7729561611795
 30
0.0
 42
-0.0756389250660006
  0
VERTEX
  5
D900
  8
0
 10
7403.7967408629793
 20
-8422.5438631324942
 30
0.0
 42
0.4956514440300609
  0
VERTEX
  5
D901
  8
0
 10
7314.7469488848574
 20
-8502.8097962440752
 30
0.0
 42
0.4412634495248332
  0
VERTEX
  5
D902
  8
0
 10
7269.8117693485938
 20
-8518.3009221649681
 30
0.0
 42
0.8004239459705868
  0
VERTEX
  5
D903
  8
0
 10
7213.720826378225
 20
-8545.0484301365941
 30
0.0
 42
0.5467877473639528
  0
VERTEX
  5
D904
  8
0
 10
7196.3120126414533
 20
-8563.4055309055857
 30
0.0
 42
0.4070423533392242
  0
VERTEX
  5
D905
  8
0
 10
7160.0623087277854
 20
-8593.9324065706205
 30
0.0
  0
VERTEX
  5
D906
  8
0
 10
7139.6448757758872
 20
-8593.9324065704113
 30
0.0
 42
0.4142135623729998
  0
VERTEX
  5
D907
  8
0
 10
7128.4513287305954
 20
-8605.1259536156977
 30
0.0
  0
VERTEX
  5
D908
  8
0
 10
7128.4513287305954
 20
-8622.7789194735669
 30
0.0
  0
VERTEX
  5
D909
  8
0
 10
7303.6977624540441
 20
-8622.7789194735669
 30
0.0
  0
VERTEX
  5
D90A
  8
0
 10
7303.6977624540441
 20
-8593.9324065702749
 30
0.0
  0
VERTEX
  5
D90B
  8
0
 10
7939.7161456373888
 20
-8593.932406570555
 30
0.0
  0
VERTEX
  5
D90C
  8
0
 10
7939.7161456373888
 20
-8622.7789194735669
 30
0.0
  0
VERTEX
  5
D90D
  8
0
 10
8114.9625793608384
 20
-8622.7789194735669
 30
0.0
  0
VERTEX
  5
D90E
  8
0
 10
8114.9625793608384
 20
-8605.1259536156977
 30
0.0
 42
0.4142135623729998
  0
VERTEX
  5
D90F
  8
0
 10
8103.7690323155466
 20
-8593.9324065704113
 30
0.0
  0
VERTEX
  5
D910
  8
0
 10
8083.3515993636502
 20
-8593.9324065706205
 30
0.0
 42
0.4070423533392243
  0
VERTEX
  5
D911
  8
0
 10
8047.1018954499823
 20
-8563.4055309055857
 30
0.0
 42
0.5467877473639407
  0
VERTEX
  5
D912
  8
0
 10
8029.6930817132079
 20
-8545.0484301365941
 30
0.0
 42
0.8004239459705823
  0
VERTEX
  5
D913
  8
0
 10
7973.60213874284
 20
-8518.3009221649681
 30
0.0
 42
0.4412634495248306
  0
VERTEX
  5
D914
  8
0
 10
7928.6669592065728
 20
-8502.8097962440752
 30
0.0
 42
0.4956514440300649
  0
VERTEX
  5
D915
  8
0
 10
7839.6171672284527
 20
-8422.5438631324942
 30
0.0
 42
-0.075638925066001
  0
VERTEX
  5
D916
  8
0
 10
7749.8923479155383
 20
-8433.7729561611795
 30
0.0
 42
-0.9340814559155781
  0
VERTEX
  5
D917
  8
0
 10
7744.43411999811
 20
-8371.7113108220583
 30
0.0
 42
-0.2648278297213588
  0
VERTEX
  5
D918
  8
0
 10
7786.5052953387631
 20
-8384.6125649079113
 30
0.0
 42
0.9649491477931615
  0
VERTEX
  5
D919
  8
0
 10
7827.7747790734784
 20
-8336.7883884605308
 30
0.0
 42
0.0750616376327433
  0
VERTEX
  5
D91A
  8
0
 10
7800.3478409487034
 20
-8316.8171742238846
 30
0.0
 42
-0.1217433069061389
  0
VERTEX
  5
D91B
  8
0
 10
7795.3026969543644
 20
-8312.3758909438347
 30
0.0
 42
-0.4669625515155539
  0
VERTEX
  5
D91C
  8
0
 10
7811.3644407931406
 20
-8253.671301194252
 30
0.0
 42
0.6364906136794114
  0
VERTEX
  5
D91D
  8
0
 10
7822.8087040707323
 20
-8072.7399281386497
 30
0.0
 42
0.1607533091656309
  0
VERTEX
  5
D91E
  8
0
 10
7758.9737032811918
 20
-8059.6718768296587
 30
0.0
  0
VERTEX
  5
D91F
  8
0
 10
7758.9737032811636
 20
-8039.0617901242931
 30
0.0
 42
-1.213462411405333
  0
VERTEX
  5
D920
  8
0
 10
7754.9471652239026
 20
-7958.6694094581881
 30
0.0
  0
VERTEX
  5
D921
  8
0
 10
7754.947165223758
 20
-7941.8702221289886
 30
0.0
 42
0.4724150021346347
  0
VERTEX
  5
D922
  8
0
 10
7812.912119380856
 20
-7878.0519792212126
 30
0.0
  0
VERTEX
  5
D923
  8
0
 10
7864.2704442138811
 20
-7878.0519792212126
 30
0.0
  0
VERTEX
  5
D924
  8
0
 10
7864.2704442138811
 20
-7843.9324065704213
 30
0.0
  0
VERTEX
  5
D925
  8
0
 10
7634.7069540457151
 20
-7843.9324065704213
 30
0.0
  0
VERTEX
  5
D926
  8
0
 10
7634.7069540457151
 20
-8230.9214524956806
 30
0.0
  0
VERTEX
  5
D927
  8
0
 10
7608.7069540457151
 20
-8230.9214524956806
 30
0.0
  0
VERTEX
  5
D928
  8
0
 10
7608.7069540457151
 20
-7843.9324065704213
 30
0.0
  0
VERTEX
  5
D929
  8
0
 10
7379.1434638775499
 20
-7843.9324065704213
 30
0.0
  0
SEQEND
  5
D92A
  8
0
  0
ARC
  5
2E51
  8
0
 62
     2
 10
5769.6419728942592
 20
-8305.7324781881744
 30
0.0
 40
42.588223127325932
 50
270.5886872432373
 51
270.85253995555257
  0
ARC
  5
2E52
  8
0
 62
     2
 10
5770.2483364086238
 20
-8305.4612820727343
 30
0.0
 40
22.082106117085011
 50
269.62142910758922
 51
270.07086064353553
  0
POLYLINE
  5
2E53
  8
0
 62
     4
 66
     1
 10
0.0
 20
0.0
 30
0.0
 70
     1
  0
VERTEX
  5
D92B
  8
0
 62
     4
 10
5712.0392052442412
 20
-8356.4006152902311
 30
0.0
 42
0.0110834007562031
  0
VERTEX
  5
D92C
  8
0
 62
     4
 10
5700.3463186550753
 20
-8334.8147591082725
 30
0.0
 42
0.0338212112134039
  0
VERTEX
  5
D92D
  8
0
 62
     4
 10
5733.0928424193926
 20
-8267.6346199343498
 30
0.0
 42
-0.0301098897916354
  0
VERTEX
  5
D92E
  8
0
 62
     4
 10
5739.0184465127113
 20
-8282.6677792807968
 30
0.0
 42
0.5473884928266002
  0
VERTEX
  5
D92F
  8
0
 62
     4
 10
5744.2030731274399
 20
-8343.8784713463156
 30
0.0
 42
-0.0029261692965294
  0
VERTEX
  5
D930
  8
0
 62
     4
 10
5743.9648940899451
 20
-8345.432096709641
 30
0.0
 42
0.6303486807395047
  0
SEQEND
  5
D931
  8
0
 62
     4
  0
ARC
  5
2E54
  8
0
 62
     2
 10
5681.3062263897818
 20
-8078.0526135105411
 30
0.0
 40
19.460961108528871
 50
112.3306312788558
 51
283.96613188058279
  0
ARC
  5
2E55
  8
0
 62
     2
 10
5693.7485084617447
 20
-8112.4719448131527
 30
0.0
 40
17.357595868198139
 50
116.50181045227021
 51
302.42276408221397
  0
ARC
  5
2E56
  8
0
 62
     2
 10
5717.4003780867224
 20
-8136.4291391869046
 30
0.0
 40
17.09912998594514
 50
147.02982363161479
 51
334.40696082109997
  0
ARC
  5
2E57
  8
0
 62
     2
 10
5751.1733873276189
 20
-8149.313736588032
 30
0.0
 40
19.220041201589101
 50
164.37608974814299
 51
353.65367869428621
  0
POLYLINE
  5
2E58
  8
0
 62
     2
 66
     1
 10
0.0
 20
0.0
 30
0.0
  0
VERTEX
  5
D932
  8
0
 62
     2
 10
5703.0549954413018
 20
-8127.1237513373344
 30
0.0
  0
VERTEX
  5
D933
  8
0
 62
     2
 10
5770.2756464797367
 20
-8060.0510936571291
 30
0.0
  0
SEQEND
  5
D934
  8
0
 62
     2
  0
POLYLINE
  5
2E59
  8
0
 62
     2
 66
     1
 10
0.0
 20
0.0
 30
0.0
  0
VERTEX
  5
D935
  8
0
 62
     2
 10
5770.2756464803633
 20
-8060.0510936568571
 30
0.0
  0
VERTEX
  5
D936
  8
0
 62
     2
 10
5686.0030963027621
 20
-8096.9382805699724
 30
0.0
  0
SEQEND
  5
D937
  8
0
 62
     2
  0
POLYLINE
  5
2E5A
  8
0
 62
     2
 66
     1
 10
0.0
 20
0.0
 30
0.0
  0
VERTEX
  5
D938
  8
0
 62
     2
 10
5732.8218271652104
 20
-8143.8155560852856
 30
0.0
  0
VERTEX
  5
D939
  8
0
 62
     2
 10
5770.2756464801587
 20
-8060.0510936567116
 30
0.0
  0
SEQEND
  5
D93A
  8
0
 62
     2
  0
ARC
  5
2E5B
  8
0
 62
     2
 10
5790.9581633052903
 20
-8037.2618765301077
 30
0.0
 40
549.57126081517822
 50
182.3765807083924
 51
267.7827069321325
  0
ARC
  5
2E5C
  8
0
 62
     2
 10
5340.4457065291008
 20
-8160.820028644911
 30
0.0
 40
35.487638364404418
 50
163.5491379498238
 51
349.44503443084722
  0
ARC
  5
2E5D
  8
0
 62
     2
 10
5465.5382675048622
 20
-8205.0733118674507
 30
0.0
 40
115.9912298941338
 50
254.69232256703461
 51
52.963599909099457
  0
ARC
  5
2E5E
  8
0
 62
     2
 10
5441.848469404993
 20
-8210.5522240885148
 30
0.0
 40
164.42370562635841
 50
263.38841576773387
 51
42.192889978438863
  0
ARC
  5
2E5F
  8
0
 62
     2
 10
5427.1256245384448
 20
-8345.0384351051034
 30
0.0
 40
29.149411031872301
 50
74.498264513853471
 51
261.69866500375753
  0
ARC
  5
2E60
  8
0
 62
     2
 10
5617.8886691784946
 20
-8472.8300017476031
 30
0.0
 40
15.339647994021581
 50
88.661295564948276
 51
268.56846204002818
  0
ARC
  5
2E61
  8
0
 62
     2
 10
5636.8785565606913
 20
-8378.9517434772733
 30
0.0
 40
80.731664056282241
 50
256.62455869222879
 51
12.0890502844592
  0
ARC
  5
2E62
  8
0
 62
     2
 10
5730.6237309447333
 20
-8358.5471933009194
 30
0.0
 40
15.21125108503856
 50
11.2931346932568
 51
193.29007827883771
  0
ARC
  5
2E63
  8
0
 62
     2
 10
5608.7895605469621
 20
-8335.0098618581542
 30
0.0
 40
17.612641794419989
 50
333.76348000942431
 51
162.29541477888731
  0
ARC
  5
2E64
  8
0
 62
     2
 10
5612.4748540809178
 20
-8322.7386847037651
 30
0.0
 40
135.89965892114489
 50
41.820053383859737
 51
93.327645105358584
  0
ARC
  5
2E65
  8
0
 62
     2
 10
5615.5425336442868
 20
-8312.1103809077904
 30
0.0
 40
150.51832312854449
 50
44.563300753837197
 51
96.274528260242064
  0
ARC
  5
2E66
  8
0
 62
     2
 10
5612.660222331333
 20
-8316.5618952558416
 30
0.0
 40
155.69975356355769
 50
355.99004531219441
 51
33.303446589732282
  0
ARC
  5
2E67
  8
0
 62
     2
 10
5625.2951680070928
 20
-8327.4955507682098
 30
0.0
 40
169.86014598860299
 50
107.3883989257949
 51
114.55333851162609
  0
ARC
  5
2E68
  8
0
 62
     2
 10
5608.292845354199
 20
-8284.8153400243245
 30
0.0
 40
124.20812585451731
 50
133.790038269984
 51
195.68040444603511
  0
ARC
  5
2E69
  8
0
 62
     2
 10
5629.4600540625406
 20
-8292.2099877658329
 30
0.0
 40
114.14191770625909
 50
136.84436595061729
 51
188.3807455538097
  0
ARC
  5
2E6A
  8
0
 62
     2
 10
5580.9380061416114
 20
-8195.6139620768099
 30
0.0
 40
9.5273244810468078
 50
95.812792292617672
 51
134.14628563186471
  0
ARC
  5
2E6B
  8
0
 62
     2
 10
5219.356523653335
 20
-8609.3230049522499
 30
0.0
 40
550.31356817489495
 50
33.382338687117972
 51
45.348782966475291
  0
ARC
  5
2E6C
  8
0
 62
     2
 10
5219.3565236531231
 20
-8609.3230049525264
 30
0.0
 40
550.31356817515666
 50
48.90913901359604
 51
86.474153579898555
  0
ARC
  5
2E6D
  8
0
 62
     2
 10
5184.9768958340519
 20
-8643.4885984365355
 30
0.0
 40
561.08709192388994
 50
32.604397089787987
 51
42.585490619733953
  0
ARC
  5
2E6E
  8
0
 62
     2
 10
5184.9768958336299
 20
-8643.4885984371067
 30
0.0
 40
561.08709192445895
 50
45.816147976634348
 51
83.957181232029569
  0
ARC
  5
2E6F
  8
0
 62
     2
 10
5560.0912121778483
 20
-8298.5986419011388
 30
0.0
 40
44.53420840836241
 50
247.96600994325649
 51
315.78679786880991
  0
ARC
  5
2E70
  8
0
 62
     2
 10
5753.5162081661929
 20
-8493.4826630953121
 30
0.0
 40
413.1513968316479
 50
102.26347198948871
 51
115.05342842670819
  0
ARC
  5
2E71
  8
0
 62
     2
 10
5676.6472518579194
 20
-8417.6521414118979
 30
0.0
 40
313.42932272439998
 50
113.1396968764973
 51
120.3663332268415
  0
ARC
  5
2E72
  8
0
 62
     2
 10
5789.5266899712824
 20
-8625.7709909464647
 30
0.0
 40
550.11564404401372
 50
123.7781045892458
 51
147.46096367265241
  0
ARC
  5
2E73
  8
0
 62
     2
 10
5769.6700105934824
 20
-8609.6220207661718
 30
0.0
 40
549.57126081952072
 50
101.1490998818437
 51
112.01450384377409
  0
ARC
  5
2E74
  8
0
 62
     2
 10
5769.6700105924192
 20
-8609.6220207616661
 30
0.0
 40
549.571260815144
 50
115.2312957744881
 51
119.9242574360005
  0
ARC
  5
2E75
  8
0
 62
     2
 10
5769.6700105925574
 20
-8609.6220207616661
 30
0.0
 40
549.57126081526667
 50
124.1773041231291
 51
146.46432135831191
  0
ARC
  5
2E76
  8
0
 62
     2
 10
5560.8835295471672
 20
-8307.010900817957
 30
0.0
 40
73.067056766744571
 50
226.42790831918461
 51
330.67537611056952
  0
ARC
  5
2E77
  8
0
 62
     2
 10
5219.3565236553068
 20
-8609.3230049514059
 30
0.0
 40
550.3135681726111
 50
25.14065937856536
 51
29.922683289346569
  0
ARC
  5
2E78
  8
0
 62
     2
 10
5200.7430299968782
 20
-8614.7265201458704
 30
0.0
 40
569.65618264722184
 50
2.848063176222428
 51
19.77656240976458
  0
ARC
  5
2E79
  8
0
 62
     2
 10
5184.9768958334844
 20
-8643.4885984368248
 30
0.0
 40
561.08709192448998
 50
6.0107019095531644
 51
20.23383032413679
  0
ARC
  5
2E7A
  8
0
 62
     2
 10
5184.9768958338409
 20
-8643.4885984368248
 30
0.0
 40
561.08709192418394
 50
22.77869567627226
 51
29.24488805491773
  0
ARC
  5
2E7B
  8
0
 62
     2
 10
5478.6157189571122
 20
-8206.6000734465306
 30
0.0
 40
110.49986878199481
 50
133.42591233566321
 51
159.17770510320281
  0
ARC
  5
2E7C
  8
0
 62
     2
 10
5457.864441340922
 20
-8217.2146970558388
 30
0.0
 40
165.38763894514409
 50
136.60260152067769
 51
156.31236239152111
  0
ARC
  5
2E7D
  8
0
 62
     2
 10
5200.0870500712062
 20
-8036.735459166227
 30
0.0
 40
549.57126081506215
 50
302.46765292649178
 51
346.98558636303733
  0
ARC
  5
2E7E
  8
0
 62
     2
 10
5220.7047193753406
 20
-8059.4454577688521
 30
0.0
 40
549.5712608150543
 50
303.50696744491
 51
348.7654004499197
  0
ARC
  5
2E7F
  8
0
 62
     2
 10
5761.1900340464072
 20
-8311.6147348783979
 30
0.0
 40
32.965552634831297
 50
123.2406615861439
 51
246.442283070207
  0
ARC
  5
2E80
  8
0
 62
     2
 10
5770.610965169466
 20
-8305.7335460330396
 30
0.0
 40
42.588223127325932
 50
237.95550399510819
 51
269.28503109115462
  0
ARC
  5
2E81
  8
0
 62
     2
 10
5770.0052008520161
 20
-8305.4610141334906
 30
0.0
 40
22.082106117085011
 50
181.82657119705229
 51
270.25228922664741
  0
ARC
  5
2E82
  8
0
 62
     2
 10
5605.7374871290112
 20
-8326.3471310228397
 30
0.0
 40
162.2450707065218
 50
274.15943018498513
 51
352.28625920849601
  0
ARC
  5
2E83
  8
0
 62
     2
 10
5611.3496898431858
 20
-8324.3064103074321
 30
0.0
 40
137.7841626255418
 50
346.88590017896252
 51
352.69204741686542
  0
ARC
  5
2E84
  8
0
 62
     2
 10
5611.3496898441608
 20
-8324.3064103077031
 30
0.0
 40
137.7841626245818
 50
5.9820217508602562
 51
28.245895654435689
  0
ARC
  5
2E85
  8
0
 62
     2
 10
5493.7820605725656
 20
-8061.8643191910751
 30
0.0
 40
55.531325416455523
 50
178.12882838114481
 51
305.3277501623453
  0
ARC
  5
2E86
  8
0
 62
     2
 10
5508.3620817599603
 20
-8059.7624607509506
 30
0.0
 40
39.399131110444728
 50
180.41974517741519
 51
257.53363938627177
  0
ARC
  5
2E87
  8
0
 62
     2
 10
5478.2173611040653
 20
-8203.6661976713403
 30
0.0
 40
107.6313497172054
 50
103.7647326530153
 51
112.2683862264975
  0
ARC
  5
2E88
  8
0
 62
     2
 10
5478.2173611042836
 20
-8203.6661976713403
 30
0.0
 40
107.6313497172564
 50
57.906370755947869
 51
78.401366748362179
  0
ARC
  5
2E89
  8
0
 62
     2
 10
5467.8889149642728
 20
-8220.8782837926447
 30
0.0
 40
154.13002655229789
 50
51.580277978814358
 51
89.368037947259793
  0
ARC
  5
2E8A
  8
0
 62
     2
 10
5448.496041961409
 20
-8324.3633569501308
 30
0.0
 40
258.4678280622835
 50
92.23596154983187
 51
108.41936425969639
  0
POLYLINE
  5
2E8B
  8
0
 62
     4
 66
     1
 10
0.0
 20
0.0
 30
0.0
 70
     1
  0
VERTEX
  5
D93B
  8
0
 62
     4
 10
5509.8508967552534
 20
-8364.0871615139731
 30
0.0
 42
-0.1339520693949373
  0
VERTEX
  5
D93C
  8
0
 62
     4
 10
5422.4643937667734
 20
-8377.3501999377095
 30
0.0
 42
-1.0656577413798669
  0
VERTEX
  5
D93D
  8
0
 62
     4
 10
5435.8449947914442
 20
-8313.5781458297461
 30
0.0
 42
0.1094324617638207
  0
VERTEX
  5
D93E
  8
0
 62
     4
 10
5484.4457377768031
 20
-8315.9673919868856
 30
0.0
 42
-0.2608618261382946
  0
VERTEX
  5
D93F
  8
0
 62
     4
 10
5516.9931057849553
 20
-8195.5241649208856
 30
0.0
 42
0.0180943709106417
  0
VERTEX
  5
D940
  8
0
 62
     4
 10
5483.7333316511922
 20
-8172.6898203987257
 30
0.0
 42
0.1016304063381045
  0
VERTEX
  5
D941
  8
0
 62
     4
 10
5329.910149306228
 20
-8329.8913521663144
 30
0.0
 42
0.1086018354395713
  0
VERTEX
  5
D942
  8
0
 62
     4
 10
5495.1134486816718
 20
-8496.2533645261883
 30
0.0
 42
0.1025548905653504
  0
VERTEX
  5
D943
  8
0
 62
     4
 10
5653.4621809459331
 20
-8341.1172456249333
 30
0.0
 42
0.0402765710223473
  0
VERTEX
  5
D944
  8
0
 62
     4
 10
5598.9245426039033
 20
-8269.9190023755091
 30
0.0
 42
-0.1269600530168489
  0
VERTEX
  5
D945
  8
0
 62
     4
 10
5550.5777302749793
 20
-8338.5180592416236
 30
0.0
 42
0.2591684877964657
  0
VERTEX
  5
D946
  8
0
 62
     4
 10
5588.9637082201416
 20
-8327.7610353388009
 30
0.0
 42
-1.057629927554218
  0
VERTEX
  5
D947
  8
0
 62
     4
 10
5627.6810002925868
 20
-8344.4291723808365
 30
0.0
 42
-0.4798917443749033
  0
SEQEND
  5
D948
  8
0
 62
     4
  0
POLYLINE
  5
2E8C
  8
0
 62
     4
 66
     1
 10
0.0
 20
0.0
 30
0.0
 70
     1
  0
VERTEX
  5
D949
  8
0
 62
     4
 10
5569.9529132478583
 20
-8163.2095901983703
 30
0.0
 42
0.076703690782507
  0
VERTEX
  5
D94A
  8
0
 62
     4
 10
5552.4757798380761
 20
-8133.6810266614684
 30
0.0
 42
0.0248749343084728
  0
VERTEX
  5
D94B
  8
0
 62
     4
 10
5524.8870250915079
 20
-8147.4170917829033
 30
0.0
 42
-0.0167825600055005
  0
VERTEX
  5
D94C
  8
0
 62
     4
 10
5555.1806474677451
 20
-8168.9503016696444
 30
0.0
 42
-0.0228672766767114
  0
SEQEND
  5
D94D
  8
0
 62
     4
  0
POLYLINE
  5
2E8D
  8
0
 62
     4
 66
     1
 10
0.0
 20
0.0
 30
0.0
 70
     1
  0
VERTEX
  5
D94E
  8
0
 62
     4
 10
5574.4955451673541
 20
-8241.2763156896926
 30
0.0
 42
0.0169858978494133
  0
VERTEX
  5
D94F
  8
0
 62
     4
 10
5546.2928856181634
 20
-8215.7617532465174
 30
0.0
 42
0.2232486015910541
  0
VERTEX
  5
D950
  8
0
 62
     4
 10
5517.5267388669326
 20
-8307.4429591600474
 30
0.0
 42
0.1975349394637591
  0
SEQEND
  5
D951
  8
0
 62
     4
  0
POLYLINE
  5
2E8E
  8
0
 62
     4
 66
     1
 10
0.0
 20
0.0
 30
0.0
 70
     1
  0
VERTEX
  5
D952
  8
0
 62
     4
 10
5608.5546461179974
 20
-8190.3939061703186
 30
0.0
 42
-0.2169269550010049
  0
VERTEX
  5
D953
  8
0
 62
     4
 10
5709.7181601035718
 20
-8232.8818659902008
 30
0.0
 42
-0.0338313139175562
  0
VERTEX
  5
D954
  8
0
 62
     4
 10
5678.6098113355056
 20
-8299.8195676765336
 30
0.0
 42
0.0489599066599584
  0
VERTEX
  5
D955
  8
0
 62
     4
 10
5609.6660826878697
 20
-8216.4306430277338
 30
0.0
 42
0.0388573621718134
  0
SEQEND
  5
D956
  8
0
 62
     4
  0
POLYLINE
  5
2E8F
  8
0
 62
     4
 66
     1
 10
0.0
 20
0.0
 30
0.0
 70
     1
  0
VERTEX
  5
D957
  8
0
 62
     4
 10
5331.2688091839418
 20
-8105.4313770782501
 30
0.0
 42
0.0383497111059832
  0
VERTEX
  5
D958
  8
0
 62
     4
 10
5247.3785646491833
 20
-8089.401124208418
 30
0.0
 42
0.1015655836837758
  0
VERTEX
  5
D959
  8
0
 62
     4
 10
5311.8636654061684
 20
-8299.3033681042034
 30
0.0
 42
-0.0923542302235811
  0
VERTEX
  5
D95A
  8
0
 62
     4
 10
5454.3205290832648
 20
-8155.2664107028804
 30
0.0
 42
0.0254005978520546
  0
VERTEX
  5
D95B
  8
0
 62
     4
 10
5403.4234660707534
 20
-8130.4700867635647
 30
0.0
 42
0.1067361803487453
  0
VERTEX
  5
D95C
  8
0
 62
     4
 10
5378.7098694420911
 20
-8168.2794393291242
 30
0.0
 42
-1.051485926414151
  0
VERTEX
  5
D95D
  8
0
 62
     4
 10
5303.1215263928407
 20
-8149.564161360835
 30
0.0
 42
-0.0779569265109231
  0
SEQEND
  5
D95E
  8
0
 62
     4
  0
POLYLINE
  5
2E90
  8
0
 62
     4
 66
     1
 10
0.0
 20
0.0
 30
0.0
 70
     1
  0
VERTEX
  5
D95F
  8
0
 62
     4
 10
5728.854318408552
 20
-8153.5464089220886
 30
0.0
 42
-0.6569286857277628
  0
VERTEX
  5
D960
  8
0
 62
     4
 10
5697.0821482957517
 20
-8133.0582030793839
 30
0.0
 42
-0.6626498832265823
  0
VERTEX
  5
D961
  8
0
 62
     4
 10
5676.6495861829617
 20
-8100.5331826973634
 30
0.0
 42
-0.156464338892585
  0
VERTEX
  5
D962
  8
0
 62
     4
 10
5664.4414471664877
 20
-8093.6295037937143
 30
0.0
 42
0.052109425001284
  0
VERTEX
  5
D963
  8
0
 62
     4
 10
5583.697369530315
 20
-8120.6845621143957
 30
0.0
 42
-0.0628295092184122
  0
VERTEX
  5
D964
  8
0
 62
     4
 10
5601.5725306275144
 20
-8158.7301110253593
 30
0.0
 42
-0.2148713580247647
  0
VERTEX
  5
D965
  8
0
 62
     4
 10
5721.1751195318957
 20
-8200.0281567498278
 30
0.0
 42
0.0184489941186091
  0
VERTEX
  5
D966
  8
0
 62
     4
 10
5731.7952486792301
 20
-8161.1688660804812
 30
0.0
 42
-0.0906513738531041
  0
SEQEND
  5
D967
  8
0
 62
     4
  0
POLYLINE
  5
2E91
  8
0
 62
     4
 66
     1
 10
0.0
 20
0.0
 30
0.0
  0
VERTEX
  5
D968
  8
0
 62
     4
 10
5618.3287397375843
 20
-8453.998662534681
 30
0.0
 42
1.0039377703535859
  0
VERTEX
  5
D969
  8
0
 62
     4
 10
5617.5966260552941
 20
-8491.6642182020223
 30
0.0
 42
0.1530772488076445
  0
VERTEX
  5
D96A
  8
0
 62
     4
 10
5709.8524143578161
 20
-8455.3062734911837
 30
0.0
 42
-0.0579894727622426
  0
VERTEX
  5
D96B
  8
0
 62
     4
 10
5739.0390537723852
 20
-8580.8625454858684
 30
0.0
 42
-0.1006668575683105
  0
VERTEX
  5
D96C
  8
0
 62
     4
 10
5530.8176117123721
 20
-8517.3912077066962
 30
0.0
 42
0.0917965816242507
  0
VERTEX
  5
D96D
  8
0
 62
     4
 10
5674.2195063801792
 20
-8376.0029625728603
 30
0.0
 42
-0.024804750303255
  0
VERTEX
  5
D96E
  8
0
 62
     4
 10
5698.3050347394901
 20
-8425.770617609709
 30
0.0
 42
-0.2958571002101111
  0
VERTEX
  5
D96F
  8
0
 62
     4
 10
5619.1903131264244
 20
-8454.1338240857058
 30
0.0
 42
-0.2958571002101111
  0
SEQEND
  5
D970
  8
0
 62
     4
  0
POLYLINE
  5
2E92
  8
0
 62
     4
 66
     1
 10
0.0
 20
0.0
 30
0.0
 70
     1
  0
VERTEX
  5
D971
  8
0
 62
     4
 10
5446.8155805107863
 20
-8104.3791096652503
 30
0.0
 42
-0.0116437780110252
  0
VERTEX
  5
D972
  8
0
 62
     4
 10
5451.4720571102389
 20
-8103.0248225642863
 30
0.0
 42
0.0543294798070411
  0
VERTEX
  5
D973
  8
0
 62
     4
 10
5461.3313691262974
 20
-8111.1722907126987
 30
0.0
 42
0.0072351244911604
  0
SEQEND
  5
D974
  8
0
 62
     4
  0
POLYLINE
  5
2E93
  8
0
 62
     4
 66
     1
 10
0.0
 20
0.0
 30
0.0
 70
     1
  0
VERTEX
  5
D975
  8
0
 62
     4
 10
5473.6931794188285
 20
-8117.3689161620441
 30
0.0
 42
0.2361962615921199
  0
VERTEX
  5
D976
  8
0
 62
     4
 10
5526.156403100189
 20
-8111.2224530377307
 30
0.0
 42
-0.0048699371292405
  0
VERTEX
  5
D977
  8
0
 62
     4
 10
5527.9479608214879
 20
-8112.1737656286232
 30
0.0
 42
0.0165773857056445
  0
VERTEX
  5
D978
  8
0
 62
     4
 10
5495.5207048553621
 20
-8129.2820640187147
 30
0.0
 42
0.0112267931427605
  0
SEQEND
  5
D979
  8
0
 62
     4
  0
ARC
  5
2E94
  8
0
 62
     2
 10
5770.9093200664602
 20
-8305.7324781881744
 30
0.0
 40
42.588223127325932
 50
269.14746004444743
 51
269.4113127567627
  0
ARC
  5
2E95
  8
0
 62
     2
 10
5770.3029565520928
 20
-8305.4612820727343
 30
0.0
 40
22.082106117085011
 50
269.92913935646442
 51
270.37857089261922
  0
POLYLINE
  5
2E96
  8
0
 62
     2
 66
     1
 10
0.0
 20
0.0
 30
0.0
  0
VERTEX
  5
D97A
  8
0
 62
     2
 10
5770.2756464799122
 20
-8060.0510936569553
 30
0.0
  0
VERTEX
  5
D97B
  8
0
 62
     2
 10
5770.2756464803633
 20
-8060.0510936574065
 30
0.0
  0
SEQEND
  5
D97C
  8
0
 62
     2
  0
POLYLINE
  5
2E97
  8
0
 66
     1
 10
0.0
 20
0.0
 30
0.0
  0
VERTEX
  5
D97D
  8
0
 10
5770.2756464801587
 20
-8060.0510936566016
 30
0.0
  0
VERTEX
  5
D97E
  8
0
 10
5770.2756464801587
 20
-8060.051093657552
 30
0.0
  0
SEQEND
  5
D97F
  8
0
  0
POLYLINE
  5
2E98
  8
0
 66
     1
 10
0.0
 20
0.0
 30
0.0
  0
VERTEX
  5
D980
  8
0
 10
5673.9120198579749
 20
-8060.0510936571327
 30
0.0
  0
VERTEX
  5
D981
  8
0
 10
5770.275646479733
 20
-8060.0510936571327
 30
0.0
  0
VERTEX
  5
D982
  8
0
 10
5770.2756464803633
 20
-8151.4382786686374
 30
0.0
  0
SEQEND
  5
D983
  8
0
  0
ARC
  5
2E99
  8
0
 62
     2
 10
5770.9093200688667
 20
-8305.7324781881744
 30
0.0
 40
42.588223127325932
 50
269.14746004444743
 51
269.4113127567627
  0
ARC
  5
2E9A
  8
0
 62
     2
 10
5770.3029565545021
 20
-8305.4612820727343
 30
0.0
 40
22.082106117085011
 50
269.92913935646442
 51
270.37857089261922
  0
POLYLINE
  5
2E9B
  8
0
 62
     4
 66
     1
 10
0.0
 20
0.0
 30
0.0
 70
     1
  0
VERTEX
  5
D984
  8
0
 62
     4
 10
5770.2756464816111
 20
-8351.811683070051
 30
0.0
 42
0.0043669236864427
  0
VERTEX
  5
D985
  8
0
 62
     4
 10
5771.038327696032
 20
-8351.8024104386368
 30
0.0
 42
0.1167671199668227
  0
VERTEX
  5
D986
  8
0
 62
     4
 10
5799.838912564579
 20
-8422.5352627042284
 30
0.0
 42
0.0574357184245795
  0
VERTEX
  5
D987
  8
0
 62
     4
 10
5770.2756464815629
 20
-8550.4071795756117
 30
0.0
 42
0.0574357184245794
  0
VERTEX
  5
D988
  8
0
 62
     4
 10
5740.7123803985469
 20
-8422.5352627042284
 30
0.0
 42
0.1167671199668226
  0
VERTEX
  5
D989
  8
0
 62
     4
 10
5769.512965267093
 20
-8351.802410438635
 30
0.0
 42
0.0043669236869081
  0
SEQEND
  5
D98A
  8
0
 62
     4
  0
POLYLINE
  5
2E9C
  8
0
 62
     4
 66
     1
 10
0.0
 20
0.0
 30
0.0
 70
     1
  0
VERTEX
  5
D98B
  8
0
 62
     4
 10
5828.5120877188838
 20
-8356.4006152902311
 30
0.0
 42
-0.0110834007562031
  0
VERTEX
  5
D98C
  8
0
 62
     4
 10
5840.2049743080506
 20
-8334.8147591082725
 30
0.0
 42
-0.0338212112134039
  0
VERTEX
  5
D98D
  8
0
 62
     4
 10
5807.4584505437324
 20
-8267.6346199343498
 30
0.0
 42
0.0301098897916354
  0
VERTEX
  5
D98E
  8
0
 62
     4
 10
5801.5328464504137
 20
-8282.6677792807968
 30
0.0
 42
-0.5473884928266002
  0
VERTEX
  5
D98F
  8
0
 62
     4
 10
5796.3482198356851
 20
-8343.8784713463156
 30
0.0
 42
0.0029261692965294
  0
VERTEX
  5
D990
  8
0
 62
     4
 10
5796.5863988731817
 20
-8345.432096709641
 30
0.0
 42
-0.6303486807395047
  0
SEQEND
  5
D991
  8
0
 62
     4
  0
ARC
  5
2E9D
  8
0
 62
     2
 10
5859.2450665733431
 20
-8078.0526135105411
 30
0.0
 40
19.460961108528871
 50
256.03386811941709
 51
67.669368721377069
  0
ARC
  5
2E9E
  8
0
 62
     2
 10
5846.8027845013812
 20
-8112.4719448131527
 30
0.0
 40
17.357595868198139
 50
237.57723591800629
 51
63.498189547496708
  0
ARC
  5
2E9F
  8
0
 62
     2
 10
5823.1509148764044
 20
-8136.4291391869046
 30
0.0
 40
17.09912998594514
 50
205.59303917901229
 51
32.970176368385111
  0
ARC
  5
2EA0
  8
0
 62
     2
 10
5789.377905635507
 20
-8149.313736588032
 30
0.0
 40
19.220041201589101
 50
186.3463213057137
 51
15.62391025185692
  0
POLYLINE
  5
2EA1
  8
0
 62
     2
 66
     1
 10
0.0
 20
0.0
 30
0.0
  0
VERTEX
  5
D992
  8
0
 62
     2
 10
5837.4962975218232
 20
-8127.1237513373344
 30
0.0
  0
VERTEX
  5
D993
  8
0
 62
     2
 10
5770.2756464833901
 20
-8060.0510936571291
 30
0.0
  0
SEQEND
  5
D994
  8
0
 62
     2
  0
POLYLINE
  5
2EA2
  8
0
 62
     2
 66
     1
 10
0.0
 20
0.0
 30
0.0
  0
VERTEX
  5
D995
  8
0
 62
     2
 10
5770.2756464827644
 20
-8060.0510936568571
 30
0.0
  0
VERTEX
  5
D996
  8
0
 62
     2
 10
5854.5481966603629
 20
-8096.9382805699724
 30
0.0
  0
SEQEND
  5
D997
  8
0
 62
     2
  0
POLYLINE
  5
2EA3
  8
0
 62
     2
 66
     1
 10
0.0
 20
0.0
 30
0.0
  0
VERTEX
  5
D998
  8
0
 62
     2
 10
5807.7294657979164
 20
-8143.8155560852856
 30
0.0
  0
VERTEX
  5
D999
  8
0
 62
     2
 10
5770.2756464829681
 20
-8060.0510936567116
 30
0.0
  0
SEQEND
  5
D99A
  8
0
 62
     2
  0
ARC
  5
2EA4
  8
0
 62
     2
 10
5749.5931296578356
 20
-8037.2618765301077
 30
0.0
 40
549.57126081517822
 50
272.2172930678675
 51
357.62341929160749
  0
ARC
  5
2EA5
  8
0
 62
     2
 10
6200.1055864340251
 20
-8160.820028644911
 30
0.0
 40
35.487638364404418
 50
190.55496556915281
 51
16.450862050176191
  0
ARC
  5
2EA6
  8
0
 62
     2
 10
6075.0130254582637
 20
-8205.0733118674507
 30
0.0
 40
115.9912298941338
 50
127.0364000908686
 51
285.30767743296542
  0
ARC
  5
2EA7
  8
0
 62
     2
 10
6098.7028235581329
 20
-8210.5522240885148
 30
0.0
 40
164.42370562635841
 50
137.807110021391
 51
276.61158423247309
  0
ARC
  5
2EA8
  8
0
 62
     2
 10
6113.425668424682
 20
-8345.0384351051034
 30
0.0
 40
29.149411031872301
 50
278.30133499624247
 51
105.5017354859454
  0
ARC
  5
2EA9
  8
0
 62
     2
 10
5922.6626237846303
 20
-8472.8300017476031
 30
0.0
 40
15.339647994021581
 50
271.43153795997171
 51
91.338704435051696
  0
ARC
  5
2EAA
  8
0
 62
     2
 10
5903.6727364024364
 20
-8378.9517434772733
 30
0.0
 40
80.731664056282241
 50
167.91094971543239
 51
283.3754413077711
  0
ARC
  5
2EAB
  8
0
 62
     2
 10
5809.9275620183917
 20
-8358.5471933009194
 30
0.0
 40
15.21125108503856
 50
346.70992172116217
 51
168.7068653067432
  0
ARC
  5
2EAC
  8
0
 62
     2
 10
5931.7617324161638
 20
-8335.0098618581542
 30
0.0
 40
17.612641794419989
 50
17.704585221112708
 51
206.2365199906865
  0
ARC
  5
2EAD
  8
0
 62
     2
 10
5928.0764388822081
 20
-8322.7386847037651
 30
0.0
 40
135.89965892114489
 50
86.67235489464143
 51
138.17994661639099
  0
ARC
  5
2EAE
  8
0
 62
     2
 10
5925.0087593188382
 20
-8312.1103809077904
 30
0.0
 40
150.51832312854449
 50
83.725471739965116
 51
135.43669924616279
  0
ARC
  5
2EAF
  8
0
 62
     2
 10
5927.8910706317929
 20
-8316.5618952558416
 30
0.0
 40
155.69975356355769
 50
146.69655341038319
 51
184.0099546878055
  0
ARC
  5
2EB0
  8
0
 62
     2
 10
5915.256124956034
 20
-8327.4955507682098
 30
0.0
 40
169.86014598860299
 50
65.446661488521755
 51
72.611601074205083
  0
ARC
  5
2EB1
  8
0
 62
     2
 10
5932.258447608926
 20
-8284.8153400243245
 30
0.0
 40
124.20812585451731
 50
344.31959555396492
 51
46.209961730015969
  0
ARC
  5
2EB2
  8
0
 62
     2
 10
5911.0912389005853
 20
-8292.2099877658329
 30
0.0
 40
114.14191770625909
 50
351.61925444619033
 51
43.155634049382662
  0
ARC
  5
2EB3
  8
0
 62
     2
 10
5959.6132868215154
 20
-8195.6139620768099
 30
0.0
 40
9.5273244810468078
 50
45.853714368135229
 51
84.187207707382299
  0
ARC
  5
2EB4
  8
0
 62
     2
 10
6321.1947693097918
 20
-8609.3230049522499
 30
0.0
 40
550.31356817489495
 50
134.65121703370971
 51
146.61766131288201
  0
ARC
  5
2EB5
  8
0
 62
     2
 10
6321.1947693100028
 20
-8609.3230049525264
 30
0.0
 40
550.31356817515666
 50
93.525846420309449
 51
131.09086098659199
  0
ARC
  5
2EB6
  8
0
 62
     2
 10
6355.574397129074
 20
-8643.4885984365355
 30
0.0
 40
561.08709192388994
 50
137.4145093800891
 51
147.39560291032609
  0
ARC
  5
2EB7
  8
0
 62
     2
 10
6355.574397129496
 20
-8643.4885984371067
 30
0.0
 40
561.08709192445895
 50
96.042818767763123
 51
134.1838520235514
  0
ARC
  5
2EB8
  8
0
 62
     2
 10
5980.4600807852776
 20
-8298.5986419011388
 30
0.0
 40
44.53420840836241
 50
224.2132021310793
 51
292.03399005691813
  0
ARC
  5
2EB9
  8
0
 62
     2
 10
5787.035084796933
 20
-8493.4826630953121
 30
0.0
 40
413.1513968316479
 50
64.946571573530207
 51
77.736528010511236
  0
ARC
  5
2EBA
  8
0
 62
     2
 10
5863.9040411052074
 20
-8417.6521414118979
 30
0.0
 40
313.42932272439998
 50
59.633666773346
 51
66.860303123550963
  0
ARC
  5
2EBB
  8
0
 62
     2
 10
5751.0246029918444
 20
-8625.7709909464647
 30
0.0
 40
550.11564404401372
 50
32.539036327347567
 51
56.221895410754144
  0
ARC
  5
2EBC
  8
0
 62
     2
 10
5770.8812823696453
 20
-8609.6220207661718
 30
0.0
 40
549.57126081952072
 50
67.985496156457756
 51
78.850900118156304
  0
ARC
  5
2EBD
  8
0
 62
     2
 10
5770.8812823707067
 20
-8609.6220207616661
 30
0.0
 40
549.571260815144
 50
60.075742564219922
 51
64.768704225255945
  0
ARC
  5
2EBE
  8
0
 62
     2
 10
5770.8812823705684
 20
-8609.6220207616661
 30
0.0
 40
549.57126081526667
 50
33.535678641688079
 51
55.822695876973178
  0
ARC
  5
2EBF
  8
0
 62
     2
 10
5979.6677634159578
 20
-8307.010900817957
 30
0.0
 40
73.067056766744571
 50
209.32462388943051
 51
313.57209168096631
  0
ARC
  5
2EC0
  8
0
 62
     2
 10
6321.19476930782
 20
-8609.3230049514059
 30
0.0
 40
550.3135681726111
 50
150.07731671065341
 51
154.859340621325
  0
ARC
  5
2EC1
  8
0
 62
     2
 10
6339.8082629662467
 20
-8614.7265201458704
 30
0.0
 40
569.65618264722184
 50
160.22343759023539
 51
177.15193682377759
  0
ARC
  5
2EC2
  8
0
 62
     2
 10
6355.5743971296406
 20
-8643.4885984368248
 30
0.0
 40
561.08709192448998
 50
159.76616967586321
 51
173.98929809055161
  0
ARC
  5
2EC3
  8
0
 62
     2
 10
6355.5743971292841
 20
-8643.4885984368248
 30
0.0
 40
561.08709192418394
 50
150.75511194519439
 51
157.22130432372771
  0
ARC
  5
2EC4
  8
0
 62
     2
 10
6061.9355740060137
 20
-8206.6000734465306
 30
0.0
 40
110.49986878199481
 50
20.822294896797239
 51
46.574087664185711
  0
ARC
  5
2EC5
  8
0
 62
     2
 10
6082.6868516222039
 20
-8217.2146970558388
 30
0.0
 40
165.38763894514409
 50
23.687637608478891
 51
43.397398479205968
  0
ARC
  5
2EC6
  8
0
 62
     2
 10
6340.4642428919187
 20
-8036.735459166227
 30
0.0
 40
549.57126081506215
 50
193.0144136369627
 51
237.53234707350819
  0
ARC
  5
2EC7
  8
0
 62
     2
 10
6319.8465735877853
 20
-8059.4454577688521
 30
0.0
 40
549.5712608150543
 50
191.23459955008019
 51
236.49303255508991
  0
ARC
  5
2EC8
  8
0
 62
     2
 10
5779.3612589167178
 20
-8311.6147348783979
 30
0.0
 40
32.965552634831297
 50
293.5577169295596
 51
56.759338414077462
  0
ARC
  5
2EC9
  8
0
 62
     2
 10
5769.940327793659
 20
-8305.7335460330396
 30
0.0
 40
42.588223127325932
 50
270.71496890905382
 51
302.04449600467098
  0
ARC
  5
2ECA
  8
0
 62
     2
 10
5770.5460921111098
 20
-8305.4610141334906
 30
0.0
 40
22.082106117085011
 50
269.74771077356098
 51
358.17342880294763
  0
ARC
  5
2ECB
  8
0
 62
     2
 10
5934.8138058341146
 20
-8326.3471310228397
 30
0.0
 40
162.2450707065218
 50
187.71374079150391
 51
265.84056981501487
  0
ARC
  5
2ECC
  8
0
 62
     2
 10
5929.20160311994
 20
-8324.3064103074321
 30
0.0
 40
137.7841626255418
 50
187.30795258323971
 51
193.11409982114381
  0
ARC
  5
2ECD
  8
0
 62
     2
 10
5929.2016031189651
 20
-8324.3064103077031
 30
0.0
 40
137.7841626245818
 50
151.75410434556429
 51
174.0179782491397
  0
ARC
  5
2ECE
  8
0
 62
     2
 10
6046.7692323905594
 20
-8061.8643191910751
 30
0.0
 40
55.531325416455523
 50
234.6722498376966
 51
1.871171618855193
  0
ARC
  5
2ECF
  8
0
 62
     2
 10
6032.1892112031646
 20
-8059.7624607509506
 30
0.0
 40
39.399131110444728
 50
282.46636061393178
 51
359.58025482258472
  0
ARC
  5
2ED0
  8
0
 62
     2
 10
6062.3339318590606
 20
-8203.6661976713403
 30
0.0
 40
107.6313497172054
 50
67.731613773532459
 51
76.235267347010094
  0
ARC
  5
2ED1
  8
0
 62
     2
 10
6062.3339318588423
 20
-8203.6661976713403
 30
0.0
 40
107.6313497172564
 50
101.59863325163781
 51
122.0936292440521
  0
ARC
  5
2ED2
  8
0
 62
     2
 10
6072.6623779988522
 20
-8220.8782837926447
 30
0.0
 40
154.13002655229789
 50
90.631962052740164
 51
128.41972202128349
  0
ARC
  5
2ED3
  8
0
 62
     2
 10
6092.0552510017169
 20
-8324.3633569501308
 30
0.0
 40
258.4678280622835
 50
71.580635740303563
 51
87.764038450376404
  0
POLYLINE
  5
2ED4
  8
0
 62
     4
 66
     1
 10
0.0
 20
0.0
 30
0.0
 70
     1
  0
VERTEX
  5
D99B
  8
0
 62
     4
 10
6030.7003962078734
 20
-8364.0871615139731
 30
0.0
 42
0.1339520693949373
  0
VERTEX
  5
D99C
  8
0
 62
     4
 10
6118.0868991963516
 20
-8377.3501999377095
 30
0.0
 42
1.0656577413798669
  0
VERTEX
  5
D99D
  8
0
 62
     4
 10
6104.7062981716826
 20
-8313.5781458297461
 30
0.0
 42
-0.1094324617638207
  0
VERTEX
  5
D99E
  8
0
 62
     4
 10
6056.1055551863228
 20
-8315.9673919868856
 30
0.0
 42
0.2608618261382946
  0
VERTEX
  5
D99F
  8
0
 62
     4
 10
6023.5581871781706
 20
-8195.5241649208856
 30
0.0
 42
-0.0180943709106417
  0
VERTEX
  5
D9A0
  8
0
 62
     4
 10
6056.8179613119337
 20
-8172.6898203987257
 30
0.0
 42
-0.1016304063381045
  0
VERTEX
  5
D9A1
  8
0
 62
     4
 10
6210.6411436568978
 20
-8329.8913521663144
 30
0.0
 42
-0.1086018354395713
  0
VERTEX
  5
D9A2
  8
0
 62
     4
 10
6045.437844281455
 20
-8496.2533645261883
 30
0.0
 42
-0.1025548905653504
  0
VERTEX
  5
D9A3
  8
0
 62
     4
 10
5887.0891120171927
 20
-8341.1172456249333
 30
0.0
 42
-0.0402765710223473
  0
VERTEX
  5
D9A4
  8
0
 62
     4
 10
5941.6267503592226
 20
-8269.9190023755091
 30
0.0
 42
0.1269600530168489
  0
VERTEX
  5
D9A5
  8
0
 62
     4
 10
5989.9735626881456
 20
-8338.5180592416236
 30
0.0
 42
-0.2591684877964657
  0
VERTEX
  5
D9A6
  8
0
 62
     4
 10
5951.5875847429834
 20
-8327.7610353388009
 30
0.0
 42
1.057629927554218
  0
VERTEX
  5
D9A7
  8
0
 62
     4
 10
5912.87029267054
 20
-8344.4291723808365
 30
0.0
 42
0.4798917443749033
  0
SEQEND
  5
D9A8
  8
0
 62
     4
  0
POLYLINE
  5
2ED5
  8
0
 62
     4
 66
     1
 10
0.0
 20
0.0
 30
0.0
 70
     1
  0
VERTEX
  5
D9A9
  8
0
 62
     4
 10
5970.5983797152667
 20
-8163.2095901983703
 30
0.0
 42
-0.076703690782507
  0
VERTEX
  5
D9AA
  8
0
 62
     4
 10
5988.0755131250498
 20
-8133.6810266614684
 30
0.0
 42
-0.0248749343084728
  0
VERTEX
  5
D9AB
  8
0
 62
     4
 10
6015.664267871618
 20
-8147.4170917829033
 30
0.0
 42
0.0167825600055005
  0
VERTEX
  5
D9AC
  8
0
 62
     4
 10
5985.3706454953808
 20
-8168.9503016696444
 30
0.0
 42
0.0228672766767114
  0
SEQEND
  5
D9AD
  8
0
 62
     4
  0
POLYLINE
  5
2ED6
  8
0
 62
     4
 66
     1
 10
0.0
 20
0.0
 30
0.0
 70
     1
  0
VERTEX
  5
D9AE
  8
0
 62
     4
 10
5966.0557477957709
 20
-8241.2763156896926
 30
0.0
 42
-0.0169858978494133
  0
VERTEX
  5
D9AF
  8
0
 62
     4
 10
5994.2584073449643
 20
-8215.7617532465174
 30
0.0
 42
-0.2232486015910541
  0
VERTEX
  5
D9B0
  8
0
 62
     4
 10
6023.0245540961932
 20
-8307.4429591600474
 30
0.0
 42
-0.1975349394637591
  0
SEQEND
  5
D9B1
  8
0
 62
     4
  0
POLYLINE
  5
2ED7
  8
0
 62
     4
 66
     1
 10
0.0
 20
0.0
 30
0.0
 70
     1
  0
VERTEX
  5
D9B2
  8
0
 62
     4
 10
5931.9966468451303
 20
-8190.3939061703186
 30
0.0
 42
0.2169269550010049
  0
VERTEX
  5
D9B3
  8
0
 62
     4
 10
5830.8331328595541
 20
-8232.8818659902008
 30
0.0
 42
0.0338313139175562
  0
VERTEX
  5
D9B4
  8
0
 62
     4
 10
5861.9414816276212
 20
-8299.8195676765336
 30
0.0
 42
-0.0489599066599584
  0
VERTEX
  5
D9B5
  8
0
 62
     4
 10
5930.8852102752553
 20
-8216.4306430277338
 30
0.0
 42
-0.0388573621718134
  0
SEQEND
  5
D9B6
  8
0
 62
     4
  0
POLYLINE
  5
2ED8
  8
0
 62
     4
 66
     1
 10
0.0
 20
0.0
 30
0.0
 70
     1
  0
VERTEX
  5
D9B7
  8
0
 62
     4
 10
6209.2824837791832
 20
-8105.4313770782501
 30
0.0
 42
-0.0383497111059832
  0
VERTEX
  5
D9B8
  8
0
 62
     4
 10
6293.1727283139426
 20
-8089.401124208418
 30
0.0
 42
-0.1015655836837758
  0
VERTEX
  5
D9B9
  8
0
 62
     4
 10
6228.6876275569584
 20
-8299.3033681042034
 30
0.0
 42
0.0923542302235811
  0
VERTEX
  5
D9BA
  8
0
 62
     4
 10
6086.2307638798611
 20
-8155.2664107028804
 30
0.0
 42
-0.0254005978520546
  0
VERTEX
  5
D9BB
  8
0
 62
     4
 10
6137.1278268923716
 20
-8130.4700867635647
 30
0.0
 42
-0.1067361803487453
  0
VERTEX
  5
D9BC
  8
0
 62
     4
 10
6161.8414235210348
 20
-8168.2794393291242
 30
0.0
 42
1.051485926414151
  0
VERTEX
  5
D9BD
  8
0
 62
     4
 10
6237.4297665702861
 20
-8149.564161360835
 30
0.0
 42
0.0779569265109231
  0
SEQEND
  5
D9BE
  8
0
 62
     4
  0
POLYLINE
  5
2ED9
  8
0
 62
     4
 66
     1
 10
0.0
 20
0.0
 30
0.0
 70
     1
  0
VERTEX
  5
D9BF
  8
0
 62
     4
 10
5811.6969745545739
 20
-8153.5464089220886
 30
0.0
 42
0.6569286857277628
  0
VERTEX
  5
D9C0
  8
0
 62
     4
 10
5843.4691446673733
 20
-8133.0582030793839
 30
0.0
 42
0.6626498832265823
  0
VERTEX
  5
D9C1
  8
0
 62
     4
 10
5863.9017067801633
 20
-8100.5331826973634
 30
0.0
 42
0.156464338892585
  0
VERTEX
  5
D9C2
  8
0
 62
     4
 10
5876.1098457966382
 20
-8093.6295037937143
 30
0.0
 42
-0.052109425001284
  0
VERTEX
  5
D9C3
  8
0
 62
     4
 10
5956.8539234328109
 20
-8120.6845621143957
 30
0.0
 42
0.0628295092184122
  0
VERTEX
  5
D9C4
  8
0
 62
     4
 10
5938.9787623356124
 20
-8158.7301110253593
 30
0.0
 42
0.2148713580247647
  0
VERTEX
  5
D9C5
  8
0
 62
     4
 10
5819.3761734312302
 20
-8200.0281567498278
 30
0.0
 42
-0.0184489941186091
  0
VERTEX
  5
D9C6
  8
0
 62
     4
 10
5808.7560442838967
 20
-8161.1688660804812
 30
0.0
 42
0.0906513738531041
  0
SEQEND
  5
D9C7
  8
0
 62
     4
  0
POLYLINE
  5
2EDA
  8
0
 62
     4
 66
     1
 10
0.0
 20
0.0
 30
0.0
  0
VERTEX
  5
D9C8
  8
0
 62
     4
 10
5922.2225532255407
 20
-8453.998662534681
 30
0.0
 42
-1.0039377703535859
  0
VERTEX
  5
D9C9
  8
0
 62
     4
 10
5922.9546669078309
 20
-8491.6642182020223
 30
0.0
 42
-0.1530772488076445
  0
VERTEX
  5
D9CA
  8
0
 62
     4
 10
5830.6988786053098
 20
-8455.3062734911837
 30
0.0
 42
0.0579894727622426
  0
VERTEX
  5
D9CB
  8
0
 62
     4
 10
5801.5122391907407
 20
-8580.8625454858684
 30
0.0
 42
0.1006668575683105
  0
VERTEX
  5
D9CC
  8
0
 62
     4
 10
6009.7336812507547
 20
-8517.3912077066962
 30
0.0
 42
-0.0917965816242507
  0
VERTEX
  5
D9CD
  8
0
 62
     4
 10
5866.3317865829458
 20
-8376.0029625728603
 30
0.0
 42
0.024804750303255
  0
VERTEX
  5
D9CE
  8
0
 62
     4
 10
5842.2462582236349
 20
-8425.770617609709
 30
0.0
 42
0.2958571002101111
  0
VERTEX
  5
D9CF
  8
0
 62
     4
 10
5921.3609798367024
 20
-8454.1338240857058
 30
0.0
 42
0.2958571002101111
  0
SEQEND
  5
D9D0
  8
0
 62
     4
  0
POLYLINE
  5
2EDB
  8
0
 62
     4
 66
     1
 10
0.0
 20
0.0
 30
0.0
 70
     1
  0
VERTEX
  5
D9D1
  8
0
 62
     4
 10
6093.7357124523387
 20
-8104.3791096652503
 30
0.0
 42
0.0116437780110252
  0
VERTEX
  5
D9D2
  8
0
 62
     4
 10
6089.079235852887
 20
-8103.0248225642863
 30
0.0
 42
-0.0543294798070411
  0
VERTEX
  5
D9D3
  8
0
 62
     4
 10
6079.2199238368275
 20
-8111.1722907126987
 30
0.0
 42
-0.0072351244911604
  0
SEQEND
  5
D9D4
  8
0
 62
     4
  0
POLYLINE
  5
2EDC
  8
0
 62
     4
 66
     1
 10
0.0
 20
0.0
 30
0.0
 70
     1
  0
VERTEX
  5
D9D5
  8
0
 62
     4
 10
6066.8581135442964
 20
-8117.3689161620441
 30
0.0
 42
-0.2361962615921199
  0
VERTEX
  5
D9D6
  8
0
 62
     4
 10
6014.3948898629369
 20
-8111.2224530377307
 30
0.0
 42
0.0048699371292405
  0
VERTEX
  5
D9D7
  8
0
 62
     4
 10
6012.603332141638
 20
-8112.1737656286232
 30
0.0
 42
-0.0165773857056445
  0
VERTEX
  5
D9D8
  8
0
 62
     4
 10
6045.0305881077629
 20
-8129.2820640187147
 30
0.0
 42
-0.0112267931427605
  0
SEQEND
  5
D9D9
  8
0
 62
     4
  0
ARC
  5
2EDD
  8
0
 62
     2
 10
5769.6419728966666
 20
-8305.7324781881744
 30
0.0
 40
42.588223127325932
 50
270.5886872432373
 51
270.85253995555257
  0
ARC
  5
2EDE
  8
0
 62
     2
 10
5770.2483364110321
 20
-8305.4612820727343
 30
0.0
 40
22.082106117085011
 50
269.62142910738078
 51
270.07086064353553
  0
POLYLINE
  5
2EDF
  8
0
 62
     2
 66
     1
 10
0.0
 20
0.0
 30
0.0
  0
VERTEX
  5
D9DA
  8
0
 62
     2
 10
5770.2756464832146
 20
-8060.0510936569553
 30
0.0
  0
VERTEX
  5
D9DB
  8
0
 62
     2
 10
5770.2756464827644
 20
-8060.0510936574065
 30
0.0
  0
SEQEND
  5
D9DC
  8
0
 62
     2
  0
POLYLINE
  5
2EE0
  8
0
 66
     1
 10
0.0
 20
0.0
 30
0.0
  0
VERTEX
  5
D9DD
  8
0
 10
5770.2756464829681
 20
-8060.0510936566016
 30
0.0
  0
VERTEX
  5
D9DE
  8
0
 10
5770.2756464829681
 20
-8060.051093657552
 30
0.0
  0
SEQEND
  5
D9DF
  8
0
  0
POLYLINE
  5
2EE1
  8
0
 66
     1
 10
0.0
 20
0.0
 30
0.0
  0
VERTEX
  5
D9E0
  8
0
 10
5866.639273105151
 20
-8060.0510936571327
 30
0.0
  0
VERTEX
  5
D9E1
  8
0
 10
5770.2756464833928
 20
-8060.0510936571327
 30
0.0
  0
VERTEX
  5
D9E2
  8
0
 10
5770.2756464827644
 20
-8151.4382786686374
 30
0.0
  0
SEQEND
  5
D9E3
  8
0
  0
ARC
  5
2EE2
  8
0
 62
     2
 10
5769.6419728942592
 20
-7814.3697091260919
 30
0.0
 40
42.588223127325932
 50
89.147460044447357
 51
89.411312756762683
  0
ARC
  5
2EE3
  8
0
 62
     2
 10
5770.2483364086238
 20
-7814.6409052415293
 30
0.0
 40
22.082106117085011
 50
89.929139356464475
 51
90.378570892410735
  0
POLYLINE
  5
2EE4
  8
0
 62
     4
 66
     1
 10
0.0
 20
0.0
 30
0.0
 70
     1
  0
VERTEX
  5
D9E4
  8
0
 62
     4
 10
5712.0392052442412
 20
-7763.7015720240324
 30
0.0
 42
-0.0110834007562031
  0
VERTEX
  5
D9E5
  8
0
 62
     4
 10
5700.3463186550753
 20
-7785.2874282059911
 30
0.0
 42
-0.0338212112134039
  0
VERTEX
  5
D9E6
  8
0
 62
     4
 10
5733.0928424193926
 20
-7852.4675673799138
 30
0.0
 42
0.0301098897916354
  0
VERTEX
  5
D9E7
  8
0
 62
     4
 10
5739.0184465127113
 20
-7837.4344080334704
 30
0.0
 42
-0.5473884928266002
  0
VERTEX
  5
D9E8
  8
0
 62
     4
 10
5744.2030731274399
 20
-7776.223715967948
 30
0.0
 42
0.0029261692965294
  0
VERTEX
  5
D9E9
  8
0
 62
     4
 10
5743.9648940899451
 20
-7774.6700906046217
 30
0.0
 42
-0.6303486807395047
  0
SEQEND
  5
D9EA
  8
0
 62
     4
  0
POLYLINE
  5
2EE5
  8
0
 62
     4
 66
     1
 10
0.0
 20
0.0
 30
0.0
 70
     1
  0
VERTEX
  5
D9EB
  8
0
 62
     4
 10
5434.7817585052744
 20
-8060.0510936571327
 30
0.0
 42
0.0114706937956457
  0
VERTEX
  5
D9EC
  8
0
 62
     4
 10
5434.7606837558678
 20
-8062.7590310382056
 30
0.0
 42
0.0663321931849546
  0
VERTEX
  5
D9ED
  8
0
 62
     4
 10
5366.738323705229
 20
-8075.4835487968694
 30
0.0
 42
0.0353291249290708
  0
VERTEX
  5
D9EE
  8
0
 62
     4
 10
5290.1119290681472
 20
-8060.0510936571327
 30
0.0
 42
0.0353291249290708
  0
VERTEX
  5
D9EF
  8
0
 62
     4
 10
5366.7383237052254
 20
-8044.6186385173969
 30
0.0
 42
0.0663321931849546
  0
VERTEX
  5
D9F0
  8
0
 62
     4
 10
5434.7606837558724
 20
-8057.3431562760561
 30
0.0
 42
0.0114706937956457
  0
SEQEND
  5
D9F1
  8
0
 62
     4
  0
ARC
  5
2EE6
  8
0
 62
     2
 10
5681.3062263897818
 20
-8042.0495738037234
 30
0.0
 40
19.460961108528871
 50
76.03386811941715
 51
247.6693687211442
  0
ARC
  5
2EE7
  8
0
 62
     2
 10
5693.7485084617447
 20
-8007.6302425011108
 30
0.0
 40
17.357595868198139
 50
57.577235917785977
 51
243.49818954772971
  0
ARC
  5
2EE8
  8
0
 62
     2
 10
5717.4003780867224
 20
-7983.6730481273589
 30
0.0
 40
17.09912998594514
 50
25.593039178899989
 51
212.9701763682697
  0
ARC
  5
2EE9
  8
0
 62
     2
 10
5751.1733873276189
 20
-7970.7884507262324
 30
0.0
 40
19.220041201589101
 50
6.3463213056089209
 51
195.6239102517487
  0
POLYLINE
  5
2EEA
  8
0
 62
     2
 66
     1
 10
0.0
 20
0.0
 30
0.0
  0
VERTEX
  5
D9F2
  8
0
 62
     2
 10
5703.0549954413018
 20
-7992.9784359769301
 30
0.0
  0
VERTEX
  5
D9F3
  8
0
 62
     2
 10
5770.2756464797367
 20
-8060.0510936571354
 30
0.0
  0
SEQEND
  5
D9F4
  8
0
 62
     2
  0
POLYLINE
  5
2EEB
  8
0
 62
     2
 66
     1
 10
0.0
 20
0.0
 30
0.0
  0
VERTEX
  5
D9F5
  8
0
 62
     2
 10
5770.2756464803633
 20
-8060.0510936574065
 30
0.0
  0
VERTEX
  5
D9F6
  8
0
 62
     2
 10
5686.0030963027621
 20
-8023.163906744292
 30
0.0
  0
SEQEND
  5
D9F7
  8
0
 62
     2
  0
POLYLINE
  5
2EEC
  8
0
 62
     2
 66
     1
 10
0.0
 20
0.0
 30
0.0
  0
VERTEX
  5
D9F8
  8
0
 62
     2
 10
5732.8218271652104
 20
-7976.2866312289771
 30
0.0
  0
VERTEX
  5
D9F9
  8
0
 62
     2
 10
5770.2756464801587
 20
-8060.051093657552
 30
0.0
  0
SEQEND
  5
D9FA
  8
0
 62
     2
  0
ARC
  5
2EED
  8
0
 62
     2
 10
5790.9581633052903
 20
-8082.8403107841541
 30
0.0
 40
549.57126081517822
 50
92.217293067659256
 51
177.62341929160749
  0
ARC
  5
2EEE
  8
0
 62
     2
 10
5340.4457065291008
 20
-7959.2821586693526
 30
0.0
 40
35.487638364404418
 50
10.554965569152809
 51
196.45086205006839
  0
ARC
  5
2EEF
  8
0
 62
     2
 10
5465.5382675048622
 20
-7915.0288754468138
 30
0.0
 40
115.9912298941338
 50
307.03640009090049
 51
105.30767743296541
  0
ARC
  5
2EF0
  8
0
 62
     2
 10
5441.848469404993
 20
-7909.5499632257506
 30
0.0
 40
164.42370562635841
 50
317.80711002152532
 51
96.611584232266125
  0
ARC
  5
2EF1
  8
0
 62
     2
 10
5427.1256245384448
 20
-7775.0637522091611
 30
0.0
 40
29.149411031872301
 50
98.301334996242517
 51
285.50173548614652
  0
ARC
  5
2EF2
  8
0
 62
     2
 10
5617.8886691784946
 20
-7647.2721855666596
 30
0.0
 40
15.339647994021581
 50
91.431537959971763
 51
271.33870443505168
  0
ARC
  5
2EF3
  8
0
 62
     2
 10
5636.8785565606913
 20
-7741.1504438369902
 30
0.0
 40
80.731664056282241
 50
347.91094971543242
 51
103.3754413077711
  0
ARC
  5
2EF4
  8
0
 62
     2
 10
5730.6237309447333
 20
-7761.5549940133442
 30
0.0
 40
15.21125108503856
 50
166.70992172126861
 51
348.70686530674323
  0
ARC
  5
2EF5
  8
0
 62
     2
 10
5608.7895605469621
 20
-7785.0923254561094
 30
0.0
 40
17.612641794419989
 50
197.70458522111269
 51
26.236519990575768
  0
ARC
  5
2EF6
  8
0
 62
     2
 10
5612.4748540809178
 20
-7797.3635026104967
 30
0.0
 40
135.89965892114489
 50
266.67235489464139
 51
318.17994661614023
  0
ARC
  5
2EF7
  8
0
 62
     2
 10
5615.5425336442868
 20
-7807.9918064064732
 30
0.0
 40
150.51832312854449
 50
263.72547173975789
 51
315.43669924612658
  0
ARC
  5
2EF8
  8
0
 62
     2
 10
5612.660222331333
 20
-7803.5402920584211
 30
0.0
 40
155.69975356355769
 50
326.69655341026771
 51
4.0099546878055392
  0
ARC
  5
2EF9
  8
0
 62
     2
 10
5625.2951680070928
 20
-7792.6066365460538
 30
0.0
 40
169.86014598860299
 50
245.44666148837379
 51
252.61160107441
  0
ARC
  5
2EFA
  8
0
 62
     2
 10
5608.292845354199
 20
-7835.286847289939
 30
0.0
 40
124.20812585451731
 50
164.31959555407209
 51
226.209961730016
  0
ARC
  5
2EFB
  8
0
 62
     2
 10
5629.4600540625406
 20
-7827.8921995484307
 30
0.0
 40
114.14191770625909
 50
171.6192544461903
 51
223.15563404927079
  0
ARC
  5
2EFC
  8
0
 62
     2
 10
5580.9380061416114
 20
-7924.4882252374518
 30
0.0
 40
9.5273244810468078
 50
225.8537143681352
 51
264.1872077073823
  0
ARC
  5
2EFD
  8
0
 62
     2
 10
5219.356523653335
 20
-7510.7791823620128
 30
0.0
 40
550.31356817489495
 50
314.65121703370983
 51
326.61766131288198
  0
ARC
  5
2EFE
  8
0
 62
     2
 10
5219.3565236531231
 20
-7510.7791823617372
 30
0.0
 40
550.31356817515666
 50
273.5258464201014
 51
311.09086098629172
  0
ARC
  5
2EFF
  8
0
 62
     2
 10
5184.9768958340519
 20
-7476.6135888777289
 30
0.0
 40
561.08709192388994
 50
317.41450938023189
 51
327.39560291032609
  0
ARC
  5
2F00
  8
0
 62
     2
 10
5184.9768958336299
 20
-7476.6135888771569
 30
0.0
 40
561.08709192445895
 50
276.0428187679704
 51
314.1838520233656
  0
ARC
  5
2F01
  8
0
 62
     2
 10
5560.0912121778483
 20
-7821.5035454131257
 30
0.0
 40
44.53420840836241
 50
44.213202131079299
 51
112.03399005674351
  0
ARC
  5
2F02
  8
0
 62
     2
 10
5753.5162081661929
 20
-7626.6195242189488
 30
0.0
 40
413.1513968316479
 50
244.94657157329169
 51
257.73652801051122
  0
ARC
  5
2F03
  8
0
 62
     2
 10
5676.6472518579194
 20
-7702.4500459023657
 30
0.0
 40
313.42932272439998
 50
239.63366677334599
 51
246.8603031235026
  0
ARC
  5
2F04
  8
0
 62
     2
 10
5789.5266899712824
 20
-7494.3311963677988
 30
0.0
 40
550.11564404401372
 50
212.53903632723751
 51
236.22189541054459
  0
ARC
  5
2F05
  8
0
 62
     2
 10
5769.6700105934824
 20
-7510.4801665480918
 30
0.0
 40
549.57126081952072
 50
247.98549615622591
 51
258.85090011815629
  0
ARC
  5
2F06
  8
0
 62
     2
 10
5769.6700105924192
 20
-7510.4801665525947
 30
0.0
 40
549.571260815144
 50
240.0757425639994
 51
244.7687042255119
  0
ARC
  5
2F07
  8
0
 62
     2
 10
5769.6700105925574
 20
-7510.4801665525947
 30
0.0
 40
549.57126081526667
 50
213.53567864183839
 51
235.82269587697311
  0
ARC
  5
2F08
  8
0
 62
     2
 10
5560.8835295471672
 20
-7813.0912864963057
 30
0.0
 40
73.067056766744571
 50
29.324623889430491
 51
133.57209168071091
  0
ARC
  5
2F09
  8
0
 62
     2
 10
5219.3565236553068
 20
-7510.7791823628568
 30
0.0
 40
550.3135681726111
 50
330.07731671065341
 51
334.85934062132509
  0
ARC
  5
2F0A
  8
0
 62
     2
 10
5200.7430299968782
 20
-7505.375667168395
 30
0.0
 40
569.65618264722184
 50
340.22343759034459
 51
357.15193682377748
  0
ARC
  5
2F0B
  8
0
 62
     2
 10
5184.9768958334844
 20
-7476.6135888774379
 30
0.0
 40
561.08709192448998
 50
339.76616967586318
 51
353.98929809055159
  0
ARC
  5
2F0C
  8
0
 62
     2
 10
5184.9768958338409
 20
-7476.6135888774379
 30
0.0
 40
561.08709192418394
 50
330.75511194519441
 51
337.22130432361899
  0
ARC
  5
2F0D
  8
0
 62
     2
 10
5478.6157189571122
 20
-7913.502113867733
 30
0.0
 40
110.49986878199481
 50
200.82229489668731
 51
226.57408766433679
  0
ARC
  5
2F0E
  8
0
 62
     2
 10
5457.864441340922
 20
-7902.8874902584248
 30
0.0
 40
165.38763894514409
 50
203.68763760847889
 51
223.397398479206
  0
ARC
  5
2F0F
  8
0
 62
     2
 10
5200.0870500712062
 20
-8083.3667281480366
 30
0.0
 40
549.57126081506215
 50
13.01441363696267
 51
57.532347073508248
  0
ARC
  5
2F10
  8
0
 62
     2
 10
5220.7047193753406
 20
-8060.6567295454124
 30
0.0
 40
549.5712608150543
 50
11.23459954997452
 51
56.49303255508994
  0
ARC
  5
2F11
  8
0
 62
     2
 10
5761.1900340464072
 20
-7808.4874524358656
 30
0.0
 40
32.965552634831297
 50
113.5577169297633
 51
236.759338413856
  0
ARC
  5
2F12
  8
0
 62
     2
 10
5770.610965169466
 20
-7814.368641281224
 30
0.0
 40
42.588223127325932
 50
90.714968908845364
 51
122.044496004864
  0
ARC
  5
2F13
  8
0
 62
     2
 10
5770.0052008520161
 20
-7814.6411731807711
 30
0.0
 40
22.082106117085011
 50
89.747710773352594
 51
178.17342880305191
  0
ARC
  5
2F14
  8
0
 62
     2
 10
5605.7374871290112
 20
-7793.755056291423
 30
0.0
 40
162.2450707065218
 50
7.7137407915035121
 51
85.840569814806955
  0
ARC
  5
2F15
  8
0
 62
     2
 10
5611.3496898431858
 20
-7795.7957770068324
 30
0.0
 40
137.7841626255418
 50
7.3079525831346306
 51
13.114099821143791
  0
ARC
  5
2F16
  8
0
 62
     2
 10
5611.3496898441608
 20
-7795.7957770065586
 30
0.0
 40
137.7841626245818
 50
331.75410434567652
 51
354.01797824924461
  0
ARC
  5
2F17
  8
0
 62
     2
 10
5493.7820605725656
 20
-8058.2378681231912
 30
0.0
 40
55.531325416455523
 50
54.672249837654661
 51
181.87117161875091
  0
ARC
  5
2F18
  8
0
 62
     2
 10
5508.3620817599603
 20
-8060.3397265633112
 30
0.0
 40
39.399131110444728
 50
102.4663606137282
 51
179.58025482258469
  0
ARC
  5
2F19
  8
0
 62
     2
 10
5478.2173611040653
 20
-7916.4359896429232
 30
0.0
 40
107.6313497172054
 50
247.73161377350249
 51
256.23526734698459
  0
ARC
  5
2F1A
  8
0
 62
     2
 10
5478.2173611042836
 20
-7916.4359896429232
 30
0.0
 40
107.6313497172564
 50
281.59863325163781
 51
302.09362924405212
  0
ARC
  5
2F1B
  8
0
 62
     2
 10
5467.8889149642728
 20
-7899.2239035216189
 30
0.0
 40
154.13002655229789
 50
270.63196205253178
 51
308.4197220210807
  0
ARC
  5
2F1C
  8
0
 62
     2
 10
5448.496041961409
 20
-7795.7388303641328
 30
0.0
 40
258.4678280622835
 50
251.58063574030359
 51
267.76403845016807
  0
POLYLINE
  5
2F1D
  8
0
 62
     4
 66
     1
 10
0.0
 20
0.0
 30
0.0
 70
     1
  0
VERTEX
  5
D9FB
  8
0
 62
     4
 10
5509.8508967552534
 20
-7756.0150258002914
 30
0.0
 42
0.1339520693949373
  0
VERTEX
  5
D9FC
  8
0
 62
     4
 10
5422.4643937667734
 20
-7742.7519873765541
 30
0.0
 42
1.0656577413798669
  0
VERTEX
  5
D9FD
  8
0
 62
     4
 10
5435.8449947914442
 20
-7806.5240414845184
 30
0.0
 42
-0.1094324617638207
  0
VERTEX
  5
D9FE
  8
0
 62
     4
 10
5484.4457377768031
 20
-7804.134795327378
 30
0.0
 42
0.2608618261382946
  0
VERTEX
  5
D9FF
  8
0
 62
     4
 10
5516.9931057849553
 20
-7924.578022393378
 30
0.0
 42
-0.0180943709106417
  0
VERTEX
  5
DA00
  8
0
 62
     4
 10
5483.7333316511922
 20
-7947.4123669155369
 30
0.0
 42
-0.1016304063381045
  0
VERTEX
  5
DA01
  8
0
 62
     4
 10
5329.910149306228
 20
-7790.2108351479492
 30
0.0
 42
-0.1086018354395713
  0
VERTEX
  5
DA02
  8
0
 62
     4
 10
5495.1134486816718
 20
-7623.8488227880734
 30
0.0
 42
-0.1025548905653504
  0
VERTEX
  5
DA03
  8
0
 62
     4
 10
5653.4621809459331
 20
-7778.9849416893294
 30
0.0
 42
-0.0402765710223473
  0
VERTEX
  5
DA04
  8
0
 62
     4
 10
5598.9245426039033
 20
-7850.1831849387536
 30
0.0
 42
0.1269600530168489
  0
VERTEX
  5
DA05
  8
0
 62
     4
 10
5550.5777302749793
 20
-7781.5841280726399
 30
0.0
 42
-0.2591684877964657
  0
VERTEX
  5
DA06
  8
0
 62
     4
 10
5588.9637082201416
 20
-7792.3411519754618
 30
0.0
 42
1.057629927554218
  0
VERTEX
  5
DA07
  8
0
 62
     4
 10
5627.6810002925868
 20
-7775.673014933428
 30
0.0
 42
0.4798917443749033
  0
SEQEND
  5
DA08
  8
0
 62
     4
  0
POLYLINE
  5
2F1E
  8
0
 62
     4
 66
     1
 10
0.0
 20
0.0
 30
0.0
 70
     1
  0
VERTEX
  5
DA09
  8
0
 62
     4
 10
5569.9529132478583
 20
-7956.8925971158933
 30
0.0
 42
-0.076703690782507
  0
VERTEX
  5
DA0A
  8
0
 62
     4
 10
5552.4757798380761
 20
-7986.4211606527952
 30
0.0
 42
-0.0248749343084728
  0
VERTEX
  5
DA0B
  8
0
 62
     4
 10
5524.8870250915079
 20
-7972.6850955313603
 30
0.0
 42
0.0167825600055005
  0
VERTEX
  5
DA0C
  8
0
 62
     4
 10
5555.1806474677451
 20
-7951.1518856446201
 30
0.0
 42
0.0228672766767114
  0
SEQEND
  5
DA0D
  8
0
 62
     4
  0
POLYLINE
  5
2F1F
  8
0
 62
     4
 66
     1
 10
0.0
 20
0.0
 30
0.0
 70
     1
  0
VERTEX
  5
DA0E
  8
0
 62
     4
 10
5574.4955451673541
 20
-7878.8258716245737
 30
0.0
 42
-0.0169858978494133
  0
VERTEX
  5
DA0F
  8
0
 62
     4
 10
5546.2928856181634
 20
-7904.3404340677471
 30
0.0
 42
-0.2232486015910541
  0
VERTEX
  5
DA10
  8
0
 62
     4
 10
5517.5267388669326
 20
-7812.6592281542189
 30
0.0
 42
-0.1975349394637591
  0
SEQEND
  5
DA11
  8
0
 62
     4
  0
POLYLINE
  5
2F20
  8
0
 62
     4
 66
     1
 10
0.0
 20
0.0
 30
0.0
 70
     1
  0
VERTEX
  5
DA12
  8
0
 62
     4
 10
5608.5546461179974
 20
-7929.708281143945
 30
0.0
 42
0.2169269550010049
  0
VERTEX
  5
DA13
  8
0
 62
     4
 10
5709.7181601035718
 20
-7887.2203213240618
 30
0.0
 42
0.0338313139175562
  0
VERTEX
  5
DA14
  8
0
 62
     4
 10
5678.6098113355056
 20
-7820.2826196377291
 30
0.0
 42
-0.0489599066599584
  0
VERTEX
  5
DA15
  8
0
 62
     4
 10
5609.6660826878697
 20
-7903.6715442865307
 30
0.0
 42
-0.0388573621718134
  0
SEQEND
  5
DA16
  8
0
 62
     4
  0
POLYLINE
  5
2F21
  8
0
 62
     4
 66
     1
 10
0.0
 20
0.0
 30
0.0
 70
     1
  0
VERTEX
  5
DA17
  8
0
 62
     4
 10
5331.2688091839418
 20
-8014.6708102360144
 30
0.0
 42
-0.0383497111059832
  0
VERTEX
  5
DA18
  8
0
 62
     4
 10
5247.3785646491833
 20
-8030.7010631058456
 30
0.0
 42
-0.1015655836837758
  0
VERTEX
  5
DA19
  8
0
 62
     4
 10
5311.8636654061684
 20
-7820.7988192100602
 30
0.0
 42
0.0923542302235811
  0
VERTEX
  5
DA1A
  8
0
 62
     4
 10
5454.3205290832648
 20
-7964.8357766113841
 30
0.0
 42
-0.0254005978520546
  0
VERTEX
  5
DA1B
  8
0
 62
     4
 10
5403.4234660707534
 20
-7989.632100550697
 30
0.0
 42
-0.1067361803487453
  0
VERTEX
  5
DA1C
  8
0
 62
     4
 10
5378.7098694420911
 20
-7951.8227479851421
 30
0.0
 42
1.051485926414151
  0
VERTEX
  5
DA1D
  8
0
 62
     4
 10
5303.1215263928407
 20
-7970.5380259534286
 30
0.0
 42
0.0779569265109231
  0
SEQEND
  5
DA1E
  8
0
 62
     4
  0
POLYLINE
  5
2F22
  8
0
 62
     4
 66
     1
 10
0.0
 20
0.0
 30
0.0
 70
     1
  0
VERTEX
  5
DA1F
  8
0
 62
     4
 10
5728.854318408552
 20
-7966.555778392174
 30
0.0
 42
0.6569286857277628
  0
VERTEX
  5
DA20
  8
0
 62
     4
 10
5697.0821482957517
 20
-7987.0439842348796
 30
0.0
 42
0.6626498832265823
  0
VERTEX
  5
DA21
  8
0
 62
     4
 10
5676.6495861829617
 20
-8019.5690046169011
 30
0.0
 42
0.156464338892585
  0
VERTEX
  5
DA22
  8
0
 62
     4
 10
5664.4414471664877
 20
-8026.4726835205502
 30
0.0
 42
-0.052109425001284
  0
VERTEX
  5
DA23
  8
0
 62
     4
 10
5583.697369530315
 20
-7999.417625199867
 30
0.0
 42
0.0628295092184122
  0
VERTEX
  5
DA24
  8
0
 62
     4
 10
5601.5725306275144
 20
-7961.3720762889043
 30
0.0
 42
0.2148713580247647
  0
VERTEX
  5
DA25
  8
0
 62
     4
 10
5721.1751195318957
 20
-7920.0740305644349
 30
0.0
 42
-0.0184489941186091
  0
VERTEX
  5
DA26
  8
0
 62
     4
 10
5731.7952486792301
 20
-7958.9333212337824
 30
0.0
 42
0.0906513738531041
  0
SEQEND
  5
DA27
  8
0
 62
     4
  0
POLYLINE
  5
2F23
  8
0
 62
     4
 66
     1
 10
0.0
 20
0.0
 30
0.0
  0
VERTEX
  5
DA28
  8
0
 62
     4
 10
5618.3287397375843
 20
-7666.1035247795826
 30
0.0
 42
-1.0039377703535859
  0
VERTEX
  5
DA29
  8
0
 62
     4
 10
5617.5966260552941
 20
-7628.4379691122413
 30
0.0
 42
-0.1530772488076445
  0
VERTEX
  5
DA2A
  8
0
 62
     4
 10
5709.8524143578161
 20
-7664.7959138230808
 30
0.0
 42
0.0579894727622426
  0
VERTEX
  5
DA2B
  8
0
 62
     4
 10
5739.0390537723852
 20
-7539.2396418283943
 30
0.0
 42
0.1006668575683105
  0
VERTEX
  5
DA2C
  8
0
 62
     4
 10
5530.8176117123721
 20
-7602.7109796075683
 30
0.0
 42
-0.0917965816242507
  0
VERTEX
  5
DA2D
  8
0
 62
     4
 10
5674.2195063801792
 20
-7744.099224741406
 30
0.0
 42
0.024804750303255
  0
VERTEX
  5
DA2E
  8
0
 62
     4
 10
5698.3050347394901
 20
-7694.3315697045546
 30
0.0
 42
0.2958571002101111
  0
VERTEX
  5
DA2F
  8
0
 62
     4
 10
5619.1903131264244
 20
-7665.9683632285569
 30
0.0
 42
0.2958571002101111
  0
SEQEND
  5
DA30
  8
0
 62
     4
  0
POLYLINE
  5
2F24
  8
0
 62
     4
 66
     1
 10
0.0
 20
0.0
 30
0.0
 70
     1
  0
VERTEX
  5
DA31
  8
0
 62
     4
 10
5446.8155805107863
 20
-8015.7230776490123
 30
0.0
 42
0.0116437780110252
  0
VERTEX
  5
DA32
  8
0
 62
     4
 10
5451.4720571102389
 20
-8017.0773647499782
 30
0.0
 42
-0.0543294798070411
  0
VERTEX
  5
DA33
  8
0
 62
     4
 10
5461.3313691262974
 20
-8008.929896601564
 30
0.0
 42
-0.0072351244911604
  0
SEQEND
  5
DA34
  8
0
 62
     4
  0
POLYLINE
  5
2F25
  8
0
 62
     4
 66
     1
 10
0.0
 20
0.0
 30
0.0
 70
     1
  0
VERTEX
  5
DA35
  8
0
 62
     4
 10
5473.6931794188285
 20
-8002.7332711522185
 30
0.0
 42
-0.2361962615921199
  0
VERTEX
  5
DA36
  8
0
 62
     4
 10
5526.156403100189
 20
-8008.8797342765338
 30
0.0
 42
0.0048699371292405
  0
VERTEX
  5
DA37
  8
0
 62
     4
 10
5527.9479608214879
 20
-8007.9284216856386
 30
0.0
 42
-0.0165773857056445
  0
VERTEX
  5
DA38
  8
0
 62
     4
 10
5495.5207048553621
 20
-7990.8201232955489
 30
0.0
 42
-0.0112267931427605
  0
SEQEND
  5
DA39
  8
0
 62
     4
  0
ARC
  5
2F26
  8
0
 62
     2
 10
5770.9093200664602
 20
-7814.3697091260919
 30
0.0
 40
42.588223127325932
 50
90.588687243237302
 51
90.852539955552658
  0
ARC
  5
2F27
  8
0
 62
     2
 10
5770.3029565520928
 20
-7814.6409052415293
 30
0.0
 40
22.082106117085011
 50
89.62142910738082
 51
90.070860643535525
  0
POLYLINE
  5
2F28
  8
0
 62
     2
 66
     1
 10
0.0
 20
0.0
 30
0.0
  0
VERTEX
  5
DA3A
  8
0
 62
     2
 10
5770.2756464799122
 20
-8060.0510936573091
 30
0.0
  0
VERTEX
  5
DA3B
  8
0
 62
     2
 10
5770.2756464803633
 20
-8060.0510936568571
 30
0.0
  0
SEQEND
  5
DA3C
  8
0
 62
     2
  0
POLYLINE
  5
2F29
  8
0
 66
     1
 10
0.0
 20
0.0
 30
0.0
  0
VERTEX
  5
DA3D
  8
0
 10
5770.2756464801587
 20
-8060.051093657662
 30
0.0
  0
VERTEX
  5
DA3E
  8
0
 10
5770.2756464801587
 20
-8060.0510936567116
 30
0.0
  0
SEQEND
  5
DA3F
  8
0
  0
POLYLINE
  5
2F2A
  8
0
 66
     1
 10
0.0
 20
0.0
 30
0.0
  0
VERTEX
  5
DA40
  8
0
 10
5673.9120198579749
 20
-8060.0510936571327
 30
0.0
  0
VERTEX
  5
DA41
  8
0
 10
5770.275646479733
 20
-8060.0510936571327
 30
0.0
  0
VERTEX
  5
DA42
  8
0
 10
5770.2756464803633
 20
-7968.6639086456271
 30
0.0
  0
SEQEND
  5
DA43
  8
0
  0
ARC
  5
2F2B
  8
0
 62
     2
 10
5770.9093200688667
 20
-7814.3697091260919
 30
0.0
 40
42.588223127325932
 50
90.588687243237302
 51
90.852539955552658
  0
ARC
  5
2F2C
  8
0
 62
     2
 10
5770.3029565545021
 20
-7814.6409052415293
 30
0.0
 40
22.082106117085011
 50
89.62142910738082
 51
90.070860643535525
  0
POLYLINE
  5
2F2D
  8
0
 62
     4
 66
     1
 10
0.0
 20
0.0
 30
0.0
 70
     1
  0
VERTEX
  5
DA44
  8
0
 62
     4
 10
5770.2756464816111
 20
-7768.2905042442117
 30
0.0
 42
-0.0043669236864427
  0
VERTEX
  5
DA45
  8
0
 62
     4
 10
5771.038327696032
 20
-7768.2997768756259
 30
0.0
 42
-0.1167671199668227
  0
VERTEX
  5
DA46
  8
0
 62
     4
 10
5799.838912564579
 20
-7697.566924610036
 30
0.0
 42
-0.0574357184245795
  0
VERTEX
  5
DA47
  8
0
 62
     4
 10
5770.2756464815629
 20
-7569.6950077386527
 30
0.0
 42
-0.0574357184245794
  0
VERTEX
  5
DA48
  8
0
 62
     4
 10
5740.7123803985469
 20
-7697.5669246100351
 30
0.0
 42
-0.1167671199668226
  0
VERTEX
  5
DA49
  8
0
 62
     4
 10
5769.512965267093
 20
-7768.2997768756286
 30
0.0
 42
-0.0043669236869081
  0
SEQEND
  5
DA4A
  8
0
 62
     4
  0
POLYLINE
  5
2F2E
  8
0
 62
     4
 66
     1
 10
0.0
 20
0.0
 30
0.0
 70
     1
  0
VERTEX
  5
DA4B
  8
0
 62
     4
 10
5828.5120877188838
 20
-7763.7015720240324
 30
0.0
 42
0.0110834007562031
  0
VERTEX
  5
DA4C
  8
0
 62
     4
 10
5840.2049743080506
 20
-7785.2874282059911
 30
0.0
 42
0.0338212112134039
  0
VERTEX
  5
DA4D
  8
0
 62
     4
 10
5807.4584505437324
 20
-7852.4675673799138
 30
0.0
 42
-0.0301098897916354
  0
VERTEX
  5
DA4E
  8
0
 62
     4
 10
5801.5328464504137
 20
-7837.4344080334704
 30
0.0
 42
0.5473884928266002
  0
VERTEX
  5
DA4F
  8
0
 62
     4
 10
5796.3482198356851
 20
-7776.223715967948
 30
0.0
 42
-0.0029261692965294
  0
VERTEX
  5
DA50
  8
0
 62
     4
 10
5796.5863988731817
 20
-7774.6700906046217
 30
0.0
 42
0.6303486807395047
  0
SEQEND
  5
DA51
  8
0
 62
     4
  0
ARC
  5
2F2F
  8
0
 62
     2
 10
5859.2450665733431
 20
-8042.0495738037234
 30
0.0
 40
19.460961108528871
 50
292.33063127862289
 51
103.96613188058279
  0
ARC
  5
2F30
  8
0
 62
     2
 10
5846.8027845013812
 20
-8007.6302425011108
 30
0.0
 40
17.357595868198139
 50
296.50181045248002
 51
122.42276408199361
  0
ARC
  5
2F31
  8
0
 62
     2
 10
5823.1509148764044
 20
-7983.6730481273589
 30
0.0
 40
17.09912998594514
 50
327.02982363173032
 51
154.4069608211
  0
ARC
  5
2F32
  8
0
 62
     2
 10
5789.377905635507
 20
-7970.7884507262324
 30
0.0
 40
19.220041201589101
 50
344.37608974825127
 51
173.653678694391
  0
POLYLINE
  5
2F33
  8
0
 62
     2
 66
     1
 10
0.0
 20
0.0
 30
0.0
  0
VERTEX
  5
DA52
  8
0
 62
     2
 10
5837.4962975218232
 20
-7992.9784359769301
 30
0.0
  0
VERTEX
  5
DA53
  8
0
 62
     2
 10
5770.2756464833901
 20
-8060.0510936571354
 30
0.0
  0
SEQEND
  5
DA54
  8
0
 62
     2
  0
POLYLINE
  5
2F34
  8
0
 62
     2
 66
     1
 10
0.0
 20
0.0
 30
0.0
  0
VERTEX
  5
DA55
  8
0
 62
     2
 10
5770.2756464827644
 20
-8060.0510936574065
 30
0.0
  0
VERTEX
  5
DA56
  8
0
 62
     2
 10
5854.5481966603629
 20
-8023.163906744292
 30
0.0
  0
SEQEND
  5
DA57
  8
0
 62
     2
  0
POLYLINE
  5
2F35
  8
0
 62
     2
 66
     1
 10
0.0
 20
0.0
 30
0.0
  0
VERTEX
  5
DA58
  8
0
 62
     2
 10
5807.7294657979164
 20
-7976.2866312289771
 30
0.0
  0
VERTEX
  5
DA59
  8
0
 62
     2
 10
5770.2756464829681
 20
-8060.051093657552
 30
0.0
  0
SEQEND
  5
DA5A
  8
0
 62
     2
  0
ARC
  5
2F36
  8
0
 62
     2
 10
5749.5931296578356
 20
-8082.8403107841541
 30
0.0
 40
549.57126081517822
 50
2.3765807083924559
 51
87.782706932132456
  0
ARC
  5
2F37
  8
0
 62
     2
 10
6200.1055864340251
 20
-7959.2821586693526
 30
0.0
 40
35.487638364404418
 50
343.54913794971623
 51
169.44503443084719
  0
ARC
  5
2F38
  8
0
 62
     2
 10
6075.0130254582637
 20
-7915.0288754468138
 30
0.0
 40
115.9912298941338
 50
74.692322567034594
 51
232.9635999090994
  0
ARC
  5
2F39
  8
0
 62
     2
 10
6098.7028235581329
 20
-7909.5499632257506
 30
0.0
 40
164.42370562635841
 50
83.388415767526837
 51
222.19288997860889
  0
ARC
  5
2F3A
  8
0
 62
     2
 10
6113.425668424682
 20
-7775.0637522091611
 30
0.0
 40
29.149411031872301
 50
254.4982645140546
 51
81.698665003757483
  0
ARC
  5
2F3B
  8
0
 62
     2
 10
5922.6626237846303
 20
-7647.2721855666596
 30
0.0
 40
15.339647994021581
 50
268.66129556494832
 51
88.568462040028223
  0
ARC
  5
2F3C
  8
0
 62
     2
 10
5903.6727364024364
 20
-7741.1504438369902
 30
0.0
 40
80.731664056282241
 50
76.624558692228874
 51
192.08905028456749
  0
ARC
  5
2F3D
  8
0
 62
     2
 10
5809.9275620183917
 20
-7761.5549940133442
 30
0.0
 40
15.21125108503856
 50
191.2931346932568
 51
13.29007827894484
  0
ARC
  5
2F3E
  8
0
 62
     2
 10
5931.7617324161638
 20
-7785.0923254561094
 30
0.0
 40
17.612641794419989
 50
153.7634800094242
 51
342.29541477888728
  0
ARC
  5
2F3F
  8
0
 62
     2
 10
5928.0764388822081
 20
-7797.3635026104967
 30
0.0
 40
135.89965892114489
 50
221.82005338357251
 51
273.32764510535861
  0
ARC
  5
2F40
  8
0
 62
     2
 10
5925.0087593188382
 20
-7807.9918064064732
 30
0.0
 40
150.51832312854449
 50
224.5633007537231
 51
276.27452826003491
  0
ARC
  5
2F41
  8
0
 62
     2
 10
5927.8910706317929
 20
-7803.5402920584211
 30
0.0
 40
155.69975356355769
 50
175.99004531219441
 51
213.3034465894689
  0
ARC
  5
2F42
  8
0
 62
     2
 10
5915.256124956034
 20
-7792.6066365460538
 30
0.0
 40
169.86014598860299
 50
287.38839892579489
 51
294.55333851147827
  0
ARC
  5
2F43
  8
0
 62
     2
 10
5932.258447608926
 20
-7835.286847289939
 30
0.0
 40
124.20812585451731
 50
313.79003827009439
 51
15.68040444592784
  0
ARC
  5
2F44
  8
0
 62
     2
 10
5911.0912389005853
 20
-7827.8921995484307
 30
0.0
 40
114.14191770625909
 50
316.8443659507293
 51
8.3807455538097155
  0
ARC
  5
2F45
  8
0
 62
     2
 10
5959.6132868215154
 20
-7924.4882252374518
 30
0.0
 40
9.5273244810468078
 50
275.8127922926177
 51
314.14628563186483
  0
ARC
  5
2F46
  8
0
 62
     2
 10
6321.1947693097918
 20
-7510.7791823620128
 30
0.0
 40
550.31356817489495
 50
213.38233868711799
 51
225.3487829662902
  0
ARC
  5
2F47
  8
0
 62
     2
 10
6321.1947693100028
 20
-7510.7791823617372
 30
0.0
 40
550.31356817515666
 50
228.90913901340801
 51
266.47415357969049
  0
ARC
  5
2F48
  8
0
 62
     2
 10
6355.574397129074
 20
-7476.6135888777289
 30
0.0
 40
561.08709192388994
 50
212.60439708967391
 51
222.5854906199109
  0
ARC
  5
2F49
  8
0
 62
     2
 10
6355.574397129496
 20
-7476.6135888771569
 30
0.0
 40
561.08709192445895
 50
225.8161479766344
 51
263.95718123223691
  0
ARC
  5
2F4A
  8
0
 62
     2
 10
5980.4600807852776
 20
-7821.5035454131257
 30
0.0
 40
44.53420840836241
 50
67.966009943081843
 51
135.78679786892059
  0
ARC
  5
2F4B
  8
0
 62
     2
 10
5787.035084796933
 20
-7626.6195242189488
 30
0.0
 40
413.1513968316479
 50
282.26347198948872
 51
295.05342842649827
  0
ARC
  5
2F4C
  8
0
 62
     2
 10
5863.9040411052074
 20
-7702.4500459023657
 30
0.0
 40
313.42932272439998
 50
293.13969687644902
 51
300.36633322665398
  0
ARC
  5
2F4D
  8
0
 62
     2
 10
5751.0246029918444
 20
-7494.3311963677988
 30
0.0
 40
550.11564404401372
 50
303.77810458924591
 51
327.4609636727626
  0
ARC
  5
2F4E
  8
0
 62
     2
 10
5770.8812823696453
 20
-7510.4801665480918
 30
0.0
 40
549.57126081952072
 50
281.1490998818436
 51
292.01450384354217
  0
ARC
  5
2F4F
  8
0
 62
     2
 10
5770.8812823707067
 20
-7510.4801665525947
 30
0.0
 40
549.571260815144
 50
295.231295774692
 51
299.92425743580873
  0
ARC
  5
2F50
  8
0
 62
     2
 10
5770.8812823705684
 20
-7510.4801665525947
 30
0.0
 40
549.57126081526667
 50
304.17730412302677
 51
326.46432135842753
  0
ARC
  5
2F51
  8
0
 62
     2
 10
5979.6677634159578
 20
-7813.0912864963057
 30
0.0
 40
73.067056766744571
 50
46.427908318995179
 51
150.67537611056949
  0
ARC
  5
2F52
  8
0
 62
     2
 10
6321.19476930782
 20
-7510.7791823628568
 30
0.0
 40
550.3135681726111
 50
205.14065937867491
 51
209.92268328934659
  0
ARC
  5
2F53
  8
0
 62
     2
 10
6339.8082629662467
 20
-7505.375667168395
 30
0.0
 40
569.65618264722184
 50
182.84806317622241
 51
199.77656240965541
  0
ARC
  5
2F54
  8
0
 62
     2
 10
6355.5743971296406
 20
-7476.6135888774379
 30
0.0
 40
561.08709192448998
 50
186.0107019094483
 51
200.23383032413679
  0
ARC
  5
2F55
  8
0
 62
     2
 10
6355.5743971292841
 20
-7476.6135888774379
 30
0.0
 40
561.08709192418394
 50
202.77869567638089
 51
209.24488805480561
  0
ARC
  5
2F56
  8
0
 62
     2
 10
6061.9355740060137
 20
-7913.502113867733
 30
0.0
 40
110.49986878199481
 50
313.42591233581419
 51
339.17770510331269
  0
ARC
  5
2F57
  8
0
 62
     2
 10
6082.6868516222039
 20
-7902.8874902584248
 30
0.0
 40
165.38763894514409
 50
316.60260152079411
 51
336.31236239152111
  0
ARC
  5
2F58
  8
0
 62
     2
 10
6340.4642428919187
 20
-8083.3667281480366
 30
0.0
 40
549.57126081506215
 50
122.4676529264917
 51
166.9855863630373
  0
ARC
  5
2F59
  8
0
 62
     2
 10
6319.8465735877853
 20
-8060.6567295454124
 30
0.0
 40
549.5712608150543
 50
123.50696744491
 51
168.76540045002551
  0
ARC
  5
2F5A
  8
0
 62
     2
 10
5779.3612589167178
 20
-7808.4874524358656
 30
0.0
 40
32.965552634831297
 50
303.24066158592251
 51
66.442283070440382
  0
ARC
  5
2F5B
  8
0
 62
     2
 10
5769.940327793659
 20
-7814.368641281224
 30
0.0
 40
42.588223127325932
 50
57.955503995328918
 51
89.285031090946205
  0
ARC
  5
2F5C
  8
0
 62
     2
 10
5770.5460921111098
 20
-7814.6411731807711
 30
0.0
 40
22.082106117085011
 50
1.8265711969480649
 51
90.252289226438947
  0
ARC
  5
2F5D
  8
0
 62
     2
 10
5934.8138058341146
 20
-7793.755056291423
 30
0.0
 40
162.2450707065218
 50
94.159430184985155
 51
172.28625920849649
  0
ARC
  5
2F5E
  8
0
 62
     2
 10
5929.20160311994
 20
-7795.7957770068324
 30
0.0
 40
137.7841626255418
 50
166.88590017885619
 51
172.69204741686531
  0
ARC
  5
2F5F
  8
0
 62
     2
 10
5929.2016031189651
 20
-7795.7957770065586
 30
0.0
 40
137.7841626245818
 50
185.98202175075551
 51
208.24589565432339
  0
ARC
  5
2F60
  8
0
 62
     2
 10
6046.7692323905594
 20
-8058.2378681231912
 30
0.0
 40
55.531325416455523
 50
358.12882838124909
 51
125.3277501623453
  0
ARC
  5
2F61
  8
0
 62
     2
 10
6032.1892112031646
 20
-8060.3397265633112
 30
0.0
 40
39.399131110444728
 50
0.4197451774152781
 51
77.533639386068231
  0
ARC
  5
2F62
  8
0
 62
     2
 10
6062.3339318590606
 20
-7916.4359896429232
 30
0.0
 40
107.6313497172054
 50
283.76473265298989
 51
292.2683862264675
  0
ARC
  5
2F63
  8
0
 62
     2
 10
6062.3339318588423
 20
-7916.4359896429232
 30
0.0
 40
107.6313497172564
 50
237.9063707559479
 51
258.40136674836208
  0
ARC
  5
2F64
  8
0
 62
     2
 10
6072.6623779988522
 20
-7899.2239035216189
 30
0.0
 40
154.13002655229789
 50
231.58027797861121
 51
269.36803794725978
  0
ARC
  5
2F65
  8
0
 62
     2
 10
6092.0552510017169
 20
-7795.7388303641328
 30
0.0
 40
258.4678280622835
 50
272.23596154962348
 51
288.41936425969641
  0
POLYLINE
  5
2F66
  8
0
 62
     4
 66
     1
 10
0.0
 20
0.0
 30
0.0
 70
     1
  0
VERTEX
  5
DA5B
  8
0
 62
     4
 10
6030.7003962078734
 20
-7756.0150258002914
 30
0.0
 42
-0.1339520693949373
  0
VERTEX
  5
DA5C
  8
0
 62
     4
 10
6118.0868991963516
 20
-7742.7519873765541
 30
0.0
 42
-1.0656577413798669
  0
VERTEX
  5
DA5D
  8
0
 62
     4
 10
6104.7062981716826
 20
-7806.5240414845184
 30
0.0
 42
0.1094324617638207
  0
VERTEX
  5
DA5E
  8
0
 62
     4
 10
6056.1055551863228
 20
-7804.134795327378
 30
0.0
 42
-0.2608618261382946
  0
VERTEX
  5
DA5F
  8
0
 62
     4
 10
6023.5581871781706
 20
-7924.578022393378
 30
0.0
 42
0.0180943709106417
  0
VERTEX
  5
DA60
  8
0
 62
     4
 10
6056.8179613119337
 20
-7947.4123669155369
 30
0.0
 42
0.1016304063381045
  0
VERTEX
  5
DA61
  8
0
 62
     4
 10
6210.6411436568978
 20
-7790.2108351479492
 30
0.0
 42
0.1086018354395713
  0
VERTEX
  5
DA62
  8
0
 62
     4
 10
6045.437844281455
 20
-7623.8488227880734
 30
0.0
 42
0.1025548905653504
  0
VERTEX
  5
DA63
  8
0
 62
     4
 10
5887.0891120171927
 20
-7778.9849416893294
 30
0.0
 42
0.0402765710223473
  0
VERTEX
  5
DA64
  8
0
 62
     4
 10
5941.6267503592226
 20
-7850.1831849387536
 30
0.0
 42
-0.1269600530168489
  0
VERTEX
  5
DA65
  8
0
 62
     4
 10
5989.9735626881456
 20
-7781.5841280726399
 30
0.0
 42
0.2591684877964657
  0
VERTEX
  5
DA66
  8
0
 62
     4
 10
5951.5875847429834
 20
-7792.3411519754618
 30
0.0
 42
-1.057629927554218
  0
VERTEX
  5
DA67
  8
0
 62
     4
 10
5912.87029267054
 20
-7775.673014933428
 30
0.0
 42
-0.4798917443749033
  0
SEQEND
  5
DA68
  8
0
 62
     4
  0
POLYLINE
  5
2F67
  8
0
 62
     4
 66
     1
 10
0.0
 20
0.0
 30
0.0
 70
     1
  0
VERTEX
  5
DA69
  8
0
 62
     4
 10
5970.5983797152667
 20
-7956.8925971158933
 30
0.0
 42
0.076703690782507
  0
VERTEX
  5
DA6A
  8
0
 62
     4
 10
5988.0755131250498
 20
-7986.4211606527952
 30
0.0
 42
0.0248749343084728
  0
VERTEX
  5
DA6B
  8
0
 62
     4
 10
6015.664267871618
 20
-7972.6850955313603
 30
0.0
 42
-0.0167825600055005
  0
VERTEX
  5
DA6C
  8
0
 62
     4
 10
5985.3706454953808
 20
-7951.1518856446201
 30
0.0
 42
-0.0228672766767114
  0
SEQEND
  5
DA6D
  8
0
 62
     4
  0
POLYLINE
  5
2F68
  8
0
 62
     4
 66
     1
 10
0.0
 20
0.0
 30
0.0
 70
     1
  0
VERTEX
  5
DA6E
  8
0
 62
     4
 10
5966.0557477957709
 20
-7878.8258716245737
 30
0.0
 42
0.0169858978494133
  0
VERTEX
  5
DA6F
  8
0
 62
     4
 10
5994.2584073449643
 20
-7904.3404340677471
 30
0.0
 42
0.2232486015910541
  0
VERTEX
  5
DA70
  8
0
 62
     4
 10
6023.0245540961932
 20
-7812.6592281542189
 30
0.0
 42
0.1975349394637591
  0
SEQEND
  5
DA71
  8
0
 62
     4
  0
POLYLINE
  5
2F69
  8
0
 62
     4
 66
     1
 10
0.0
 20
0.0
 30
0.0
 70
     1
  0
VERTEX
  5
DA72
  8
0
 62
     4
 10
5931.9966468451303
 20
-7929.708281143945
 30
0.0
 42
-0.2169269550010049
  0
VERTEX
  5
DA73
  8
0
 62
     4
 10
5830.8331328595541
 20
-7887.2203213240618
 30
0.0
 42
-0.0338313139175562
  0
VERTEX
  5
DA74
  8
0
 62
     4
 10
5861.9414816276212
 20
-7820.2826196377291
 30
0.0
 42
0.0489599066599584
  0
VERTEX
  5
DA75
  8
0
 62
     4
 10
5930.8852102752553
 20
-7903.6715442865307
 30
0.0
 42
0.0388573621718134
  0
SEQEND
  5
DA76
  8
0
 62
     4
  0
POLYLINE
  5
2F6A
  8
0
 62
     4
 66
     1
 10
0.0
 20
0.0
 30
0.0
 70
     1
  0
VERTEX
  5
DA77
  8
0
 62
     4
 10
6209.2824837791832
 20
-8014.6708102360144
 30
0.0
 42
0.0383497111059832
  0
VERTEX
  5
DA78
  8
0
 62
     4
 10
6293.1727283139426
 20
-8030.7010631058456
 30
0.0
 42
0.1015655836837758
  0
VERTEX
  5
DA79
  8
0
 62
     4
 10
6228.6876275569584
 20
-7820.7988192100602
 30
0.0
 42
-0.0923542302235811
  0
VERTEX
  5
DA7A
  8
0
 62
     4
 10
6086.2307638798611
 20
-7964.8357766113841
 30
0.0
 42
0.0254005978520546
  0
VERTEX
  5
DA7B
  8
0
 62
     4
 10
6137.1278268923716
 20
-7989.632100550697
 30
0.0
 42
0.1067361803487453
  0
VERTEX
  5
DA7C
  8
0
 62
     4
 10
6161.8414235210348
 20
-7951.8227479851421
 30
0.0
 42
-1.051485926414151
  0
VERTEX
  5
DA7D
  8
0
 62
     4
 10
6237.4297665702861
 20
-7970.5380259534286
 30
0.0
 42
-0.0779569265109231
  0
SEQEND
  5
DA7E
  8
0
 62
     4
  0
POLYLINE
  5
2F6B
  8
0
 62
     4
 66
     1
 10
0.0
 20
0.0
 30
0.0
 70
     1
  0
VERTEX
  5
DA7F
  8
0
 62
     4
 10
5811.6969745545739
 20
-7966.555778392174
 30
0.0
 42
-0.6569286857277628
  0
VERTEX
  5
DA80
  8
0
 62
     4
 10
5843.4691446673733
 20
-7987.0439842348796
 30
0.0
 42
-0.6626498832265823
  0
VERTEX
  5
DA81
  8
0
 62
     4
 10
5863.9017067801633
 20
-8019.5690046169011
 30
0.0
 42
-0.156464338892585
  0
VERTEX
  5
DA82
  8
0
 62
     4
 10
5876.1098457966382
 20
-8026.4726835205502
 30
0.0
 42
0.052109425001284
  0
VERTEX
  5
DA83
  8
0
 62
     4
 10
5956.8539234328109
 20
-7999.417625199867
 30
0.0
 42
-0.0628295092184122
  0
VERTEX
  5
DA84
  8
0
 62
     4
 10
5938.9787623356124
 20
-7961.3720762889043
 30
0.0
 42
-0.2148713580247647
  0
VERTEX
  5
DA85
  8
0
 62
     4
 10
5819.3761734312302
 20
-7920.0740305644349
 30
0.0
 42
0.0184489941186091
  0
VERTEX
  5
DA86
  8
0
 62
     4
 10
5808.7560442838967
 20
-7958.9333212337824
 30
0.0
 42
-0.0906513738531041
  0
SEQEND
  5
DA87
  8
0
 62
     4
  0
POLYLINE
  5
2F6C
  8
0
 62
     4
 66
     1
 10
0.0
 20
0.0
 30
0.0
  0
VERTEX
  5
DA88
  8
0
 62
     4
 10
5922.2225532255407
 20
-7666.1035247795826
 30
0.0
 42
1.0039377703535859
  0
VERTEX
  5
DA89
  8
0
 62
     4
 10
5922.9546669078309
 20
-7628.4379691122413
 30
0.0
 42
0.1530772488076445
  0
VERTEX
  5
DA8A
  8
0
 62
     4
 10
5830.6988786053098
 20
-7664.7959138230808
 30
0.0
 42
-0.0579894727622426
  0
VERTEX
  5
DA8B
  8
0
 62
     4
 10
5801.5122391907407
 20
-7539.2396418283943
 30
0.0
 42
-0.1006668575683105
  0
VERTEX
  5
DA8C
  8
0
 62
     4
 10
6009.7336812507547
 20
-7602.7109796075683
 30
0.0
 42
0.0917965816242507
  0
VERTEX
  5
DA8D
  8
0
 62
     4
 10
5866.3317865829458
 20
-7744.099224741406
 30
0.0
 42
-0.024804750303255
  0
VERTEX
  5
DA8E
  8
0
 62
     4
 10
5842.2462582236349
 20
-7694.3315697045546
 30
0.0
 42
-0.2958571002101111
  0
VERTEX
  5
DA8F
  8
0
 62
     4
 10
5921.3609798367024
 20
-7665.9683632285569
 30
0.0
 42
-0.2958571002101111
  0
SEQEND
  5
DA90
  8
0
 62
     4
  0
POLYLINE
  5
2F6D
  8
0
 62
     4
 66
     1
 10
0.0
 20
0.0
 30
0.0
 70
     1
  0
VERTEX
  5
DA91
  8
0
 62
     4
 10
6093.7357124523387
 20
-8015.7230776490123
 30
0.0
 42
-0.0116437780110252
  0
VERTEX
  5
DA92
  8
0
 62
     4
 10
6089.079235852887
 20
-8017.0773647499782
 30
0.0
 42
0.0543294798070411
  0
VERTEX
  5
DA93
  8
0
 62
     4
 10
6079.2199238368275
 20
-8008.929896601564
 30
0.0
 42
0.0072351244911604
  0
SEQEND
  5
DA94
  8
0
 62
     4
  0
POLYLINE
  5
2F6E
  8
0
 62
     4
 66
     1
 10
0.0
 20
0.0
 30
0.0
 70
     1
  0
VERTEX
  5
DA95
  8
0
 62
     4
 10
6066.8581135442964
 20
-8002.7332711522185
 30
0.0
 42
0.2361962615921199
  0
VERTEX
  5
DA96
  8
0
 62
     4
 10
6014.3948898629369
 20
-8008.8797342765338
 30
0.0
 42
-0.0048699371292405
  0
VERTEX
  5
DA97
  8
0
 62
     4
 10
6012.603332141638
 20
-8007.9284216856386
 30
0.0
 42
0.0165773857056445
  0
VERTEX
  5
DA98
  8
0
 62
     4
 10
6045.0305881077629
 20
-7990.8201232955489
 30
0.0
 42
0.0112267931427605
  0
SEQEND
  5
DA99
  8
0
 62
     4
  0
ARC
  5
2F6F
  8
0
 62
     2
 10
5769.6419728966666
 20
-7814.3697091260919
 30
0.0
 40
42.588223127325932
 50
89.147460044447357
 51
89.411312756762683
  0
ARC
  5
2F70
  8
0
 62
     2
 10
5770.2483364110321
 20
-7814.6409052415293
 30
0.0
 40
22.082106117085011
 50
89.929139356464475
 51
90.378570892619194
  0
POLYLINE
  5
2F71
  8
0
 62
     2
 66
     1
 10
0.0
 20
0.0
 30
0.0
  0
VERTEX
  5
DA9A
  8
0
 62
     2
 10
5770.2756464832146
 20
-8060.0510936573091
 30
0.0
  0
VERTEX
  5
DA9B
  8
0
 62
     2
 10
5770.2756464827644
 20
-8060.0510936568571
 30
0.0
  0
SEQEND
  5
DA9C
  8
0
 62
     2
  0
POLYLINE
  5
2F72
  8
0
 66
     1
 10
0.0
 20
0.0
 30
0.0
  0
VERTEX
  5
DA9D
  8
0
 10
5770.2756464829681
 20
-8060.051093657662
 30
0.0
  0
VERTEX
  5
DA9E
  8
0
 10
5770.2756464829681
 20
-8060.0510936567116
 30
0.0
  0
SEQEND
  5
DA9F
  8
0
  0
POLYLINE
  5
2F73
  8
0
 66
     1
 10
0.0
 20
0.0
 30
0.0
  0
VERTEX
  5
DAA0
  8
0
 10
5866.639273105151
 20
-8060.0510936571327
 30
0.0
  0
VERTEX
  5
DAA1
  8
0
 10
5770.2756464833928
 20
-8060.0510936571327
 30
0.0
  0
VERTEX
  5
DAA2
  8
0
 10
5770.2756464827644
 20
-7968.6639086456271
 30
0.0
  0
SEQEND
  5
DAA3
  8
0
  0
POLYLINE
  5
2F74
  8
0
 62
     4
 66
     1
 10
0.0
 20
0.0
 30
0.0
 70
     1
  0
VERTEX
  5
DAA4
  8
0
 62
     4
 10
6106.7390603295853
 20
-8060.0510936571327
 30
0.0
 42
-0.0114706937956457
  0
VERTEX
  5
DAA5
  8
0
 62
     4
 10
6106.7601350789901
 20
-8062.7590310382056
 30
0.0
 42
-0.0663321931849546
  0
VERTEX
  5
DAA6
  8
0
 62
     4
 10
6174.7824951296298
 20
-8075.4835487968694
 30
0.0
 42
-0.0353291249290708
  0
VERTEX
  5
DAA7
  8
0
 62
     4
 10
6251.4088897667107
 20
-8060.0510936571327
 30
0.0
 42
-0.0353291249290708
  0
VERTEX
  5
DAA8
  8
0
 62
     4
 10
6174.7824951296334
 20
-8044.6186385173969
 30
0.0
 42
-0.0663321931849546
  0
VERTEX
  5
DAA9
  8
0
 62
     4
 10
6106.7601350789864
 20
-8057.3431562760561
 30
0.0
 42
-0.0114706937956457
  0
SEQEND
  5
DAAA
  8
0
 62
     4
  0
CIRCLE
  5
2F75
  8
0
 10
5770.275646479733
 20
-8060.0510936647852
 30
0.0
 40
550.0
  0
CIRCLE
  5
2F76
  8
0
 10
5770.275646479733
 20
-8060.0510936647852
 30
0.0
 40
555.0
  0
ENDSEC
  0
EOF
