  0
SECTION
  2
HEADER
  9
$ACADVER
  1
AC1021
  9
$ACADMAINTVER
 70
     1
  9
$DWGCODEPAGE
  3
ANSI_1254
  9
$LASTSAVEDBY
  1
HP
  9
$INSBASE
 10
0.0
 20
0.0
 30
0.0
  9
$EXTMIN
 10
765.1866160335114
 20
355.8556815602206
 30
0.0
  9
$EXTMAX
 10
3194.9446457215
 20
2308.121338113246
 30
0.0
  9
$LIMMIN
 10
0.0
 20
0.0
  9
$LIMMAX
 10
12.0
 20
9.0
  9
$ORTHOMODE
 70
     0
  9
$REGENMODE
 70
     1
  9
$FILLMODE
 70
     1
  9
$QTEXTMODE
 70
     0
  9
$MIRRTEXT
 70
     1
  9
$LTSCALE
 40
1.0
  9
$ATTMODE
 70
     1
  9
$TEXTSIZE
 40
0.2
  9
$TRACEWID
 40
0.05
  9
$TEXTSTYLE
  7
STANDARD
  9
$CLAYER
  8
0
  9
$CELTYPE
  6
ByLayer
  9
$CECOLOR
 62
     6
  9
$CELTSCALE
 40
1.0
  9
$DISPSILH
 70
     0
  9
$DIMSCALE
 40
1.0
  9
$DIMASZ
 40
0.18
  9
$DIMEXO
 40
0.0625
  9
$DIMDLI
 40
0.38
  9
$DIMRND
 40
0.0
  9
$DIMDLE
 40
0.0
  9
$DIMEXE
 40
0.18
  9
$DIMTP
 40
0.0
  9
$DIMTM
 40
0.0
  9
$DIMTXT
 40
0.18
  9
$DIMCEN
 40
0.09
  9
$DIMTSZ
 40
0.0
  9
$DIMTOL
 70
     0
  9
$DIMLIM
 70
     0
  9
$DIMTIH
 70
     1
  9
$DIMTOH
 70
     1
  9
$DIMSE1
 70
     0
  9
$DIMSE2
 70
     0
  9
$DIMTAD
 70
     0
  9
$DIMZIN
 70
     0
  9
$DIMBLK
  1

  9
$DIMASO
 70
     1
  9
$DIMSHO
 70
     1
  9
$DIMPOST
  1

  9
$DIMAPOST
  1

  9
$DIMALT
 70
     0
  9
$DIMALTD
 70
     2
  9
$DIMALTF
 40
25.4
  9
$DIMLFAC
 40
1.0
  9
$DIMTOFL
 70
     0
  9
$DIMTVP
 40
0.0
  9
$DIMTIX
 70
     0
  9
$DIMSOXD
 70
     0
  9
$DIMSAH
 70
     0
  9
$DIMBLK1
  1

  9
$DIMBLK2
  1

  9
$DIMSTYLE
  2
STANDARD
  9
$DIMCLRD
 70
     0
  9
$DIMCLRE
 70
     0
  9
$DIMCLRT
 70
     0
  9
$DIMTFAC
 40
1.0
  9
$DIMGAP
 40
0.09
  9
$DIMJUST
 70
     0
  9
$DIMSD1
 70
     0
  9
$DIMSD2
 70
     0
  9
$DIMTOLJ
 70
     1
  9
$DIMTZIN
 70
     0
  9
$DIMALTZ
 70
     0
  9
$DIMALTTZ
 70
     0
  9
$DIMUPT
 70
     0
  9
$DIMDEC
 70
     4
  9
$DIMTDEC
 70
     4
  9
$DIMALTU
 70
     2
  9
$DIMALTTD
 70
     2
  9
$DIMTXSTY
  7
STANDARD
  9
$DIMAUNIT
 70
     0
  9
$DIMADEC
 70
     0
  9
$DIMALTRND
 40
0.0
  9
$DIMAZIN
 70
     0
  9
$DIMDSEP
 70
    46
  9
$DIMATFIT
 70
     3
  9
$DIMFRAC
 70
     0
  9
$DIMLDRBLK
  1

  9
$DIMLUNIT
 70
     2
  9
$DIMLWD
 70
    -2
  9
$DIMLWE
 70
    -2
  9
$DIMTMOVE
 70
     0
  9
$DIMFXL
 40
1.0
  9
$DIMFXLON
 70
     0
  9
$DIMJOGANG
 40
0.7853981633974483
  9
$DIMTFILL
 70
     0
  9
$DIMTFILLCLR
 70
     0
  9
$DIMARCSYM
 70
     0
  9
$DIMLTYPE
  6

  9
$DIMLTEX1
  6

  9
$DIMLTEX2
  6

  9
$LUNITS
 70
     2
  9
$LUPREC
 70
     4
  9
$SKETCHINC
 40
0.1
  9
$FILLETRAD
 40
300.0
  9
$AUNITS
 70
     0
  9
$AUPREC
 70
     0
  9
$MENU
  1
.
  9
$ELEVATION
 40
0.0
  9
$PELEVATION
 40
0.0
  9
$THICKNESS
 40
0.0
  9
$LIMCHECK
 70
     0
  9
$CHAMFERA
 40
0.0
  9
$CHAMFERB
 40
0.0
  9
$CHAMFERC
 40
0.0
  9
$CHAMFERD
 40
0.0
  9
$SKPOLY
 70
     0
  9
$TDCREATE
 40
2454910.500000000
  9
$TDUCREATE
 40
2454910.375000000
  9
$TDUPDATE
 40
2457960.948631030
  9
$TDUUPDATE
 40
2457960.823631030
  9
$TDINDWG
 40
0.0249159144
  9
$TDUSRTIMER
 40
0.0249155440
  9
$USRTIMER
 70
     1
  9
$ANGBASE
 50
0.0
  9
$ANGDIR
 70
     0
  9
$PDMODE
 70
     2
  9
$PDSIZE
 40
0.0
  9
$PLINEWID
 40
0.0
  9
$SPLFRAME
 70
     0
  9
$SPLINETYPE
 70
     6
  9
$SPLINESEGS
 70
     8
  9
$HANDSEED
  5
72E
  9
$SURFTAB1
 70
     6
  9
$SURFTAB2
 70
     6
  9
$SURFTYPE
 70
     6
  9
$SURFU
 70
     6
  9
$SURFV
 70
     6
  9
$UCSBASE
  2

  9
$UCSNAME
  2

  9
$UCSORG
 10
0.0
 20
0.0
 30
0.0
  9
$UCSXDIR
 10
1.0
 20
0.0
 30
0.0
  9
$UCSYDIR
 10
0.0
 20
1.0
 30
0.0
  9
$UCSORTHOREF
  2

  9
$UCSORTHOVIEW
 70
     0
  9
$UCSORGTOP
 10
0.0
 20
0.0
 30
0.0
  9
$UCSORGBOTTOM
 10
0.0
 20
0.0
 30
0.0
  9
$UCSORGLEFT
 10
0.0
 20
0.0
 30
0.0
  9
$UCSORGRIGHT
 10
0.0
 20
0.0
 30
0.0
  9
$UCSORGFRONT
 10
0.0
 20
0.0
 30
0.0
  9
$UCSORGBACK
 10
0.0
 20
0.0
 30
0.0
  9
$PUCSBASE
  2

  9
$PUCSNAME
  2

  9
$PUCSORG
 10
0.0
 20
0.0
 30
0.0
  9
$PUCSXDIR
 10
1.0
 20
0.0
 30
0.0
  9
$PUCSYDIR
 10
0.0
 20
1.0
 30
0.0
  9
$PUCSORTHOREF
  2

  9
$PUCSORTHOVIEW
 70
     0
  9
$PUCSORGTOP
 10
0.0
 20
0.0
 30
0.0
  9
$PUCSORGBOTTOM
 10
0.0
 20
0.0
 30
0.0
  9
$PUCSORGLEFT
 10
0.0
 20
0.0
 30
0.0
  9
$PUCSORGRIGHT
 10
0.0
 20
0.0
 30
0.0
  9
$PUCSORGFRONT
 10
0.0
 20
0.0
 30
0.0
  9
$PUCSORGBACK
 10
0.0
 20
0.0
 30
0.0
  9
$USERI1
 70
     0
  9
$USERI2
 70
     0
  9
$USERI3
 70
     0
  9
$USERI4
 70
     0
  9
$USERI5
 70
     0
  9
$USERR1
 40
0.0
  9
$USERR2
 40
0.0
  9
$USERR3
 40
0.0
  9
$USERR4
 40
0.0
  9
$USERR5
 40
0.0
  9
$WORLDVIEW
 70
     1
  9
$SHADEDGE
 70
     3
  9
$SHADEDIF
 70
    70
  9
$TILEMODE
 70
     1
  9
$MAXACTVP
 70
    64
  9
$PINSBASE
 10
0.0
 20
0.0
 30
0.0
  9
$PLIMCHECK
 70
     0
  9
$PEXTMIN
 10
1.000000000000000E+20
 20
1.000000000000000E+20
 30
1.000000000000000E+20
  9
$PEXTMAX
 10
-1.000000000000000E+20
 20
-1.000000000000000E+20
 30
-1.000000000000000E+20
  9
$PLIMMIN
 10
0.0
 20
0.0
  9
$PLIMMAX
 10
12.0
 20
9.0
  9
$UNITMODE
 70
     0
  9
$VISRETAIN
 70
     1
  9
$PLINEGEN
 70
     0
  9
$PSLTSCALE
 70
     1
  9
$TREEDEPTH
 70
  3020
  9
$CMLSTYLE
  2
Standard
  9
$CMLJUST
 70
     0
  9
$CMLSCALE
 40
1.0
  9
$PROXYGRAPHICS
 70
     1
  9
$MEASUREMENT
 70
     0
  9
$CELWEIGHT
370
    -1
  9
$ENDCAPS
280
     0
  9
$JOINSTYLE
280
     0
  9
$LWDISPLAY
290
     0
  9
$INSUNITS
 70
     0
  9
$HYPERLINKBASE
  1

  9
$STYLESHEET
  1

  9
$XEDIT
290
     1
  9
$CEPSNTYPE
380
     0
  9
$PSTYLEMODE
290
     1
  9
$FINGERPRINTGUID
  2
{9F372E7E-240D-441F-BED4-1DF9132B4BFC}
  9
$VERSIONGUID
  2
{D4AE9EB0-2011-4E10-AAA7-6B19CE1F925E}
  9
$EXTNAMES
290
     1
  9
$PSVPSCALE
 40
0.0
  9
$OLESTARTUP
290
     0
  9
$SORTENTS
280
   127
  9
$INDEXCTL
280
     0
  9
$HIDETEXT
280
     0
  9
$XCLIPFRAME
290
     0
  9
$HALOGAP
280
     0
  9
$OBSCOLOR
 70
   257
  9
$OBSLTYPE
280
     0
  9
$INTERSECTIONDISPLAY
280
     0
  9
$INTERSECTIONCOLOR
 70
   257
  9
$DIMASSOC
280
     1
  9
$PROJECTNAME
  1

  9
$CAMERADISPLAY
290
     0
  9
$LENSLENGTH
 40
50.0
  9
$CAMERAHEIGHT
 40
0.0
  9
$STEPSPERSEC
 40
2.0
  9
$STEPSIZE
 40
6.0
  9
$3DDWFPREC
 40
2.0
  9
$PSOLWIDTH
 40
0.25
  9
$PSOLHEIGHT
 40
4.0
  9
$LOFTANG1
 40
1.570796326794896
  9
$LOFTANG2
 40
1.570796326794896
  9
$LOFTMAG1
 40
0.0
  9
$LOFTMAG2
 40
0.0
  9
$LOFTPARAM
 70
     7
  9
$LOFTNORMALS
280
     1
  9
$LATITUDE
 40
37.795
  9
$LONGITUDE
 40
-122.394
  9
$NORTHDIRECTION
 40
0.0
  9
$TIMEZONE
 70
 -8000
  9
$LIGHTGLYPHDISPLAY
280
     1
  9
$TILEMODELIGHTSYNCH
280
     1
  9
$CMATERIAL
347
5F6
  9
$SOLIDHIST
280
     1
  9
$SHOWHIST
280
     1
  9
$DWFFRAME
280
     2
  9
$DGNFRAME
280
     0
  9
$REALWORLDSCALE
290
     1
  9
$INTERFERECOLOR
 62
     1
  9
$INTERFEREOBJVS
345
603
  9
$INTERFEREVPVS
346
600
  9
$CSHADOW
280
     0
  9
$SHADOWPLANELOCATION
 40
0.0
  0
ENDSEC
  0
SECTION
  2
CLASSES
  0
CLASS
  1
ACDBDICTIONARYWDFLT
  2
AcDbDictionaryWithDefault
  3
ObjectDBX Classes
 90
        0
 91
        1
280
     0
281
     0
  0
CLASS
  1
MATERIAL
  2
AcDbMaterial
  3
ObjectDBX Classes
 90
     1024
 91
        3
280
     0
281
     0
  0
CLASS
  1
VISUALSTYLE
  2
AcDbVisualStyle
  3
ObjectDBX Classes
 90
     4095
 91
       16
280
     0
281
     0
  0
CLASS
  1
TABLESTYLE
  2
AcDbTableStyle
  3
ObjectDBX Classes
 90
     4095
 91
        1
280
     0
281
     0
  0
CLASS
  1
SORTENTSTABLE
  2
AcDbSortentsTable
  3
ObjectDBX Classes
 90
        0
 91
        1
280
     0
281
     0
  0
CLASS
  1
DICTIONARYVAR
  2
AcDbDictionaryVar
  3
ObjectDBX Classes
 90
        0
 91
        1
280
     0
281
     0
  0
ENDSEC
  0
SECTION
  2
TABLES
  0
TABLE
  2
VPORT
  5
5ED
330
0
100
AcDbSymbolTable
 70
     1
  0
VPORT
  5
61F
330
5ED
100
AcDbSymbolTableRecord
100
AcDbViewportTableRecord
  2
*ACTIVE
 70
     0
 10
0.0
 20
0.0
 11
1.0
 21
1.0
 12
2745.971400829142
 22
1149.513627404249
 13
0.0
 23
0.0
 14
0.5
 24
0.5
 15
0.5
 25
0.5
 16
0.0
 26
0.0
 36
1.0
 17
0.0
 27
0.0
 37
0.0
 40
5559.083960509054
 41
2.345521023765996
 42
50.0
 43
0.0
 44
0.0
 50
0.0
 51
0.0
 71
     0
 72
  2500
 73
     1
 74
     3
 75
     0
 76
     0
 77
     0
 78
     0
281
     0
 65
     1
110
0.0
120
0.0
130
0.0
111
1.0
121
0.0
131
0.0
112
0.0
122
1.0
132
0.0
 79
     0
146
0.0
348
5FF
 60
     3
 61
     5
292
     1
282
     0
141
0.0
142
0.0
 63
   250
421
  3355443
  0
ENDTAB
  0
TABLE
  2
LTYPE
  5
5EA
330
0
100
AcDbSymbolTable
 70
     2
  0
LTYPE
  5
60D
330
5EA
100
AcDbSymbolTableRecord
100
AcDbLinetypeTableRecord
  2
ByBlock
 70
     0
  3

 72
    65
 73
     0
 40
0.0
  0
LTYPE
  5
60E
330
5EA
100
AcDbSymbolTableRecord
100
AcDbLinetypeTableRecord
  2
ByLayer
 70
     0
  3

 72
    65
 73
     0
 40
0.0
  0
LTYPE
  5
60F
330
5EA
100
AcDbSymbolTableRecord
100
AcDbLinetypeTableRecord
  2
CONTINUOUS
 70
     0
  3
Solid line
 72
    65
 73
     0
 40
0.0
  0
LTYPE
  5
620
330
5EA
100
AcDbSymbolTableRecord
100
AcDbLinetypeTableRecord
  2
CONTINUOUS2
 70
     0
  3
Solid Line
 72
    65
 73
     0
 40
0.0
  0
ENDTAB
  0
TABLE
  2
LAYER
  5
5E7
330
0
100
AcDbSymbolTable
 70
     2
  0
LAYER
  5
60A
330
5E7
100
AcDbSymbolTableRecord
100
AcDbLayerTableRecord
  2
0
 70
     0
 62
     7
  6
CONTINUOUS
370
    -3
390
5F4
347
5F8
  0
LAYER
  5
621
330
5E7
100
AcDbSymbolTableRecord
100
AcDbLayerTableRecord
  2
LAYER_1
 70
     0
 62
    18
  6
CONTINUOUS
370
    -3
390
5F4
347
5F8
  0
ENDTAB
  0
TABLE
  2
STYLE
  5
5E8
330
0
100
AcDbSymbolTable
 70
     1
  0
STYLE
  5
60B
330
5E8
100
AcDbSymbolTableRecord
100
AcDbTextStyleTableRecord
  2
STANDARD
 70
     0
 40
0.0
 41
1.0
 50
0.0
 71
     0
 42
0.2
  3
txt
  4

  0
ENDTAB
  0
TABLE
  2
VIEW
  5
5EB
330
0
100
AcDbSymbolTable
 70
     0
  0
ENDTAB
  0
TABLE
  2
UCS
  5
5EC
330
0
100
AcDbSymbolTable
 70
     0
  0
ENDTAB
  0
TABLE
  2
APPID
  5
5EE
330
0
100
AcDbSymbolTable
 70
     2
  0
APPID
  5
60C
330
5EE
100
AcDbSymbolTableRecord
100
AcDbRegAppTableRecord
  2
ACAD
 70
     0
  0
APPID
  5
62A
330
5EE
100
AcDbSymbolTableRecord
100
AcDbRegAppTableRecord
  2
ACAD_EXEMPT_FROM_CAD_STANDARDS
 70
     0
  0
ENDTAB
  0
TABLE
  2
DIMSTYLE
  5
5EF
330
0
100
AcDbSymbolTable
 70
     1
100
AcDbDimStyleTable
 71
     1
340
622
  0
DIMSTYLE
105
622
330
5EF
100
AcDbSymbolTableRecord
100
AcDbDimStyleTableRecord
  2
STANDARD
 70
     0
279
     2
340
60B
  0
ENDTAB
  0
TABLE
  2
BLOCK_RECORD
  5
5E6
330
0
100
AcDbSymbolTable
 70
     2
  0
BLOCK_RECORD
  5
61B
102
{ACAD_XDICTIONARY
360
632
102
}
330
5E6
100
AcDbSymbolTableRecord
100
AcDbBlockTableRecord
  2
*Model_Space
340
61E
 70
     0
280
     1
281
     0
  0
BLOCK_RECORD
  5
617
330
5E6
100
AcDbSymbolTableRecord
100
AcDbBlockTableRecord
  2
*Paper_Space
340
61A
 70
     0
280
     1
281
     0
  0
BLOCK_RECORD
  5
624
330
5E6
100
AcDbSymbolTableRecord
100
AcDbBlockTableRecord
  2
$MODEL_SPACE
340
0
 70
     0
280
     1
281
     0
  0
BLOCK_RECORD
  5
626
330
5E6
100
AcDbSymbolTableRecord
100
AcDbBlockTableRecord
  2
$PAPER_SPACE
340
0
 70
     0
280
     1
281
     0
  0
ENDTAB
  0
ENDSEC
  0
SECTION
  2
BLOCKS
  0
BLOCK
  5
61C
330
61B
100
AcDbEntity
  8
0
100
AcDbBlockBegin
  2
*Model_Space
 70
     0
 10
0.0
 20
0.0
 30
0.0
  3
*Model_Space
  1

  0
ENDBLK
  5
61D
330
61B
100
AcDbEntity
  8
0
100
AcDbBlockEnd
  0
BLOCK
  5
618
330
617
100
AcDbEntity
 67
     1
  8
0
100
AcDbBlockBegin
  2
*Paper_Space
 70
     0
 10
0.0
 20
0.0
 30
0.0
  3
*Paper_Space
  1

  0
ENDBLK
  5
619
330
617
100
AcDbEntity
 67
     1
  8
0
100
AcDbBlockEnd
  0
BLOCK
  5
625
330
624
100
AcDbEntity
  8
0
100
AcDbBlockBegin
  2
$MODEL_SPACE
 70
     0
 10
0.0
 20
0.0
 30
0.0
  3
$MODEL_SPACE
  1

  0
ENDBLK
  5
21
330
624
100
AcDbEntity
  8
0
100
AcDbBlockEnd
  0
BLOCK
  5
627
330
626
100
AcDbEntity
  8
0
100
AcDbBlockBegin
  2
$PAPER_SPACE
 70
     0
 10
0.0
 20
0.0
 30
0.0
  3
$PAPER_SPACE
  1

  0
ENDBLK
  5
1D
330
626
100
AcDbEntity
  8
0
100
AcDbBlockEnd
  0
ENDSEC
  0
SECTION
  2
ENTITIES
  0
LWPOLYLINE
  5
660
330
61B
100
AcDbEntity
  8
0
 62
     1
100
AcDbPolyline
 90
        4
 70
     1
 43
0.0
 10
1565.849018777395
 20
1051.452483525257
 10
1765.849018777395
 20
1051.452483525257
 10
1765.849018777395
 20
1069.452483525257
 10
1565.849018777395
 20
1069.452483525257
  0
LWPOLYLINE
  5
66E
330
61B
100
AcDbEntity
  8
0
 62
     1
100
AcDbPolyline
 90
        7
 70
     0
 43
0.0
 10
1922.544655079866
 20
1293.986746539613
 10
1922.544655079866
 20
1193.986746539613
 10
2022.544655079866
 20
1193.986746539613
 10
2022.544655079866
 20
1093.986746539613
 10
2122.544655079866
 20
1093.986746539613
 10
2122.544655079866
 20
993.986746539613
 10
2418.397442608717
 20
993.986746539613
  0
LWPOLYLINE
  5
66F
330
61B
100
AcDbEntity
  8
0
 62
     1
100
AcDbPolyline
 90
        7
 70
     0
 43
0.0
 10
1940.544655079866
 20
1311.986746539613
 10
1940.544655079866
 20
1211.986746539613
 10
2040.544655079866
 20
1211.986746539613
 10
2040.544655079866
 20
1111.986746539613
 10
2140.544655079866
 20
1111.986746539613
 10
2140.544655079866
 20
1011.986746539613
 10
2424.707407030478
 20
1011.986746539613
  0
LINE
  5
670
330
61B
100
AcDbEntity
  8
0
 62
     1
100
AcDbLine
 10
1526.281777059469
 20
1293.986746539613
 30
0.0
 11
1922.544655079866
 21
1293.986746539613
 31
0.0
  0
LINE
  5
672
330
61B
100
AcDbEntity
  8
0
 62
     1
100
AcDbLine
 10
1940.544655079866
 20
1311.986746539613
 30
0.0
 11
1531.075323288365
 21
1311.986746539613
 31
0.0
  0
LINE
  5
673
330
61B
100
AcDbEntity
  8
0
 62
     1
100
AcDbLine
 10
1531.075323288365
 20
1311.986746539613
 30
0.0
 11
1526.281777059469
 21
1293.986746539613
 31
0.0
  0
LINE
  5
68C
330
61B
100
AcDbEntity
  8
0
 62
     1
100
AcDbLine
 10
2368.299762870254
 20
865.3142302826466
 30
0.0
 11
2057.551174820602
 21
865.3142302826466
 31
0.0
  0
LINE
  5
68D
330
61B
100
AcDbEntity
  8
0
 62
     1
100
AcDbLine
 10
2360.572209615746
 20
847.3142302826467
 30
0.0
 11
2057.551174820602
 21
847.3142302826467
 31
0.0
  0
LINE
  5
68E
330
61B
100
AcDbEntity
  8
0
 62
     1
100
AcDbLine
 10
2296.991300128397
 20
709.6417140256804
 30
0.0
 11
1992.557694561337
 21
709.6417140256805
 31
0.0
  0
LINE
  5
68F
330
61B
100
AcDbEntity
  8
0
 62
     1
100
AcDbLine
 10
2304.432615402805
 20
727.6417140256803
 30
0.0
 11
1992.557694561337
 21
727.6417140256804
 31
0.0
  0
LINE
  5
690
330
61B
100
AcDbEntity
  8
0
 62
     1
100
AcDbLine
 10
1927.564214302073
 20
571.9691977687142
 30
0.0
 11
2271.948103107734
 21
571.9691977687142
 31
0.0
  0
LINE
  5
691
330
61B
100
AcDbEntity
  8
0
 62
     1
100
AcDbLine
 10
1927.564214302073
 20
589.9691977687142
 30
0.0
 11
2272.268848488884
 21
589.9691977687142
 31
0.0
  0
LINE
  5
692
330
61B
100
AcDbEntity
  8
0
 62
     1
100
AcDbLine
 10
1927.564214302073
 20
571.9691977687142
 30
0.0
 11
1927.564214302073
 21
589.9691977687142
 31
0.0
  0
LINE
  5
693
330
61B
100
AcDbEntity
  8
0
 62
     1
100
AcDbLine
 10
1992.557694561337
 20
709.6417140256805
 30
0.0
 11
1992.557694561337
 21
727.6417140256804
 31
0.0
  0
LINE
  5
694
330
61B
100
AcDbEntity
  8
0
 62
     1
100
AcDbLine
 10
2057.551174820602
 20
847.3142302826467
 30
0.0
 11
2057.551174820602
 21
865.3142302826466
 31
0.0
  0
LINE
  5
695
330
61B
100
AcDbEntity
  8
0
 62
     1
100
AcDbLine
 10
1588.756125678797
 20
1484.889806903703
 30
0.0
 11
2352.122401958479
 21
1484.889806903703
 31
0.0
  0
LINE
  5
696
330
61B
100
AcDbEntity
  8
0
 62
     1
100
AcDbLine
 10
1578.489595722415
 20
1466.889806903703
 30
0.0
 11
2366.480936420692
 21
1466.889806903703
 31
0.0
  0
LINE
  5
69A
330
61B
100
AcDbEntity
  8
0
 62
     1
100
AcDbLine
 10
2459.282119581084
 20
1163.621099994309
 30
0.0
 11
2156.26108478594
 21
1163.621099994309
 31
0.0
  0
LINE
  5
69B
330
61B
100
AcDbEntity
  8
0
 62
     1
100
AcDbLine
 10
2459.964460939463
 20
1181.621099994309
 30
0.0
 11
2156.26108478594
 21
1181.621099994309
 31
0.0
  0
LINE
  5
69C
330
61B
100
AcDbEntity
  8
0
 62
     1
100
AcDbLine
 10
2156.26108478594
 20
1163.621099994309
 30
0.0
 11
2156.26108478594
 21
1181.621099994309
 31
0.0
  0
LINE
  5
69D
330
61B
100
AcDbEntity
  8
0
 62
     1
100
AcDbLine
 10
2442.237166460039
 20
1315.255453449006
 30
0.0
 11
2139.216131664895
 21
1315.255453449006
 31
0.0
  0
LINE
  5
69E
330
61B
100
AcDbEntity
  8
0
 62
     1
100
AcDbLine
 10
2436.693730023245
 20
1333.255453449006
 30
0.0
 11
2139.216131664895
 21
1333.255453449006
 31
0.0
  0
LINE
  5
69F
330
61B
100
AcDbEntity
  8
0
 62
     1
100
AcDbLine
 10
2139.216131664895
 20
1315.255453449006
 30
0.0
 11
2139.216131664895
 21
1333.255453449006
 31
0.0
  0
LWPOLYLINE
  5
70C
330
61B
100
AcDbEntity
  8
0
 62
     6
100
AcDbPolyline
 90
       37
 70
     1
 43
0.0
 10
1461.534038724738
 20
779.7422485077211
 42
-0.1131014509117966
 10
1454.14059303629
 20
785.5507622267443
 42
-0.2291476134749292
 10
1452.655641609793
 20
797.1046649848765
 42
0.1265816531177539
 10
1464.572216170864
 20
866.6211803192245
 42
0.2615166360315512
 10
1440.191784104255
 20
897.0943119929209
 42
0.0617479387879814
 10
1404.450592125523
 20
904.3087206289824
 42
-0.5920124466656364
 10
1386.286483469486
 20
939.2285712711093
 42
-0.0377431191442771
 10
1454.230990803997
 20
1022.384305821899
 42
0.1571419834507183
 10
1506.608108859326
 20
1123.222458252591
 42
0.2041661078320658
 10
1499.029176666183
 20
1165.683019815261
 42
-0.0467207679662176
 10
1492.662620436328
 20
1177.209754107449
 42
-0.1292163575577133
 10
1491.86231855294
 20
1183.515161954718
 42
-0.085826909303846
 10
1498.428631325477
 20
1208.524595841527
 42
0.0344438499953591
 10
1512.938253312356
 20
1247.174433655013
 42
0.0125932622915222
 10
1538.442216657269
 20
1341.120237524088
 42
-0.0346327898095697
 10
1576.746283580778
 20
1462.437063805512
 42
-0.0727140523049075
 10
1588.756125678797
 20
1484.889806903703
 42
-0.3122018288810299
 10
2171.790491926014
 20
1615.864818277013
 42
-0.3730639886804448
 10
2446.612356741003
 20
1078.57485982377
 42
-0.0376354225735861
 10
2318.869637047678
 20
756.7225803154396
 42
0.1266338431374463
 10
2271.948103107734
 20
574.3864934287468
 10
2271.948103107734
 20
443.2966815117479
 10
1753.827278196485
 20
443.2966815117479
 10
1742.664994756538
 20
477.8532555761375
 42
0.1173415168294993
 10
1714.111169472382
 20
524.3115968659877
 42
0.1986174984223008
 10
1702.276865301959
 20
529.2056621916765
 42
-0.0038942394073966
 10
1534.594326667253
 20
527.8858156503884
 42
-0.4983219309561879
 10
1482.233737088801
 20
597.141256167122
 42
-0.0163498510632034
 10
1495.817948672594
 20
643.8554139135653
 42
0.3205388228994339
 10
1472.681502477131
 20
703.0460355636476
 42
-0.0586888541633513
 10
1460.55943189667
 20
714.0608931186356
 42
-0.3642973894311272
 10
1459.505005403929
 20
720.0501903845061
 42
-0.1575059982734406
 10
1483.851208241097
 20
739.3939908522851
 42
0.0979224340469187
 10
1501.000148212265
 20
752.0349454352055
 42
0.1119502947098783
 10
1503.128476851775
 20
755.8174829087017
 42
0.3144970482202633
 10
1502.358706832533
 20
758.3633482245147
 42
0.0468910874026599
 10
1486.75587366133
 20
767.333703321163
 42
-0.0153218531940773
  0
LWPOLYLINE
  5
70D
330
61B
100
AcDbEntity
  8
0
 62
     4
100
AcDbPolyline
 90
       32
 70
     1
 43
0.0
 10
1453.418156812876
 20
763.6717898156534
 42
-0.115519018959625
 10
1439.607955933268
 20
774.9112270835448
 42
-0.246587840450287
 10
1435.953957619568
 20
803.8556217395921
 42
0.1262921183707859
 10
1446.69693978807
 20
864.332817956534
 42
0.2476481893768109
 10
1433.895262288605
 20
880.2184223428012
 42
0.0597825077500696
 10
1403.482367861757
 20
886.3297976930057
 42
-0.5836554684300282
 10
1371.084719156204
 20
948.8834902411237
 42
-0.0381829571042783
 10
1441.384217213214
 20
1034.99531404619
 42
0.1584174309522249
 10
1488.953253272463
 20
1126.78113953992
 42
0.2066265486322969
 10
1484.044383926505
 20
1155.708769307378
 42
-0.0467702134970794
 10
1476.079552121345
 20
1170.207100662246
 42
-0.1276991379810117
 10
1473.957648122475
 20
1185.390127622965
 42
-0.0849183166247759
 10
1482.052217255691
 20
1215.995409867784
 42
0.0344438499953591
 10
1495.691261923358
 20
1252.326257412461
 42
0.0125894013745632
 10
1520.950684793437
 20
1345.368436611048
 42
-0.0345578342479476
 10
1559.905771534267
 20
1468.797788323785
 42
-0.0744678477244432
 10
1574.884582838014
 20
1496.397667587766
 42
-0.3126756811589098
 10
2178.538060993078
 20
1632.552248027733
 42
-0.3733945948956943
 10
2463.957565314364
 20
1073.733282028403
 42
-0.0377443860464761
 10
2334.850834958609
 20
748.4271501532007
 42
0.1269518308090876
 10
2289.94810307934
 20
574.3875044560231
 10
2289.948103107734
 20
425.2966815117479
 10
1740.725791554289
 20
425.2966815117479
 10
1725.550945307466
 20
472.2754830325335
 42
0.1158104144706298
 10
1701.768640447818
 20
511.1955248388303
 42
-0.0038759195944393
 10
1534.595811686367
 20
509.8858157116492
 42
-0.4971233201102481
 10
1464.850808503298
 20
601.8192880140435
 42
-0.0160535989329703
 10
1478.497821376303
 20
648.8010703958958
 42
0.318856353506282
 10
1462.578732047065
 20
688.1433556074567
 42
-0.0611229061362548
 10
1446.087138543763
 20
703.1918438469415
 42
-0.3266118230170521
 10
1444.475120828184
 20
729.9413534048847
 42
-0.1376132529255529
 10
1472.475956145216
 20
754.1171755743463
 42
-0.0111806418648063
  0
LWPOLYLINE
  5
71A
330
61B
100
AcDbEntity
  8
0
 62
     6
100
AcDbPolyline
 90
        3
 70
     0
 43
0.0
 10
1588.756125678797
 20
1484.889806903703
 10
1574.884582838014
 20
1496.397667587766
 10
1433.319091637654
 20
1496.397667587766
  0
LWPOLYLINE
  5
71C
330
61B
100
AcDbEntity
  8
0
 62
     6
100
AcDbPolyline
 90
        3
 70
     0
 43
0.0
 10
2366.480936420692
 20
1466.889806903703
 10
2395.768128978343
 20
1485.699214569617
 10
2610.945590131144
 20
1485.699214569617
  0
LWPOLYLINE
  5
71D
330
61B
100
AcDbEntity
  8
0
 62
     6
100
AcDbPolyline
 90
        3
 70
     0
 43
0.0
 10
2388.797520167125
 20
915.2448944514262
 10
2405.543440248878
 20
908.6436889549286
 10
2656.398151746896
 20
908.6436889549286
  0
LWPOLYLINE
  5
71E
330
61B
100
AcDbEntity
  8
0
 62
     6
100
AcDbPolyline
 90
        3
 70
     0
 43
0.0
 10
1454.230990803997
 20
1022.384305821899
 10
1441.384217213214
 20
1034.99531404619
 10
1292.289539206958
 20
1034.99531404619
  0
LWPOLYLINE
  5
71F
330
61B
100
AcDbEntity
  8
0
 62
     6
100
AcDbPolyline
 90
        3
 70
     0
 43
0.0
 10
1534.59432666812
 20
527.8858156503893
 10
1534.595811686367
 20
509.8858157116492
 10
1468.071771524133
 20
422.5447346159626
  0
LWPOLYLINE
  5
720
330
61B
100
AcDbEntity
  8
0
 62
     6
100
AcDbPolyline
 90
        3
 70
     0
 43
0.0
 10
2271.948103107734
 20
443.2966815117479
 10
2289.948103104306
 20
443.2966815117479
 10
2497.268105078485
 20
443.2966815117479
  0
MTEXT
  5
722
330
61B
100
AcDbEntity
  8
0
 62
     6
100
AcDbMText
 10
1186.553410892978
 20
422.5447346159627
 30
0.0
 40
50.0
 41
787.8851433562958
 46
110.5654687937449
 71
     1
 72
     5
  1
{\\fVerdana|b0|i0|c162|p34;kesim noktaları}
 73
     1
 44
1.0
  0
MTEXT
  5
723
330
61B
100
AcDbEntity
  8
0
 62
     6
100
AcDbMText
 10
2512.107413022195
 20
443.2966815117479
 30
0.0
 40
50.0
 41
787.8851433562958
 46
110.5654687937449
 71
     1
 72
     5
  1
{\\fVerdana|b0|i0|c162|p34;kesim noktaları}
 73
     1
 44
1.0
  0
MTEXT
  5
724
330
61B
100
AcDbEntity
  8
0
 62
     6
100
AcDbMText
 10
2671.237459690607
 20
908.6436889549286
 30
0.0
 40
50.0
 41
787.8851433562958
 46
110.5654687937449
 71
     1
 72
     5
  1
{\\fVerdana|b0|i0|c162|p34;kesim noktaları}
 73
     1
 44
1.0
  0
MTEXT
  5
725
330
61B
100
AcDbEntity
  8
0
 62
     6
100
AcDbMText
 10
2625.784898074855
 20
1485.699214569617
 30
0.0
 40
50.0
 41
787.8851433562958
 46
110.5654687937449
 71
     1
 72
     5
  1
{\\fVerdana|b0|i0|c162|p34;kesim noktaları}
 73
     1
 44
1.0
  0
MTEXT
  5
726
330
61B
100
AcDbEntity
  8
0
 62
     6
100
AcDbMText
 10
911.9339272314276
 20
1539.751420120645
 30
0.0
 40
50.0
 41
787.8851433562958
 46
110.5654687937449
 71
     1
 72
     5
  1
{\\fVerdana|b0|i0|c162|p34;kesim noktaları}
 73
     1
 44
1.0
  0
MTEXT
  5
727
330
61B
100
AcDbEntity
  8
0
 62
     6
100
AcDbMText
 10
771.6674756708519
 20
1079.915142592719
 30
0.0
 40
50.0
 41
787.8851433562958
 46
110.5654687937449
 71
     1
 72
     5
  1
{\\fVerdana|b0|i0|c162|p34;kesim noktaları}
 73
     1
 44
1.0
  0
MTEXT
  5
728
330
61B
100
AcDbEntity
  8
0
 62
     6
100
AcDbMText
 10
1498.464815986521
 20
2291.230807555825
 30
0.0
 40
50.0
 41
787.8851433562958
 46
110.5654687937449
 71
     1
 72
     5
  1
{\\fVerdana|b0|i0|c162|p34;6 parçadan oluşuyor fire vermemek için\\P\\P30 mm lik mdf 8*30=240 mm yapar}
 73
     1
 44
1.0
  0
ENDSEC
  0
SECTION
  2
OBJECTS
  0
DICTIONARY
  5
5F1
330
0
100
AcDbDictionary
281
     1
  3
ACAD_COLOR
350
614
  3
ACAD_GROUP
350
5F2
  3
ACAD_LAYOUT
350
613
  3
ACAD_MATERIAL
350
5F5
  3
ACAD_MLINESTYLE
350
610
  3
ACAD_PLOTSETTINGS
350
612
  3
ACAD_PLOTSTYLENAME
350
5F3
  3
ACAD_TABLESTYLE
350
615
  3
ACAD_VISUALSTYLE
350
5F9
  3
AcDbVariableDictionary
350
659
  0
DICTIONARY
  5
632
330
61B
100
AcDbDictionary
280
     1
281
     1
  3
ACAD_SORTENTS
360
633
  0
DICTIONARY
  5
614
102
{ACAD_REACTORS
330
5F1
102
}
330
5F1
100
AcDbDictionary
281
     1
  0
DICTIONARY
  5
5F2
102
{ACAD_REACTORS
330
5F1
102
}
330
5F1
100
AcDbDictionary
281
     1
  0
DICTIONARY
  5
613
102
{ACAD_REACTORS
330
5F1
102
}
330
5F1
100
AcDbDictionary
281
     1
  3
Layout1
350
61A
  3
Model
350
61E
  0
DICTIONARY
  5
5F5
102
{ACAD_REACTORS
330
5F1
102
}
330
5F1
100
AcDbDictionary
281
     1
  3
ByBlock
350
5F7
  3
ByLayer
350
5F6
  3
Global
350
5F8
  0
DICTIONARY
  5
610
102
{ACAD_REACTORS
330
5F1
102
}
330
5F1
100
AcDbDictionary
281
     1
  3
Standard
350
611
  0
DICTIONARY
  5
612
102
{ACAD_REACTORS
330
5F1
102
}
330
5F1
100
AcDbDictionary
281
     1
  0
ACDBDICTIONARYWDFLT
  5
5F3
102
{ACAD_REACTORS
330
5F1
102
}
330
5F1
100
AcDbDictionary
281
     1
  3
Normal
350
5F4
100
AcDbDictionaryWithDefault
340
5F4
  0
DICTIONARY
  5
615
102
{ACAD_REACTORS
330
5F1
102
}
330
5F1
100
AcDbDictionary
281
     1
  3
Standard
350
616
  0
DICTIONARY
  5
5F9
102
{ACAD_REACTORS
330
5F1
102
}
330
5F1
100
AcDbDictionary
281
     1
  3
2dWireframe
350
5FF
  3
3D Hidden
350
601
  3
3dWireframe
350
600
  3
Basic
350
5FE
  3
Brighten
350
605
  3
ColorChange
350
609
  3
Conceptual
350
602
  3
Dim
350
604
  3
Facepattern
350
608
  3
Flat
350
5FA
  3
FlatWithEdges
350
5FB
  3
Gouraud
350
5FC
  3
GouraudWithEdges
350
5FD
  3
Linepattern
350
607
  3
Realistic
350
603
  3
Thicken
350
606
  0
DICTIONARY
  5
659
102
{ACAD_REACTORS
330
5F1
102
}
330
5F1
100
AcDbDictionary
281
     1
  3
CTABLESTYLE
350
65A
  0
SORTENTSTABLE
  5
633
102
{ACAD_REACTORS
330
632
102
}
330
632
100
AcDbSortentsTable
330
61B
331
66F
  5
704
331
70C
  5
6D7
331
69C
  5
714
331
690
  5
70C
331
670
  5
700
331
70D
  5
6DD
331
691
  5
709
331
69D
  5
715
331
692
  5
70D
331
69E
  5
716
331
672
  5
701
331
693
  5
70E
331
69F
  5
717
331
673
  5
702
331
694
  5
70F
331
68C
  5
706
331
695
  5
710
331
68D
  5
705
331
660
  5
6FF
331
696
  5
711
331
69A
  5
712
331
68E
  5
708
331
66E
  5
703
331
68F
  5
707
331
69B
  5
713
  0
LAYOUT
  5
61A
102
{ACAD_REACTORS
330
613
102
}
330
613
100
AcDbPlotSettings
  1

  2
Microsoft XPS Document Writer
  4

  6

 40
0.0
 41
0.0
 42
0.0
 43
0.0
 44
0.0
 45
0.0
 46
0.0
 47
0.0
 48
0.0
 49
0.0
140
0.0
141
0.0
142
1.0
143
1.0
 70
   688
 72
     0
 73
     0
 74
     5
  7

 75
    16
147
1.0
 76
     0
 77
     2
 78
   300
148
0.0
149
0.0
100
AcDbLayout
  1
Layout1
 70
     1
 71
     1
 10
0.0
 20
0.0
 11
12.0
 21
9.0
 12
0.0
 22
0.0
 32
0.0
 14
1.000000000000000E+20
 24
1.000000000000000E+20
 34
1.000000000000000E+20
 15
-1.000000000000000E+20
 25
-1.000000000000000E+20
 35
-1.000000000000000E+20
146
0.0
 13
0.0
 23
0.0
 33
0.0
 16
1.0
 26
0.0
 36
0.0
 17
0.0
 27
1.0
 37
0.0
 76
     0
330
617
  0
LAYOUT
  5
61E
102
{ACAD_REACTORS
330
613
102
}
330
613
100
AcDbPlotSettings
  1

  2
Microsoft XPS Document Writer
  4

  6

 40
0.0
 41
0.0
 42
0.0
 43
0.0
 44
0.0
 45
0.0
 46
0.0
 47
0.0
 48
0.0
 49
0.0
140
0.0
141
0.0
142
1.0
143
1.0
 70
  1712
 72
     0
 73
     0
 74
     0
  7

 75
     0
147
1.0
 76
     0
 77
     2
 78
   300
148
0.0
149
0.0
100
AcDbLayout
  1
Model
 70
     1
 71
     0
 10
0.0
 20
0.0
 11
12.0
 21
9.0
 12
0.0
 22
0.0
 32
0.0
 14
0.0
 24
0.0
 34
0.0
 15
0.0
 25
0.0
 35
0.0
146
0.0
 13
0.0
 23
0.0
 33
0.0
 16
1.0
 26
0.0
 36
0.0
 17
0.0
 27
1.0
 37
0.0
 76
     0
330
61B
331
61F
  0
MATERIAL
  5
5F7
102
{ACAD_REACTORS
330
5F5
102
}
330
5F5
100
AcDbMaterial
  1
ByBlock
  0
MATERIAL
  5
5F6
102
{ACAD_REACTORS
330
5F5
102
}
330
5F5
100
AcDbMaterial
  1
ByLayer
  0
MATERIAL
  5
5F8
102
{ACAD_REACTORS
330
5F5
102
}
330
5F5
100
AcDbMaterial
  1
Global
  0
MLINESTYLE
  5
611
102
{ACAD_REACTORS
330
610
102
}
330
610
100
AcDbMlineStyle
  2
STANDARD
 70
     0
  3

 62
   256
 51
90.0
 52
90.0
 71
     2
 49
0.5
 62
   256
  6
BYLAYER
 49
-0.5
 62
   256
  6
BYLAYER
  0
ACDBPLACEHOLDER
  5
5F4
102
{ACAD_REACTORS
330
5F3
102
}
330
5F3
  0
TABLESTYLE
  5
616
102
{ACAD_REACTORS
330
615
102
}
330
615
100
AcDbTableStyle
  3
Standard
 70
     0
 71
     0
 40
0.06
 41
0.06
280
     0
281
     0
  7
STANDARD
140
0.18
170
     2
 62
     0
 63
     7
283
     0
 90
      512
 91
        0
  1

274
    -2
284
     1
 64
     0
275
    -2
285
     1
 65
     0
276
    -2
286
     1
 66
     0
277
    -2
287
     1
 67
     0
278
    -2
288
     1
 68
     0
279
    -2
289
     1
 69
     0
  7
STANDARD
140
0.25
170
     5
 62
     0
 63
     7
283
     0
 90
      512
 91
        0
  1

274
    -2
284
     1
 64
     0
275
    -2
285
     1
 65
     0
276
    -2
286
     1
 66
     0
277
    -2
287
     1
 67
     0
278
    -2
288
     1
 68
     0
279
    -2
289
     1
 69
     0
  7
STANDARD
140
0.18
170
     5
 62
     0
 63
     7
283
     0
 90
      512
 91
        0
  1

274
    -2
284
     1
 64
     0
275
    -2
285
     1
 65
     0
276
    -2
286
     1
 66
     0
277
    -2
287
     1
 67
     0
278
    -2
288
     1
 68
     0
279
    -2
289
     1
 69
     0
  0
VISUALSTYLE
  5
5FF
102
{ACAD_REACTORS
330
5F9
102
}
330
5F9
100
AcDbVisualStyle
  2
2dWireframe
 70
     4
 71
     0
 72
     2
 73
     0
 90
        0
 40
-0.6
 41
-30.0
 62
     5
 63
     7
421
 16777215
 74
     1
 91
        4
 64
     7
 65
   257
 75
     1
175
     1
 42
1.0
 92
        0
 66
   257
 43
1.0
 76
     1
 77
     6
 78
     2
 67
     7
 79
     5
170
     0
171
     0
290
     0
174
     0
 93
        1
 44
0.0
173
     0
291
     0
 45
0.0
  0
VISUALSTYLE
  5
601
102
{ACAD_REACTORS
330
5F9
102
}
330
5F9
100
AcDbVisualStyle
  2
3D Hidden
 70
     6
 71
     1
 72
     2
 73
     2
 90
        0
 40
-0.6
 41
-30.0
 62
     5
 63
     7
421
 16777215
 74
     2
 91
        2
 64
     7
 65
   257
 75
     2
175
     1
 42
40.0
 92
        0
 66
   257
 43
1.0
 76
     1
 77
     6
 78
     2
 67
     7
 79
     3
170
     0
171
     0
290
     0
174
     0
 93
        1
 44
0.0
173
     0
291
     0
 45
0.0
  0
VISUALSTYLE
  5
600
102
{ACAD_REACTORS
330
5F9
102
}
330
5F9
100
AcDbVisualStyle
  2
3dWireframe
 70
     5
 71
     0
 72
     2
 73
     0
 90
        0
 40
-0.6
 41
-30.0
 62
     5
 63
     7
421
 16777215
 74
     1
 91
        4
 64
     7
 65
   257
 75
     1
175
     1
 42
1.0
 92
        0
 66
   257
 43
1.0
 76
     1
 77
     6
 78
     2
 67
     7
 79
     5
170
     0
171
     0
290
     0
174
     0
 93
        1
 44
0.0
173
     0
291
     0
 45
0.0
  0
VISUALSTYLE
  5
5FE
102
{ACAD_REACTORS
330
5F9
102
}
330
5F9
100
AcDbVisualStyle
  2
Basic
 70
     7
 71
     1
 72
     0
 73
     1
 90
        0
 40
-0.6
 41
-30.0
 62
     5
 63
     7
421
 16777215
 74
     0
 91
        4
 64
     7
 65
   257
 75
     1
175
     1
 42
1.0
 92
        8
 66
     7
 43
1.0
 76
     1
 77
     6
 78
     2
 67
     7
 79
     5
170
     0
171
     0
290
     0
174
     0
 93
        1
 44
0.0
173
     0
291
     1
 45
0.0
  0
VISUALSTYLE
  5
605
102
{ACAD_REACTORS
330
5F9
102
}
330
5F9
100
AcDbVisualStyle
  2
Brighten
 70
    12
 71
     2
 72
     2
 73
     0
 90
        0
 40
-0.6
 41
-30.0
 62
     5
 63
     7
421
 16777215
 74
     1
 91
        4
 64
     7
 65
   257
 75
     1
175
     1
 42
1.0
 92
        8
 66
     7
 43
1.0
 76
     1
 77
     6
 78
     2
 67
     7
 79
     5
170
     0
171
     0
290
     0
174
     0
 93
        1
 44
50.0
173
     0
291
     1
 45
0.0
  0
VISUALSTYLE
  5
609
102
{ACAD_REACTORS
330
5F9
102
}
330
5F9
100
AcDbVisualStyle
  2
ColorChange
 70
    16
 71
     2
 72
     2
 73
     3
 90
        0
 40
-0.6
 41
-30.0
 62
     5
 63
     8
421
  8421504
 74
     1
 91
        4
 64
     7
 65
   257
 75
     1
175
     1
 42
1.0
 92
        8
 66
     8
424
  8421504
 43
1.0
 76
     1
 77
     6
 78
     2
 67
     7
 79
     5
170
     0
171
     0
290
     0
174
     0
 93
        1
 44
0.0
173
     0
291
     1
 45
0.0
  0
VISUALSTYLE
  5
602
102
{ACAD_REACTORS
330
5F9
102
}
330
5F9
100
AcDbVisualStyle
  2
Conceptual
 70
     9
 71
     3
 72
     2
 73
     0
 90
        0
 40
-0.6
 41
-30.0
 62
     5
 63
     7
421
 16777215
 74
     2
 91
        2
 64
     7
 65
   257
 75
     1
175
     1
 42
40.0
 92
        8
 66
     7
 43
1.0
 76
     1
 77
     6
 78
     2
 67
     7
 79
     3
170
     0
171
     0
290
     0
174
     0
 93
        1
 44
0.0
173
     0
291
     0
 45
0.0
  0
VISUALSTYLE
  5
604
102
{ACAD_REACTORS
330
5F9
102
}
330
5F9
100
AcDbVisualStyle
  2
Dim
 70
    11
 71
     2
 72
     2
 73
     0
 90
        0
 40
-0.6
 41
-30.0
 62
     5
 63
     7
421
 16777215
 74
     1
 91
        4
 64
     7
 65
   257
 75
     1
175
     1
 42
1.0
 92
        8
 66
     7
 43
1.0
 76
     1
 77
     6
 78
     2
 67
     7
 79
     5
170
     0
171
     0
290
     0
174
     0
 93
        1
 44
-50.0
173
     0
291
     1
 45
0.0
  0
VISUALSTYLE
  5
608
102
{ACAD_REACTORS
330
5F9
102
}
330
5F9
100
AcDbVisualStyle
  2
Facepattern
 70
    15
 71
     2
 72
     2
 73
     0
 90
        0
 40
-0.6
 41
-30.0
 62
     5
 63
     7
421
 16777215
 74
     1
 91
        4
 64
     7
 65
   257
 75
     1
175
     1
 42
1.0
 92
        8
 66
     7
 43
1.0
 76
     1
 77
     6
 78
     2
 67
     7
 79
     5
170
     0
171
     0
290
     0
174
     0
 93
        1
 44
0.0
173
     0
291
     1
 45
0.0
  0
VISUALSTYLE
  5
5FA
102
{ACAD_REACTORS
330
5F9
102
}
330
5F9
100
AcDbVisualStyle
  2
Flat
 70
     0
 71
     2
 72
     1
 73
     1
 90
        2
 40
-0.6
 41
30.0
 62
     5
 63
     7
421
 16777215
 74
     0
 91
        4
 64
     7
 65
   257
 75
     1
175
     1
 42
1.0
 92
        8
 66
     7
 43
1.0
 76
     1
 77
     6
 78
     2
 67
     7
 79
     5
170
     0
171
     0
290
     0
174
     0
 93
       13
 44
0.0
173
     0
291
     1
 45
0.0
  0
VISUALSTYLE
  5
5FB
102
{ACAD_REACTORS
330
5F9
102
}
330
5F9
100
AcDbVisualStyle
  2
FlatWithEdges
 70
     1
 71
     2
 72
     1
 73
     1
 90
        2
 40
-0.6
 41
30.0
 62
     5
 63
     7
421
 16777215
 74
     1
 91
        4
 64
     7
 65
   257
 75
     1
175
     1
 42
1.0
 92
        0
 66
   257
 43
1.0
 76
     1
 77
     6
 78
     2
 67
     7
 79
     5
170
     0
171
     0
290
     0
174
     0
 93
       13
 44
0.0
173
     0
291
     1
 45
0.0
  0
VISUALSTYLE
  5
5FC
102
{ACAD_REACTORS
330
5F9
102
}
330
5F9
100
AcDbVisualStyle
  2
Gouraud
 70
     2
 71
     2
 72
     2
 73
     1
 90
        2
 40
-0.6
 41
30.0
 62
     5
 63
     7
421
 16777215
 74
     0
 91
        4
 64
     7
 65
   257
 75
     1
175
     1
 42
1.0
 92
        0
 66
     7
 43
1.0
 76
     1
 77
     6
 78
     2
 67
     7
 79
     5
170
     0
171
     0
290
     0
174
     0
 93
       13
 44
0.0
173
     0
291
     1
 45
0.0
  0
VISUALSTYLE
  5
5FD
102
{ACAD_REACTORS
330
5F9
102
}
330
5F9
100
AcDbVisualStyle
  2
GouraudWithEdges
 70
     3
 71
     2
 72
     2
 73
     1
 90
        2
 40
-0.6
 41
30.0
 62
     5
 63
     7
421
 16777215
 74
     1
 91
        4
 64
     7
 65
   257
 75
     1
175
     1
 42
1.0
 92
        0
 66
   257
 43
1.0
 76
     1
 77
     6
 78
     2
 67
     7
 79
     5
170
     0
171
     0
290
     0
174
     0
 93
       13
 44
0.0
173
     0
291
     1
 45
0.0
  0
VISUALSTYLE
  5
607
102
{ACAD_REACTORS
330
5F9
102
}
330
5F9
100
AcDbVisualStyle
  2
Linepattern
 70
    14
 71
     2
 72
     2
 73
     0
 90
        0
 40
-0.6
 41
-30.0
 62
     5
 63
     7
421
 16777215
 74
     1
 91
        4
 64
     7
 65
   257
 75
     7
175
     7
 42
1.0
 92
        8
 66
     7
 43
1.0
 76
     1
 77
     6
 78
     2
 67
     7
 79
     5
170
     0
171
     0
290
     0
174
     0
 93
        1
 44
0.0
173
     0
291
     1
 45
0.0
  0
VISUALSTYLE
  5
603
102
{ACAD_REACTORS
330
5F9
102
}
330
5F9
100
AcDbVisualStyle
  2
Realistic
 70
     8
 71
     2
 72
     2
 73
     0
 90
        0
 40
-0.6
 41
-30.0
 62
     5
 63
     7
421
 16777215
 74
     1
 91
        0
 64
     7
 65
   257
 75
     1
175
     1
 42
1.0
 92
        8
 66
     8
424
  7895160
 43
1.0
 76
     1
 77
     6
 78
     2
 67
     7
 79
     5
170
     0
171
     0
290
     0
174
     0
 93
       13
 44
0.0
173
     0
291
     0
 45
0.0
  0
VISUALSTYLE
  5
606
102
{ACAD_REACTORS
330
5F9
102
}
330
5F9
100
AcDbVisualStyle
  2
Thicken
 70
    13
 71
     2
 72
     2
 73
     0
 90
        0
 40
-0.6
 41
-30.0
 62
     5
 63
     7
421
 16777215
 74
     1
 91
        4
 64
     7
 65
   257
 75
     1
175
     1
 42
1.0
 92
       12
 66
     7
 43
1.0
 76
     1
 77
     6
 78
     2
 67
     7
 79
     5
170
     0
171
     0
290
     0
174
     0
 93
        1
 44
0.0
173
     0
291
     1
 45
0.0
  0
DICTIONARYVAR
  5
65A
102
{ACAD_REACTORS
330
659
102
}
330
659
100
DictionaryVariables
280
     0
  1
STANDARD
  0
ENDSEC
  0
EOF
