  0
SECTION
  2
HEADER
  9
$ACADVER
  1
AC1021
  9
$ACADMAINTVER
 70
     1
  9
$DWGCODEPAGE
  3
ANSI_1254
  9
$LASTSAVEDBY
  1
uretim
  9
$INSBASE
 10
0.0
 20
0.0
 30
0.0
  9
$EXTMIN
 10
714.2355535420437
 20
383.0215622087376
 30
0.0
  9
$EXTMAX
 10
1887.110778820003
 20
1260.345717990418
 30
0.0
  9
$LIMMIN
 10
0.0
 20
0.0
  9
$LIMMAX
 10
420.0
 20
297.0
  9
$ORTHOMODE
 70
     0
  9
$REGENMODE
 70
     1
  9
$FILLMODE
 70
     1
  9
$QTEXTMODE
 70
     0
  9
$MIRRTEXT
 70
     0
  9
$LTSCALE
 40
1.0
  9
$ATTMODE
 70
     1
  9
$TEXTSIZE
 40
2.5
  9
$TRACEWID
 40
1.0
  9
$TEXTSTYLE
  7
Standard
  9
$CLAYER
  8
0
  9
$CELTYPE
  6
ByLayer
  9
$CECOLOR
 62
   256
  9
$CELTSCALE
 40
1.0
  9
$DISPSILH
 70
     0
  9
$DIMSCALE
 40
1.0
  9
$DIMASZ
 40
2.5
  9
$DIMEXO
 40
0.625
  9
$DIMDLI
 40
3.75
  9
$DIMRND
 40
0.0
  9
$DIMDLE
 40
0.0
  9
$DIMEXE
 40
1.25
  9
$DIMTP
 40
0.0
  9
$DIMTM
 40
0.0
  9
$DIMTXT
 40
2.5
  9
$DIMCEN
 40
2.5
  9
$DIMTSZ
 40
0.0
  9
$DIMTOL
 70
     0
  9
$DIMLIM
 70
     0
  9
$DIMTIH
 70
     0
  9
$DIMTOH
 70
     0
  9
$DIMSE1
 70
     0
  9
$DIMSE2
 70
     0
  9
$DIMTAD
 70
     1
  9
$DIMZIN
 70
     8
  9
$DIMBLK
  1

  9
$DIMASO
 70
     1
  9
$DIMSHO
 70
     1
  9
$DIMPOST
  1

  9
$DIMAPOST
  1

  9
$DIMALT
 70
     0
  9
$DIMALTD
 70
     3
  9
$DIMALTF
 40
0.03937007874016
  9
$DIMLFAC
 40
1.0
  9
$DIMTOFL
 70
     1
  9
$DIMTVP
 40
0.0
  9
$DIMTIX
 70
     0
  9
$DIMSOXD
 70
     0
  9
$DIMSAH
 70
     0
  9
$DIMBLK1
  1

  9
$DIMBLK2
  1

  9
$DIMSTYLE
  2
ISO-25
  9
$DIMCLRD
 70
     0
  9
$DIMCLRE
 70
     0
  9
$DIMCLRT
 70
     0
  9
$DIMTFAC
 40
1.0
  9
$DIMGAP
 40
0.625
  9
$DIMJUST
 70
     0
  9
$DIMSD1
 70
     0
  9
$DIMSD2
 70
     0
  9
$DIMTOLJ
 70
     0
  9
$DIMTZIN
 70
     8
  9
$DIMALTZ
 70
     0
  9
$DIMALTTZ
 70
     0
  9
$DIMUPT
 70
     0
  9
$DIMDEC
 70
     2
  9
$DIMTDEC
 70
     2
  9
$DIMALTU
 70
     2
  9
$DIMALTTD
 70
     3
  9
$DIMTXSTY
  7
Standard
  9
$DIMAUNIT
 70
     0
  9
$DIMADEC
 70
     0
  9
$DIMALTRND
 40
0.0
  9
$DIMAZIN
 70
     0
  9
$DIMDSEP
 70
    44
  9
$DIMATFIT
 70
     3
  9
$DIMFRAC
 70
     0
  9
$DIMLDRBLK
  1

  9
$DIMLUNIT
 70
     2
  9
$DIMLWD
 70
    -2
  9
$DIMLWE
 70
    -2
  9
$DIMTMOVE
 70
     0
  9
$DIMFXL
 40
1.0
  9
$DIMFXLON
 70
     0
  9
$DIMJOGANG
 40
0.7853981633974483
  9
$DIMTFILL
 70
     0
  9
$DIMTFILLCLR
 70
     0
  9
$DIMARCSYM
 70
     0
  9
$DIMLTYPE
  6

  9
$DIMLTEX1
  6

  9
$DIMLTEX2
  6

  9
$LUNITS
 70
     2
  9
$LUPREC
 70
     4
  9
$SKETCHINC
 40
1.0
  9
$FILLETRAD
 40
0.0
  9
$AUNITS
 70
     0
  9
$AUPREC
 70
     0
  9
$MENU
  1
.
  9
$ELEVATION
 40
0.0
  9
$PELEVATION
 40
0.0
  9
$THICKNESS
 40
0.0
  9
$LIMCHECK
 70
     0
  9
$CHAMFERA
 40
0.0
  9
$CHAMFERB
 40
0.0
  9
$CHAMFERC
 40
0.0
  9
$CHAMFERD
 40
0.0
  9
$SKPOLY
 70
     0
  9
$TDCREATE
 40
2457896.531206204
  9
$TDUCREATE
 40
2457896.406206204
  9
$TDUPDATE
 40
2457896.532231794
  9
$TDUUPDATE
 40
2457896.407231794
  9
$TDINDWG
 40
0.0001582407
  9
$TDUSRTIMER
 40
0.0001582292
  9
$USRTIMER
 70
     1
  9
$ANGBASE
 50
0.0
  9
$ANGDIR
 70
     0
  9
$PDMODE
 70
     0
  9
$PDSIZE
 40
0.0
  9
$PLINEWID
 40
0.0
  9
$SPLFRAME
 70
     0
  9
$SPLINETYPE
 70
     6
  9
$SPLINESEGS
 70
     8
  9
$HANDSEED
  5
154
  9
$SURFTAB1
 70
     6
  9
$SURFTAB2
 70
     6
  9
$SURFTYPE
 70
     6
  9
$SURFU
 70
     6
  9
$SURFV
 70
     6
  9
$UCSBASE
  2

  9
$UCSNAME
  2

  9
$UCSORG
 10
0.0
 20
0.0
 30
0.0
  9
$UCSXDIR
 10
1.0
 20
0.0
 30
0.0
  9
$UCSYDIR
 10
0.0
 20
1.0
 30
0.0
  9
$UCSORTHOREF
  2

  9
$UCSORTHOVIEW
 70
     0
  9
$UCSORGTOP
 10
0.0
 20
0.0
 30
0.0
  9
$UCSORGBOTTOM
 10
0.0
 20
0.0
 30
0.0
  9
$UCSORGLEFT
 10
0.0
 20
0.0
 30
0.0
  9
$UCSORGRIGHT
 10
0.0
 20
0.0
 30
0.0
  9
$UCSORGFRONT
 10
0.0
 20
0.0
 30
0.0
  9
$UCSORGBACK
 10
0.0
 20
0.0
 30
0.0
  9
$PUCSBASE
  2

  9
$PUCSNAME
  2

  9
$PUCSORG
 10
0.0
 20
0.0
 30
0.0
  9
$PUCSXDIR
 10
1.0
 20
0.0
 30
0.0
  9
$PUCSYDIR
 10
0.0
 20
1.0
 30
0.0
  9
$PUCSORTHOREF
  2

  9
$PUCSORTHOVIEW
 70
     0
  9
$PUCSORGTOP
 10
0.0
 20
0.0
 30
0.0
  9
$PUCSORGBOTTOM
 10
0.0
 20
0.0
 30
0.0
  9
$PUCSORGLEFT
 10
0.0
 20
0.0
 30
0.0
  9
$PUCSORGRIGHT
 10
0.0
 20
0.0
 30
0.0
  9
$PUCSORGFRONT
 10
0.0
 20
0.0
 30
0.0
  9
$PUCSORGBACK
 10
0.0
 20
0.0
 30
0.0
  9
$USERI1
 70
     0
  9
$USERI2
 70
     0
  9
$USERI3
 70
     0
  9
$USERI4
 70
     0
  9
$USERI5
 70
     0
  9
$USERR1
 40
0.0
  9
$USERR2
 40
0.0
  9
$USERR3
 40
0.0
  9
$USERR4
 40
0.0
  9
$USERR5
 40
0.0
  9
$WORLDVIEW
 70
     1
  9
$SHADEDGE
 70
     3
  9
$SHADEDIF
 70
    70
  9
$TILEMODE
 70
     1
  9
$MAXACTVP
 70
    64
  9
$PINSBASE
 10
0.0
 20
0.0
 30
0.0
  9
$PLIMCHECK
 70
     0
  9
$PEXTMIN
 10
0.0
 20
0.0
 30
0.0
  9
$PEXTMAX
 10
0.0
 20
0.0
 30
0.0
  9
$PLIMMIN
 10
0.0
 20
0.0
  9
$PLIMMAX
 10
12.0
 20
9.0
  9
$UNITMODE
 70
     0
  9
$VISRETAIN
 70
     1
  9
$PLINEGEN
 70
     0
  9
$PSLTSCALE
 70
     1
  9
$TREEDEPTH
 70
  3020
  9
$CMLSTYLE
  2
Standard
  9
$CMLJUST
 70
     0
  9
$CMLSCALE
 40
20.0
  9
$PROXYGRAPHICS
 70
     1
  9
$MEASUREMENT
 70
     1
  9
$CELWEIGHT
370
    -1
  9
$ENDCAPS
280
     0
  9
$JOINSTYLE
280
     0
  9
$LWDISPLAY
290
     0
  9
$INSUNITS
 70
     4
  9
$HYPERLINKBASE
  1

  9
$STYLESHEET
  1

  9
$XEDIT
290
     1
  9
$CEPSNTYPE
380
     0
  9
$PSTYLEMODE
290
     1
  9
$FINGERPRINTGUID
  2
{F00046EB-36C4-46C6-BD13-E3A3837AC8EC}
  9
$VERSIONGUID
  2
{4EFD4B65-68AC-4A11-8778-41BDED2E60A4}
  9
$EXTNAMES
290
     1
  9
$PSVPSCALE
 40
0.0
  9
$OLESTARTUP
290
     0
  9
$SORTENTS
280
   127
  9
$INDEXCTL
280
     0
  9
$HIDETEXT
280
     1
  9
$XCLIPFRAME
290
     0
  9
$HALOGAP
280
     0
  9
$OBSCOLOR
 70
   257
  9
$OBSLTYPE
280
     0
  9
$INTERSECTIONDISPLAY
280
     0
  9
$INTERSECTIONCOLOR
 70
   257
  9
$DIMASSOC
280
     2
  9
$PROJECTNAME
  1

  9
$CAMERADISPLAY
290
     0
  9
$LENSLENGTH
 40
50.0
  9
$CAMERAHEIGHT
 40
0.0
  9
$STEPSPERSEC
 40
2.0
  9
$STEPSIZE
 40
6.0
  9
$3DDWFPREC
 40
2.0
  9
$PSOLWIDTH
 40
5.0
  9
$PSOLHEIGHT
 40
80.0
  9
$LOFTANG1
 40
1.570796326794896
  9
$LOFTANG2
 40
1.570796326794896
  9
$LOFTMAG1
 40
0.0
  9
$LOFTMAG2
 40
0.0
  9
$LOFTPARAM
 70
     7
  9
$LOFTNORMALS
280
     1
  9
$LATITUDE
 40
37.795
  9
$LONGITUDE
 40
-122.394
  9
$NORTHDIRECTION
 40
0.0
  9
$TIMEZONE
 70
 -8000
  9
$LIGHTGLYPHDISPLAY
280
     1
  9
$TILEMODELIGHTSYNCH
280
     1
  9
$CMATERIAL
347
EC
  9
$SOLIDHIST
280
     1
  9
$SHOWHIST
280
     1
  9
$DWFFRAME
280
     2
  9
$DGNFRAME
280
     0
  9
$REALWORLDSCALE
290
     1
  9
$INTERFERECOLOR
 62
     1
  9
$INTERFEREOBJVS
345
F9
  9
$INTERFEREVPVS
346
F6
  9
$CSHADOW
280
     0
  9
$SHADOWPLANELOCATION
 40
0.0
  0
ENDSEC
  0
SECTION
  2
CLASSES
  0
CLASS
  1
ACDBDICTIONARYWDFLT
  2
AcDbDictionaryWithDefault
  3
ObjectDBX Classes
 90
        0
 91
        1
280
     0
281
     0
  0
CLASS
  1
DICTIONARYVAR
  2
AcDbDictionaryVar
  3
ObjectDBX Classes
 90
        0
 91
        3
280
     0
281
     0
  0
CLASS
  1
TABLESTYLE
  2
AcDbTableStyle
  3
ObjectDBX Classes
 90
     4095
 91
        1
280
     0
281
     0
  0
CLASS
  1
MATERIAL
  2
AcDbMaterial
  3
ObjectDBX Classes
 90
     1024
 91
        3
280
     0
281
     0
  0
CLASS
  1
VISUALSTYLE
  2
AcDbVisualStyle
  3
ObjectDBX Classes
 90
     4095
 91
       16
280
     0
281
     0
  0
CLASS
  1
SORTENTSTABLE
  2
AcDbSortentsTable
  3
ObjectDBX Classes
 90
        0
 91
        0
280
     0
281
     0
  0
ENDSEC
  0
SECTION
  2
TABLES
  0
TABLE
  2
VPORT
  5
8
330
0
100
AcDbSymbolTable
 70
     1
  0
VPORT
  5
EA
330
8
100
AcDbSymbolTableRecord
100
AcDbViewportTableRecord
  2
*Active
 70
     0
 10
0.0
 20
0.0
 11
1.0
 21
1.0
 12
1525.392622524394
 22
876.7503126957256
 13
0.0
 23
0.0
 14
10.0
 24
10.0
 15
10.0
 25
10.0
 16
0.0
 26
0.0
 36
1.0
 17
0.0
 27
0.0
 37
0.0
 40
1753.500625391451
 41
1.739825581395348
 42
50.0
 43
0.0
 44
0.0
 50
0.0
 51
0.0
 71
     0
 72
  1000
 73
     1
 74
     3
 75
     0
 76
     0
 77
     0
 78
     0
281
     0
 65
     1
110
0.0
120
0.0
130
0.0
111
1.0
121
0.0
131
0.0
112
0.0
122
1.0
132
0.0
 79
     0
146
0.0
348
F5
 60
     2
 61
     5
292
     1
282
     1
141
0.0
142
0.0
 63
   250
421
  3355443
  0
ENDTAB
  0
TABLE
  2
LTYPE
  5
5
330
0
100
AcDbSymbolTable
 70
     1
  0
LTYPE
  5
14
330
5
100
AcDbSymbolTableRecord
100
AcDbLinetypeTableRecord
  2
ByBlock
 70
     0
  3

 72
    65
 73
     0
 40
0.0
  0
LTYPE
  5
15
330
5
100
AcDbSymbolTableRecord
100
AcDbLinetypeTableRecord
  2
ByLayer
 70
     0
  3

 72
    65
 73
     0
 40
0.0
  0
LTYPE
  5
16
330
5
100
AcDbSymbolTableRecord
100
AcDbLinetypeTableRecord
  2
Continuous
 70
     0
  3
Solid line
 72
    65
 73
     0
 40
0.0
  0
ENDTAB
  0
TABLE
  2
LAYER
  5
2
102
{ACAD_XDICTIONARY
360
110
102
}
330
0
100
AcDbSymbolTable
 70
     1
  0
LAYER
  5
10
330
2
100
AcDbSymbolTableRecord
100
AcDbLayerTableRecord
  2
0
 70
     0
 62
     7
  6
Continuous
370
    -3
390
F
347
EE
  0
ENDTAB
  0
TABLE
  2
STYLE
  5
3
330
0
100
AcDbSymbolTable
 70
     1
  0
STYLE
  5
11
330
3
100
AcDbSymbolTableRecord
100
AcDbTextStyleTableRecord
  2
Standard
 70
     0
 40
0.0
 41
1.0
 50
0.0
 71
     0
 42
2.5
  3
txt
  4

  0
ENDTAB
  0
TABLE
  2
VIEW
  5
6
330
0
100
AcDbSymbolTable
 70
     0
  0
ENDTAB
  0
TABLE
  2
UCS
  5
7
330
0
100
AcDbSymbolTable
 70
     0
  0
ENDTAB
  0
TABLE
  2
APPID
  5
9
330
0
100
AcDbSymbolTable
 70
     2
  0
APPID
  5
12
330
9
100
AcDbSymbolTableRecord
100
AcDbRegAppTableRecord
  2
ACAD
 70
     0
  0
APPID
  5
9E
330
9
100
AcDbSymbolTableRecord
100
AcDbRegAppTableRecord
  2
ACAD_PSEXT
 70
     0
  0
ENDTAB
  0
TABLE
  2
DIMSTYLE
  5
A
330
0
100
AcDbSymbolTable
 70
     2
100
AcDbDimStyleTable
 71
     1
340
27
  0
DIMSTYLE
105
27
330
A
100
AcDbSymbolTableRecord
100
AcDbDimStyleTableRecord
  2
ISO-25
 70
     0
 41
2.5
 42
0.625
 43
3.75
 44
1.25
 73
     0
 74
     0
 77
     1
 78
     8
140
2.5
141
2.5
143
0.03937007874016
147
0.625
171
     3
172
     1
271
     2
272
     2
274
     3
278
    44
283
     0
284
     8
340
11
  0
DIMSTYLE
105
10F
330
A
100
AcDbSymbolTableRecord
100
AcDbDimStyleTableRecord
  2
Standard
 70
     0
140
15.0
271
     1
272
     1
340
11
  0
ENDTAB
  0
TABLE
  2
BLOCK_RECORD
  5
1
330
0
100
AcDbSymbolTable
 70
     1
  0
BLOCK_RECORD
  5
1F
330
1
100
AcDbSymbolTableRecord
100
AcDbBlockTableRecord
  2
*Model_Space
340
22
 70
     0
280
     1
281
     0
  0
BLOCK_RECORD
  5
D2
330
1
100
AcDbSymbolTableRecord
100
AcDbBlockTableRecord
  2
*Paper_Space
340
D3
 70
     0
280
     1
281
     0
  0
BLOCK_RECORD
  5
D6
330
1
100
AcDbSymbolTableRecord
100
AcDbBlockTableRecord
  2
*Paper_Space0
340
D7
 70
     0
280
     1
281
     0
  0
ENDTAB
  0
ENDSEC
  0
SECTION
  2
BLOCKS
  0
BLOCK
  5
20
330
1F
100
AcDbEntity
  8
0
100
AcDbBlockBegin
  2
*Model_Space
 70
     0
 10
0.0
 20
0.0
 30
0.0
  3
*Model_Space
  1

  0
ENDBLK
  5
21
330
1F
100
AcDbEntity
  8
0
100
AcDbBlockEnd
  0
BLOCK
  5
D4
330
D2
100
AcDbEntity
 67
     1
  8
0
100
AcDbBlockBegin
  2
*Paper_Space
 70
     0
 10
0.0
 20
0.0
 30
0.0
  3
*Paper_Space
  1

  0
ENDBLK
  5
D5
330
D2
100
AcDbEntity
 67
     1
  8
0
100
AcDbBlockEnd
  0
BLOCK
  5
D8
330
D6
100
AcDbEntity
 67
     1
  8
0
100
AcDbBlockBegin
  2
*Paper_Space0
 70
     0
 10
0.0
 20
0.0
 30
0.0
  3
*Paper_Space0
  1

  0
ENDBLK
  5
D9
330
D6
100
AcDbEntity
 67
     1
  8
0
100
AcDbBlockEnd
  0
ENDSEC
  0
SECTION
  2
ENTITIES
  0
LWPOLYLINE
  5
134
330
1F
100
AcDbEntity
  8
0
 62
     6
100
AcDbPolyline
 90
       38
 70
     0
 43
0.0
 10
831.1814690753426
 20
1114.693056825208
 42
0.1046148231106418
 10
827.5590742717222
 20
1119.412776853918
 42
-0.9808484600247345
 10
822.3334992258942
 20
1126.119831195625
 42
-0.7032840232673202
 10
828.3213616814219
 20
1121.198273872798
 42
0.0447978445793481
 10
831.7339927486655
 20
1118.351601232566
 42
0.9526257995148984
 10
833.4699884353804
 20
1122.945080265164
 42
-0.7222152037550255
 10
833.089349516832
 20
1129.461019286325
 42
-0.7090456432701232
 10
837.1568400952428
 20
1124.312046304954
 42
0.445630047617703
 10
843.7214427427143
 20
1120.607107693085
 42
0.5612689328180501
 10
846.0071852034934
 20
1127.363586756144
 42
-0.678895130448307
 10
846.9556383261851
 20
1133.455272341293
 42
-0.7110969192367635
 10
850.7859334992435
 20
1128.128916697603
 42
0.2461157560093421
 10
851.4060811280842
 20
1124.410605803133
 42
0.2068122265091967
 10
857.0939303312089
 20
1124.544128711304
 42
0.3332756218915343
 10
858.2072801538206
 20
1128.118421010678
 42
-0.438304295955442
 10
857.1049930089694
 20
1133.849554760195
 42
-0.5030480994377361
 10
861.9628611896231
 20
1133.849554760195
 42
-0.269839304339615
 10
861.9795373309507
 20
1128.877603478365
 42
0.1311347486730674
 10
863.414883539478
 20
1125.363636389083
 42
0.050015971913263
 10
872.729677541055
 20
1126.574622082646
 42
-0.4590803480574374
 10
873.7051351915624
 20
1134.987570439894
 42
0.2158428164158309
 10
874.3818715572315
 20
1140.983086161797
 42
0.3333692647724309
 10
867.6444104945304
 20
1140.983086161797
 42
-0.3884827146578258
 10
864.9075334526614
 20
1138.246209119932
 42
-0.2514403234644286
 10
861.4007902036146
 20
1139.906271382078
 42
-0.3916744733104665
 10
863.4625255168257
 20
1146.417928829366
 42
-0.3422685665571666
 10
874.6263905518762
 20
1145.26708508787
 42
-0.2316128225933786
 10
871.3399829940362
 20
1159.822470396834
 42
-0.3648874332589114
 10
893.7473256971616
 20
1174.253851108416
 42
-0.4055296449543948
 10
906.4755314819532
 20
1161.903256533032
 42
-0.2909995265830692
 10
898.8347178716839
 20
1152.746683660471
 42
-0.5690124039925207
 10
892.3318729851498
 20
1157.488196304909
 42
-0.665984506762038
 10
898.5777840532874
 20
1159.35018043673
 42
0.4481032326131573
 10
900.3600727317872
 20
1164.222739937623
 42
0.3865496526985428
 10
888.4514431090984
 20
1166.831690043684
 42
0.3584187648676279
 10
881.3771263758871
 20
1148.394705386089
 42
0.1150592854865627
 10
892.1780776098939
 20
1128.134270053263
 42
-0.1596566878515163
 10
908.8252031580241
 20
1120.43934176749
  0
LWPOLYLINE
  5
135
330
1F
100
AcDbEntity
  8
0
 62
     6
100
AcDbPolyline
 90
       38
 70
     0
 43
0.0
 10
1110.24161024005
 20
1192.239458268729
 42
0.0780968705068267
 10
1110.308441051519
 20
1196.70181669258
 42
-0.9808484600247345
 10
1110.820839089288
 20
1205.18878674986
 42
-0.7032840232673202
 10
1112.060687250229
 20
1197.537708407165
 42
0.0447978445793481
 10
1112.739706321915
 20
1193.145837618763
 42
0.9526257995148984
 10
1117.078725762801
 20
1195.445107272114
 42
-0.7222152037550255
 10
1121.100276491609
 20
1200.586067984808
 42
-0.7090456432701232
 10
1120.748813080329
 20
1194.03374962877
 42
0.445630047617703
 10
1123.225638511799
 20
1186.914345593397
 42
0.5612689328180501
 10
1129.406957777396
 20
1190.473266787172
 42
-0.678895130448307
 10
1134.145376060482
 20
1194.417324186441
 42
-0.7110969192367635
 10
1133.49867527164
 20
1187.888694648359
 42
0.2461157560093421
 10
1131.506133970387
 20
1184.688663687207
 42
0.2068122265091967
 10
1135.862374011126
 20
1181.029069497694
 42
0.3332756218915343
 10
1139.060476648975
 20
1182.975156028818
 42
-0.438304295955442
 10
1142.021753367914
 20
1188.004248511409
 42
-0.5030480994377361
 10
1145.666941018081
 20
1184.793097587576
 42
-0.269839304339615
 10
1142.392892053399
 20
1181.051282383777
 42
0.1311347486730674
 10
1141.147124945903
 20
1177.465721373729
 42
0.050015971913263
 10
1148.937132512951
 20
1172.217135302518
 42
-0.4590803480574374
 10
1155.230216625893
 20
1177.885142892236
 42
0.2158428164158309
 10
1159.701177155109
 20
1181.936647899816
 42
0.3333692647724309
 10
1154.645603610091
 20
1186.390248432238
 42
-0.3884827146578258
 10
1150.78280722768
 20
1186.14571624086
 42
-0.2514403234644286
 10
1149.248795508979
 20
1189.709402952092
 42
-0.3916744733104665
 10
1155.100194903138
 20
1193.232691237571
 42
-0.3422685665571666
 10
1162.716467851355
 20
1184.98959047289
 42
-0.2316128225933786
 10
1169.871863067053
 20
1198.083865383543
 42
-0.3648874332589114
 10
1196.225050440193
 20
1194.100993111705
 42
-0.4203685106538126
 10
1197.419211716672
 20
1176.605200588525
 42
-0.3132431854984332
 10
1185.825784833408
 20
1174.599837104663
 42
-0.5690124039925207
 10
1184.08049722009
 20
1182.456229719755
 42
-0.665984506762038
 10
1189.998037360278
 20
1179.724726714516
 42
0.4481032326131573
 10
1194.556271507264
 20
1182.202808731813
 42
0.3865496526985428
 10
1187.344989565264
 20
1192.032330230808
 42
0.3584187648676279
 10
1169.849423785247
 20
1182.874080477525
 42
0.1150592854865627
 10
1164.561544280765
 20
1160.531651831986
 42
-0.1596566878515163
 10
1171.966504450019
 20
1143.753532890041
  0
LWPOLYLINE
  5
136
330
1F
100
AcDbEntity
  8
0
 62
     6
100
AcDbPolyline
 90
       15
 70
     0
 43
0.0
 10
1134.251479814881
 20
1100.840621862267
 42
0.3083086477331173
 10
1143.11376153812
 20
1129.037994693009
 42
0.269971171114098
 10
1129.973832335124
 20
1139.24887578907
 42
0.3781094034674404
 10
1122.818462566579
 20
1135.292132856333
 42
0.4284592863561723
 10
1125.143426229861
 20
1129.840108291569
 42
-0.6489650376810116
 10
1126.221664626054
 20
1124.483528582553
 42
-0.4487286760020087
 10
1116.290704650241
 20
1129.571979424652
 42
-0.29631312198713
 10
1121.911894636611
 20
1144.477224456166
 42
-0.2072828570657803
 10
1138.63460809166
 20
1146.013200068498
 42
-0.3242173596888072
 10
1151.112560511818
 20
1124.796103682181
 42
0.8225888918024285
 10
1158.499282141919
 20
1123.609455512165
 42
-1.68177398860707
 10
1163.045859592112
 20
1118.03440265456
 42
0.1491548097903512
 10
1154.326657565708
 20
1115.750346549189
 42
0.2750265382968227
 10
1149.996069343954
 20
1108.442451645508
 42
0.3042938646340437
 10
1153.160094718497
 20
1104.315067821517
 42
0.7620262344795253
  0
LWPOLYLINE
  5
137
330
1F
100
AcDbEntity
  8
0
 62
     6
100
AcDbPolyline
 90
       38
 70
     0
 43
0.0
 10
1022.155438800769
 20
1070.372942277669
 42
-0.0989832676586561
 10
1027.247269468212
 20
1072.788382441125
 42
0.9808484600247345
 10
1034.914980236911
 20
1076.462266498882
 42
0.7032840232673202
 10
1027.360960827883
 20
1074.726462928141
 42
-0.0447978445793481
 10
1023.037122382059
 20
1073.699809619462
 42
-0.9526257995148984
 10
1023.531113109265
 20
1078.585472707384
 42
0.7222152037550255
 10
1026.776831227592
 20
1084.248304261488
 42
0.7090456432701232
 10
1020.840381784704
 20
1081.452777409485
 42
-0.445630047617703
 10
1013.312517266434
 20
1081.063118800678
 42
-0.5612689328180501
 10
1014.278750413276
 20
1088.130014967495
 42
0.678895130448307
 10
1016.145629890224
 20
1094.005638986504
 42
0.7110969192367635
 10
1010.342415710188
 20
1090.945584945083
 42
-0.2461157560093421
 10
1008.129575853968
 20
1087.893739804814
 42
-0.2068122265091967
 10
1003.097810339915
 20
1090.549072690923
 42
-0.3332756218915343
 10
1003.694758263785
 20
1094.24484953011
 42
0.438304295955442
 10
1007.236546639765
 20
1098.88345558197
 42
0.5030480994377361
 10
1002.888183236287
 20
1101.049239267356
 42
0.269839304339615
 10
1000.656610766576
 20
1096.606192795055
 42
-0.1311347486730674
 10
997.8051749098712
 20
1094.100699430862
 42
-0.050015971913263
 10
990.0072325038099
 20
1099.337489275159
 42
0.4590803480574374
 10
992.8848284840105
 20
1107.302955932195
 42
-0.2158428164158309
 10
994.9520510014307
 20
1112.971357112746
 42
-0.3333692647724309
 10
1000.982871111807
 20
1109.967594411103
 42
0.3884827146578258
 10
1002.212515906668
 20
1106.29758547882
 42
0.2514403234644286
 10
1006.091569243003
 20
1106.220124890057
 42
0.3916744733104665
 10
1007.149166297827
 20
1112.968007793768
 42
0.3422685665571666
 10
996.6431132594053
 20
1116.915053954163
 42
0.2316128225933786
 10
1006.074062944816
 20
1128.478656513912
 42
0.3648874332589114
 10
992.450799073592
 20
1151.386306715372
 42
0.4055296449543948
 10
975.5512914274778
 20
1146.005688703972
 42
0.2909995265830692
 10
978.3084428437332
 20
1134.402974561786
 42
0.5690124039925207
 10
986.2431627700615
 20
1135.748022317995
 42
0.665984506762038
 10
981.4824662268556
 20
1140.199332058045
 42
-0.4481032326131573
 10
982.0594417446891
 20
1145.355443798018
 42
-0.3865496526985428
 10
993.8822143430343
 20
1142.381535891875
 42
-0.3584187648676279
 10
991.994797836266
 20
1122.724322980678
 42
-0.1150592854865627
 10
973.2939648797083
 20
1109.40423911586
 42
0.1596566878515163
 10
954.9621991058275
 20
1109.938162284219
  0
LWPOLYLINE
  5
138
330
1F
100
AcDbEntity
  8
0
 62
     5
100
AcDbPolyline
 90
        2
 70
     0
 43
0.0
 10
824.6788931910606
 20
713.020356042874
 10
824.6788931910606
 20
383.0215622087376
  0
LWPOLYLINE
  5
139
330
1F
100
AcDbEntity
  8
0
 62
     6
100
AcDbPolyline
 90
       38
 70
     0
 43
0.0
 10
1770.164863286704
 20
1114.693056825208
 42
-0.1046148231106418
 10
1773.787258090325
 20
1119.412776853918
 42
0.9808484600247345
 10
1779.012833136167
 20
1126.119831195625
 42
0.7032840232673202
 10
1773.024970680625
 20
1121.198273872798
 42
-0.0447978445793481
 10
1769.612339613382
 20
1118.351601232566
 42
-0.9526257995148984
 10
1767.876343926667
 20
1122.945080265164
 42
0.7222152037550255
 10
1768.256982845215
 20
1129.461019286325
 42
0.7090456432701232
 10
1764.189492266804
 20
1124.312046304954
 42
-0.445630047617703
 10
1757.624889619347
 20
1120.607107693085
 42
-0.5612689328180501
 10
1755.339147158554
 20
1127.363586756144
 42
0.678895130448307
 10
1754.390694035862
 20
1133.455272341293
 42
0.7110969192367635
 10
1750.560398862803
 20
1128.128916697603
 42
-0.2461157560093421
 10
1749.940251233963
 20
1124.410605803133
 42
-0.2068122265091967
 10
1744.252402030838
 20
1124.544128711304
 42
-0.3332756218915343
 10
1743.139052208226
 20
1128.118421010678
 42
0.438304295955442
 10
1744.241339353077
 20
1133.849554760195
 42
0.5030480994377361
 10
1739.383471172424
 20
1133.849554760195
 42
0.269839304339615
 10
1739.366795031096
 20
1128.877603478365
 42
-0.1311347486730674
 10
1737.931448822569
 20
1125.363636389083
 42
-0.050015971913263
 10
1728.616654820992
 20
1126.574622082646
 42
0.4590803480574374
 10
1727.641197170484
 20
1134.987570439894
 42
-0.2158428164158309
 10
1726.964460804816
 20
1140.983086161797
 42
-0.3333692647724309
 10
1733.701921867531
 20
1140.983086161797
 42
0.3884827146578258
 10
1736.438798909385
 20
1138.246209119932
 42
0.2514403234644286
 10
1739.945542158432
 20
1139.906271382078
 42
0.3916744733104665
 10
1737.883806845221
 20
1146.417928829366
 42
0.3422685665571666
 10
1726.719941810171
 20
1145.26708508787
 42
0.2316128225933786
 10
1730.006349368011
 20
1159.822470396834
 42
0.3648874332589114
 10
1707.5990066649
 20
1174.253851108416
 42
0.4055296449543948
 10
1694.870800880094
 20
1161.903256533032
 42
0.2909995265830692
 10
1702.511614490363
 20
1152.746683660471
 42
0.5690124039925207
 10
1709.014459376897
 20
1157.488196304909
 42
0.665984506762038
 10
1702.76854830876
 20
1159.35018043673
 42
-0.4481032326131573
 10
1700.98625963026
 20
1164.222739937623
 42
-0.3865496526985428
 10
1712.894889252949
 20
1166.831690043684
 42
-0.3584187648676279
 10
1719.96920598616
 20
1148.394705386089
 42
-0.1150592854865627
 10
1709.168254752153
 20
1128.134270053263
 42
0.1596566878515163
 10
1692.521129204023
 20
1120.43934176749
  0
LWPOLYLINE
  5
13A
330
1F
100
AcDbEntity
  8
0
 62
     6
100
AcDbPolyline
 90
       38
 70
     0
 43
0.0
 10
1491.104722121997
 20
1192.239458268729
 42
-0.0780968705068267
 10
1491.037891310528
 20
1196.70181669258
 42
0.9808484600247345
 10
1490.525493272774
 20
1205.18878674986
 42
0.7032840232673202
 10
1489.285645111818
 20
1197.537708407165
 42
-0.0447978445793481
 10
1488.606626040132
 20
1193.145837618763
 42
-0.9526257995148984
 10
1484.267606599246
 20
1195.445107272114
 42
0.7222152037550255
 10
1480.246055870438
 20
1200.586067984808
 42
0.7090456432701232
 10
1480.597519281718
 20
1194.03374962877
 42
-0.445630047617703
 10
1478.120693850248
 20
1186.914345593397
 42
-0.5612689328180501
 10
1471.939374584651
 20
1190.473266787172
 42
0.678895130448307
 10
1467.200956301564
 20
1194.417324186441
 42
0.7110969192367635
 10
1467.847657090421
 20
1187.888694648359
 42
-0.2461157560093421
 10
1469.84019839166
 20
1184.688663687207
 42
-0.2068122265091967
 10
1465.483958350921
 20
1181.029069497694
 42
-0.3332756218915343
 10
1462.285855713072
 20
1182.975156028818
 42
0.438304295955442
 10
1459.324578994133
 20
1188.004248511409
 42
0.5030480994377361
 10
1455.679391343966
 20
1184.793097587576
 42
0.269839304339615
 10
1458.953440308648
 20
1181.051282383777
 42
-0.1311347486730674
 10
1460.199207416158
 20
1177.465721373729
 42
-0.050015971913263
 10
1452.409199849095
 20
1172.217135302518
 42
0.4590803480574374
 10
1446.116115736154
 20
1177.885142892236
 42
-0.2158428164158309
 10
1441.645155206938
 20
1181.936647899816
 42
-0.3333692647724309
 10
1446.700728751956
 20
1186.390248432238
 42
0.3884827146578258
 10
1450.563525134367
 20
1186.14571624086
 42
0.2514403234644286
 10
1452.097536853068
 20
1189.709402952092
 42
0.3916744733104665
 10
1446.246137458908
 20
1193.232691237571
 42
0.3422685665571666
 10
1438.629864510692
 20
1184.98959047289
 42
0.2316128225933786
 10
1431.474469294994
 20
1198.083865383543
 42
0.3648874332589114
 10
1405.121281921853
 20
1194.100993111705
 42
0.4203685106538126
 10
1403.927120645389
 20
1176.605200588525
 42
0.3132431854984332
 10
1415.520547528639
 20
1174.599837104663
 42
0.5690124039925207
 10
1417.265835141957
 20
1182.456229719755
 42
0.665984506762038
 10
1411.348295001783
 20
1179.724726714516
 42
-0.4481032326131573
 10
1406.790060854783
 20
1182.202808731813
 42
-0.3865496526985428
 10
1414.001342796783
 20
1192.032330230808
 42
-0.3584187648676279
 10
1431.4969085768
 20
1182.874080477525
 42
-0.1150592854865627
 10
1436.784788081281
 20
1160.531651831986
 42
0.1596566878515163
 10
1429.379827912028
 20
1143.753532890041
  0
LWPOLYLINE
  5
13B
330
1F
100
AcDbEntity
  8
0
 62
     6
100
AcDbPolyline
 90
       15
 70
     0
 43
0.0
 10
1467.094852547166
 20
1100.840621862267
 42
-0.3083086477331173
 10
1458.232570823927
 20
1129.037994693009
 42
-0.269971171114098
 10
1471.372500026923
 20
1139.24887578907
 42
-0.3781094034674404
 10
1478.527869795468
 20
1135.292132856333
 42
-0.4284592863561723
 10
1476.202906132185
 20
1129.840108291569
 42
0.6489650376810116
 10
1475.124667736008
 20
1124.483528582553
 42
0.4487286760020087
 10
1485.055627711806
 20
1129.571979424652
 42
0.29631312198713
 10
1479.434437725435
 20
1144.477224456166
 42
0.2072828570657803
 10
1462.711724270387
 20
1146.013200068498
 42
0.3242173596888072
 10
1450.233771850228
 20
1124.796103682181
 42
-0.8225888918024285
 10
1442.847050220128
 20
1123.609455512165
 42
1.68177398860707
 10
1438.300472769934
 20
1118.03440265456
 42
-0.1491548097903512
 10
1447.019674796339
 20
1115.750346549189
 42
-0.2750265382968227
 10
1451.350263018107
 20
1108.442451645508
 42
-0.3042938646340437
 10
1448.18623764355
 20
1104.315067821517
 42
-0.7620262344795253
  0
LWPOLYLINE
  5
13C
330
1F
100
AcDbEntity
  8
0
 62
     6
100
AcDbPolyline
 90
       38
 70
     0
 43
0.0
 10
1579.190893561278
 20
1070.372942277669
 42
0.0989832676586561
 10
1574.099062893835
 20
1072.788382441125
 42
-0.9808484600247345
 10
1566.431352125136
 20
1076.462266498882
 42
-0.7032840232673202
 10
1573.985371534164
 20
1074.726462928141
 42
0.0447978445793481
 10
1578.309209979988
 20
1073.699809619462
 42
0.9526257995148984
 10
1577.815219252782
 20
1078.585472707384
 42
-0.7222152037550255
 10
1574.569501134455
 20
1084.248304261488
 42
-0.7090456432701232
 10
1580.505950577343
 20
1081.452777409485
 42
0.445630047617703
 10
1588.033815095627
 20
1081.063118800678
 42
0.5612689328180501
 10
1587.067581948771
 20
1088.130014967495
 42
-0.678895130448307
 10
1585.200702471823
 20
1094.005638986504
 42
-0.7110969192367635
 10
1591.003916651859
 20
1090.945584945083
 42
0.2461157560093421
 10
1593.216756508079
 20
1087.893739804814
 42
0.2068122265091967
 10
1598.248522022132
 20
1090.549072690923
 42
0.3332756218915343
 10
1597.651574098262
 20
1094.24484953011
 42
-0.438304295955442
 10
1594.109785722282
 20
1098.88345558197
 42
-0.5030480994377361
 10
1598.45814912576
 20
1101.049239267356
 42
-0.269839304339615
 10
1600.689721595471
 20
1096.606192795055
 42
0.1311347486730674
 10
1603.541157452176
 20
1094.100699430862
 42
0.050015971913263
 10
1611.339099858237
 20
1099.337489275159
 42
-0.4590803480574374
 10
1608.461503878037
 20
1107.302955932195
 42
0.2158428164158309
 10
1606.394281360616
 20
1112.971357112746
 42
0.3333692647724309
 10
1600.36346125024
 20
1109.967594411103
 42
-0.3884827146578258
 10
1599.133816455379
 20
1106.29758547882
 42
-0.2514403234644286
 10
1595.254763119044
 20
1106.220124890057
 42
-0.3916744733104665
 10
1594.19716606422
 20
1112.968007793768
 42
-0.3422685665571666
 10
1604.703219102642
 20
1116.915053954163
 42
-0.2316128225933786
 10
1595.272269417231
 20
1128.478656513912
 42
-0.3648874332589114
 10
1608.895533288455
 20
1151.386306715372
 42
-0.4055296449543948
 10
1625.795040934569
 20
1146.005688703972
 42
-0.2909995265830692
 10
1623.037889518314
 20
1134.402974561786
 42
-0.5690124039925207
 10
1615.103169591985
 20
1135.748022317995
 42
-0.665984506762038
 10
1619.863866135191
 20
1140.199332058045
 42
0.4481032326131573
 10
1619.286890617358
 20
1145.355443798018
 42
0.3865496526985428
 10
1607.464118019013
 20
1142.381535891875
 42
0.3584187648676279
 10
1609.351534525781
 20
1122.724322980678
 42
0.1150592854865627
 10
1628.052367482339
 20
1109.40423911586
 42
-0.1596566878515163
 10
1646.384133256234
 20
1109.938162284219
  0
LWPOLYLINE
  5
13D
330
1F
100
AcDbEntity
  8
0
 62
     5
100
AcDbPolyline
 90
        2
 70
     0
 43
0.0
 10
1776.667439170986
 20
713.020356042874
 10
1776.667439170986
 20
383.0215622087376
  0
LWPOLYLINE
  5
13E
330
1F
100
AcDbEntity
  8
0
 62
     5
100
AcDbPolyline
 90
        8
 70
     1
 43
0.0
 10
1623.669354290968
 20
1073.225527482176
 42
-0.2079060640936822
 10
1742.817047346344
 20
1094.551463589317
 42
-0.3534264649177163
 10
1857.211703286714
 20
927.1543721545098
 42
-0.1256834989456381
 10
1815.120035195073
 20
790.1476873750375
 42
-1.059832482507864
 10
1809.15141873308
 20
792.8258915115161
 42
0.1153005692716063
 10
1834.12532883266
 20
933.8943584009697
 42
0.3725265700610103
 10
1689.821732998801
 20
1072.363802903682
 42
0.1097281095408462
 10
1625.851991945577
 20
1065.921718290689
 42
-0.8336663486127219
  0
LWPOLYLINE
  5
13F
330
1F
100
AcDbEntity
  8
0
 62
     5
100
AcDbPolyline
 90
       14
 70
     1
 43
0.0
 10
1418.147929887874
 20
1107.853879968699
 42
-0.014092273213839
 10
1436.241851581221
 20
1125.028766180343
 42
-0.0139066477393482
 10
1436.411385055054
 20
1125.180761542622
 42
-0.0268690043903353
 10
1473.469596771542
 20
1154.960233097537
 42
-0.1671651963109961
 10
1606.641976050702
 20
1196.642438662099
 42
-0.2331176838855292
 10
1663.897043069
 20
1170.954856789812
 42
-0.1722215866765504
 10
1667.598721328167
 20
1136.483855559808
 42
-0.2633826421673188
 10
1639.635556925573
 20
1107.231009992514
 42
0.1236056979396302
 10
1574.523137988236
 20
1065.628506033067
 42
-0.1572973056048451
 10
1540.807613029309
 20
1053.629142580382
 42
-0.3504559272439005
 10
1512.139519340756
 20
1079.711724262211
 42
0.9960845994313615
 10
1528.800482096737
 20
1114.496474338737
 42
0.4971070747237155
 10
1490.163746672934
 20
1087.885176592979
 42
0.2700955954421576
 10
1421.197525580011
 20
1100.110891473755
 42
-0.7315502274220305
  0
LWPOLYLINE
  5
140
330
1F
100
AcDbEntity
  8
0
 62
     5
100
AcDbPolyline
 90
       70
 70
     1
 43
0.0
 10
1049.66161221515
 20
1034.04804212698
 42
0.0989285092201481
 10
1079.804831592516
 20
1037.482200191238
 42
0.1551284952624726
 10
1103.505447828899
 20
1057.696078530971
 42
-0.1908175283063258
 10
1144.615168665525
 20
1083.233273588682
 42
-0.2339585748171646
 10
1183.109382248226
 20
1072.813586745295
 42
-0.3217194930372842
 10
1189.000581825942
 20
1025.323391149658
 42
0.501667206331627
 10
1160.927563583876
 20
1025.323391149658
 42
0.6650745600239313
 10
1181.778214039868
 20
998.7242944622925
 42
0.002867532809734
 10
1183.698865832489
 20
999.3674735634517
 42
0.3242109194642129
 10
1212.819642195584
 20
1054.016573959573
 42
-0.6289054856005496
 10
1215.899919200533
 20
1056.324349396805
 42
0.3093696704557635
 10
1265.873594618174
 20
1032.522965988306
 42
-0.0036732972503902
 10
1268.219548148369
 20
1032.949610888311
 42
0.146392902639106
 10
1295.109738683944
 20
1047.404267283474
 42
0.1196002520954271
 10
1300.673166181023
 20
1060.317001332507
 42
-0.0845727576901885
 10
1300.673166181023
 20
1070.330000751658
 42
0.1562614196506175
 10
1292.293980256193
 20
1086.473765013679
 42
1.04365603768371
 10
1269.178520825128
 20
1062.656093791413
 42
0.1737893208174905
 10
1277.432024054947
 20
1058.538897198949
 42
-0.3132170399955443
 10
1244.855162644167
 20
1058.538897198949
 42
-0.1224282473867476
 10
1217.40164469522
 20
1113.670136134544
 42
-0.2151918067094172
 10
1233.029053834402
 20
1161.531034949779
 42
-0.3740815283563156
 10
1267.125125246723
 20
1167.673288643469
 42
-0.2398207045010757
 10
1271.772503036297
 20
1149.255040730682
 42
0.8365778592823092
 10
1253.024597520566
 20
1131.125907343148
 42
0.6780295997332821
 10
1300.673166181023
 20
1139.192936740453
 42
0.6780295997332941
 10
1348.321734841481
 20
1131.125907343148
 42
0.8365778592822815
 10
1329.57382932575
 20
1149.255040730682
 42
-0.2398207045010765
 10
1334.221207115323
 20
1167.673288643469
 42
-0.3740815283562664
 10
1368.317278527644
 20
1161.531034949782
 42
-0.2151918067094332
 10
1383.944687666827
 20
1113.670136134545
 42
-0.1224282473867492
 10
1356.49116971788
 20
1058.538897198949
 42
-0.3132170399955389
 10
1323.9143083071
 20
1058.538897198949
 42
0.1737893208175048
 10
1332.167811536933
 20
1062.656093791414
 42
1.043656037683732
 10
1309.052352105854
 20
1086.473765013678
 42
0.1562614196506092
 10
1300.673166181023
 20
1070.330000751658
 42
-0.0845727576901875
 10
1300.673166181023
 20
1060.317001332507
 42
0.1196002520954307
 10
1306.236593678103
 20
1047.404267283474
 42
0.1463929026391012
 10
1333.126784213678
 20
1032.949610888311
 42
-0.0036732972503867
 10
1335.472737743873
 20
1032.522965988307
 42
0.30936967045578
 10
1385.446413161514
 20
1056.324349396804
 42
-0.6289054856004981
 10
1388.526690166463
 20
1054.016573959573
 42
0.3242109194642095
 10
1417.647466529558
 20
999.3674735634517
 42
0.0028675328097371
 10
1419.568118322179
 20
998.7242944622916
 42
0.6650745600239114
 10
1440.418768778171
 20
1025.323391149658
 42
0.501667206331627
 10
1412.345750536105
 20
1025.323391149658
 42
-0.321719493037296
 10
1418.236950113821
 20
1072.813586745296
 42
-0.2339585748171483
 10
1456.731163696521
 20
1083.233273588682
 42
-0.1908175283063344
 10
1497.840884533148
 20
1057.69607853097
 42
0.1551284952624665
 10
1521.541500769531
 20
1037.482200191238
 42
0.0989285092201474
 10
1551.684720146896
 20
1034.04804212698
 42
-0.9024026763450551
 10
1554.271210706303
 20
1027.590093009567
 42
-0.063439058617406
 10
1483.066705557085
 20
999.4306425693444
 42
-0.0740386237081931
 10
1434.228558063788
 20
994.5994612176132
 42
-0.0215709156537359
 10
1419.568118322179
 20
998.7242944622925
 42
-0.0276557461969502
 10
1417.647466529573
 20
999.3674735634499
 42
-0.0531451436514918
 10
1383.700980257276
 20
1015.144562903613
 42
0.0794711677321483
 10
1335.472737743887
 20
1032.522965988306
 42
-0.0121645575376076
 10
1333.126784213678
 20
1032.94961088831
 42
0.025315232871407
 10
1316.82623327422
 20
1034.947075303159
 42
-0.0029926994325631
 10
1300.673166181023
 20
1035.97816524243
 42
-0.0029926994325597
 10
1284.520099087841
 20
1034.947075303161
 42
0.0253152328714298
 10
1268.219548148369
 20
1032.94961088831
 42
-0.01216455753763
 10
1265.873594618174
 20
1032.522965988306
 42
0.0794711677321477
 10
1217.64535210477
 20
1015.144562903613
 42
-0.0531451436514886
 10
1183.698865832489
 20
999.3674735634508
 42
-0.0276557461970023
 10
1181.778214039868
 20
998.7242944622925
 42
-0.0215709156537336
 10
1167.117774298259
 20
994.5994612176132
 42
-0.0740386237082239
 10
1118.279626804947
 20
999.4306425693498
 42
-0.0634390586173872
 10
1047.075121655759
 20
1027.590093009566
 42
-0.9024026763451606
  0
LWPOLYLINE
  5
141
330
1F
100
AcDbEntity
  8
0
 62
     5
100
AcDbPolyline
 90
        8
 70
     1
 43
0.0
 10
975.4943404164706
 20
1065.921718290689
 42
0.1097281095408444
 10
911.5245993632461
 20
1072.363802903682
 42
0.3725265700610065
 10
767.2210035293874
 20
933.8943584009726
 42
0.1153005692716098
 10
792.1949136289668
 20
792.8258915115152
 42
-1.059832482507688
 10
786.2262971669888
 20
790.1476873750375
 42
-0.1256834989456423
 10
744.1346290753326
 20
927.1543721545144
 42
-0.3534264649177085
 10
858.529285015703
 20
1094.551463589317
 42
-0.2079060640936819
 10
977.6769780710791
 20
1073.225527482176
 42
-0.8336663486126493
  0
LWPOLYLINE
  5
142
330
1F
100
AcDbEntity
  8
0
 62
     5
100
AcDbPolyline
 90
       14
 70
     1
 43
0.0
 10
1026.823194373811
 20
1065.628506033067
 42
0.1236056979396308
 10
961.7107754364742
 20
1107.231009992514
 42
-0.2633826421673366
 10
933.7476110338803
 20
1136.483855559811
 42
-0.1722215866765336
 10
937.4492892930474
 20
1170.954856789812
 42
-0.2331176838855373
 10
994.7043563113448
 20
1196.642438662098
 42
-0.1671651963109961
 10
1127.876735590519
 20
1154.960233097536
 42
-0.0268690043903376
 10
1164.934947307008
 20
1125.180761542617
 42
-0.0139066477396275
 10
1165.104480780826
 20
1125.028766180336
 42
-0.0140922732138332
 10
1183.198402474173
 20
1107.853879968699
 42
-0.7315502274220042
 10
1180.148806782036
 20
1100.110891473755
 42
0.2700955954421556
 10
1111.182585689113
 20
1087.885176592979
 42
0.4971070747237241
 10
1072.54585026531
 20
1114.496474338737
 42
0.996084599431284
 10
1089.206813021291
 20
1079.711724262211
 42
-0.3504559272439061
 10
1060.538719332752
 20
1053.629142580382
 42
-0.157297305604844
  0
LWPOLYLINE
  5
143
330
1F
100
AcDbEntity
  8
0
 62
     5
100
AcDbPolyline
 90
       15
 70
     0
 43
0.0
 10
854.66531024702
 20
713.020356042874
 42
-0.0945166568736348
 10
796.2960620012209
 20
826.3129998155314
 42
-0.1912405992605234
 10
817.8819936339905
 20
991.609939724934
 42
-0.2767204102489439
 10
938.037012165053
 20
1045.488698907331
 42
-0.1550482609906073
 10
1013.685651008204
 20
1018.322723544007
 42
0.081021171114005
 10
1117.78458888298
 20
975.6089595766129
 42
0.1669086050149734
 10
1211.749350648581
 20
983.0708820796457
 42
-0.1268385957937206
 10
1300.673166181023
 20
1011.784749133575
 42
-0.1268385957937205
 10
1389.596981713465
 20
983.0708820796457
 42
0.166908605014973
 10
1483.561743479066
 20
975.6089595766129
 42
0.0810211711140046
 10
1587.660681353843
 20
1018.322723544006
 42
-0.1550482609906087
 10
1663.309320197009
 20
1045.488698907331
 42
-0.2767204102489432
 10
1783.464338728057
 20
991.609939724934
 42
-0.1912405992605257
 10
1805.050270360826
 20
826.3129998155296
 42
-0.0945166568736338
 10
1746.681022115027
 20
713.020356042874
  0
LWPOLYLINE
  5
144
330
1F
100
AcDbEntity
  8
0
 62
     5
100
AcDbPolyline
 90
       53
 70
     0
 43
0.0
 10
1776.667439170986
 20
713.020356042874
 42
0.1090413642314315
 10
1877.500693892992
 20
881.9942294058504
 42
0.2599093939621602
 10
1839.405256741495
 20
1072.752395224537
 42
0.2428681622737359
 10
1690.583973433288
 20
1120.121576986261
 42
-0.6201316179187334
 10
1685.978882179193
 20
1124.554069070879
 42
0.1857762017254772
 10
1694.8844067371
 20
1161.802053624681
 42
-0.0022971410567917
 10
1694.870800880094
 20
1161.903256533018
 42
0.1817452768105565
 10
1677.074978625654
 20
1194.935059239296
 42
0.1836246861031082
 10
1607.218654106594
 20
1223.289264475911
 42
0.1815522674872598
 10
1464.066638620415
 20
1172.916856085736
 42
0.0653426378423481
 10
1413.953661676821
 20
1126.89940448089
 42
-0.9989616689648709
 10
1410.748078739013
 20
1128.779988398135
 42
0.1856553681943047
 10
1399.82547072975
 20
1182.782288043064
 42
0.0817329393833555
 10
1369.50632542071
 20
1218.231123835752
 42
-0.2788711449820655
 10
1366.296588395145
 20
1225.820592757479
 42
-1.039005071312988
 10
1372.643644859335
 20
1224.876261008154
 42
0.8702141681681048
 10
1386.136605901299
 20
1257.132291475625
 42
0.3560691227893582
 10
1357.366247955845
 20
1252.802220802321
 42
0.1988159632542642
 10
1347.649236334769
 20
1225.742705763313
 42
-0.0223591710734978
 10
1347.77298344304
 20
1224.002099039401
 42
0.0603960281036731
 10
1349.701551645868
 20
1215.163794701748
 42
0.1441469122337817
 10
1361.466391068189
 20
1198.747080769804
 42
-1.013934730066194
 10
1359.614876265991
 20
1195.042553826988
 42
0.2027376795393278
 10
1322.885670434863
 20
1189.883294649616
 42
0.0199988839207808
 10
1319.699963310621
 20
1187.797940855211
 42
0.1200461092480783
 10
1304.96933519912
 20
1170.737892141454
 42
0.0677831051460605
 10
1300.673166181023
 20
1156.739001365068
 42
0.0677831051460515
 10
1296.376997162942
 20
1170.737892141452
 42
0.120046109248088
 10
1281.646369051425
 20
1187.797940855211
 42
0.0199988839207805
 10
1278.460661927184
 20
1189.883294649616
 42
0.2027376795393295
 10
1241.731456096056
 20
1195.042553826989
 42
-1.013934730066194
 10
1239.879941293858
 20
1198.747080769804
 42
0.1441469122337091
 10
1251.644780716179
 20
1215.163794701738
 42
0.0603960281037434
 10
1253.573348919007
 20
1224.002099039401
 42
-0.0223591710734949
 10
1253.697096027278
 20
1225.742705763313
 42
0.1988159632542753
 10
1243.980084406202
 20
1252.802220802321
 42
0.3560691227893903
 10
1215.209726460748
 20
1257.132291475623
 42
0.8702141681680235
 10
1228.702687502712
 20
1224.876261008154
 42
-1.039005071312248
 10
1235.049743966902
 20
1225.820592757479
 42
-0.2788711449819672
 10
1231.840006941337
 20
1218.231123835754
 42
0.0817329393833514
 10
1201.520861632297
 20
1182.782288043068
 42
0.1856553681943192
 10
1190.598253623034
 20
1128.779988398136
 42
-0.9989616689526897
 10
1187.392670685241
 20
1126.89940448089
 42
0.0653426378423478
 10
1137.279693741632
 20
1172.916856085735
 42
0.1815522674872383
 10
994.1276782554679
 20
1223.289264475912
 42
0.1836246861031548
 10
924.2713537363934
 20
1194.935059239295
 42
0.1817452768104558
 10
906.4755314819532
 20
1161.903256533038
 42
-0.0022971410577495
 10
906.461925624947
 20
1161.802053624659
 42
0.1857762017253694
 10
915.3674501828545
 20
1124.554069070879
 42
-0.6201316179187334
 10
910.7623589287586
 20
1120.121576986261
 42
0.2428681622737371
 10
761.9410756205516
 20
1072.752395224536
 42
0.2599093939621646
 10
723.8456384690553
 20
881.994229405846
 42
0.1090413642314291
 10
824.6788931910606
 20
713.020356042874
  0
LWPOLYLINE
  5
145
330
1F
100
AcDbEntity
  8
0
 62
     6
100
AcDbPolyline
 90
      104
 70
     1
 43
0.0
 10
1318.403913320585
 20
1231.067247390396
 42
-0.3769831775947016
 10
1317.647406840454
 20
1234.322981241053
 42
0.5087180677212594
 10
1318.703401475116
 20
1238.217314903335
 42
0.409290174678471
 10
1315.462030820218
 20
1238.607062351249
 42
0.4663088520881416
 10
1315.483541735627
 20
1235.252024502333
 42
-0.5433217560888882
 10
1314.573002417809
 20
1232.471191028305
 42
-0.1283101418345666
 10
1307.690578702085
 20
1231.450836598078
 42
-0.3072759385627918
 10
1305.914054057172
 20
1233.334211096864
 42
0.5046611603545341
 10
1306.080821978355
 20
1238.843166630742
 42
0.3546751977140344
 10
1301.983039254836
 20
1238.944303858937
 42
0.7378595695450194
 10
1303.974513737184
 20
1233.192309298747
 42
-0.1582081186956991
 10
1302.387241054869
 20
1227.662362945731
 42
0.1051177269633803
 10
1300.673166181023
 20
1223.274489805111
 42
0.1051177269634054
 10
1298.959091307178
 20
1227.662362945734
 42
-0.1582081186956263
 10
1297.371818624863
 20
1233.192309298747
 42
0.7378595695453314
 10
1299.36329310721
 20
1238.944303858939
 42
0.3546751977138629
 10
1295.265510383692
 20
1238.843166630742
 42
0.5046611603544506
 10
1295.432278304875
 20
1233.334211096864
 42
-0.3072759385628933
 10
1293.655753659962
 20
1231.450836598078
 42
-0.1283101418345494
 10
1286.773329944238
 20
1232.471191028305
 42
-0.5433217560889988
 10
1285.862790626434
 20
1235.252024502333
 42
0.4663088520876532
 10
1285.884301541829
 20
1238.607062351247
 42
0.4092901746746173
 10
1282.64293088696
 20
1238.217314903362
 42
0.5087180677255486
 10
1283.698925521593
 20
1234.322981241053
 42
-0.3769831775946119
 10
1282.942419041462
 20
1231.067247390397
 42
0.1061969310644268
 10
1275.646183764275
 20
1221.45808543134
 42
0.1747130081757728
 10
1274.974149560284
 20
1225.847575845831
 42
-0.1632180759876155
 10
1273.194506267134
 20
1235.1017056094
 42
-0.4897809237736924
 10
1266.838998989017
 20
1239.302430329005
 42
0.2969118389936008
 10
1263.603183828153
 20
1245.292943487956
 42
0.7378031758934515
 10
1259.388135470643
 20
1239.836440561386
 42
0.4684971366035894
 10
1263.272094925608
 20
1239.647237682169
 42
-0.1126277022249114
 10
1263.985816366669
 20
1235.729729490281
 42
0.2879112594536601
 10
1254.327423790285
 20
1228.88615444285
 42
0.0411285906362002
 10
1253.697096027278
 20
1225.742705763312
 42
-0.011609446710498
 10
1253.573348919007
 20
1224.002099039404
 42
0.4011750602357795
 10
1271.702873294304
 20
1204.017861846436
 42
0.3082455949637588
 10
1272.732987116124
 20
1204.797453422659
 42
0.0904161261936552
 10
1275.518909993353
 20
1194.082164495857
 42
0.1096502773768249
 10
1278.460661927184
 20
1189.883294649615
 42
-0.0199988839207041
 10
1281.646369051425
 20
1187.797940855211
 42
0.4299843197935762
 10
1297.500755798396
 20
1194.393047047049
 42
0.1963696021399408
 10
1296.067029450719
 20
1209.721486241778
 42
0.9864069671730327
 10
1293.516332973876
 20
1208.335225967682
 42
-0.2007820570973136
 10
1295.242727944544
 20
1196.461090865408
 42
-0.2514012907696308
 10
1289.214282236532
 20
1191.513798455294
 42
-0.409669703302415
 10
1283.965074436336
 20
1194.094878539774
 42
-0.2092908357409486
 10
1285.238274158318
 20
1200.717873289715
 42
-0.2523770863428758
 10
1288.078321590456
 20
1201.809659281346
 42
-0.6615835298903403
 10
1288.733716254374
 20
1198.627872689179
 42
0.8016731873315599
 10
1286.174558915551
 20
1197.473695991255
 42
0.43203328377762
 10
1288.764932745505
 20
1195.88280636435
 42
0.3360567140085387
 10
1292.217411337527
 20
1200.530708509193
 42
0.4435134873250439
 10
1287.496803622435
 20
1205.048963911143
 42
0.170091739508479
 10
1283.174287826642
 20
1202.8341011761
 42
0.0953766778704148
 10
1281.503434421368
 20
1199.716819930032
 42
-0.7298260663700214
 10
1278.376880424916
 20
1199.06026356665
 42
-0.1659885594096828
 10
1276.939411988981
 20
1206.159858982895
 42
-0.1126947559344719
 10
1280.53946899252
 20
1218.574604180357
 42
-0.266870431351635
 10
1290.956526400191
 20
1225.624350381854
 42
-0.4614032438682323
 10
1296.776465545311
 20
1220.6482695995
 42
-0.4741631735049548
 10
1292.599136763155
 20
1216.734782826932
 42
0.93852797856698
 10
1288.818756695434
 20
1214.876542198889
 42
0.5172156519009162
 10
1296.696569526005
 20
1212.692830786856
 42
0.1816971190642028
 10
1300.673166181023
 20
1219.599332821875
 42
0.1816971190640226
 10
1304.649762836042
 20
1212.69283078686
 42
0.5172156519012147
 10
1312.527575666613
 20
1214.876542198887
 42
0.9385279785678001
 10
1308.747195598892
 20
1216.734782826932
 42
-0.4741631735049344
 10
1304.569866816736
 20
1220.6482695995
 42
-0.4614032438683033
 10
1310.389805961856
 20
1225.624350381854
 42
-0.2668704313516057
 10
1320.806863369526
 20
1218.574604180357
 42
-0.1126947559344731
 10
1324.406920373066
 20
1206.159858982895
 42
-0.1659885594101198
 10
1322.969451937116
 20
1199.060263566634
 42
-0.7298260663656371
 10
1319.842897940679
 20
1199.716819930032
 42
0.0953766778703922
 10
1318.172044535419
 20
1202.834101176099
 42
0.1700917395085075
 10
1313.849528739612
 20
1205.048963911143
 42
0.4435134873252512
 10
1309.12892102452
 20
1200.53070850919
 42
0.3360567140082307
 10
1312.581399616542
 20
1195.882806364351
 42
0.4320332837779199
 10
1315.171773446495
 20
1197.473695991255
 42
0.8016731873309536
 10
1312.612616107672
 20
1198.627872689179
 42
-0.6615835298904221
 10
1313.26801077159
 20
1201.809659281346
 42
-0.252377086343045
 10
1316.108058203729
 20
1200.717873289713
 42
-0.209290835740868
 10
1317.381257925711
 20
1194.094878539774
 42
-0.4096697033023544
 10
1312.132050125515
 20
1191.513798455294
 42
-0.2514012907696475
 10
1306.103604417502
 20
1196.461090865408
 42
-0.200782057097282
 10
1307.829999388171
 20
1208.33522596768
 42
0.9864069671805831
 10
1305.279302911328
 20
1209.721486241779
 42
0.1963696021400183
 10
1303.845576563651
 20
1194.393047047043
 42
0.4299843197934539
 10
1319.699963310621
 20
1187.797940855211
 42
-0.0199988839207041
 10
1322.885670434863
 20
1189.883294649616
 42
0.1096502773766645
 10
1325.827422368694
 20
1194.082164495851
 42
0.0904161261937111
 10
1328.613345245922
 20
1204.797453422659
 42
0.3082455949636017
 10
1329.643459067743
 20
1204.017861846436
 42
0.4011750602357873
 10
1347.77298344304
 20
1224.002099039404
 42
-0.0116094467105132
 10
1347.649236334769
 20
1225.742705763313
 42
0.0411285906361632
 10
1347.018908571762
 20
1228.886154442849
 42
0.2879112594536768
 10
1337.360515995378
 20
1235.729729490281
 42
-0.1126277022249146
 10
1338.074237436439
 20
1239.647237682169
 42
0.4684971366030421
 10
1341.958196891389
 20
1239.836440561382
 42
0.7378031758938905
 10
1337.743148533894
 20
1245.292943487956
 42
0.2969118389935644
 10
1334.50733337303
 20
1239.302430329006
 42
-0.4897809237737384
 10
1328.151826094928
 20
1235.1017056094
 42
-0.1632180759876857
 10
1326.372182801763
 20
1225.847575845828
 42
0.1747130081756282
 10
1325.700148597771
 20
1221.458085431339
 42
0.1061969310644223
  0
LWPOLYLINE
  5
146
330
1F
100
AcDbEntity
  8
0
 62
     6
100
AcDbPolyline
 90
       10
 70
     1
 43
0.0
 10
1271.849847901908
 20
1210.252522714341
 42
-0.0459208560696785
 10
1273.47556371689
 20
1216.376144418431
 42
-0.3540578947213384
 10
1270.223768164685
 20
1222.523507842453
 42
0.1691975679258566
 10
1270.129126761666
 20
1223.189278873902
 42
-0.0820019968772365
 10
1267.876467030718
 20
1229.423468010331
 42
-0.0036369596233725
 10
1267.777629894078
 20
1229.237493390432
 42
0.4608510691259341
 10
1259.547549452462
 20
1227.028358111238
 42
0.0320399643983678
 10
1259.206367504293
 20
1225.269426698865
 42
-0.0091765410875733
 10
1259.094164854124
 20
1223.691202447036
 42
0.3611784240440172
 10
1270.323277246342
 20
1209.770482096568
 42
-0.0728070693707061
  0
LWPOLYLINE
  5
147
330
1F
100
AcDbEntity
  8
0
 62
     2
100
AcDbPolyline
 90
        2
 70
     0
 43
0.0
 10
1190.823498267248
 20
1127.513025122888
 42
0.1307514878054647
 10
1215.899919200518
 20
1056.324349396792
 42
80.38168676272325
  0
LWPOLYLINE
  5
148
330
1F
100
AcDbEntity
  8
0
 62
     2
100
AcDbPolyline
 90
        2
 70
     0
 43
0.0
 10
1111.182585689113
 20
1087.885176592966
 42
-0.1551284952627395
 10
1103.505447828914
 20
1057.696078530992
 42
-5.510051327072055
  0
ARC
  5
149
330
1F
100
AcDbEntity
  8
0
 62
     2
100
AcDbCircle
 10
1267.421946835126
 20
1122.843469022994
 30
0.0
 40
76.74064814148407
100
AcDbArc
 50
110.3141823013676
 51
176.5114806955223
  0
LWPOLYLINE
  5
14A
330
1F
100
AcDbEntity
  8
0
 62
     2
100
AcDbPolyline
 90
        2
 70
     0
 43
0.0
 10
809.5461429205069
 20
756.9156454269182
 42
-0.011449637279413
 10
790.9511675102303
 20
788.4899958685105
 42
-0.3810162229380786
  0
LWPOLYLINE
  5
14B
330
1F
100
AcDbEntity
  8
0
 62
     2
100
AcDbPolyline
 90
        2
 70
     0
 43
0.0
 10
1410.522834094799
 20
1127.513025122888
 42
-0.1307514878054647
 10
1385.446413161529
 20
1056.324349396792
 42
-80.38168676272325
  0
LWPOLYLINE
  5
14C
330
1F
100
AcDbEntity
  8
0
 62
     2
100
AcDbPolyline
 90
        2
 70
     0
 43
0.0
 10
1490.163746672934
 20
1087.885176592966
 42
0.1551284952627395
 10
1497.840884533133
 20
1057.696078530992
 42
5.510051327072055
  0
ARC
  5
14D
330
1F
100
AcDbEntity
  8
0
 62
     2
100
AcDbCircle
 10
1333.92438552692
 20
1122.843469022994
 30
0.0
 40
76.74064814148407
100
AcDbArc
 50
3.488519304477655
 51
69.68581769863241
  0
LWPOLYLINE
  5
14E
330
1F
100
AcDbEntity
  8
0
 62
     2
100
AcDbPolyline
 90
        2
 70
     0
 43
0.0
 10
1791.80018944154
 20
756.9156454269182
 42
0.011449637279413
 10
1810.395164851817
 20
788.4899958685105
 42
0.3810162229380786
  0
LWPOLYLINE
  5
14F
330
1F
100
AcDbEntity
  8
0
 62
     6
100
AcDbPolyline
 90
       10
 70
     1
 43
0.0
 10
1329.496484460154
 20
1210.252522714341
 42
0.0459208560696785
 10
1327.870768645172
 20
1216.376144418431
 42
0.3540578947213384
 10
1331.122564197377
 20
1222.523507842453
 42
-0.1691975679258566
 10
1331.217205600395
 20
1223.189278873902
 42
0.0820019968772365
 10
1333.469865331343
 20
1229.423468010331
 42
0.0036369596233725
 10
1333.568702467984
 20
1229.237493390432
 42
-0.4608510691259341
 10
1341.798782909599
 20
1227.028358111238
 42
-0.0320399643983678
 10
1342.139964857769
 20
1225.269426698865
 42
0.0091765410875733
 10
1342.252167507938
 20
1223.691202447036
 42
-0.3611784240440172
 10
1331.023055115719
 20
1209.770482096568
 42
0.0728070693707061
  0
ENDSEC
  0
SECTION
  2
OBJECTS
  0
DICTIONARY
  5
C
330
0
100
AcDbDictionary
281
     1
  3
ACAD_COLOR
350
6B
  3
ACAD_GROUP
350
D
  3
ACAD_LAYOUT
350
1A
  3
ACAD_MATERIAL
350
6A
  3
ACAD_MLINESTYLE
350
17
  3
ACAD_PLOTSETTINGS
350
19
  3
ACAD_PLOTSTYLENAME
350
E
  3
ACAD_TABLESTYLE
350
7E
  3
ACAD_VISUALSTYLE
350
EF
  3
AcDbVariableDictionary
350
5E
  0
DICTIONARY
  5
110
330
2
100
AcDbDictionary
280
     1
281
     1
  3
ACAD_LAYERSTATES
360
111
  0
DICTIONARY
  5
6B
102
{ACAD_REACTORS
330
C
102
}
330
C
100
AcDbDictionary
281
     1
  0
DICTIONARY
  5
D
102
{ACAD_REACTORS
330
C
102
}
330
C
100
AcDbDictionary
281
     1
  0
DICTIONARY
  5
1A
102
{ACAD_REACTORS
330
C
102
}
330
C
100
AcDbDictionary
281
     1
  3
Layout1
350
D3
  3
Layout2
350
D7
  3
Model
350
22
  0
DICTIONARY
  5
6A
102
{ACAD_REACTORS
330
C
102
}
330
C
100
AcDbDictionary
281
     1
  3
ByBlock
350
ED
  3
ByLayer
350
EC
  3
Global
350
EE
  0
DICTIONARY
  5
17
102
{ACAD_REACTORS
330
C
102
}
330
C
100
AcDbDictionary
281
     1
  3
Standard
350
18
  0
DICTIONARY
  5
19
102
{ACAD_REACTORS
330
C
102
}
330
C
100
AcDbDictionary
281
     1
  0
ACDBDICTIONARYWDFLT
  5
E
102
{ACAD_REACTORS
330
C
102
}
330
C
100
AcDbDictionary
281
     1
  3
Normal
350
F
100
AcDbDictionaryWithDefault
340
F
  0
DICTIONARY
  5
7E
102
{ACAD_REACTORS
330
C
102
}
330
C
100
AcDbDictionary
281
     1
  3
Standard
350
7F
  0
DICTIONARY
  5
EF
102
{ACAD_REACTORS
330
C
102
}
330
C
100
AcDbDictionary
281
     1
  3
2dWireframe
350
F5
  3
3D Hidden
350
F7
  3
3dWireframe
350
F6
  3
Basic
350
F4
  3
Brighten
350
FB
  3
ColorChange
350
FF
  3
Conceptual
350
F8
  3
Dim
350
FA
  3
Facepattern
350
FE
  3
Flat
350
F0
  3
FlatWithEdges
350
F1
  3
Gouraud
350
F2
  3
GouraudWithEdges
350
F3
  3
Linepattern
350
FD
  3
Realistic
350
F9
  3
Thicken
350
FC
  0
DICTIONARY
  5
5E
102
{ACAD_REACTORS
330
C
102
}
330
C
100
AcDbDictionary
281
     1
  3
CTABLESTYLE
350
84
  3
DIMASSOC
350
5F
  3
HIDETEXT
350
63
  0
DICTIONARY
  5
111
102
{ACAD_REACTORS
330
110
102
}
330
110
100
AcDbDictionary
281
     1
  0
LAYOUT
  5
D3
102
{ACAD_REACTORS
330
1A
102
}
330
1A
100
AcDbPlotSettings
  1

  2
C:\\Documents and Settings\\basas\\Application Data\\Autodesk\\AutoCAD 2005\\R16.1\\enu\\plotters\\Default Windows System Printer.pc3
  4

  6

 40
0.0
 41
0.0
 42
0.0
 43
0.0
 44
0.0
 45
0.0
 46
0.0
 47
0.0
 48
0.0
 49
0.0
140
0.0
141
0.0
142
1.0
143
1.0
 70
   688
 72
     0
 73
     0
 74
     5
  7

 75
    16
147
1.0
 76
     0
 77
     2
 78
   300
148
0.0
149
0.0
100
AcDbLayout
  1
Layout1
 70
     1
 71
     1
 10
0.0
 20
0.0
 11
12.0
 21
9.0
 12
0.0
 22
0.0
 32
0.0
 14
0.0
 24
0.0
 34
0.0
 15
0.0
 25
0.0
 35
0.0
146
0.0
 13
0.0
 23
0.0
 33
0.0
 16
1.0
 26
0.0
 36
0.0
 17
0.0
 27
1.0
 37
0.0
 76
     0
330
D2
  0
LAYOUT
  5
D7
102
{ACAD_REACTORS
330
1A
102
}
330
1A
100
AcDbPlotSettings
  1

  2
C:\\Documents and Settings\\basas\\Application Data\\Autodesk\\AutoCAD 2005\\R16.1\\enu\\plotters\\Default Windows System Printer.pc3
  4

  6

 40
0.0
 41
0.0
 42
0.0
 43
0.0
 44
0.0
 45
0.0
 46
0.0
 47
0.0
 48
0.0
 49
0.0
140
0.0
141
0.0
142
1.0
143
1.0
 70
   688
 72
     0
 73
     0
 74
     5
  7

 75
    16
147
1.0
 76
     0
 77
     2
 78
   300
148
0.0
149
0.0
100
AcDbLayout
  1
Layout2
 70
     1
 71
     2
 10
0.0
 20
0.0
 11
12.0
 21
9.0
 12
0.0
 22
0.0
 32
0.0
 14
0.0
 24
0.0
 34
0.0
 15
0.0
 25
0.0
 35
0.0
146
0.0
 13
0.0
 23
0.0
 33
0.0
 16
1.0
 26
0.0
 36
0.0
 17
0.0
 27
1.0
 37
0.0
 76
     0
330
D6
  0
LAYOUT
  5
22
102
{ACAD_REACTORS
330
1A
102
}
330
1A
100
AcDbPlotSettings
  1

  2
none_device
  4
ISO_A4_(210.00_x_297.00_MM)
  6

 40
7.5
 41
20.0
 42
7.5
 43
20.0
 44
210.0
 45
297.0
 46
11.54999923706054
 47
-13.65000009536743
 48
0.0
 49
0.0
140
0.0
141
0.0
142
1.0
143
8.704084754739808
 70
 11952
 72
     1
 73
     0
 74
     0
  7

 75
     0
147
0.1148885871608098
 76
     0
 77
     2
 78
   300
148
0.0
149
0.0
100
AcDbLayout
  1
Model
 70
     1
 71
     0
 10
0.0
 20
0.0
 11
12.0
 21
9.0
 12
0.0
 22
0.0
 32
0.0
 14
0.0
 24
0.0
 34
0.0
 15
0.0
 25
0.0
 35
0.0
146
0.0
 13
0.0
 23
0.0
 33
0.0
 16
1.0
 26
0.0
 36
0.0
 17
0.0
 27
1.0
 37
0.0
 76
     0
330
1F
331
EA
1001
ACAD_PSEXT
1000
None
1000
None
1000
Not applicable
1000
The layout will not be plotted unless a new plotter configuration name is selected.
1070
     0
  0
MATERIAL
  5
ED
102
{ACAD_REACTORS
330
6A
102
}
330
6A
100
AcDbMaterial
  1
ByBlock
  0
MATERIAL
  5
EC
102
{ACAD_REACTORS
330
6A
102
}
330
6A
100
AcDbMaterial
  1
ByLayer
  0
MATERIAL
  5
EE
102
{ACAD_REACTORS
330
6A
102
}
330
6A
100
AcDbMaterial
  1
Global
  0
MLINESTYLE
  5
18
102
{ACAD_REACTORS
330
17
102
}
330
17
100
AcDbMlineStyle
  2
STANDARD
 70
     0
  3

 62
   256
 51
90.0
 52
90.0
 71
     2
 49
0.5
 62
   256
  6
BYLAYER
 49
-0.5
 62
   256
  6
BYLAYER
  0
ACDBPLACEHOLDER
  5
F
102
{ACAD_REACTORS
330
E
102
}
330
E
  0
TABLESTYLE
  5
7F
102
{ACAD_REACTORS
330
7E
102
}
330
7E
100
AcDbTableStyle
  3
Standard
 70
     0
 71
     0
 40
1.5
 41
1.5
280
     0
281
     0
  7
Standard
140
4.5
170
     2
 62
     0
 63
     7
283
     0
 90
      512
 91
        0
  1

274
    -2
284
     1
 64
     0
275
    -2
285
     1
 65
     0
276
    -2
286
     1
 66
     0
277
    -2
287
     1
 67
     0
278
    -2
288
     1
 68
     0
279
    -2
289
     1
 69
     0
  7
Standard
140
6.0
170
     5
 62
     0
 63
     7
283
     0
 90
      512
 91
        0
  1

274
    -2
284
     1
 64
     0
275
    -2
285
     1
 65
     0
276
    -2
286
     1
 66
     0
277
    -2
287
     1
 67
     0
278
    -2
288
     1
 68
     0
279
    -2
289
     1
 69
     0
  7
Standard
140
4.5
170
     5
 62
     0
 63
     7
283
     0
 90
      512
 91
        0
  1

274
    -2
284
     1
 64
     0
275
    -2
285
     1
 65
     0
276
    -2
286
     1
 66
     0
277
    -2
287
     1
 67
     0
278
    -2
288
     1
 68
     0
279
    -2
289
     1
 69
     0
  0
VISUALSTYLE
  5
F5
102
{ACAD_REACTORS
330
EF
102
}
330
EF
100
AcDbVisualStyle
  2
2dWireframe
 70
     4
 71
     0
 72
     2
 73
     1
 90
        0
 40
-0.6
 41
-30.0
 62
     5
 63
     7
421
 16777215
 74
     1
 91
        4
 64
     7
 65
   257
 75
     1
175
     1
 42
1.0
 92
        0
 66
   257
 43
1.0
 76
     1
 77
     6
 78
     2
 67
     7
 79
     5
170
     0
171
     0
290
     0
174
     0
 93
        1
 44
0.0
173
     0
291
     0
 45
0.0
  0
VISUALSTYLE
  5
F7
102
{ACAD_REACTORS
330
EF
102
}
330
EF
100
AcDbVisualStyle
  2
3D Hidden
 70
     6
 71
     1
 72
     2
 73
     2
 90
        0
 40
-0.6
 41
-30.0
 62
     5
 63
     7
421
 16777215
 74
     2
 91
        2
 64
     7
 65
   257
 75
     2
175
     1
 42
40.0
 92
        0
 66
   257
 43
1.0
 76
     1
 77
     6
 78
     2
 67
     7
 79
     3
170
     0
171
     0
290
     0
174
     0
 93
        1
 44
0.0
173
     0
291
     0
 45
0.0
  0
VISUALSTYLE
  5
F6
102
{ACAD_REACTORS
330
EF
102
}
330
EF
100
AcDbVisualStyle
  2
3dWireframe
 70
     5
 71
     0
 72
     2
 73
     1
 90
        0
 40
-0.6
 41
-30.0
 62
     5
 63
     7
421
 16777215
 74
     1
 91
        4
 64
     7
 65
   257
 75
     1
175
     1
 42
1.0
 92
        0
 66
   257
 43
1.0
 76
     1
 77
     6
 78
     2
 67
     7
 79
     5
170
     0
171
     0
290
     0
174
     0
 93
        1
 44
0.0
173
     0
291
     0
 45
0.0
  0
VISUALSTYLE
  5
F4
102
{ACAD_REACTORS
330
EF
102
}
330
EF
100
AcDbVisualStyle
  2
Basic
 70
     7
 71
     1
 72
     0
 73
     1
 90
        0
 40
-0.6
 41
-30.0
 62
     5
 63
     7
421
 16777215
 74
     0
 91
        4
 64
     7
 65
   257
 75
     1
175
     1
 42
1.0
 92
        8
 66
     7
 43
1.0
 76
     1
 77
     6
 78
     2
 67
     7
 79
     5
170
     0
171
     0
290
     0
174
     0
 93
        1
 44
0.0
173
     0
291
     1
 45
0.0
  0
VISUALSTYLE
  5
FB
102
{ACAD_REACTORS
330
EF
102
}
330
EF
100
AcDbVisualStyle
  2
Brighten
 70
    12
 71
     2
 72
     2
 73
     1
 90
        0
 40
-0.6
 41
-30.0
 62
     5
 63
     7
421
 16777215
 74
     1
 91
        4
 64
     7
 65
   257
 75
     1
175
     1
 42
1.0
 92
        8
 66
     7
 43
1.0
 76
     1
 77
     6
 78
     2
 67
     7
 79
     5
170
     0
171
     0
290
     0
174
     0
 93
        1
 44
50.0
173
     0
291
     1
 45
0.0
  0
VISUALSTYLE
  5
FF
102
{ACAD_REACTORS
330
EF
102
}
330
EF
100
AcDbVisualStyle
  2
ColorChange
 70
    16
 71
     2
 72
     2
 73
     3
 90
        0
 40
-0.6
 41
-30.0
 62
     5
 63
     8
421
  8421504
 74
     1
 91
        4
 64
     7
 65
   257
 75
     1
175
     1
 42
1.0
 92
        8
 66
     8
424
  8421504
 43
1.0
 76
     1
 77
     6
 78
     2
 67
     7
 79
     5
170
     0
171
     0
290
     0
174
     0
 93
        1
 44
0.0
173
     0
291
     1
 45
0.0
  0
VISUALSTYLE
  5
F8
102
{ACAD_REACTORS
330
EF
102
}
330
EF
100
AcDbVisualStyle
  2
Conceptual
 70
     9
 71
     3
 72
     2
 73
     1
 90
        0
 40
-0.6
 41
-30.0
 62
     5
 63
     7
421
 16777215
 74
     2
 91
        2
 64
     7
 65
   257
 75
     1
175
     1
 42
40.0
 92
        8
 66
     7
 43
1.0
 76
     1
 77
     6
 78
     2
 67
     7
 79
     3
170
     0
171
     0
290
     0
174
     0
 93
        1
 44
0.0
173
     0
291
     0
 45
0.0
  0
VISUALSTYLE
  5
FA
102
{ACAD_REACTORS
330
EF
102
}
330
EF
100
AcDbVisualStyle
  2
Dim
 70
    11
 71
     2
 72
     2
 73
     1
 90
        0
 40
-0.6
 41
-30.0
 62
     5
 63
     7
421
 16777215
 74
     1
 91
        4
 64
     7
 65
   257
 75
     1
175
     1
 42
1.0
 92
        8
 66
     7
 43
1.0
 76
     1
 77
     6
 78
     2
 67
     7
 79
     5
170
     0
171
     0
290
     0
174
     0
 93
        1
 44
-50.0
173
     0
291
     1
 45
0.0
  0
VISUALSTYLE
  5
FE
102
{ACAD_REACTORS
330
EF
102
}
330
EF
100
AcDbVisualStyle
  2
Facepattern
 70
    15
 71
     2
 72
     2
 73
     1
 90
        0
 40
-0.6
 41
-30.0
 62
     5
 63
     7
421
 16777215
 74
     1
 91
        4
 64
     7
 65
   257
 75
     1
175
     1
 42
1.0
 92
        8
 66
     7
 43
1.0
 76
     1
 77
     6
 78
     2
 67
     7
 79
     5
170
     0
171
     0
290
     0
174
     0
 93
        1
 44
0.0
173
     0
291
     1
 45
0.0
  0
VISUALSTYLE
  5
F0
102
{ACAD_REACTORS
330
EF
102
}
330
EF
100
AcDbVisualStyle
  2
Flat
 70
     0
 71
     2
 72
     1
 73
     1
 90
        2
 40
-0.6
 41
30.0
 62
     5
 63
     7
421
 16777215
 74
     0
 91
        4
 64
     7
 65
   257
 75
     1
175
     1
 42
1.0
 92
        8
 66
     7
 43
1.0
 76
     1
 77
     6
 78
     2
 67
     7
 79
     5
170
     0
171
     0
290
     0
174
     0
 93
        1
 44
0.0
173
     0
291
     1
 45
0.0
  0
VISUALSTYLE
  5
F1
102
{ACAD_REACTORS
330
EF
102
}
330
EF
100
AcDbVisualStyle
  2
FlatWithEdges
 70
     1
 71
     2
 72
     1
 73
     1
 90
        2
 40
-0.6
 41
30.0
 62
     5
 63
     7
421
 16777215
 74
     1
 91
        4
 64
     7
 65
   257
 75
     1
175
     1
 42
1.0
 92
        0
 66
   257
 43
1.0
 76
     1
 77
     6
 78
     2
 67
     7
 79
     5
170
     0
171
     0
290
     0
174
     0
 93
        1
 44
0.0
173
     0
291
     1
 45
0.0
  0
VISUALSTYLE
  5
F2
102
{ACAD_REACTORS
330
EF
102
}
330
EF
100
AcDbVisualStyle
  2
Gouraud
 70
     2
 71
     2
 72
     2
 73
     1
 90
        2
 40
-0.6
 41
30.0
 62
     5
 63
     7
421
 16777215
 74
     0
 91
        4
 64
     7
 65
   257
 75
     1
175
     1
 42
1.0
 92
        0
 66
     7
 43
1.0
 76
     1
 77
     6
 78
     2
 67
     7
 79
     5
170
     0
171
     0
290
     0
174
     0
 93
        1
 44
0.0
173
     0
291
     1
 45
0.0
  0
VISUALSTYLE
  5
F3
102
{ACAD_REACTORS
330
EF
102
}
330
EF
100
AcDbVisualStyle
  2
GouraudWithEdges
 70
     3
 71
     2
 72
     2
 73
     1
 90
        2
 40
-0.6
 41
30.0
 62
     5
 63
     7
421
 16777215
 74
     1
 91
        4
 64
     7
 65
   257
 75
     1
175
     1
 42
1.0
 92
        0
 66
   257
 43
1.0
 76
     1
 77
     6
 78
     2
 67
     7
 79
     5
170
     0
171
     0
290
     0
174
     0
 93
        1
 44
0.0
173
     0
291
     1
 45
0.0
  0
VISUALSTYLE
  5
FD
102
{ACAD_REACTORS
330
EF
102
}
330
EF
100
AcDbVisualStyle
  2
Linepattern
 70
    14
 71
     2
 72
     2
 73
     1
 90
        0
 40
-0.6
 41
-30.0
 62
     5
 63
     7
421
 16777215
 74
     1
 91
        4
 64
     7
 65
   257
 75
     7
175
     7
 42
1.0
 92
        8
 66
     7
 43
1.0
 76
     1
 77
     6
 78
     2
 67
     7
 79
     5
170
     0
171
     0
290
     0
174
     0
 93
        1
 44
0.0
173
     0
291
     1
 45
0.0
  0
VISUALSTYLE
  5
F9
102
{ACAD_REACTORS
330
EF
102
}
330
EF
100
AcDbVisualStyle
  2
Realistic
 70
     8
 71
     2
 72
     2
 73
     1
 90
        0
 40
-0.6
 41
-30.0
 62
     5
 63
     7
421
 16777215
 74
     1
 91
        0
 64
     7
 65
   257
 75
     1
175
     1
 42
1.0
 92
        8
 66
     8
424
  7895160
 43
1.0
 76
     1
 77
     6
 78
     2
 67
     7
 79
     5
170
     0
171
     0
290
     0
174
     0
 93
       13
 44
0.0
173
     0
291
     0
 45
0.0
  0
VISUALSTYLE
  5
FC
102
{ACAD_REACTORS
330
EF
102
}
330
EF
100
AcDbVisualStyle
  2
Thicken
 70
    13
 71
     2
 72
     2
 73
     1
 90
        0
 40
-0.6
 41
-30.0
 62
     5
 63
     7
421
 16777215
 74
     1
 91
        4
 64
     7
 65
   257
 75
     1
175
     1
 42
1.0
 92
       12
 66
     7
 43
1.0
 76
     1
 77
     6
 78
     2
 67
     7
 79
     5
170
     0
171
     0
290
     0
174
     0
 93
        1
 44
0.0
173
     0
291
     1
 45
0.0
  0
DICTIONARYVAR
  5
84
102
{ACAD_REACTORS
330
5E
102
}
330
5E
100
DictionaryVariables
280
     0
  1
STANDARD
  0
DICTIONARYVAR
  5
5F
102
{ACAD_REACTORS
330
5E
102
}
330
5E
100
DictionaryVariables
280
     0
  1
2
  0
DICTIONARYVAR
  5
63
102
{ACAD_REACTORS
330
5E
102
}
330
5E
100
DictionaryVariables
280
     0
  1
1
  0
ENDSEC
  0
EOF
