  0
SECTION
  2
HEADER
  9
$ACADVER
  1
AC1012
  9
$DWGCODEPAGE
  3
ansi_1252
  9
$INSBASE
 10
0.0
 20
0.0
 30
0.0
  9
$EXTMIN
 10
0.171853
 20
-0.093491
 30
0.0
  9
$EXTMAX
 10
3.905909
 20
2.867443
 30
0.0
  9
$LIMMIN
 10
0.0
 20
0.0
  9
$LIMMAX
 10
35.0
 20
25.0
  9
$ORTHOMODE
 70
     1
  9
$REGENMODE
 70
     1
  9
$FILLMODE
 70
     1
  9
$QTEXTMODE
 70
     0
  9
$MIRRTEXT
 70
     1
  9
$DRAGMODE
 70
     2
  9
$LTSCALE
 40
1.0
  9
$OSMODE
 70
     0
  9
$ATTMODE
 70
     1
  9
$TEXTSIZE
 40
0.2
  9
$TRACEWID
 40
0.05
  9
$TEXTSTYLE
  7
BLOKFONT
  9
$CLAYER
  8
0
  9
$CELTYPE
  6
BYLAYER
  9
$CECOLOR
 62
   256
  9
$CELTSCALE
 40
1.0
  9
$DELOBJ
 70
     1
  9
$DISPSILH
 70
     0
  9
$DIMSCALE
 40
1.0
  9
$DIMASZ
 40
0.18
  9
$DIMEXO
 40
0.0625
  9
$DIMDLI
 40
0.38
  9
$DIMRND
 40
0.0
  9
$DIMDLE
 40
0.0
  9
$DIMEXE
 40
0.18
  9
$DIMTP
 40
0.0
  9
$DIMTM
 40
0.0
  9
$DIMTXT
 40
0.18
  9
$DIMCEN
 40
0.09
  9
$DIMTSZ
 40
0.0
  9
$DIMTOL
 70
     0
  9
$DIMLIM
 70
     0
  9
$DIMTIH
 70
     1
  9
$DIMTOH
 70
     1
  9
$DIMSE1
 70
     0
  9
$DIMSE2
 70
     0
  9
$DIMTAD
 70
     0
  9
$DIMZIN
 70
     4
  9
$DIMBLK
  1

  9
$DIMASO
 70
     1
  9
$DIMSHO
 70
     0
  9
$DIMPOST
  1

  9
$DIMAPOST
  1

  9
$DIMALT
 70
     0
  9
$DIMALTD
 70
     3
  9
$DIMALTF
 40
25.4
  9
$DIMLFAC
 40
1.0
  9
$DIMTOFL
 70
     0
  9
$DIMTVP
 40
0.0
  9
$DIMTIX
 70
     0
  9
$DIMSOXD
 70
     0
  9
$DIMSAH
 70
     0
  9
$DIMBLK1
  1

  9
$DIMBLK2
  1

  9
$DIMSTYLE
  2
STANDARD
  9
$DIMCLRD
 70
     0
  9
$DIMCLRE
 70
     0
  9
$DIMCLRT
 70
     0
  9
$DIMTFAC
 40
1.0
  9
$DIMGAP
 40
0.09
  9
$DIMJUST
 70
     0
  9
$DIMSD1
 70
     0
  9
$DIMSD2
 70
     0
  9
$DIMTOLJ
 70
     1
  9
$DIMTZIN
 70
     0
  9
$DIMALTZ
 70
     0
  9
$DIMALTTZ
 70
     0
  9
$DIMFIT
 70
     3
  9
$DIMUPT
 70
     0
  9
$DIMUNIT
 70
     2
  9
$DIMDEC
 70
     4
  9
$DIMTDEC
 70
     4
  9
$DIMALTU
 70
     2
  9
$DIMALTTD
 70
     2
  9
$DIMTXSTY
  7
STANDARD
  9
$DIMAUNIT
 70
     0
  9
$LUNITS
 70
     2
  9
$LUPREC
 70
     3
  9
$SKETCHINC
 40
0.1
  9
$FILLETRAD
 40
0.01
  9
$AUNITS
 70
     0
  9
$AUPREC
 70
     0
  9
$MENU
  1
a
  9
$ELEVATION
 40
0.0
  9
$PELEVATION
 40
0.0
  9
$THICKNESS
 40
0.0
  9
$LIMCHECK
 70
     0
  9
$BLIPMODE
 70
     0
  9
$CHAMFERA
 40
0.0
  9
$CHAMFERB
 40
0.0
  9
$CHAMFERC
 40
0.0
  9
$CHAMFERD
 40
0.0
  9
$SKPOLY
 70
     0
  9
$TDCREATE
 40
2449731.350928125
  9
$TDUPDATE
 40
2450291.496762847
  9
$TDINDWG
 40
0.1193054398
  9
$TDUSRTIMER
 40
0.1193054398
  9
$USRTIMER
 70
     1
  9
$ANGBASE
 50
0.0
  9
$ANGDIR
 70
     0
  9
$PDMODE
 70
     0
  9
$PDSIZE
 40
0.0
  9
$PLINEWID
 40
0.0
  9
$COORDS
 70
     2
  9
$SPLFRAME
 70
     0
  9
$SPLINETYPE
 70
     6
  9
$SPLINESEGS
 70
     8
  9
$ATTDIA
 70
     0
  9
$ATTREQ
 70
     1
  9
$HANDLING
 70
     1
  9
$HANDSEED
  5
261
  9
$SURFTAB1
 70
     6
  9
$SURFTAB2
 70
     6
  9
$SURFTYPE
 70
     6
  9
$SURFU
 70
     6
  9
$SURFV
 70
     6
  9
$UCSNAME
  2

  9
$UCSORG
 10
0.0
 20
0.0
 30
0.0
  9
$UCSXDIR
 10
1.0
 20
0.0
 30
0.0
  9
$UCSYDIR
 10
0.0
 20
1.0
 30
0.0
  9
$PUCSNAME
  2

  9
$PUCSORG
 10
0.0
 20
0.0
 30
0.0
  9
$PUCSXDIR
 10
1.0
 20
0.0
 30
0.0
  9
$PUCSYDIR
 10
0.0
 20
1.0
 30
0.0
  9
$USERI1
 70
     0
  9
$USERI2
 70
     0
  9
$USERI3
 70
     0
  9
$USERI4
 70
     0
  9
$USERI5
 70
     0
  9
$USERR1
 40
0.0
  9
$USERR2
 40
0.0
  9
$USERR3
 40
0.0
  9
$USERR4
 40
0.0
  9
$USERR5
 40
0.0
  9
$WORLDVIEW
 70
     1
  9
$SHADEDGE
 70
     3
  9
$SHADEDIF
 70
    70
  9
$TILEMODE
 70
     1
  9
$MAXACTVP
 70
    16
  9
$PINSBASE
 10
0.0
 20
0.0
 30
0.0
  9
$PLIMCHECK
 70
     0
  9
$PEXTMIN
 10
1.000000E+20
 20
1.000000E+20
 30
1.000000E+20
  9
$PEXTMAX
 10
-1.000000E+20
 20
-1.000000E+20
 30
-1.000000E+20
  9
$PLIMMIN
 10
0.0
 20
0.0
  9
$PLIMMAX
 10
12.0
 20
9.0
  9
$UNITMODE
 70
     0
  9
$VISRETAIN
 70
     0
  9
$PLINEGEN
 70
     0
  9
$PSLTSCALE
 70
     0
  9
$TREEDEPTH
 70
  3020
  9
$PICKSTYLE
 70
     1
  9
$CMLSTYLE
  2
STANDARD
  9
$CMLJUST
 70
     0
  9
$CMLSCALE
 40
1.0
  9
$SAVEIMAGES
 70
     0
  0
ENDSEC
  0
SECTION
  2
CLASSES
  0
ENDSEC
  0
SECTION
  2
TABLES
  0
TABLE
  2
VPORT
  5
8
100
AcDbSymbolTable
 70
     4
  0
VPORT
  5
260
100
AcDbSymbolTableRecord
100
AcDbViewportTableRecord
  2
*ACTIVE
 70
     0
 10
0.0
 20
0.0
 11
1.0
 21
1.0
 12
1.984262
 22
1.271399
 13
0.0
 23
0.0
 14
1.0
 24
1.0
 15
0.0
 25
0.0
 16
0.0
 26
0.0
 36
1.0
 17
0.0
 27
0.0
 37
0.0
 40
3.694754
 41
1.426117
 42
50.0
 43
0.0
 44
0.0
 50
0.0
 51
0.0
 71
     0
 72
   100
 73
     1
 74
     1
 75
     0
 76
     0
 77
     0
 78
     0
  0
ENDTAB
  0
TABLE
  2
LTYPE
  5
5
100
AcDbSymbolTable
 70
     1
  0
LTYPE
  5
12
100
AcDbSymbolTableRecord
100
AcDbLinetypeTableRecord
  2
BYBLOCK
 70
     0
  3

 72
    65
 73
     0
 40
0.0
  0
LTYPE
  5
13
100
AcDbSymbolTableRecord
100
AcDbLinetypeTableRecord
  2
BYLAYER
 70
     0
  3

 72
    65
 73
     0
 40
0.0
  0
LTYPE
  5
14
100
AcDbSymbolTableRecord
100
AcDbLinetypeTableRecord
  2
CONTINUOUS
 70
    64
  3
Solid line
 72
    65
 73
     0
 40
0.0
  0
ENDTAB
  0
TABLE
  2
LAYER
  5
2
100
AcDbSymbolTable
 70
     1
  0
LAYER
  5
F
100
AcDbSymbolTableRecord
100
AcDbLayerTableRecord
  2
0
 70
    64
 62
     7
  6
CONTINUOUS
  0
ENDTAB
  0
TABLE
  2
STYLE
  5
3
100
AcDbSymbolTable
 70
     2
  0
STYLE
  5
10
100
AcDbSymbolTableRecord
100
AcDbTextStyleTableRecord
  2
STANDARD
 70
     0
 40
0.0
 41
1.0
 50
0.0
 71
     0
 42
0.2
  3
txt
  4

  0
STYLE
  5
1C
100
AcDbSymbolTableRecord
100
AcDbTextStyleTableRecord
  2
BLOKFONT
 70
    64
 40
0.0
 41
1.0
 50
0.0
 71
     0
 42
0.2
  3
blockall
  4

  0
ENDTAB
  0
TABLE
  2
VIEW
  5
6
100
AcDbSymbolTable
 70
     0
  0
ENDTAB
  0
TABLE
  2
UCS
  5
7
100
AcDbSymbolTable
 70
     0
  0
ENDTAB
  0
TABLE
  2
APPID
  5
9
100
AcDbSymbolTable
 70
     1
  0
APPID
  5
11
100
AcDbSymbolTableRecord
100
AcDbRegAppTableRecord
  2
ACAD
 70
     0
  0
ENDTAB
  0
TABLE
  2
DIMSTYLE
  5
A
100
AcDbSymbolTable
 70
     1
  0
DIMSTYLE
105
25D
100
AcDbSymbolTableRecord
100
AcDbDimStyleTableRecord
  2
STANDARD
 70
     0
  3

  4

  5

  6

  7

 40
1.0
 41
0.18
 42
0.0625
 43
0.38
 44
0.18
 45
0.0
 46
0.0
 47
0.0
 48
0.0
140
0.18
141
0.09
142
0.0
143
25.4
144
1.0
145
0.0
146
1.0
147
0.09
 71
     0
 72
     0
 73
     1
 74
     1
 75
     0
 76
     0
 77
     0
 78
     0
170
     0
171
     2
172
     0
173
     0
174
     0
175
     0
176
     0
177
     0
178
     0
270
     2
271
     4
272
     4
273
     2
274
     2
340
10
275
     0
280
     0
281
     0
282
     0
283
     1
284
     0
285
     0
286
     0
287
     3
288
     0
  0
ENDTAB
  0
TABLE
  2
BLOCK_RECORD
  5
1
100
AcDbSymbolTable
 70
     0
  0
BLOCK_RECORD
  5
18
100
AcDbSymbolTableRecord
100
AcDbBlockTableRecord
  2
*MODEL_SPACE
  0
BLOCK_RECORD
  5
15
100
AcDbSymbolTableRecord
100
AcDbBlockTableRecord
  2
*PAPER_SPACE
  0
ENDTAB
  0
ENDSEC
  0
SECTION
  2
BLOCKS
  0
BLOCK
  5
21
100
AcDbEntity
  8
0
100
AcDbBlockBegin
  2
*MODEL_SPACE
 70
     0
 10
0.0
 20
0.0
 30
0.0
  3
*MODEL_SPACE
  1

  0
ENDBLK
  5
22
100
AcDbEntity
  8
0
100
AcDbBlockEnd
  0
BLOCK
  5
1F
100
AcDbEntity
 67
     1
  8
0
100
AcDbBlockBegin
  2
*PAPER_SPACE
 70
     0
 10
0.0
 20
0.0
 30
0.0
  3
*PAPER_SPACE
  1

  0
ENDBLK
  5
20
100
AcDbEntity
 67
     1
  8
0
100
AcDbBlockEnd
  0
ENDSEC
  0
SECTION
  2
ENTITIES
  0
POINT
  5
23
100
AcDbEntity
  8
0
100
AcDbPoint
 10
0.430522
 20
1.27
 30
0.0
  0
ARC
  5
24
100
AcDbEntity
  8
0
100
AcDbCircle
 10
1.823433
 20
1.237133
 30
0.0
 40
1.393299
100
AcDbArc
 50
95.060977
 51
178.648311
  0
ARC
  5
25
100
AcDbEntity
  8
0
100
AcDbCircle
 10
1.765651
 20
1.238497
 30
0.0
 40
1.3355
100
AcDbArc
 50
178.648311
 51
215.656533
  0
ARC
  5
26
100
AcDbEntity
  8
0
100
AcDbCircle
 10
1.808751
 20
1.402917
 30
0.0
 40
1.226867
100
AcDbArc
 50
29.597272
 51
95.060977
  0
LINE
  5
27
100
AcDbEntity
  8
0
100
AcDbLine
 10
1.190522
 20
0.16
 30
0.0
 11
1.110522
 21
0.205
 31
0.0
  0
ARC
  5
28
100
AcDbEntity
  8
0
100
AcDbCircle
 10
1.899292
 20
0.436304
 30
0.0
 40
0.437022
100
AcDbArc
 50
329.305669
 51
353.33694
  0
ARC
  5
29
100
AcDbEntity
  8
0
100
AcDbCircle
 10
1.855471
 20
1.199746
 30
0.0
 40
1.20172
100
AcDbArc
 50
240.872144
 51
273.285112
  0
LINE
  5
2A
100
AcDbEntity
  8
0
100
AcDbLine
 10
1.270522
 20
0.15
 30
0.0
 11
1.110522
 21
0.205
 31
0.0
  0
ARC
  5
2B
100
AcDbEntity
  8
0
100
AcDbCircle
 10
0.813835
 20
0.889578
 30
0.0
 40
0.821082
100
AcDbArc
 50
273.469285
 51
297.307651
  0
ARC
  5
2C
100
AcDbEntity
  8
0
100
AcDbCircle
 10
0.858516
 20
0.152573
 30
0.0
 40
0.082724
100
AcDbArc
 50
199.469776
 51
273.469285
  0
ARC
  5
2D
100
AcDbEntity
  8
0
100
AcDbCircle
 10
0.715811
 20
0.43928
 30
0.0
 40
0.040923
100
AcDbArc
 50
149.581265
 51
199.598313
  0
LINE
  5
2E
100
AcDbEntity
  8
0
100
AcDbLine
 10
0.770522
 20
0.2
 30
0.0
 11
0.677259
 21
0.425554
 31
0.0
  0
ARC
  5
2F
100
AcDbEntity
  8
0
100
AcDbCircle
 10
0.931829
 20
0.183341
 30
0.0
 40
0.162165
100
AcDbArc
 50
174.103669
 51
201.085618
  0
LINE
  5
30
100
AcDbEntity
  8
0
100
AcDbLine
 10
0.875522
 20
0.25
 30
0.0
 11
0.71171
 21
0.421901
 31
0.0
  0
LINE
  5
31
100
AcDbEntity
  8
0
100
AcDbLine
 10
0.796146
 20
0.203454
 30
0.0
 11
0.70768
 21
0.41741
 31
0.0
  0
ARC
  5
32
100
AcDbEntity
  8
0
100
AcDbCircle
 10
0.931829
 20
0.183341
 30
0.0
 40
0.137165
100
AcDbArc
 50
171.568137
 51
201.085618
  0
ARC
  5
33
100
AcDbEntity
  8
0
100
AcDbCircle
 10
0.858516
 20
0.152573
 30
0.0
 40
0.057724
100
AcDbArc
 50
199.469776
 51
273.469285
  0
ARC
  5
34
100
AcDbEntity
  8
0
100
AcDbCircle
 10
0.813835
 20
0.889578
 30
0.0
 40
0.796082
100
AcDbArc
 50
273.469285
 51
289.572454
  0
LINE
  5
35
100
AcDbEntity
  8
0
100
AcDbLine
 10
0.71171
 20
0.421901
 30
0.0
 11
0.70768
 21
0.41741
 31
0.0
  0
LINE
  5
36
100
AcDbEntity
  8
0
100
AcDbLine
 10
0.910522
 20
0.122
 30
0.0
 11
1.080522
 21
0.139494
 31
0.0
  0
LINE
  5
37
100
AcDbEntity
  8
0
100
AcDbLine
 10
0.910522
 20
0.122
 30
0.0
 11
0.905802
 21
0.129506
 31
0.0
  0
LINE
  5
38
100
AcDbEntity
  8
0
100
AcDbLine
 10
0.905802
 20
0.129506
 30
0.0
 11
0.966522
 21
0.165
 31
0.0
  0
LINE
  5
39
100
AcDbEntity
  8
0
100
AcDbLine
 10
0.966522
 20
0.165
 30
0.0
 11
0.958399
 21
0.178122
 31
0.0
  0
ARC
  5
3A
100
AcDbEntity
  8
0
100
AcDbCircle
 10
0.902505
 20
0.209872
 30
0.0
 40
0.058466
100
AcDbArc
 50
199.82747
 51
318.306499
  0
ARC
  5
3B
100
AcDbEntity
  8
0
100
AcDbCircle
 10
0.854368
 20
0.192515
 30
0.0
 40
0.007296
100
AcDbArc
 50
25.409204
 51
199.82747
  0
ARC
  5
3C
100
AcDbEntity
  8
0
100
AcDbCircle
 10
0.901341
 20
0.214829
 30
0.0
 40
0.044707
100
AcDbArc
 50
205.409204
 51
320.973709
  0
ARC
  5
3D
100
AcDbEntity
  8
0
100
AcDbCircle
 10
0.922512
 20
0.234322
 30
0.0
 40
0.049536
100
AcDbArc
 50
161.548995
 51
285.886991
  0
LINE
  5
3E
100
AcDbEntity
  8
0
100
AcDbLine
 10
0.946162
 20
0.170984
 30
0.0
 11
0.958399
 21
0.178122
 31
0.0
  0
LINE
  5
3F
100
AcDbEntity
  8
0
100
AcDbLine
 10
1.690114
 20
0.518398
 30
0.0
 11
2.550381
 21
0.374689
 31
0.0
  0
LINE
  5
40
100
AcDbEntity
  8
0
100
AcDbLine
 10
2.707768
 20
0.373513
 30
0.0
 11
3.475567
 21
0.490007
 31
0.0
  0
ARC
  5
41
100
AcDbEntity
  8
0
100
AcDbCircle
 10
1.799843
 20
0.110238
 30
0.0
 40
1.718219
100
AcDbArc
 50
15.617351
 51
24.325247
  0
LINE
  5
42
100
AcDbEntity
  8
0
100
AcDbLine
 10
1.73656
 20
0.596817
 30
0.0
 11
2.562527
 21
0.458838
 31
0.0
  0
ARC
  5
43
100
AcDbEntity
  8
0
100
AcDbCircle
 10
2.632764
 20
0.867856
 30
0.0
 40
0.5
100
AcDbArc
 50
260.516271
 51
278.627353
  0
ARC
  5
44
100
AcDbEntity
  8
0
100
AcDbCircle
 10
2.632764
 20
0.867856
 30
0.0
 40
0.415
100
AcDbArc
 50
277.097495
 51
278.627353
  0
LINE
  5
45
100
AcDbEntity
  8
0
100
AcDbLine
 10
3.454627
 20
0.572803
 30
0.0
 11
2.695018
 21
0.457551
 31
0.0
  0
ARC
  5
46
100
AcDbEntity
  8
0
100
AcDbCircle
 10
1.799843
 20
0.110238
 30
0.0
 40
1.718219
100
AcDbArc
 50
0.392206
 51
12.769218
  0
ARC
  5
47
100
AcDbEntity
  8
0
100
AcDbCircle
 10
3.19119
 20
0.594664
 30
0.0
 40
0.508499
100
AcDbArc
 50
208.293733
 51
277.041078
  0
LINE
  5
48
100
AcDbEntity
  8
0
100
AcDbLine
 10
3.253522
 20
0.09
 30
0.0
 11
3.518022
 21
0.122
 31
0.0
  0
ARC
  5
49
100
AcDbEntity
  8
0
100
AcDbCircle
 10
3.19119
 20
0.594664
 30
0.0
 40
0.593499
100
AcDbArc
 50
205.061012
 51
277.041078
  0
LINE
  5
4A
100
AcDbEntity
  8
0
100
AcDbLine
 10
3.263731
 20
0.005615
 30
0.0
 11
3.519038
 21
0.036503
 31
0.0
  0
ARC
  5
4B
100
AcDbEntity
  8
0
100
AcDbCircle
 10
3.559515
 20
0.049541
 30
0.0
 40
0.042525
100
AcDbArc
 50
197.854161
 51
0.0
  0
ARC
  5
4C
100
AcDbEntity
  8
0
100
AcDbCircle
 10
2.632764
 20
0.867856
 30
0.0
 40
0.525
100
AcDbArc
 50
272.27059
 51
278.627353
  0
LINE
  5
4D
100
AcDbEntity
  8
0
100
AcDbLine
 10
2.711518
 20
0.348796
 30
0.0
 11
2.743442
 21
0.35364
 31
0.0
  0
LINE
  5
4E
100
AcDbEntity
  8
0
100
AcDbLine
 10
1.669417
 20
0.496509
 30
0.0
 11
2.333362
 21
0.385596
 31
0.0
  0
LINE
  5
4F
100
AcDbEntity
  8
0
100
AcDbLine
 10
1.668522
 20
0.531
 30
0.0
 11
1.775162
 21
0.711051
 31
0.0
  0
LINE
  5
50
100
AcDbEntity
  8
0
100
AcDbLine
 10
1.690114
 20
0.518398
 30
0.0
 11
1.73656
 21
0.596817
 31
0.0
  0
LINE
  5
51
100
AcDbEntity
  8
0
100
AcDbLine
 10
1.595387
 20
0.574316
 30
0.0
 11
1.707084
 21
0.762905
 31
0.0
  0
ARC
  5
52
100
AcDbEntity
  8
0
100
AcDbCircle
 10
1.631954
 20
0.552658
 30
0.0
 40
0.0425
100
AcDbArc
 50
149.362571
 51
329.362607
  0
ARC
  5
53
100
AcDbEntity
  8
0
100
AcDbCircle
 10
1.631954
 20
0.552658
 30
0.0
 40
0.0675
100
AcDbArc
 50
188.617366
 51
303.711228
  0
LINE
  5
54
100
AcDbEntity
  8
0
100
AcDbLine
 10
1.573877
 20
0.587056
 30
0.0
 11
1.654218
 21
0.722703
 31
0.0
  0
LINE
  5
55
100
AcDbEntity
  8
0
100
AcDbLine
 10
2.684041
 20
0.456036
 30
0.0
 11
2.55951
 21
0.737854
 31
0.0
  0
LINE
  5
56
100
AcDbEntity
  8
0
100
AcDbLine
 10
2.591614
 20
0.454901
 30
0.0
 11
2.469038
 21
0.732295
 31
0.0
  0
ARC
  5
57
100
AcDbEntity
  8
0
100
AcDbCircle
 10
2.632764
 20
0.867856
 30
0.0
 40
0.415
100
AcDbArc
 50
260.516271
 51
264.309291
  0
LINE
  5
58
100
AcDbEntity
  8
0
100
AcDbLine
 10
2.55951
 20
0.737854
 30
0.0
 11
3.365522
 21
0.818
 31
0.0
  0
LINE
  5
59
100
AcDbEntity
  8
0
100
AcDbLine
 10
2.523354
 20
0.819678
 30
0.0
 11
3.333663
 21
0.900251
 31
0.0
  0
ARC
  5
5A
100
AcDbEntity
  8
0
100
AcDbCircle
 10
3.375959
 20
0.894839
 30
0.0
 40
0.042641
100
AcDbArc
 50
24.325247
 51
172.708291
  0
LINE
  5
5B
100
AcDbEntity
  8
0
100
AcDbLine
 10
2.145073
 20
0.859175
 30
0.0
 11
1.896522
 21
1.081
 31
0.0
  0
ARC
  5
5C
100
AcDbEntity
  8
0
100
AcDbCircle
 10
2.478001
 20
1.232215
 30
0.0
 40
0.5
100
AcDbArc
 50
228.251946
 51
268.972875
  0
LINE
  5
5D
100
AcDbEntity
  8
0
100
AcDbLine
 10
2.20167
 20
0.922592
 30
0.0
 11
1.95312
 21
1.144417
 31
0.0
  0
ARC
  5
5E
100
AcDbEntity
  8
0
100
AcDbCircle
 10
2.478001
 20
1.232215
 30
0.0
 40
0.415
100
AcDbArc
 50
228.251946
 51
263.399442
  0
LINE
  5
5F
100
AcDbEntity
  8
0
100
AcDbLine
 10
2.430298
 20
0.819966
 30
0.0
 11
2.142774
 21
1.470645
 31
0.0
  0
LINE
  5
60
100
AcDbEntity
  8
0
100
AcDbLine
 10
2.523354
 20
0.819678
 30
0.0
 11
2.220522
 21
1.505
 31
0.0
  0
ARC
  5
61
100
AcDbEntity
  8
0
100
AcDbCircle
 10
1.924821
 20
1.112708
 30
0.0
 40
0.0425
100
AcDbArc
 50
48.251964
 51
228.251923
  0
LINE
  5
62
100
AcDbEntity
  8
0
100
AcDbLine
 10
2.017599
 20
1.120379
 30
0.0
 11
2.110903
 21
1.277912
 31
0.0
  0
LINE
  5
63
100
AcDbEntity
  8
0
100
AcDbLine
 10
1.951092
 20
1.174886
 30
0.0
 11
2.037768
 21
1.321228
 31
0.0
  0
LINE
  5
64
100
AcDbEntity
  8
0
100
AcDbLine
 10
1.925188
 20
1.180207
 30
0.0
 11
2.016258
 21
1.333968
 31
0.0
  0
LINE
  5
65
100
AcDbEntity
  8
0
100
AcDbLine
 10
2.017599
 20
1.120379
 30
0.0
 11
1.969766
 21
1.163069
 31
0.0
  0
ARC
  5
66
100
AcDbEntity
  8
0
100
AcDbCircle
 10
1.924821
 20
1.112708
 30
0.0
 40
0.0675
100
AcDbArc
 50
89.688078
 51
209.037113
  0
LINE
  5
67
100
AcDbEntity
  8
0
100
AcDbLine
 10
1.947489
 20
1.002005
 30
0.0
 11
1.88286
 21
1.059684
 31
0.0
  0
ARC
  5
68
100
AcDbEntity
  8
0
100
AcDbCircle
 10
1.924821
 20
1.112708
 30
0.0
 40
0.0675
100
AcDbArc
 50
48.251964
 51
67.094686
  0
LINE
  5
69
100
AcDbEntity
  8
0
100
AcDbLine
 10
2.340111
 20
0.521339
 30
0.0
 11
2.3727
 21
0.515895
 31
0.0
  0
LINE
  5
6A
100
AcDbEntity
  8
0
100
AcDbLine
 10
1.75022
 20
0.619881
 30
0.0
 11
1.795185
 21
0.6958
 31
0.0
  0
LINE
  5
6B
100
AcDbEntity
  8
0
100
AcDbLine
 10
2.11975
 20
0.848266
 30
0.0
 11
1.966497
 21
0.985041
 31
0.0
  0
ARC
  5
6C
100
AcDbEntity
  8
0
100
AcDbCircle
 10
2.478001
 20
1.232215
 30
0.0
 40
0.525
100
AcDbArc
 50
246.652632
 51
267.217517
  0
ARC
  5
6D
100
AcDbEntity
  8
0
100
AcDbCircle
 10
3.340517
 20
-0.961047
 30
0.0
 40
2.639144
100
AcDbArc
 50
101.740207
 51
113.898586
  0
ARC
  5
6E
100
AcDbEntity
  8
0
100
AcDbCircle
 10
2.541107
 20
1.02311
 30
0.0
 40
0.5
100
AcDbArc
 50
138.480408
 51
149.362595
  0
ARC
  5
6F
100
AcDbEntity
  8
0
100
AcDbCircle
 10
2.541107
 20
1.02311
 30
0.0
 40
0.585
100
AcDbArc
 50
134.715777
 51
149.362595
  0
ARC
  5
70
100
AcDbEntity
  8
0
100
AcDbCircle
 10
3.340517
 20
-0.961047
 30
0.0
 40
2.724144
100
AcDbArc
 50
101.772121
 51
113.896752
  0
ARC
  5
71
100
AcDbEntity
  8
0
100
AcDbCircle
 10
2.181648
 20
1.487822
 30
0.0
 40
0.0425
100
AcDbArc
 50
23.839811
 51
203.839811
  0
ARC
  5
72
100
AcDbEntity
  8
0
100
AcDbCircle
 10
2.181648
 20
1.487822
 30
0.0
 40
0.0675
100
AcDbArc
 50
60.999456
 51
201.336012
  0
LINE
  5
73
100
AcDbEntity
  8
0
100
AcDbLine
 10
2.166743
 20
1.354548
 30
0.0
 11
2.129507
 21
1.438815
 31
0.0
  0
LINE
  5
74
100
AcDbEntity
  8
0
100
AcDbLine
 10
2.27135
 20
1.451827
 30
0.0
 11
2.236995
 21
1.529575
 31
0.0
  0
ARC
  5
75
100
AcDbEntity
  8
0
100
AcDbCircle
 10
2.541107
 20
1.02311
 30
0.0
 40
0.61
100
AcDbArc
 50
133.816397
 51
149.362595
  0
ARC
  5
76
100
AcDbEntity
  8
0
100
AcDbCircle
 10
3.340517
 20
-0.961047
 30
0.0
 40
2.749144
100
AcDbArc
 50
103.108464
 51
114.181877
  0
LINE
  5
77
100
AcDbEntity
  8
0
100
AcDbLine
 10
2.741608
 20
1.722067
 30
0.0
 11
2.680522
 21
1.887
 31
0.0
  0
LINE
  5
78
100
AcDbEntity
  8
0
100
AcDbLine
 10
2.717078
 20
1.716317
 30
0.0
 11
2.665244
 21
1.85627
 31
0.0
  0
LINE
  5
79
100
AcDbEntity
  8
0
100
AcDbLine
 10
2.680522
 20
1.887
 30
0.0
 11
2.665244
 21
1.85627
 31
0.0
  0
LINE
  5
7A
100
AcDbEntity
  8
0
100
AcDbLine
 10
2.798196
 20
1.734075
 30
0.0
 11
2.751814
 21
1.86116
 31
0.0
  0
LINE
  5
7B
100
AcDbEntity
  8
0
100
AcDbLine
 10
2.824768
 20
1.579597
 30
0.0
 11
2.816999
 21
1.600886
 31
0.0
  0
LINE
  5
7C
100
AcDbEntity
  8
0
100
AcDbLine
 10
2.751464
 20
1.724248
 30
0.0
 11
2.684847
 21
1.904114
 31
0.0
  0
ARC
  5
7D
100
AcDbEntity
  8
0
100
AcDbCircle
 10
3.340517
 20
-0.961047
 30
0.0
 40
2.749144
100
AcDbArc
 50
101.377313
 51
101.967167
  0
LINE
  5
7E
100
AcDbEntity
  8
0
100
AcDbLine
 10
2.741608
 20
1.722067
 30
0.0
 11
2.751464
 21
1.724248
 31
0.0
  0
LINE
  5
7F
100
AcDbEntity
  8
0
100
AcDbLine
 10
2.760522
 20
1.914
 30
0.0
 11
2.740522
 21
1.904
 31
0.0
  0
LINE
  5
80
100
AcDbEntity
  8
0
100
AcDbLine
 10
2.853802
 20
1.988591
 30
0.0
 11
2.721219
 21
1.922299
 31
0.0
  0
ARC
  5
81
100
AcDbEntity
  8
0
100
AcDbCircle
 10
2.790098
 20
1.862587
 30
0.0
 40
0.064597
100
AcDbArc
 50
140.126869
 51
196.21567
  0
ARC
  5
82
100
AcDbEntity
  8
0
100
AcDbCircle
 10
2.817744
 20
1.870824
 30
0.0
 40
0.066634
100
AcDbArc
 50
143.514637
 51
188.338746
  0
LINE
  5
83
100
AcDbEntity
  8
0
100
AcDbLine
 10
2.760522
 20
1.914
 30
0.0
 11
2.76417
 21
1.910446
 31
0.0
  0
LINE
  5
84
100
AcDbEntity
  8
0
100
AcDbLine
 10
2.818194
 20
1.727115
 30
0.0
 11
2.768095
 21
1.864385
 31
0.0
  0
ARC
  5
85
100
AcDbEntity
  8
0
100
AcDbCircle
 10
2.834024
 20
1.874049
 30
0.0
 40
0.066634
100
AcDbArc
 50
143.514637
 51
188.338746
  0
ARC
  5
86
100
AcDbEntity
  8
0
100
AcDbCircle
 10
3.340517
 20
-0.961047
 30
0.0
 40
2.614144
100
AcDbArc
 50
102.154121
 51
113.899148
  0
LINE
  5
87
100
AcDbEntity
  8
0
100
AcDbLine
 10
2.49233
 20
0.95174
 30
0.0
 11
2.324508
 21
1.331529
 31
0.0
  0
ARC
  5
88
100
AcDbEntity
  8
0
100
AcDbCircle
 10
2.703018
 20
1.913237
 30
0.0
 40
0.020332
100
AcDbArc
 50
26.469176
 51
206.660926
  0
LINE
  5
89
100
AcDbEntity
  8
0
100
AcDbLine
 10
2.78045
 20
1.91367
 30
0.0
 11
2.787912
 21
1.924266
 31
0.0
  0
LINE
  5
8A
100
AcDbEntity
  8
0
100
AcDbLine
 10
2.787912
 20
1.924266
 30
0.0
 11
2.799616
 21
1.930117
 31
0.0
  0
ARC
  5
8B
100
AcDbEntity
  8
0
100
AcDbCircle
 10
2.870942
 20
1.90446
 30
0.0
 40
0.075801
100
AcDbArc
 50
160.215168
 51
196.204674
  0
ARC
  5
8C
100
AcDbEntity
  8
0
100
AcDbCircle
 10
2.794129
 20
1.664343
 30
0.0
 40
0.042507
100
AcDbArc
 50
280.749905
 51
102.762928
  0
ARC
  5
8D
100
AcDbEntity
  8
0
100
AcDbCircle
 10
2.793671
 20
1.664227
 30
0.0
 40
0.0675
100
AcDbArc
 50
290.218239
 51
68.696884
  0
ARC
  5
8E
100
AcDbEntity
  8
0
100
AcDbCircle
 10
2.85424
 20
1.607151
 30
0.0
 40
0.040346
100
AcDbArc
 50
223.073786
 51
22.898374
  0
LINE
  5
8F
100
AcDbEntity
  8
0
100
AcDbLine
 10
2.891407
 20
1.62285
 30
0.0
 11
2.798153
 21
1.883306
 31
0.0
  0
LINE
  5
90
100
AcDbEntity
  8
0
100
AcDbLine
 10
2.770479
 20
1.728349
 30
0.0
 11
2.728071
 21
1.844548
 31
0.0
  0
ARC
  5
91
100
AcDbEntity
  8
0
100
AcDbCircle
 10
2.85424
 20
1.607151
 30
0.0
 40
0.065346
100
AcDbArc
 50
191.162607
 51
22.898374
  0
LINE
  5
92
100
AcDbEntity
  8
0
100
AcDbLine
 10
2.914944
 20
1.631277
 30
0.0
 11
2.82169
 21
1.891733
 31
0.0
  0
LINE
  5
93
100
AcDbEntity
  8
0
100
AcDbLine
 10
2.993776
 20
1.689544
 30
0.0
 11
2.900522
 21
1.95
 31
0.0
  0
ARC
  5
94
100
AcDbEntity
  8
0
100
AcDbCircle
 10
2.89285
 20
1.636661
 30
0.0
 40
0.113941
100
AcDbArc
 50
217.664889
 51
27.653223
  0
ARC
  5
95
100
AcDbEntity
  8
0
100
AcDbCircle
 10
2.870291
 20
1.908439
 30
0.0
 40
0.051393
100
AcDbArc
 50
53.9688
 51
198.969411
  0
ARC
  5
96
100
AcDbEntity
  8
0
100
AcDbCircle
 10
2.813393
 20
1.862791
 30
0.0
 40
0.094387
100
AcDbArc
 50
348.337391
 51
16.542022
  0
ARC
  5
97
100
AcDbEntity
  8
0
100
AcDbCircle
 10
2.892727
 20
1.866848
 30
0.0
 40
0.038509
100
AcDbArc
 50
225.810337
 51
247.510629
  0
ARC
  5
98
100
AcDbEntity
  8
0
100
AcDbCircle
 10
2.908811
 20
1.883393
 30
0.0
 40
0.061583
100
AcDbArc
 50
209.61144
 51
225.810337
  0
ARC
  5
99
100
AcDbEntity
  8
0
100
AcDbCircle
 10
2.93733
 20
1.899602
 30
0.0
 40
0.094387
100
AcDbArc
 50
196.542022
 51
209.61144
  0
ARC
  5
9A
100
AcDbEntity
  8
0
100
AcDbCircle
 10
2.93733
 20
1.899602
 30
0.0
 40
0.094387
100
AcDbArc
 50
183.472603
 51
196.542022
  0
ARC
  5
9B
100
AcDbEntity
  8
0
100
AcDbCircle
 10
2.904587
 20
1.897615
 30
0.0
 40
0.061583
100
AcDbArc
 50
167.273706
 51
183.472603
  0
ARC
  5
9C
100
AcDbEntity
  8
0
100
AcDbCircle
 10
2.882079
 20
1.902698
 30
0.0
 40
0.038509
100
AcDbArc
 50
143.009286
 51
167.273706
  0
ARC
  5
9D
100
AcDbEntity
  8
0
100
AcDbCircle
 10
2.865198
 20
1.915414
 30
0.0
 40
0.017374
100
AcDbArc
 50
106.542022
 51
143.009286
  0
ARC
  5
9E
100
AcDbEntity
  8
0
100
AcDbCircle
 10
2.865198
 20
1.915414
 30
0.0
 40
0.017374
100
AcDbArc
 50
70.074757
 51
106.542022
  0
ARC
  5
9F
100
AcDbEntity
  8
0
100
AcDbCircle
 10
2.857996
 20
1.895545
 30
0.0
 40
0.038509
100
AcDbArc
 50
45.810337
 51
70.074757
  0
ARC
  5
A0
100
AcDbEntity
  8
0
100
AcDbCircle
 10
2.841912
 20
1.879
 30
0.0
 40
0.061583
100
AcDbArc
 50
29.61144
 51
45.810337
  0
ARC
  5
A1
100
AcDbEntity
  8
0
100
AcDbCircle
 10
2.813393
 20
1.862791
 30
0.0
 40
0.094387
100
AcDbArc
 50
16.542022
 51
29.61144
  0
ARC
  5
A2
100
AcDbEntity
  8
0
100
AcDbCircle
 10
2.844643
 20
1.775298
 30
0.0
 40
0.094387
100
AcDbArc
 50
3.472603
 51
16.542022
  0
ARC
  5
A3
100
AcDbEntity
  8
0
100
AcDbCircle
 10
2.877386
 20
1.777285
 30
0.0
 40
0.061583
100
AcDbArc
 50
347.273706
 51
3.472603
  0
ARC
  5
A4
100
AcDbEntity
  8
0
100
AcDbCircle
 10
2.899893
 20
1.772202
 30
0.0
 40
0.038509
100
AcDbArc
 50
323.009286
 51
347.273706
  0
ARC
  5
A5
100
AcDbEntity
  8
0
100
AcDbCircle
 10
2.916774
 20
1.759486
 30
0.0
 40
0.017374
100
AcDbArc
 50
286.542022
 51
323.009286
  0
ARC
  5
A6
100
AcDbEntity
  8
0
100
AcDbCircle
 10
2.916774
 20
1.759486
 30
0.0
 40
0.017374
100
AcDbArc
 50
250.074757
 51
286.542022
  0
ARC
  5
A7
100
AcDbEntity
  8
0
100
AcDbCircle
 10
2.923977
 20
1.779355
 30
0.0
 40
0.038509
100
AcDbArc
 50
225.810337
 51
250.074757
  0
ARC
  5
A8
100
AcDbEntity
  8
0
100
AcDbCircle
 10
2.94006
 20
1.7959
 30
0.0
 40
0.061583
100
AcDbArc
 50
209.61144
 51
225.810337
  0
ARC
  5
A9
100
AcDbEntity
  8
0
100
AcDbCircle
 10
2.968579
 20
1.812109
 30
0.0
 40
0.094387
100
AcDbArc
 50
196.542022
 51
209.61144
  0
ARC
  5
AA
100
AcDbEntity
  8
0
100
AcDbCircle
 10
2.968579
 20
1.812109
 30
0.0
 40
0.094387
100
AcDbArc
 50
183.472603
 51
196.542022
  0
ARC
  5
AB
100
AcDbEntity
  8
0
100
AcDbCircle
 10
2.935836
 20
1.810122
 30
0.0
 40
0.061583
100
AcDbArc
 50
159.918424
 51
183.472603
  0
ARC
  5
AC
100
AcDbEntity
  8
0
100
AcDbCircle
 10
2.873162
 20
1.791507
 30
0.0
 40
0.061583
100
AcDbArc
 50
29.61144
 51
57.961454
  0
ARC
  5
AD
100
AcDbEntity
  8
0
100
AcDbCircle
 10
2.844643
 20
1.775298
 30
0.0
 40
0.094387
100
AcDbArc
 50
16.542022
 51
29.61144
  0
POLYLINE
  5
AE
100
AcDbEntity
  8
0
100
AcDb2dPolyline
 66
     1
 10
0.0
 20
0.0
 30
0.0
 70
     1
  0
VERTEX
  5
AF
100
AcDbEntity
  8
0
100
AcDbVertex
100
AcDb2dVertex
 10
2.910683
 20
1.793468
 30
0.0
 42
-0.05971
  0
VERTEX
  5
B0
100
AcDbEntity
  8
0
100
AcDbVertex
100
AcDb2dVertex
 10
2.912905
 20
1.785721
 30
0.0
 42
-0.073212
  0
VERTEX
  5
B1
100
AcDbEntity
  8
0
100
AcDbVertex
100
AcDb2dVertex
 10
2.912996
 20
1.779136
 30
0.0
 42
-0.106776
 70
     2
 50
277.582114
  0
VERTEX
  5
B2
100
AcDbEntity
  8
0
100
AcDbVertex
100
AcDb2dVertex
 10
2.910909
 20
1.773331
 30
0.0
 42
-0.154825
  0
VERTEX
  5
B3
100
AcDbEntity
  8
0
100
AcDbVertex
100
AcDb2dVertex
 10
2.907631
 20
1.770537
 30
0.0
 42
-0.154825
  0
VERTEX
  5
B4
100
AcDbEntity
  8
0
100
AcDbVertex
100
AcDb2dVertex
 10
2.903341
 20
1.770144
 30
0.0
 42
-0.106776
  0
VERTEX
  5
B5
100
AcDbEntity
  8
0
100
AcDbVertex
100
AcDb2dVertex
 10
2.89773
 20
1.772708
 30
0.0
 42
-0.073212
 70
     2
 50
36.747499
  0
VERTEX
  5
B6
100
AcDbEntity
  8
0
100
AcDbVertex
100
AcDb2dVertex
 10
2.893084
 20
1.777374
 30
0.0
 42
-0.05971
  0
VERTEX
  5
B7
100
AcDbEntity
  8
0
100
AcDbVertex
100
AcDb2dVertex
 10
2.889094
 20
1.784377
 30
0.0
 42
-0.05971
  0
VERTEX
  5
B8
100
AcDbEntity
  8
0
100
AcDbVertex
100
AcDb2dVertex
 10
2.886872
 20
1.792125
 30
0.0
 42
-0.073212
  0
VERTEX
  5
B9
100
AcDbEntity
  8
0
100
AcDbVertex
100
AcDb2dVertex
 10
2.886781
 20
1.79871
 30
0.0
 42
-0.106776
 70
     2
 50
97.582114
  0
VERTEX
  5
BA
100
AcDbEntity
  8
0
100
AcDbVertex
100
AcDb2dVertex
 10
2.888868
 20
1.804515
 30
0.0
 42
-0.154825
  0
VERTEX
  5
BB
100
AcDbEntity
  8
0
100
AcDbVertex
100
AcDb2dVertex
 10
2.892147
 20
1.807309
 30
0.0
 42
-0.154825
  0
VERTEX
  5
BC
100
AcDbEntity
  8
0
100
AcDbVertex
100
AcDb2dVertex
 10
2.896436
 20
1.807702
 30
0.0
 42
-0.106776
  0
VERTEX
  5
BD
100
AcDbEntity
  8
0
100
AcDbVertex
100
AcDb2dVertex
 10
2.902047
 20
1.805138
 30
0.0
 42
-0.073212
 70
     2
 50
216.747499
  0
VERTEX
  5
BE
100
AcDbEntity
  8
0
100
AcDbVertex
100
AcDb2dVertex
 10
2.906694
 20
1.800472
 30
0.0
 42
-0.05971
  0
SEQEND
  5
BF
100
AcDbEntity
  8
0
  0
POLYLINE
  5
C0
100
AcDbEntity
  8
0
100
AcDb2dPolyline
 66
     1
 10
0.0
 20
0.0
 30
0.0
 70
     1
  0
VERTEX
  5
C1
100
AcDbEntity
  8
0
100
AcDbVertex
100
AcDb2dVertex
 10
2.883411
 20
1.880961
 30
0.0
 42
-0.05971
  0
VERTEX
  5
C2
100
AcDbEntity
  8
0
100
AcDbVertex
100
AcDb2dVertex
 10
2.885633
 20
1.873213
 30
0.0
 42
-0.073212
  0
VERTEX
  5
C3
100
AcDbEntity
  8
0
100
AcDbVertex
100
AcDb2dVertex
 10
2.885724
 20
1.866628
 30
0.0
 42
-0.106776
 70
     2
 50
277.582114
  0
VERTEX
  5
C4
100
AcDbEntity
  8
0
100
AcDbVertex
100
AcDb2dVertex
 10
2.883637
 20
1.860823
 30
0.0
 42
-0.154825
  0
VERTEX
  5
C5
100
AcDbEntity
  8
0
100
AcDbVertex
100
AcDb2dVertex
 10
2.880358
 20
1.858029
 30
0.0
 42
-0.154825
  0
VERTEX
  5
C6
100
AcDbEntity
  8
0
100
AcDbVertex
100
AcDb2dVertex
 10
2.876069
 20
1.857636
 30
0.0
 42
-0.106776
  0
VERTEX
  5
C7
100
AcDbEntity
  8
0
100
AcDbVertex
100
AcDb2dVertex
 10
2.870458
 20
1.8602
 30
0.0
 42
-0.073212
 70
     2
 50
36.747499
  0
VERTEX
  5
C8
100
AcDbEntity
  8
0
100
AcDbVertex
100
AcDb2dVertex
 10
2.865811
 20
1.864867
 30
0.0
 42
-0.05971
  0
VERTEX
  5
C9
100
AcDbEntity
  8
0
100
AcDbVertex
100
AcDb2dVertex
 10
2.861822
 20
1.87187
 30
0.0
 42
-0.05971
  0
VERTEX
  5
CA
100
AcDbEntity
  8
0
100
AcDbVertex
100
AcDb2dVertex
 10
2.8596
 20
1.879618
 30
0.0
 42
-0.073212
  0
VERTEX
  5
CB
100
AcDbEntity
  8
0
100
AcDbVertex
100
AcDb2dVertex
 10
2.859509
 20
1.886202
 30
0.0
 42
-0.106776
 70
     2
 50
97.582114
  0
VERTEX
  5
CC
100
AcDbEntity
  8
0
100
AcDbVertex
100
AcDb2dVertex
 10
2.861596
 20
1.892008
 30
0.0
 42
-0.154825
  0
VERTEX
  5
CD
100
AcDbEntity
  8
0
100
AcDbVertex
100
AcDb2dVertex
 10
2.864874
 20
1.894801
 30
0.0
 42
-0.154825
  0
VERTEX
  5
CE
100
AcDbEntity
  8
0
100
AcDbVertex
100
AcDb2dVertex
 10
2.869164
 20
1.895194
 30
0.0
 42
-0.106776
  0
VERTEX
  5
CF
100
AcDbEntity
  8
0
100
AcDbVertex
100
AcDb2dVertex
 10
2.874775
 20
1.89263
 30
0.0
 42
-0.073212
 70
     2
 50
216.747499
  0
VERTEX
  5
D0
100
AcDbEntity
  8
0
100
AcDbVertex
100
AcDb2dVertex
 10
2.879421
 20
1.887964
 30
0.0
 42
-0.05971
  0
SEQEND
  5
D1
100
AcDbEntity
  8
0
  0
ARC
  5
D2
100
AcDbEntity
  8
0
100
AcDbCircle
 10
2.876163
 20
1.94387
 30
0.0
 40
0.05
100
AcDbArc
 50
19.699499
 51
116.565051
  0
LINE
  5
D3
100
AcDbEntity
  8
0
100
AcDbLine
 10
2.960522
 20
1.915
 30
0.0
 11
3.002619
 21
1.754123
 31
0.0
  0
LINE
  5
D4
100
AcDbEntity
  8
0
100
AcDbLine
 10
3.002619
 20
1.754123
 30
0.0
 11
2.989832
 21
1.749845
 31
0.0
  0
LINE
  5
D5
100
AcDbEntity
  8
0
100
AcDbLine
 10
2.989832
 20
1.749845
 30
0.0
 11
2.923236
 21
1.960724
 31
0.0
  0
LINE
  5
D6
100
AcDbEntity
  8
0
100
AcDbLine
 10
2.960522
 20
1.915
 30
0.0
 11
3.080862
 21
1.977577
 31
0.0
  0
LINE
  5
D7
100
AcDbEntity
  8
0
100
AcDbLine
 10
3.087713
 20
1.975227
 30
0.0
 11
3.225522
 21
1.675
 31
0.0
  0
LINE
  5
D8
100
AcDbEntity
  8
0
100
AcDbLine
 10
2.954288
 20
1.928665
 30
0.0
 11
3.073942
 21
1.990885
 31
0.0
  0
ARC
  5
D9
100
AcDbEntity
  8
0
100
AcDbCircle
 10
3.083169
 20
1.973141
 30
0.0
 40
0.02
100
AcDbArc
 50
24.655899
 51
117.474432
  0
ARC
  5
DA
100
AcDbEntity
  8
0
100
AcDbCircle
 10
3.083169
 20
1.973141
 30
0.0
 40
0.005
100
AcDbArc
 50
24.655899
 51
117.474432
  0
LINE
  5
DB
100
AcDbEntity
  8
0
100
AcDbLine
 10
2.947087
 20
1.956184
 30
0.0
 11
2.954288
 21
1.928665
 31
0.0
  0
ARC
  5
DC
100
AcDbEntity
  8
0
100
AcDbCircle
 10
2.874505
 20
1.932536
 30
0.0
 40
0.076337
100
AcDbArc
 50
18.046081
 51
89.227806
  0
LINE
  5
DD
100
AcDbEntity
  8
0
100
AcDbLine
 10
3.017794
 20
1.916604
 30
0.0
 11
3.078198
 21
1.948014
 31
0.0
  0
LINE
  5
DE
100
AcDbEntity
  8
0
100
AcDbLine
 10
3.017794
 20
1.916604
 30
0.0
 11
3.104232
 21
1.728291
 31
0.0
  0
LINE
  5
DF
100
AcDbEntity
  8
0
100
AcDbLine
 10
3.000154
 20
1.895105
 30
0.0
 11
3.074016
 21
1.734193
 31
0.0
  0
LINE
  5
E0
100
AcDbEntity
  8
0
100
AcDbLine
 10
2.992315
 20
1.892255
 30
0.0
 11
3.031504
 21
1.742496
 31
0.0
  0
LINE
  5
E1
100
AcDbEntity
  8
0
100
AcDbLine
 10
3.000154
 20
1.895105
 30
0.0
 11
2.992315
 21
1.892255
 31
0.0
  0
LINE
  5
E2
100
AcDbEntity
  8
0
100
AcDbLine
 10
3.031735
 20
1.640618
 30
0.0
 11
3.129228
 21
1.621576
 31
0.0
  0
ARC
  5
E3
100
AcDbEntity
  8
0
100
AcDbCircle
 10
3.137375
 20
1.663288
 30
0.0
 40
0.0425
100
AcDbArc
 50
258.948543
 51
78.948543
  0
ARC
  5
E4
100
AcDbEntity
  8
0
100
AcDbCircle
 10
3.137375
 20
1.663288
 30
0.0
 40
0.0575
100
AcDbArc
 50
258.948543
 51
81.467193
  0
LINE
  5
E5
100
AcDbEntity
  8
0
100
AcDbLine
 10
3.078198
 20
1.948014
 30
0.0
 11
3.207345
 21
1.666657
 31
0.0
  0
LINE
  5
E6
100
AcDbEntity
  8
0
100
AcDbLine
 10
3.004967
 20
1.732452
 30
0.0
 11
3.145522
 21
1.705
 31
0.0
  0
ARC
  5
E7
100
AcDbEntity
  8
0
100
AcDbCircle
 10
3.157071
 20
1.649999
 30
0.0
 40
0.052962
100
AcDbArc
 50
234.549969
 51
18.33193
  0
ARC
  5
E8
100
AcDbEntity
  8
0
100
AcDbCircle
 10
3.151516
 20
1.650479
 30
0.0
 40
0.077962
100
AcDbArc
 50
218.53806
 51
18.33193
  0
ARC
  5
E9
100
AcDbEntity
  8
0
100
AcDbCircle
 10
3.151516
 20
1.650479
 30
0.0
 40
0.092962
100
AcDbArc
 50
267.608052
 51
18.33193
  0
LINE
  5
EA
100
AcDbEntity
  8
0
100
AcDbLine
 10
3.239761
 20
1.679718
 30
0.0
 11
3.101345
 21
1.981484
 31
0.0
  0
LINE
  5
EB
100
AcDbEntity
  8
0
100
AcDbLine
 10
2.84482
 20
2.012051
 30
0.0
 11
2.778348
 21
1.978815
 31
0.0
  0
ARC
  5
EC
100
AcDbEntity
  8
0
100
AcDbCircle
 10
1.808751
 20
1.402917
 30
0.0
 40
1.201867
100
AcDbArc
 50
30.452471
 51
96.997814
  0
ARC
  5
ED
100
AcDbEntity
  8
0
100
AcDbCircle
 10
1.77117
 20
1.462372
 30
0.0
 40
1.131867
100
AcDbArc
 50
27.147036
 51
95.476087
  0
LINE
  5
EE
100
AcDbEntity
  8
0
100
AcDbLine
 10
1.663155
 20
2.589073
 30
0.0
 11
1.662326
 21
2.59583
 31
0.0
  0
LINE
  5
EF
100
AcDbEntity
  8
0
100
AcDbLine
 10
2.580522
 20
1.437
 30
0.0
 11
2.960522
 21
1.437
 31
0.0
  0
ARC
  5
F0
100
AcDbEntity
  8
0
100
AcDbCircle
 10
2.971494
 20
1.562054
 30
0.0
 40
0.125534
100
AcDbArc
 50
264.985831
 51
18.509441
  0
LINE
  5
F1
100
AcDbEntity
  8
0
100
AcDbLine
 10
3.147636
 20
1.557598
 30
0.0
 11
3.120141
 21
1.538294
 31
0.0
  0
LINE
  5
F2
100
AcDbEntity
  8
0
100
AcDbLine
 10
2.915522
 20
1.41
 30
0.0
 11
2.957466
 21
1.41
 31
0.0
  0
ARC
  5
F3
100
AcDbEntity
  8
0
100
AcDbCircle
 10
2.967716
 20
1.564284
 30
0.0
 40
0.154625
100
AcDbArc
 50
266.19903
 51
350.323355
  0
ARC
  5
F4
100
AcDbEntity
  8
0
100
AcDbCircle
 10
3.373526
 20
1.051988
 30
0.0
 40
0.581326
100
AcDbArc
 50
141.986076
 51
197.797826
  0
LINE
  5
F5
100
AcDbEntity
  8
0
100
AcDbLine
 10
3.309267
 20
0.576034
 30
0.0
 11
3.225373
 21
0.778941
 31
0.0
  0
LINE
  5
F6
100
AcDbEntity
  8
0
100
AcDbLine
 10
3.222718
 20
0.562902
 30
0.0
 11
3.137026
 21
0.770156
 31
0.0
  0
LINE
  5
F7
100
AcDbEntity
  8
0
100
AcDbLine
 10
2.927878
 20
1.385
 30
0.0
 11
2.974791
 21
1.385
 31
0.0
  0
ARC
  5
F8
100
AcDbEntity
  8
0
100
AcDbCircle
 10
3.373526
 20
1.051988
 30
0.0
 40
0.556326
100
AcDbArc
 50
143.230999
 51
148.366562
  0
LINE
  5
F9
100
AcDbEntity
  8
0
100
AcDbLine
 10
3.083149
 20
0.900465
 30
0.0
 11
3.171496
 21
0.909249
 31
0.0
  0
LINE
  5
FA
100
AcDbEntity
  8
0
100
AcDbLine
 10
3.083149
 20
0.900465
 30
0.0
 11
2.899858
 21
1.343772
 31
0.0
  0
LINE
  5
FB
100
AcDbEntity
  8
0
100
AcDbLine
 10
3.171496
 20
0.909249
 30
0.0
 11
2.974791
 21
1.385
 31
0.0
  0
LINE
  5
FC
100
AcDbEntity
  8
0
100
AcDbLine
 10
3.137026
 20
0.770156
 30
0.0
 11
3.225373
 21
0.778941
 31
0.0
  0
LINE
  5
FD
100
AcDbEntity
  8
0
100
AcDbLine
 10
3.309267
 20
0.576034
 30
0.0
 11
3.222718
 21
0.562902
 31
0.0
  0
ARC
  5
FE
100
AcDbEntity
  8
0
100
AcDbCircle
 10
4.173161
 20
1.066705
 30
0.0
 40
1.002157
100
AcDbArc
 50
217.933265
 51
225.9623
  0
ARC
  5
FF
100
AcDbEntity
  8
0
100
AcDbCircle
 10
4.173161
 20
1.066705
 30
0.0
 40
1.087157
100
AcDbArc
 50
215.448231
 51
231.027956
  0
LINE
  5
100
100
AcDbEntity
  8
0
100
AcDbLine
 10
3.287519
 20
0.436189
 30
0.0
 11
3.382732
 21
0.450635
 31
0.0
  0
ARC
  5
101
100
AcDbEntity
  8
0
100
AcDbCircle
 10
1.799843
 20
0.110238
 30
0.0
 40
1.693219
100
AcDbArc
 50
3.76733
 51
8.013073
  0
LINE
  5
102
100
AcDbEntity
  8
0
100
AcDbLine
 10
3.581734
 20
0.519201
 30
0.0
 11
3.726522
 21
0.558
 31
0.0
  0
LINE
  5
103
100
AcDbEntity
  8
0
100
AcDbLine
 10
3.560797
 20
0.601589
 30
0.0
 11
3.70452
 21
0.640103
 31
0.0
  0
ARC
  5
104
100
AcDbEntity
  8
0
100
AcDbCircle
 10
3.708474
 20
0.61754
 30
0.0
 40
0.062891
100
AcDbArc
 50
276.390495
 51
108.525998
  0
LINE
  5
105
100
AcDbEntity
  8
0
100
AcDbLine
 10
3.70452
 20
0.640103
 30
0.0
 11
3.693499
 21
0.654772
 31
0.0
  0
LINE
  5
106
100
AcDbEntity
  8
0
100
AcDbLine
 10
3.693499
 20
0.654772
 30
0.0
 11
3.554049
 21
0.625162
 31
0.0
  0
ARC
  5
107
100
AcDbEntity
  8
0
100
AcDbCircle
 10
1.799843
 20
0.110238
 30
0.0
 40
1.828219
100
AcDbArc
 50
16.358901
 51
17.05936
  0
ARC
  5
108
100
AcDbEntity
  8
0
100
AcDbCircle
 10
1.799843
 20
0.110238
 30
0.0
 40
1.828219
100
AcDbArc
 50
12.926114
 51
15.59045
  0
ARC
  5
109
100
AcDbEntity
  8
0
100
AcDbCircle
 10
1.799843
 20
0.110238
 30
0.0
 40
1.803219
100
AcDbArc
 50
358.071031
 51
26.413863
  0
LINE
  5
10A
100
AcDbEntity
  8
0
100
AcDbLine
 10
3.434149
 20
0.929645
 30
0.0
 11
3.644005
 21
0.974908
 31
0.0
  0
ARC
  5
10B
100
AcDbEntity
  8
0
100
AcDbCircle
 10
1.043232
 20
-0.112613
 30
0.0
 40
2.854459
100
AcDbArc
 50
6.29269
 51
21.83077
  0
ARC
  5
10C
100
AcDbEntity
  8
0
100
AcDbCircle
 10
3.653071
 20
0.932875
 30
0.0
 40
0.043
100
AcDbArc
 50
21.83077
 51
102.171458
  0
ARC
  5
10D
100
AcDbEntity
  8
0
100
AcDbCircle
 10
1.043232
 20
-0.112613
 30
0.0
 40
2.769459
100
AcDbArc
 50
16.928916
 51
20.583028
  0
LINE
  5
10E
100
AcDbEntity
  8
0
100
AcDbLine
 10
3.688492
 20
0.677171
 30
0.0
 11
3.547623
 21
0.646569
 31
0.0
  0
ARC
  5
10F
100
AcDbEntity
  8
0
100
AcDbCircle
 10
3.708474
 20
0.61754
 30
0.0
 40
0.077891
100
AcDbArc
 50
288.94314
 51
101.697833
  0
ARC
  5
110
100
AcDbEntity
  8
0
100
AcDbCircle
 10
1.043232
 20
-0.112613
 30
0.0
 40
2.769459
100
AcDbArc
 50
6.994831
 51
13.712057
  0
LINE
  5
111
100
AcDbEntity
  8
0
100
AcDbLine
 10
3.471389
 20
0.850723
 30
0.0
 11
3.61422
 21
0.881529
 31
0.0
  0
ARC
  5
112
100
AcDbEntity
  8
0
100
AcDbCircle
 10
3.601568
 20
0.930716
 30
0.0
 40
0.050788
100
AcDbArc
 50
284.424586
 51
5.593566
  0
ARC
  5
113
100
AcDbEntity
  8
0
100
AcDbCircle
 10
3.602078
 20
0.907458
 30
0.0
 40
0.05744
100
AcDbArc
 50
306.073378
 51
29.412628
  0
ARC
  5
114
100
AcDbEntity
  8
0
100
AcDbCircle
 10
1.799843
 20
0.110238
 30
0.0
 40
1.828219
100
AcDbArc
 50
23.893038
 51
26.628227
  0
ARC
  5
115
100
AcDbEntity
  8
0
100
AcDbCircle
 10
3.58931
 20
0.506062
 30
0.0
 40
0.461861
100
AcDbArc
 50
274.671309
 51
303.261857
  0
ARC
  5
116
100
AcDbEntity
  8
0
100
AcDbCircle
 10
3.58931
 20
0.506062
 30
0.0
 40
0.376861
100
AcDbArc
 50
275.883715
 51
295.637507
  0
ARC
  5
117
100
AcDbEntity
  8
0
100
AcDbCircle
 10
3.796006
 20
0.190941
 30
0.0
 40
0.085
100
AcDbArc
 50
303.261857
 51
6.29269
  0
ARC
  5
118
100
AcDbEntity
  8
0
100
AcDbCircle
 10
1.799843
 20
0.110238
 30
0.0
 40
1.828219
100
AcDbArc
 50
1.298852
 51
4.438982
  0
ARC
  5
119
100
AcDbEntity
  8
0
100
AcDbCircle
 10
3.788469
 20
0.517508
 30
0.0
 40
0.313295
100
AcDbArc
 50
238.027993
 51
272.939972
  0
LINE
  5
11A
100
AcDbEntity
  8
0
100
AcDbLine
 10
3.687277
 20
0.166199
 30
0.0
 11
3.649416
 21
0.18959
 31
0.0
  0
LINE
  5
11B
100
AcDbEntity
  8
0
100
AcDbLine
 10
3.649416
 20
0.18959
 30
0.0
 11
3.65053
 21
0.195159
 31
0.0
  0
LINE
  5
11C
100
AcDbEntity
  8
0
100
AcDbLine
 10
3.65053
 20
0.195159
 30
0.0
 11
3.751863
 21
0.178451
 31
0.0
  0
LINE
  5
11D
100
AcDbEntity
  8
0
100
AcDbLine
 10
3.751863
 20
0.178451
 30
0.0
 11
3.752369
 21
0.166303
 31
0.0
  0
LINE
  5
11E
100
AcDbEntity
  8
0
100
AcDbLine
 10
3.687277
 20
0.166199
 30
0.0
 11
3.686193
 21
0.158445
 31
0.0
  0
LINE
  5
11F
100
AcDbEntity
  8
0
100
AcDbLine
 10
3.686193
 20
0.158445
 30
0.0
 11
3.627592
 21
0.151679
 31
0.0
  0
ARC
  5
120
100
AcDbEntity
  8
0
100
AcDbCircle
 10
3.602673
 20
0.478224
 30
0.0
 40
0.376861
100
AcDbArc
 50
281.337823
 51
304.648714
  0
ARC
  5
121
100
AcDbEntity
  8
0
100
AcDbCircle
 10
3.805564
 20
0.184652
 30
0.0
 40
0.02
100
AcDbArc
 50
304.648714
 51
92.939972
  0
ARC
  5
122
100
AcDbEntity
  8
0
100
AcDbCircle
 10
3.805564
 20
0.184652
 30
0.0
 40
0.04
100
AcDbArc
 50
304.648714
 51
90.0
  0
LINE
  5
123
100
AcDbEntity
  8
0
100
AcDbLine
 10
3.805564
 20
0.224652
 30
0.0
 11
3.792079
 21
0.224652
 31
0.0
  0
ARC
  5
124
100
AcDbEntity
  8
0
100
AcDbCircle
 10
3.614044
 20
0.461771
 30
0.0
 40
0.376861
100
AcDbArc
 50
280.394933
 51
304.648714
  0
ARC
  5
125
100
AcDbEntity
  8
0
100
AcDbCircle
 10
1.799843
 20
0.110238
 30
0.0
 40
1.828219
100
AcDbArc
 50
357.978066
 51
0.656511
  0
LINE
  5
126
100
AcDbEntity
  8
0
100
AcDbLine
 10
3.682042
 20
0.091096
 30
0.0
 11
3.676761
 21
0.108718
 31
0.0
  0
ARC
  5
127
100
AcDbEntity
  8
0
100
AcDbCircle
 10
3.336022
 20
3.5935
 30
0.0
 40
2.643623
100
AcDbArc
 50
266.613092
 51
270.378164
  0
LINE
  5
128
100
AcDbEntity
  8
0
100
AcDbLine
 10
3.19748
 20
0.911833
 30
0.0
 11
3.331189
 21
0.925129
 31
0.0
  0
LINE
  5
129
100
AcDbEntity
  8
0
100
AcDbLine
 10
3.19748
 20
0.911833
 30
0.0
 11
3.179841
 21
0.954494
 31
0.0
  0
LINE
  5
12A
100
AcDbEntity
  8
0
100
AcDbLine
 10
3.331189
 20
0.925129
 30
0.0
 11
3.35347
 21
0.949935
 31
0.0
  0
LINE
  5
12B
100
AcDbEntity
  8
0
100
AcDbLine
 10
3.163305
 20
0.64117
 30
0.0
 11
2.885593
 21
0.686178
 31
0.0
  0
LINE
  5
12C
100
AcDbEntity
  8
0
100
AcDbLine
 10
3.167041
 20
0.554455
 30
0.0
 11
2.887429
 21
0.599771
 31
0.0
  0
LINE
  5
12D
100
AcDbEntity
  8
0
100
AcDbLine
 10
3.40961
 20
0.635253
 30
0.0
 11
3.310077
 21
0.639506
 31
0.0
  0
LINE
  5
12E
100
AcDbEntity
  8
0
100
AcDbLine
 10
3.334723
 20
0.579896
 30
0.0
 11
3.310077
 21
0.639506
 31
0.0
  0
LINE
  5
12F
100
AcDbEntity
  8
0
100
AcDbLine
 10
3.422709
 20
0.593246
 30
0.0
 11
3.334723
 21
0.579896
 31
0.0
  0
ARC
  5
130
100
AcDbEntity
  8
0
100
AcDbCircle
 10
1.799843
 20
0.110238
 30
0.0
 40
1.693219
100
AcDbArc
 50
16.574391
 51
18.063375
  0
LINE
  5
131
100
AcDbEntity
  8
0
100
AcDbLine
 10
3.197262
 20
0.55904
 30
0.0
 11
3.163305
 21
0.64117
 31
0.0
  0
LINE
  5
132
100
AcDbEntity
  8
0
100
AcDbLine
 10
3.197262
 20
0.55904
 30
0.0
 11
3.167041
 21
0.554455
 31
0.0
  0
ARC
  5
133
100
AcDbEntity
  8
0
100
AcDbCircle
 10
3.676023
 20
1.844961
 30
0.0
 40
1.073716
100
AcDbArc
 50
218.208062
 51
232.04359
  0
ARC
  5
134
100
AcDbEntity
  8
0
100
AcDbCircle
 10
3.676023
 20
1.844961
 30
0.0
 40
1.158716
100
AcDbArc
 50
222.182259
 51
235.186416
  0
LINE
  5
135
100
AcDbEntity
  8
0
100
AcDbLine
 10
3.057164
 20
0.897881
 30
0.0
 11
3.015621
 21
0.998358
 31
0.0
  0
LINE
  5
136
100
AcDbEntity
  8
0
100
AcDbLine
 10
3.014502
 20
0.893639
 30
0.0
 11
3.057164
 21
0.897881
 31
0.0
  0
ARC
  5
137
100
AcDbEntity
  8
0
100
AcDbCircle
 10
3.373526
 20
1.051988
 30
0.0
 40
0.556326
100
AcDbArc
 50
166.607287
 51
178.46478
  0
ARC
  5
138
100
AcDbEntity
  8
0
100
AcDbCircle
 10
1.963443
 20
0.623364
 30
0.0
 40
0.899287
100
AcDbArc
 50
352.574252
 51
7.587019
  0
ARC
  5
139
100
AcDbEntity
  8
0
100
AcDbCircle
 10
1.963443
 20
0.623364
 30
0.0
 40
0.864287
100
AcDbArc
 50
351.905468
 51
7.664335
  0
LINE
  5
13A
100
AcDbEntity
  8
0
100
AcDbLine
 10
2.855188
 20
0.507139
 30
0.0
 11
2.819119
 21
0.501667
 31
0.0
  0
LINE
  5
13B
100
AcDbEntity
  8
0
100
AcDbLine
 10
2.820009
 20
0.738634
 30
0.0
 11
2.854857
 21
0.742099
 31
0.0
  0
ARC
  5
13C
100
AcDbEntity
  8
0
100
AcDbCircle
 10
1.963443
 20
0.623364
 30
0.0
 40
0.924287
100
AcDbArc
 50
358.537341
 51
3.896775
  0
ARC
  5
13D
100
AcDbEntity
  8
0
100
AcDbCircle
 10
2.387815
 20
0.814145
 30
0.0
 40
0.646404
100
AcDbArc
 50
258.093531
 51
297.32749
  0
ARC
  5
13E
100
AcDbEntity
  8
0
100
AcDbCircle
 10
2.387815
 20
0.814145
 30
0.0
 40
0.611404
100
AcDbArc
 50
259.37545
 51
296.980068
  0
ARC
  5
13F
100
AcDbEntity
  8
0
100
AcDbCircle
 10
1.899292
 20
0.436304
 30
0.0
 40
0.437022
100
AcDbArc
 50
273.285112
 51
324.358799
  0
ARC
  5
140
100
AcDbEntity
  8
0
100
AcDbCircle
 10
3.19119
 20
0.594664
 30
0.0
 40
0.618499
100
AcDbArc
 50
211.741041
 51
215.002945
  0
ARC
  5
141
100
AcDbEntity
  8
0
100
AcDbCircle
 10
2.546391
 20
0.516189
 30
0.0
 40
0.308929
100
AcDbArc
 50
321.899344
 51
330.610097
  0
LINE
  5
142
100
AcDbEntity
  8
0
100
AcDbLine
 10
2.769777
 20
0.357635
 30
0.0
 11
2.815562
 21
0.364582
 31
0.0
  0
ARC
  5
143
100
AcDbEntity
  8
0
100
AcDbCircle
 10
3.19119
 20
0.594664
 30
0.0
 40
0.483499
100
AcDbArc
 50
209.356103
 51
213.818515
  0
ARC
  5
144
100
AcDbEntity
  8
0
100
AcDbCircle
 10
2.615854
 20
0.888036
 30
0.0
 40
0.138983
100
AcDbArc
 50
32.152681
 51
152.718951
  0
ARC
  5
145
100
AcDbEntity
  8
0
100
AcDbCircle
 10
2.170778
 20
0.615679
 30
0.0
 40
0.660772
100
AcDbArc
 50
22.671382
 51
31.608778
  0
LINE
  5
146
100
AcDbEntity
  8
0
100
AcDbLine
 10
2.780492
 20
0.87037
 30
0.0
 11
2.820022
 21
0.874301
 31
0.0
  0
ARC
  5
147
100
AcDbEntity
  8
0
100
AcDbCircle
 10
2.305797
 20
0.656281
 30
0.0
 40
0.155512
100
AcDbArc
 50
295.481095
 51
19.360293
  0
LINE
  5
148
100
AcDbEntity
  8
0
100
AcDbLine
 10
2.269941
 20
0.750203
 30
0.0
 11
2.340111
 21
0.521339
 31
0.0
  0
ARC
  5
149
100
AcDbEntity
  8
0
100
AcDbCircle
 10
0.247636
 20
-0.038766
 30
0.0
 40
2.136606
100
AcDbArc
 50
15.346355
 51
22.319563
  0
ARC
  5
14A
100
AcDbEntity
  8
0
100
AcDbCircle
 10
2.478001
 20
1.232215
 30
0.0
 40
0.525
100
AcDbArc
 50
234.378217
 51
241.086223
  0
LINE
  5
14B
100
AcDbEntity
  8
0
100
AcDbLine
 10
2.269952
 20
0.53306
 30
0.0
 11
2.308058
 21
0.526694
 31
0.0
  0
LINE
  5
14C
100
AcDbEntity
  8
0
100
AcDbLine
 10
1.75022
 20
0.619881
 30
0.0
 11
2.231704
 21
0.539449
 31
0.0
  0
ARC
  5
14D
100
AcDbEntity
  8
0
100
AcDbCircle
 10
2.533011
 20
1.035168
 30
0.0
 40
0.337481
100
AcDbArc
 50
151.443507
 51
194.20068
  0
ARC
  5
14E
100
AcDbEntity
  8
0
100
AcDbCircle
 10
2.533011
 20
1.035168
 30
0.0
 40
0.362481
100
AcDbArc
 50
148.458454
 51
188.731128
  0
LINE
  5
14F
100
AcDbEntity
  8
0
100
AcDbLine
 10
2.218317
 20
0.941244
 30
0.0
 11
2.205842
 21
0.952377
 31
0.0
  0
LINE
  5
150
100
AcDbEntity
  8
0
100
AcDbLine
 10
2.388539
 20
0.852615
 30
0.0
 11
2.236585
 21
1.196492
 31
0.0
  0
LINE
  5
151
100
AcDbEntity
  8
0
100
AcDbLine
 10
2.224082
 20
1.224787
 30
0.0
 11
2.177922
 21
1.32925
 31
0.0
  0
ARC
  5
152
100
AcDbEntity
  8
0
100
AcDbCircle
 10
2.478001
 20
1.232215
 30
0.0
 40
0.39
100
AcDbArc
 50
228.251946
 51
256.738882
  0
LINE
  5
153
100
AcDbEntity
  8
0
100
AcDbLine
 10
2.17473
 20
0.980144
 30
0.0
 11
2.135744
 21
1.014938
 31
0.0
  0
LINE
  5
154
100
AcDbEntity
  8
0
100
AcDbLine
 10
2.036607
 20
1.103415
 30
0.0
 11
2.132413
 21
1.265172
 31
0.0
  0
ARC
  5
155
100
AcDbEntity
  8
0
100
AcDbCircle
 10
2.541107
 20
1.02311
 30
0.0
 40
0.475
100
AcDbArc
 50
139.871511
 51
149.362595
  0
ARC
  5
156
100
AcDbEntity
  8
0
100
AcDbCircle
 10
2.500737
 20
0.953034
 30
0.0
 40
0.39513
100
AcDbArc
 50
195.375674
 51
203.902919
  0
ARC
  5
157
100
AcDbEntity
  8
0
100
AcDbCircle
 10
0.247636
 20
-0.038766
 30
0.0
 40
2.066606
100
AcDbArc
 50
16.247648
 51
23.731191
  0
ARC
  5
158
100
AcDbEntity
  8
0
100
AcDbCircle
 10
2.500737
 20
0.953034
 30
0.0
 40
0.39513
100
AcDbArc
 50
155.109073
 51
168.131927
  0
ARC
  5
159
100
AcDbEntity
  8
0
100
AcDbCircle
 10
0.247636
 20
-0.038766
 30
0.0
 40
2.101606
100
AcDbArc
 50
15.78866
 51
23.684624
  0
ARC
  5
15A
100
AcDbEntity
  8
0
100
AcDbCircle
 10
2.711787
 20
1.03111
 30
0.0
 40
0.576271
100
AcDbArc
 50
171.193048
 51
181.608123
  0
LINE
  5
15B
100
AcDbEntity
  8
0
100
AcDbLine
 10
2.114054
 20
1.034296
 30
0.0
 11
2.036607
 21
1.103415
 31
0.0
  0
ARC
  5
15C
100
AcDbEntity
  8
0
100
AcDbCircle
 10
2.646591
 20
1.564259
 30
0.0
 40
0.109419
100
AcDbArc
 50
264.648513
 51
11.670457
  0
ARC
  5
15D
100
AcDbEntity
  8
0
100
AcDbCircle
 10
2.613132
 20
1.563881
 30
0.0
 40
0.111026
100
AcDbArc
 50
282.089761
 51
7.899617
  0
ARC
  5
15E
100
AcDbEntity
  8
0
100
AcDbCircle
 10
2.634772
 20
1.033374
 30
0.0
 40
0.430302
100
AcDbArc
 50
96.745826
 51
136.140266
  0
LINE
  5
15F
100
AcDbEntity
  8
0
100
AcDbLine
 10
2.584227
 20
1.460697
 30
0.0
 11
2.581496
 21
1.468889
 31
0.0
  0
ARC
  5
160
100
AcDbEntity
  8
0
100
AcDbCircle
 10
2.627579
 20
1.017701
 30
0.0
 40
0.453536
100
AcDbArc
 50
95.831835
 51
133.202687
  0
LINE
  5
161
100
AcDbEntity
  8
0
100
AcDbLine
 10
2.317097
 20
1.348299
 30
0.0
 11
2.281454
 21
1.42896
 31
0.0
  0
LINE
  5
162
100
AcDbEntity
  8
0
100
AcDbLine
 10
2.580522
 20
1.437
 30
0.0
 11
2.58626
 21
1.446514
 31
0.0
  0
LINE
  5
163
100
AcDbEntity
  8
0
100
AcDbLine
 10
2.58626
 20
1.446514
 30
0.0
 11
2.716043
 21
1.446514
 31
0.0
  0
ARC
  5
164
100
AcDbEntity
  8
0
100
AcDbCircle
 10
2.862425
 20
0.847246
 30
0.0
 40
0.616887
100
AcDbArc
 50
78.984244
 51
103.726806
  0
ARC
  5
165
100
AcDbEntity
  8
0
100
AcDbCircle
 10
3.232185
 20
1.090345
 30
0.0
 40
0.469352
100
AcDbArc
 50
145.825764
 51
187.53828
  0
ARC
  5
166
100
AcDbEntity
  8
0
100
AcDbCircle
 10
3.232185
 20
1.090345
 30
0.0
 40
0.504352
100
AcDbArc
 50
145.825764
 51
187.53828
  0
ARC
  5
167
100
AcDbEntity
  8
0
100
AcDbCircle
 10
2.748644
 20
1.033246
 30
0.0
 40
0.018785
100
AcDbArc
 50
208.854104
 51
346.222456
  0
ARC
  5
168
100
AcDbEntity
  8
0
100
AcDbCircle
 10
2.827065
 20
1.360383
 30
0.0
 40
0.017985
100
AcDbArc
 50
339.164814
 51
132.486713
  0
ARC
  5
169
100
AcDbEntity
  8
0
100
AcDbCircle
 10
1.884317
 20
0.448868
 30
0.0
 40
0.387022
100
AcDbArc
 50
271.024485
 51
352.23097
  0
ARC
  5
16A
100
AcDbEntity
  8
0
100
AcDbCircle
 10
1.868993
 20
1.305753
 30
0.0
 40
1.244044
100
AcDbArc
 50
245.732636
 51
271.024485
  0
ARC
  5
16B
100
AcDbEntity
  8
0
100
AcDbCircle
 10
0.994846
 20
-0.633215
 30
0.0
 40
0.882862
100
AcDbArc
 50
65.732636
 51
86.620985
  0
LINE
  5
16C
100
AcDbEntity
  8
0
100
AcDbLine
 10
1.046882
 20
0.248113
 30
0.0
 11
1.050378
 21
0.256498
 31
0.0
  0
ARC
  5
16D
100
AcDbEntity
  8
0
100
AcDbCircle
 10
1.043886
 20
-0.718405
 30
0.0
 40
0.974925
100
AcDbArc
 50
68.713771
 51
89.61846
  0
ARC
  5
16E
100
AcDbEntity
  8
0
100
AcDbCircle
 10
1.847874
 20
1.345185
 30
0.0
 40
1.239753
100
AcDbArc
 50
248.713771
 51
272.786913
  0
ARC
  5
16F
100
AcDbEntity
  8
0
100
AcDbCircle
 10
1.891317
 20
0.452762
 30
0.0
 40
0.346274
100
AcDbArc
 50
272.786913
 51
351.60629
  0
LINE
  5
170
100
AcDbEntity
  8
0
100
AcDbLine
 10
3.031504
 20
1.742496
 30
0.0
 11
3.074016
 21
1.734193
 31
0.0
  0
LINE
  5
171
100
AcDbEntity
  8
0
100
AcDbLine
 10
3.104232
 20
1.728291
 30
0.0
 11
3.145907
 21
1.720152
 31
0.0
  0
LINE
  5
172
100
AcDbEntity
  8
0
100
AcDbLine
 10
3.017313
 20
1.697971
 30
0.0
 11
3.004967
 21
1.732452
 31
0.0
  0
ARC
  5
173
100
AcDbEntity
  8
0
100
AcDbCircle
 10
2.89285
 20
1.636661
 30
0.0
 40
0.138941
100
AcDbArc
 50
1.631755
 51
26.224508
  0
ARC
  5
174
100
AcDbEntity
  8
0
100
AcDbCircle
 10
0.982039
 20
1.70721
 30
0.0
 40
0.175109
100
AcDbArc
 50
4.84509
 51
111.619446
  0
ARC
  5
175
100
AcDbEntity
  8
0
100
AcDbCircle
 10
1.10569
 20
1.90689
 30
0.0
 40
0.19175
100
AcDbArc
 50
191.092042
 51
285.372493
  0
ARC
  5
176
100
AcDbEntity
  8
0
100
AcDbCircle
 10
1.298697
 20
1.465263
 30
0.0
 40
0.293475
100
AcDbArc
 50
118.976668
 51
182.590318
  0
ARC
  5
177
100
AcDbEntity
  8
0
100
AcDbCircle
 10
0.887872
 20
1.695021
 30
0.0
 40
0.270001
100
AcDbArc
 50
295.832226
 51
5.73476
  0
ARC
  5
178
100
AcDbEntity
  8
0
100
AcDbCircle
 10
1.477096
 20
0.796203
 30
0.0
 40
0.300726
100
AcDbArc
 50
43.972258
 51
170.4685
  0
ARC
  5
179
100
AcDbEntity
  8
0
100
AcDbCircle
 10
1.477096
 20
0.796203
 30
0.0
 40
0.288726
100
AcDbArc
 50
43.972258
 51
170.4685
  0
LINE
  5
17A
100
AcDbEntity
  8
0
100
AcDbLine
 10
1.684886
 20
0.996668
 30
0.0
 11
1.693522
 21
1.005
 31
0.0
  0
LINE
  5
17B
100
AcDbEntity
  8
0
100
AcDbLine
 10
1.192356
 20
0.844013
 30
0.0
 11
1.180522
 21
0.846
 31
0.0
  0
ARC
  5
17C
100
AcDbEntity
  8
0
100
AcDbCircle
 10
1.545963
 20
0.648957
 30
0.0
 40
0.319069
100
AcDbArc
 50
218.576222
 51
311.773344
  0
ARC
  5
17D
100
AcDbEntity
  8
0
100
AcDbCircle
 10
1.545963
 20
0.648957
 30
0.0
 40
0.331069
100
AcDbArc
 50
218.576222
 51
311.773344
  0
LINE
  5
17E
100
AcDbEntity
  8
0
100
AcDbLine
 10
1.28714
 20
0.442517
 30
0.0
 11
1.296522
 21
0.45
 31
0.0
  0
LINE
  5
17F
100
AcDbEntity
  8
0
100
AcDbLine
 10
1.766516
 20
0.402051
 30
0.0
 11
1.758522
 21
0.411
 31
0.0
  0
ARC
  5
180
100
AcDbEntity
  8
0
100
AcDbCircle
 10
1.510929
 20
0.715265
 30
0.0
 40
0.181052
100
AcDbArc
 50
110.017705
 51
287.448398
  0
ARC
  5
181
100
AcDbEntity
  8
0
100
AcDbCircle
 10
1.486679
 20
0.71159
 30
0.0
 40
0.179906
100
AcDbArc
 50
9.028421
 51
92.507297
  0
ARC
  5
182
100
AcDbEntity
  8
0
100
AcDbCircle
 10
1.483184
 20
0.79142
 30
0.0
 40
0.1
100
AcDbArc
 50
92.507297
 51
110.017705
  0
ARC
  5
183
100
AcDbEntity
  8
0
100
AcDbCircle
 10
1.510929
 20
0.715265
 30
0.0
 40
0.169052
100
AcDbArc
 50
110.017705
 51
288.472447
  0
ARC
  5
184
100
AcDbEntity
  8
0
100
AcDbCircle
 10
1.483184
 20
0.79142
 30
0.0
 40
0.088
100
AcDbArc
 50
92.507297
 51
110.017705
  0
ARC
  5
185
100
AcDbEntity
  8
0
100
AcDbCircle
 10
1.486679
 20
0.71159
 30
0.0
 40
0.167906
100
AcDbArc
 50
3.794839
 51
92.507297
  0
ARC
  5
186
100
AcDbEntity
  8
0
100
AcDbCircle
 10
1.631954
 20
0.552658
 30
0.0
 40
0.0675
100
AcDbArc
 50
149.362571
 51
178.076478
  0
LINE
  5
187
100
AcDbEntity
  8
0
100
AcDbLine
 10
1.664357
 20
0.739822
 30
0.0
 11
1.687575
 21
0.779023
 31
0.0
  0
POLYLINE
  5
188
100
AcDbEntity
  8
0
100
AcDb2dPolyline
 66
     1
 10
0.0
 20
0.0
 30
0.0
 70
     1
  0
VERTEX
  5
189
100
AcDbEntity
  8
0
100
AcDbVertex
100
AcDb2dVertex
 10
1.571054
 20
1.453871
 30
0.0
 42
-0.086713
  0
VERTEX
  5
18A
100
AcDbEntity
  8
0
100
AcDbVertex
100
AcDb2dVertex
 10
1.422667
 20
1.297544
 30
0.0
 42
-0.092808
  0
VERTEX
  5
18B
100
AcDbEntity
  8
0
100
AcDbVertex
100
AcDb2dVertex
 10
1.241432
 20
1.209242
 30
0.0
 42
-0.102966
 70
     2
 50
344.628369
  0
VERTEX
  5
18C
100
AcDbEntity
  8
0
100
AcDbVertex
100
AcDb2dVertex
 10
1.04399
 20
1.196772
 30
0.0
 42
-0.111514
  0
VERTEX
  5
18D
100
AcDbEntity
  8
0
100
AcDbVertex
100
AcDb2dVertex
 10
0.872994
 20
1.261965
 30
0.0
 42
-0.111514
  0
VERTEX
  5
18E
100
AcDbEntity
  8
0
100
AcDbVertex
100
AcDb2dVertex
 10
0.746611
 20
1.394316
 30
0.0
 42
-0.102966
  0
VERTEX
  5
18F
100
AcDbEntity
  8
0
100
AcDbVertex
100
AcDb2dVertex
 10
0.681566
 20
1.581153
 30
0.0
 42
-0.092808
 70
     2
 50
82.562676
  0
VERTEX
  5
190
100
AcDbEntity
  8
0
100
AcDbVertex
100
AcDb2dVertex
 10
0.692705
 20
1.782447
 30
0.0
 42
-0.086713
  0
VERTEX
  5
191
100
AcDbEntity
  8
0
100
AcDbVertex
100
AcDb2dVertex
 10
0.779284
 20
1.979832
 30
0.0
 42
-0.086713
  0
VERTEX
  5
192
100
AcDbEntity
  8
0
100
AcDbVertex
100
AcDb2dVertex
 10
0.92767
 20
2.136159
 30
0.0
 42
-0.092808
  0
VERTEX
  5
193
100
AcDbEntity
  8
0
100
AcDbVertex
100
AcDb2dVertex
 10
1.108906
 20
2.22446
 30
0.0
 42
-0.102966
 70
     2
 50
164.628369
  0
VERTEX
  5
194
100
AcDbEntity
  8
0
100
AcDbVertex
100
AcDb2dVertex
 10
1.306348
 20
2.236931
 30
0.0
 42
-0.111514
  0
VERTEX
  5
195
100
AcDbEntity
  8
0
100
AcDbVertex
100
AcDb2dVertex
 10
1.477344
 20
2.171738
 30
0.0
 42
-0.111514
  0
VERTEX
  5
196
100
AcDbEntity
  8
0
100
AcDbVertex
100
AcDb2dVertex
 10
1.603727
 20
2.039386
 30
0.0
 42
-0.102966
  0
VERTEX
  5
197
100
AcDbEntity
  8
0
100
AcDbVertex
100
AcDb2dVertex
 10
1.668772
 20
1.852549
 30
0.0
 42
-0.092808
 70
     2
 50
262.562676
  0
VERTEX
  5
198
100
AcDbEntity
  8
0
100
AcDbVertex
100
AcDb2dVertex
 10
1.657633
 20
1.651255
 30
0.0
 42
-0.086713
  0
SEQEND
  5
199
100
AcDbEntity
  8
0
  0
POLYLINE
  5
19A
100
AcDbEntity
  8
0
100
AcDb2dPolyline
 66
     1
 10
0.0
 20
0.0
 30
0.0
 70
     1
  0
VERTEX
  5
19B
100
AcDbEntity
  8
0
100
AcDbVertex
100
AcDb2dVertex
 10
1.512746
 20
1.492603
 30
0.0
 42
-0.086713
  0
VERTEX
  5
19C
100
AcDbEntity
  8
0
100
AcDbVertex
100
AcDb2dVertex
 10
1.38095
 20
1.353755
 30
0.0
 42
-0.092808
  0
VERTEX
  5
19D
100
AcDbEntity
  8
0
100
AcDbVertex
100
AcDb2dVertex
 10
1.222877
 20
1.276738
 30
0.0
 42
-0.102966
 70
     2
 50
344.628369
  0
VERTEX
  5
19E
100
AcDbEntity
  8
0
100
AcDbVertex
100
AcDb2dVertex
 10
1.053906
 20
1.266066
 30
0.0
 42
-0.111514
  0
VERTEX
  5
19F
100
AcDbEntity
  8
0
100
AcDbVertex
100
AcDb2dVertex
 10
0.911727
 20
1.320272
 30
0.0
 42
-0.111514
  0
VERTEX
  5
1A0
100
AcDbEntity
  8
0
100
AcDbVertex
100
AcDb2dVertex
 10
0.806643
 20
1.430319
 30
0.0
 42
-0.102966
  0
VERTEX
  5
1A1
100
AcDbEntity
  8
0
100
AcDbVertex
100
AcDb2dVertex
 10
0.750977
 20
1.590214
 30
0.0
 42
-0.092808
 70
     2
 50
82.562676
  0
VERTEX
  5
1A2
100
AcDbEntity
  8
0
100
AcDbVertex
100
AcDb2dVertex
 10
0.760693
 20
1.765783
 30
0.0
 42
-0.086713
  0
VERTEX
  5
1A3
100
AcDbEntity
  8
0
100
AcDbVertex
100
AcDb2dVertex
 10
0.837591
 20
1.941099
 30
0.0
 42
-0.086713
  0
VERTEX
  5
1A4
100
AcDbEntity
  8
0
100
AcDbVertex
100
AcDb2dVertex
 10
0.969387
 20
2.079948
 30
0.0
 42
-0.092808
  0
VERTEX
  5
1A5
100
AcDbEntity
  8
0
100
AcDbVertex
100
AcDb2dVertex
 10
1.127461
 20
2.156964
 30
0.0
 42
-0.102966
 70
     2
 50
164.628369
  0
VERTEX
  5
1A6
100
AcDbEntity
  8
0
100
AcDbVertex
100
AcDb2dVertex
 10
1.296432
 20
2.167637
 30
0.0
 42
-0.111514
  0
VERTEX
  5
1A7
100
AcDbEntity
  8
0
100
AcDbVertex
100
AcDb2dVertex
 10
1.438611
 20
2.11343
 30
0.0
 42
-0.111514
  0
VERTEX
  5
1A8
100
AcDbEntity
  8
0
100
AcDbVertex
100
AcDb2dVertex
 10
1.543695
 20
2.003383
 30
0.0
 42
-0.102966
  0
VERTEX
  5
1A9
100
AcDbEntity
  8
0
100
AcDbVertex
100
AcDb2dVertex
 10
1.59936
 20
1.843488
 30
0.0
 42
-0.092808
 70
     2
 50
262.562676
  0
VERTEX
  5
1AA
100
AcDbEntity
  8
0
100
AcDbVertex
100
AcDb2dVertex
 10
1.589645
 20
1.667919
 30
0.0
 42
-0.086713
  0
SEQEND
  5
1AB
100
AcDbEntity
  8
0
  0
POLYLINE
  5
1AC
100
AcDbEntity
  8
0
100
AcDb2dPolyline
 66
     1
 10
0.0
 20
0.0
 30
0.0
 70
     1
  0
VERTEX
  5
1AD
100
AcDbEntity
  8
0
100
AcDbVertex
100
AcDb2dVertex
 10
1.504417
 20
1.498137
 30
0.0
 42
-0.086713
  0
VERTEX
  5
1AE
100
AcDbEntity
  8
0
100
AcDbVertex
100
AcDb2dVertex
 10
1.374991
 20
1.361785
 30
0.0
 42
-0.092808
  0
VERTEX
  5
1AF
100
AcDbEntity
  8
0
100
AcDbVertex
100
AcDb2dVertex
 10
1.220226
 20
1.286381
 30
0.0
 42
-0.102966
 70
     2
 50
344.628369
  0
VERTEX
  5
1B0
100
AcDbEntity
  8
0
100
AcDbVertex
100
AcDb2dVertex
 10
1.055322
 20
1.275965
 30
0.0
 42
-0.111514
  0
VERTEX
  5
1B1
100
AcDbEntity
  8
0
100
AcDbVertex
100
AcDb2dVertex
 10
0.91726
 20
1.328602
 30
0.0
 42
-0.111514
  0
VERTEX
  5
1B2
100
AcDbEntity
  8
0
100
AcDbVertex
100
AcDb2dVertex
 10
0.815219
 20
1.435463
 30
0.0
 42
-0.102966
  0
VERTEX
  5
1B3
100
AcDbEntity
  8
0
100
AcDbVertex
100
AcDb2dVertex
 10
0.760893
 20
1.591509
 30
0.0
 42
-0.092808
 70
     2
 50
82.562676
  0
VERTEX
  5
1B4
100
AcDbEntity
  8
0
100
AcDbVertex
100
AcDb2dVertex
 10
0.770405
 20
1.763403
 30
0.0
 42
-0.086713
  0
VERTEX
  5
1B5
100
AcDbEntity
  8
0
100
AcDbVertex
100
AcDb2dVertex
 10
0.845921
 20
1.935566
 30
0.0
 42
-0.086713
  0
VERTEX
  5
1B6
100
AcDbEntity
  8
0
100
AcDbVertex
100
AcDb2dVertex
 10
0.975347
 20
2.071917
 30
0.0
 42
-0.092808
  0
VERTEX
  5
1B7
100
AcDbEntity
  8
0
100
AcDbVertex
100
AcDb2dVertex
 10
1.130112
 20
2.147322
 30
0.0
 42
-0.102966
 70
     2
 50
164.628369
  0
VERTEX
  5
1B8
100
AcDbEntity
  8
0
100
AcDbVertex
100
AcDb2dVertex
 10
1.295015
 20
2.157737
 30
0.0
 42
-0.111514
  0
VERTEX
  5
1B9
100
AcDbEntity
  8
0
100
AcDbVertex
100
AcDb2dVertex
 10
1.433077
 20
2.105101
 30
0.0
 42
-0.111514
  0
VERTEX
  5
1BA
100
AcDbEntity
  8
0
100
AcDbVertex
100
AcDb2dVertex
 10
1.535119
 20
1.99824
 30
0.0
 42
-0.102966
  0
VERTEX
  5
1BB
100
AcDbEntity
  8
0
100
AcDbVertex
100
AcDb2dVertex
 10
1.589445
 20
1.842194
 30
0.0
 42
-0.092808
 70
     2
 50
262.562676
  0
VERTEX
  5
1BC
100
AcDbEntity
  8
0
100
AcDbVertex
100
AcDb2dVertex
 10
1.579933
 20
1.6703
 30
0.0
 42
-0.086713
  0
SEQEND
  5
1BD
100
AcDbEntity
  8
0
  0
ARC
  5
1BE
100
AcDbEntity
  8
0
100
AcDbCircle
 10
1.264542
 20
2.161992
 30
0.0
 40
0.154405
100
AcDbArc
 50
187.522986
 51
291.576256
  0
ARC
  5
1BF
100
AcDbEntity
  8
0
100
AcDbCircle
 10
0.835554
 20
2.133583
 30
0.0
 40
0.276034
100
AcDbArc
 50
287.274327
 51
1.701011
  0
ARC
  5
1C0
100
AcDbEntity
  8
0
100
AcDbCircle
 10
1.410205
 20
1.77497
 30
0.0
 40
0.259154
100
AcDbArc
 50
110.05779
 51
191.79419
  0
ARC
  5
1C1
100
AcDbEntity
  8
0
100
AcDbCircle
 10
0.632334
 20
1.819398
 30
0.0
 40
0.289642
100
AcDbArc
 50
297.436216
 51
10.061548
  0
ARC
  5
1C2
100
AcDbEntity
  8
0
100
AcDbCircle
 10
0.817487
 20
1.35905
 30
0.0
 40
0.209754
100
AcDbArc
 50
26.304209
 51
104.268408
  0
ARC
  5
1C3
100
AcDbEntity
  8
0
100
AcDbCircle
 10
1.350279
 20
1.808691
 30
0.0
 40
0.212267
100
AcDbArc
 50
204.104699
 51
285.116628
  0
ARC
  5
1C4
100
AcDbEntity
  8
0
100
AcDbCircle
 10
1.488967
 20
1.388456
 30
0.0
 40
0.230876
100
AcDbArc
 50
111.15769
 51
200.433288
  0
ARC
  5
1C5
100
AcDbEntity
  8
0
100
AcDbCircle
 10
1.078551
 20
1.267788
 30
0.0
 40
0.19816
100
AcDbArc
 50
11.66482
 51
111.625406
  0
LINE
  5
1C6
100
AcDbEntity
  8
0
100
AcDbLine
 10
1.778811
 20
0.905739
 30
0.0
 11
1.95227
 21
0.771813
 31
0.0
  0
LINE
  5
1C7
100
AcDbEntity
  8
0
100
AcDbLine
 10
1.703538
 20
0.784457
 30
0.0
 11
1.875467
 21
0.651712
 31
0.0
  0
LINE
  5
1C8
100
AcDbEntity
  8
0
100
AcDbLine
 10
1.68957
 20
0.813333
 30
0.0
 11
1.761394
 21
0.9346
 31
0.0
  0
ARC
  5
1C9
100
AcDbEntity
  8
0
100
AcDbCircle
 10
1.726649
 20
0.813454
 30
0.0
 40
0.03708
100
AcDbArc
 50
180.186522
 51
231.444419
  0
ARC
  5
1CA
100
AcDbEntity
  8
0
100
AcDbCircle
 10
1.801922
 20
0.934736
 30
0.0
 40
0.03708
100
AcDbArc
 50
183.022492
 51
231.444419
  0
LINE
  5
1CB
100
AcDbEntity
  8
0
100
AcDbLine
 10
1.764894
 20
0.932781
 30
0.0
 11
1.761394
 21
0.9346
 31
0.0
  0
ARC
  5
1CC
100
AcDbEntity
  8
0
100
AcDbCircle
 10
1.891415
 20
0.726121
 30
0.0
 40
0.076099
100
AcDbArc
 50
257.902676
 51
36.90015
  0
ARC
  5
1CD
100
AcDbEntity
  8
0
100
AcDbCircle
 10
1.726649
 20
0.813454
 30
0.0
 40
0.05208
100
AcDbArc
 50
180.186522
 51
231.444419
  0
ARC
  5
1CE
100
AcDbEntity
  8
0
100
AcDbCircle
 10
1.891415
 20
0.726121
 30
0.0
 40
0.091099
100
AcDbArc
 50
257.902676
 51
36.90015
  0
LINE
  5
1CF
100
AcDbEntity
  8
0
100
AcDbLine
 10
1.964266
 20
0.780819
 30
0.0
 11
1.793822
 21
0.913076
 31
0.0
  0
LINE
  5
1D0
100
AcDbEntity
  8
0
100
AcDbLine
 10
1.872323
 20
0.637045
 30
0.0
 11
1.694189
 21
0.772727
 31
0.0
  0
ARC
  5
1D1
100
AcDbEntity
  8
0
100
AcDbCircle
 10
1.909661
 20
0.749442
 30
0.0
 40
0.077887
100
AcDbArc
 50
339.056009
 51
31.231081
  0
ARC
  5
1D2
100
AcDbEntity
  8
0
100
AcDbCircle
 10
1.875445
 20
0.962114
 30
0.0
 40
0.08319
100
AcDbArc
 50
189.62253
 51
259.426467
  0
LINE
  5
1D3
100
AcDbEntity
  8
0
100
AcDbLine
 10
1.86018
 20
0.880336
 30
0.0
 11
1.976261
 21
0.789825
 31
0.0
  0
ARC
  5
1D4
100
AcDbEntity
  8
0
100
AcDbCircle
 10
1.82186
 20
0.930961
 30
0.0
 40
0.033257
100
AcDbArc
 50
148.761875
 51
212.532819
  0
ARC
  5
1D5
100
AcDbEntity
  8
0
100
AcDbCircle
 10
1.919957
 20
0.763855
 30
0.0
 40
0.077887
100
AcDbArc
 50
339.056009
 51
31.231081
  0
LINE
  5
1D6
100
AcDbEntity
  8
0
100
AcDbLine
 10
1.889771
 20
0.879704
 30
0.0
 11
1.986557
 21
0.804238
 31
0.0
  0
ARC
  5
1D7
100
AcDbEntity
  8
0
100
AcDbCircle
 10
1.928046
 20
0.78044
 30
0.0
 40
0.078445
100
AcDbArc
 50
325.504182
 51
32.517043
  0
LINE
  5
1D8
100
AcDbEntity
  8
0
100
AcDbLine
 10
1.900199
 20
0.895897
 30
0.0
 11
1.994193
 21
0.822609
 31
0.0
  0
LINE
  5
1D9
100
AcDbEntity
  8
0
100
AcDbLine
 10
1.889771
 20
0.879704
 30
0.0
 11
1.900199
 21
0.895897
 31
0.0
  0
ARC
  5
1DA
100
AcDbEntity
  8
0
100
AcDbCircle
 10
1.862769
 20
0.943006
 30
0.0
 40
0.049106
100
AcDbArc
 50
180.180844
 51
300.070472
  0
LINE
  5
1DB
100
AcDbEntity
  8
0
100
AcDbLine
 10
1.887374
 20
0.900508
 30
0.0
 11
1.947489
 21
1.002005
 31
0.0
  0
LINE
  5
1DC
100
AcDbEntity
  8
0
100
AcDbLine
 10
1.813662
 20
0.942851
 30
0.0
 11
1.88286
 21
1.059684
 31
0.0
  0
LINE
  5
1DD
100
AcDbEntity
  8
0
100
AcDbLine
 10
1.917141
 20
0.901708
 30
0.0
 11
2.003417
 21
0.834438
 31
0.0
  0
ARC
  5
1DE
100
AcDbEntity
  8
0
100
AcDbCircle
 10
1.921008
 20
0.780019
 30
0.0
 40
0.098755
100
AcDbArc
 50
305.699787
 51
33.438783
  0
LINE
  5
1DF
100
AcDbEntity
  8
0
100
AcDbLine
 10
1.917141
 20
0.901708
 30
0.0
 11
1.966497
 21
0.985041
 31
0.0
  0
ARC
  5
1E0
100
AcDbEntity
  8
0
100
AcDbCircle
 10
1.791271
 20
0.921737
 30
0.0
 40
0.047681
100
AcDbArc
 50
79.599906
 51
154.810369
  0
LINE
  5
1E1
100
AcDbEntity
  8
0
100
AcDbLine
 10
1.799878
 20
0.968635
 30
0.0
 11
1.865805
 21
1.079946
 31
0.0
  0
LINE
  5
1E2
100
AcDbEntity
  8
0
100
AcDbLine
 10
1.67457
 20
0.813284
 30
0.0
 11
1.748124
 21
0.942031
 31
0.0
  0
ARC
  5
1E3
100
AcDbEntity
  8
0
100
AcDbCircle
 10
1.903681
 20
0.743026
 30
0.0
 40
0.060469
100
AcDbArc
 50
216.507807
 51
235.118489
  0
ARC
  5
1E4
100
AcDbEntity
  8
0
100
AcDbCircle
 10
1.895212
 20
0.736758
 30
0.0
 40
0.049933
100
AcDbArc
 50
196.008284
 51
216.507807
  0
ARC
  5
1E5
100
AcDbEntity
  8
0
100
AcDbCircle
 10
1.887345
 20
0.7345
 30
0.0
 40
0.041748
100
AcDbArc
 50
172.117524
 51
196.008284
  0
ARC
  5
1E6
100
AcDbEntity
  8
0
100
AcDbCircle
 10
1.883313
 20
0.719689
 30
0.0
 40
0.049933
100
AcDbArc
 50
73.729171
 51
94.228694
  0
ARC
  5
1E7
100
AcDbEntity
  8
0
100
AcDbCircle
 10
1.880361
 20
0.709575
 30
0.0
 40
0.060469
100
AcDbArc
 50
55.118489
 51
73.729171
  0
ARC
  5
1E8
100
AcDbEntity
  8
0
100
AcDbCircle
 10
1.880361
 20
0.709575
 30
0.0
 40
0.060469
100
AcDbArc
 50
36.507807
 51
55.118489
  0
ARC
  5
1E9
100
AcDbEntity
  8
0
100
AcDbCircle
 10
1.88883
 20
0.715843
 30
0.0
 40
0.049933
100
AcDbArc
 50
16.008284
 51
36.507807
  0
ARC
  5
1EA
100
AcDbEntity
  8
0
100
AcDbCircle
 10
1.896697
 20
0.7181
 30
0.0
 40
0.041748
100
AcDbArc
 50
352.117524
 51
16.008284
  0
ARC
  5
1EB
100
AcDbEntity
  8
0
100
AcDbCircle
 10
1.90554
 20
0.716876
 30
0.0
 40
0.032821
100
AcDbArc
 50
325.118489
 51
352.117524
  0
ARC
  5
1EC
100
AcDbEntity
  8
0
100
AcDbCircle
 10
1.90554
 20
0.716876
 30
0.0
 40
0.032821
100
AcDbArc
 50
298.119454
 51
325.118489
  0
ARC
  5
1ED
100
AcDbEntity
  8
0
100
AcDbCircle
 10
1.901332
 20
0.724749
 30
0.0
 40
0.041748
100
AcDbArc
 50
274.228694
 51
298.119454
  0
ARC
  5
1EE
100
AcDbEntity
  8
0
100
AcDbCircle
 10
1.900729
 20
0.732912
 30
0.0
 40
0.049933
100
AcDbArc
 50
253.729171
 51
274.228694
  0
ARC
  5
1EF
100
AcDbEntity
  8
0
100
AcDbCircle
 10
1.903681
 20
0.743026
 30
0.0
 40
0.060469
100
AcDbArc
 50
235.118489
 51
253.729171
  0
ARC
  5
1F0
100
AcDbEntity
  8
0
100
AcDbCircle
 10
1.835729
 20
0.795531
 30
0.0
 40
0.060469
100
AcDbArc
 50
216.507807
 51
235.118489
  0
ARC
  5
1F1
100
AcDbEntity
  8
0
100
AcDbCircle
 10
1.82726
 20
0.789262
 30
0.0
 40
0.049933
100
AcDbArc
 50
196.008284
 51
216.507807
  0
ARC
  5
1F2
100
AcDbEntity
  8
0
100
AcDbCircle
 10
1.819392
 20
0.787005
 30
0.0
 40
0.041748
100
AcDbArc
 50
172.117524
 51
196.008284
  0
ARC
  5
1F3
100
AcDbEntity
  8
0
100
AcDbCircle
 10
1.81055
 20
0.788229
 30
0.0
 40
0.032821
100
AcDbArc
 50
145.118489
 51
172.117524
  0
ARC
  5
1F4
100
AcDbEntity
  8
0
100
AcDbCircle
 10
1.81055
 20
0.788229
 30
0.0
 40
0.032821
100
AcDbArc
 50
118.119454
 51
145.118489
  0
ARC
  5
1F5
100
AcDbEntity
  8
0
100
AcDbCircle
 10
1.814757
 20
0.780356
 30
0.0
 40
0.041748
100
AcDbArc
 50
94.228694
 51
118.119454
  0
ARC
  5
1F6
100
AcDbEntity
  8
0
100
AcDbCircle
 10
1.815361
 20
0.772193
 30
0.0
 40
0.049933
100
AcDbArc
 50
73.729171
 51
94.228694
  0
ARC
  5
1F7
100
AcDbEntity
  8
0
100
AcDbCircle
 10
1.812409
 20
0.762079
 30
0.0
 40
0.060469
100
AcDbArc
 50
55.118489
 51
73.729171
  0
ARC
  5
1F8
100
AcDbEntity
  8
0
100
AcDbCircle
 10
1.812409
 20
0.762079
 30
0.0
 40
0.060469
100
AcDbArc
 50
36.507807
 51
55.118489
  0
ARC
  5
1F9
100
AcDbEntity
  8
0
100
AcDbCircle
 10
1.820877
 20
0.768347
 30
0.0
 40
0.049933
100
AcDbArc
 50
16.008284
 51
36.507807
  0
ARC
  5
1FA
100
AcDbEntity
  8
0
100
AcDbCircle
 10
1.828745
 20
0.770605
 30
0.0
 40
0.041748
100
AcDbArc
 50
352.117524
 51
16.008284
  0
ARC
  5
1FB
100
AcDbEntity
  8
0
100
AcDbCircle
 10
1.832777
 20
0.785416
 30
0.0
 40
0.049933
100
AcDbArc
 50
253.729171
 51
274.228694
  0
ARC
  5
1FC
100
AcDbEntity
  8
0
100
AcDbCircle
 10
1.835729
 20
0.795531
 30
0.0
 40
0.060469
100
AcDbArc
 50
235.118489
 51
253.729171
  0
LINE
  5
1FD
100
AcDbEntity
  8
0
100
AcDbLine
 10
1.836458
 20
0.73562
 30
0.0
 11
1.845991
 21
0.740226
 31
0.0
  0
LINE
  5
1FE
100
AcDbEntity
  8
0
100
AcDbLine
 10
1.870098
 20
0.764879
 30
0.0
 11
1.879631
 21
0.769485
 31
0.0
  0
ARC
  5
1FF
100
AcDbEntity
  8
0
100
AcDbCircle
 10
1.932428
 20
0.743938
 30
0.0
 40
0.060353
100
AcDbArc
 50
156.171177
 51
254.504975
  0
ARC
  5
200
100
AcDbEntity
  8
0
100
AcDbCircle
 10
1.84073
 20
0.802077
 30
0.0
 40
0.048907
100
AcDbArc
 50
162.742797
 51
288.476978
  0
ARC
  5
201
100
AcDbEntity
  8
0
100
AcDbCircle
 10
1.922807
 20
0.313085
 30
0.0
 40
0.074439
100
AcDbArc
 50
353.128732
 51
200.849513
  0
ARC
  5
202
100
AcDbEntity
  8
0
100
AcDbCircle
 10
1.924723
 20
0.297462
 30
0.0
 40
0.072302
100
AcDbArc
 50
5.330147
 51
188.648098
  0
POLYLINE
  5
203
100
AcDbEntity
  8
0
100
AcDb2dPolyline
 66
     1
 10
0.0
 20
0.0
 30
0.0
 70
     1
  0
VERTEX
  5
204
100
AcDbEntity
  8
0
100
AcDbVertex
100
AcDb2dVertex
 10
1.978257
 20
0.302788
 30
0.0
 42
-0.101454
  0
VERTEX
  5
205
100
AcDbEntity
  8
0
100
AcDbVertex
100
AcDb2dVertex
 10
1.976258
 20
0.282834
 30
0.0
 42
-0.09967
  0
VERTEX
  5
206
100
AcDbEntity
  8
0
100
AcDbVertex
100
AcDb2dVertex
 10
1.966461
 20
0.264933
 30
0.0
 42
-0.097246
 70
     2
 50
310.074114
  0
VERTEX
  5
207
100
AcDbEntity
  8
0
100
AcDbVertex
100
AcDb2dVertex
 10
1.950491
 20
0.252085
 30
0.0
 42
-0.095598
  0
VERTEX
  5
208
100
AcDbEntity
  8
0
100
AcDbVertex
100
AcDb2dVertex
 10
1.930535
 20
0.246064
 30
0.0
 42
-0.095598
  0
VERTEX
  5
209
100
AcDbEntity
  8
0
100
AcDbVertex
100
AcDb2dVertex
 10
1.909771
 20
0.247902
 30
0.0
 42
-0.097246
  0
VERTEX
  5
20A
100
AcDbEntity
  8
0
100
AcDbVertex
100
AcDb2dVertex
 10
1.891522
 20
0.257235
 30
0.0
 42
-0.09967
 70
     2
 50
38.194819
  0
VERTEX
  5
20B
100
AcDbEntity
  8
0
100
AcDbVertex
100
AcDb2dVertex
 10
1.87829
 20
0.27277
 30
0.0
 42
-0.101454
  0
VERTEX
  5
20C
100
AcDbEntity
  8
0
100
AcDbVertex
100
AcDb2dVertex
 10
1.872276
 20
0.291901
 30
0.0
 42
-0.101454
  0
VERTEX
  5
20D
100
AcDbEntity
  8
0
100
AcDbVertex
100
AcDb2dVertex
 10
1.874275
 20
0.311855
 30
0.0
 42
-0.09967
  0
VERTEX
  5
20E
100
AcDbEntity
  8
0
100
AcDbVertex
100
AcDb2dVertex
 10
1.884071
 20
0.329756
 30
0.0
 42
-0.097246
 70
     2
 50
130.074114
  0
VERTEX
  5
20F
100
AcDbEntity
  8
0
100
AcDbVertex
100
AcDb2dVertex
 10
1.900042
 20
0.342605
 30
0.0
 42
-0.095598
  0
VERTEX
  5
210
100
AcDbEntity
  8
0
100
AcDbVertex
100
AcDb2dVertex
 10
1.919998
 20
0.348625
 30
0.0
 42
-0.095598
  0
VERTEX
  5
211
100
AcDbEntity
  8
0
100
AcDbVertex
100
AcDb2dVertex
 10
1.940762
 20
0.346788
 30
0.0
 42
-0.097246
  0
VERTEX
  5
212
100
AcDbEntity
  8
0
100
AcDbVertex
100
AcDb2dVertex
 10
1.959011
 20
0.337455
 30
0.0
 42
-0.09967
 70
     2
 50
218.194819
  0
VERTEX
  5
213
100
AcDbEntity
  8
0
100
AcDbVertex
100
AcDb2dVertex
 10
1.972242
 20
0.32192
 30
0.0
 42
-0.101454
  0
SEQEND
  5
214
100
AcDbEntity
  8
0
  0
POLYLINE
  5
215
100
AcDbEntity
  8
0
100
AcDb2dPolyline
 66
     1
 10
0.0
 20
0.0
 30
0.0
 70
     1
  0
VERTEX
  5
216
100
AcDbEntity
  8
0
100
AcDbVertex
100
AcDb2dVertex
 10
1.970272
 20
0.298433
 30
0.0
 42
-0.103096
  0
VERTEX
  5
217
100
AcDbEntity
  8
0
100
AcDbVertex
100
AcDb2dVertex
 10
1.967904
 20
0.281817
 30
0.0
 42
-0.100281
  0
VERTEX
  5
218
100
AcDbEntity
  8
0
100
AcDbVertex
100
AcDb2dVertex
 10
1.958935
 20
0.267088
 30
0.0
 42
-0.09654
 70
     2
 50
312.789284
  0
VERTEX
  5
219
100
AcDbEntity
  8
0
100
AcDbVertex
100
AcDb2dVertex
 10
1.944919
 20
0.256836
 30
0.0
 42
-0.094052
  0
VERTEX
  5
21A
100
AcDbEntity
  8
0
100
AcDbVertex
100
AcDb2dVertex
 10
1.927663
 20
0.252403
 30
0.0
 42
-0.094052
  0
VERTEX
  5
21B
100
AcDbEntity
  8
0
100
AcDbVertex
100
AcDb2dVertex
 10
1.909983
 20
0.2546
 30
0.0
 42
-0.09654
  0
VERTEX
  5
21C
100
AcDbEntity
  8
0
100
AcDbVertex
100
AcDb2dVertex
 10
1.894775
 20
0.262982
 30
0.0
 42
-0.100281
 70
     2
 50
39.887393
  0
VERTEX
  5
21D
100
AcDbEntity
  8
0
100
AcDbVertex
100
AcDb2dVertex
 10
1.884002
 20
0.276448
 30
0.0
 42
-0.103096
  0
VERTEX
  5
21E
100
AcDbEntity
  8
0
100
AcDbVertex
100
AcDb2dVertex
 10
1.879535
 20
0.292627
 30
0.0
 42
-0.103096
  0
VERTEX
  5
21F
100
AcDbEntity
  8
0
100
AcDbVertex
100
AcDb2dVertex
 10
1.881903
 20
0.309243
 30
0.0
 42
-0.100281
  0
VERTEX
  5
220
100
AcDbEntity
  8
0
100
AcDbVertex
100
AcDb2dVertex
 10
1.890872
 20
0.323972
 30
0.0
 42
-0.09654
 70
     2
 50
132.789284
  0
VERTEX
  5
221
100
AcDbEntity
  8
0
100
AcDbVertex
100
AcDb2dVertex
 10
1.904888
 20
0.334224
 30
0.0
 42
-0.094052
  0
VERTEX
  5
222
100
AcDbEntity
  8
0
100
AcDbVertex
100
AcDb2dVertex
 10
1.922144
 20
0.338657
 30
0.0
 42
-0.094052
  0
VERTEX
  5
223
100
AcDbEntity
  8
0
100
AcDbVertex
100
AcDb2dVertex
 10
1.939824
 20
0.33646
 30
0.0
 42
-0.09654
  0
VERTEX
  5
224
100
AcDbEntity
  8
0
100
AcDbVertex
100
AcDb2dVertex
 10
1.955032
 20
0.328078
 30
0.0
 42
-0.100281
 70
     2
 50
219.887393
  0
VERTEX
  5
225
100
AcDbEntity
  8
0
100
AcDbVertex
100
AcDb2dVertex
 10
1.965805
 20
0.314612
 30
0.0
 42
-0.103096
  0
SEQEND
  5
226
100
AcDbEntity
  8
0
  0
ARC
  5
227
100
AcDbEntity
  8
0
100
AcDbCircle
 10
1.9256
 20
0.308551
 30
0.0
 40
0.038298
100
AcDbArc
 50
336.716766
 51
359.678141
  0
ARC
  5
228
100
AcDbEntity
  8
0
100
AcDbCircle
 10
1.924752
 20
0.308916
 30
0.0
 40
0.039222
100
AcDbArc
 50
314.030885
 51
336.716766
  0
ARC
  5
229
100
AcDbEntity
  8
0
100
AcDbCircle
 10
1.924209
 20
0.309478
 30
0.0
 40
0.040003
100
AcDbArc
 50
291.724079
 51
314.030885
  0
ARC
  5
22A
100
AcDbEntity
  8
0
100
AcDbCircle
 10
1.923861
 20
0.310352
 30
0.0
 40
0.040943
100
AcDbArc
 50
269.678141
 51
291.724079
  0
ARC
  5
22B
100
AcDbEntity
  8
0
100
AcDbCircle
 10
1.923861
 20
0.310352
 30
0.0
 40
0.040943
100
AcDbArc
 50
247.632203
 51
269.678141
  0
ARC
  5
22C
100
AcDbEntity
  8
0
100
AcDbCircle
 10
1.923503
 20
0.309482
 30
0.0
 40
0.040003
100
AcDbArc
 50
225.325398
 51
247.632203
  0
ARC
  5
22D
100
AcDbEntity
  8
0
100
AcDbCircle
 10
1.922954
 20
0.308927
 30
0.0
 40
0.039222
100
AcDbArc
 50
202.639516
 51
225.325398
  0
ARC
  5
22E
100
AcDbEntity
  8
0
100
AcDbCircle
 10
1.922102
 20
0.308571
 30
0.0
 40
0.038298
100
AcDbArc
 50
179.678141
 51
202.639516
  0
ARC
  5
22F
100
AcDbEntity
  8
0
100
AcDbCircle
 10
1.202911
 20
0.343152
 30
0.0
 40
0.038298
100
AcDbArc
 50
145.395891
 51
168.357265
  0
ARC
  5
230
100
AcDbEntity
  8
0
100
AcDbCircle
 10
1.203815
 20
0.342965
 30
0.0
 40
0.039222
100
AcDbArc
 50
168.357265
 51
191.043147
  0
ARC
  5
231
100
AcDbEntity
  8
0
100
AcDbCircle
 10
1.204582
 20
0.343115
 30
0.0
 40
0.040003
100
AcDbArc
 50
191.043147
 51
213.349953
  0
ARC
  5
232
100
AcDbEntity
  8
0
100
AcDbCircle
 10
1.205367
 20
0.343632
 30
0.0
 40
0.040943
100
AcDbArc
 50
213.349953
 51
235.395891
  0
ARC
  5
233
100
AcDbEntity
  8
0
100
AcDbCircle
 10
1.205367
 20
0.343632
 30
0.0
 40
0.040943
100
AcDbArc
 50
235.395891
 51
257.441828
  0
ARC
  5
234
100
AcDbEntity
  8
0
100
AcDbCircle
 10
1.205163
 20
0.342714
 30
0.0
 40
0.040003
100
AcDbArc
 50
257.441828
 51
279.748634
  0
ARC
  5
235
100
AcDbEntity
  8
0
100
AcDbCircle
 10
1.205295
 20
0.341944
 30
0.0
 40
0.039222
100
AcDbArc
 50
279.748634
 51
302.434516
  0
ARC
  5
236
100
AcDbEntity
  8
0
100
AcDbCircle
 10
1.20579
 20
0.341165
 30
0.0
 40
0.038298
100
AcDbArc
 50
302.434516
 51
325.395891
  0
POLYLINE
  5
237
100
AcDbEntity
  8
0
100
AcDb2dPolyline
 66
     1
 10
0.0
 20
0.0
 30
0.0
 70
     1
  0
VERTEX
  5
238
100
AcDbEntity
  8
0
100
AcDbVertex
100
AcDb2dVertex
 10
1.237002
 20
0.307642
 30
0.0
 42
-0.103096
  0
VERTEX
  5
239
100
AcDbEntity
  8
0
100
AcDbVertex
100
AcDb2dVertex
 10
1.225686
 20
0.295247
 30
0.0
 42
-0.100281
  0
VERTEX
  5
23A
100
AcDbEntity
  8
0
100
AcDbVertex
100
AcDb2dVertex
 10
1.209979
 20
0.288128
 30
0.0
 42
-0.09654
 70
     2
 50
347.071535
  0
VERTEX
  5
23B
100
AcDbEntity
  8
0
100
AcDbVertex
100
AcDb2dVertex
 10
1.192623
 20
0.287552
 30
0.0
 42
-0.094052
  0
VERTEX
  5
23C
100
AcDbEntity
  8
0
100
AcDbVertex
100
AcDb2dVertex
 10
1.175868
 20
0.293609
 30
0.0
 42
-0.094052
  0
VERTEX
  5
23D
100
AcDbEntity
  8
0
100
AcDbVertex
100
AcDb2dVertex
 10
1.162497
 20
0.305383
 30
0.0
 42
-0.09654
  0
VERTEX
  5
23E
100
AcDbEntity
  8
0
100
AcDbVertex
100
AcDb2dVertex
 10
1.154652
 20
0.320875
 30
0.0
 42
-0.100281
 70
     2
 50
74.169643
  0
VERTEX
  5
23F
100
AcDbEntity
  8
0
100
AcDbVertex
100
AcDb2dVertex
 10
1.153336
 20
0.33807
 30
0.0
 42
-0.103096
  0
VERTEX
  5
240
100
AcDbEntity
  8
0
100
AcDbVertex
100
AcDb2dVertex
 10
1.158758
 20
0.353954
 30
0.0
 42
-0.103096
  0
VERTEX
  5
241
100
AcDbEntity
  8
0
100
AcDbVertex
100
AcDb2dVertex
 10
1.170074
 20
0.366349
 30
0.0
 42
-0.100281
  0
VERTEX
  5
242
100
AcDbEntity
  8
0
100
AcDbVertex
100
AcDb2dVertex
 10
1.185781
 20
0.373468
 30
0.0
 42
-0.09654
 70
     2
 50
167.071535
  0
VERTEX
  5
243
100
AcDbEntity
  8
0
100
AcDbVertex
100
AcDb2dVertex
 10
1.203137
 20
0.374044
 30
0.0
 42
-0.094052
  0
VERTEX
  5
244
100
AcDbEntity
  8
0
100
AcDbVertex
100
AcDb2dVertex
 10
1.219892
 20
0.367987
 30
0.0
 42
-0.094052
  0
VERTEX
  5
245
100
AcDbEntity
  8
0
100
AcDbVertex
100
AcDb2dVertex
 10
1.233263
 20
0.356213
 30
0.0
 42
-0.09654
  0
VERTEX
  5
246
100
AcDbEntity
  8
0
100
AcDbVertex
100
AcDb2dVertex
 10
1.241108
 20
0.340721
 30
0.0
 42
-0.100281
 70
     2
 50
254.169643
  0
VERTEX
  5
247
100
AcDbEntity
  8
0
100
AcDbVertex
100
AcDb2dVertex
 10
1.242424
 20
0.323526
 30
0.0
 42
-0.103096
  0
SEQEND
  5
248
100
AcDbEntity
  8
0
  0
POLYLINE
  5
249
100
AcDbEntity
  8
0
100
AcDb2dPolyline
 66
     1
 10
0.0
 20
0.0
 30
0.0
 70
     1
  0
VERTEX
  5
24A
100
AcDbEntity
  8
0
100
AcDbVertex
100
AcDb2dVertex
 10
1.246053
 20
0.306743
 30
0.0
 42
-0.101454
  0
VERTEX
  5
24B
100
AcDbEntity
  8
0
100
AcDbVertex
100
AcDb2dVertex
 10
1.233161
 20
0.291381
 30
0.0
 42
-0.09967
  0
VERTEX
  5
24C
100
AcDbEntity
  8
0
100
AcDbVertex
100
AcDb2dVertex
 10
1.214984
 20
0.282109
 30
0.0
 42
-0.097246
 70
     2
 50
344.356364
  0
VERTEX
  5
24D
100
AcDbEntity
  8
0
100
AcDbVertex
100
AcDb2dVertex
 10
1.19455
 20
0.280488
 30
0.0
 42
-0.095598
  0
VERTEX
  5
24E
100
AcDbEntity
  8
0
100
AcDbVertex
100
AcDb2dVertex
 10
1.17467
 20
0.286754
 30
0.0
 42
-0.095598
  0
VERTEX
  5
24F
100
AcDbEntity
  8
0
100
AcDbVertex
100
AcDb2dVertex
 10
1.158549
 20
0.299967
 30
0.0
 42
-0.097246
  0
VERTEX
  5
250
100
AcDbEntity
  8
0
100
AcDbVertex
100
AcDb2dVertex
 10
1.148727
 20
0.317959
 30
0.0
 42
-0.09967
 70
     2
 50
72.47707
  0
VERTEX
  5
251
100
AcDbEntity
  8
0
100
AcDbVertex
100
AcDb2dVertex
 10
1.146545
 20
0.338248
 30
0.0
 42
-0.101454
  0
VERTEX
  5
252
100
AcDbEntity
  8
0
100
AcDbVertex
100
AcDb2dVertex
 10
1.152351
 20
0.357443
 30
0.0
 42
-0.101454
  0
VERTEX
  5
253
100
AcDbEntity
  8
0
100
AcDbVertex
100
AcDb2dVertex
 10
1.165243
 20
0.372805
 30
0.0
 42
-0.09967
  0
VERTEX
  5
254
100
AcDbEntity
  8
0
100
AcDbVertex
100
AcDb2dVertex
 10
1.18342
 20
0.382077
 30
0.0
 42
-0.097246
 70
     2
 50
164.356364
  0
VERTEX
  5
255
100
AcDbEntity
  8
0
100
AcDbVertex
100
AcDb2dVertex
 10
1.203854
 20
0.383698
 30
0.0
 42
-0.095598
  0
VERTEX
  5
256
100
AcDbEntity
  8
0
100
AcDbVertex
100
AcDb2dVertex
 10
1.223734
 20
0.377432
 30
0.0
 42
-0.095598
  0
VERTEX
  5
257
100
AcDbEntity
  8
0
100
AcDbVertex
100
AcDb2dVertex
 10
1.239855
 20
0.364219
 30
0.0
 42
-0.097246
  0
VERTEX
  5
258
100
AcDbEntity
  8
0
100
AcDbVertex
100
AcDb2dVertex
 10
1.249677
 20
0.346227
 30
0.0
 42
-0.09967
 70
     2
 50
252.47707
  0
VERTEX
  5
259
100
AcDbEntity
  8
0
100
AcDbVertex
100
AcDb2dVertex
 10
1.251859
 20
0.325938
 30
0.0
 42
-0.101454
  0
SEQEND
  5
25A
100
AcDbEntity
  8
0
  0
ARC
  5
25B
100
AcDbEntity
  8
0
100
AcDbCircle
 10
1.198819
 20
0.332497
 30
0.0
 40
0.072302
100
AcDbArc
 50
331.047896
 51
154.365847
  0
ARC
  5
25C
100
AcDbEntity
  8
0
100
AcDbCircle
 10
1.206036
 20
0.346484
 30
0.0
 40
0.074439
100
AcDbArc
 50
318.846481
 51
166.567262
  0
ENDSEC
  0
SECTION
  2
OBJECTS
  0
DICTIONARY
  5
C
100
AcDbDictionary
  3
ACAD_GROUP
350
D
  3
ACAD_MLINESTYLE
350
E
  0
DICTIONARY
  5
D
102
{ACAD_REACTORS
330
C
102
}
100
AcDbDictionary
  0
DICTIONARY
  5
E
102
{ACAD_REACTORS
330
C
102
}
100
AcDbDictionary
  3
STANDARD
350
1B
  0
MLINESTYLE
  5
1B
102
{ACAD_REACTORS
330
E
102
}
100
AcDbMlineStyle
  2
STANDARD
 70
     0
  3

 62
     0
 51
90.0
 52
90.0
 71
     2
 49
0.5
 62
   256
  6
BYLAYER
 49
-0.5
 62
   256
  6
BYLAYER
  0
ENDSEC
  0
EOF
