0
SECTION
2
HEADER
9
$EXTMIN
10
0.305176
20
0.229614
9
$EXTMAX
10
24.305542
20
9.535645
0
ENDSEC
0
SECTION
2
TABLES
0
TABLE
2
LTYPE
70
1
0
LTYPE
2
0
70
0
3
Solid Line
72
65
73
0
40
0.0
0
ENDTAB
0
TABLE
2
LAYER
70
1
0
LAYER
2
1
70
0
62
7
6
0
0
ENDTAB
0
ENDSEC
0
SECTION
2
BLOCKS
0
ENDSEC
0
SECTION
2
ENTITIES
0
POLYLINE
8
1
66
1
70
1
0
VERTEX
8
1
10
9.768066
20
7.406616
0
VERTEX
8
1
10
9.788818
20
7.418335
0
VERTEX
8
1
10
9.810791
20
7.426880
0
VERTEX
8
1
10
9.833374
20
7.432251
0
VERTEX
8
1
10
9.856323
20
7.434814
0
VERTEX
8
1
10
9.879395
20
7.434692
0
VERTEX
8
1
10
9.902222
20
7.432251
0
VERTEX
8
1
10
9.924805
20
7.428101
0
VERTEX
8
1
10
9.946899
20
7.422241
0
VERTEX
8
1
10
9.968262
20
7.415161
0
VERTEX
8
1
10
9.988770
20
7.407227
0
VERTEX
8
1
10
10.007935
20
7.398560
0
VERTEX
8
1
10
10.025757
20
7.389648
0
VERTEX
8
1
10
10.041992
20
7.380859
0
VERTEX
8
1
10
10.056519
20
7.372314
0
VERTEX
8
1
10
10.068848
20
7.364624
0
VERTEX
8
1
10
10.078979
20
7.357788
0
VERTEX
8
1
10
10.086670
20
7.352539
0
VERTEX
8
1
10
10.091797
20
7.348877
0
VERTEX
8
1
10
10.093872
20
7.347412
0
VERTEX
8
1
10
10.094482
20
7.347168
0
VERTEX
8
1
10
10.096191
20
7.346558
0
VERTEX
8
1
10
10.099121
20
7.345581
0
VERTEX
8
1
10
10.103027
20
7.344238
0
VERTEX
8
1
10
10.107910
20
7.342651
0
VERTEX
8
1
10
10.113403
20
7.340820
0
VERTEX
8
1
10
10.119507
20
7.338745
0
VERTEX
8
1
10
10.126099
20
7.336548
0
VERTEX
8
1
10
10.132935
20
7.334351
0
VERTEX
8
1
10
10.139771
20
7.332031
0
VERTEX
8
1
10
10.146606
20
7.329712
0
VERTEX
8
1
10
10.153442
20
7.327393
0
VERTEX
8
1
10
10.159912
20
7.325317
0
VERTEX
8
1
10
10.165771
20
7.323364
0
VERTEX
8
1
10
10.171143
20
7.321655
0
VERTEX
8
1
10
10.175537
20
7.320068
0
VERTEX
8
1
10
10.179199
20
7.318848
0
VERTEX
8
1
10
10.181396
20
7.318115
0
VERTEX
8
1
10
10.182739
20
7.317749
0
VERTEX
8
1
10
10.183350
20
7.317749
0
VERTEX
8
1
10
10.185791
20
7.318237
0
VERTEX
8
1
10
10.190308
20
7.319092
0
VERTEX
8
1
10
10.196655
20
7.320435
0
VERTEX
8
1
10
10.204346
20
7.321899
0
VERTEX
8
1
10
10.213379
20
7.323730
0
VERTEX
8
1
10
10.223511
20
7.325806
0
VERTEX
8
1
10
10.234253
20
7.327881
0
VERTEX
8
1
10
10.245605
20
7.330200
0
VERTEX
8
1
10
10.257080
20
7.332520
0
VERTEX
8
1
10
10.268677
20
7.334839
0
VERTEX
8
1
10
10.279785
20
7.337036
0
VERTEX
8
1
10
10.290771
20
7.339233
0
VERTEX
8
1
10
10.300659
20
7.341309
0
VERTEX
8
1
10
10.309814
20
7.342896
0
VERTEX
8
1
10
10.317505
20
7.344727
0
VERTEX
8
1
10
10.323730
20
7.345825
0
VERTEX
8
1
10
10.328369
20
7.346680
0
VERTEX
8
1
10
10.330688
20
7.347168
0
VERTEX
8
1
10
10.331055
20
7.347168
0
VERTEX
8
1
10
10.331055
20
7.345947
0
VERTEX
8
1
10
10.331055
20
7.343384
0
VERTEX
8
1
10
10.331055
20
7.339844
0
VERTEX
8
1
10
10.331055
20
7.335327
0
VERTEX
8
1
10
10.331055
20
7.330078
0
VERTEX
8
1
10
10.331055
20
7.324097
0
VERTEX
8
1
10
10.331055
20
7.317749
0
VERTEX
8
1
10
10.331055
20
7.311035
0
VERTEX
8
1
10
10.331055
20
7.304077
0
VERTEX
8
1
10
10.331055
20
7.297119
0
VERTEX
8
1
10
10.331055
20
7.290283
0
VERTEX
8
1
10
10.330933
20
7.283813
0
VERTEX
8
1
10
10.331177
20
7.277588
0
VERTEX
8
1
10
10.331055
20
7.272217
0
VERTEX
8
1
10
10.331055
20
7.267334
0
VERTEX
8
1
10
10.331055
20
7.263550
0
VERTEX
8
1
10
10.331177
20
7.260498
0
VERTEX
8
1
10
10.331177
20
7.258789
0
VERTEX
8
1
10
10.331177
20
7.258423
0
VERTEX
8
1
10
10.334717
20
7.259277
0
VERTEX
8
1
10
10.342773
20
7.261230
0
VERTEX
8
1
10
10.354614
20
7.264038
0
VERTEX
8
1
10
10.369873
20
7.267700
0
VERTEX
8
1
10
10.387939
20
7.271973
0
VERTEX
8
1
10
10.408325
20
7.276733
0
VERTEX
8
1
10
10.430420
20
7.282104
0
VERTEX
8
1
10
10.453979
20
7.287720
0
VERTEX
8
1
10
10.478027
20
7.293457
0
VERTEX
8
1
10
10.502319
20
7.299194
0
VERTEX
8
1
10
10.526367
20
7.304932
0
VERTEX
8
1
10
10.549561
20
7.310303
0
VERTEX
8
1
10
10.571167
20
7.315552
0
VERTEX
8
1
10
10.590942
20
7.320313
0
VERTEX
8
1
10
10.608398
20
7.324341
0
VERTEX
8
1
10
10.622559
20
7.327881
0
VERTEX
8
1
10
10.633545
20
7.330322
0
VERTEX
8
1
10
10.640137
20
7.332031
0
VERTEX
8
1
10
10.642456
20
7.332520
0
VERTEX
8
1
10
10.642578
20
7.332031
0
VERTEX
8
1
10
10.642944
20
7.330688
0
VERTEX
8
1
10
10.643433
20
7.328491
0
VERTEX
8
1
10
10.644165
20
7.325684
0
VERTEX
8
1
10
10.645020
20
7.322388
0
VERTEX
8
1
10
10.645996
20
7.318481
0
VERTEX
8
1
10
10.646973
20
7.314331
0
VERTEX
8
1
10
10.648071
20
7.309937
0
VERTEX
8
1
10
10.649292
20
7.305420
0
VERTEX
8
1
10
10.650391
20
7.300781
0
VERTEX
8
1
10
10.651489
20
7.296143
0
VERTEX
8
1
10
10.652588
20
7.291748
0
VERTEX
8
1
10
10.653687
20
7.287476
0
VERTEX
8
1
10
10.654663
20
7.283691
0
VERTEX
8
1
10
10.655518
20
7.280151
0
VERTEX
8
1
10
10.656128
20
7.277344
0
VERTEX
8
1
10
10.656860
20
7.275146
0
VERTEX
8
1
10
10.657104
20
7.273682
0
VERTEX
8
1
10
10.657104
20
7.273193
0
VERTEX
8
1
10
10.659546
20
7.273438
0
VERTEX
8
1
10
10.667847
20
7.274414
0
VERTEX
8
1
10
10.681274
20
7.275879
0
VERTEX
8
1
10
10.699463
20
7.277832
0
VERTEX
8
1
10
10.721313
20
7.280396
0
VERTEX
8
1
10
10.746460
20
7.283081
0
VERTEX
8
1
10
10.774292
20
7.286255
0
VERTEX
8
1
10
10.803833
20
7.289551
0
VERTEX
8
1
10
10.834595
20
7.292969
0
VERTEX
8
1
10
10.865723
20
7.296509
0
VERTEX
8
1
10
10.896851
20
7.299927
0
VERTEX
8
1
10
10.927002
20
7.303101
0
VERTEX
8
1
10
10.955566
20
7.306396
0
VERTEX
8
1
10
10.981934
20
7.309326
0
VERTEX
8
1
10
11.005615
20
7.311890
0
VERTEX
8
1
10
11.025391
20
7.314209
0
VERTEX
8
1
10
11.041260
20
7.315918
0
VERTEX
8
1
10
11.051880
20
7.317139
0
VERTEX
8
1
10
11.057007
20
7.317627
0
VERTEX
8
1
10
11.057251
20
7.317139
0
VERTEX
8
1
10
11.056885
20
7.315063
0
VERTEX
8
1
10
11.056396
20
7.311279
0
VERTEX
8
1
10
11.055786
20
7.306274
0
VERTEX
8
1
10
11.055054
20
7.299927
0
VERTEX
8
1
10
11.054199
20
7.292603
0
VERTEX
8
1
10
11.053101
20
7.284546
0
VERTEX
8
1
10
11.052002
20
7.275879
0
VERTEX
8
1
10
11.050781
20
7.266846
0
VERTEX
8
1
10
11.049805
20
7.257568
0
VERTEX
8
1
10
11.048584
20
7.248413
0
VERTEX
8
1
10
11.047485
20
7.239258
0
VERTEX
8
1
10
11.046509
20
7.230835
0
VERTEX
8
1
10
11.045288
20
7.222900
0
VERTEX
8
1
10
11.044434
20
7.215698
0
VERTEX
8
1
10
11.043823
20
7.209595
0
VERTEX
8
1
10
11.043213
20
7.204834
0
VERTEX
8
1
10
11.042725
20
7.201416
0
VERTEX
8
1
10
11.042603
20
7.199341
0
VERTEX
8
1
10
11.042725
20
7.199219
0
VERTEX
8
1
10
11.044556
20
7.198975
0
VERTEX
8
1
10
11.047974
20
7.198486
0
VERTEX
8
1
10
11.052856
20
7.197876
0
VERTEX
8
1
10
11.058960
20
7.197144
0
VERTEX
8
1
10
11.066162
20
7.196289
0
VERTEX
8
1
10
11.073975
20
7.195313
0
VERTEX
8
1
10
11.082642
20
7.194214
0
VERTEX
8
1
10
11.091553
20
7.192993
0
VERTEX
8
1
10
11.100830
20
7.191895
0
VERTEX
8
1
10
11.109863
20
7.190796
0
VERTEX
8
1
10
11.119019
20
7.189575
0
VERTEX
8
1
10
11.127686
20
7.188477
0
VERTEX
8
1
10
11.135742
20
7.187378
0
VERTEX
8
1
10
11.143066
20
7.186646
0
VERTEX
8
1
10
11.149536
20
7.185791
0
VERTEX
8
1
10
11.154541
20
7.185059
0
VERTEX
8
1
10
11.158203
20
7.184570
0
VERTEX
8
1
10
11.160522
20
7.184326
0
VERTEX
8
1
10
11.160889
20
7.184448
0
VERTEX
8
1
10
11.161255
20
7.185913
0
VERTEX
8
1
10
11.161987
20
7.189087
0
VERTEX
8
1
10
11.163208
20
7.193726
0
VERTEX
8
1
10
11.164673
20
7.199585
0
VERTEX
8
1
10
11.166504
20
7.206543
0
VERTEX
8
1
10
11.168335
20
7.214355
0
VERTEX
8
1
10
11.170532
20
7.222900
0
VERTEX
8
1
10
11.172729
20
7.231689
0
VERTEX
8
1
10
11.175049
20
7.240967
0
VERTEX
8
1
10
11.177246
20
7.250244
0
VERTEX
8
1
10
11.179688
20
7.259277
0
VERTEX
8
1
10
11.181885
20
7.268066
0
VERTEX
8
1
10
11.183960
20
7.276245
0
VERTEX
8
1
10
11.185669
20
7.283691
0
VERTEX
8
1
10
11.187378
20
7.290405
0
VERTEX
8
1
10
11.188721
20
7.295776
0
VERTEX
8
1
10
11.189819
20
7.299683
0
VERTEX
8
1
10
11.190430
20
7.302124
0
VERTEX
8
1
10
11.190552
20
7.302856
0
VERTEX
8
1
10
11.192749
20
7.302124
0
VERTEX
8
1
10
11.198120
20
7.300415
0
VERTEX
8
1
10
11.206299
20
7.297974
0
VERTEX
8
1
10
11.216919
20
7.294800
0
VERTEX
8
1
10
11.229614
20
7.291260
0
VERTEX
8
1
10
11.244019
20
7.287476
0
VERTEX
8
1
10
11.259644
20
7.283569
0
VERTEX
8
1
10
11.276367
20
7.279785
0
VERTEX
8
1
10
11.293579
20
7.276489
0
VERTEX
8
1
10
11.310913
20
7.273682
0
VERTEX
8
1
10
11.328003
20
7.271484
0
VERTEX
8
1
10
11.344604
20
7.270264
0
VERTEX
8
1
10
11.360229
20
7.270020
0
VERTEX
8
1
10
11.374512
20
7.271118
0
VERTEX
8
1
10
11.387085
20
7.273682
0
VERTEX
8
1
10
11.397583
20
7.277710
0
VERTEX
8
1
10
11.405518
20
7.283936
0
VERTEX
8
1
10
11.410767
20
7.291748
0
VERTEX
8
1
10
11.412720
20
7.302124
0
VERTEX
8
1
10
11.412720
20
7.312744
0
VERTEX
8
1
10
11.412720
20
7.321411
0
VERTEX
8
1
10
11.412842
20
7.328491
0
VERTEX
8
1
10
11.413086
20
7.334595
0
VERTEX
8
1
10
11.413452
20
7.340210
0
VERTEX
8
1
10
11.414063
20
7.345825
0
VERTEX
8
1
10
11.414795
20
7.351807
0
VERTEX
8
1
10
11.415771
20
7.358521
0
VERTEX
8
1
10
11.417114
20
7.366943
0
VERTEX
8
1
10
11.418823
20
7.377075
0
VERTEX
8
1
10
11.421021
20
7.389526
0
VERTEX
8
1
10
11.423462
20
7.404785
0
VERTEX
8
1
10
11.426392
20
7.423340
0
VERTEX
8
1
10
11.429932
20
7.445679
0
VERTEX
8
1
10
11.433838
20
7.472534
0
VERTEX
8
1
10
11.438232
20
7.503784
0
VERTEX
8
1
10
11.443481
20
7.540283
0
VERTEX
8
1
10
11.449219
20
7.582764
0
VERTEX
8
1
10
11.455444
20
7.630981
0
VERTEX
8
1
10
11.463013
20
7.683105
0
VERTEX
8
1
10
11.472290
20
7.731934
0
VERTEX
8
1
10
11.482910
20
7.777222
0
VERTEX
8
1
10
11.494873
20
7.819214
0
VERTEX
8
1
10
11.507935
20
7.857910
0
VERTEX
8
1
10
11.521729
20
7.893311
0
VERTEX
8
1
10
11.536133
20
7.925659
0
VERTEX
8
1
10
11.550781
20
7.954956
0
VERTEX
8
1
10
11.565430
20
7.981445
0
VERTEX
8
1
10
11.580200
20
8.004883
0
VERTEX
8
1
10
11.594238
20
8.025757
0
VERTEX
8
1
10
11.607910
20
8.043823
0
VERTEX
8
1
10
11.620361
20
8.059326
0
VERTEX
8
1
10
11.632080
20
8.072388
0
VERTEX
8
1
10
11.642212
20
8.082886
0
VERTEX
8
1
10
11.650879
20
8.091187
0
VERTEX
8
1
10
11.657715
20
8.097290
0
VERTEX
8
1
10
11.662231
20
8.101074
0
VERTEX
8
1
10
11.664673
20
8.103027
0
VERTEX
8
1
10
11.686157
20
8.104370
0
VERTEX
8
1
10
11.820190
20
8.111938
0
VERTEX
8
1
10
12.065674
20
8.125977
0
VERTEX
8
1
10
12.408691
20
8.145386
0
VERTEX
8
1
10
12.835327
20
8.169678
0
VERTEX
8
1
10
13.331909
20
8.197876
0
VERTEX
8
1
10
13.884277
20
8.229248
0
VERTEX
8
1
10
14.478638
20
8.263062
0
VERTEX
8
1
10
15.101074
20
8.298340
0
VERTEX
8
1
10
15.737793
20
8.334473
0
VERTEX
8
1
10
16.374756
20
8.370728
0
VERTEX
8
1
10
16.998291
20
8.406250
0
VERTEX
8
1
10
17.594116
20
8.440063
0
VERTEX
8
1
10
18.148682
20
8.471558
0
VERTEX
8
1
10
18.648071
20
8.500000
0
VERTEX
8
1
10
19.078369
20
8.524292
0
VERTEX
8
1
10
19.425537
20
8.544067
0
VERTEX
8
1
10
19.675781
20
8.558350
0
VERTEX
8
1
10
19.815186
20
8.566162
0
VERTEX
8
1
10
19.839844
20
8.568115
0
VERTEX
8
1
10
19.839844
20
8.574097
0
VERTEX
8
1
10
19.839844
20
8.586060
0
VERTEX
8
1
10
19.839844
20
8.603516
0
VERTEX
8
1
10
19.839844
20
8.625366
0
VERTEX
8
1
10
19.839844
20
8.651123
0
VERTEX
8
1
10
19.839844
20
8.680054
0
VERTEX
8
1
10
19.839844
20
8.711304
0
VERTEX
8
1
10
19.839844
20
8.744141
0
VERTEX
8
1
10
19.839844
20
8.777954
0
VERTEX
8
1
10
19.839844
20
8.811890
0
VERTEX
8
1
10
19.839844
20
8.845215
0
VERTEX
8
1
10
19.839844
20
8.877075
0
VERTEX
8
1
10
19.839722
20
8.907104
0
VERTEX
8
1
10
19.839844
20
8.934326
0
VERTEX
8
1
10
19.839844
20
8.957886
0
VERTEX
8
1
10
19.839844
20
8.977173
0
VERTEX
8
1
10
19.839722
20
8.991455
0
VERTEX
8
1
10
19.839844
20
9.000000
0
VERTEX
8
1
10
19.839966
20
9.002319
0
VERTEX
8
1
10
19.843750
20
9.002319
0
VERTEX
8
1
10
19.852417
20
9.002319
0
VERTEX
8
1
10
19.865479
20
9.002319
0
VERTEX
8
1
10
19.882324
20
9.002319
0
VERTEX
8
1
10
19.902344
20
9.002319
0
VERTEX
8
1
10
19.924805
20
9.002319
0
VERTEX
8
1
10
19.949341
20
9.002319
0
VERTEX
8
1
10
19.975342
20
9.002319
0
VERTEX
8
1
10
20.002197
20
9.002319
0
VERTEX
8
1
10
20.029053
20
9.002319
0
VERTEX
8
1
10
20.055786
20
9.002319
0
VERTEX
8
1
10
20.081421
20
9.002319
0
VERTEX
8
1
10
20.105835
20
9.002197
0
VERTEX
8
1
10
20.127686
20
9.002441
0
VERTEX
8
1
10
20.146973
20
9.002319
0
VERTEX
8
1
10
20.163086
20
9.002319
0
VERTEX
8
1
10
20.175293
20
9.002319
0
VERTEX
8
1
10
20.183105
20
9.002441
0
VERTEX
8
1
10
20.185669
20
9.002319
0
VERTEX
8
1
10
20.185791
20
9.002930
0
VERTEX
8
1
10
20.185913
20
9.004517
0
VERTEX
8
1
10
20.186279
20
9.007080
0
VERTEX
8
1
10
20.186646
20
9.010620
0
VERTEX
8
1
10
20.187134
20
9.014893
0
VERTEX
8
1
10
20.187622
20
9.019897
0
VERTEX
8
1
10
20.188110
20
9.025635
0
VERTEX
8
1
10
20.188599
20
9.031982
0
VERTEX
8
1
10
20.189087
20
9.038818
0
VERTEX
8
1
10
20.189331
20
9.046143
0
VERTEX
8
1
10
20.189697
20
9.053711
0
VERTEX
8
1
10
20.189819
20
9.061768
0
VERTEX
8
1
10
20.189941
20
9.069946
0
VERTEX
8
1
10
20.189697
20
9.078247
0
VERTEX
8
1
10
20.189575
20
9.086670
0
VERTEX
8
1
10
20.188965
20
9.095215
0
VERTEX
8
1
10
20.188232
20
9.103394
0
VERTEX
8
1
10
20.187256
20
9.111572
0
VERTEX
8
1
10
20.185913
20
9.119507
0
VERTEX
8
1
10
20.194702
20
9.132813
0
VERTEX
8
1
10
20.206177
20
9.147949
0
VERTEX
8
1
10
20.218262
20
9.163940
0
VERTEX
8
1
10
20.231323
20
9.180542
0
VERTEX
8
1
10
20.245483
20
9.197510
0
VERTEX
8
1
10
20.260986
20
9.214722
0
VERTEX
8
1
10
20.278076
20
9.231934
0
VERTEX
8
1
10
20.296875
20
9.248901
0
VERTEX
8
1
10
20.317627
20
9.265381
0
VERTEX
8
1
10
20.340576
20
9.281494
0
VERTEX
8
1
10
20.365967
20
9.296753
0
VERTEX
8
1
10
20.393799
20
9.311035
0
VERTEX
8
1
10
20.424561
20
9.324097
0
VERTEX
8
1
10
20.458374
20
9.335938
0
VERTEX
8
1
10
20.495361
20
9.346069
0
VERTEX
8
1
10
20.535767
20
9.354614
0
VERTEX
8
1
10
20.579834
20
9.361084
0
VERTEX
8
1
10
20.627808
20
9.365601
0
VERTEX
8
1
10
20.679810
20
9.367798
0
VERTEX
8
1
10
20.734253
20
9.367432
0
VERTEX
8
1
10
20.785034
20
9.364624
0
VERTEX
8
1
10
20.831665
20
9.359741
0
VERTEX
8
1
10
20.874390
20
9.353027
0
VERTEX
8
1
10
20.913208
20
9.344604
0
VERTEX
8
1
10
20.948486
20
9.334961
0
VERTEX
8
1
10
20.980225
20
9.324219
0
VERTEX
8
1
10
21.008545
20
9.312500
0
VERTEX
8
1
10
21.033936
20
9.300415
0
VERTEX
8
1
10
21.056030
20
9.288086
0
VERTEX
8
1
10
21.075195
20
9.275879
0
VERTEX
8
1
10
21.091797
20
9.263794
0
VERTEX
8
1
10
21.105835
20
9.252441
0
VERTEX
8
1
10
21.117310
20
9.241577
0
VERTEX
8
1
10
21.126465
20
9.232178
0
VERTEX
8
1
10
21.133545
20
9.223999
0
VERTEX
8
1
10
21.138550
20
9.217163
0
VERTEX
8
1
10
21.141968
20
9.212524
0
VERTEX
8
1
10
21.143677
20
9.210083
0
VERTEX
8
1
10
21.143799
20
9.209473
0
VERTEX
8
1
10
21.143799
20
9.207153
0
VERTEX
8
1
10
21.143799
20
9.202637
0
VERTEX
8
1
10
21.143799
20
9.196167
0
VERTEX
8
1
10
21.143799
20
9.187988
0
VERTEX
8
1
10
21.143799
20
9.178589
0
VERTEX
8
1
10
21.143921
20
9.167969
0
VERTEX
8
1
10
21.143677
20
9.156616
0
VERTEX
8
1
10
21.143799
20
9.144653
0
VERTEX
8
1
10
21.143799
20
9.132324
0
VERTEX
8
1
10
21.143799
20
9.119995
0
VERTEX
8
1
10
21.143799
20
9.107910
0
VERTEX
8
1
10
21.143799
20
9.096313
0
VERTEX
8
1
10
21.143677
20
9.085449
0
VERTEX
8
1
10
21.143799
20
9.075684
0
VERTEX
8
1
10
21.143799
20
9.067139
0
VERTEX
8
1
10
21.143677
20
9.060303
0
VERTEX
8
1
10
21.143677
20
9.055298
0
VERTEX
8
1
10
21.143799
20
9.052368
0
VERTEX
8
1
10
21.144165
20
9.051636
0
VERTEX
8
1
10
21.150513
20
9.051758
0
VERTEX
8
1
10
21.164551
20
9.052002
0
VERTEX
8
1
10
21.185181
20
9.052368
0
VERTEX
8
1
10
21.211426
20
9.052979
0
VERTEX
8
1
10
21.242676
20
9.053467
0
VERTEX
8
1
10
21.277710
20
9.054199
0
VERTEX
8
1
10
21.315796
20
9.054932
0
VERTEX
8
1
10
21.355957
20
9.055542
0
VERTEX
8
1
10
21.397339
20
9.056396
0
VERTEX
8
1
10
21.438965
20
9.057129
0
VERTEX
8
1
10
21.480103
20
9.057861
0
VERTEX
8
1
10
21.519653
20
9.058716
0
VERTEX
8
1
10
21.556885
20
9.059448
0
VERTEX
8
1
10
21.590454
20
9.059937
0
VERTEX
8
1
10
21.619995
20
9.060547
0
VERTEX
8
1
10
21.644287
20
9.060913
0
VERTEX
8
1
10
21.662720
20
9.061401
0
VERTEX
8
1
10
21.673950
20
9.061646
0
VERTEX
8
1
10
21.677490
20
9.061646
0
VERTEX
8
1
10
21.677612
20
9.057983
0
VERTEX
8
1
10
21.677856
20
9.048584
0
VERTEX
8
1
10
21.678223
20
9.034180
0
VERTEX
8
1
10
21.678711
20
9.015381
0
VERTEX
8
1
10
21.679199
20
8.993042
0
VERTEX
8
1
10
21.679810
20
8.967407
0
VERTEX
8
1
10
21.680420
20
8.939575
0
VERTEX
8
1
10
21.681152
20
8.910156
0
VERTEX
8
1
10
21.681885
20
8.879639
0
VERTEX
8
1
10
21.682739
20
8.848633
0
VERTEX
8
1
10
21.683350
20
8.818237
0
VERTEX
8
1
10
21.684082
20
8.788574
0
VERTEX
8
1
10
21.684814
20
8.760742
0
VERTEX
8
1
10
21.685425
20
8.735229
0
VERTEX
8
1
10
21.685913
20
8.712769
0
VERTEX
8
1
10
21.686401
20
8.693848
0
VERTEX
8
1
10
21.686890
20
8.679443
0
VERTEX
8
1
10
21.686890
20
8.670166
0
VERTEX
8
1
10
21.687134
20
8.666382
0
VERTEX
8
1
10
21.689087
20
8.666382
0
VERTEX
8
1
10
21.695313
20
8.666382
0
VERTEX
8
1
10
21.705444
20
8.666382
0
VERTEX
8
1
10
21.718994
20
8.666382
0
VERTEX
8
1
10
21.735352
20
8.666382
0
VERTEX
8
1
10
21.754150
20
8.666382
0
VERTEX
8
1
10
21.774780
20
8.666382
0
VERTEX
8
1
10
21.796753
20
8.666382
0
VERTEX
8
1
10
21.819458
20
8.666382
0
VERTEX
8
1
10
21.842529
20
8.666382
0
VERTEX
8
1
10
21.865601
20
8.666382
0
VERTEX
8
1
10
21.888062
20
8.666382
0
VERTEX
8
1
10
21.909180
20
8.666260
0
VERTEX
8
1
10
21.928833
20
8.666382
0
VERTEX
8
1
10
21.946045
20
8.666382
0
VERTEX
8
1
10
21.960815
20
8.666382
0
VERTEX
8
1
10
21.972168
20
8.666260
0
VERTEX
8
1
10
21.979980
20
8.666382
0
VERTEX
8
1
10
21.983521
20
8.666260
0
VERTEX
8
1
10
21.983643
20
8.668945
0
VERTEX
8
1
10
21.983276
20
8.680542
0
VERTEX
8
1
10
21.982666
20
8.700317
0
VERTEX
8
1
10
21.981812
20
8.727539
0
VERTEX
8
1
10
21.980713
20
8.760864
0
VERTEX
8
1
10
21.979492
20
8.799316
0
VERTEX
8
1
10
21.978027
20
8.841919
0
VERTEX
8
1
10
21.976563
20
8.887451
0
VERTEX
8
1
10
21.975098
20
8.935059
0
VERTEX
8
1
10
21.973511
20
8.983643
0
VERTEX
8
1
10
21.972046
20
9.032104
0
VERTEX
8
1
10
21.970581
20
9.079224
0
VERTEX
8
1
10
21.968994
20
9.124268
0
VERTEX
8
1
10
21.967651
20
9.165771
0
VERTEX
8
1
10
21.966553
20
9.203125
0
VERTEX
8
1
10
21.965332
20
9.234985
0
VERTEX
8
1
10
21.964722
20
9.260498
0
VERTEX
8
1
10
21.964111
20
9.278198
0
VERTEX
8
1
10
21.963867
20
9.287476
0
VERTEX
8
1
10
21.964355
20
9.288574
0
VERTEX
8
1
10
21.968262
20
9.288574
0
VERTEX
8
1
10
21.975586
20
9.288574
0
VERTEX
8
1
10
21.985840
20
9.288574
0
VERTEX
8
1
10
21.998657
20
9.288574
0
VERTEX
8
1
10
22.013550
20
9.288574
0
VERTEX
8
1
10
22.030151
20
9.288574
0
VERTEX
8
1
10
22.048096
20
9.288574
0
VERTEX
8
1
10
22.066895
20
9.288574
0
VERTEX
8
1
10
22.086182
20
9.288574
0
VERTEX
8
1
10
22.105347
20
9.288574
0
VERTEX
8
1
10
22.124268
20
9.288574
0
VERTEX
8
1
10
22.142090
20
9.288574
0
VERTEX
8
1
10
22.159058
20
9.288574
0
VERTEX
8
1
10
22.174194
20
9.288574
0
VERTEX
8
1
10
22.187256
20
9.288574
0
VERTEX
8
1
10
22.197998
20
9.288452
0
VERTEX
8
1
10
22.205566
20
9.288574
0
VERTEX
8
1
10
22.209839
20
9.288574
0
VERTEX
8
1
10
22.210693
20
9.288818
0
VERTEX
8
1
10
22.210815
20
9.291748
0
VERTEX
8
1
10
22.211060
20
9.297974
0
VERTEX
8
1
10
22.211548
20
9.307007
0
VERTEX
8
1
10
22.212036
20
9.318359
0
VERTEX
8
1
10
22.212646
20
9.331787
0
VERTEX
8
1
10
22.213257
20
9.346802
0
VERTEX
8
1
10
22.213989
20
9.363037
0
VERTEX
8
1
10
22.214722
20
9.380371
0
VERTEX
8
1
10
22.215454
20
9.397949
0
VERTEX
8
1
10
22.216309
20
9.415771
0
VERTEX
8
1
10
22.217163
20
9.433105
0
VERTEX
8
1
10
22.217773
20
9.449951
0
VERTEX
8
1
10
22.218384
20
9.465698
0
VERTEX
8
1
10
22.219116
20
9.479980
0
VERTEX
8
1
10
22.219604
20
9.492310
0
VERTEX
8
1
10
22.220093
20
9.502563
0
VERTEX
8
1
10
22.220459
20
9.510132
0
VERTEX
8
1
10
22.220581
20
9.514893
0
VERTEX
8
1
10
22.220947
20
9.515991
0
VERTEX
8
1
10
22.231812
20
9.516235
0
VERTEX
8
1
10
22.257690
20
9.516724
0
VERTEX
8
1
10
22.296753
20
9.517456
0
VERTEX
8
1
10
22.347290
20
9.518433
0
VERTEX
8
1
10
22.407593
20
9.519531
0
VERTEX
8
1
10
22.475708
20
9.520752
0
VERTEX
8
1
10
22.549805
20
9.522095
0
VERTEX
8
1
10
22.628296
20
9.523682
0
VERTEX
8
1
10
22.709351
20
9.525146
0
VERTEX
8
1
10
22.791138
20
9.526733
0
VERTEX
8
1
10
22.871948
20
9.528320
0
VERTEX
8
1
10
22.949829
20
9.529663
0
VERTEX
8
1
10
23.023438
20
9.531128
0
VERTEX
8
1
10
23.090454
20
9.532349
0
VERTEX
8
1
10
23.149292
20
9.533325
0
VERTEX
8
1
10
23.198364
20
9.534424
0
VERTEX
8
1
10
23.235596
20
9.535034
0
VERTEX
8
1
10
23.259521
20
9.535400
0
VERTEX
8
1
10
23.268066
20
9.535645
0
VERTEX
8
1
10
23.269287
20
9.507202
0
VERTEX
8
1
10
23.273071
20
9.423706
0
VERTEX
8
1
10
23.278931
20
9.291504
0
VERTEX
8
1
10
23.286743
20
9.116943
0
VERTEX
8
1
10
23.296143
20
8.906494
0
VERTEX
8
1
10
23.306763
20
8.666626
0
VERTEX
8
1
10
23.318481
20
8.403564
0
VERTEX
8
1
10
23.331055
20
8.123779
0
VERTEX
8
1
10
23.343872
20
7.833740
0
VERTEX
8
1
10
23.356934
20
7.539795
0
VERTEX
8
1
10
23.369995
20
7.248291
0
VERTEX
8
1
10
23.382568
20
6.965576
0
VERTEX
8
1
10
23.394531
20
6.698120
0
VERTEX
8
1
10
23.405518
20
6.452515
0
VERTEX
8
1
10
23.415039
20
6.234863
0
VERTEX
8
1
10
23.423340
20
6.051636
0
VERTEX
8
1
10
23.429688
20
5.909180
0
VERTEX
8
1
10
23.433838
20
5.814331
0
VERTEX
8
1
10
23.435791
20
5.772705
0
VERTEX
8
1
10
23.439697
20
5.771484
0
VERTEX
8
1
10
23.454956
20
5.771484
0
VERTEX
8
1
10
23.480713
20
5.771484
0
VERTEX
8
1
10
23.515381
20
5.771484
0
VERTEX
8
1
10
23.557617
20
5.771484
0
VERTEX
8
1
10
23.606323
20
5.771484
0
VERTEX
8
1
10
23.660034
20
5.771484
0
VERTEX
8
1
10
23.717529
20
5.771484
0
VERTEX
8
1
10
23.777466
20
5.771484
0
VERTEX
8
1
10
23.838257
20
5.771484
0
VERTEX
8
1
10
23.898926
20
5.771484
0
VERTEX
8
1
10
23.958008
20
5.771484
0
VERTEX
8
1
10
24.014038
20
5.771484
0
VERTEX
8
1
10
24.066040
20
5.771484
0
VERTEX
8
1
10
24.112305
20
5.771484
0
VERTEX
8
1
10
24.151611
20
5.771484
0
VERTEX
8
1
10
24.182861
20
5.771484
0
VERTEX
8
1
10
24.204468
20
5.771484
0
VERTEX
8
1
10
24.215332
20
5.771484
0
VERTEX
8
1
10
24.216187
20
5.769165
0
VERTEX
8
1
10
24.216431
20
5.756104
0
VERTEX
8
1
10
24.216675
20
5.732544
0
VERTEX
8
1
10
24.217041
20
5.699951
0
VERTEX
8
1
10
24.217651
20
5.659424
0
VERTEX
8
1
10
24.218140
20
5.612427
0
VERTEX
8
1
10
24.218872
20
5.560181
0
VERTEX
8
1
10
24.219604
20
5.504028
0
VERTEX
8
1
10
24.220337
20
5.445313
0
VERTEX
8
1
10
24.221069
20
5.385254
0
VERTEX
8
1
10
24.221924
20
5.325317
0
VERTEX
8
1
10
24.222656
20
5.266724
0
VERTEX
8
1
10
24.223389
20
5.210693
0
VERTEX
8
1
10
24.223999
20
5.158569
0
VERTEX
8
1
10
24.224731
20
5.111694
0
VERTEX
8
1
10
24.225098
20
5.071533
0
VERTEX
8
1
10
24.225464
20
5.039307
0
VERTEX
8
1
10
24.225952
20
5.016113
0
VERTEX
8
1
10
24.225952
20
5.003296
0
VERTEX
8
1
10
24.224976
20
5.001221
0
VERTEX
8
1
10
24.214233
20
5.000977
0
VERTEX
8
1
10
24.193115
20
5.000366
0
VERTEX
8
1
10
24.162842
20
4.999512
0
VERTEX
8
1
10
24.124756
20
4.998535
0
VERTEX
8
1
10
24.079956
20
4.997314
0
VERTEX
8
1
10
24.029907
20
4.995972
0
VERTEX
8
1
10
23.975830
20
4.994629
0
VERTEX
8
1
10
23.918945
20
4.993042
0
VERTEX
8
1
10
23.860718
20
4.991455
0
VERTEX
8
1
10
23.802124
20
4.989990
0
VERTEX
8
1
10
23.744507
20
4.988281
0
VERTEX
8
1
10
23.689453
20
4.986816
0
VERTEX
8
1
10
23.637817
20
4.985474
0
VERTEX
8
1
10
23.591187
20
4.984253
0
VERTEX
8
1
10
23.550659
20
4.983154
0
VERTEX
8
1
10
23.517578
20
4.982300
0
VERTEX
8
1
10
23.493164
20
4.981689
0
VERTEX
8
1
10
23.478882
20
4.981201
0
VERTEX
8
1
10
23.475464
20
4.980469
0
VERTEX
8
1
10
23.475830
20
4.962280
0
VERTEX
8
1
10
23.476563
20
4.921631
0
VERTEX
8
1
10
23.477783
20
4.861206
0
VERTEX
8
1
10
23.479126
20
4.783691
0
VERTEX
8
1
10
23.480835
20
4.691895
0
VERTEX
8
1
10
23.482788
20
4.588379
0
VERTEX
8
1
10
23.484985
20
4.475830
0
VERTEX
8
1
10
23.487061
20
4.356934
0
VERTEX
8
1
10
23.489502
20
4.234497
0
VERTEX
8
1
10
23.491699
20
4.110962
0
VERTEX
8
1
10
23.494019
20
3.989380
0
VERTEX
8
1
10
23.496216
20
3.872070
0
VERTEX
8
1
10
23.498169
20
3.761841
0
VERTEX
8
1
10
23.500000
20
3.661621
0
VERTEX
8
1
10
23.501709
20
3.573730
0
VERTEX
8
1
10
23.503174
20
3.500977
0
VERTEX
8
1
10
23.504150
20
3.446045
0
VERTEX
8
1
10
23.504761
20
3.411743
0
VERTEX
8
1
10
23.505005
20
3.400635
0
VERTEX
8
1
10
23.504028
20
3.400635
0
VERTEX
8
1
10
23.501587
20
3.400635
0
VERTEX
8
1
10
23.497681
20
3.400635
0
VERTEX
8
1
10
23.492432
20
3.400635
0
VERTEX
8
1
10
23.486328
20
3.400635
0
VERTEX
8
1
10
23.479370
20
3.400635
0
VERTEX
8
1
10
23.471680
20
3.400635
0
VERTEX
8
1
10
23.463501
20
3.400635
0
VERTEX
8
1
10
23.455200
20
3.400635
0
VERTEX
8
1
10
23.446655
20
3.400635
0
VERTEX
8
1
10
23.438232
20
3.400635
0
VERTEX
8
1
10
23.430176
20
3.400635
0
VERTEX
8
1
10
23.422363
20
3.400635
0
VERTEX
8
1
10
23.415405
20
3.400635
0
VERTEX
8
1
10
23.409302
20
3.400513
0
VERTEX
8
1
10
23.403931
20
3.400635
0
VERTEX
8
1
10
23.400024
20
3.400513
0
VERTEX
8
1
10
23.397339
20
3.400757
0
VERTEX
8
1
10
23.396240
20
3.400635
0
VERTEX
8
1
10
23.394409
20
3.401367
0
VERTEX
8
1
10
23.387817
20
3.404053
0
VERTEX
8
1
10
23.377197
20
3.408447
0
VERTEX
8
1
10
23.362915
20
3.414307
0
VERTEX
8
1
10
23.345581
20
3.421265
0
VERTEX
8
1
10
23.325562
20
3.429321
0
VERTEX
8
1
10
23.303711
20
3.438232
0
VERTEX
8
1
10
23.280396
20
3.447754
0
VERTEX
8
1
10
23.256226
20
3.457642
0
VERTEX
8
1
10
23.231445
20
3.467651
0
VERTEX
8
1
10
23.206909
20
3.477661
0
VERTEX
8
1
10
23.183228
20
3.487305
0
VERTEX
8
1
10
23.160400
20
3.496582
0
VERTEX
8
1
10
23.139648
20
3.505127
0
VERTEX
8
1
10
23.121094
20
3.512695
0
VERTEX
8
1
10
23.105469
20
3.518921
0
VERTEX
8
1
10
23.093018
20
3.523926
0
VERTEX
8
1
10
23.084595
20
3.527466
0
VERTEX
8
1
10
23.080566
20
3.529053
0
VERTEX
8
1
10
23.080322
20
3.530029
0
VERTEX
8
1
10
23.080322
20
3.534546
0
VERTEX
8
1
10
23.080322
20
3.542358
0
VERTEX
8
1
10
23.080322
20
3.552979
0
VERTEX
8
1
10
23.080322
20
3.566162
0
VERTEX
8
1
10
23.080322
20
3.581421
0
VERTEX
8
1
10
23.080322
20
3.598145
0
VERTEX
8
1
10
23.080200
20
3.616333
0
VERTEX
8
1
10
23.080200
20
3.635254
0
VERTEX
8
1
10
23.080322
20
3.654419
0
VERTEX
8
1
10
23.080322
20
3.673706
0
VERTEX
8
1
10
23.080322
20
3.692383
0
VERTEX
8
1
10
23.080322
20
3.710205
0
VERTEX
8
1
10
23.080200
20
3.726807
0
VERTEX
8
1
10
23.080322
20
3.741699
0
VERTEX
8
1
10
23.080444
20
3.754517
0
VERTEX
8
1
10
23.080444
20
3.764526
0
VERTEX
8
1
10
23.080200
20
3.771729
0
VERTEX
8
1
10
23.080322
20
3.775635
0
VERTEX
8
1
10
23.080200
20
3.776123
0
VERTEX
8
1
10
23.078735
20
3.776123
0
VERTEX
8
1
10
23.076172
20
3.776123
0
VERTEX
8
1
10
23.072510
20
3.776123
0
VERTEX
8
1
10
23.067871
20
3.776123
0
VERTEX
8
1
10
23.062622
20
3.776123
0
VERTEX
8
1
10
23.056641
20
3.776123
0
VERTEX
8
1
10
23.050171
20
3.776123
0
VERTEX
8
1
10
23.043457
20
3.776245
0
VERTEX
8
1
10
23.036499
20
3.776123
0
VERTEX
8
1
10
23.029663
20
3.776123
0
VERTEX
8
1
10
23.022827
20
3.776245
0
VERTEX
8
1
10
23.016479
20
3.776123
0
VERTEX
8
1
10
23.010132
20
3.776245
0
VERTEX
8
1
10
23.004761
20
3.776245
0
VERTEX
8
1
10
22.999878
20
3.776001
0
VERTEX
8
1
10
22.996216
20
3.776123
0
VERTEX
8
1
10
22.993408
20
3.776001
0
VERTEX
8
1
10
22.991821
20
3.776245
0
VERTEX
8
1
10
22.991455
20
3.775269
0
VERTEX
8
1
10
22.992065
20
3.761963
0
VERTEX
8
1
10
22.993408
20
3.733643
0
VERTEX
8
1
10
22.995361
20
3.692383
0
VERTEX
8
1
10
22.997803
20
3.639771
0
VERTEX
8
1
10
23.000732
20
3.577759
0
VERTEX
8
1
10
23.004028
20
3.507935
0
VERTEX
8
1
10
23.007446
20
3.432373
0
VERTEX
8
1
10
23.011108
20
3.352539
0
VERTEX
8
1
10
23.015015
20
3.270508
0
VERTEX
8
1
10
23.018799
20
3.187988
0
VERTEX
8
1
10
23.022705
20
3.106934
0
VERTEX
8
1
10
23.026245
20
3.028564
0
VERTEX
8
1
10
23.029541
20
2.955444
0
VERTEX
8
1
10
23.032715
20
2.888916
0
VERTEX
8
1
10
23.035400
20
2.830811
0
VERTEX
8
1
10
23.037720
20
2.782959
0
VERTEX
8
1
10
23.039307
20
2.747314
0
VERTEX
8
1
10
23.040405
20
2.725464
0
VERTEX
8
1
10
23.040771
20
2.718994
0
VERTEX
8
1
10
23.053223
20
2.713745
0
VERTEX
8
1
10
23.083862
20
2.700562
0
VERTEX
8
1
10
23.130615
20
2.680420
0
VERTEX
8
1
10
23.191162
20
2.654419
0
VERTEX
8
1
10
23.263550
20
2.623291
0
VERTEX
8
1
10
23.345459
20
2.588135
0
VERTEX
8
1
10
23.434814
20
2.549683
0
VERTEX
8
1
10
23.529419
20
2.509033
0
VERTEX
8
1
10
23.627319
20
2.467041
0
VERTEX
8
1
10
23.725952
20
2.424561
0
VERTEX
8
1
10
23.823730
20
2.382568
0
VERTEX
8
1
10
23.917969
20
2.342041
0
VERTEX
8
1
10
24.006958
20
2.303833
0
VERTEX
8
1
10
24.088257
20
2.268799
0
VERTEX
8
1
10
24.159668
20
2.238037
0
VERTEX
8
1
10
24.219360
20
2.212524
0
VERTEX
8
1
10
24.265015
20
2.192871
0
VERTEX
8
1
10
24.294434
20
2.180176
0
VERTEX
8
1
10
24.305298
20
2.175537
0
VERTEX
8
1
10
24.305420
20
2.173218
0
VERTEX
8
1
10
24.305420
20
2.166138
0
VERTEX
8
1
10
24.305420
20
2.154907
0
VERTEX
8
1
10
24.305420
20
2.139893
0
VERTEX
8
1
10
24.305420
20
2.121704
0
VERTEX
8
1
10
24.305420
20
2.101074
0
VERTEX
8
1
10
24.305420
20
2.078369
0
VERTEX
8
1
10
24.305420
20
2.054077
0
VERTEX
8
1
10
24.305420
20
2.029053
0
VERTEX
8
1
10
24.305420
20
2.003662
0
VERTEX
8
1
10
24.305542
20
1.978271
0
VERTEX
8
1
10
24.305420
20
1.953735
0
VERTEX
8
1
10
24.305420
20
1.930664
0
VERTEX
8
1
10
24.305298
20
1.909180
0
VERTEX
8
1
10
24.305420
20
1.890259
0
VERTEX
8
1
10
24.305420
20
1.874390
0
VERTEX
8
1
10
24.305420
20
1.861938
0
VERTEX
8
1
10
24.305420
20
1.853638
0
VERTEX
8
1
10
24.305420
20
1.849854
0
VERTEX
8
1
10
24.298462
20
1.849609
0
VERTEX
8
1
10
24.269531
20
1.849609
0
VERTEX
8
1
10
24.220581
20
1.849609
0
VERTEX
8
1
10
24.154053
20
1.849609
0
VERTEX
8
1
10
24.072510
20
1.849609
0
VERTEX
8
1
10
23.978516
20
1.849609
0
VERTEX
8
1
10
23.874634
20
1.849609
0
VERTEX
8
1
10
23.763550
20
1.849609
0
VERTEX
8
1
10
23.647827
20
1.849609
0
VERTEX
8
1
10
23.529785
20
1.849609
0
VERTEX
8
1
10
23.412354
20
1.849609
0
VERTEX
8
1
10
23.297852
20
1.849731
0
VERTEX
8
1
10
23.188965
20
1.849609
0
VERTEX
8
1
10
23.088013
20
1.849731
0
VERTEX
8
1
10
22.997803
20
1.849487
0
VERTEX
8
1
10
22.921143
20
1.849609
0
VERTEX
8
1
10
22.860107
20
1.849487
0
VERTEX
8
1
10
22.817505
20
1.849731
0
VERTEX
8
1
10
22.795898
20
1.849609
0
VERTEX
8
1
10
22.793701
20
1.850220
0
VERTEX
8
1
10
22.793701
20
1.853516
0
VERTEX
8
1
10
22.793701
20
1.859863
0
VERTEX
8
1
10
22.793701
20
1.868530
0
VERTEX
8
1
10
22.793701
20
1.879395
0
VERTEX
8
1
10
22.793701
20
1.891968
0
VERTEX
8
1
10
22.793701
20
1.906006
0
VERTEX
8
1
10
22.793701
20
1.921143
0
VERTEX
8
1
10
22.793701
20
1.936890
0
VERTEX
8
1
10
22.793701
20
1.953003
0
VERTEX
8
1
10
22.793701
20
1.969238
0
VERTEX
8
1
10
22.793701
20
1.984985
0
VERTEX
8
1
10
22.793701
20
2.000000
0
VERTEX
8
1
10
22.793823
20
2.014160
0
VERTEX
8
1
10
22.793579
20
2.026855
0
VERTEX
8
1
10
22.793579
20
2.037720
0
VERTEX
8
1
10
22.793579
20
2.046509
0
VERTEX
8
1
10
22.793823
20
2.052734
0
VERTEX
8
1
10
22.793823
20
2.056274
0
VERTEX
8
1
10
22.793457
20
2.057007
0
VERTEX
8
1
10
22.791382
20
2.057739
0
VERTEX
8
1
10
22.786987
20
2.059082
0
VERTEX
8
1
10
22.780640
20
2.061157
0
VERTEX
8
1
10
22.772583
20
2.063599
0
VERTEX
8
1
10
22.763184
20
2.066528
0
VERTEX
8
1
10
22.752686
20
2.069824
0
VERTEX
8
1
10
22.741333
20
2.073486
0
VERTEX
8
1
10
22.729370
20
2.077148
0
VERTEX
8
1
10
22.717163
20
2.081055
0
VERTEX
8
1
10
22.704834
20
2.084839
0
VERTEX
8
1
10
22.692627
20
2.088745
0
VERTEX
8
1
10
22.681030
20
2.092285
0
VERTEX
8
1
10
22.670044
20
2.095825
0
VERTEX
8
1
10
22.660156
20
2.098999
0
VERTEX
8
1
10
22.651611
20
2.101685
0
VERTEX
8
1
10
22.644653
20
2.103882
0
VERTEX
8
1
10
22.639404
20
2.105347
0
VERTEX
8
1
10
22.636475
20
2.106323
0
VERTEX
8
1
10
22.634766
20
2.106689
0
VERTEX
8
1
10
22.612183
20
2.106689
0
VERTEX
8
1
10
22.560303
20
2.106689
0
VERTEX
8
1
10
22.482666
20
2.106689
0
VERTEX
8
1
10
22.382690
20
2.106689
0
VERTEX
8
1
10
22.264038
20
2.106689
0
VERTEX
8
1
10
22.129761
20
2.106689
0
VERTEX
8
1
10
21.983887
20
2.106689
0
VERTEX
8
1
10
21.829590
20
2.106689
0
VERTEX
8
1
10
21.670410
20
2.106689
0
VERTEX
8
1
10
21.510010
20
2.106689
0
VERTEX
8
1
10
21.351685
20
2.106689
0
VERTEX
8
1
10
21.198975
20
2.106689
0
VERTEX
8
1
10
21.055298
20
2.106689
0
VERTEX
8
1
10
20.924316
20
2.106567
0
VERTEX
8
1
10
20.809448
20
2.106567
0
VERTEX
8
1
10
20.714233
20
2.106567
0
VERTEX
8
1
10
20.641846
20
2.106567
0
VERTEX
8
1
10
20.596436
20
2.106689
0
VERTEX
8
1
10
20.580811
20
2.106689
0
VERTEX
8
1
10
20.580811
20
2.093872
0
VERTEX
8
1
10
20.580811
20
2.058472
0
VERTEX
8
1
10
20.580811
20
2.002930
0
VERTEX
8
1
10
20.580811
20
1.929810
0
VERTEX
8
1
10
20.580811
20
1.842041
0
VERTEX
8
1
10
20.580811
20
1.742065
0
VERTEX
8
1
10
20.580811
20
1.632690
0
VERTEX
8
1
10
20.580811
20
1.516479
0
VERTEX
8
1
10
20.580811
20
1.396118
0
VERTEX
8
1
10
20.580933
20
1.274170
0
VERTEX
8
1
10
20.580811
20
1.153198
0
VERTEX
8
1
10
20.580811
20
1.036255
0
VERTEX
8
1
10
20.580933
20
0.925659
0
VERTEX
8
1
10
20.580688
20
0.824219
0
VERTEX
8
1
10
20.580811
20
0.734497
0
VERTEX
8
1
10
20.580811
20
0.659180
0
VERTEX
8
1
10
20.580811
20
0.600952
0
VERTEX
8
1
10
20.580933
20
0.562256
0
VERTEX
8
1
10
20.580811
20
0.545898
0
VERTEX
8
1
10
20.580688
20
0.545654
0
VERTEX
8
1
10
20.579956
20
0.545410
0
VERTEX
8
1
10
20.578979
20
0.545166
0
VERTEX
8
1
10
20.577515
20
0.544678
0
VERTEX
8
1
10
20.575684
20
0.544189
0
VERTEX
8
1
10
20.573364
20
0.543823
0
VERTEX
8
1
10
20.570923
20
0.543213
0
VERTEX
8
1
10
20.568115
20
0.542725
0
VERTEX
8
1
10
20.564941
20
0.542236
0
VERTEX
8
1
10
20.561401
20
0.541870
0
VERTEX
8
1
10
20.557861
20
0.541504
0
VERTEX
8
1
10
20.553955
20
0.541260
0
VERTEX
8
1
10
20.549927
20
0.541260
0
VERTEX
8
1
10
20.545776
20
0.541260
0
VERTEX
8
1
10
20.541382
20
0.541504
0
VERTEX
8
1
10
20.536987
20
0.542114
0
VERTEX
8
1
10
20.532471
20
0.542847
0
VERTEX
8
1
10
20.527832
20
0.543823
0
VERTEX
8
1
10
20.523193
20
0.545166
0
VERTEX
8
1
10
20.515259
20
0.549194
0
VERTEX
8
1
10
20.503906
20
0.556641
0
VERTEX
8
1
10
20.491089
20
0.566040
0
VERTEX
8
1
10
20.476929
20
0.577393
0
VERTEX
8
1
10
20.461914
20
0.590210
0
VERTEX
8
1
10
20.445923
20
0.604126
0
VERTEX
8
1
10
20.429565
20
0.619019
0
VERTEX
8
1
10
20.412842
20
0.634521
0
VERTEX
8
1
10
20.396240
20
0.650513
0
VERTEX
8
1
10
20.379883
20
0.666382
0
VERTEX
8
1
10
20.363770
20
0.682007
0
VERTEX
8
1
10
20.348755
20
0.697144
0
VERTEX
8
1
10
20.334473
20
0.711304
0
VERTEX
8
1
10
20.321655
20
0.724487
0
VERTEX
8
1
10
20.310303
20
0.736206
0
VERTEX
8
1
10
20.300537
20
0.746216
0
VERTEX
8
1
10
20.292969
20
0.753906
0
VERTEX
8
1
10
20.287720
20
0.759766
0
VERTEX
8
1
10
20.284790
20
0.762573
0
VERTEX
8
1
10
20.284302
20
0.765381
0
VERTEX
8
1
10
20.284302
20
0.785400
0
VERTEX
8
1
10
20.284302
20
0.823853
0
VERTEX
8
1
10
20.284302
20
0.878662
0
VERTEX
8
1
10
20.284302
20
0.947510
0
VERTEX
8
1
10
20.284302
20
1.027954
0
VERTEX
8
1
10
20.284302
20
1.117920
0
VERTEX
8
1
10
20.284302
20
1.214966
0
VERTEX
8
1
10
20.284302
20
1.316895
0
VERTEX
8
1
10
20.284302
20
1.421387
0
VERTEX
8
1
10
20.284302
20
1.526245
0
VERTEX
8
1
10
20.284180
20
1.628906
0
VERTEX
8
1
10
20.284180
20
1.727539
0
VERTEX
8
1
10
20.284180
20
1.819580
0
VERTEX
8
1
10
20.284180
20
1.902710
0
VERTEX
8
1
10
20.284302
20
1.974609
0
VERTEX
8
1
10
20.284302
20
2.033325
0
VERTEX
8
1
10
20.284424
20
2.076172
0
VERTEX
8
1
10
20.284302
20
2.101074
0
VERTEX
8
1
10
20.284058
20
2.106689
0
VERTEX
8
1
10
20.278809
20
2.106934
0
VERTEX
8
1
10
20.267334
20
2.107422
0
VERTEX
8
1
10
20.250366
20
2.108154
0
VERTEX
8
1
10
20.228638
20
2.108887
0
VERTEX
8
1
10
20.202881
20
2.109863
0
VERTEX
8
1
10
20.173706
20
2.110962
0
VERTEX
8
1
10
20.141968
20
2.111938
0
VERTEX
8
1
10
20.108276
20
2.112915
0
VERTEX
8
1
10
20.073242
20
2.113770
0
VERTEX
8
1
10
20.037720
20
2.114502
0
VERTEX
8
1
10
20.002319
20
2.115112
0
VERTEX
8
1
10
19.967773
20
2.115234
0
VERTEX
8
1
10
19.934692
20
2.115234
0
VERTEX
8
1
10
19.904053
20
2.114990
0
VERTEX
8
1
10
19.876587
20
2.114258
0
VERTEX
8
1
10
19.852417
20
2.113037
0
VERTEX
8
1
10
19.832886
20
2.111450
0
VERTEX
8
1
10
19.818237
20
2.109131
0
VERTEX
8
1
10
19.810181
20
2.080933
0
VERTEX
8
1
10
19.797607
20
1.821533
0
VERTEX
8
1
10
19.762573
20
1.587646
0
VERTEX
8
1
10
19.707642
20
1.377930
0
VERTEX
8
1
10
19.635132
20
1.191040
0
VERTEX
8
1
10
19.547119
20
1.025635
0
VERTEX
8
1
10
19.446167
20
0.880371
0
VERTEX
8
1
10
19.334473
20
0.754150
0
VERTEX
8
1
10
19.214355
20
0.645264
0
VERTEX
8
1
10
19.088013
20
0.552734
0
VERTEX
8
1
10
18.958008
20
0.475098
0
VERTEX
8
1
10
18.826416
20
0.410889
0
VERTEX
8
1
10
18.695679
20
0.359131
0
VERTEX
8
1
10
18.568115
20
0.318359
0
VERTEX
8
1
10
18.445801
20
0.287109
0
VERTEX
8
1
10
18.331421
20
0.264282
0
VERTEX
8
1
10
18.226807
20
0.248291
0
VERTEX
8
1
10
18.135010
20
0.238159
0
VERTEX
8
1
10
18.057495
20
0.232300
0
VERTEX
8
1
10
17.997070
20
0.229614
0
VERTEX
8
1
10
17.737549
20
0.238403
0
VERTEX
8
1
10
17.483887
20
0.273682
0
VERTEX
8
1
10
17.256592
20
0.332520
0
VERTEX
8
1
10
17.054443
20
0.412109
0
VERTEX
8
1
10
16.875977
20
0.509033
0
VERTEX
8
1
10
16.719604
20
0.620605
0
VERTEX
8
1
10
16.583862
20
0.743530
0
VERTEX
8
1
10
16.467285
20
0.874756
0
VERTEX
8
1
10
16.368530
20
1.011353
0
VERTEX
8
1
10
16.286133
20
1.150146
0
VERTEX
8
1
10
16.218506
20
1.288208
0
VERTEX
8
1
10
16.164307
20
1.422241
0
VERTEX
8
1
10
16.121948
20
1.549561
0
VERTEX
8
1
10
16.090088
20
1.666870
0
VERTEX
8
1
10
16.067383
20
1.770996
0
VERTEX
8
1
10
16.052124
20
1.859253
0
VERTEX
8
1
10
16.042725
20
1.928223
0
VERTEX
8
1
10
16.037964
20
1.975098
0
VERTEX
8
1
10
16.036743
20
1.996582
0
VERTEX
8
1
10
16.017944
20
1.997803
0
VERTEX
8
1
10
15.934570
20
1.997803
0
VERTEX
8
1
10
15.791260
20
1.997803
0
VERTEX
8
1
10
15.595703
20
1.997803
0
VERTEX
8
1
10
15.355347
20
1.997803
0
VERTEX
8
1
10
15.078003
20
1.997803
0
VERTEX
8
1
10
14.771118
20
1.997803
0
VERTEX
8
1
10
14.442261
20
1.997803
0
VERTEX
8
1
10
14.099243
20
1.997803
0
VERTEX
8
1
10
13.749756
20
1.997803
0
VERTEX
8
1
10
13.401001
20
1.997803
0
VERTEX
8
1
10
13.061035
20
1.997803
0
VERTEX
8
1
10
12.737061
20
1.997803
0
VERTEX
8
1
10
12.437134
20
1.997803
0
VERTEX
8
1
10
12.168579
20
1.997803
0
VERTEX
8
1
10
11.939209
20
1.997803
0
VERTEX
8
1
10
11.756348
20
1.997925
0
VERTEX
8
1
10
11.627930
20
1.997803
0
VERTEX
8
1
10
11.561401
20
1.997803
0
VERTEX
8
1
10
11.553223
20
1.997559
0
VERTEX
8
1
10
11.549561
20
1.996216
0
VERTEX
8
1
10
11.542725
20
1.993530
0
VERTEX
8
1
10
11.533081
20
1.989868
0
VERTEX
8
1
10
11.521240
20
1.985229
0
VERTEX
8
1
10
11.507324
20
1.979858
0
VERTEX
8
1
10
11.491821
20
1.973877
0
VERTEX
8
1
10
11.475220
20
1.967407
0
VERTEX
8
1
10
11.457764
20
1.960693
0
VERTEX
8
1
10
11.439697
20
1.953735
0
VERTEX
8
1
10
11.421753
20
1.946899
0
VERTEX
8
1
10
11.404297
20
1.940063
0
VERTEX
8
1
10
11.387695
20
1.933594
0
VERTEX
8
1
10
11.371948
20
1.927612
0
VERTEX
8
1
10
11.357910
20
1.922119
0
VERTEX
8
1
10
11.345581
20
1.917358
0
VERTEX
8
1
10
11.335693
20
1.913574
0
VERTEX
8
1
10
11.328735
20
1.910645
0
VERTEX
8
1
10
11.324707
20
1.909180
0
VERTEX
8
1
10
11.322510
20
1.908936
0
VERTEX
8
1
10
11.305054
20
1.908936
0
VERTEX
8
1
10
11.268921
20
1.908936
0
VERTEX
8
1
10
11.216309
20
1.908936
0
VERTEX
8
1
10
11.149536
20
1.908936
0
VERTEX
8
1
10
11.070679
20
1.908936
0
VERTEX
8
1
10
10.981934
20
1.908936
0
VERTEX
8
1
10
10.885620
20
1.908936
0
VERTEX
8
1
10
10.784058
20
1.908936
0
VERTEX
8
1
10
10.678955
20
1.908936
0
VERTEX
8
1
10
10.573120
20
1.908936
0
VERTEX
8
1
10
10.468384
20
1.908936
0
VERTEX
8
1
10
10.366943
20
1.908813
0
VERTEX
8
1
10
10.271118
20
1.908813
0
VERTEX
8
1
10
10.183105
20
1.908936
0
VERTEX
8
1
10
10.105103
20
1.908936
0
VERTEX
8
1
10
10.039063
20
1.908936
0
VERTEX
8
1
10
9.987915
20
1.908936
0
VERTEX
8
1
10
9.953003
20
1.908936
0
VERTEX
8
1
10
9.937622
20
1.907104
0
VERTEX
8
1
10
9.934326
20
1.895874
0
VERTEX
8
1
10
9.931152
20
1.885498
0
VERTEX
8
1
10
9.927979
20
1.875854
0
VERTEX
8
1
10
9.924683
20
1.866699
0
VERTEX
8
1
10
9.921143
20
1.858276
0
VERTEX
8
1
10
9.917358
20
1.850586
0
VERTEX
8
1
10
9.913208
20
1.843384
0
VERTEX
8
1
10
9.908325
20
1.836792
0
VERTEX
8
1
10
9.902954
20
1.830811
0
VERTEX
8
1
10
9.896729
20
1.825317
0
VERTEX
8
1
10
9.889771
20
1.820435
0
VERTEX
8
1
10
9.881958
20
1.815918
0
VERTEX
8
1
10
9.872925
20
1.812012
0
VERTEX
8
1
10
9.862793
20
1.808594
0
VERTEX
8
1
10
9.851196
20
1.805664
0
VERTEX
8
1
10
9.838501
20
1.803101
0
VERTEX
8
1
10
9.824097
20
1.800903
0
VERTEX
8
1
10
9.808228
20
1.799316
0
VERTEX
8
1
10
9.790649
20
1.797974
0
VERTEX
8
1
10
9.770630
20
1.798828
0
VERTEX
8
1
10
9.752197
20
1.801270
0
VERTEX
8
1
10
9.735352
20
1.805176
0
VERTEX
8
1
10
9.719971
20
1.810303
0
VERTEX
8
1
10
9.706055
20
1.816528
0
VERTEX
8
1
10
9.693604
20
1.823608
0
VERTEX
8
1
10
9.682251
20
1.831299
0
VERTEX
8
1
10
9.672363
20
1.839600
0
VERTEX
8
1
10
9.663574
20
1.848145
0
VERTEX
8
1
10
9.655884
20
1.856689
0
VERTEX
8
1
10
9.649170
20
1.865356
0
VERTEX
8
1
10
9.643677
20
1.873657
0
VERTEX
8
1
10
9.639038
20
1.881592
0
VERTEX
8
1
10
9.635254
20
1.888794
0
VERTEX
8
1
10
9.632202
20
1.895386
0
VERTEX
8
1
10
9.630127
20
1.900635
0
VERTEX
8
1
10
9.628540
20
1.904785
0
VERTEX
8
1
10
9.627563
20
1.907715
0
VERTEX
8
1
10
9.627197
20
1.908813
0
VERTEX
8
1
10
9.622192
20
1.908936
0
VERTEX
8
1
10
9.602295
20
1.908936
0
VERTEX
8
1
10
9.569092
20
1.908936
0
VERTEX
8
1
10
9.524048
20
1.908936
0
VERTEX
8
1
10
9.468994
20
1.908936
0
VERTEX
8
1
10
9.405640
20
1.908936
0
VERTEX
8
1
10
9.335815
20
1.908936
0
VERTEX
8
1
10
9.261108
20
1.908936
0
VERTEX
8
1
10
9.183350
20
1.908813
0
VERTEX
8
1
10
9.104004
20
1.908936
0
VERTEX
8
1
10
9.025146
20
1.908936
0
VERTEX
8
1
10
8.948486
20
1.908936
0
VERTEX
8
1
10
8.875488
20
1.908936
0
VERTEX
8
1
10
8.807983
20
1.908813
0
VERTEX
8
1
10
8.747559
20
1.909058
0
VERTEX
8
1
10
8.696411
20
1.908936
0
VERTEX
8
1
10
8.655884
20
1.908936
0
VERTEX
8
1
10
8.627686
20
1.908936
0
VERTEX
8
1
10
8.613525
20
1.908813
0
VERTEX
8
1
10
8.612305
20
1.908203
0
VERTEX
8
1
10
8.612305
20
1.904053
0
VERTEX
8
1
10
8.612305
20
1.896606
0
VERTEX
8
1
10
8.612305
20
1.886230
0
VERTEX
8
1
10
8.612305
20
1.873413
0
VERTEX
8
1
10
8.612305
20
1.858521
0
VERTEX
8
1
10
8.612305
20
1.841919
0
VERTEX
8
1
10
8.612427
20
1.824097
0
VERTEX
8
1
10
8.612305
20
1.805420
0
VERTEX
8
1
10
8.612305
20
1.786377
0
VERTEX
8
1
10
8.612305
20
1.767334
0
VERTEX
8
1
10
8.612305
20
1.748779
0
VERTEX
8
1
10
8.612305
20
1.730957
0
VERTEX
8
1
10
8.612305
20
1.714478
0
VERTEX
8
1
10
8.612183
20
1.699463
0
VERTEX
8
1
10
8.612427
20
1.686646
0
VERTEX
8
1
10
8.612305
20
1.676392
0
VERTEX
8
1
10
8.612427
20
1.669067
0
VERTEX
8
1
10
8.612305
20
1.664917
0
VERTEX
8
1
10
8.612183
20
1.664307
0
VERTEX
8
1
10
8.611450
20
1.664063
0
VERTEX
8
1
10
8.609985
20
1.663696
0
VERTEX
8
1
10
8.607910
20
1.663086
0
VERTEX
8
1
10
8.605225
20
1.662354
0
VERTEX
8
1
10
8.602173
20
1.661377
0
VERTEX
8
1
10
8.598755
20
1.660400
0
VERTEX
8
1
10
8.594971
20
1.659302
0
VERTEX
8
1
10
8.591064
20
1.658203
0
VERTEX
8
1
10
8.587036
20
1.657104
0
VERTEX
8
1
10
8.582886
20
1.655884
0
VERTEX
8
1
10
8.578857
20
1.654785
0
VERTEX
8
1
10
8.574951
20
1.653564
0
VERTEX
8
1
10
8.571533
20
1.652588
0
VERTEX
8
1
10
8.568237
20
1.651733
0
VERTEX
8
1
10
8.565308
20
1.651001
0
VERTEX
8
1
10
8.563110
20
1.650269
0
VERTEX
8
1
10
8.561401
20
1.649780
0
VERTEX
8
1
10
8.560425
20
1.649536
0
VERTEX
8
1
10
8.560181
20
1.649414
0
VERTEX
8
1
10
8.559326
20
1.649414
0
VERTEX
8
1
10
8.557617
20
1.649414
0
VERTEX
8
1
10
8.555054
20
1.649414
0
VERTEX
8
1
10
8.551636
20
1.649292
0
VERTEX
8
1
10
8.547485
20
1.649170
0
VERTEX
8
1
10
8.542603
20
1.649170
0
VERTEX
8
1
10
8.537354
20
1.649048
0
VERTEX
8
1
10
8.531616
20
1.648926
0
VERTEX
8
1
10
8.525513
20
1.648560
0
VERTEX
8
1
10
8.519165
20
1.648315
0
VERTEX
8
1
10
8.512573
20
1.647949
0
VERTEX
8
1
10
8.505859
20
1.647583
0
VERTEX
8
1
10
8.499146
20
1.646973
0
VERTEX
8
1
10
8.492554
20
1.646606
0
VERTEX
8
1
10
8.486206
20
1.645874
0
VERTEX
8
1
10
8.479980
20
1.645020
0
VERTEX
8
1
10
8.473877
20
1.644165
0
VERTEX
8
1
10
8.468506
20
1.643188
0
VERTEX
8
1
10
8.463135
20
1.642578
0
VERTEX
8
1
10
8.449951
20
1.648438
0
VERTEX
8
1
10
8.437988
20
1.652588
0
VERTEX
8
1
10
8.427368
20
1.655151
0
VERTEX
8
1
10
8.417725
20
1.656372
0
VERTEX
8
1
10
8.409180
20
1.656128
0
VERTEX
8
1
10
8.401733
20
1.654907
0
VERTEX
8
1
10
8.395142
20
1.652710
0
VERTEX
8
1
10
8.389526
20
1.649780
0
VERTEX
8
1
10
8.384766
20
1.646240
0
VERTEX
8
1
10
8.380615
20
1.642212
0
VERTEX
8
1
10
8.377197
20
1.637817
0
VERTEX
8
1
10
8.374390
20
1.633423
0
VERTEX
8
1
10
8.372314
20
1.629028
0
VERTEX
8
1
10
8.370728
20
1.624878
0
VERTEX
8
1
10
8.369385
20
1.620972
0
VERTEX
8
1
10
8.368652
20
1.617554
0
VERTEX
8
1
10
8.367920
20
1.614990
0
VERTEX
8
1
10
8.367676
20
1.613281
0
VERTEX
8
1
10
8.367798
20
1.612549
0
VERTEX
8
1
10
8.366577
20
1.612549
0
VERTEX
8
1
10
8.362549
20
1.612549
0
VERTEX
8
1
10
8.355957
20
1.612549
0
VERTEX
8
1
10
8.347046
20
1.612549
0
VERTEX
8
1
10
8.336060
20
1.612549
0
VERTEX
8
1
10
8.323242
20
1.612549
0
VERTEX
8
1
10
8.309082
20
1.612549
0
VERTEX
8
1
10
8.293579
20
1.612549
0
VERTEX
8
1
10
8.277344
20
1.612549
0
VERTEX
8
1
10
8.260254
20
1.612549
0
VERTEX
8
1
10
8.243042
20
1.612549
0
VERTEX
8
1
10
8.225586
20
1.612549
0
VERTEX
8
1
10
8.208374
20
1.612427
0
VERTEX
8
1
10
8.191895
20
1.612549
0
VERTEX
8
1
10
8.175781
20
1.612549
0
VERTEX
8
1
10
8.161011
20
1.612549
0
VERTEX
8
1
10
8.147705
20
1.612427
0
VERTEX
8
1
10
8.135620
20
1.612671
0
VERTEX
8
1
10
8.125854
20
1.612549
0
VERTEX
8
1
10
8.122192
20
1.609375
0
VERTEX
8
1
10
8.120361
20
1.604736
0
VERTEX
8
1
10
8.117920
20
1.599854
0
VERTEX
8
1
10
8.114990
20
1.594971
0
VERTEX
8
1
10
8.111328
20
1.590210
0
VERTEX
8
1
10
8.107300
20
1.585327
0
VERTEX
8
1
10
8.102539
20
1.580566
0
VERTEX
8
1
10
8.097534
20
1.575806
0
VERTEX
8
1
10
8.091919
20
1.571289
0
VERTEX
8
1
10
8.085693
20
1.566895
0
VERTEX
8
1
10
8.078979
20
1.562622
0
VERTEX
8
1
10
8.071899
20
1.558594
0
VERTEX
8
1
10
8.064331
20
1.554810
0
VERTEX
8
1
10
8.056274
20
1.551270
0
VERTEX
8
1
10
8.047729
20
1.548096
0
VERTEX
8
1
10
8.038940
20
1.545410
0
VERTEX
8
1
10
8.029541
20
1.542847
0
VERTEX
8
1
10
8.019897
20
1.540771
0
VERTEX
8
1
10
8.009766
20
1.539185
0
VERTEX
8
1
10
7.995117
20
1.537109
0
VERTEX
8
1
10
7.977173
20
1.535400
0
VERTEX
8
1
10
7.960938
20
1.535400
0
VERTEX
8
1
10
7.946289
20
1.536865
0
VERTEX
8
1
10
7.933105
20
1.539551
0
VERTEX
8
1
10
7.921387
20
1.543457
0
VERTEX
8
1
10
7.911133
20
1.548218
0
VERTEX
8
1
10
7.901978
20
1.553711
0
VERTEX
8
1
10
7.894165
20
1.559937
0
VERTEX
8
1
10
7.887451
20
1.566406
0
VERTEX
8
1
10
7.881714
20
1.573120
0
VERTEX
8
1
10
7.877075
20
1.579834
0
VERTEX
8
1
10
7.873169
20
1.586426
0
VERTEX
8
1
10
7.870117
20
1.592773
0
VERTEX
8
1
10
7.867798
20
1.598389
0
VERTEX
8
1
10
7.865967
20
1.603271
0
VERTEX
8
1
10
7.864624
20
1.607544
0
VERTEX
8
1
10
7.864136
20
1.610474
0
VERTEX
8
1
10
7.863647
20
1.612183
0
VERTEX
8
1
10
7.863525
20
1.612549
0
VERTEX
8
1
10
7.860840
20
1.612549
0
VERTEX
8
1
10
7.855103
20
1.612549
0
VERTEX
8
1
10
7.846802
20
1.612549
0
VERTEX
8
1
10
7.836182
20
1.612549
0
VERTEX
8
1
10
7.823486
20
1.612549
0
VERTEX
8
1
10
7.809448
20
1.612549
0
VERTEX
8
1
10
7.794189
20
1.612549
0
VERTEX
8
1
10
7.777954
20
1.612549
0
VERTEX
8
1
10
7.761353
20
1.612549
0
VERTEX
8
1
10
7.744507
20
1.612549
0
VERTEX
8
1
10
7.727905
20
1.612549
0
VERTEX
8
1
10
7.712158
20
1.612549
0
VERTEX
8
1
10
7.697266
20
1.612549
0
VERTEX
8
1
10
7.683594
20
1.612549
0
VERTEX
8
1
10
7.671997
20
1.612549
0
VERTEX
8
1
10
7.662231
20
1.612549
0
VERTEX
8
1
10
7.654907
20
1.612549
0
VERTEX
8
1
10
7.650391
20
1.612549
0
VERTEX
8
1
10
7.649048
20
1.612549
0
VERTEX
8
1
10
7.645752
20
1.609253
0
VERTEX
8
1
10
7.637573
20
1.601074
0
VERTEX
8
1
10
7.625122
20
1.588501
0
VERTEX
8
1
10
7.608765
20
1.572266
0
VERTEX
8
1
10
7.589233
20
1.552856
0
VERTEX
8
1
10
7.567261
20
1.530762
0
VERTEX
8
1
10
7.543091
20
1.506836
0
VERTEX
8
1
10
7.517700
20
1.481323
0
VERTEX
8
1
10
7.491333
20
1.454956
0
VERTEX
8
1
10
7.464600
20
1.428345
0
VERTEX
8
1
10
7.438354
20
1.402100
0
VERTEX
8
1
10
7.412964
20
1.376709
0
VERTEX
8
1
10
7.388794
20
1.352661
0
VERTEX
8
1
10
7.366943
20
1.330811
0
VERTEX
8
1
10
7.347534
20
1.311401
0
VERTEX
8
1
10
7.331421
20
1.295166
0
VERTEX
8
1
10
7.319092
20
1.282837
0
VERTEX
8
1
10
7.311035
20
1.274902
0
VERTEX
8
1
10
7.307983
20
1.271851
0
VERTEX
8
1
10
7.290894
20
1.271851
0
VERTEX
8
1
10
7.236694
20
1.271851
0
VERTEX
8
1
10
7.149536
20
1.271851
0
VERTEX
8
1
10
7.033813
20
1.271851
0
VERTEX
8
1
10
6.893799
20
1.271851
0
VERTEX
8
1
10
6.733765
20
1.271851
0
VERTEX
8
1
10
6.557861
20
1.271851
0
VERTEX
8
1
10
6.370605
20
1.271729
0
VERTEX
8
1
10
6.176270
20
1.271973
0
VERTEX
8
1
10
5.979004
20
1.271973
0
VERTEX
8
1
10
5.783081
20
1.271851
0
VERTEX
8
1
10
5.593018
20
1.271851
0
VERTEX
8
1
10
5.413086
20
1.271851
0
VERTEX
8
1
10
5.247070
20
1.271851
0
VERTEX
8
1
10
5.099976
20
1.271729
0
VERTEX
8
1
10
4.975586
20
1.271729
0
VERTEX
8
1
10
4.878540
20
1.271729
0
VERTEX
8
1
10
4.812866
20
1.271851
0
VERTEX
8
1
10
4.783081
20
1.271729
0
VERTEX
8
1
10
4.781250
20
1.270874
0
VERTEX
8
1
10
4.779541
20
1.266846
0
VERTEX
8
1
10
4.776611
20
1.259766
0
VERTEX
8
1
10
4.772583
20
1.250000
0
VERTEX
8
1
10
4.767578
20
1.237671
0
VERTEX
8
1
10
4.761597
20
1.223511
0
VERTEX
8
1
10
4.755005
20
1.207397
0
VERTEX
8
1
10
4.747803
20
1.189697
0
VERTEX
8
1
10
4.740234
20
1.170898
0
VERTEX
8
1
10
4.732056
20
1.151245
0
VERTEX
8
1
10
4.723877
20
1.130859
0
VERTEX
8
1
10
4.715576
20
1.110107
0
VERTEX
8
1
10
4.707275
20
1.089478
0
VERTEX
8
1
10
4.698975
20
1.068970
0
VERTEX
8
1
10
4.691162
20
1.049194
0
VERTEX
8
1
10
4.683594
20
1.030029
0
VERTEX
8
1
10
4.676880
20
1.012207
0
VERTEX
8
1
10
4.670410
20
0.995728
0
VERTEX
8
1
10
4.665039
20
0.981079
0
VERTEX
8
1
10
4.653076
20
0.970947
0
VERTEX
8
1
10
4.635010
20
0.964478
0
VERTEX
8
1
10
4.616211
20
0.959473
0
VERTEX
8
1
10
4.596924
20
0.955933
0
VERTEX
8
1
10
4.577393
20
0.953491
0
VERTEX
8
1
10
4.557739
20
0.952393
0
VERTEX
8
1
10
4.538086
20
0.952393
0
VERTEX
8
1
10
4.518433
20
0.953491
0
VERTEX
8
1
10
4.499146
20
0.955566
0
VERTEX
8
1
10
4.480347
20
0.958618
0
VERTEX
8
1
10
4.462036
20
0.962402
0
VERTEX
8
1
10
4.444580
20
0.966919
0
VERTEX
8
1
10
4.428101
20
0.972412
0
VERTEX
8
1
10
4.412598
20
0.978149
0
VERTEX
8
1
10
4.398071
20
0.984741
0
VERTEX
8
1
10
4.385010
20
0.991699
0
VERTEX
8
1
10
4.373657
20
0.999023
0
VERTEX
8
1
10
4.363892
20
1.006714
0
VERTEX
8
1
10
4.355835
20
1.014526
0
VERTEX
8
1
10
4.351196
20
1.017456
0
VERTEX
8
1
10
4.349609
20
1.010742
0
VERTEX
8
1
10
4.347412
20
1.003174
0
VERTEX
8
1
10
4.344727
20
0.994751
0
VERTEX
8
1
10
4.341431
20
0.985718
0
VERTEX
8
1
10
4.337891
20
0.975952
0
VERTEX
8
1
10
4.333862
20
0.965698
0
VERTEX
8
1
10
4.329468
20
0.955200
0
VERTEX
8
1
10
4.324707
20
0.944336
0
VERTEX
8
1
10
4.319702
20
0.933350
0
VERTEX
8
1
10
4.314453
20
0.922363
0
VERTEX
8
1
10
4.308960
20
0.911377
0
VERTEX
8
1
10
4.303223
20
0.900757
0
VERTEX
8
1
10
4.297485
20
0.890381
0
VERTEX
8
1
10
4.291626
20
0.880371
0
VERTEX
8
1
10
4.285645
20
0.870972
0
VERTEX
8
1
10
4.279663
20
0.862305
0
VERTEX
8
1
10
4.273438
20
0.854126
0
VERTEX
8
1
10
4.267578
20
0.847046
0
VERTEX
8
1
10
4.245850
20
0.827148
0
VERTEX
8
1
10
4.154907
20
0.750732
0
VERTEX
8
1
10
4.067749
20
0.682373
0
VERTEX
8
1
10
3.984009
20
0.621704
0
VERTEX
8
1
10
3.903198
20
0.568237
0
VERTEX
8
1
10
3.824951
20
0.521484
0
VERTEX
8
1
10
3.748779
20
0.480835
0
VERTEX
8
1
10
3.674194
20
0.446045
0
VERTEX
8
1
10
3.600952
20
0.416504
0
VERTEX
8
1
10
3.528442
20
0.391602
0
VERTEX
8
1
10
3.456421
20
0.370972
0
VERTEX
8
1
10
3.384155
20
0.354370
0
VERTEX
8
1
10
3.311523
20
0.340942
0
VERTEX
8
1
10
3.237793
20
0.330444
0
VERTEX
8
1
10
3.162842
20
0.322510
0
VERTEX
8
1
10
3.086182
20
0.316284
0
VERTEX
8
1
10
3.006958
20
0.311523
0
VERTEX
8
1
10
2.925171
20
0.307739
0
VERTEX
8
1
10
2.840332
20
0.304321
0
VERTEX
8
1
10
2.751831
20
0.301025
0
VERTEX
8
1
10
2.539185
20
0.323364
0
VERTEX
8
1
10
2.347900
20
0.368042
0
VERTEX
8
1
10
2.177490
20
0.432495
0
VERTEX
8
1
10
2.026733
20
0.513916
0
VERTEX
8
1
10
1.894409
20
0.609741
0
VERTEX
8
1
10
1.779541
20
0.717163
0
VERTEX
8
1
10
1.680420
20
0.833740
0
VERTEX
8
1
10
1.596436
20
0.956665
0
VERTEX
8
1
10
1.526001
20
1.083252
0
VERTEX
8
1
10
1.468140
20
1.210815
0
VERTEX
8
1
10
1.421387
20
1.336914
0
VERTEX
8
1
10
1.384644
20
1.458618
0
VERTEX
8
1
10
1.356812
20
1.573486
0
VERTEX
8
1
10
1.336426
20
1.678711
0
VERTEX
8
1
10
1.322510
20
1.771606
0
VERTEX
8
1
10
1.313843
20
1.849609
0
VERTEX
8
1
10
1.309082
20
1.910278
0
VERTEX
8
1
10
1.307129
20
1.950439
0
VERTEX
8
1
10
1.306641
20
1.967651
0
VERTEX
8
1
10
1.302612
20
1.967285
0
VERTEX
8
1
10
1.287231
20
1.964111
0
VERTEX
8
1
10
1.261353
20
1.958618
0
VERTEX
8
1
10
1.226685
20
1.951294
0
VERTEX
8
1
10
1.184204
20
1.942261
0
VERTEX
8
1
10
1.135132
20
1.931763
0
VERTEX
8
1
10
1.081177
20
1.920166
0
VERTEX
8
1
10
1.023438
20
1.907593
0
VERTEX
8
1
10
0.963013
20
1.894531
0
VERTEX
8
1
10
0.901367
20
1.880981
0
VERTEX
8
1
10
0.840088
20
1.867310
0
VERTEX
8
1
10
0.779907
20
1.853760
0
VERTEX
8
1
10
0.722656
20
1.840576
0
VERTEX
8
1
10
0.669312
20
1.828125
0
VERTEX
8
1
10
0.621338
20
1.816528
0
VERTEX
8
1
10
0.579834
20
1.806274
0
VERTEX
8
1
10
0.546509
20
1.797241
0
VERTEX
8
1
10
0.522217
20
1.789917
0
VERTEX
8
1
10
0.508423
20
1.784546
0
VERTEX
8
1
10
0.505859
20
1.783081
0
VERTEX
8
1
10
0.503418
20
1.782959
0
VERTEX
8
1
10
0.498779
20
1.782715
0
VERTEX
8
1
10
0.492310
20
1.782349
0
VERTEX
8
1
10
0.484375
20
1.781982
0
VERTEX
8
1
10
0.474976
20
1.781494
0
VERTEX
8
1
10
0.464600
20
1.781006
0
VERTEX
8
1
10
0.453369
20
1.780396
0
VERTEX
8
1
10
0.441406
20
1.779907
0
VERTEX
8
1
10
0.429077
20
1.779419
0
VERTEX
8
1
10
0.416504
20
1.778687
0
VERTEX
8
1
10
0.404175
20
1.778076
0
VERTEX
8
1
10
0.391968
20
1.777588
0
VERTEX
8
1
10
0.380249
20
1.777100
0
VERTEX
8
1
10
0.369507
20
1.776611
0
VERTEX
8
1
10
0.359619
20
1.776123
0
VERTEX
8
1
10
0.350830
20
1.775879
0
VERTEX
8
1
10
0.343506
20
1.775757
0
VERTEX
8
1
10
0.338135
20
1.775513
0
VERTEX
8
1
10
0.335815
20
1.776489
0
VERTEX
8
1
10
0.335205
20
1.785889
0
VERTEX
8
1
10
0.334229
20
1.804443
0
VERTEX
8
1
10
0.332764
20
1.831055
0
VERTEX
8
1
10
0.330933
20
1.864624
0
VERTEX
8
1
10
0.328857
20
1.904053
0
VERTEX
8
1
10
0.326416
20
1.948364
0
VERTEX
8
1
10
0.323853
20
1.996460
0
VERTEX
8
1
10
0.321289
20
2.047241
0
VERTEX
8
1
10
0.318604
20
2.099731
0
VERTEX
8
1
10
0.316040
20
2.152710
0
VERTEX
8
1
10
0.313599
20
2.205322
0
VERTEX
8
1
10
0.311279
20
2.256348
0
VERTEX
8
1
10
0.309448
20
2.304688
0
VERTEX
8
1
10
0.307617
20
2.349487
0
VERTEX
8
1
10
0.306274
20
2.389771
0
VERTEX
8
1
10
0.305542
20
2.423828
0
VERTEX
8
1
10
0.305176
20
2.451050
0
VERTEX
8
1
10
0.305542
20
2.470581
0
VERTEX
8
1
10
0.306152
20
2.481323
0
VERTEX
8
1
10
0.306274
20
2.489014
0
VERTEX
8
1
10
0.306519
20
2.496216
0
VERTEX
8
1
10
0.306885
20
2.502808
0
VERTEX
8
1
10
0.307373
20
2.508911
0
VERTEX
8
1
10
0.308105
20
2.514404
0
VERTEX
8
1
10
0.309082
20
2.519653
0
VERTEX
8
1
10
0.310181
20
2.524414
0
VERTEX
8
1
10
0.311523
20
2.528809
0
VERTEX
8
1
10
0.312988
20
2.532837
0
VERTEX
8
1
10
0.314819
20
2.536621
0
VERTEX
8
1
10
0.316895
20
2.540039
0
VERTEX
8
1
10
0.319092
20
2.543213
0
VERTEX
8
1
10
0.321777
20
2.546143
0
VERTEX
8
1
10
0.324585
20
2.549072
0
VERTEX
8
1
10
0.327759
20
2.551636
0
VERTEX
8
1
10
0.331299
20
2.554199
0
VERTEX
8
1
10
0.334961
20
2.556519
0
VERTEX
8
1
10
0.339111
20
2.558838
0
VERTEX
8
1
10
0.343872
20
2.561279
0
VERTEX
8
1
10
0.354736
20
2.564819
0
VERTEX
8
1
10
0.371948
20
2.568604
0
VERTEX
8
1
10
0.394897
20
2.572510
0
VERTEX
8
1
10
0.422485
20
2.576538
0
VERTEX
8
1
10
0.454224
20
2.580688
0
VERTEX
8
1
10
0.489136
20
2.584839
0
VERTEX
8
1
10
0.526489
20
2.588989
0
VERTEX
8
1
10
0.565430
20
2.593018
0
VERTEX
8
1
10
0.605347
20
2.596924
0
VERTEX
8
1
10
0.645386
20
2.600708
0
VERTEX
8
1
10
0.684570
20
2.604248
0
VERTEX
8
1
10
0.722290
20
2.607544
0
VERTEX
8
1
10
0.757568
20
2.610596
0
VERTEX
8
1
10
0.789795
20
2.613281
0
VERTEX
8
1
10
0.818115
20
2.615601
0
VERTEX
8
1
10
0.841797
20
2.617554
0
VERTEX
8
1
10
0.859863
20
2.618896
0
VERTEX
8
1
10
0.871704
20
2.619751
0
VERTEX
8
1
10
0.876587
20
2.620239
0
VERTEX
8
1
10
0.876587
20
2.620605
0
VERTEX
8
1
10
0.876587
20
2.622070
0
VERTEX
8
1
10
0.876587
20
2.624268
0
VERTEX
8
1
10
0.876587
20
2.627319
0
VERTEX
8
1
10
0.876587
20
2.630981
0
VERTEX
8
1
10
0.876465
20
2.635132
0
VERTEX
8
1
10
0.876587
20
2.639771
0
VERTEX
8
1
10
0.876587
20
2.644653
0
VERTEX
8
1
10
0.876587
20
2.649780
0
VERTEX
8
1
10
0.876587
20
2.655029
0
VERTEX
8
1
10
0.876587
20
2.660156
0
VERTEX
8
1
10
0.876709
20
2.665161
0
VERTEX
8
1
10
0.876587
20
2.669922
0
VERTEX
8
1
10
0.876587
20
2.674316
0
VERTEX
8
1
10
0.876587
20
2.678223
0
VERTEX
8
1
10
0.876709
20
2.681396
0
VERTEX
8
1
10
0.876587
20
2.684082
0
VERTEX
8
1
10
0.876587
20
2.685913
0
VERTEX
8
1
10
0.876587
20
2.686646
0
VERTEX
8
1
10
0.876099
20
2.686768
0
VERTEX
8
1
10
0.873657
20
2.686890
0
VERTEX
8
1
10
0.869385
20
2.687134
0
VERTEX
8
1
10
0.863403
20
2.687378
0
VERTEX
8
1
10
0.855957
20
2.687744
0
VERTEX
8
1
10
0.847168
20
2.688110
0
VERTEX
8
1
10
0.837402
20
2.688599
0
VERTEX
8
1
10
0.826660
20
2.688843
0
VERTEX
8
1
10
0.815186
20
2.689331
0
VERTEX
8
1
10
0.803223
20
2.689697
0
VERTEX
8
1
10
0.791016
20
2.689941
0
VERTEX
8
1
10
0.778442
20
2.690063
0
VERTEX
8
1
10
0.765869
20
2.690063
0
VERTEX
8
1
10
0.753662
20
2.690063
0
VERTEX
8
1
10
0.741821
20
2.689819
0
VERTEX
8
1
10
0.730713
20
2.689575
0
VERTEX
8
1
10
0.720215
20
2.688965
0
VERTEX
8
1
10
0.710815
20
2.688232
0
VERTEX
8
1
10
0.702393
20
2.687500
0
VERTEX
8
1
10
0.698853
20
2.687378
0
VERTEX
8
1
10
0.698730
20
2.691772
0
VERTEX
8
1
10
0.698608
20
2.700073
0
VERTEX
8
1
10
0.698242
20
2.711914
0
VERTEX
8
1
10
0.697998
20
2.726807
0
VERTEX
8
1
10
0.697632
20
2.744385
0
VERTEX
8
1
10
0.697144
20
2.764282
0
VERTEX
8
1
10
0.696899
20
2.785889
0
VERTEX
8
1
10
0.696533
20
2.808960
0
VERTEX
8
1
10
0.696167
20
2.832886
0
VERTEX
8
1
10
0.695923
20
2.857422
0
VERTEX
8
1
10
0.695679
20
2.881958
0
VERTEX
8
1
10
0.695679
20
2.906250
0
VERTEX
8
1
10
0.695557
20
2.929810
0
VERTEX
8
1
10
0.695923
20
2.952026
0
VERTEX
8
1
10
0.696167
20
2.972534
0
VERTEX
8
1
10
0.696655
20
2.991211
0
VERTEX
8
1
10
0.697144
20
3.007568
0
VERTEX
8
1
10
0.698242
20
3.020630
0
VERTEX
8
1
10
0.698853
20
3.030762
0
VERTEX
8
1
10
0.699707
20
3.040283
0
VERTEX
8
1
10
0.701538
20
3.049805
0
VERTEX
8
1
10
0.704102
20
3.059448
0
VERTEX
8
1
10
0.707520
20
3.069092
0
VERTEX
8
1
10
0.711426
20
3.078735
0
VERTEX
8
1
10
0.715820
20
3.088013
0
VERTEX
8
1
10
0.720581
20
3.097168
0
VERTEX
8
1
10
0.725586
20
3.106079
0
VERTEX
8
1
10
0.730957
20
3.114502
0
VERTEX
8
1
10
0.736084
20
3.122437
0
VERTEX
8
1
10
0.741211
20
3.129883
0
VERTEX
8
1
10
0.746216
20
3.136719
0
VERTEX
8
1
10
0.750732
20
3.142944
0
VERTEX
8
1
10
0.754883
20
3.148193
0
VERTEX
8
1
10
0.758667
20
3.152832
0
VERTEX
8
1
10
0.761719
20
3.156494
0
VERTEX
8
1
10
0.764160
20
3.159058
0
VERTEX
8
1
10
0.765503
20
3.160767
0
VERTEX
8
1
10
0.765747
20
3.161255
0
VERTEX
8
1
10
0.765747
20
3.168823
0
VERTEX
8
1
10
0.765747
20
3.187622
0
VERTEX
8
1
10
0.765747
20
3.216553
0
VERTEX
8
1
10
0.765747
20
3.254639
0
VERTEX
8
1
10
0.765747
20
3.300659
0
VERTEX
8
1
10
0.765747
20
3.353516
0
VERTEX
8
1
10
0.765747
20
3.412354
0
VERTEX
8
1
10
0.765747
20
3.475830
0
VERTEX
8
1
10
0.765747
20
3.543091
0
VERTEX
8
1
10
0.765625
20
3.612915
0
VERTEX
8
1
10
0.765747
20
3.684326
0
VERTEX
8
1
10
0.765625
20
3.756104
0
VERTEX
8
1
10
0.765747
20
3.827393
0
VERTEX
8
1
10
0.765747
20
3.896851
0
VERTEX
8
1
10
0.765869
20
3.963501
0
VERTEX
8
1
10
0.765747
20
4.026489
0
VERTEX
8
1
10
0.765747
20
4.084473
0
VERTEX
8
1
10
0.765625
20
4.136475
0
VERTEX
8
1
10
0.765625
20
4.181519
0
VERTEX
8
1
10
0.774658
20
4.226685
0
VERTEX
8
1
10
0.789063
20
4.268311
0
VERTEX
8
1
10
0.807739
20
4.306030
0
VERTEX
8
1
10
0.830322
20
4.340088
0
VERTEX
8
1
10
0.856079
20
4.370605
0
VERTEX
8
1
10
0.884399
20
4.397827
0
VERTEX
8
1
10
0.914795
20
4.421875
0
VERTEX
8
1
10
0.946777
20
4.442871
0
VERTEX
8
1
10
0.979370
20
4.461304
0
VERTEX
8
1
10
1.012451
20
4.477051
0
VERTEX
8
1
10
1.045166
20
4.490234
0
VERTEX
8
1
10
1.076904
20
4.501465
0
VERTEX
8
1
10
1.107178
20
4.510498
0
VERTEX
8
1
10
1.135132
20
4.517822
0
VERTEX
8
1
10
1.160645
20
4.523193
0
VERTEX
8
1
10
1.182861
20
4.527222
0
VERTEX
8
1
10
1.201172
20
4.529785
0
VERTEX
8
1
10
1.214844
20
4.531372
0
VERTEX
8
1
10
1.223633
20
4.531860
0
VERTEX
8
1
10
1.224854
20
4.532227
0
VERTEX
8
1
10
1.224609
20
4.533081
0
VERTEX
8
1
10
1.224121
20
4.534668
0
VERTEX
8
1
10
1.223511
20
4.536987
0
VERTEX
8
1
10
1.222656
20
4.539917
0
VERTEX
8
1
10
1.221802
20
4.543457
0
VERTEX
8
1
10
1.220703
20
4.547607
0
VERTEX
8
1
10
1.219604
20
4.552368
0
VERTEX
8
1
10
1.218506
20
4.557617
0
VERTEX
8
1
10
1.217407
20
4.563477
0
VERTEX
8
1
10
1.216187
20
4.569946
0
VERTEX
8
1
10
1.214966
20
4.576904
0
VERTEX
8
1
10
1.213989
20
4.584473
0
VERTEX
8
1
10
1.212891
20
4.592407
0
VERTEX
8
1
10
1.212036
20
4.600708
0
VERTEX
8
1
10
1.211304
20
4.609497
0
VERTEX
8
1
10
1.210815
20
4.618774
0
VERTEX
8
1
10
1.210449
20
4.628540
0
VERTEX
8
1
10
1.210083
20
4.638672
0
VERTEX
8
1
10
1.210938
20
4.649658
0
VERTEX
8
1
10
1.213013
20
4.661377
0
VERTEX
8
1
10
1.215820
20
4.673218
0
VERTEX
8
1
10
1.219482
20
4.685059
0
VERTEX
8
1
10
1.223877
20
4.696777
0
VERTEX
8
1
10
1.229004
20
4.708374
0
VERTEX
8
1
10
1.234863
20
4.719482
0
VERTEX
8
1
10
1.241455
20
4.730347
0
VERTEX
8
1
10
1.248657
20
4.740601
0
VERTEX
8
1
10
1.256348
20
4.750244
0
VERTEX
8
1
10
1.264648
20
4.759155
0
VERTEX
8
1
10
1.273804
20
4.767090
0
VERTEX
8
1
10
1.283203
20
4.774292
0
VERTEX
8
1
10
1.293335
20
4.780518
0
VERTEX
8
1
10
1.303833
20
4.785278
0
VERTEX
8
1
10
1.314941
20
4.789185
0
VERTEX
8
1
10
1.326416
20
4.791626
0
VERTEX
8
1
10
1.338257
20
4.792725
0
VERTEX
8
1
10
1.350708
20
4.792114
0
VERTEX
8
1
10
1.369141
20
4.787720
0
VERTEX
8
1
10
1.394775
20
4.778076
0
VERTEX
8
1
10
1.416626
20
4.766724
0
VERTEX
8
1
10
1.435181
20
4.754150
0
VERTEX
8
1
10
1.450684
20
4.740356
0
VERTEX
8
1
10
1.463257
20
4.725830
0
VERTEX
8
1
10
1.473267
20
4.710571
0
VERTEX
8
1
10
1.480957
20
4.694946
0
VERTEX
8
1
10
1.486450
20
4.679199
0
VERTEX
8
1
10
1.490234
20
4.663696
0
VERTEX
8
1
10
1.492432
20
4.648560
0
VERTEX
8
1
10
1.493286
20
4.633911
0
VERTEX
8
1
10
1.493286
20
4.620239
0
VERTEX
8
1
10
1.492310
20
4.607666
0
VERTEX
8
1
10
1.490845
20
4.596436
0
VERTEX
8
1
10
1.489014
20
4.586548
0
VERTEX
8
1
10
1.487183
20
4.578735
0
VERTEX
8
1
10
1.485596
20
4.572998
0
VERTEX
8
1
10
1.484741
20
4.569946
0
VERTEX
8
1
10
1.484375
20
4.568848
0
VERTEX
8
1
10
1.485718
20
4.568970
0
VERTEX
8
1
10
1.488647
20
4.569092
0
VERTEX
8
1
10
1.493164
20
4.569458
0
VERTEX
8
1
10
1.498901
20
4.569702
0
VERTEX
8
1
10
1.505737
20
4.570190
0
VERTEX
8
1
10
1.513428
20
4.570801
0
VERTEX
8
1
10
1.521973
20
4.571289
0
VERTEX
8
1
10
1.530884
20
4.571777
0
VERTEX
8
1
10
1.540039
20
4.572388
0
VERTEX
8
1
10
1.549194
20
4.572998
0
VERTEX
8
1
10
1.558350
20
4.573608
0
VERTEX
8
1
10
1.567261
20
4.574097
0
VERTEX
8
1
10
1.575562
20
4.574707
0
VERTEX
8
1
10
1.583008
20
4.575195
0
VERTEX
8
1
10
1.589722
20
4.575684
0
VERTEX
8
1
10
1.595093
20
4.575928
0
VERTEX
8
1
10
1.599487
20
4.576050
0
VERTEX
8
1
10
1.602051
20
4.576416
0
VERTEX
8
1
10
1.602905
20
4.576416
0
VERTEX
8
1
10
1.603882
20
4.582397
0
VERTEX
8
1
10
1.606567
20
4.599243
0
VERTEX
8
1
10
1.610840
20
4.625610
0
VERTEX
8
1
10
1.616333
20
4.660156
0
VERTEX
8
1
10
1.622925
20
4.701782
0
VERTEX
8
1
10
1.630615
20
4.749146
0
VERTEX
8
1
10
1.638794
20
4.801147
0
VERTEX
8
1
10
1.647705
20
4.856201
0
VERTEX
8
1
10
1.656738
20
4.913452
0
VERTEX
8
1
10
1.666016
20
4.971191
0
VERTEX
8
1
10
1.675293
20
5.028687
0
VERTEX
8
1
10
1.684082
20
5.084106
0
VERTEX
8
1
10
1.692627
20
5.136475
0
VERTEX
8
1
10
1.700317
20
5.184692
0
VERTEX
8
1
10
1.707031
20
5.227417
0
VERTEX
8
1
10
1.712891
20
5.263184
0
VERTEX
8
1
10
1.717163
20
5.290771
0
VERTEX
8
1
10
1.720215
20
5.309204
0
VERTEX
8
1
10
1.721436
20
5.316895
0
VERTEX
8
1
10
1.724121
20
5.334351
0
VERTEX
8
1
10
1.729614
20
5.354492
0
VERTEX
8
1
10
1.737183
20
5.374146
0
VERTEX
8
1
10
1.746826
20
5.393188
0
VERTEX
8
1
10
1.758423
20
5.411621
0
VERTEX
8
1
10
1.771851
20
5.429443
0
VERTEX
8
1
10
1.786865
20
5.446533
0
VERTEX
8
1
10
1.803467
20
5.462769
0
VERTEX
8
1
10
1.821533
20
5.478271
0
VERTEX
8
1
10
1.840942
20
5.493042
0
VERTEX
8
1
10
1.861450
20
5.506836
0
VERTEX
8
1
10
1.883057
20
5.519775
0
VERTEX
8
1
10
1.905518
20
5.531860
0
VERTEX
8
1
10
1.928833
20
5.542847
0
VERTEX
8
1
10
1.952759
20
5.552979
0
VERTEX
8
1
10
1.977417
20
5.561890
0
VERTEX
8
1
10
2.002441
20
5.569946
0
VERTEX
8
1
10
2.027466
20
5.576660
0
VERTEX
8
1
10
2.052979
20
5.582397
0
VERTEX
8
1
10
2.093750
20
5.587402
0
VERTEX
8
1
10
2.177368
20
5.593506
0
VERTEX
8
1
10
2.298584
20
5.600952
0
VERTEX
8
1
10
2.452515
20
5.609253
0
VERTEX
8
1
10
2.634277
20
5.618408
0
VERTEX
8
1
10
2.838867
20
5.628296
0
VERTEX
8
1
10
3.061523
20
5.638550
0
VERTEX
8
1
10
3.297241
20
5.649292
0
VERTEX
8
1
10
3.541138
20
5.660034
0
VERTEX
8
1
10
3.788452
20
5.670776
0
VERTEX
8
1
10
4.034180
20
5.681274
0
VERTEX
8
1
10
4.273315
20
5.691528
0
VERTEX
8
1
10
4.501221
20
5.701172
0
VERTEX
8
1
10
4.712769
20
5.710205
0
VERTEX
8
1
10
4.903076
20
5.718262
0
VERTEX
8
1
10
5.067383
20
5.725342
0
VERTEX
8
1
10
5.200684
20
5.731323
0
VERTEX
8
1
10
5.298218
20
5.735718
0
VERTEX
8
1
10
5.354980
20
5.738647
0
VERTEX
8
1
10
5.366943
20
5.739624
0
VERTEX
8
1
10
5.367188
20
5.740356
0
VERTEX
8
1
10
5.367554
20
5.741821
0
VERTEX
8
1
10
5.368042
20
5.744019
0
VERTEX
8
1
10
5.368652
20
5.746704
0
VERTEX
8
1
10
5.369263
20
5.749878
0
VERTEX
8
1
10
5.369751
20
5.753540
0
VERTEX
8
1
10
5.370239
20
5.757446
0
VERTEX
8
1
10
5.370483
20
5.761475
0
VERTEX
8
1
10
5.370728
20
5.765747
0
VERTEX
8
1
10
5.370605
20
5.770142
0
VERTEX
8
1
10
5.370239
20
5.774536
0
VERTEX
8
1
10
5.369507
20
5.778809
0
VERTEX
8
1
10
5.368408
20
5.782837
0
VERTEX
8
1
10
5.366821
20
5.786621
0
VERTEX
8
1
10
5.364990
20
5.790039
0
VERTEX
8
1
10
5.362427
20
5.793091
0
VERTEX
8
1
10
5.359009
20
5.795776
0
VERTEX
8
1
10
5.355347
20
5.797729
0
VERTEX
8
1
10
5.348999
20
5.798706
0
VERTEX
8
1
10
5.337402
20
5.799561
0
VERTEX
8
1
10
5.325806
20
5.801392
0
VERTEX
8
1
10
5.314453
20
5.804199
0
VERTEX
8
1
10
5.303345
20
5.807861
0
VERTEX
8
1
10
5.292358
20
5.812378
0
VERTEX
8
1
10
5.281860
20
5.817505
0
VERTEX
8
1
10
5.271729
20
5.823486
0
VERTEX
8
1
10
5.262085
20
5.830078
0
VERTEX
8
1
10
5.252930
20
5.837158
0
VERTEX
8
1
10
5.244263
20
5.844849
0
VERTEX
8
1
10
5.236328
20
5.852905
0
VERTEX
8
1
10
5.229248
20
5.861206
0
VERTEX
8
1
10
5.222656
20
5.869995
0
VERTEX
8
1
10
5.217163
20
5.879150
0
VERTEX
8
1
10
5.212402
20
5.888306
0
VERTEX
8
1
10
5.208740
20
5.897583
0
VERTEX
8
1
10
5.205688
20
5.906982
0
VERTEX
8
1
10
5.204224
20
5.916260
0
VERTEX
8
1
10
5.203491
20
5.927002
0
VERTEX
8
1
10
5.200806
20
5.952148
0
VERTEX
8
1
10
5.199585
20
5.976563
0
VERTEX
8
1
10
5.199585
20
6.000366
0
VERTEX
8
1
10
5.200684
20
6.023438
0
VERTEX
8
1
10
5.203125
20
6.045654
0
VERTEX
8
1
10
5.206299
20
6.067017
0
VERTEX
8
1
10
5.210693
20
6.087646
0
VERTEX
8
1
10
5.215942
20
6.107300
0
VERTEX
8
1
10
5.221802
20
6.125977
0
VERTEX
8
1
10
5.228516
20
6.143677
0
VERTEX
8
1
10
5.235840
20
6.160278
0
VERTEX
8
1
10
5.243652
20
6.175781
0
VERTEX
8
1
10
5.251953
20
6.190308
0
VERTEX
8
1
10
5.260620
20
6.203369
0
VERTEX
8
1
10
5.269531
20
6.215454
0
VERTEX
8
1
10
5.278687
20
6.226074
0
VERTEX
8
1
10
5.287964
20
6.235596
0
VERTEX
8
1
10
5.297485
20
6.243530
0
VERTEX
8
1
10
5.307007
20
6.250122
0
VERTEX
8
1
10
5.320313
20
6.247314
0
VERTEX
8
1
10
5.334106
20
6.242676
0
VERTEX
8
1
10
5.347900
20
6.237305
0
VERTEX
8
1
10
5.361694
20
6.231079
0
VERTEX
8
1
10
5.375366
20
6.224243
0
VERTEX
8
1
10
5.388916
20
6.216675
0
VERTEX
8
1
10
5.402344
20
6.208496
0
VERTEX
8
1
10
5.415527
20
6.199707
0
VERTEX
8
1
10
5.428467
20
6.190186
0
VERTEX
8
1
10
5.441284
20
6.180176
0
VERTEX
8
1
10
5.453735
20
6.169678
0
VERTEX
8
1
10
5.465942
20
6.158569
0
VERTEX
8
1
10
5.478027
20
6.146973
0
VERTEX
8
1
10
5.489746
20
6.135132
0
VERTEX
8
1
10
5.500977
20
6.122681
0
VERTEX
8
1
10
5.511963
20
6.109985
0
VERTEX
8
1
10
5.522339
20
6.096802
0
VERTEX
8
1
10
5.532349
20
6.083496
0
VERTEX
8
1
10
5.542236
20
6.069824
0
VERTEX
8
1
10
5.549316
20
6.055420
0
VERTEX
8
1
10
5.554321
20
6.042114
0
VERTEX
8
1
10
5.557739
20
6.030029
0
VERTEX
8
1
10
5.559937
20
6.019165
0
VERTEX
8
1
10
5.560791
20
6.009277
0
VERTEX
8
1
10
5.560425
20
6.000122
0
VERTEX
8
1
10
5.559082
20
5.991699
0
VERTEX
8
1
10
5.556641
20
5.983643
0
VERTEX
8
1
10
5.553711
20
5.975952
0
VERTEX
8
1
10
5.549805
20
5.968384
0
VERTEX
8
1
10
5.545410
20
5.960693
0
VERTEX
8
1
10
5.540649
20
5.953003
0
VERTEX
8
1
10
5.535278
20
5.944824
0
VERTEX
8
1
10
5.529785
20
5.936157
0
VERTEX
8
1
10
5.524170
20
5.926880
0
VERTEX
8
1
10
5.518677
20
5.916748
0
VERTEX
8
1
10
5.512939
20
5.905640
0
VERTEX
8
1
10
5.507690
20
5.893311
0
VERTEX
8
1
10
5.502563
20
5.879761
0
VERTEX
8
1
10
5.498047
20
5.866211
0
VERTEX
8
1
10
5.494629
20
5.854370
0
VERTEX
8
1
10
5.492188
20
5.843262
0
VERTEX
8
1
10
5.490845
20
5.833008
0
VERTEX
8
1
10
5.490234
20
5.823608
0
VERTEX
8
1
10
5.490234
20
5.814819
0
VERTEX
8
1
10
5.491089
20
5.806885
0
VERTEX
8
1
10
5.492432
20
5.799683
0
VERTEX
8
1
10
5.494385
20
5.793091
0
VERTEX
8
1
10
5.496460
20
5.787109
0
VERTEX
8
1
10
5.498901
20
5.781982
0
VERTEX
8
1
10
5.501465
20
5.777466
0
VERTEX
8
1
10
5.504028
20
5.773438
0
VERTEX
8
1
10
5.506592
20
5.770142
0
VERTEX
8
1
10
5.509033
20
5.767334
0
VERTEX
8
1
10
5.511108
20
5.765137
0
VERTEX
8
1
10
5.512939
20
5.763672
0
VERTEX
8
1
10
5.514160
20
5.762573
0
VERTEX
8
1
10
5.515137
20
5.761963
0
VERTEX
8
1
10
5.515259
20
5.761841
0
VERTEX
8
1
10
5.516235
20
5.761841
0
VERTEX
8
1
10
5.518188
20
5.761841
0
VERTEX
8
1
10
5.521118
20
5.761841
0
VERTEX
8
1
10
5.524780
20
5.761841
0
VERTEX
8
1
10
5.529175
20
5.761841
0
VERTEX
8
1
10
5.534058
20
5.761841
0
VERTEX
8
1
10
5.539429
20
5.761841
0
VERTEX
8
1
10
5.544922
20
5.761841
0
VERTEX
8
1
10
5.550781
20
5.761841
0
VERTEX
8
1
10
5.556641
20
5.761841
0
VERTEX
8
1
10
5.562256
20
5.761841
0
VERTEX
8
1
10
5.567749
20
5.761841
0
VERTEX
8
1
10
5.572754
20
5.761841
0
VERTEX
8
1
10
5.577515
20
5.761841
0
VERTEX
8
1
10
5.581421
20
5.761719
0
VERTEX
8
1
10
5.584839
20
5.761841
0
VERTEX
8
1
10
5.587158
20
5.761841
0
VERTEX
8
1
10
5.588867
20
5.761841
0
VERTEX
8
1
10
5.589233
20
5.762085
0
VERTEX
8
1
10
5.590942
20
5.775513
0
VERTEX
8
1
10
5.594971
20
5.807739
0
VERTEX
8
1
10
5.601074
20
5.856445
0
VERTEX
8
1
10
5.609009
20
5.919678
0
VERTEX
8
1
10
5.618286
20
5.995117
0
VERTEX
8
1
10
5.629150
20
6.080566
0
VERTEX
8
1
10
5.640747
20
6.174072
0
VERTEX
8
1
10
5.653076
20
6.273193
0
VERTEX
8
1
10
5.666016
20
6.375977
0
VERTEX
8
1
10
5.679077
20
6.480225
0
VERTEX
8
1
10
5.691895
20
6.583740
0
VERTEX
8
1
10
5.704590
20
6.684326
0
VERTEX
8
1
10
5.716431
20
6.779663
0
VERTEX
8
1
10
5.727417
20
6.867920
0
VERTEX
8
1
10
5.737183
20
6.946899
0
VERTEX
8
1
10
5.745605
20
7.014038
0
VERTEX
8
1
10
5.752319
20
7.067627
0
VERTEX
8
1
10
5.756958
20
7.105225
0
VERTEX
8
1
10
5.759277
20
7.124878
0
VERTEX
8
1
10
5.757202
20
7.123047
0
VERTEX
8
1
10
5.755005
20
7.121216
0
VERTEX
8
1
10
5.752930
20
7.119751
0
VERTEX
8
1
10
5.750732
20
7.118408
0
VERTEX
8
1
10
5.748657
20
7.117432
0
VERTEX
8
1
10
5.746582
20
7.116699
0
VERTEX
8
1
10
5.744507
20
7.116089
0
VERTEX
8
1
10
5.742065
20
7.115601
0
VERTEX
8
1
10
5.739746
20
7.115112
0
VERTEX
8
1
10
5.737061
20
7.114990
0
VERTEX
8
1
10
5.734375
20
7.114624
0
VERTEX
8
1
10
5.731323
20
7.114380
0
VERTEX
8
1
10
5.728027
20
7.114136
0
VERTEX
8
1
10
5.724487
20
7.114014
0
VERTEX
8
1
10
5.720703
20
7.113403
0
VERTEX
8
1
10
5.716431
20
7.113037
0
VERTEX
8
1
10
5.711914
20
7.112427
0
VERTEX
8
1
10
5.706787
20
7.111694
0
VERTEX
8
1
10
5.701294
20
7.110474
0
VERTEX
8
1
10
5.680298
20
7.113770
0
VERTEX
8
1
10
5.655884
20
7.119751
0
VERTEX
8
1
10
5.632568
20
7.127563
0
VERTEX
8
1
10
5.610107
20
7.137085
0
VERTEX
8
1
10
5.588745
20
7.148193
0
VERTEX
8
1
10
5.568359
20
7.160645
0
VERTEX
8
1
10
5.549316
20
7.174438
0
VERTEX
8
1
10
5.531372
20
7.189331
0
VERTEX
8
1
10
5.514526
20
7.205322
0
VERTEX
8
1
10
5.499146
20
7.222168
0
VERTEX
8
1
10
5.485107
20
7.239746
0
VERTEX
8
1
10
5.472412
20
7.257935
0
VERTEX
8
1
10
5.461182
20
7.276611
0
VERTEX
8
1
10
5.451294
20
7.295654
0
VERTEX
8
1
10
5.442993
20
7.315063
0
VERTEX
8
1
10
5.436401
20
7.334473
0
VERTEX
8
1
10
5.431396
20
7.353760
0
VERTEX
8
1
10
5.428101
20
7.372925
0
VERTEX
8
1
10
5.426392
20
7.391846
0
VERTEX
8
1
10
5.428955
20
7.422852
0
VERTEX
8
1
10
5.435913
20
7.458862
0
VERTEX
8
1
10
5.445679
20
7.490723
0
VERTEX
8
1
10
5.458008
20
7.518921
0
VERTEX
8
1
10
5.472534
20
7.543579
0
VERTEX
8
1
10
5.489014
20
7.564819
0
VERTEX
8
1
10
5.506958
20
7.583130
0
VERTEX
8
1
10
5.526001
20
7.598511
0
VERTEX
8
1
10
5.546143
20
7.611206
0
VERTEX
8
1
10
5.566650
20
7.621582
0
VERTEX
8
1
10
5.587402
20
7.629883
0
VERTEX
8
1
10
5.608032
20
7.636108
0
VERTEX
8
1
10
5.628296
20
7.640625
0
VERTEX
8
1
10
5.647705
20
7.643677
0
VERTEX
8
1
10
5.665894
20
7.645508
0
VERTEX
8
1
10
5.682861
20
7.646240
0
VERTEX
8
1
10
5.697876
20
7.646240
0
VERTEX
8
1
10
5.710815
20
7.645508
0
VERTEX
8
1
10
5.721313
20
7.644531
0
VERTEX
8
1
10
5.728516
20
7.656250
0
VERTEX
8
1
10
5.735962
20
7.684204
0
VERTEX
8
1
10
5.746216
20
7.709717
0
VERTEX
8
1
10
5.758911
20
7.733032
0
VERTEX
8
1
10
5.773682
20
7.754272
0
VERTEX
8
1
10
5.790283
20
7.773682
0
VERTEX
8
1
10
5.808228
20
7.791016
0
VERTEX
8
1
10
5.827393
20
7.806641
0
VERTEX
8
1
10
5.847168
20
7.820679
0
VERTEX
8
1
10
5.867554
20
7.833130
0
VERTEX
8
1
10
5.887817
20
7.843994
0
VERTEX
8
1
10
5.908081
20
7.853760
0
VERTEX
8
1
10
5.927612
20
7.862061
0
VERTEX
8
1
10
5.946289
20
7.869507
0
VERTEX
8
1
10
5.963623
20
7.875854
0
VERTEX
8
1
10
5.979370
20
7.881348
0
VERTEX
8
1
10
5.993286
20
7.885986
0
VERTEX
8
1
10
6.004883
20
7.889771
0
VERTEX
8
1
10
6.014038
20
7.893433
0
VERTEX
8
1
10
6.017456
20
7.897827
0
VERTEX
8
1
10
6.012451
20
7.907104
0
VERTEX
8
1
10
6.008179
20
7.916382
0
VERTEX
8
1
10
6.004883
20
7.925537
0
VERTEX
8
1
10
6.002319
20
7.934448
0
VERTEX
8
1
10
6.000488
20
7.943359
0
VERTEX
8
1
10
5.999390
20
7.952148
0
VERTEX
8
1
10
5.998901
20
7.960571
0
VERTEX
8
1
10
5.999023
20
7.968872
0
VERTEX
8
1
10
5.999634
20
7.976685
0
VERTEX
8
1
10
6.000610
20
7.984375
0
VERTEX
8
1
10
6.002197
20
7.991699
0
VERTEX
8
1
10
6.003906
20
7.998535
0
VERTEX
8
1
10
6.006104
20
8.005005
0
VERTEX
8
1
10
6.008545
20
8.010986
0
VERTEX
8
1
10
6.011230
20
8.016479
0
VERTEX
8
1
10
6.013916
20
8.021484
0
VERTEX
8
1
10
6.016846
20
8.026001
0
VERTEX
8
1
10
6.019775
20
8.029663
0
VERTEX
8
1
10
6.021851
20
8.032837
0
VERTEX
8
1
10
6.006714
20
8.031250
0
VERTEX
8
1
10
5.992554
20
8.028198
0
VERTEX
8
1
10
5.979126
20
8.023682
0
VERTEX
8
1
10
5.966553
20
8.017822
0
VERTEX
8
1
10
5.954712
20
8.010742
0
VERTEX
8
1
10
5.943726
20
8.002808
0
VERTEX
8
1
10
5.933594
20
7.994019
0
VERTEX
8
1
10
5.924072
20
7.984619
0
VERTEX
8
1
10
5.915161
20
7.974487
0
VERTEX
8
1
10
5.907104
20
7.963989
0
VERTEX
8
1
10
5.899536
20
7.953491
0
VERTEX
8
1
10
5.892700
20
7.942749
0
VERTEX
8
1
10
5.886353
20
7.932129
0
VERTEX
8
1
10
5.880737
20
7.921753
0
VERTEX
8
1
10
5.875610
20
7.911621
0
VERTEX
8
1
10
5.871094
20
7.901978
0
VERTEX
8
1
10
5.866699
20
7.893188
0
VERTEX
8
1
10
5.863159
20
7.885132
0
VERTEX
8
1
10
5.860107
20
7.878174
0
VERTEX
8
1
10
5.852661
20
7.881714
0
VERTEX
8
1
10
5.844360
20
7.888184
0
VERTEX
8
1
10
5.836060
20
7.895996
0
VERTEX
8
1
10
5.827881
20
7.905151
0
VERTEX
8
1
10
5.819702
20
7.915283
0
VERTEX
8
1
10
5.811768
20
7.926636
0
VERTEX
8
1
10
5.803955
20
7.938843
0
VERTEX
8
1
10
5.796387
20
7.952148
0
VERTEX
8
1
10
5.789063
20
7.966309
0
VERTEX
8
1
10
5.782349
20
7.981079
0
VERTEX
8
1
10
5.775635
20
7.996826
0
VERTEX
8
1
10
5.769653
20
8.012939
0
VERTEX
8
1
10
5.764160
20
8.029663
0
VERTEX
8
1
10
5.759277
20
8.046875
0
VERTEX
8
1
10
5.754883
20
8.064575
0
VERTEX
8
1
10
5.751221
20
8.082642
0
VERTEX
8
1
10
5.748169
20
8.100830
0
VERTEX
8
1
10
5.746094
20
8.119141
0
VERTEX
8
1
10
5.744873
20
8.137695
0
VERTEX
8
1
10
5.744019
20
8.160645
0
VERTEX
8
1
10
5.744507
20
8.184570
0
VERTEX
8
1
10
5.746094
20
8.207153
0
VERTEX
8
1
10
5.748657
20
8.228271
0
VERTEX
8
1
10
5.752319
20
8.248047
0
VERTEX
8
1
10
5.756714
20
8.266357
0
VERTEX
8
1
10
5.761719
20
8.283203
0
VERTEX
8
1
10
5.767334
20
8.298584
0
VERTEX
8
1
10
5.773560
20
8.312622
0
VERTEX
8
1
10
5.779907
20
8.324951
0
VERTEX
8
1
10
5.786621
20
8.335693
0
VERTEX
8
1
10
5.793335
20
8.345093
0
VERTEX
8
1
10
5.799927
20
8.352661
0
VERTEX
8
1
10
5.806519
20
8.358765
0
VERTEX
8
1
10
5.812744
20
8.363281
0
VERTEX
8
1
10
5.818359
20
8.366089
0
VERTEX
8
1
10
5.823853
20
8.367065
0
VERTEX
8
1
10
5.828369
20
8.366699
0
VERTEX
8
1
10
5.832153
20
8.364380
0
VERTEX
8
1
10
5.839233
20
8.351318
0
VERTEX
8
1
10
5.851563
20
8.329956
0
VERTEX
8
1
10
5.864990
20
8.311035
0
VERTEX
8
1
10
5.879395
20
8.294189
0
VERTEX
8
1
10
5.894531
20
8.279541
0
VERTEX
8
1
10
5.910034
20
8.266724
0
VERTEX
8
1
10
5.925903
20
8.255737
0
VERTEX
8
1
10
5.941895
20
8.246460
0
VERTEX
8
1
10
5.957764
20
8.238647
0
VERTEX
8
1
10
5.973267
20
8.232178
0
VERTEX
8
1
10
5.988281
20
8.227051
0
VERTEX
8
1
10
6.002319
20
8.222900
0
VERTEX
8
1
10
6.015503
20
8.219971
0
VERTEX
8
1
10
6.027710
20
8.217651
0
VERTEX
8
1
10
6.038208
20
8.216187
0
VERTEX
8
1
10
6.047241
20
8.215210
0
VERTEX
8
1
10
6.054565
20
8.214722
0
VERTEX
8
1
10
6.059692
20
8.214600
0
VERTEX
8
1
10
6.062622
20
8.214478
0
VERTEX
8
1
10
6.063721
20
8.214478
0
VERTEX
8
1
10
6.071655
20
8.214478
0
VERTEX
8
1
10
6.088623
20
8.214478
0
VERTEX
8
1
10
6.113281
20
8.214478
0
VERTEX
8
1
10
6.145020
20
8.214478
0
VERTEX
8
1
10
6.182251
20
8.214478
0
VERTEX
8
1
10
6.224365
20
8.214478
0
VERTEX
8
1
10
6.269897
20
8.214478
0
VERTEX
8
1
10
6.317993
20
8.214478
0
VERTEX
8
1
10
6.367432
20
8.214478
0
VERTEX
8
1
10
6.416992
20
8.214478
0
VERTEX
8
1
10
6.466064
20
8.214478
0
VERTEX
8
1
10
6.513184
20
8.214355
0
VERTEX
8
1
10
6.557495
20
8.214478
0
VERTEX
8
1
10
6.597656
20
8.214478
0
VERTEX
8
1
10
6.632690
20
8.214355
0
VERTEX
8
1
10
6.661621
20
8.214478
0
VERTEX
8
1
10
6.683350
20
8.214478
0
VERTEX
8
1
10
6.696533
20
8.214600
0
VERTEX
8
1
10
6.700562
20
8.214478
0
VERTEX
8
1
10
6.700439
20
8.215210
0
VERTEX
8
1
10
6.700317
20
8.217041
0
VERTEX
8
1
10
6.700073
20
8.219849
0
VERTEX
8
1
10
6.699707
20
8.223633
0
VERTEX
8
1
10
6.699341
20
8.228149
0
VERTEX
8
1
10
6.698975
20
8.233398
0
VERTEX
8
1
10
6.698608
20
8.239380
0
VERTEX
8
1
10
6.698242
20
8.245728
0
VERTEX
8
1
10
6.697876
20
8.252686
0
VERTEX
8
1
10
6.697632
20
8.259888
0
VERTEX
8
1
10
6.697510
20
8.267334
0
VERTEX
8
1
10
6.697266
20
8.275146
0
VERTEX
8
1
10
6.697144
20
8.282715
0
VERTEX
8
1
10
6.697266
20
8.290405
0
VERTEX
8
1
10
6.697632
20
8.297852
0
VERTEX
8
1
10
6.697998
20
8.305176
0
VERTEX
8
1
10
6.698364
20
8.312256
0
VERTEX
8
1
10
6.699463
20
8.318848
0
VERTEX
8
1
10
6.700562
20
8.324829
0
VERTEX
8
1
10
6.682983
20
8.340942
0
VERTEX
8
1
10
6.666748
20
8.358643
0
VERTEX
8
1
10
6.653198
20
8.377075
0
VERTEX
8
1
10
6.642090
20
8.396240
0
VERTEX
8
1
10
6.633179
20
8.415649
0
VERTEX
8
1
10
6.626221
20
8.435303
0
VERTEX
8
1
10
6.621094
20
8.454834
0
VERTEX
8
1
10
6.617676
20
8.474121
0
VERTEX
8
1
10
6.615479
20
8.492920
0
VERTEX
8
1
10
6.614624
20
8.510986
0
VERTEX
8
1
10
6.614624
20
8.528076
0
VERTEX
8
1
10
6.615601
20
8.544067
0
VERTEX
8
1
10
6.617065
20
8.558838
0
VERTEX
8
1
10
6.618896
20
8.572021
0
VERTEX
8
1
10
6.620850
20
8.583252
0
VERTEX
8
1
10
6.622803
20
8.592651
0
VERTEX
8
1
10
6.624390
20
8.599854
0
VERTEX
8
1
10
6.625854
20
8.604614
0
VERTEX
8
1
10
6.626465
20
8.606689
0
VERTEX
8
1
10
6.637207
20
8.633057
0
VERTEX
8
1
10
6.658081
20
8.664063
0
VERTEX
8
1
10
6.685425
20
8.690674
0
VERTEX
8
1
10
6.718506
20
8.713013
0
VERTEX
8
1
10
6.756470
20
8.731445
0
VERTEX
8
1
10
6.798584
20
8.746216
0
VERTEX
8
1
10
6.843994
20
8.757813
0
VERTEX
8
1
10
6.891724
20
8.766357
0
VERTEX
8
1
10
6.941162
20
8.772461
0
VERTEX
8
1
10
6.991455
20
8.776001
0
VERTEX
8
1
10
7.041748
20
8.777832
0
VERTEX
8
1
10
7.091064
20
8.777710
0
VERTEX
8
1
10
7.139038
20
8.776245
0
VERTEX
8
1
10
7.184204
20
8.773682
0
VERTEX
8
1
10
7.226318
20
8.770630
0
VERTEX
8
1
10
7.264282
20
8.766968
0
VERTEX
8
1
10
7.297485
20
8.763062
0
VERTEX
8
1
10
7.324707
20
8.759399
0
VERTEX
8
1
10
7.345459
20
8.756470
0
VERTEX
8
1
10
7.355225
20
8.754395
0
VERTEX
8
1
10
7.373535
20
8.747803
0
VERTEX
8
1
10
7.407471
20
8.735840
0
VERTEX
8
1
10
7.455078
20
8.718750
0
VERTEX
8
1
10
7.514648
20
8.697510
0
VERTEX
8
1
10
7.584473
20
8.672607
0
VERTEX
8
1
10
7.662598
20
8.644653
0
VERTEX
8
1
10
7.747314
20
8.614380
0
VERTEX
8
1
10
7.836548
20
8.582153
0
VERTEX
8
1
10
7.928955
20
8.548950
0
VERTEX
8
1
10
8.022583
20
8.515259
0
VERTEX
8
1
10
8.115479
20
8.481567
0
VERTEX
8
1
10
8.205811
20
8.448730
0
VERTEX
8
1
10
8.291992
20
8.417358
0
VERTEX
8
1
10
8.372070
20
8.387817
0
VERTEX
8
1
10
8.444458
20
8.360962
0
VERTEX
8
1
10
8.507080
20
8.337280
0
VERTEX
8
1
10
8.558105
20
8.317749
0
VERTEX
8
1
10
8.595947
20
8.302734
0
VERTEX
8
1
10
8.619019
20
8.287231
0
VERTEX
8
1
10
8.634888
20
8.265137
0
VERTEX
8
1
10
8.647827
20
8.244019
0
VERTEX
8
1
10
8.658081
20
8.223999
0
VERTEX
8
1
10
8.665894
20
8.204834
0
VERTEX
8
1
10
8.671387
20
8.186401
0
VERTEX
8
1
10
8.674683
20
8.168823
0
VERTEX
8
1
10
8.676270
20
8.151855
0
VERTEX
8
1
10
8.675903
20
8.135498
0
VERTEX
8
1
10
8.674072
20
8.119507
0
VERTEX
8
1
10
8.670776
20
8.104004
0
VERTEX
8
1
10
8.666382
20
8.088745
0
VERTEX
8
1
10
8.660889
20
8.073730
0
VERTEX
8
1
10
8.654785
20
8.058838
0
VERTEX
8
1
10
8.647827
20
8.043823
0
VERTEX
8
1
10
8.640625
20
8.028931
0
VERTEX
8
1
10
8.632935
20
8.013794
0
VERTEX
8
1
10
8.625610
20
7.998413
0
VERTEX
8
1
10
8.618042
20
7.982910
0
VERTEX
8
1
10
8.635376
20
7.968384
0
VERTEX
8
1
10
8.755615
20
7.956421
0
VERTEX
8
1
10
8.868530
20
7.937622
0
VERTEX
8
1
10
8.974487
20
7.912964
0
VERTEX
8
1
10
9.073364
20
7.883301
0
VERTEX
8
1
10
9.165405
20
7.849487
0
VERTEX
8
1
10
9.250488
20
7.812256
0
VERTEX
8
1
10
9.328857
20
7.772461
0
VERTEX
8
1
10
9.400513
20
7.731079
0
VERTEX
8
1
10
9.465454
20
7.688843
0
VERTEX
8
1
10
9.524048
20
7.646484
0
VERTEX
8
1
10
9.576050
20
7.605103
0
VERTEX
8
1
10
9.621704
20
7.565552
0
VERTEX
8
1
10
9.661011
20
7.528442
0
VERTEX
8
1
10
9.693970
20
7.494751
0
VERTEX
8
1
10
9.720825
20
7.465332
0
VERTEX
8
1
10
9.741699
20
7.440918
0
VERTEX
8
1
10
9.756348
20
7.422363
0
VERTEX
8
1
10
9.765015
20
7.410767
0
SEQEND
0
POLYLINE
8
1
66
1
0
VERTEX
8
1
10
4.349243
20
1.148193
0
VERTEX
8
1
10
4.350952
20
1.156494
0
VERTEX
8
1
10
4.355957
20
1.180298
0
VERTEX
8
1
10
4.363892
20
1.217773
0
VERTEX
8
1
10
4.374146
20
1.267212
0
VERTEX
8
1
10
4.386597
20
1.326782
0
VERTEX
8
1
10
4.400879
20
1.394775
0
VERTEX
8
1
10
4.416504
20
1.469360
0
VERTEX
8
1
10
4.433228
20
1.548706
0
VERTEX
8
1
10
4.450439
20
1.631226
0
VERTEX
8
1
10
4.467896
20
1.714966
0
VERTEX
8
1
10
4.485474
20
1.798218
0
VERTEX
8
1
10
4.502319
20
1.879150
0
VERTEX
8
1
10
4.518433
20
1.956299
0
VERTEX
8
1
10
4.533325
20
2.027588
0
VERTEX
8
1
10
4.546509
20
2.091064
0
VERTEX
8
1
10
4.557983
20
2.145508
0
VERTEX
8
1
10
4.566772
20
2.188721
0
VERTEX
8
1
10
4.572998
20
2.219238
0
VERTEX
8
1
10
4.576294
20
2.234741
0
VERTEX
8
1
10
4.577637
20
2.235229
0
VERTEX
8
1
10
4.581543
20
2.236572
0
VERTEX
8
1
10
4.587524
20
2.238647
0
VERTEX
8
1
10
4.595459
20
2.241577
0
VERTEX
8
1
10
4.605103
20
2.244873
0
VERTEX
8
1
10
4.615967
20
2.248779
0
VERTEX
8
1
10
4.627930
20
2.252930
0
VERTEX
8
1
10
4.640625
20
2.257446
0
VERTEX
8
1
10
4.653809
20
2.262085
0
VERTEX
8
1
10
4.667114
20
2.266846
0
VERTEX
8
1
10
4.680054
20
2.271362
0
VERTEX
8
1
10
4.692749
20
2.275879
0
VERTEX
8
1
10
4.704712
20
2.280029
0
VERTEX
8
1
10
4.715698
20
2.283936
0
VERTEX
8
1
10
4.725342
20
2.287231
0
VERTEX
8
1
10
4.733154
20
2.290161
0
VERTEX
8
1
10
4.739258
20
2.292236
0
VERTEX
8
1
10
4.743286
20
2.293579
0
VERTEX
8
1
10
4.744507
20
2.294067
0
VERTEX
8
1
10
4.744751
20
2.287109
0
VERTEX
8
1
10
4.745483
20
2.267212
0
VERTEX
8
1
10
4.746460
20
2.235840
0
VERTEX
8
1
10
4.747803
20
2.194702
0
VERTEX
8
1
10
4.749634
20
2.145142
0
VERTEX
8
1
10
4.751465
20
2.088745
0
VERTEX
8
1
10
4.753540
20
2.026978
0
VERTEX
8
1
10
4.755737
20
1.961548
0
VERTEX
8
1
10
4.758179
20
1.893677
0
VERTEX
8
1
10
4.760498
20
1.825195
0
VERTEX
8
1
10
4.762695
20
1.757324
0
VERTEX
8
1
10
4.765015
20
1.691895
0
VERTEX
8
1
10
4.767212
20
1.630127
0
VERTEX
8
1
10
4.769043
20
1.573730
0
VERTEX
8
1
10
4.770630
20
1.524170
0
VERTEX
8
1
10
4.772095
20
1.482910
0
VERTEX
8
1
10
4.773193
20
1.451660
0
VERTEX
8
1
10
4.773804
20
1.431763
0
VERTEX
8
1
10
4.774048
20
1.424805
0
SEQEND
0
POLYLINE
8
1
66
1
0
VERTEX
8
1
10
0.634766
20
2.422607
0
VERTEX
8
1
10
0.891479
20
2.442505
0
VERTEX
8
1
10
0.654419
20
1.928467
0
VERTEX
8
1
10
0.476685
20
1.918823
0
VERTEX
8
1
10
0.466675
20
2.432495
0
SEQEND
0
POLYLINE
8
1
66
1
0
VERTEX
8
1
10
0.792969
20
1.958130
0
VERTEX
8
1
10
0.795776
20
1.964233
0
VERTEX
8
1
10
0.803589
20
1.981567
0
VERTEX
8
1
10
0.815674
20
2.008423
0
VERTEX
8
1
10
0.831421
20
2.043091
0
VERTEX
8
1
10
0.849976
20
2.084106
0
VERTEX
8
1
10
0.870605
20
2.129639
0
VERTEX
8
1
10
0.892700
20
2.178345
0
VERTEX
8
1
10
0.915283
20
2.228271
0
VERTEX
8
1
10
0.937622
20
2.278076
0
VERTEX
8
1
10
0.959351
20
2.325806
0
VERTEX
8
1
10
0.979370
20
2.370117
0
VERTEX
8
1
10
0.997070
20
2.409180
0
VERTEX
8
1
10
1.011597
20
2.441406
0
VERTEX
8
1
10
1.022583
20
2.465210
0
VERTEX
8
1
10
1.028687
20
2.479004
0
VERTEX
8
1
10
1.030396
20
2.481934
0
VERTEX
8
1
10
1.036621
20
2.483398
0
VERTEX
8
1
10
1.049683
20
2.486572
0
VERTEX
8
1
10
1.068726
20
2.491089
0
VERTEX
8
1
10
1.092896
20
2.496826
0
VERTEX
8
1
10
1.120972
20
2.503418
0
VERTEX
8
1
10
1.152588
20
2.510864
0
VERTEX
8
1
10
1.186401
20
2.518677
0
VERTEX
8
1
10
1.221802
20
2.526733
0
VERTEX
8
1
10
1.257813
20
2.534790
0
VERTEX
8
1
10
1.293701
20
2.542480
0
VERTEX
8
1
10
1.328491
20
2.549805
0
VERTEX
8
1
10
1.361206
20
2.556519
0
VERTEX
8
1
10
1.391113
20
2.562134
0
VERTEX
8
1
10
1.417114
20
2.566895
0
VERTEX
8
1
10
1.438721
20
2.569946
0
VERTEX
8
1
10
1.437134
20
2.549805
0
VERTEX
8
1
10
1.425537
20
2.515869
0
VERTEX
8
1
10
1.414063
20
2.479492
0
VERTEX
8
1
10
1.402466
20
2.441284
0
VERTEX
8
1
10
1.391113
20
2.402222
0
VERTEX
8
1
10
1.380371
20
2.362793
0
VERTEX
8
1
10
1.369873
20
2.323730
0
VERTEX
8
1
10
1.359985
20
2.285767
0
VERTEX
8
1
10
1.350708
20
2.249512
0
VERTEX
8
1
10
1.342285
20
2.215942
0
VERTEX
8
1
10
1.334839
20
2.185425
0
VERTEX
8
1
10
1.328491
20
2.159058
0
VERTEX
8
1
10
1.323364
20
2.137207
0
VERTEX
8
1
10
1.319580
20
2.120728
0
VERTEX
8
1
10
1.317139
20
2.110352
0
VERTEX
8
1
10
1.316284
20
2.106689
0
SEQEND
0
POLYLINE
8
1
66
1
0
VERTEX
8
1
10
2.234985
20
4.764160
0
VERTEX
8
1
10
2.234131
20
4.761719
0
VERTEX
8
1
10
2.231934
20
4.754883
0
VERTEX
8
1
10
2.228394
20
4.744507
0
VERTEX
8
1
10
2.224121
20
4.731567
0
VERTEX
8
1
10
2.219482
20
4.717041
0
VERTEX
8
1
10
2.214478
20
4.701904
0
VERTEX
8
1
10
2.209473
20
4.686768
0
VERTEX
8
1
10
2.204834
20
4.672729
0
VERTEX
8
1
10
2.200806
20
4.660767
0
VERTEX
8
1
10
2.197754
20
4.651611
0
VERTEX
8
1
10
2.196045
20
4.646484
0
VERTEX
8
1
10
2.195313
20
4.645386
0
VERTEX
8
1
10
2.189209
20
4.645020
0
VERTEX
8
1
10
2.177368
20
4.644409
0
VERTEX
8
1
10
2.161255
20
4.643311
0
VERTEX
8
1
10
2.142090
20
4.642334
0
VERTEX
8
1
10
2.120850
20
4.641113
0
VERTEX
8
1
10
2.099365
20
4.639771
0
VERTEX
8
1
10
2.078491
20
4.638550
0
VERTEX
8
1
10
2.059448
20
4.637329
0
VERTEX
8
1
10
2.043823
20
4.636597
0
VERTEX
8
1
10
2.033081
20
4.635986
0
VERTEX
8
1
10
2.027954
20
4.635498
0
VERTEX
8
1
10
2.027588
20
4.635010
0
VERTEX
8
1
10
2.027100
20
4.632568
0
VERTEX
8
1
10
2.026245
20
4.628540
0
VERTEX
8
1
10
2.025269
20
4.623291
0
VERTEX
8
1
10
2.024048
20
4.617432
0
VERTEX
8
1
10
2.022827
20
4.611084
0
VERTEX
8
1
10
2.021484
20
4.604858
0
VERTEX
8
1
10
2.020142
20
4.598755
0
VERTEX
8
1
10
2.019287
20
4.593506
0
VERTEX
8
1
10
2.018433
20
4.589478
0
VERTEX
8
1
10
2.017944
20
4.586792
0
VERTEX
8
1
10
2.018066
20
4.586060
0
VERTEX
8
1
10
2.034912
20
4.586304
0
VERTEX
8
1
10
2.073975
20
4.587036
0
VERTEX
8
1
10
2.130371
20
4.587891
0
VERTEX
8
1
10
2.199585
20
4.588989
0
VERTEX
8
1
10
2.276489
20
4.590332
0
VERTEX
8
1
10
2.356689
20
4.591431
0
VERTEX
8
1
10
2.435181
20
4.592896
0
VERTEX
8
1
10
2.507202
20
4.593872
0
VERTEX
8
1
10
2.567993
20
4.594971
0
VERTEX
8
1
10
2.613159
20
4.595581
0
VERTEX
8
1
10
2.637329
20
4.596069
0
VERTEX
8
1
10
2.640137
20
4.596802
0
VERTEX
8
1
10
2.640137
20
4.601807
0
VERTEX
8
1
10
2.640137
20
4.610596
0
VERTEX
8
1
10
2.640137
20
4.622314
0
VERTEX
8
1
10
2.640137
20
4.636230
0
VERTEX
8
1
10
2.640015
20
4.651245
0
VERTEX
8
1
10
2.640137
20
4.666382
0
VERTEX
8
1
10
2.640259
20
4.681030
0
VERTEX
8
1
10
2.640137
20
4.694092
0
VERTEX
8
1
10
2.640015
20
4.704712
0
VERTEX
8
1
10
2.640137
20
4.711670
0
VERTEX
8
1
10
2.640015
20
4.714600
0
VERTEX
8
1
10
2.637451
20
4.714600
0
VERTEX
8
1
10
2.629272
20
4.714600
0
VERTEX
8
1
10
2.616699
20
4.714600
0
VERTEX
8
1
10
2.600952
20
4.714600
0
VERTEX
8
1
10
2.582764
20
4.714600
0
VERTEX
8
1
10
2.563843
20
4.714600
0
VERTEX
8
1
10
2.545044
20
4.714600
0
VERTEX
8
1
10
2.527466
20
4.714600
0
VERTEX
8
1
10
2.512207
20
4.714722
0
VERTEX
8
1
10
2.500610
20
4.714600
0
VERTEX
8
1
10
2.493530
20
4.714478
0
VERTEX
8
1
10
2.492065
20
4.714722
0
VERTEX
8
1
10
2.492065
20
4.716431
0
VERTEX
8
1
10
2.492310
20
4.719971
0
VERTEX
8
1
10
2.492676
20
4.725220
0
VERTEX
8
1
10
2.493652
20
4.732056
0
VERTEX
8
1
10
2.494995
20
4.739990
0
VERTEX
8
1
10
2.496948
20
4.748901
0
VERTEX
8
1
10
2.499512
20
4.758545
0
VERTEX
8
1
10
2.502808
20
4.768921
0
VERTEX
8
1
10
2.507202
20
4.779297
0
VERTEX
8
1
10
2.512695
20
4.789795
0
VERTEX
8
1
10
2.519409
20
4.800293
0
VERTEX
8
1
10
2.541016
20
4.807495
0
VERTEX
8
1
10
2.568237
20
4.815186
0
VERTEX
8
1
10
2.594604
20
4.824585
0
VERTEX
8
1
10
2.619751
20
4.835571
0
VERTEX
8
1
10
2.643311
20
4.847778
0
VERTEX
8
1
10
2.665039
20
4.861328
0
VERTEX
8
1
10
2.684448
20
4.875610
0
VERTEX
8
1
10
2.701782
20
4.890503
0
VERTEX
8
1
10
2.715942
20
4.905762
0
VERTEX
8
1
10
2.727173
20
4.921631
0
VERTEX
8
1
10
2.734863
20
4.937256
0
VERTEX
8
1
10
2.739014
20
4.952881
0
VERTEX
8
1
10
2.737061
20
4.971680
0
VERTEX
8
1
10
2.732056
20
4.991821
0
VERTEX
8
1
10
2.724365
20
5.012695
0
VERTEX
8
1
10
2.714478
20
5.034058
0
VERTEX
8
1
10
2.702759
20
5.055176
0
VERTEX
8
1
10
2.689575
20
5.075806
0
VERTEX
8
1
10
2.675537
20
5.095459
0
VERTEX
8
1
10
2.660889
20
5.113525
0
VERTEX
8
1
10
2.645996
20
5.129761
0
VERTEX
8
1
10
2.631348
20
5.143677
0
VERTEX
8
1
10
2.617676
20
5.154663
0
VERTEX
8
1
10
2.608398
20
5.159424
0
VERTEX
8
1
10
2.589844
20
5.160522
0
VERTEX
8
1
10
2.555420
20
5.162720
0
VERTEX
8
1
10
2.508301
20
5.165649
0
VERTEX
8
1
10
2.452148
20
5.169067
0
VERTEX
8
1
10
2.390503
20
5.172852
0
VERTEX
8
1
10
2.326782
20
5.176636
0
VERTEX
8
1
10
2.264526
20
5.180298
0
VERTEX
8
1
10
2.207031
20
5.183594
0
VERTEX
8
1
10
2.158081
20
5.186279
0
VERTEX
8
1
10
2.120728
20
5.188110
0
VERTEX
8
1
10
2.098755
20
5.188965
0
VERTEX
8
1
10
2.092041
20
5.197754
0
VERTEX
8
1
10
2.085205
20
5.208252
0
VERTEX
8
1
10
2.077148
20
5.218872
0
VERTEX
8
1
10
2.068115
20
5.229248
0
VERTEX
8
1
10
2.058105
20
5.239258
0
VERTEX
8
1
10
2.046997
20
5.248413
0
VERTEX
8
1
10
2.035156
20
5.256836
0
VERTEX
8
1
10
2.022217
20
5.264160
0
VERTEX
8
1
10
2.008789
20
5.270142
0
VERTEX
8
1
10
1.994629
20
5.274658
0
VERTEX
8
1
10
1.979980
20
5.277222
0
VERTEX
8
1
10
1.960327
20
5.274048
0
VERTEX
8
1
10
1.928101
20
5.252441
0
VERTEX
8
1
10
1.900635
20
5.223022
0
VERTEX
8
1
10
1.877563
20
5.187134
0
VERTEX
8
1
10
1.859131
20
5.146118
0
VERTEX
8
1
10
1.844971
20
5.101318
0
VERTEX
8
1
10
1.835205
20
5.053589
0
VERTEX
8
1
10
1.829346
20
5.004395
0
VERTEX
8
1
10
1.827637
20
4.955200
0
VERTEX
8
1
10
1.829834
20
4.906738
0
VERTEX
8
1
10
1.835693
20
4.860840
0
VERTEX
8
1
10
1.845215
20
4.818604
0
VERTEX
8
1
10
1.859985
20
4.786377
0
VERTEX
8
1
10
1.879150
20
4.765747
0
VERTEX
8
1
10
1.900757
20
4.752930
0
VERTEX
8
1
10
1.923828
20
4.746460
0
VERTEX
8
1
10
1.947754
20
4.745361
0
VERTEX
8
1
10
1.971436
20
4.748291
0
VERTEX
8
1
10
1.993896
20
4.754028
0
VERTEX
8
1
10
2.014282
20
4.761597
0
VERTEX
8
1
10
2.031738
20
4.769409
0
VERTEX
8
1
10
2.045288
20
4.776611
0
VERTEX
8
1
10
2.054321
20
4.781860
0
VERTEX
8
1
10
2.057251
20
4.783813
0
SEQEND
0
POLYLINE
8
1
66
1
0
VERTEX
8
1
10
0.861816
20
3.212891
0
VERTEX
8
1
10
0.863281
20
3.212769
0
VERTEX
8
1
10
0.867798
20
3.212402
0
VERTEX
8
1
10
0.874756
20
3.211792
0
VERTEX
8
1
10
0.884033
20
3.211060
0
VERTEX
8
1
10
0.895386
20
3.210205
0
VERTEX
8
1
10
0.908447
20
3.209106
0
VERTEX
8
1
10
0.922852
20
3.208130
0
VERTEX
8
1
10
0.938477
20
3.207031
0
VERTEX
8
1
10
0.955078
20
3.205933
0
VERTEX
8
1
10
0.972290
20
3.204712
0
VERTEX
8
1
10
0.989746
20
3.203735
0
VERTEX
8
1
10
1.007202
20
3.202759
0
VERTEX
8
1
10
1.024414
20
3.201904
0
VERTEX
8
1
10
1.041260
20
3.201172
0
VERTEX
8
1
10
1.057129
20
3.200684
0
VERTEX
8
1
10
1.071899
20
3.200439
0
VERTEX
8
1
10
1.085327
20
3.200439
0
VERTEX
8
1
10
1.097046
20
3.200684
0
VERTEX
8
1
10
1.106934
20
3.201294
0
VERTEX
8
1
10
1.114502
20
3.202148
0
VERTEX
8
1
10
1.120239
20
3.204102
0
VERTEX
8
1
10
1.127319
20
3.208252
0
VERTEX
8
1
10
1.134399
20
3.212402
0
VERTEX
8
1
10
1.141479
20
3.216431
0
VERTEX
8
1
10
1.148438
20
3.220459
0
VERTEX
8
1
10
1.155518
20
3.224609
0
VERTEX
8
1
10
1.162354
20
3.228882
0
VERTEX
8
1
10
1.169189
20
3.233276
0
VERTEX
8
1
10
1.176025
20
3.237793
0
VERTEX
8
1
10
1.182617
20
3.242676
0
VERTEX
8
1
10
1.189087
20
3.247803
0
VERTEX
8
1
10
1.195557
20
3.253174
0
VERTEX
8
1
10
1.201782
20
3.258911
0
VERTEX
8
1
10
1.207642
20
3.265259
0
VERTEX
8
1
10
1.213745
20
3.271973
0
VERTEX
8
1
10
1.219360
20
3.279175
0
VERTEX
8
1
10
1.224976
20
3.286865
0
VERTEX
8
1
10
1.230225
20
3.295288
0
VERTEX
8
1
10
1.235352
20
3.304443
0
VERTEX
8
1
10
1.240112
20
3.314331
0
VERTEX
8
1
10
1.244873
20
3.324829
0
VERTEX
8
1
10
1.249146
20
3.336548
0
VERTEX
8
1
10
1.255249
20
3.354126
0
VERTEX
8
1
10
1.263306
20
3.378052
0
VERTEX
8
1
10
1.273682
20
3.407471
0
VERTEX
8
1
10
1.286133
20
3.441528
0
VERTEX
8
1
10
1.301147
20
3.479736
0
VERTEX
8
1
10
1.318604
20
3.521240
0
VERTEX
8
1
10
1.338501
20
3.565308
0
VERTEX
8
1
10
1.361206
20
3.611206
0
VERTEX
8
1
10
1.386719
20
3.658325
0
VERTEX
8
1
10
1.415283
20
3.705688
0
VERTEX
8
1
10
1.446655
20
3.752808
0
VERTEX
8
1
10
1.481079
20
3.798706
0
VERTEX
8
1
10
1.518921
20
3.842896
0
VERTEX
8
1
10
1.560059
20
3.884766
0
VERTEX
8
1
10
1.604736
20
3.922974
0
VERTEX
8
1
10
1.652832
20
3.957520
0
VERTEX
8
1
10
1.704468
20
3.987061
0
VERTEX
8
1
10
1.760010
20
4.011230
0
VERTEX
8
1
10
1.819458
20
4.029297
0
VERTEX
8
1
10
1.882568
20
4.040405
0
VERTEX
8
1
10
1.945679
20
4.042725
0
VERTEX
8
1
10
2.015869
20
4.042725
0
VERTEX
8
1
10
2.096436
20
4.042725
0
VERTEX
8
1
10
2.186157
20
4.042725
0
VERTEX
8
1
10
2.283325
20
4.042725
0
VERTEX
8
1
10
2.386353
20
4.042725
0
VERTEX
8
1
10
2.493896
20
4.042725
0
VERTEX
8
1
10
2.604492
20
4.042725
0
VERTEX
8
1
10
2.716309
20
4.042725
0
VERTEX
8
1
10
2.828369
20
4.042725
0
VERTEX
8
1
10
2.938843
20
4.042847
0
VERTEX
8
1
10
3.046143
20
4.042725
0
VERTEX
8
1
10
3.149048
20
4.042725
0
VERTEX
8
1
10
3.245728
20
4.042725
0
VERTEX
8
1
10
3.335083
20
4.042725
0
VERTEX
8
1
10
3.415161
20
4.042725
0
VERTEX
8
1
10
3.484863
20
4.042725
0
VERTEX
8
1
10
3.542480
20
4.042725
0
VERTEX
8
1
10
3.586426
20
4.042847
0
VERTEX
8
1
10
3.615479
20
4.042725
0
VERTEX
8
1
10
3.627808
20
4.042603
0
VERTEX
8
1
10
3.629639
20
4.042603
0
VERTEX
8
1
10
3.635132
20
4.041992
0
VERTEX
8
1
10
3.644287
20
4.040649
0
VERTEX
8
1
10
3.656982
20
4.038696
0
VERTEX
8
1
10
3.672729
20
4.035767
0
VERTEX
8
1
10
3.691284
20
4.031982
0
VERTEX
8
1
10
3.712402
20
4.027100
0
VERTEX
8
1
10
3.735596
20
4.020874
0
VERTEX
8
1
10
3.760498
20
4.013306
0
VERTEX
8
1
10
3.787109
20
4.004517
0
VERTEX
8
1
10
3.814697
20
3.993896
0
VERTEX
8
1
10
3.843140
20
3.981689
0
VERTEX
8
1
10
3.872192
20
3.967651
0
VERTEX
8
1
10
3.901367
20
3.951782
0
VERTEX
8
1
10
3.930298
20
3.933716
0
VERTEX
8
1
10
3.958862
20
3.913574
0
VERTEX
8
1
10
3.986694
20
3.890991
0
VERTEX
8
1
10
4.013062
20
3.866211
0
VERTEX
8
1
10
4.038086
20
3.838989
0
VERTEX
8
1
10
4.061523
20
3.808838
0
VERTEX
8
1
10
4.082642
20
3.776123
0
VERTEX
8
1
10
4.100708
20
3.742310
0
VERTEX
8
1
10
4.117798
20
3.709106
0
VERTEX
8
1
10
4.134155
20
3.676758
0
VERTEX
8
1
10
4.149536
20
3.645020
0
VERTEX
8
1
10
4.164185
20
3.614258
0
VERTEX
8
1
10
4.178101
20
3.584229
0
VERTEX
8
1
10
4.191162
20
3.555054
0
VERTEX
8
1
10
4.203613
20
3.526733
0
VERTEX
8
1
10
4.215332
20
3.499268
0
VERTEX
8
1
10
4.226563
20
3.472778
0
VERTEX
8
1
10
4.237183
20
3.447266
0
VERTEX
8
1
10
4.247192
20
3.422607
0
VERTEX
8
1
10
4.256958
20
3.399048
0
VERTEX
8
1
10
4.266113
20
3.376465
0
VERTEX
8
1
10
4.274902
20
3.355103
0
VERTEX
8
1
10
4.283203
20
3.334717
0
VERTEX
8
1
10
4.291260
20
3.315308
0
VERTEX
8
1
10
4.299072
20
3.297119
0
VERTEX
8
1
10
4.306763
20
3.280029
0
VERTEX
8
1
10
4.313965
20
3.264282
0
VERTEX
8
1
10
4.320801
20
3.250977
0
VERTEX
8
1
10
4.326294
20
3.244263
0
VERTEX
8
1
10
4.331421
20
3.237793
0
VERTEX
8
1
10
4.336304
20
3.231812
0
VERTEX
8
1
10
4.340942
20
3.226074
0
VERTEX
8
1
10
4.345581
20
3.220947
0
VERTEX
8
1
10
4.350342
20
3.215942
0
VERTEX
8
1
10
4.354980
20
3.211426
0
VERTEX
8
1
10
4.359863
20
3.207397
0
VERTEX
8
1
10
4.364868
20
3.203491
0
VERTEX
8
1
10
4.370361
20
3.200073
0
VERTEX
8
1
10
4.376099
20
3.196899
0
VERTEX
8
1
10
4.382446
20
3.194092
0
VERTEX
8
1
10
4.389526
20
3.191650
0
VERTEX
8
1
10
4.396851
20
3.189575
0
VERTEX
8
1
10
4.404907
20
3.187744
0
VERTEX
8
1
10
4.414063
20
3.186401
0
VERTEX
8
1
10
4.423706
20
3.185059
0
VERTEX
8
1
10
4.434692
20
3.184082
0
VERTEX
8
1
10
4.446411
20
3.183594
0
VERTEX
8
1
10
4.459473
20
3.183228
0
VERTEX
8
1
10
4.473877
20
3.183228
0
VERTEX
8
1
10
4.492554
20
3.183838
0
VERTEX
8
1
10
4.515625
20
3.184814
0
VERTEX
8
1
10
4.542603
20
3.186401
0
VERTEX
8
1
10
4.572876
20
3.188354
0
VERTEX
8
1
10
4.605835
20
3.190674
0
VERTEX
8
1
10
4.640869
20
3.193237
0
VERTEX
8
1
10
4.677612
20
3.196045
0
VERTEX
8
1
10
4.715210
20
3.199097
0
VERTEX
8
1
10
4.753296
20
3.202271
0
VERTEX
8
1
10
4.791382
20
3.205444
0
VERTEX
8
1
10
4.828735
20
3.208740
0
VERTEX
8
1
10
4.864746
20
3.211792
0
VERTEX
8
1
10
4.899048
20
3.214722
0
VERTEX
8
1
10
4.930908
20
3.217651
0
VERTEX
8
1
10
4.959839
20
3.220337
0
VERTEX
8
1
10
4.985107
20
3.222534
0
VERTEX
8
1
10
5.006470
20
3.224487
0
VERTEX
8
1
10
5.023315
20
3.225952
0
VERTEX
8
1
10
5.034546
20
3.227051
0
VERTEX
8
1
10
5.040283
20
3.227539
0
VERTEX
8
1
10
5.021729
20
3.328491
0
VERTEX
8
1
10
4.988770
20
3.485229
0
VERTEX
8
1
10
4.954468
20
3.628296
0
VERTEX
8
1
10
4.919067
20
3.758423
0
VERTEX
8
1
10
4.882813
20
3.876221
0
VERTEX
8
1
10
4.845825
20
3.982422
0
VERTEX
8
1
10
4.807983
20
4.077637
0
VERTEX
8
1
10
4.770020
20
4.162476
0
VERTEX
8
1
10
4.731812
20
4.237549
0
VERTEX
8
1
10
4.693604
20
4.303589
0
VERTEX
8
1
10
4.655396
20
4.361206
0
VERTEX
8
1
10
4.617554
20
4.411133
0
VERTEX
8
1
10
4.580200
20
4.453857
0
VERTEX
8
1
10
4.543457
20
4.490234
0
VERTEX
8
1
10
4.507568
20
4.520996
0
VERTEX
8
1
10
4.472656
20
4.546265
0
VERTEX
8
1
10
4.439087
20
4.567261
0
VERTEX
8
1
10
4.406616
20
4.584473
0
VERTEX
8
1
10
4.375854
20
4.598267
0
VERTEX
8
1
10
4.347046
20
4.609619
0
VERTEX
8
1
10
4.320068
20
4.619019
0
VERTEX
8
1
10
4.294189
20
4.625854
0
VERTEX
8
1
10
4.254517
20
4.631714
0
VERTEX
8
1
10
4.201050
20
4.637207
0
VERTEX
8
1
10
4.135498
20
4.642334
0
VERTEX
8
1
10
4.059692
20
4.647095
0
VERTEX
8
1
10
3.975220
20
4.651489
0
VERTEX
8
1
10
3.883789
20
4.655518
0
VERTEX
8
1
10
3.787231
20
4.659180
0
VERTEX
8
1
10
3.686890
20
4.662598
0
VERTEX
8
1
10
3.585083
20
4.665527
0
VERTEX
8
1
10
3.482910
20
4.668091
0
VERTEX
8
1
10
3.382446
20
4.670654
0
VERTEX
8
1
10
3.285278
20
4.672729
0
VERTEX
8
1
10
3.193237
20
4.674561
0
VERTEX
8
1
10
3.107910
20
4.676025
0
VERTEX
8
1
10
3.030884
20
4.677368
0
VERTEX
8
1
10
2.964233
20
4.678467
0
VERTEX
8
1
10
2.909180
20
4.679199
0
VERTEX
8
1
10
2.867798
20
4.679688
0
VERTEX
8
1
10
2.841797
20
4.680054
0
VERTEX
8
1
10
2.832764
20
4.680176
0
SEQEND
0
POLYLINE
8
1
66
1
0
VERTEX
8
1
10
8.261597
20
7.599487
0
VERTEX
8
1
10
8.269043
20
7.592651
0
VERTEX
8
1
10
8.275635
20
7.585449
0
VERTEX
8
1
10
8.281494
20
7.577637
0
VERTEX
8
1
10
8.286743
20
7.569580
0
VERTEX
8
1
10
8.291504
20
7.561035
0
VERTEX
8
1
10
8.295532
20
7.552246
0
VERTEX
8
1
10
8.299072
20
7.543213
0
VERTEX
8
1
10
8.302124
20
7.533936
0
VERTEX
8
1
10
8.304688
20
7.524658
0
VERTEX
8
1
10
8.307129
20
7.515259
0
VERTEX
8
1
10
8.308960
20
7.505737
0
VERTEX
8
1
10
8.310547
20
7.496338
0
VERTEX
8
1
10
8.311890
20
7.487061
0
VERTEX
8
1
10
8.312866
20
7.477905
0
VERTEX
8
1
10
8.313965
20
7.468994
0
VERTEX
8
1
10
8.314697
20
7.460327
0
VERTEX
8
1
10
8.315430
20
7.451904
0
VERTEX
8
1
10
8.316162
20
7.443970
0
VERTEX
8
1
10
8.317017
20
7.436279
0
VERTEX
8
1
10
8.317749
20
7.428955
0
VERTEX
8
1
10
8.318604
20
7.422363
0
VERTEX
8
1
10
8.319702
20
7.416382
0
VERTEX
8
1
10
8.320801
20
7.411621
0
VERTEX
8
1
10
8.320923
20
7.401245
0
VERTEX
8
1
10
8.321045
20
7.375732
0
VERTEX
8
1
10
8.321289
20
7.336670
0
VERTEX
8
1
10
8.321655
20
7.285400
0
VERTEX
8
1
10
8.322021
20
7.223267
0
VERTEX
8
1
10
8.322510
20
7.151733
0
VERTEX
8
1
10
8.323120
20
7.072388
0
VERTEX
8
1
10
8.323608
20
6.986450
0
VERTEX
8
1
10
8.324219
20
6.895264
0
VERTEX
8
1
10
8.324829
20
6.800659
0
VERTEX
8
1
10
8.325317
20
6.703491
0
VERTEX
8
1
10
8.326050
20
6.605591
0
VERTEX
8
1
10
8.326660
20
6.508179
0
VERTEX
8
1
10
8.327271
20
6.412842
0
VERTEX
8
1
10
8.328003
20
6.320923
0
VERTEX
8
1
10
8.328369
20
6.233643
0
VERTEX
8
1
10
8.328979
20
6.152832
0
VERTEX
8
1
10
8.329346
20
6.079590
0
VERTEX
8
1
10
8.329834
20
6.015503
0
VERTEX
8
1
10
8.329956
20
5.961792
0
VERTEX
8
1
10
8.330322
20
5.920166
0
VERTEX
8
1
10
8.330322
20
5.891724
0
VERTEX
8
1
10
8.329346
20
5.878052
0
VERTEX
8
1
10
8.325684
20
5.869629
0
VERTEX
8
1
10
8.322388
20
5.860229
0
VERTEX
8
1
10
8.319336
20
5.849976
0
VERTEX
8
1
10
8.316650
20
5.839233
0
VERTEX
8
1
10
8.314209
20
5.828003
0
VERTEX
8
1
10
8.312012
20
5.816284
0
VERTEX
8
1
10
8.310059
20
5.804321
0
VERTEX
8
1
10
8.308472
20
5.792236
0
VERTEX
8
1
10
8.307007
20
5.780029
0
VERTEX
8
1
10
8.305786
20
5.767944
0
VERTEX
8
1
10
8.304565
20
5.756104
0
VERTEX
8
1
10
8.303711
20
5.744629
0
VERTEX
8
1
10
8.302856
20
5.733521
0
VERTEX
8
1
10
8.302246
20
5.722900
0
VERTEX
8
1
10
8.301880
20
5.713135
0
VERTEX
8
1
10
8.301392
20
5.704224
0
VERTEX
8
1
10
8.301147
20
5.695923
0
VERTEX
8
1
10
8.301147
20
5.688721
0
VERTEX
8
1
10
8.300903
20
5.682983
0
VERTEX
8
1
10
8.300903
20
5.678223
0
VERTEX
8
1
10
8.300781
20
5.675049
0
VERTEX
8
1
10
8.300781
20
5.673340
0
VERTEX
8
1
10
8.300781
20
5.671143
0
VERTEX
8
1
10
8.301025
20
5.653564
0
VERTEX
8
1
10
8.301392
20
5.618652
0
VERTEX
8
1
10
8.302002
20
5.567749
0
VERTEX
8
1
10
8.302734
20
5.502686
0
VERTEX
8
1
10
8.303467
20
5.425171
0
VERTEX
8
1
10
8.304443
20
5.336670
0
VERTEX
8
1
10
8.305420
20
5.238770
0
VERTEX
8
1
10
8.306396
20
5.133179
0
VERTEX
8
1
10
8.307495
20
5.021484
0
VERTEX
8
1
10
8.308472
20
4.905273
0
VERTEX
8
1
10
8.309448
20
4.786255
0
VERTEX
8
1
10
8.310547
20
4.665894
0
VERTEX
8
1
10
8.311401
20
4.545898
0
VERTEX
8
1
10
8.312134
20
4.427979
0
VERTEX
8
1
10
8.312744
20
4.313721
0
VERTEX
8
1
10
8.313232
20
4.204590
0
VERTEX
8
1
10
8.313477
20
4.102295
0
VERTEX
8
1
10
8.313599
20
4.008423
0
VERTEX
8
1
10
8.313354
20
3.924683
0
VERTEX
8
1
10
8.312988
20
3.852661
0
VERTEX
8
1
10
8.312378
20
3.793945
0
VERTEX
8
1
10
8.311157
20
3.750244
0
VERTEX
8
1
10
8.307373
20
3.721924
0
VERTEX
8
1
10
8.299683
20
3.697754
0
VERTEX
8
1
10
8.289917
20
3.675293
0
VERTEX
8
1
10
8.278198
20
3.654419
0
VERTEX
8
1
10
8.264771
20
3.635010
0
VERTEX
8
1
10
8.250000
20
3.617065
0
VERTEX
8
1
10
8.234131
20
3.600464
0
VERTEX
8
1
10
8.217285
20
3.585449
0
VERTEX
8
1
10
8.199707
20
3.571533
0
VERTEX
8
1
10
8.181641
20
3.558960
0
VERTEX
8
1
10
8.163452
20
3.547729
0
VERTEX
8
1
10
8.145264
20
3.537720
0
VERTEX
8
1
10
8.127319
20
3.528564
0
VERTEX
8
1
10
8.109863
20
3.520630
0
VERTEX
8
1
10
8.093140
20
3.513794
0
VERTEX
8
1
10
8.077393
20
3.507690
0
VERTEX
8
1
10
8.062866
20
3.502808
0
VERTEX
8
1
10
8.049927
20
3.498535
0
VERTEX
8
1
10
8.038452
20
3.495361
0
VERTEX
8
1
10
8.029175
20
3.492920
0
VERTEX
8
1
10
8.021851
20
3.491089
0
VERTEX
8
1
10
8.016968
20
3.489990
0
VERTEX
8
1
10
8.014648
20
3.489502
0
VERTEX
8
1
10
8.010132
20
3.489380
0
VERTEX
8
1
10
7.989868
20
3.489014
0
VERTEX
8
1
10
7.954346
20
3.488281
0
VERTEX
8
1
10
7.905151
20
3.487427
0
VERTEX
8
1
10
7.843506
20
3.486206
0
VERTEX
8
1
10
7.770874
20
3.484863
0
VERTEX
8
1
10
7.688721
20
3.483276
0
VERTEX
8
1
10
7.598389
20
3.481689
0
VERTEX
8
1
10
7.501099
20
3.479858
0
VERTEX
8
1
10
7.398560
20
3.477905
0
VERTEX
8
1
10
7.291992
20
3.476074
0
VERTEX
8
1
10
7.182861
20
3.474121
0
VERTEX
8
1
10
7.072510
20
3.472168
0
VERTEX
8
1
10
6.962280
20
3.470337
0
VERTEX
8
1
10
6.854004
20
3.468506
0
VERTEX
8
1
10
6.748413
20
3.466675
0
VERTEX
8
1
10
6.647339
20
3.465088
0
VERTEX
8
1
10
6.552002
20
3.463623
0
VERTEX
8
1
10
6.463867
20
3.462402
0
VERTEX
8
1
10
6.384521
20
3.461304
0
VERTEX
8
1
10
6.315063
20
3.460693
0
VERTEX
8
1
10
6.257080
20
3.460083
0
VERTEX
8
1
10
6.211792
20
3.459839
0
VERTEX
8
1
10
6.177734
20
3.461792
0
VERTEX
8
1
10
6.146851
20
3.465820
0
VERTEX
8
1
10
6.118896
20
3.471680
0
VERTEX
8
1
10
6.093872
20
3.479370
0
VERTEX
8
1
10
6.071411
20
3.488403
0
VERTEX
8
1
10
6.051270
20
3.498779
0
VERTEX
8
1
10
6.033691
20
3.510376
0
VERTEX
8
1
10
6.018311
20
3.522949
0
VERTEX
8
1
10
6.005005
20
3.536377
0
VERTEX
8
1
10
5.993652
20
3.550537
0
VERTEX
8
1
10
5.984131
20
3.564941
0
VERTEX
8
1
10
5.976196
20
3.579956
0
VERTEX
8
1
10
5.969849
20
3.594971
0
VERTEX
8
1
10
5.964722
20
3.609985
0
VERTEX
8
1
10
5.961182
20
3.624878
0
VERTEX
8
1
10
5.958496
20
3.639404
0
VERTEX
8
1
10
5.956787
20
3.653198
0
VERTEX
8
1
10
5.955933
20
3.666626
0
VERTEX
8
1
10
5.955811
20
3.679077
0
VERTEX
8
1
10
5.956421
20
3.690430
0
VERTEX
8
1
10
5.957153
20
3.700684
0
VERTEX
8
1
10
5.958252
20
3.709595
0
VERTEX
8
1
10
5.959595
20
3.716919
0
VERTEX
8
1
10
5.959229
20
3.726563
0
VERTEX
8
1
10
5.958374
20
3.754639
0
VERTEX
8
1
10
5.956787
20
3.799194
0
VERTEX
8
1
10
5.954834
20
3.858643
0
VERTEX
8
1
10
5.952393
20
3.931274
0
VERTEX
8
1
10
5.949585
20
4.015381
0
VERTEX
8
1
10
5.946655
20
4.109375
0
VERTEX
8
1
10
5.943237
20
4.211548
0
VERTEX
8
1
10
5.939819
20
4.319946
0
VERTEX
8
1
10
5.936279
20
4.433105
0
VERTEX
8
1
10
5.932739
20
4.549438
0
VERTEX
8
1
10
5.929077
20
4.667114
0
VERTEX
8
1
10
5.925659
20
4.784424
0
VERTEX
8
1
10
5.922363
20
4.899658
0
VERTEX
8
1
10
5.919312
20
5.011108
0
VERTEX
8
1
10
5.916626
20
5.117310
0
VERTEX
8
1
10
5.914063
20
5.216309
0
VERTEX
8
1
10
5.912109
20
5.306396
0
VERTEX
8
1
10
5.910522
20
5.386230
0
VERTEX
8
1
10
5.909546
20
5.453491
0
VERTEX
8
1
10
5.909058
20
5.507202
0
VERTEX
8
1
10
5.909424
20
5.545044
0
VERTEX
8
1
10
5.910278
20
5.565552
0
VERTEX
8
1
10
5.910522
20
5.576294
0
VERTEX
8
1
10
5.911011
20
5.587280
0
VERTEX
8
1
10
5.911865
20
5.598633
0
VERTEX
8
1
10
5.913086
20
5.610229
0
VERTEX
8
1
10
5.914429
20
5.621948
0
VERTEX
8
1
10
5.916138
20
5.633789
0
VERTEX
8
1
10
5.918091
20
5.645630
0
VERTEX
8
1
10
5.920288
20
5.657471
0
VERTEX
8
1
10
5.922607
20
5.669189
0
VERTEX
8
1
10
5.925293
20
5.680664
0
VERTEX
8
1
10
5.927979
20
5.692017
0
VERTEX
8
1
10
5.930908
20
5.702881
0
VERTEX
8
1
10
5.934082
20
5.713501
0
VERTEX
8
1
10
5.937256
20
5.723633
0
VERTEX
8
1
10
5.940552
20
5.733154
0
VERTEX
8
1
10
5.944214
20
5.742065
0
VERTEX
8
1
10
5.947754
20
5.750366
0
VERTEX
8
1
10
5.951538
20
5.758057
0
VERTEX
8
1
10
5.955200
20
5.764771
0
VERTEX
8
1
10
5.958984
20
5.770508
0
VERTEX
8
1
10
5.962891
20
5.775391
0
VERTEX
8
1
10
5.966797
20
5.779297
0
VERTEX
8
1
10
5.969482
20
5.782104
0
VERTEX
8
1
10
5.970093
20
5.793823
0
VERTEX
8
1
10
5.971191
20
5.819336
0
VERTEX
8
1
10
5.972900
20
5.857666
0
VERTEX
8
1
10
5.975220
20
5.907471
0
VERTEX
8
1
10
5.977905
20
5.967407
0
VERTEX
8
1
10
5.981079
20
6.036621
0
VERTEX
8
1
10
5.984741
20
6.113525
0
VERTEX
8
1
10
5.988647
20
6.197266
0
VERTEX
8
1
10
5.992920
20
6.286377
0
VERTEX
8
1
10
5.997437
20
6.379883
0
VERTEX
8
1
10
6.002197
20
6.476318
0
VERTEX
8
1
10
6.007080
20
6.574829
0
VERTEX
8
1
10
6.012207
20
6.673828
0
VERTEX
8
1
10
6.017334
20
6.772339
0
VERTEX
8
1
10
6.022461
20
6.869019
0
VERTEX
8
1
10
6.027710
20
6.963013
0
VERTEX
8
1
10
6.032715
20
7.052612
0
VERTEX
8
1
10
6.037842
20
7.136963
0
VERTEX
8
1
10
6.042847
20
7.214844
0
VERTEX
8
1
10
6.047485
20
7.285034
0
VERTEX
8
1
10
6.051880
20
7.346191
0
VERTEX
8
1
10
6.056152
20
7.397217
0
VERTEX
8
1
10
6.060303
20
7.437256
0
VERTEX
8
1
10
6.065918
20
7.471924
0
VERTEX
8
1
10
6.073120
20
7.503662
0
VERTEX
8
1
10
6.081909
20
7.532593
0
VERTEX
8
1
10
6.092163
20
7.558838
0
VERTEX
8
1
10
6.103394
20
7.582520
0
VERTEX
8
1
10
6.115723
20
7.603760
0
VERTEX
8
1
10
6.128906
20
7.622559
0
VERTEX
8
1
10
6.142822
20
7.639526
0
VERTEX
8
1
10
6.157227
20
7.654297
0
VERTEX
8
1
10
6.171875
20
7.667236
0
VERTEX
8
1
10
6.186646
20
7.678345
0
VERTEX
8
1
10
6.201538
20
7.687988
0
VERTEX
8
1
10
6.216187
20
7.696167
0
VERTEX
8
1
10
6.230591
20
7.703003
0
VERTEX
8
1
10
6.244507
20
7.708618
0
VERTEX
8
1
10
6.257690
20
7.713257
0
VERTEX
8
1
10
6.270020
20
7.716919
0
VERTEX
8
1
10
6.281250
20
7.719971
0
VERTEX
8
1
10
6.291504
20
7.722412
0
VERTEX
8
1
10
6.300293
20
7.724243
0
VERTEX
8
1
10
6.307617
20
7.725708
0
VERTEX
8
1
10
6.313354
20
7.727173
0
VERTEX
8
1
10
6.317383
20
7.727661
0
VERTEX
8
1
10
6.332520
20
7.727905
0
VERTEX
8
1
10
6.360718
20
7.728394
0
VERTEX
8
1
10
6.400757
20
7.728882
0
VERTEX
8
1
10
6.451660
20
7.729736
0
VERTEX
8
1
10
6.512329
20
7.730469
0
VERTEX
8
1
10
6.581665
20
7.731445
0
VERTEX
8
1
10
6.658569
20
7.732422
0
VERTEX
8
1
10
6.741699
20
7.733521
0
VERTEX
8
1
10
6.830322
20
7.734619
0
VERTEX
8
1
10
6.923096
20
7.735596
0
VERTEX
8
1
10
7.019287
20
7.736572
0
VERTEX
8
1
10
7.117432
20
7.737427
0
VERTEX
8
1
10
7.216431
20
7.738403
0
VERTEX
8
1
10
7.315430
20
7.739136
0
VERTEX
8
1
10
7.412964
20
7.739746
0
VERTEX
8
1
10
7.508301
20
7.740234
0
VERTEX
8
1
10
7.600220
20
7.740356
0
VERTEX
8
1
10
7.687500
20
7.740601
0
VERTEX
8
1
10
7.769287
20
7.740356
0
VERTEX
8
1
10
7.844482
20
7.739868
0
VERTEX
8
1
10
7.911621
20
7.739136
0
VERTEX
8
1
10
7.969971
20
7.738037
0
VERTEX
8
1
10
8.033081
20
7.738403
0
VERTEX
8
1
10
8.097412
20
7.738770
0
VERTEX
8
1
10
8.158325
20
7.738525
0
VERTEX
8
1
10
8.215820
20
7.737549
0
VERTEX
8
1
10
8.269897
20
7.735962
0
VERTEX
8
1
10
8.320801
20
7.733887
0
VERTEX
8
1
10
8.368530
20
7.731323
0
VERTEX
8
1
10
8.413086
20
7.728271
0
VERTEX
8
1
10
8.454712
20
7.724976
0
VERTEX
8
1
10
8.493286
20
7.721191
0
VERTEX
8
1
10
8.529175
20
7.717285
0
VERTEX
8
1
10
8.562134
20
7.713013
0
VERTEX
8
1
10
8.592407
20
7.708618
0
VERTEX
8
1
10
8.620117
20
7.704346
0
VERTEX
8
1
10
8.645142
20
7.699829
0
VERTEX
8
1
10
8.667725
20
7.695435
0
VERTEX
8
1
10
8.688232
20
7.691040
0
VERTEX
8
1
10
8.706177
20
7.686646
0
VERTEX
8
1
10
8.721924
20
7.682495
0
VERTEX
8
1
10
8.735596
20
7.678589
0
VERTEX
8
1
10
8.747070
20
7.675049
0
VERTEX
8
1
10
8.756714
20
7.671631
0
VERTEX
8
1
10
8.764282
20
7.668701
0
VERTEX
8
1
10
8.773315
20
7.666260
0
VERTEX
8
1
10
8.791138
20
7.661255
0
VERTEX
8
1
10
8.817383
20
7.653809
0
VERTEX
8
1
10
8.850952
20
7.644043
0
VERTEX
8
1
10
8.891235
20
7.632446
0
VERTEX
8
1
10
8.937012
20
7.619141
0
VERTEX
8
1
10
8.987549
20
7.604370
0
VERTEX
8
1
10
9.041992
20
7.588501
0
VERTEX
8
1
10
9.099243
20
7.571777
0
VERTEX
8
1
10
9.158813
20
7.554443
0
VERTEX
8
1
10
9.219482
20
7.536621
0
VERTEX
8
1
10
9.280396
20
7.518799
0
VERTEX
8
1
10
9.340698
20
7.501221
0
VERTEX
8
1
10
9.399414
20
7.483887
0
VERTEX
8
1
10
9.455811
20
7.467407
0
VERTEX
8
1
10
9.508911
20
7.451782
0
VERTEX
8
1
10
9.557861
20
7.437500
0
VERTEX
8
1
10
9.601807
20
7.424561
0
VERTEX
8
1
10
9.639526
20
7.413330
0
VERTEX
8
1
10
9.670532
20
7.404419
0
VERTEX
8
1
10
9.693970
20
7.397461
0
VERTEX
8
1
10
9.708496
20
7.393188
0
VERTEX
8
1
10
9.713623
20
7.391724
0
SEQEND
0
POLYLINE
8
1
66
1
0
VERTEX
8
1
10
7.688232
20
2.946167
0
VERTEX
8
1
10
7.688232
20
2.590698
0
VERTEX
8
1
10
7.283447
20
2.432495
0
VERTEX
8
1
10
4.788574
20
2.452148
0
VERTEX
8
1
10
5.232910
20
2.585449
0
VERTEX
8
1
10
5.232910
20
3.052368
0
VERTEX
8
1
10
8.744873
20
3.119141
0
VERTEX
8
1
10
8.656006
20
6.297607
0
VERTEX
8
1
10
11.368286
20
6.428467
0
VERTEX
8
1
10
11.427612
20
5.183838
0
VERTEX
8
1
10
11.309082
20
5.139404
0
VERTEX
8
1
10
11.432739
20
2.155884
0
VERTEX
8
1
10
11.323853
20
2.096680
0
VERTEX
8
1
10
7.303101
20
2.047363
0
VERTEX
8
1
10
7.698242
20
2.225098
0
VERTEX
8
1
10
7.698242
20
2.323730
0
SEQEND
0
POLYLINE
8
1
66
1
0
VERTEX
8
1
10
8.597412
20
1.938477
0
VERTEX
8
1
10
7.303101
20
1.928467
0
VERTEX
8
1
10
7.303101
20
1.414917
0
SEQEND
0
LINE
8
1
10
11.131348
20
5.183838
11
8.834473
21
5.124512
0
POLYLINE
8
1
66
1
0
VERTEX
8
1
10
11.175781
20
7.065796
0
VERTEX
8
1
10
11.175781
20
7.063354
0
VERTEX
8
1
10
11.175781
20
7.056152
0
VERTEX
8
1
10
11.175781
20
7.044800
0
VERTEX
8
1
10
11.175781
20
7.029541
0
VERTEX
8
1
10
11.175781
20
7.010986
0
VERTEX
8
1
10
11.175781
20
6.989502
0
VERTEX
8
1
10
11.175781
20
6.965454
0
VERTEX
8
1
10
11.175781
20
6.939331
0
VERTEX
8
1
10
11.175781
20
6.911499
0
VERTEX
8
1
10
11.175903
20
6.882568
0
VERTEX
8
1
10
11.175781
20
6.852783
0
VERTEX
8
1
10
11.175781
20
6.822754
0
VERTEX
8
1
10
11.175781
20
6.792725
0
VERTEX
8
1
10
11.175781
20
6.763306
0
VERTEX
8
1
10
11.175903
20
6.734741
0
VERTEX
8
1
10
11.175781
20
6.707520
0
VERTEX
8
1
10
11.175659
20
6.682251
0
VERTEX
8
1
10
11.175781
20
6.659180
0
VERTEX
8
1
10
11.175781
20
6.638794
0
VERTEX
8
1
10
11.175659
20
6.621460
0
VERTEX
8
1
10
11.175781
20
6.607788
0
VERTEX
8
1
10
11.175781
20
6.598022
0
VERTEX
8
1
10
11.175781
20
6.592651
0
VERTEX
8
1
10
11.173706
20
6.591675
0
VERTEX
8
1
10
11.150879
20
6.590942
0
VERTEX
8
1
10
11.104614
20
6.589233
0
VERTEX
8
1
10
11.037354
20
6.586792
0
VERTEX
8
1
10
10.951172
20
6.583740
0
VERTEX
8
1
10
10.848389
20
6.579956
0
VERTEX
8
1
10
10.731079
20
6.575684
0
VERTEX
8
1
10
10.601807
20
6.571045
0
VERTEX
8
1
10
10.462646
20
6.566040
0
VERTEX
8
1
10
10.315918
20
6.560669
0
VERTEX
8
1
10
10.163696
20
6.555298
0
VERTEX
8
1
10
10.008301
20
6.549561
0
VERTEX
8
1
10
9.852173
20
6.543945
0
VERTEX
8
1
10
9.697266
20
6.538330
0
VERTEX
8
1
10
9.545898
20
6.532959
0
VERTEX
8
1
10
9.400391
20
6.527588
0
VERTEX
8
1
10
9.263062
20
6.522705
0
VERTEX
8
1
10
9.136108
20
6.518066
0
VERTEX
8
1
10
9.021484
20
6.513916
0
VERTEX
8
1
10
8.921997
20
6.510254
0
VERTEX
8
1
10
8.839233
20
6.507446
0
VERTEX
8
1
10
8.776001
20
6.505127
0
VERTEX
8
1
10
8.734253
20
6.503540
0
VERTEX
8
1
10
8.716553
20
6.502808
0
VERTEX
8
1
10
8.715942
20
6.505005
0
VERTEX
8
1
10
8.715942
20
6.513184
0
VERTEX
8
1
10
8.715942
20
6.527100
0
VERTEX
8
1
10
8.715942
20
6.546143
0
VERTEX
8
1
10
8.715942
20
6.569702
0
VERTEX
8
1
10
8.715942
20
6.597290
0
VERTEX
8
1
10
8.715942
20
6.628174
0
VERTEX
8
1
10
8.715942
20
6.661865
0
VERTEX
8
1
10
8.715942
20
6.697998
0
VERTEX
8
1
10
8.715942
20
6.735718
0
VERTEX
8
1
10
8.715942
20
6.774536
0
VERTEX
8
1
10
8.715820
20
6.814087
0
VERTEX
8
1
10
8.715942
20
6.853516
0
VERTEX
8
1
10
8.715942
20
6.892334
0
VERTEX
8
1
10
8.715942
20
6.930176
0
VERTEX
8
1
10
8.715942
20
6.966187
0
VERTEX
8
1
10
8.716064
20
7.000000
0
VERTEX
8
1
10
8.715942
20
7.030884
0
VERTEX
8
1
10
8.715942
20
7.058472
0
VERTEX
8
1
10
8.716064
20
7.082031
0
VERTEX
8
1
10
8.715820
20
7.100952
0
VERTEX
8
1
10
8.715942
20
7.114868
0
VERTEX
8
1
10
8.715942
20
7.123047
0
VERTEX
8
1
10
8.715942
20
7.125122
0
VERTEX
8
1
10
8.714966
20
7.125244
0
VERTEX
8
1
10
8.712646
20
7.125488
0
VERTEX
8
1
10
8.709229
20
7.125854
0
VERTEX
8
1
10
8.704834
20
7.126343
0
VERTEX
8
1
10
8.699341
20
7.126953
0
VERTEX
8
1
10
8.693237
20
7.127686
0
VERTEX
8
1
10
8.686279
20
7.128418
0
VERTEX
8
1
10
8.678833
20
7.129272
0
VERTEX
8
1
10
8.670898
20
7.130127
0
VERTEX
8
1
10
8.662842
20
7.130981
0
VERTEX
8
1
10
8.654419
20
7.131958
0
VERTEX
8
1
10
8.645874
20
7.132813
0
VERTEX
8
1
10
8.637451
20
7.133789
0
VERTEX
8
1
10
8.629395
20
7.134766
0
VERTEX
8
1
10
8.621338
20
7.135620
0
VERTEX
8
1
10
8.613770
20
7.136475
0
VERTEX
8
1
10
8.606689
20
7.137207
0
VERTEX
8
1
10
8.600464
20
7.138062
0
VERTEX
8
1
10
8.594849
20
7.138550
0
VERTEX
8
1
10
8.590088
20
7.139038
0
VERTEX
8
1
10
8.586426
20
7.139404
0
VERTEX
8
1
10
8.583984
20
7.139771
0
VERTEX
8
1
10
8.582642
20
7.140015
0
VERTEX
8
1
10
8.582642
20
7.138428
0
VERTEX
8
1
10
8.582275
20
7.129395
0
VERTEX
8
1
10
8.581665
20
7.112915
0
VERTEX
8
1
10
8.580811
20
7.089722
0
VERTEX
8
1
10
8.579712
20
7.060547
0
VERTEX
8
1
10
8.578369
20
7.026123
0
VERTEX
8
1
10
8.577026
20
6.987183
0
VERTEX
8
1
10
8.575439
20
6.944458
0
VERTEX
8
1
10
8.573730
20
6.898560
0
VERTEX
8
1
10
8.571899
20
6.850342
0
VERTEX
8
1
10
8.570068
20
6.800537
0
VERTEX
8
1
10
8.568115
20
6.749878
0
VERTEX
8
1
10
8.566406
20
6.699097
0
VERTEX
8
1
10
8.564453
20
6.648926
0
VERTEX
8
1
10
8.562622
20
6.599976
0
VERTEX
8
1
10
8.560791
20
6.553101
0
VERTEX
8
1
10
8.559204
20
6.509033
0
VERTEX
8
1
10
8.557739
20
6.468506
0
VERTEX
8
1
10
8.556396
20
6.432129
0
VERTEX
8
1
10
8.555298
20
6.400757
0
VERTEX
8
1
10
8.554321
20
6.375122
0
VERTEX
8
1
10
8.553711
20
6.355835
0
VERTEX
8
1
10
8.553101
20
6.343872
0
VERTEX
8
1
10
8.552979
20
6.339600
0
VERTEX
8
1
10
8.553101
20
6.337524
0
VERTEX
8
1
10
8.553345
20
6.331421
0
VERTEX
8
1
10
8.553711
20
6.321655
0
VERTEX
8
1
10
8.554199
20
6.308594
0
VERTEX
8
1
10
8.554932
20
6.292603
0
VERTEX
8
1
10
8.555786
20
6.273804
0
VERTEX
8
1
10
8.556641
20
6.252686
0
VERTEX
8
1
10
8.557739
20
6.229614
0
VERTEX
8
1
10
8.559082
20
6.204712
0
VERTEX
8
1
10
8.560303
20
6.178467
0
VERTEX
8
1
10
8.561768
20
6.151123
0
VERTEX
8
1
10
8.563477
20
6.123169
0
VERTEX
8
1
10
8.565186
20
6.094849
0
VERTEX
8
1
10
8.567017
20
6.066406
0
VERTEX
8
1
10
8.568970
20
6.038086
0
VERTEX
8
1
10
8.570923
20
6.010376
0
VERTEX
8
1
10
8.573242
20
5.983643
0
VERTEX
8
1
10
8.575195
20
5.958130
0
VERTEX
8
1
10
8.577637
20
5.934082
0
VERTEX
8
1
10
8.580078
20
5.912109
0
VERTEX
8
1
10
8.582520
20
5.892212
0
VERTEX
8
1
10
8.585083
20
5.874756
0
VERTEX
8
1
10
8.587769
20
5.860474
0
VERTEX
8
1
10
8.588379
20
5.849731
0
VERTEX
8
1
10
8.585449
20
5.841064
0
VERTEX
8
1
10
8.582642
20
5.832153
0
VERTEX
8
1
10
8.579956
20
5.823242
0
VERTEX
8
1
10
8.577148
20
5.814209
0
VERTEX
8
1
10
8.574463
20
5.805176
0
VERTEX
8
1
10
8.571777
20
5.796143
0
VERTEX
8
1
10
8.569214
20
5.787231
0
VERTEX
8
1
10
8.566650
20
5.778442
0
VERTEX
8
1
10
8.564331
20
5.769897
0
VERTEX
8
1
10
8.561890
20
5.761475
0
VERTEX
8
1
10
8.559814
20
5.753418
0
VERTEX
8
1
10
8.557739
20
5.745728
0
VERTEX
8
1
10
8.555786
20
5.738403
0
VERTEX
8
1
10
8.553711
20
5.731445
0
VERTEX
8
1
10
8.552246
20
5.725098
0
VERTEX
8
1
10
8.550537
20
5.719238
0
VERTEX
8
1
10
8.549194
20
5.713989
0
VERTEX
8
1
10
8.548096
20
5.709351
0
VERTEX
8
1
10
8.546997
20
5.705200
0
VERTEX
8
1
10
8.546387
20
5.702026
0
VERTEX
8
1
10
8.545532
20
5.699707
0
VERTEX
8
1
10
8.545166
20
5.698242
0
VERTEX
8
1
10
8.545044
20
5.697510
0
VERTEX
8
1
10
8.545288
20
5.691162
0
VERTEX
8
1
10
8.546143
20
5.666382
0
VERTEX
8
1
10
8.547607
20
5.624390
0
VERTEX
8
1
10
8.549683
20
5.566528
0
VERTEX
8
1
10
8.552124
20
5.494507
0
VERTEX
8
1
10
8.555176
20
5.410034
0
VERTEX
8
1
10
8.558472
20
5.314331
0
VERTEX
8
1
10
8.562012
20
5.209229
0
VERTEX
8
1
10
8.565796
20
5.096191
0
VERTEX
8
1
10
8.569946
20
4.976685
0
VERTEX
8
1
10
8.574097
20
4.852417
0
VERTEX
8
1
10
8.578247
20
4.724976
0
VERTEX
8
1
10
8.582520
20
4.595825
0
VERTEX
8
1
10
8.586670
20
4.466553
0
VERTEX
8
1
10
8.590698
20
4.338745
0
VERTEX
8
1
10
8.594604
20
4.213867
0
VERTEX
8
1
10
8.598267
20
4.093872
0
VERTEX
8
1
10
8.601563
20
3.979736
0
VERTEX
8
1
10
8.604492
20
3.873291
0
VERTEX
8
1
10
8.607056
20
3.776245
0
VERTEX
8
1
10
8.608887
20
3.689819
0
VERTEX
8
1
10
8.610474
20
3.615967
0
VERTEX
8
1
10
8.611328
20
3.556030
0
VERTEX
8
1
10
8.610962
20
3.511353
0
VERTEX
8
1
10
8.604736
20
3.474121
0
VERTEX
8
1
10
8.593994
20
3.440063
0
VERTEX
8
1
10
8.579224
20
3.408936
0
VERTEX
8
1
10
8.560791
20
3.380859
0
VERTEX
8
1
10
8.539185
20
3.355469
0
VERTEX
8
1
10
8.514893
20
3.332764
0
VERTEX
8
1
10
8.488159
20
3.312378
0
VERTEX
8
1
10
8.459595
20
3.294434
0
VERTEX
8
1
10
8.429443
20
3.278687
0
VERTEX
8
1
10
8.398438
20
3.265015
0
VERTEX
8
1
10
8.366699
20
3.253052
0
VERTEX
8
1
10
8.334961
20
3.243164
0
VERTEX
8
1
10
8.303467
20
3.234619
0
VERTEX
8
1
10
8.272705
20
3.227661
0
VERTEX
8
1
10
8.243042
20
3.222046
0
VERTEX
8
1
10
8.215088
20
3.217529
0
VERTEX
8
1
10
8.189209
20
3.214233
0
VERTEX
8
1
10
8.165649
20
3.211792
0
VERTEX
8
1
10
8.145142
20
3.209961
0
VERTEX
8
1
10
8.128052
20
3.208984
0
VERTEX
8
1
10
8.114502
20
3.208374
0
VERTEX
8
1
10
8.105225
20
3.208130
0
VERTEX
8
1
10
8.100708
20
3.208008
0
VERTEX
8
1
10
8.094849
20
3.208008
0
VERTEX
8
1
10
8.062622
20
3.207764
0
VERTEX
8
1
10
8.003662
20
3.207275
0
VERTEX
8
1
10
7.920532
20
3.206665
0
VERTEX
8
1
10
7.816040
20
3.205811
0
VERTEX
8
1
10
7.692627
20
3.204834
0
VERTEX
8
1
10
7.553101
20
3.203735
0
VERTEX
8
1
10
7.399780
20
3.202515
0
VERTEX
8
1
10
7.235596
20
3.201294
0
VERTEX
8
1
10
7.062988
20
3.199951
0
VERTEX
8
1
10
6.884644
20
3.198486
0
VERTEX
8
1
10
6.703003
20
3.197144
0
VERTEX
8
1
10
6.520996
20
3.195679
0
VERTEX
8
1
10
6.341064
20
3.194336
0
VERTEX
8
1
10
6.166016
20
3.192871
0
VERTEX
8
1
10
5.998047
20
3.191528
0
VERTEX
8
1
10
5.840088
20
3.190430
0
VERTEX
8
1
10
5.694702
20
3.189331
0
VERTEX
8
1
10
5.564453
20
3.188232
0
VERTEX
8
1
10
5.452148
20
3.187378
0
VERTEX
8
1
10
5.360107
20
3.186646
0
VERTEX
8
1
10
5.291138
20
3.186035
0
VERTEX
8
1
10
5.247925
20
3.185791
0
VERTEX
8
1
10
5.232910
20
3.185669
0
SEQEND
0
POLYLINE
8
1
66
1
0
VERTEX
8
1
10
11.412109
20
7.186768
0
VERTEX
8
1
10
11.412109
20
6.830933
0
VERTEX
8
1
10
22.570068
20
7.386597
0
SEQEND
0
LINE
8
1
10
22.459106
20
8.209229
11
11.567749
21
7.675659
0
LINE
8
1
10
21.547241
20
8.652344
11
20.014526
21
8.588257
0
LINE
8
1
10
21.044922
20
9.051636
11
20.274658
21
9.031982
0
POLYLINE
8
1
66
1
0
VERTEX
8
1
10
20.452393
20
2.219971
0
VERTEX
8
1
10
20.393066
20
4.324219
0
VERTEX
8
1
10
15.665771
20
4.161255
0
VERTEX
8
1
10
15.739868
20
2.175537
0
SEQEND
0
POLYLINE
8
1
66
1
0
VERTEX
8
1
10
24.058350
20
2.155884
0
VERTEX
8
1
10
23.070313
20
2.136230
0
VERTEX
8
1
10
23.030640
20
2.590698
0
SEQEND
0
POLYLINE
8
1
66
1
70
1
0
VERTEX
8
1
10
22.111816
20
9.160156
0
VERTEX
8
1
10
22.220703
20
9.170166
0
VERTEX
8
1
10
22.210693
20
8.676147
0
VERTEX
8
1
10
22.121826
20
8.676147
0
SEQEND
0
LINE
8
1
10
23.979126
20
5.119751
11
23.969482
21
5.692627
0
POLYLINE
8
1
66
1
0
VERTEX
8
1
10
5.021118
20
3.943848
0
VERTEX
8
1
10
5.019531
20
4.045044
0
VERTEX
8
1
10
5.018677
20
4.144165
0
VERTEX
8
1
10
5.018555
20
4.241211
0
VERTEX
8
1
10
5.019165
20
4.335815
0
VERTEX
8
1
10
5.020386
20
4.428101
0
VERTEX
8
1
10
5.022217
20
4.517700
0
VERTEX
8
1
10
5.024536
20
4.604858
0
VERTEX
8
1
10
5.027344
20
4.689331
0
VERTEX
8
1
10
5.030518
20
4.770874
0
VERTEX
8
1
10
5.034058
20
4.849487
0
VERTEX
8
1
10
5.037964
20
4.925049
0
VERTEX
8
1
10
5.042114
20
4.997559
0
VERTEX
8
1
10
5.046387
20
5.066772
0
VERTEX
8
1
10
5.050903
20
5.132568
0
VERTEX
8
1
10
5.055420
20
5.194824
0
VERTEX
8
1
10
5.060059
20
5.253662
0
VERTEX
8
1
10
5.064697
20
5.308716
0
VERTEX
8
1
10
5.069336
20
5.360107
0
VERTEX
8
1
10
5.073730
20
5.407471
0
VERTEX
8
1
10
5.077881
20
5.450806
0
VERTEX
8
1
10
5.082153
20
5.489990
0
VERTEX
8
1
10
5.085815
20
5.525024
0
VERTEX
8
1
10
5.089233
20
5.555786
0
VERTEX
8
1
10
5.092285
20
5.582153
0
VERTEX
8
1
10
5.094971
20
5.603882
0
VERTEX
8
1
10
5.097168
20
5.620850
0
VERTEX
8
1
10
5.098755
20
5.633301
0
VERTEX
8
1
10
5.099731
20
5.640869
0
VERTEX
8
1
10
5.099976
20
5.643311
0
SEQEND
0
POLYLINE
8
1
66
1
0
VERTEX
8
1
10
2.707031
20
2.750122
0
VERTEX
8
1
10
2.657104
20
2.744263
0
VERTEX
8
1
10
2.608154
20
2.735474
0
VERTEX
8
1
10
2.560181
20
2.723999
0
VERTEX
8
1
10
2.513184
20
2.709961
0
VERTEX
8
1
10
2.467407
20
2.693237
0
VERTEX
8
1
10
2.422852
20
2.674072
0
VERTEX
8
1
10
2.379517
20
2.652588
0
VERTEX
8
1
10
2.337646
20
2.628784
0
VERTEX
8
1
10
2.297241
20
2.602661
0
VERTEX
8
1
10
2.258423
20
2.574463
0
VERTEX
8
1
10
2.221191
20
2.544189
0
VERTEX
8
1
10
2.185669
20
2.511841
0
VERTEX
8
1
10
2.151978
20
2.477661
0
VERTEX
8
1
10
2.119995
20
2.441650
0
VERTEX
8
1
10
2.090332
20
2.403809
0
VERTEX
8
1
10
2.062500
20
2.364502
0
VERTEX
8
1
10
2.036743
20
2.323608
0
VERTEX
8
1
10
2.013062
20
2.281128
0
VERTEX
8
1
10
1.992065
20
2.237305
0
VERTEX
8
1
10
1.973145
20
2.192261
0
VERTEX
8
1
10
1.956665
20
2.145874
0
VERTEX
8
1
10
1.942871
20
2.098145
0
VERTEX
8
1
10
1.931519
20
2.049683
0
VERTEX
8
1
10
1.923096
20
2.000000
0
VERTEX
8
1
10
1.917114
20
1.949341
0
VERTEX
8
1
10
1.914307
20
1.897949
0
VERTEX
8
1
10
1.914307
20
1.846558
0
VERTEX
8
1
10
1.917114
20
1.795898
0
VERTEX
8
1
10
1.922729
20
1.746216
0
VERTEX
8
1
10
1.931030
20
1.697266
0
VERTEX
8
1
10
1.941895
20
1.649292
0
VERTEX
8
1
10
1.955322
20
1.602417
0
VERTEX
8
1
10
1.971313
20
1.556641
0
VERTEX
8
1
10
1.989502
20
1.512085
0
VERTEX
8
1
10
2.010132
20
1.468872
0
VERTEX
8
1
10
2.032837
20
1.426880
0
VERTEX
8
1
10
2.057739
20
1.386353
0
VERTEX
8
1
10
2.084717
20
1.347168
0
VERTEX
8
1
10
2.113770
20
1.309814
0
VERTEX
8
1
10
2.144775
20
1.274048
0
VERTEX
8
1
10
2.177490
20
1.239990
0
VERTEX
8
1
10
2.211914
20
1.207886
0
VERTEX
8
1
10
2.248169
20
1.177490
0
VERTEX
8
1
10
2.285889
20
1.149170
0
VERTEX
8
1
10
2.325317
20
1.122925
0
VERTEX
8
1
10
2.365845
20
1.098755
0
VERTEX
8
1
10
2.408081
20
1.076782
0
VERTEX
8
1
10
2.451538
20
1.057129
0
VERTEX
8
1
10
2.496216
20
1.039917
0
VERTEX
8
1
10
2.541992
20
1.025024
0
VERTEX
8
1
10
2.588867
20
1.012695
0
VERTEX
8
1
10
2.636597
20
1.002930
0
VERTEX
8
1
10
2.685303
20
0.995972
0
SEQEND
0
POLYLINE
8
1
66
1
0
VERTEX
8
1
10
2.833130
20
0.991455
0
VERTEX
8
1
10
2.883667
20
0.995728
0
VERTEX
8
1
10
2.933228
20
1.002930
0
VERTEX
8
1
10
2.981934
20
1.012939
0
VERTEX
8
1
10
3.029663
20
1.025513
0
VERTEX
8
1
10
3.076172
20
1.040894
0
VERTEX
8
1
10
3.121704
20
1.058594
0
VERTEX
8
1
10
3.165771
20
1.078979
0
VERTEX
8
1
10
3.208496
20
1.101563
0
VERTEX
8
1
10
3.249878
20
1.126465
0
VERTEX
8
1
10
3.289673
20
1.153687
0
VERTEX
8
1
10
3.328003
20
1.182861
0
VERTEX
8
1
10
3.364502
20
1.214233
0
VERTEX
8
1
10
3.399170
20
1.247437
0
VERTEX
8
1
10
3.432129
20
1.282593
0
VERTEX
8
1
10
3.463257
20
1.319580
0
VERTEX
8
1
10
3.492188
20
1.358276
0
VERTEX
8
1
10
3.519043
20
1.398438
0
VERTEX
8
1
10
3.543823
20
1.440308
0
VERTEX
8
1
10
3.566284
20
1.483643
0
VERTEX
8
1
10
3.586548
20
1.528198
0
VERTEX
8
1
10
3.604248
20
1.574097
0
VERTEX
8
1
10
3.619385
20
1.621216
0
VERTEX
8
1
10
3.632080
20
1.669434
0
VERTEX
8
1
10
3.641846
20
1.718750
0
VERTEX
8
1
10
3.649292
20
1.769043
0
VERTEX
8
1
10
3.653687
20
1.820190
0
VERTEX
8
1
10
3.655151
20
1.872070
0
VERTEX
8
1
10
3.653687
20
1.923218
0
VERTEX
8
1
10
3.649536
20
1.973511
0
VERTEX
8
1
10
3.642456
20
2.022949
0
VERTEX
8
1
10
3.632813
20
2.071533
0
VERTEX
8
1
10
3.620483
20
2.119019
0
VERTEX
8
1
10
3.605835
20
2.165527
0
VERTEX
8
1
10
3.588623
20
2.210815
0
VERTEX
8
1
10
3.569092
20
2.254883
0
VERTEX
8
1
10
3.547241
20
2.297607
0
VERTEX
8
1
10
3.523315
20
2.338989
0
VERTEX
8
1
10
3.497192
20
2.378784
0
VERTEX
8
1
10
3.468994
20
2.417236
0
VERTEX
8
1
10
3.438843
20
2.453857
0
VERTEX
8
1
10
3.406860
20
2.488770
0
VERTEX
8
1
10
3.372925
20
2.521973
0
VERTEX
8
1
10
3.337402
20
2.553101
0
VERTEX
8
1
10
3.300293
20
2.582642
0
VERTEX
8
1
10
3.261475
20
2.609863
0
VERTEX
8
1
10
3.221191
20
2.635010
0
VERTEX
8
1
10
3.179565
20
2.658081
0
VERTEX
8
1
10
3.136597
20
2.678711
0
VERTEX
8
1
10
3.092163
20
2.697144
0
VERTEX
8
1
10
3.046875
20
2.713013
0
VERTEX
8
1
10
3.000366
20
2.726318
0
VERTEX
8
1
10
2.952759
20
2.737305
0
VERTEX
8
1
10
2.904175
20
2.745483
0
VERTEX
8
1
10
2.854858
20
2.750854
0
SEQEND
0
POLYLINE
8
1
66
1
0
VERTEX
8
1
10
3.840454
20
0.649414
0
VERTEX
8
1
10
3.884888
20
0.694458
0
VERTEX
8
1
10
3.926636
20
0.740356
0
VERTEX
8
1
10
3.965698
20
0.787231
0
VERTEX
8
1
10
4.002075
20
0.834839
0
VERTEX
8
1
10
4.035889
20
0.883057
0
VERTEX
8
1
10
4.067383
20
0.931763
0
VERTEX
8
1
10
4.096436
20
0.980835
0
VERTEX
8
1
10
4.123291
20
1.030396
0
VERTEX
8
1
10
4.147949
20
1.079956
0
VERTEX
8
1
10
4.170410
20
1.129517
0
VERTEX
8
1
10
4.191040
20
1.179077
0
VERTEX
8
1
10
4.209717
20
1.228394
0
VERTEX
8
1
10
4.226563
20
1.277344
0
VERTEX
8
1
10
4.241577
20
1.325928
0
VERTEX
8
1
10
4.255005
20
1.373901
0
VERTEX
8
1
10
4.266724
20
1.421265
0
VERTEX
8
1
10
4.277100
20
1.467773
0
VERTEX
8
1
10
4.286133
20
1.513428
0
VERTEX
8
1
10
4.293823
20
1.557983
0
VERTEX
8
1
10
4.300293
20
1.601318
0
VERTEX
8
1
10
4.305420
20
1.643555
0
VERTEX
8
1
10
4.309814
20
1.684204
0
VERTEX
8
1
10
4.312988
20
1.723389
0
VERTEX
8
1
10
4.315308
20
1.760986
0
VERTEX
8
1
10
4.317017
20
1.796875
0
VERTEX
8
1
10
4.317749
20
1.830811
0
VERTEX
8
1
10
4.318237
20
1.862671
0
VERTEX
8
1
10
4.317871
20
1.892578
0
VERTEX
8
1
10
4.317261
20
1.920166
0
VERTEX
8
1
10
4.316162
20
1.945313
0
VERTEX
8
1
10
4.314819
20
1.968140
0
VERTEX
8
1
10
4.307739
20
2.084473
0
VERTEX
8
1
10
4.295166
20
2.194458
0
VERTEX
8
1
10
4.277710
20
2.298340
0
VERTEX
8
1
10
4.255493
20
2.396240
0
VERTEX
8
1
10
4.229126
20
2.488281
0
VERTEX
8
1
10
4.198853
20
2.574707
0
VERTEX
8
1
10
4.165161
20
2.655762
0
VERTEX
8
1
10
4.128296
20
2.731445
0
VERTEX
8
1
10
4.088745
20
2.802002
0
VERTEX
8
1
10
4.046875
20
2.867676
0
VERTEX
8
1
10
4.003052
20
2.928467
0
VERTEX
8
1
10
3.957520
20
2.984741
0
VERTEX
8
1
10
3.911011
20
3.036499
0
VERTEX
8
1
10
3.863525
20
3.083984
0
VERTEX
8
1
10
3.815674
20
3.127319
0
VERTEX
8
1
10
3.767822
20
3.166870
0
VERTEX
8
1
10
3.720215
20
3.202393
0
VERTEX
8
1
10
3.673340
20
3.234619
0
VERTEX
8
1
10
3.627563
20
3.263062
0
VERTEX
8
1
10
3.583252
20
3.288574
0
VERTEX
8
1
10
3.540771
20
3.310913
0
VERTEX
8
1
10
3.500488
20
3.330200
0
VERTEX
8
1
10
3.463013
20
3.346802
0
VERTEX
8
1
10
3.428467
20
3.360718
0
VERTEX
8
1
10
3.397217
20
3.372437
0
VERTEX
8
1
10
3.369629
20
3.381592
0
VERTEX
8
1
10
3.346313
20
3.388916
0
VERTEX
8
1
10
3.327637
20
3.394409
0
VERTEX
8
1
10
3.313599
20
3.397949
0
VERTEX
8
1
10
3.304932
20
3.399902
0
VERTEX
8
1
10
3.302002
20
3.400635
0
SEQEND
0
POLYLINE
8
1
66
1
70
1
0
VERTEX
8
1
10
17.889893
20
1.657349
0
VERTEX
8
1
10
17.866333
20
1.658325
0
VERTEX
8
1
10
17.843018
20
1.661377
0
VERTEX
8
1
10
17.819946
20
1.666260
0
VERTEX
8
1
10
17.797363
20
1.673096
0
VERTEX
8
1
10
17.775391
20
1.681763
0
VERTEX
8
1
10
17.754272
20
1.692261
0
VERTEX
8
1
10
17.734009
20
1.704468
0
VERTEX
8
1
10
17.714844
20
1.718384
0
VERTEX
8
1
10
17.696899
20
1.733887
0
VERTEX
8
1
10
17.680298
20
1.750732
0
VERTEX
8
1
10
17.665039
20
1.769043
0
VERTEX
8
1
10
17.651367
20
1.788452
0
VERTEX
8
1
10
17.639282
20
1.809082
0
VERTEX
8
1
10
17.629028
20
1.830566
0
VERTEX
8
1
10
17.620361
20
1.852783
0
VERTEX
8
1
10
17.613647
20
1.875732
0
VERTEX
8
1
10
17.608887
20
1.899170
0
VERTEX
8
1
10
17.605957
20
1.922852
0
VERTEX
8
1
10
17.604980
20
1.946777
0
VERTEX
8
1
10
17.605957
20
1.970703
0
VERTEX
8
1
10
17.608887
20
1.994385
0
VERTEX
8
1
10
17.613647
20
2.017822
0
VERTEX
8
1
10
17.620361
20
2.040771
0
VERTEX
8
1
10
17.629028
20
2.062988
0
VERTEX
8
1
10
17.639282
20
2.084473
0
VERTEX
8
1
10
17.651367
20
2.105103
0
VERTEX
8
1
10
17.665039
20
2.124512
0
VERTEX
8
1
10
17.680298
20
2.142822
0
VERTEX
8
1
10
17.696899
20
2.159668
0
VERTEX
8
1
10
17.714844
20
2.175171
0
VERTEX
8
1
10
17.734009
20
2.189087
0
VERTEX
8
1
10
17.754272
20
2.201294
0
VERTEX
8
1
10
17.775391
20
2.211792
0
VERTEX
8
1
10
17.797363
20
2.220459
0
VERTEX
8
1
10
17.819946
20
2.227295
0
VERTEX
8
1
10
17.843018
20
2.232178
0
VERTEX
8
1
10
17.866333
20
2.235229
0
VERTEX
8
1
10
17.889893
20
2.236206
0
VERTEX
8
1
10
17.913452
20
2.235229
0
VERTEX
8
1
10
17.936768
20
2.232178
0
VERTEX
8
1
10
17.959839
20
2.227295
0
VERTEX
8
1
10
17.982422
20
2.220459
0
VERTEX
8
1
10
18.004395
20
2.211792
0
VERTEX
8
1
10
18.025513
20
2.201294
0
VERTEX
8
1
10
18.045776
20
2.189087
0
VERTEX
8
1
10
18.064941
20
2.175171
0
VERTEX
8
1
10
18.082886
20
2.159668
0
VERTEX
8
1
10
18.099487
20
2.142822
0
VERTEX
8
1
10
18.114746
20
2.124512
0
VERTEX
8
1
10
18.128418
20
2.105103
0
VERTEX
8
1
10
18.140503
20
2.084473
0
VERTEX
8
1
10
18.150757
20
2.062988
0
VERTEX
8
1
10
18.159424
20
2.040771
0
VERTEX
8
1
10
18.166138
20
2.017822
0
VERTEX
8
1
10
18.170898
20
1.994385
0
VERTEX
8
1
10
18.173828
20
1.970703
0
VERTEX
8
1
10
18.174805
20
1.946777
0
VERTEX
8
1
10
18.173828
20
1.922852
0
VERTEX
8
1
10
18.170898
20
1.899170
0
VERTEX
8
1
10
18.166138
20
1.875732
0
VERTEX
8
1
10
18.159424
20
1.852783
0
VERTEX
8
1
10
18.150757
20
1.830566
0
VERTEX
8
1
10
18.140503
20
1.809082
0
VERTEX
8
1
10
18.128418
20
1.788452
0
VERTEX
8
1
10
18.114746
20
1.769043
0
VERTEX
8
1
10
18.099487
20
1.750732
0
VERTEX
8
1
10
18.082886
20
1.733887
0
VERTEX
8
1
10
18.064941
20
1.718384
0
VERTEX
8
1
10
18.045776
20
1.704468
0
VERTEX
8
1
10
18.025513
20
1.692261
0
VERTEX
8
1
10
18.004395
20
1.681763
0
VERTEX
8
1
10
17.982422
20
1.673096
0
VERTEX
8
1
10
17.959839
20
1.666260
0
VERTEX
8
1
10
17.936768
20
1.661377
0
VERTEX
8
1
10
17.913452
20
1.658325
0
SEQEND
0
POLYLINE
8
1
66
1
0
VERTEX
8
1
10
17.821289
20
2.991699
0
VERTEX
8
1
10
17.768066
20
2.985474
0
VERTEX
8
1
10
17.715820
20
2.976563
0
VERTEX
8
1
10
17.664429
20
2.965088
0
VERTEX
8
1
10
17.614014
20
2.950928
0
VERTEX
8
1
10
17.564819
20
2.934204
0
VERTEX
8
1
10
17.516724
20
2.915039
0
VERTEX
8
1
10
17.469849
20
2.893555
0
VERTEX
8
1
10
17.424194
20
2.869751
0
VERTEX
8
1
10
17.380005
20
2.843750
0
VERTEX
8
1
10
17.337280
20
2.815430
0
VERTEX
8
1
10
17.296021
20
2.785278
0
VERTEX
8
1
10
17.256470
20
2.752930
0
VERTEX
8
1
10
17.218506
20
2.718750
0
VERTEX
8
1
10
17.182373
20
2.682617
0
VERTEX
8
1
10
17.147949
20
2.644897
0
VERTEX
8
1
10
17.115356
20
2.605225
0
VERTEX
8
1
10
17.084717
20
2.564087
0
VERTEX
8
1
10
17.056274
20
2.521240
0
VERTEX
8
1
10
17.029785
20
2.476929
0
VERTEX
8
1
10
17.005493
20
2.431274
0
VERTEX
8
1
10
16.983521
20
2.384277
0
VERTEX
8
1
10
16.963867
20
2.336060
0
VERTEX
8
1
10
16.946655
20
2.286499
0
VERTEX
8
1
10
16.931641
20
2.235840
0
VERTEX
8
1
10
16.919434
20
2.184204
0
VERTEX
8
1
10
16.909546
20
2.131592
0
VERTEX
8
1
10
16.902710
20
2.078003
0
VERTEX
8
1
10
16.898315
20
2.023682
0
VERTEX
8
1
10
16.896973
20
1.968506
0
VERTEX
8
1
10
16.898315
20
1.914307
0
VERTEX
8
1
10
16.902466
20
1.860718
0
VERTEX
8
1
10
16.909302
20
1.807983
0
VERTEX
8
1
10
16.918701
20
1.756104
0
VERTEX
8
1
10
16.930542
20
1.705200
0
VERTEX
8
1
10
16.944946
20
1.655396
0
VERTEX
8
1
10
16.961792
20
1.606567
0
VERTEX
8
1
10
16.980835
20
1.558838
0
VERTEX
8
1
10
17.002197
20
1.512451
0
VERTEX
8
1
10
17.025757
20
1.467285
0
VERTEX
8
1
10
17.051514
20
1.423462
0
VERTEX
8
1
10
17.079102
20
1.381104
0
VERTEX
8
1
10
17.108765
20
1.340332
0
VERTEX
8
1
10
17.140259
20
1.301025
0
VERTEX
8
1
10
17.173706
20
1.263428
0
VERTEX
8
1
10
17.208862
20
1.227539
0
VERTEX
8
1
10
17.245850
20
1.193359
0
VERTEX
8
1
10
17.284302
20
1.161133
0
VERTEX
8
1
10
17.324341
20
1.130615
0
VERTEX
8
1
10
17.365967
20
1.102295
0
VERTEX
8
1
10
17.408936
20
1.075928
0
VERTEX
8
1
10
17.453247
20
1.051758
0
VERTEX
8
1
10
17.498901
20
1.029663
0
VERTEX
8
1
10
17.545776
20
1.010132
0
VERTEX
8
1
10
17.593872
20
0.992554
0
VERTEX
8
1
10
17.642944
20
0.977539
0
VERTEX
8
1
10
17.692871
20
0.965088
0
VERTEX
8
1
10
17.744019
20
0.955078
0
VERTEX
8
1
10
17.795898
20
0.947754
0
SEQEND
0
POLYLINE
8
1
66
1
0
VERTEX
8
1
10
17.968140
20
0.942505
0
VERTEX
8
1
10
18.022949
20
0.947021
0
VERTEX
8
1
10
18.076904
20
0.954468
0
VERTEX
8
1
10
18.130005
20
0.964844
0
VERTEX
8
1
10
18.182007
20
0.977783
0
VERTEX
8
1
10
18.232788
20
0.993530
0
VERTEX
8
1
10
18.282593
20
1.011841
0
VERTEX
8
1
10
18.331177
20
1.032593
0
VERTEX
8
1
10
18.378296
20
1.055908
0
VERTEX
8
1
10
18.424072
20
1.081543
0
VERTEX
8
1
10
18.468262
20
1.109375
0
VERTEX
8
1
10
18.511108
20
1.139404
0
VERTEX
8
1
10
18.552124
20
1.171631
0
VERTEX
8
1
10
18.591553
20
1.205933
0
VERTEX
8
1
10
18.629150
20
1.242065
0
VERTEX
8
1
10
18.664917
20
1.280273
0
VERTEX
8
1
10
18.698608
20
1.320068
0
VERTEX
8
1
10
18.730469
20
1.361816
0
VERTEX
8
1
10
18.760132
20
1.405151
0
VERTEX
8
1
10
18.787598
20
1.450073
0
VERTEX
8
1
10
18.812744
20
1.496338
0
VERTEX
8
1
10
18.835693
20
1.544189
0
VERTEX
8
1
10
18.856201
20
1.593384
0
VERTEX
8
1
10
18.874146
20
1.643799
0
VERTEX
8
1
10
18.889771
20
1.695435
0
VERTEX
8
1
10
18.902588
20
1.748047
0
VERTEX
8
1
10
18.912720
20
1.801758
0
VERTEX
8
1
10
18.920044
20
1.856567
0
VERTEX
8
1
10
18.924316
20
1.912109
0
VERTEX
8
1
10
18.925903
20
1.968506
0
VERTEX
8
1
10
18.924438
20
2.023926
0
VERTEX
8
1
10
18.920166
20
2.078613
0
VERTEX
8
1
10
18.913086
20
2.132446
0
VERTEX
8
1
10
18.903320
20
2.185425
0
VERTEX
8
1
10
18.890869
20
2.237305
0
VERTEX
8
1
10
18.875854
20
2.288208
0
VERTEX
8
1
10
18.858398
20
2.337891
0
VERTEX
8
1
10
18.838501
20
2.386353
0
VERTEX
8
1
10
18.816284
20
2.433594
0
VERTEX
8
1
10
18.791748
20
2.479492
0
VERTEX
8
1
10
18.765137
20
2.523926
0
VERTEX
8
1
10
18.736328
20
2.566772
0
VERTEX
8
1
10
18.705444
20
2.608154
0
VERTEX
8
1
10
18.672485
20
2.647827
0
VERTEX
8
1
10
18.637939
20
2.685669
0
VERTEX
8
1
10
18.601318
20
2.721802
0
VERTEX
8
1
10
18.562988
20
2.755981
0
VERTEX
8
1
10
18.523071
20
2.788330
0
VERTEX
8
1
10
18.481445
20
2.818481
0
VERTEX
8
1
10
18.438354
20
2.846680
0
VERTEX
8
1
10
18.393921
20
2.872437
0
VERTEX
8
1
10
18.347900
20
2.896118
0
VERTEX
8
1
10
18.300537
20
2.917603
0
VERTEX
8
1
10
18.252197
20
2.936523
0
VERTEX
8
1
10
18.202515
20
2.952759
0
VERTEX
8
1
10
18.151733
20
2.966675
0
VERTEX
8
1
10
18.099976
20
2.978027
0
VERTEX
8
1
10
18.047241
20
2.986450
0
VERTEX
8
1
10
17.993652
20
2.992310
0
SEQEND
0
LINE
8
1
10
9.264038
20
6.873291
11
9.056641
21
6.976929
0
LINE
8
1
10
9.249268
20
6.665894
11
9.041870
21
6.784424
0
LINE
8
1
10
9.575562
20
6.976929
11
9.397339
21
6.962158
0
LINE
8
1
10
9.634766
20
6.888062
11
9.412231
21
6.680664
0
LINE
8
1
10
9.916260
20
6.932495
11
9.753296
21
7.006592
0
LINE
8
1
10
10.568359
20
6.888062
11
10.301392
21
6.962158
0
LINE
8
1
10
10.879517
20
7.036255
11
10.582886
21
7.051025
0
LINE
8
1
10
10.568359
20
6.739990
11
10.923950
21
6.858398
0
LINE
8
1
10
9.960693
20
6.725098
11
9.693970
21
6.799194
0
LINE
8
1
10
9.061157
20
6.684814
11
8.785522
21
6.661743
0
LINE
8
1
10
9.031494
20
6.877441
11
8.755615
21
6.854370
0
LINE
8
1
10
10.172485
20
7.144043
11
9.896973
21
7.120972
0
LINE
8
1
10
11.106201
20
6.684814
11
10.830200
21
6.661743
0
POLYLINE
8
1
66
1
70
1
0
VERTEX
8
1
10
6.858765
20
7.372070
0
VERTEX
8
1
10
6.862915
20
7.370850
0
VERTEX
8
1
10
6.874756
20
7.367554
0
VERTEX
8
1
10
6.893433
20
7.362183
0
VERTEX
8
1
10
6.918091
20
7.354858
0
VERTEX
8
1
10
6.947998
20
7.346069
0
VERTEX
8
1
10
6.982178
20
7.335815
0
VERTEX
8
1
10
7.019653
20
7.324341
0
VERTEX
8
1
10
7.059692
20
7.311890
0
VERTEX
8
1
10
7.101685
20
7.298706
0
VERTEX
8
1
10
7.144287
20
7.284912
0
VERTEX
8
1
10
7.187012
20
7.270508
0
VERTEX
8
1
10
7.228882
20
7.255981
0
VERTEX
8
1
10
7.268921
20
7.241455
0
VERTEX
8
1
10
7.306641
20
7.227173
0
VERTEX
8
1
10
7.340820
20
7.213257
0
VERTEX
8
1
10
7.370605
20
7.199829
0
VERTEX
8
1
10
7.395874
20
7.187012
0
VERTEX
8
1
10
7.417236
20
7.173706
0
VERTEX
8
1
10
7.435547
20
7.159790
0
VERTEX
8
1
10
7.450684
20
7.145508
0
VERTEX
8
1
10
7.463257
20
7.130737
0
VERTEX
8
1
10
7.473389
20
7.115601
0
VERTEX
8
1
10
7.481445
20
7.100220
0
VERTEX
8
1
10
7.487671
20
7.084473
0
VERTEX
8
1
10
7.492310
20
7.068848
0
VERTEX
8
1
10
7.495972
20
7.052979
0
VERTEX
8
1
10
7.498291
20
7.037109
0
VERTEX
8
1
10
7.500366
20
7.021240
0
VERTEX
8
1
10
7.502075
20
7.005493
0
VERTEX
8
1
10
7.503540
20
6.990112
0
VERTEX
8
1
10
7.505371
20
6.974854
0
VERTEX
8
1
10
7.507813
20
6.960083
0
VERTEX
8
1
10
7.510742
20
6.945923
0
VERTEX
8
1
10
7.511841
20
6.925903
0
VERTEX
8
1
10
7.512085
20
6.890381
0
VERTEX
8
1
10
7.511353
20
6.841797
0
VERTEX
8
1
10
7.510010
20
6.782349
0
VERTEX
8
1
10
7.508057
20
6.714111
0
VERTEX
8
1
10
7.505615
20
6.639526
0
VERTEX
8
1
10
7.502686
20
6.560913
0
VERTEX
8
1
10
7.499634
20
6.480225
0
VERTEX
8
1
10
7.496460
20
6.400024
0
VERTEX
8
1
10
7.493286
20
6.322510
0
VERTEX
8
1
10
7.490234
20
6.249878
0
VERTEX
8
1
10
7.487427
20
6.184326
0
VERTEX
8
1
10
7.484863
20
6.128418
0
VERTEX
8
1
10
7.483032
20
6.083984
0
VERTEX
8
1
10
7.481445
20
6.053589
0
VERTEX
8
1
10
7.480835
20
6.039307
0
VERTEX
8
1
10
7.478516
20
6.038818
0
VERTEX
8
1
10
7.467896
20
6.040039
0
VERTEX
8
1
10
7.449707
20
6.042236
0
VERTEX
8
1
10
7.425171
20
6.044922
0
VERTEX
8
1
10
7.395264
20
6.048462
0
VERTEX
8
1
10
7.361206
20
6.052246
0
VERTEX
8
1
10
7.323975
20
6.056519
0
VERTEX
8
1
10
7.284790
20
6.060913
0
VERTEX
8
1
10
7.244751
20
6.065430
0
VERTEX
8
1
10
7.204712
20
6.069824
0
VERTEX
8
1
10
7.166382
20
6.073975
0
VERTEX
8
1
10
7.130249
20
6.078003
0
VERTEX
8
1
10
7.097778
20
6.081299
0
VERTEX
8
1
10
7.069824
20
6.084106
0
VERTEX
8
1
10
7.047607
20
6.086304
0
VERTEX
8
1
10
7.032593
20
6.087524
0
VERTEX
8
1
10
7.026489
20
6.087769
0
VERTEX
8
1
10
7.026611
20
6.088867
0
VERTEX
8
1
10
7.026978
20
6.091187
0
VERTEX
8
1
10
7.027466
20
6.094849
0
VERTEX
8
1
10
7.027954
20
6.099731
0
VERTEX
8
1
10
7.028687
20
6.105835
0
VERTEX
8
1
10
7.029175
20
6.113281
0
VERTEX
8
1
10
7.029785
20
6.121826
0
VERTEX
8
1
10
7.030273
20
6.131714
0
VERTEX
8
1
10
7.030640
20
6.142944
0
VERTEX
8
1
10
7.030884
20
6.155029
0
VERTEX
8
1
10
7.030884
20
6.168579
0
VERTEX
8
1
10
7.030640
20
6.183105
0
VERTEX
8
1
10
7.030029
20
6.198975
0
VERTEX
8
1
10
7.029419
20
6.215942
0
VERTEX
8
1
10
7.028320
20
6.234009
0
VERTEX
8
1
10
7.026733
20
6.253174
0
VERTEX
8
1
10
7.022461
20
6.280762
0
VERTEX
8
1
10
7.015625
20
6.306274
0
VERTEX
8
1
10
7.006836
20
6.328247
0
VERTEX
8
1
10
6.996338
20
6.347168
0
VERTEX
8
1
10
6.984619
20
6.362915
0
VERTEX
8
1
10
6.971802
20
6.376099
0
VERTEX
8
1
10
6.958496
20
6.386719
0
VERTEX
8
1
10
6.944946
20
6.395142
0
VERTEX
8
1
10
6.931396
20
6.401611
0
VERTEX
8
1
10
6.918457
20
6.406494
0
VERTEX
8
1
10
6.906128
20
6.409790
0
VERTEX
8
1
10
6.895020
20
6.411987
0
VERTEX
8
1
10
6.885498
20
6.413208
0
VERTEX
8
1
10
6.877686
20
6.413818
0
VERTEX
8
1
10
6.871948
20
6.413818
0
VERTEX
8
1
10
6.868896
20
6.413818
0
VERTEX
8
1
10
6.868408
20
6.415649
0
VERTEX
8
1
10
6.868164
20
6.434204
0
VERTEX
8
1
10
6.867798
20
6.470337
0
VERTEX
8
1
10
6.867310
20
6.521484
0
VERTEX
8
1
10
6.866699
20
6.585083
0
VERTEX
8
1
10
6.865967
20
6.658447
0
VERTEX
8
1
10
6.865112
20
6.739136
0
VERTEX
8
1
10
6.864258
20
6.824341
0
VERTEX
8
1
10
6.863403
20
6.911621
0
VERTEX
8
1
10
6.862427
20
6.998413
0
VERTEX
8
1
10
6.861816
20
7.081909
0
VERTEX
8
1
10
6.860962
20
7.159790
0
VERTEX
8
1
10
6.860229
20
7.229248
0
VERTEX
8
1
10
6.859497
20
7.287842
0
VERTEX
8
1
10
6.859131
20
7.332886
0
VERTEX
8
1
10
6.858887
20
7.361816
0
SEQEND
0
POLYLINE
8
1
66
1
70
1
0
VERTEX
8
1
10
8.073853
20
7.135132
0
VERTEX
8
1
10
8.074097
20
7.125366
0
VERTEX
8
1
10
8.075073
20
7.097778
0
VERTEX
8
1
10
8.076416
20
7.054443
0
VERTEX
8
1
10
8.078125
20
6.997925
0
VERTEX
8
1
10
8.080322
20
6.930420
0
VERTEX
8
1
10
8.082642
20
6.854126
0
VERTEX
8
1
10
8.085083
20
6.771606
0
VERTEX
8
1
10
8.087769
20
6.684814
0
VERTEX
8
1
10
8.090454
20
6.596436
0
VERTEX
8
1
10
8.093140
20
6.508423
0
VERTEX
8
1
10
8.095703
20
6.423340
0
VERTEX
8
1
10
8.097900
20
6.343384
0
VERTEX
8
1
10
8.099854
20
6.270996
0
VERTEX
8
1
10
8.101440
20
6.208252
0
VERTEX
8
1
10
8.102661
20
6.157593
0
VERTEX
8
1
10
8.103394
20
6.121216
0
VERTEX
8
1
10
8.103271
20
6.101074
0
VERTEX
8
1
10
8.102051
20
6.086548
0
VERTEX
8
1
10
8.099487
20
6.073608
0
VERTEX
8
1
10
8.095947
20
6.062134
0
VERTEX
8
1
10
8.091431
20
6.052124
0
VERTEX
8
1
10
8.086182
20
6.043457
0
VERTEX
8
1
10
8.080444
20
6.035889
0
VERTEX
8
1
10
8.074341
20
6.029663
0
VERTEX
8
1
10
8.068237
20
6.024414
0
VERTEX
8
1
10
8.062012
20
6.020020
0
VERTEX
8
1
10
8.056030
20
6.016602
0
VERTEX
8
1
10
8.050293
20
6.013916
0
VERTEX
8
1
10
8.045166
20
6.011963
0
VERTEX
8
1
10
8.040894
20
6.010498
0
VERTEX
8
1
10
8.037598
20
6.009521
0
VERTEX
8
1
10
8.035156
20
6.009155
0
VERTEX
8
1
10
8.034302
20
6.008911
0
VERTEX
8
1
10
8.032959
20
6.009033
0
VERTEX
8
1
10
8.028076
20
6.009277
0
VERTEX
8
1
10
8.020020
20
6.009644
0
VERTEX
8
1
10
8.009155
20
6.010132
0
VERTEX
8
1
10
7.996094
20
6.010864
0
VERTEX
8
1
10
7.981445
20
6.011597
0
VERTEX
8
1
10
7.965454
20
6.012451
0
VERTEX
8
1
10
7.948853
20
6.013306
0
VERTEX
8
1
10
7.931763
20
6.014282
0
VERTEX
8
1
10
7.915283
20
6.015015
0
VERTEX
8
1
10
7.899170
20
6.015869
0
VERTEX
8
1
10
7.884399
20
6.016724
0
VERTEX
8
1
10
7.871460
20
6.017212
0
VERTEX
8
1
10
7.860596
20
6.017822
0
VERTEX
8
1
10
7.852539
20
6.018188
0
VERTEX
8
1
10
7.847778
20
6.018311
0
VERTEX
8
1
10
7.846436
20
6.018921
0
VERTEX
8
1
10
7.846313
20
6.031250
0
VERTEX
8
1
10
7.845947
20
6.059692
0
VERTEX
8
1
10
7.845581
20
6.102051
0
VERTEX
8
1
10
7.845093
20
6.156372
0
VERTEX
8
1
10
7.844482
20
6.220581
0
VERTEX
8
1
10
7.843872
20
6.292725
0
VERTEX
8
1
10
7.843384
20
6.370605
0
VERTEX
8
1
10
7.842896
20
6.452271
0
VERTEX
8
1
10
7.842407
20
6.535645
0
VERTEX
8
1
10
7.842285
20
6.618774
0
VERTEX
8
1
10
7.842285
20
6.699341
0
VERTEX
8
1
10
7.842285
20
6.775635
0
VERTEX
8
1
10
7.842773
20
6.845337
0
VERTEX
8
1
10
7.843262
20
6.906616
0
VERTEX
8
1
10
7.844360
20
6.957397
0
VERTEX
8
1
10
7.845703
20
6.995239
0
VERTEX
8
1
10
7.850342
20
7.020996
0
VERTEX
8
1
10
7.859375
20
7.042603
0
VERTEX
8
1
10
7.871338
20
7.061279
0
VERTEX
8
1
10
7.885742
20
7.077271
0
VERTEX
8
1
10
7.901978
20
7.090698
0
VERTEX
8
1
10
7.919800
20
7.102051
0
VERTEX
8
1
10
7.938477
20
7.111084
0
VERTEX
8
1
10
7.957764
20
7.118530
0
VERTEX
8
1
10
7.977051
20
7.124146
0
VERTEX
8
1
10
7.995728
20
7.128418
0
VERTEX
8
1
10
8.013550
20
7.131470
0
VERTEX
8
1
10
8.030029
20
7.133423
0
VERTEX
8
1
10
8.044556
20
7.134644
0
VERTEX
8
1
10
8.056641
20
7.135132
0
VERTEX
8
1
10
8.065796
20
7.135376
0
VERTEX
8
1
10
8.071777
20
7.135376
0
SEQEND
0
POLYLINE
8
1
66
1
70
1
0
VERTEX
8
1
10
9.545898
20
7.312866
0
VERTEX
8
1
10
9.544434
20
7.311157
0
VERTEX
8
1
10
9.540161
20
7.306396
0
VERTEX
8
1
10
9.533569
20
7.298950
0
VERTEX
8
1
10
9.525146
20
7.289307
0
VERTEX
8
1
10
9.515259
20
7.277954
0
VERTEX
8
1
10
9.504272
20
7.265381
0
VERTEX
8
1
10
9.492554
20
7.251953
0
VERTEX
8
1
10
9.480713
20
7.237915
0
VERTEX
8
1
10
9.468994
20
7.223999
0
VERTEX
8
1
10
9.457886
20
7.210693
0
VERTEX
8
1
10
9.447754
20
7.198242
0
VERTEX
8
1
10
9.439087
20
7.187134
0
VERTEX
8
1
10
9.436646
20
7.184570
0
VERTEX
8
1
10
9.434692
20
7.185425
0
VERTEX
8
1
10
9.431274
20
7.186890
0
VERTEX
8
1
10
9.426392
20
7.188965
0
VERTEX
8
1
10
9.420044
20
7.191406
0
VERTEX
8
1
10
9.412354
20
7.194214
0
VERTEX
8
1
10
9.403076
20
7.197144
0
VERTEX
8
1
10
9.392578
20
7.200317
0
VERTEX
8
1
10
9.380859
20
7.203491
0
VERTEX
8
1
10
9.367798
20
7.206665
0
VERTEX
8
1
10
9.353394
20
7.209717
0
VERTEX
8
1
10
9.337769
20
7.212524
0
VERTEX
8
1
10
9.293945
20
7.216553
0
VERTEX
8
1
10
9.224976
20
7.218384
0
VERTEX
8
1
10
9.171143
20
7.215088
0
VERTEX
8
1
10
9.130493
20
7.207642
0
VERTEX
8
1
10
9.101074
20
7.196899
0
VERTEX
8
1
10
9.081055
20
7.183594
0
VERTEX
8
1
10
9.068726
20
7.168945
0
VERTEX
8
1
10
9.062256
20
7.153320
0
VERTEX
8
1
10
9.059570
20
7.137939
0
VERTEX
8
1
10
9.058960
20
7.123291
0
VERTEX
8
1
10
9.058472
20
7.110962
0
VERTEX
8
1
10
9.056519
20
7.101074
0
VERTEX
8
1
10
9.050781
20
7.097168
0
VERTEX
8
1
10
9.040527
20
7.107788
0
VERTEX
8
1
10
9.026123
20
7.116211
0
VERTEX
8
1
10
9.008789
20
7.122925
0
VERTEX
8
1
10
8.989014
20
7.127930
0
VERTEX
8
1
10
8.968140
20
7.131470
0
VERTEX
8
1
10
8.946899
20
7.133789
0
VERTEX
8
1
10
8.926270
20
7.135254
0
VERTEX
8
1
10
8.907104
20
7.135742
0
VERTEX
8
1
10
8.890259
20
7.135864
0
VERTEX
8
1
10
8.876953
20
7.135620
0
VERTEX
8
1
10
8.867920
20
7.135254
0
VERTEX
8
1
10
8.864258
20
7.135132
0
VERTEX
8
1
10
8.864014
20
7.137695
0
VERTEX
8
1
10
8.863525
20
7.146240
0
VERTEX
8
1
10
8.862793
20
7.160278
0
VERTEX
8
1
10
8.861816
20
7.178467
0
VERTEX
8
1
10
8.860596
20
7.200195
0
VERTEX
8
1
10
8.859497
20
7.224243
0
VERTEX
8
1
10
8.858276
20
7.249634
0
VERTEX
8
1
10
8.857056
20
7.275757
0
VERTEX
8
1
10
8.856079
20
7.301270
0
VERTEX
8
1
10
8.855225
20
7.325317
0
VERTEX
8
1
10
8.854614
20
7.347046
0
VERTEX
8
1
10
8.854126
20
7.365356
0
VERTEX
8
1
10
8.854492
20
7.380249
0
VERTEX
8
1
10
8.856445
20
7.393799
0
VERTEX
8
1
10
8.860229
20
7.406616
0
VERTEX
8
1
10
8.865723
20
7.418335
0
VERTEX
8
1
10
8.872681
20
7.429077
0
VERTEX
8
1
10
8.880981
20
7.438721
0
VERTEX
8
1
10
8.890503
20
7.447266
0
VERTEX
8
1
10
8.901123
20
7.454712
0
VERTEX
8
1
10
8.912964
20
7.460693
0
VERTEX
8
1
10
8.925659
20
7.465210
0
VERTEX
8
1
10
8.938843
20
7.468628
0
VERTEX
8
1
10
8.952881
20
7.470581
0
VERTEX
8
1
10
8.966553
20
7.470703
0
VERTEX
8
1
10
8.990723
20
7.466064
0
VERTEX
8
1
10
9.030518
20
7.456543
0
VERTEX
8
1
10
9.082642
20
7.443115
0
VERTEX
8
1
10
9.143799
20
7.426636
0
VERTEX
8
1
10
9.210327
20
7.408325
0
VERTEX
8
1
10
9.278931
20
7.389038
0
VERTEX
8
1
10
9.346436
20
7.369995
0
VERTEX
8
1
10
9.409180
20
7.352295
0
VERTEX
8
1
10
9.463867
20
7.336548
0
VERTEX
8
1
10
9.507202
20
7.324097
0
VERTEX
8
1
10
9.535767
20
7.315796
0
SEQEND
0
POLYLINE
8
1
66
1
70
1
0
VERTEX
8
1
10
6.512817
20
7.421387
0
VERTEX
8
1
10
6.469727
20
7.419556
0
VERTEX
8
1
10
6.431519
20
7.414307
0
VERTEX
8
1
10
6.397827
20
7.406006
0
VERTEX
8
1
10
6.368530
20
7.395142
0
VERTEX
8
1
10
6.343384
20
7.382202
0
VERTEX
8
1
10
6.321777
20
7.367676
0
VERTEX
8
1
10
6.303833
20
7.351929
0
VERTEX
8
1
10
6.288818
20
7.335327
0
VERTEX
8
1
10
6.276733
20
7.318481
0
VERTEX
8
1
10
6.267212
20
7.301758
0
VERTEX
8
1
10
6.260010
20
7.285400
0
VERTEX
8
1
10
6.254517
20
7.270264
0
VERTEX
8
1
10
6.250732
20
7.256348
0
VERTEX
8
1
10
6.248413
20
7.244629
0
VERTEX
8
1
10
6.246948
20
7.234985
0
VERTEX
8
1
10
6.246338
20
7.228149
0
VERTEX
8
1
10
6.246338
20
7.224487
0
VERTEX
8
1
10
6.246216
20
7.221924
0
VERTEX
8
1
10
6.245850
20
7.206299
0
VERTEX
8
1
10
6.245117
20
7.177002
0
VERTEX
8
1
10
6.244141
20
7.135620
0
VERTEX
8
1
10
6.242920
20
7.084351
0
VERTEX
8
1
10
6.241455
20
7.025024
0
VERTEX
8
1
10
6.239990
20
6.959473
0
VERTEX
8
1
10
6.238281
20
6.889648
0
VERTEX
8
1
10
6.236572
20
6.817383
0
VERTEX
8
1
10
6.234985
20
6.744751
0
VERTEX
8
1
10
6.233276
20
6.673584
0
VERTEX
8
1
10
6.231689
20
6.605591
0
VERTEX
8
1
10
6.230103
20
6.542847
0
VERTEX
8
1
10
6.229004
20
6.487183
0
VERTEX
8
1
10
6.227783
20
6.440674
0
VERTEX
8
1
10
6.226929
20
6.405151
0
VERTEX
8
1
10
6.226318
20
6.382446
0
VERTEX
8
1
10
6.226196
20
6.374390
0
VERTEX
8
1
10
6.229004
20
6.381714
0
VERTEX
8
1
10
6.236938
20
6.402588
0
VERTEX
8
1
10
6.249390
20
6.435303
0
VERTEX
8
1
10
6.265625
20
6.478027
0
VERTEX
8
1
10
6.285034
20
6.529053
0
VERTEX
8
1
10
6.306885
20
6.586670
0
VERTEX
8
1
10
6.330688
20
6.649170
0
VERTEX
8
1
10
6.355469
20
6.714600
0
VERTEX
8
1
10
6.380859
20
6.781372
0
VERTEX
8
1
10
6.406006
20
6.847656
0
VERTEX
8
1
10
6.430420
20
6.911743
0
VERTEX
8
1
10
6.453369
20
6.972046
0
VERTEX
8
1
10
6.473999
20
7.026489
0
VERTEX
8
1
10
6.491943
20
7.073608
0
VERTEX
8
1
10
6.506470
20
7.111572
0
VERTEX
8
1
10
6.516724
20
7.138550
0
VERTEX
8
1
10
6.522217
20
7.152954
0
VERTEX
8
1
10
6.522827
20
7.155396
0
VERTEX
8
1
10
6.522583
20
7.160400
0
VERTEX
8
1
10
6.522339
20
7.169556
0
VERTEX
8
1
10
6.521729
20
7.182495
0
VERTEX
8
1
10
6.521240
20
7.198608
0
VERTEX
8
1
10
6.520508
20
7.217285
0
VERTEX
8
1
10
6.519775
20
7.237793
0
VERTEX
8
1
10
6.518921
20
7.259766
0
VERTEX
8
1
10
6.518066
20
7.282349
0
VERTEX
8
1
10
6.517090
20
7.305176
0
VERTEX
8
1
10
6.516357
20
7.327515
0
VERTEX
8
1
10
6.515503
20
7.348755
0
VERTEX
8
1
10
6.514771
20
7.368652
0
VERTEX
8
1
10
6.514160
20
7.385864
0
VERTEX
8
1
10
6.513550
20
7.400513
0
VERTEX
8
1
10
6.513184
20
7.411743
0
VERTEX
8
1
10
6.512817
20
7.418945
0
SEQEND
0
POLYLINE
8
1
66
1
70
1
0
VERTEX
8
1
10
6.532471
20
6.868042
0
VERTEX
8
1
10
6.522827
20
6.354492
0
VERTEX
8
1
10
6.295410
20
6.334839
0
SEQEND
0
POLYLINE
8
1
66
1
70
1
0
VERTEX
8
1
10
6.255859
20
6.186646
0
VERTEX
8
1
10
6.256104
20
6.193237
0
VERTEX
8
1
10
6.256592
20
6.198364
0
VERTEX
8
1
10
6.257324
20
6.202271
0
VERTEX
8
1
10
6.258423
20
6.204956
0
VERTEX
8
1
10
6.259521
20
6.206665
0
VERTEX
8
1
10
6.260864
20
6.207642
0
VERTEX
8
1
10
6.261963
20
6.208008
0
VERTEX
8
1
10
6.263062
20
6.207764
0
VERTEX
8
1
10
6.264160
20
6.207520
0
VERTEX
8
1
10
6.265015
20
6.206909
0
VERTEX
8
1
10
6.265503
20
6.206421
0
VERTEX
8
1
10
6.265747
20
6.206299
0
VERTEX
8
1
10
6.274536
20
6.203003
0
VERTEX
8
1
10
6.298706
20
6.193848
0
VERTEX
8
1
10
6.335205
20
6.180054
0
VERTEX
8
1
10
6.380981
20
6.162842
0
VERTEX
8
1
10
6.432983
20
6.143188
0
VERTEX
8
1
10
6.488037
20
6.122437
0
VERTEX
8
1
10
6.542969
20
6.101685
0
VERTEX
8
1
10
6.594971
20
6.082031
0
VERTEX
8
1
10
6.640747
20
6.064819
0
VERTEX
8
1
10
6.677368
20
6.050903
0
VERTEX
8
1
10
6.701538
20
6.041870
0
VERTEX
8
1
10
6.710205
20
6.038574
0
VERTEX
8
1
10
6.703369
20
6.038330
0
VERTEX
8
1
10
6.684204
20
6.037842
0
VERTEX
8
1
10
6.655029
20
6.036865
0
VERTEX
8
1
10
6.617676
20
6.035645
0
VERTEX
8
1
10
6.574463
20
6.034058
0
VERTEX
8
1
10
6.527588
20
6.032349
0
VERTEX
8
1
10
6.478882
20
6.030273
0
VERTEX
8
1
10
6.430664
20
6.028198
0
VERTEX
8
1
10
6.385254
20
6.025879
0
VERTEX
8
1
10
6.344360
20
6.023560
0
VERTEX
8
1
10
6.310547
20
6.020996
0
VERTEX
8
1
10
6.285400
20
6.018555
0
VERTEX
8
1
10
6.274536
20
6.026001
0
VERTEX
8
1
10
6.266113
20
6.037964
0
VERTEX
8
1
10
6.260010
20
6.053223
0
VERTEX
8
1
10
6.255859
20
6.071045
0
VERTEX
8
1
10
6.253296
20
6.090332
0
VERTEX
8
1
10
6.252075
20
6.110107
0
VERTEX
8
1
10
6.251953
20
6.129517
0
VERTEX
8
1
10
6.252563
20
6.147461
0
VERTEX
8
1
10
6.253540
20
6.163086
0
VERTEX
8
1
10
6.254761
20
6.175537
0
VERTEX
8
1
10
6.255615
20
6.183838
0
SEQEND
0
POLYLINE
8
1
66
1
70
1
0
VERTEX
8
1
10
5.722534
20
5.969238
0
VERTEX
8
1
10
5.723389
20
5.978638
0
VERTEX
8
1
10
5.725830
20
6.005371
0
VERTEX
8
1
10
5.729614
20
6.047485
0
VERTEX
8
1
10
5.734863
20
6.103149
0
VERTEX
8
1
10
5.741089
20
6.170166
0
VERTEX
8
1
10
5.748169
20
6.246704
0
VERTEX
8
1
10
5.756104
20
6.330933
0
VERTEX
8
1
10
5.764648
20
6.420532
0
VERTEX
8
1
10
5.773438
20
6.513794
0
VERTEX
8
1
10
5.782715
20
6.608765
0
VERTEX
8
1
10
5.791992
20
6.703369
0
VERTEX
8
1
10
5.801392
20
6.795654
0
VERTEX
8
1
10
5.810303
20
6.883667
0
VERTEX
8
1
10
5.818970
20
6.965332
0
VERTEX
8
1
10
5.827026
20
7.038940
0
VERTEX
8
1
10
5.834229
20
7.102295
0
VERTEX
8
1
10
5.840820
20
7.153442
0
VERTEX
8
1
10
5.846191
20
7.190430
0
VERTEX
8
1
10
5.850220
20
7.211426
0
VERTEX
8
1
10
5.855713
20
7.217896
0
VERTEX
8
1
10
5.861694
20
7.224365
0
VERTEX
8
1
10
5.867798
20
7.232056
0
VERTEX
8
1
10
5.873779
20
7.240967
0
VERTEX
8
1
10
5.879517
20
7.250610
0
VERTEX
8
1
10
5.885254
20
7.260986
0
VERTEX
8
1
10
5.890747
20
7.271851
0
VERTEX
8
1
10
5.895996
20
7.283081
0
VERTEX
8
1
10
5.901001
20
7.294312
0
VERTEX
8
1
10
5.905762
20
7.305542
0
VERTEX
8
1
10
5.910034
20
7.316528
0
VERTEX
8
1
10
5.914307
20
7.327026
0
VERTEX
8
1
10
5.917847
20
7.336914
0
VERTEX
8
1
10
5.921021
20
7.345825
0
VERTEX
8
1
10
5.923950
20
7.354004
0
VERTEX
8
1
10
5.926270
20
7.360840
0
VERTEX
8
1
10
5.927979
20
7.366211
0
VERTEX
8
1
10
5.929199
20
7.369873
0
VERTEX
8
1
10
5.929810
20
7.371704
0
VERTEX
8
1
10
5.929810
20
7.370117
0
VERTEX
8
1
10
5.929077
20
7.354736
0
VERTEX
8
1
10
5.927612
20
7.325684
0
VERTEX
8
1
10
5.925659
20
7.284302
0
VERTEX
8
1
10
5.923096
20
7.232056
0
VERTEX
8
1
10
5.920166
20
7.170776
0
VERTEX
8
1
10
5.916870
20
7.101929
0
VERTEX
8
1
10
5.913330
20
7.026978
0
VERTEX
8
1
10
5.909668
20
6.947510
0
VERTEX
8
1
10
5.905762
20
6.865112
0
VERTEX
8
1
10
5.901855
20
6.781372
0
VERTEX
8
1
10
5.898193
20
6.697754
0
VERTEX
8
1
10
5.894653
20
6.615845
0
VERTEX
8
1
10
5.891235
20
6.537109
0
VERTEX
8
1
10
5.888184
20
6.463257
0
VERTEX
8
1
10
5.885498
20
6.395874
0
VERTEX
8
1
10
5.883423
20
6.336304
0
VERTEX
8
1
10
5.881714
20
6.286377
0
VERTEX
8
1
10
5.880859
20
6.247437
0
VERTEX
8
1
10
5.880127
20
6.222046
0
VERTEX
8
1
10
5.876953
20
6.204712
0
VERTEX
8
1
10
5.871826
20
6.186768
0
VERTEX
8
1
10
5.865112
20
6.168701
0
VERTEX
8
1
10
5.856812
20
6.150513
0
VERTEX
8
1
10
5.847412
20
6.132324
0
VERTEX
8
1
10
5.836914
20
6.114258
0
VERTEX
8
1
10
5.825928
20
6.096558
0
VERTEX
8
1
10
5.814209
20
6.079346
0
VERTEX
8
1
10
5.802368
20
6.062866
0
VERTEX
8
1
10
5.790405
20
6.047241
0
VERTEX
8
1
10
5.778687
20
6.032593
0
VERTEX
8
1
10
5.767578
20
6.019043
0
VERTEX
8
1
10
5.756958
20
6.006714
0
VERTEX
8
1
10
5.747437
20
5.996094
0
VERTEX
8
1
10
5.739136
20
5.986694
0
VERTEX
8
1
10
5.732178
20
5.979370
0
VERTEX
8
1
10
5.727051
20
5.973755
0
VERTEX
8
1
10
5.723511
20
5.970337
0
SEQEND
0
POLYLINE
8
1
66
1
70
1
0
VERTEX
8
1
10
6.176880
20
8.075928
0
VERTEX
8
1
10
6.197510
20
8.057861
0
VERTEX
8
1
10
6.220581
20
8.042603
0
VERTEX
8
1
10
6.245605
20
8.029907
0
VERTEX
8
1
10
6.271729
20
8.019531
0
VERTEX
8
1
10
6.298462
20
8.011353
0
VERTEX
8
1
10
6.325195
20
8.005127
0
VERTEX
8
1
10
6.351074
20
8.000488
0
VERTEX
8
1
10
6.376099
20
7.997192
0
VERTEX
8
1
10
6.399170
20
7.995117
0
VERTEX
8
1
10
6.419678
20
7.994263
0
VERTEX
8
1
10
6.436768
20
7.994019
0
VERTEX
8
1
10
6.451660
20
7.994019
0
VERTEX
8
1
10
6.468018
20
7.993896
0
VERTEX
8
1
10
6.485352
20
7.993774
0
VERTEX
8
1
10
6.502930
20
7.993286
0
VERTEX
8
1
10
6.520508
20
7.992798
0
VERTEX
8
1
10
6.537231
20
7.991821
0
VERTEX
8
1
10
6.552979
20
7.990601
0
VERTEX
8
1
10
6.566895
20
7.988892
0
VERTEX
8
1
10
6.578613
20
7.986694
0
VERTEX
8
1
10
6.587891
20
7.984253
0
VERTEX
8
1
10
6.592163
20
7.982300
0
VERTEX
8
1
10
6.596680
20
7.982788
0
VERTEX
8
1
10
6.605347
20
7.983765
0
VERTEX
8
1
10
6.617188
20
7.984985
0
VERTEX
8
1
10
6.631104
20
7.986572
0
VERTEX
8
1
10
6.645996
20
7.988159
0
VERTEX
8
1
10
6.661011
20
7.989868
0
VERTEX
8
1
10
6.675049
20
7.991211
0
VERTEX
8
1
10
6.686768
20
7.992432
0
VERTEX
8
1
10
6.695557
20
7.993530
0
VERTEX
8
1
10
6.700073
20
7.994141
0
VERTEX
8
1
10
6.700562
20
7.994751
0
VERTEX
8
1
10
6.700562
20
7.998901
0
VERTEX
8
1
10
6.700562
20
8.005981
0
VERTEX
8
1
10
6.700562
20
8.015259
0
VERTEX
8
1
10
6.700562
20
8.026001
0
VERTEX
8
1
10
6.700562
20
8.037231
0
VERTEX
8
1
10
6.700562
20
8.048462
0
VERTEX
8
1
10
6.700684
20
8.058594
0
VERTEX
8
1
10
6.700439
20
8.067139
0
VERTEX
8
1
10
6.700684
20
8.073120
0
VERTEX
8
1
10
6.700562
20
8.075806
0
VERTEX
8
1
10
6.692383
20
8.075928
0
VERTEX
8
1
10
6.661743
20
8.075928
0
VERTEX
8
1
10
6.613159
20
8.075928
0
VERTEX
8
1
10
6.551636
20
8.075928
0
VERTEX
8
1
10
6.482178
20
8.076050
0
VERTEX
8
1
10
6.409790
20
8.075928
0
VERTEX
8
1
10
6.339111
20
8.075928
0
VERTEX
8
1
10
6.275635
20
8.075806
0
VERTEX
8
1
10
6.224121
20
8.075806
0
VERTEX
8
1
10
6.189575
20
8.076050
0
SEQEND
0
POLYLINE
8
1
66
1
70
1
0
VERTEX
8
1
10
6.957275
20
8.103149
0
VERTEX
8
1
10
7.530518
20
8.113159
0
VERTEX
8
1
10
7.530518
20
8.043945
0
VERTEX
8
1
10
6.957275
20
8.014282
0
SEQEND
0
POLYLINE
8
1
66
1
70
1
0
VERTEX
8
1
10
7.678589
20
8.113159
0
VERTEX
8
1
10
8.152710
20
8.043945
0
VERTEX
8
1
10
7.688232
20
8.073486
0
SEQEND
0
POLYLINE
8
1
66
1
70
1
0
VERTEX
8
1
10
1.504028
20
2.728760
0
VERTEX
8
1
10
1.502563
20
2.728760
0
VERTEX
8
1
10
1.498169
20
2.728638
0
VERTEX
8
1
10
1.491211
20
2.728271
0
VERTEX
8
1
10
1.481812
20
2.728027
0
VERTEX
8
1
10
1.470215
20
2.727539
0
VERTEX
8
1
10
1.456787
20
2.727051
0
VERTEX
8
1
10
1.441528
20
2.726440
0
VERTEX
8
1
10
1.424927
20
2.725586
0
VERTEX
8
1
10
1.406982
20
2.724854
0
VERTEX
8
1
10
1.388062
20
2.723877
0
VERTEX
8
1
10
1.368164
20
2.722778
0
VERTEX
8
1
10
1.347900
20
2.721680
0
VERTEX
8
1
10
1.327148
20
2.720459
0
VERTEX
8
1
10
1.306396
20
2.719116
0
VERTEX
8
1
10
1.285645
20
2.717651
0
VERTEX
8
1
10
1.265381
20
2.716187
0
VERTEX
8
1
10
1.245483
20
2.714478
0
VERTEX
8
1
10
1.226563
20
2.712769
0
VERTEX
8
1
10
1.208496
20
2.710938
0
VERTEX
8
1
10
1.191772
20
2.709106
0
VERTEX
8
1
10
1.176514
20
2.707031
0
VERTEX
8
1
10
1.162964
20
2.704834
0
VERTEX
8
1
10
1.151123
20
2.702637
0
VERTEX
8
1
10
1.141846
20
2.700317
0
VERTEX
8
1
10
1.138916
20
2.700562
0
VERTEX
8
1
10
1.142456
20
2.708862
0
VERTEX
8
1
10
1.148926
20
2.724487
0
VERTEX
8
1
10
1.158081
20
2.746582
0
VERTEX
8
1
10
1.169800
20
2.774658
0
VERTEX
8
1
10
1.183838
20
2.808228
0
VERTEX
8
1
10
1.199829
20
2.846436
0
VERTEX
8
1
10
1.217651
20
2.888916
0
VERTEX
8
1
10
1.236938
20
2.934937
0
VERTEX
8
1
10
1.257568
20
2.983887
0
VERTEX
8
1
10
1.279175
20
3.035156
0
VERTEX
8
1
10
1.301514
20
3.088257
0
VERTEX
8
1
10
1.324585
20
3.142334
0
VERTEX
8
1
10
1.347900
20
3.197021
0
VERTEX
8
1
10
1.371216
20
3.251587
0
VERTEX
8
1
10
1.394409
20
3.305542
0
VERTEX
8
1
10
1.417114
20
3.358154
0
VERTEX
8
1
10
1.439331
20
3.408813
0
VERTEX
8
1
10
1.460571
20
3.457153
0
VERTEX
8
1
10
1.480713
20
3.502319
0
VERTEX
8
1
10
1.499146
20
3.543701
0
VERTEX
8
1
10
1.516113
20
3.580933
0
VERTEX
8
1
10
1.531372
20
3.613037
0
VERTEX
8
1
10
1.544312
20
3.639526
0
VERTEX
8
1
10
1.556030
20
3.661255
0
VERTEX
8
1
10
1.573120
20
3.685425
0
VERTEX
8
1
10
1.590576
20
3.707764
0
VERTEX
8
1
10
1.608154
20
3.728271
0
VERTEX
8
1
10
1.625977
20
3.747070
0
VERTEX
8
1
10
1.643921
20
3.764160
0
VERTEX
8
1
10
1.661987
20
3.779663
0
VERTEX
8
1
10
1.679932
20
3.793823
0
VERTEX
8
1
10
1.698120
20
3.806519
0
VERTEX
8
1
10
1.716064
20
3.817871
0
VERTEX
8
1
10
1.734131
20
3.828003
0
VERTEX
8
1
10
1.751831
20
3.836914
0
VERTEX
8
1
10
1.769653
20
3.844727
0
VERTEX
8
1
10
1.786987
20
3.851563
0
VERTEX
8
1
10
1.804443
20
3.857544
0
VERTEX
8
1
10
1.821411
20
3.862549
0
VERTEX
8
1
10
1.837891
20
3.866943
0
VERTEX
8
1
10
1.854370
20
3.870728
0
VERTEX
8
1
10
1.870239
20
3.873901
0
VERTEX
8
1
10
1.885742
20
3.876343
0
VERTEX
8
1
10
1.900757
20
3.878418
0
VERTEX
8
1
10
1.915161
20
3.880371
0
VERTEX
8
1
10
1.928955
20
3.881836
0
VERTEX
8
1
10
1.942139
20
3.883057
0
VERTEX
8
1
10
1.954834
20
3.884277
0
VERTEX
8
1
10
1.967285
20
3.885498
0
VERTEX
8
1
10
1.991943
20
3.886719
0
VERTEX
8
1
10
2.029541
20
3.887817
0
VERTEX
8
1
10
2.078857
20
3.888916
0
VERTEX
8
1
10
2.138916
20
3.889893
0
VERTEX
8
1
10
2.208496
20
3.890747
0
VERTEX
8
1
10
2.286255
20
3.891479
0
VERTEX
8
1
10
2.371338
20
3.891968
0
VERTEX
8
1
10
2.462158
20
3.892212
0
VERTEX
8
1
10
2.557861
20
3.892212
0
VERTEX
8
1
10
2.657349
20
3.891968
0
VERTEX
8
1
10
2.759033
20
3.891479
0
VERTEX
8
1
10
2.862183
20
3.890503
0
VERTEX
8
1
10
2.965332
20
3.889160
0
VERTEX
8
1
10
3.067505
20
3.887573
0
VERTEX
8
1
10
3.167480
20
3.885498
0
VERTEX
8
1
10
3.263916
20
3.882935
0
VERTEX
8
1
10
3.355957
20
3.880005
0
VERTEX
8
1
10
3.442017
20
3.876465
0
VERTEX
8
1
10
3.521240
20
3.872437
0
VERTEX
8
1
10
3.592407
20
3.867676
0
VERTEX
8
1
10
3.654297
20
3.862549
0
VERTEX
8
1
10
3.705688
20
3.856934
0
VERTEX
8
1
10
3.745728
20
3.850342
0
VERTEX
8
1
10
3.775391
20
3.840332
0
VERTEX
8
1
10
3.806396
20
3.819824
0
VERTEX
8
1
10
3.836670
20
3.795044
0
VERTEX
8
1
10
3.866089
20
3.766724
0
VERTEX
8
1
10
3.894775
20
3.734863
0
VERTEX
8
1
10
3.922485
20
3.700195
0
VERTEX
8
1
10
3.949341
20
3.662964
0
VERTEX
8
1
10
3.975220
20
3.623535
0
VERTEX
8
1
10
4.000244
20
3.582397
0
VERTEX
8
1
10
4.024048
20
3.540039
0
VERTEX
8
1
10
4.046875
20
3.496582
0
VERTEX
8
1
10
4.068604
20
3.452637
0
VERTEX
8
1
10
4.089111
20
3.408813
0
VERTEX
8
1
10
4.108398
20
3.364990
0
VERTEX
8
1
10
4.126465
20
3.321899
0
VERTEX
8
1
10
4.143311
20
3.279785
0
VERTEX
8
1
10
4.158936
20
3.239380
0
VERTEX
8
1
10
4.172852
20
3.200684
0
VERTEX
8
1
10
4.185669
20
3.164429
0
VERTEX
8
1
10
4.196899
20
3.130859
0
VERTEX
8
1
10
4.206787
20
3.100220
0
VERTEX
8
1
10
4.215210
20
3.073242
0
VERTEX
8
1
10
4.222046
20
3.050049
0
VERTEX
8
1
10
4.226807
20
3.031372
0
VERTEX
8
1
10
4.230469
20
3.017334
0
VERTEX
8
1
10
4.200806
20
3.052246
0
VERTEX
8
1
10
4.163452
20
3.093384
0
VERTEX
8
1
10
4.123779
20
3.132568
0
VERTEX
8
1
10
4.082031
20
3.170044
0
VERTEX
8
1
10
4.038330
20
3.205566
0
VERTEX
8
1
10
3.992920
20
3.239380
0
VERTEX
8
1
10
3.945801
20
3.271362
0
VERTEX
8
1
10
3.897217
20
3.301636
0
VERTEX
8
1
10
3.847412
20
3.330078
0
VERTEX
8
1
10
3.796387
20
3.356934
0
VERTEX
8
1
10
3.744385
20
3.381958
0
VERTEX
8
1
10
3.691528
20
3.405029
0
VERTEX
8
1
10
3.638062
20
3.426758
0
VERTEX
8
1
10
3.584106
20
3.446777
0
VERTEX
8
1
10
3.529907
20
3.464966
0
VERTEX
8
1
10
3.475342
20
3.481567
0
VERTEX
8
1
10
3.420898
20
3.496582
0
VERTEX
8
1
10
3.366699
20
3.509888
0
VERTEX
8
1
10
3.312622
20
3.521606
0
VERTEX
8
1
10
3.259155
20
3.531860
0
VERTEX
8
1
10
3.206421
20
3.540405
0
VERTEX
8
1
10
3.154419
20
3.547485
0
VERTEX
8
1
10
3.103394
20
3.553101
0
VERTEX
8
1
10
3.053345
20
3.557129
0
VERTEX
8
1
10
2.965820
20
3.559937
0
VERTEX
8
1
10
2.832153
20
3.556763
0
VERTEX
8
1
10
2.706055
20
3.545288
0
VERTEX
8
1
10
2.587402
20
3.526611
0
VERTEX
8
1
10
2.475830
20
3.501221
0
VERTEX
8
1
10
2.371216
20
3.469971
0
VERTEX
8
1
10
2.273682
20
3.433472
0
VERTEX
8
1
10
2.182739
20
3.392700
0
VERTEX
8
1
10
2.098267
20
3.348145
0
VERTEX
8
1
10
2.020264
20
3.300537
0
VERTEX
8
1
10
1.948364
20
3.250732
0
VERTEX
8
1
10
1.882568
20
3.199463
0
VERTEX
8
1
10
1.822754
20
3.147461
0
VERTEX
8
1
10
1.768555
20
3.095215
0
VERTEX
8
1
10
1.719971
20
3.043945
0
VERTEX
8
1
10
1.676758
20
2.993896
0
VERTEX
8
1
10
1.638794
20
2.946045
0
VERTEX
8
1
10
1.605835
20
2.901001
0
VERTEX
8
1
10
1.577759
20
2.859741
0
VERTEX
8
1
10
1.554565
20
2.822876
0
VERTEX
8
1
10
1.536011
20
2.790894
0
VERTEX
8
1
10
1.521606
20
2.764893
0
VERTEX
8
1
10
1.511841
20
2.745239
0
VERTEX
8
1
10
1.505859
20
2.733032
0
SEQEND
0
POLYLINE
8
1
66
1
70
1
0
VERTEX
8
1
10
1.247314
20
3.983521
0
VERTEX
8
1
10
1.246338
20
3.968384
0
VERTEX
8
1
10
1.243408
20
3.953369
0
VERTEX
8
1
10
1.238647
20
3.938965
0
VERTEX
8
1
10
1.232056
20
3.925293
0
VERTEX
8
1
10
1.223755
20
3.912476
0
VERTEX
8
1
10
1.213867
20
3.901001
0
VERTEX
8
1
10
1.202637
20
3.890747
0
VERTEX
8
1
10
1.190186
20
3.882080
0
VERTEX
8
1
10
1.176758
20
3.875000
0
VERTEX
8
1
10
1.162476
20
3.869751
0
VERTEX
8
1
10
1.147583
20
3.866333
0
VERTEX
8
1
10
1.132446
20
3.864868
0
VERTEX
8
1
10
1.117310
20
3.865356
0
VERTEX
8
1
10
1.102295
20
3.867798
0
VERTEX
8
1
10
1.087646
20
3.872192
0
VERTEX
8
1
10
1.073730
20
3.878296
0
VERTEX
8
1
10
1.060791
20
3.886230
0
VERTEX
8
1
10
1.048828
20
3.895630
0
VERTEX
8
1
10
1.038330
20
3.906616
0
VERTEX
8
1
10
1.029175
20
3.918823
0
VERTEX
8
1
10
1.021729
20
3.932007
0
VERTEX
8
1
10
1.015991
20
3.946167
0
VERTEX
8
1
10
1.012207
20
3.960815
0
VERTEX
8
1
10
1.010254
20
3.975952
0
VERTEX
8
1
10
1.010254
20
3.991089
0
VERTEX
8
1
10
1.012207
20
4.006226
0
VERTEX
8
1
10
1.015991
20
4.020874
0
VERTEX
8
1
10
1.021729
20
4.035034
0
VERTEX
8
1
10
1.029175
20
4.048218
0
VERTEX
8
1
10
1.038330
20
4.060425
0
VERTEX
8
1
10
1.048828
20
4.071411
0
VERTEX
8
1
10
1.060791
20
4.080811
0
VERTEX
8
1
10
1.073730
20
4.088745
0
VERTEX
8
1
10
1.087646
20
4.094849
0
VERTEX
8
1
10
1.102295
20
4.099243
0
VERTEX
8
1
10
1.117310
20
4.101685
0
VERTEX
8
1
10
1.132446
20
4.102173
0
VERTEX
8
1
10
1.147583
20
4.100708
0
VERTEX
8
1
10
1.162476
20
4.097290
0
VERTEX
8
1
10
1.176758
20
4.092041
0
VERTEX
8
1
10
1.190186
20
4.084961
0
VERTEX
8
1
10
1.202637
20
4.076294
0
VERTEX
8
1
10
1.213867
20
4.066040
0
VERTEX
8
1
10
1.223755
20
4.054565
0
VERTEX
8
1
10
1.232056
20
4.041748
0
VERTEX
8
1
10
1.238647
20
4.028076
0
VERTEX
8
1
10
1.243408
20
4.013672
0
VERTEX
8
1
10
1.246338
20
3.998657
0
SEQEND
0
POLYLINE
8
1
66
1
70
1
0
VERTEX
8
1
10
1.222534
20
3.706909
0
VERTEX
8
1
10
1.221558
20
3.694092
0
VERTEX
8
1
10
1.218628
20
3.681519
0
VERTEX
8
1
10
1.213745
20
3.669556
0
VERTEX
8
1
10
1.207153
20
3.658569
0
VERTEX
8
1
10
1.198975
20
3.648560
0
VERTEX
8
1
10
1.189331
20
3.640015
0
VERTEX
8
1
10
1.178589
20
3.633057
0
VERTEX
8
1
10
1.166870
20
3.627808
0
VERTEX
8
1
10
1.154419
20
3.624390
0
VERTEX
8
1
10
1.141602
20
3.622925
0
VERTEX
8
1
10
1.128784
20
3.623413
0
VERTEX
8
1
10
1.116211
20
3.625854
0
VERTEX
8
1
10
1.104004
20
3.630249
0
VERTEX
8
1
10
1.092773
20
3.636353
0
VERTEX
8
1
10
1.082520
20
3.644165
0
VERTEX
8
1
10
1.073608
20
3.653442
0
VERTEX
8
1
10
1.066162
20
3.663940
0
VERTEX
8
1
10
1.060425
20
3.675537
0
VERTEX
8
1
10
1.056519
20
3.687744
0
VERTEX
8
1
10
1.054565
20
3.700439
0
VERTEX
8
1
10
1.054565
20
3.713379
0
VERTEX
8
1
10
1.056519
20
3.726074
0
VERTEX
8
1
10
1.060425
20
3.738281
0
VERTEX
8
1
10
1.066162
20
3.749878
0
VERTEX
8
1
10
1.073608
20
3.760376
0
VERTEX
8
1
10
1.082520
20
3.769653
0
VERTEX
8
1
10
1.092773
20
3.777466
0
VERTEX
8
1
10
1.104004
20
3.783569
0
VERTEX
8
1
10
1.116211
20
3.787964
0
VERTEX
8
1
10
1.128784
20
3.790405
0
VERTEX
8
1
10
1.141602
20
3.790894
0
VERTEX
8
1
10
1.154419
20
3.789429
0
VERTEX
8
1
10
1.166870
20
3.786011
0
VERTEX
8
1
10
1.178589
20
3.780762
0
VERTEX
8
1
10
1.189331
20
3.773804
0
VERTEX
8
1
10
1.198975
20
3.765259
0
VERTEX
8
1
10
1.207153
20
3.755249
0
VERTEX
8
1
10
1.213745
20
3.744263
0
VERTEX
8
1
10
1.218628
20
3.732300
0
VERTEX
8
1
10
1.221558
20
3.719727
0
SEQEND
0
POLYLINE
8
1
66
1
70
1
0
VERTEX
8
1
10
2.521729
20
5.100098
0
VERTEX
8
1
10
2.540894
20
5.098999
0
VERTEX
8
1
10
2.558838
20
5.095703
0
VERTEX
8
1
10
2.575562
20
5.090332
0
VERTEX
8
1
10
2.591187
20
5.083252
0
VERTEX
8
1
10
2.605591
20
5.074341
0
VERTEX
8
1
10
2.618896
20
5.063843
0
VERTEX
8
1
10
2.631226
20
5.052124
0
VERTEX
8
1
10
2.642456
20
5.038818
0
VERTEX
8
1
10
2.653076
20
5.024536
0
VERTEX
8
1
10
2.662720
20
5.009399
0
VERTEX
8
1
10
2.671265
20
4.993164
0
VERTEX
8
1
10
2.679321
20
4.976440
0
VERTEX
8
1
10
2.686646
20
4.959106
0
VERTEX
8
1
10
2.673218
20
4.933716
0
VERTEX
8
1
10
2.634521
20
4.907227
0
VERTEX
8
1
10
2.584595
20
4.886475
0
VERTEX
8
1
10
2.525635
20
4.870605
0
VERTEX
8
1
10
2.459839
20
4.859253
0
VERTEX
8
1
10
2.389648
20
4.851685
0
VERTEX
8
1
10
2.317139
20
4.847168
0
VERTEX
8
1
10
2.244751
20
4.845215
0
VERTEX
8
1
10
2.174561
20
4.845337
0
VERTEX
8
1
10
2.108765
20
4.846558
0
VERTEX
8
1
10
2.049805
20
4.848633
0
VERTEX
8
1
10
1.999756
20
4.850952
0
VERTEX
8
1
10
1.961182
20
4.852417
0
VERTEX
8
1
10
1.935669
20
4.857788
0
VERTEX
8
1
10
1.917969
20
4.891235
0
VERTEX
8
1
10
1.906738
20
4.924805
0
VERTEX
8
1
10
1.901001
20
4.958130
0
VERTEX
8
1
10
1.900024
20
4.990845
0
VERTEX
8
1
10
1.903076
20
5.022461
0
VERTEX
8
1
10
1.909302
20
5.052734
0
VERTEX
8
1
10
1.917969
20
5.080933
0
VERTEX
8
1
10
1.928223
20
5.106934
0
VERTEX
8
1
10
1.939331
20
5.130127
0
VERTEX
8
1
10
1.950684
20
5.150146
0
VERTEX
8
1
10
1.961182
20
5.166870
0
VERTEX
8
1
10
1.970215
20
5.179321
0
VERTEX
8
1
10
1.977051
20
5.187500
0
VERTEX
8
1
10
1.978882
20
5.188843
0
VERTEX
8
1
10
1.981079
20
5.187988
0
VERTEX
8
1
10
1.984741
20
5.186523
0
VERTEX
8
1
10
1.989624
20
5.184448
0
VERTEX
8
1
10
1.995483
20
5.181641
0
VERTEX
8
1
10
2.002197
20
5.178223
0
VERTEX
8
1
10
2.009277
20
5.174072
0
VERTEX
8
1
10
2.016357
20
5.169434
0
VERTEX
8
1
10
2.023438
20
5.163940
0
VERTEX
8
1
10
2.030029
20
5.157959
0
VERTEX
8
1
10
2.036255
20
5.151123
0
VERTEX
8
1
10
2.041260
20
5.143677
0
VERTEX
8
1
10
2.045288
20
5.135864
0
VERTEX
8
1
10
2.042358
20
5.125854
0
VERTEX
8
1
10
2.027710
20
5.111084
0
VERTEX
8
1
10
2.016479
20
5.094971
0
VERTEX
8
1
10
2.008301
20
5.078003
0
VERTEX
8
1
10
2.002808
20
5.060425
0
VERTEX
8
1
10
1.999512
20
5.042725
0
VERTEX
8
1
10
1.998169
20
5.025391
0
VERTEX
8
1
10
1.998291
20
5.009033
0
VERTEX
8
1
10
1.999512
20
4.993652
0
VERTEX
8
1
10
2.001343
20
4.980225
0
VERTEX
8
1
10
2.003540
20
4.968750
0
VERTEX
8
1
10
2.005615
20
4.959961
0
VERTEX
8
1
10
2.007202
20
4.953979
0
VERTEX
8
1
10
2.008057
20
4.951416
0
VERTEX
8
1
10
2.012573
20
4.951538
0
VERTEX
8
1
10
2.028320
20
4.951538
0
VERTEX
8
1
10
2.053589
20
4.951538
0
VERTEX
8
1
10
2.086670
20
4.951538
0
VERTEX
8
1
10
2.125977
20
4.951538
0
VERTEX
8
1
10
2.169678
20
4.951538
0
VERTEX
8
1
10
2.216064
20
4.951538
0
VERTEX
8
1
10
2.263184
20
4.951538
0
VERTEX
8
1
10
2.309570
20
4.951538
0
VERTEX
8
1
10
2.353271
20
4.951660
0
VERTEX
8
1
10
2.392822
20
4.951416
0
VERTEX
8
1
10
2.426270
20
4.951538
0
VERTEX
8
1
10
2.452026
20
4.951660
0
VERTEX
8
1
10
2.467041
20
4.952881
0
VERTEX
8
1
10
2.476807
20
4.958740
0
VERTEX
8
1
10
2.485474
20
4.968018
0
VERTEX
8
1
10
2.492920
20
4.979858
0
VERTEX
8
1
10
2.499390
20
4.993774
0
VERTEX
8
1
10
2.504883
20
5.009033
0
VERTEX
8
1
10
2.509521
20
5.024902
0
VERTEX
8
1
10
2.513062
20
5.041016
0
VERTEX
8
1
10
2.516113
20
5.056274
0
VERTEX
8
1
10
2.518311
20
5.070313
0
VERTEX
8
1
10
2.519897
20
5.082397
0
VERTEX
8
1
10
2.520996
20
5.091797
0
VERTEX
8
1
10
2.521484
20
5.097778
0
SEQEND
0
POLYLINE
8
1
66
1
0
VERTEX
8
1
10
7.678589
20
5.504883
0
VERTEX
8
1
10
7.683838
20
5.526001
0
VERTEX
8
1
10
7.698486
20
5.542480
0
VERTEX
8
1
10
7.720947
20
5.554810
0
VERTEX
8
1
10
7.749756
20
5.563721
0
VERTEX
8
1
10
7.783203
20
5.569702
0
VERTEX
8
1
10
7.819702
20
5.573364
0
VERTEX
8
1
10
7.857910
20
5.575439
0
VERTEX
8
1
10
7.895874
20
5.576416
0
VERTEX
8
1
10
7.932251
20
5.577026
0
VERTEX
8
1
10
7.965576
20
5.577637
0
VERTEX
8
1
10
7.994019
20
5.579102
0
VERTEX
8
1
10
8.015991
20
5.581909
0
VERTEX
8
1
10
8.030273
20
5.587402
0
VERTEX
8
1
10
8.043579
20
5.592285
0
VERTEX
8
1
10
8.057861
20
5.595215
0
VERTEX
8
1
10
8.072998
20
5.596313
0
VERTEX
8
1
10
8.088501
20
5.595947
0
VERTEX
8
1
10
8.104126
20
5.593872
0
VERTEX
8
1
10
8.119629
20
5.590576
0
VERTEX
8
1
10
8.134521
20
5.586304
0
VERTEX
8
1
10
8.148926
20
5.581055
0
VERTEX
8
1
10
8.161987
20
5.574951
0
VERTEX
8
1
10
8.173828
20
5.568481
0
VERTEX
8
1
10
8.184082
20
5.561646
0
VERTEX
8
1
10
8.192261
20
5.554443
0
VERTEX
8
1
10
8.197388
20
5.547241
0
VERTEX
8
1
10
8.198853
20
5.539673
0
VERTEX
8
1
10
8.197021
20
5.532104
0
VERTEX
8
1
10
8.192505
20
5.524658
0
VERTEX
8
1
10
8.185791
20
5.517334
0
VERTEX
8
1
10
8.177368
20
5.510498
0
VERTEX
8
1
10
8.167725
20
5.504028
0
VERTEX
8
1
10
8.157104
20
5.498291
0
VERTEX
8
1
10
8.146362
20
5.493408
0
VERTEX
8
1
10
8.135742
20
5.489502
0
VERTEX
8
1
10
8.125610
20
5.486938
0
VERTEX
8
1
10
8.116821
20
5.485474
0
VERTEX
8
1
10
8.110962
20
5.485229
0
VERTEX
8
1
10
8.095825
20
5.485229
0
VERTEX
8
1
10
8.067871
20
5.485229
0
VERTEX
8
1
10
8.029907
20
5.485229
0
VERTEX
8
1
10
7.984741
20
5.485229
0
VERTEX
8
1
10
7.934814
20
5.485229
0
VERTEX
8
1
10
7.882690
20
5.485229
0
VERTEX
8
1
10
7.831543
20
5.485229
0
VERTEX
8
1
10
7.783691
20
5.485229
0
VERTEX
8
1
10
7.741577
20
5.485229
0
VERTEX
8
1
10
7.708374
20
5.485229
0
VERTEX
8
1
10
7.686523
20
5.485229
0
VERTEX
8
1
10
7.678589
20
5.485229
0
SEQEND
0
POLYLINE
8
1
66
1
70
1
0
VERTEX
8
1
10
6.611694
20
5.791504
0
VERTEX
8
1
10
6.609863
20
5.797974
0
VERTEX
8
1
10
6.608521
20
5.804932
0
VERTEX
8
1
10
6.607666
20
5.812134
0
VERTEX
8
1
10
6.607300
20
5.819458
0
VERTEX
8
1
10
6.607300
20
5.826904
0
VERTEX
8
1
10
6.607422
20
5.834106
0
VERTEX
8
1
10
6.607910
20
5.841187
0
VERTEX
8
1
10
6.608521
20
5.847656
0
VERTEX
8
1
10
6.609009
20
5.853638
0
VERTEX
8
1
10
6.609741
20
5.858887
0
VERTEX
8
1
10
6.610474
20
5.863403
0
VERTEX
8
1
10
6.611084
20
5.866943
0
VERTEX
8
1
10
6.611572
20
5.869141
0
VERTEX
8
1
10
6.611816
20
5.870239
0
VERTEX
8
1
10
6.617920
20
5.870239
0
VERTEX
8
1
10
6.645874
20
5.869629
0
VERTEX
8
1
10
6.692993
20
5.868530
0
VERTEX
8
1
10
6.755737
20
5.867065
0
VERTEX
8
1
10
6.830688
20
5.865356
0
VERTEX
8
1
10
6.914185
20
5.863403
0
VERTEX
8
1
10
7.002808
20
5.861450
0
VERTEX
8
1
10
7.092896
20
5.859375
0
VERTEX
8
1
10
7.181030
20
5.857300
0
VERTEX
8
1
10
7.263550
20
5.855469
0
VERTEX
8
1
10
7.336914
20
5.853760
0
VERTEX
8
1
10
7.397705
20
5.852417
0
VERTEX
8
1
10
7.442383
20
5.851440
0
VERTEX
8
1
10
7.467163
20
5.850830
0
VERTEX
8
1
10
7.470337
20
5.851074
0
VERTEX
8
1
10
7.462646
20
5.854248
0
VERTEX
8
1
10
7.447632
20
5.860596
0
VERTEX
8
1
10
7.426758
20
5.869385
0
VERTEX
8
1
10
7.401123
20
5.880127
0
VERTEX
8
1
10
7.372192
20
5.892334
0
VERTEX
8
1
10
7.340942
20
5.905396
0
VERTEX
8
1
10
7.308838
20
5.918823
0
VERTEX
8
1
10
7.277100
20
5.932129
0
VERTEX
8
1
10
7.247070
20
5.944702
0
VERTEX
8
1
10
7.219727
20
5.956177
0
VERTEX
8
1
10
7.196777
20
5.965942
0
VERTEX
8
1
10
7.179199
20
5.973267
0
VERTEX
8
1
10
7.168091
20
5.978027
0
VERTEX
8
1
10
7.164917
20
5.979248
0
VERTEX
8
1
10
7.165039
20
5.979980
0
VERTEX
8
1
10
7.165527
20
5.981689
0
VERTEX
8
1
10
7.166138
20
5.984131
0
VERTEX
8
1
10
7.166870
20
5.987183
0
VERTEX
8
1
10
7.167725
20
5.990845
0
VERTEX
8
1
10
7.168823
20
5.994873
0
VERTEX
8
1
10
7.169678
20
5.998901
0
VERTEX
8
1
10
7.170776
20
6.002930
0
VERTEX
8
1
10
7.171753
20
6.006958
0
VERTEX
8
1
10
7.172729
20
6.010498
0
VERTEX
8
1
10
7.173462
20
6.013672
0
VERTEX
8
1
10
7.174072
20
6.016113
0
VERTEX
8
1
10
7.174316
20
6.017822
0
VERTEX
8
1
10
7.174561
20
6.018555
0
VERTEX
8
1
10
7.178955
20
6.017334
0
VERTEX
8
1
10
7.193481
20
6.013062
0
VERTEX
8
1
10
7.217041
20
6.006226
0
VERTEX
8
1
10
7.247925
20
5.997314
0
VERTEX
8
1
10
7.284424
20
5.986816
0
VERTEX
8
1
10
7.325195
20
5.975098
0
VERTEX
8
1
10
7.368408
20
5.962769
0
VERTEX
8
1
10
7.412354
20
5.950439
0
VERTEX
8
1
10
7.455811
20
5.938354
0
VERTEX
8
1
10
7.496826
20
5.927124
0
VERTEX
8
1
10
7.533936
20
5.917358
0
VERTEX
8
1
10
7.565674
20
5.909058
0
VERTEX
8
1
10
7.589966
20
5.903320
0
VERTEX
8
1
10
7.605713
20
5.900269
0
VERTEX
8
1
10
7.609375
20
5.899780
0
VERTEX
8
1
10
7.609619
20
5.898315
0
VERTEX
8
1
10
7.610107
20
5.895630
0
VERTEX
8
1
10
7.610474
20
5.891724
0
VERTEX
8
1
10
7.610840
20
5.886841
0
VERTEX
8
1
10
7.610962
20
5.880981
0
VERTEX
8
1
10
7.610840
20
5.874512
0
VERTEX
8
1
10
7.610352
20
5.867188
0
VERTEX
8
1
10
7.609497
20
5.859619
0
VERTEX
8
1
10
7.607910
20
5.851440
0
VERTEX
8
1
10
7.605713
20
5.843018
0
VERTEX
8
1
10
7.602783
20
5.834229
0
VERTEX
8
1
10
7.598633
20
5.825562
0
VERTEX
8
1
10
7.593994
20
5.817139
0
VERTEX
8
1
10
7.586304
20
5.810547
0
VERTEX
8
1
10
7.558594
20
5.808472
0
VERTEX
8
1
10
7.509277
20
5.806396
0
VERTEX
8
1
10
7.442139
20
5.804321
0
VERTEX
8
1
10
7.361084
20
5.802490
0
VERTEX
8
1
10
7.269653
20
5.800659
0
VERTEX
8
1
10
7.171997
20
5.798950
0
VERTEX
8
1
10
7.071533
20
5.797241
0
VERTEX
8
1
10
6.972290
20
5.796021
0
VERTEX
8
1
10
6.877686
20
5.794678
0
VERTEX
8
1
10
6.791992
20
5.793579
0
VERTEX
8
1
10
6.718872
20
5.792725
0
VERTEX
8
1
10
6.661865
20
5.792114
0
VERTEX
8
1
10
6.624878
20
5.791504
0
SEQEND
0
POLYLINE
8
1
66
1
70
1
0
VERTEX
8
1
10
8.211914
20
2.516602
0
VERTEX
8
1
10
8.211914
20
2.886963
0
VERTEX
8
1
10
7.960083
20
2.886963
0
VERTEX
8
1
10
7.960083
20
2.516602
0
SEQEND
0
POLYLINE
8
1
66
1
70
1
0
VERTEX
8
1
10
10.138428
20
2.457397
0
VERTEX
8
1
10
10.138428
20
2.961060
0
VERTEX
8
1
10
9.738403
20
2.961060
0
VERTEX
8
1
10
9.738403
20
2.457397
0
SEQEND
0
POLYLINE
8
1
66
1
70
1
0
VERTEX
8
1
10
10.510498
20
4.728638
0
VERTEX
8
1
10
10.507446
20
4.980591
0
VERTEX
8
1
10
9.766724
20
4.972290
0
VERTEX
8
1
10
9.769409
20
4.720093
0
SEQEND
0
POLYLINE
8
1
66
1
70
1
0
VERTEX
8
1
10
9.168579
20
5.870117
0
VERTEX
8
1
10
9.153687
20
5.870361
0
VERTEX
8
1
10
9.138916
20
5.872437
0
VERTEX
8
1
10
9.124512
20
5.876587
0
VERTEX
8
1
10
9.110718
20
5.882568
0
VERTEX
8
1
10
9.097778
20
5.890381
0
VERTEX
8
1
10
9.085815
20
5.899902
0
VERTEX
8
1
10
9.074951
20
5.910767
0
VERTEX
8
1
10
9.065552
20
5.923096
0
VERTEX
8
1
10
9.057617
20
5.936646
0
VERTEX
8
1
10
9.051392
20
5.950928
0
VERTEX
8
1
10
9.046875
20
5.966064
0
VERTEX
8
1
10
9.044189
20
5.981689
0
VERTEX
8
1
10
9.043335
20
5.997437
0
VERTEX
8
1
10
9.044312
20
6.013184
0
VERTEX
8
1
10
9.047241
20
6.028687
0
VERTEX
8
1
10
9.051880
20
6.043701
0
VERTEX
8
1
10
9.058350
20
6.057861
0
VERTEX
8
1
10
9.066406
20
6.071167
0
VERTEX
8
1
10
9.075928
20
6.083130
0
VERTEX
8
1
10
9.086914
20
6.093872
0
VERTEX
8
1
10
9.098999
20
6.103027
0
VERTEX
8
1
10
9.112061
20
6.110474
0
VERTEX
8
1
10
9.125977
20
6.116089
0
VERTEX
8
1
10
9.140381
20
6.119751
0
VERTEX
8
1
10
9.155151
20
6.121582
0
VERTEX
8
1
10
9.170044
20
6.121338
0
VERTEX
8
1
10
9.184814
20
6.119263
0
VERTEX
8
1
10
9.199219
20
6.115112
0
VERTEX
8
1
10
9.213013
20
6.109131
0
VERTEX
8
1
10
9.225952
20
6.101318
0
VERTEX
8
1
10
9.237915
20
6.091797
0
VERTEX
8
1
10
9.248779
20
6.080933
0
VERTEX
8
1
10
9.258179
20
6.068604
0
VERTEX
8
1
10
9.266113
20
6.055054
0
VERTEX
8
1
10
9.272339
20
6.040771
0
VERTEX
8
1
10
9.276855
20
6.025635
0
VERTEX
8
1
10
9.279541
20
6.010010
0
VERTEX
8
1
10
9.280396
20
5.994263
0
VERTEX
8
1
10
9.279419
20
5.978516
0
VERTEX
8
1
10
9.276489
20
5.963013
0
VERTEX
8
1
10
9.271851
20
5.947998
0
VERTEX
8
1
10
9.265381
20
5.933838
0
VERTEX
8
1
10
9.257324
20
5.920532
0
VERTEX
8
1
10
9.247803
20
5.908569
0
VERTEX
8
1
10
9.236816
20
5.897827
0
VERTEX
8
1
10
9.224731
20
5.888672
0
VERTEX
8
1
10
9.211670
20
5.881226
0
VERTEX
8
1
10
9.197754
20
5.875610
0
VERTEX
8
1
10
9.183350
20
5.871948
0
SEQEND
0
POLYLINE
8
1
66
1
70
1
0
VERTEX
8
1
10
9.583130
20
5.891724
0
VERTEX
8
1
10
9.568237
20
5.891968
0
VERTEX
8
1
10
9.553467
20
5.894043
0
VERTEX
8
1
10
9.539063
20
5.898193
0
VERTEX
8
1
10
9.525269
20
5.904175
0
VERTEX
8
1
10
9.512329
20
5.911987
0
VERTEX
8
1
10
9.500366
20
5.921509
0
VERTEX
8
1
10
9.489502
20
5.932373
0
VERTEX
8
1
10
9.480103
20
5.944702
0
VERTEX
8
1
10
9.472168
20
5.958252
0
VERTEX
8
1
10
9.465942
20
5.972534
0
VERTEX
8
1
10
9.461426
20
5.987671
0
VERTEX
8
1
10
9.458740
20
6.003296
0
VERTEX
8
1
10
9.457886
20
6.019043
0
VERTEX
8
1
10
9.458862
20
6.034790
0
VERTEX
8
1
10
9.461792
20
6.050293
0
VERTEX
8
1
10
9.466431
20
6.065308
0
VERTEX
8
1
10
9.472900
20
6.079468
0
VERTEX
8
1
10
9.480957
20
6.092773
0
VERTEX
8
1
10
9.490479
20
6.104736
0
VERTEX
8
1
10
9.501465
20
6.115479
0
VERTEX
8
1
10
9.513550
20
6.124634
0
VERTEX
8
1
10
9.526611
20
6.132080
0
VERTEX
8
1
10
9.540527
20
6.137695
0
VERTEX
8
1
10
9.554932
20
6.141357
0
VERTEX
8
1
10
9.569702
20
6.143188
0
VERTEX
8
1
10
9.584595
20
6.142944
0
VERTEX
8
1
10
9.599365
20
6.140869
0
VERTEX
8
1
10
9.613770
20
6.136719
0
VERTEX
8
1
10
9.627563
20
6.130737
0
VERTEX
8
1
10
9.640503
20
6.122925
0
VERTEX
8
1
10
9.652466
20
6.113403
0
VERTEX
8
1
10
9.663330
20
6.102539
0
VERTEX
8
1
10
9.672729
20
6.090210
0
VERTEX
8
1
10
9.680664
20
6.076660
0
VERTEX
8
1
10
9.686890
20
6.062378
0
VERTEX
8
1
10
9.691406
20
6.047241
0
VERTEX
8
1
10
9.694092
20
6.031616
0
VERTEX
8
1
10
9.694946
20
6.015869
0
VERTEX
8
1
10
9.693970
20
6.000122
0
VERTEX
8
1
10
9.691040
20
5.984619
0
VERTEX
8
1
10
9.686401
20
5.969604
0
VERTEX
8
1
10
9.679932
20
5.955444
0
VERTEX
8
1
10
9.671875
20
5.942139
0
VERTEX
8
1
10
9.662354
20
5.930176
0
VERTEX
8
1
10
9.651367
20
5.919434
0
VERTEX
8
1
10
9.639282
20
5.910278
0
VERTEX
8
1
10
9.626221
20
5.902832
0
VERTEX
8
1
10
9.612305
20
5.897217
0
VERTEX
8
1
10
9.597900
20
5.893555
0
SEQEND
0
POLYLINE
8
1
66
1
70
1
0
VERTEX
8
1
10
9.953125
20
5.910645
0
VERTEX
8
1
10
9.938232
20
5.910889
0
VERTEX
8
1
10
9.923462
20
5.913086
0
VERTEX
8
1
10
9.909058
20
5.917236
0
VERTEX
8
1
10
9.895264
20
5.923218
0
VERTEX
8
1
10
9.882324
20
5.931030
0
VERTEX
8
1
10
9.870361
20
5.940552
0
VERTEX
8
1
10
9.859497
20
5.951538
0
VERTEX
8
1
10
9.850098
20
5.963867
0
VERTEX
8
1
10
9.842163
20
5.977295
0
VERTEX
8
1
10
9.835938
20
5.991699
0
VERTEX
8
1
10
9.831421
20
6.006836
0
VERTEX
8
1
10
9.828735
20
6.022461
0
VERTEX
8
1
10
9.827881
20
6.038208
0
VERTEX
8
1
10
9.828979
20
6.053955
0
VERTEX
8
1
10
9.831787
20
6.069580
0
VERTEX
8
1
10
9.836548
20
6.084473
0
VERTEX
8
1
10
9.842896
20
6.098755
0
VERTEX
8
1
10
9.850952
20
6.112061
0
VERTEX
8
1
10
9.860474
20
6.124146
0
VERTEX
8
1
10
9.871460
20
6.134766
0
VERTEX
8
1
10
9.883545
20
6.143921
0
VERTEX
8
1
10
9.896606
20
6.151367
0
VERTEX
8
1
10
9.910522
20
6.156982
0
VERTEX
8
1
10
9.924927
20
6.160767
0
VERTEX
8
1
10
9.939697
20
6.162598
0
VERTEX
8
1
10
9.954590
20
6.162354
0
VERTEX
8
1
10
9.969360
20
6.160156
0
VERTEX
8
1
10
9.983765
20
6.156006
0
VERTEX
8
1
10
9.997559
20
6.150024
0
VERTEX
8
1
10
10.010498
20
6.142212
0
VERTEX
8
1
10
10.022461
20
6.132690
0
VERTEX
8
1
10
10.033325
20
6.121704
0
VERTEX
8
1
10
10.042725
20
6.109375
0
VERTEX
8
1
10
10.050659
20
6.095947
0
VERTEX
8
1
10
10.056885
20
6.081543
0
VERTEX
8
1
10
10.061401
20
6.066406
0
VERTEX
8
1
10
10.064087
20
6.050781
0
VERTEX
8
1
10
10.064941
20
6.035034
0
VERTEX
8
1
10
10.063843
20
6.019287
0
VERTEX
8
1
10
10.061035
20
6.003662
0
VERTEX
8
1
10
10.056274
20
5.988770
0
VERTEX
8
1
10
10.049927
20
5.974487
0
VERTEX
8
1
10
10.041870
20
5.961182
0
VERTEX
8
1
10
10.032349
20
5.949097
0
VERTEX
8
1
10
10.021362
20
5.938477
0
VERTEX
8
1
10
10.009277
20
5.929321
0
VERTEX
8
1
10
9.996216
20
5.921875
0
VERTEX
8
1
10
9.982300
20
5.916260
0
VERTEX
8
1
10
9.967896
20
5.912476
0
SEQEND
0
POLYLINE
8
1
66
1
70
1
0
VERTEX
8
1
10
10.367188
20
5.932373
0
VERTEX
8
1
10
10.352295
20
5.932617
0
VERTEX
8
1
10
10.337524
20
5.934814
0
VERTEX
8
1
10
10.323242
20
5.938965
0
VERTEX
8
1
10
10.309448
20
5.945068
0
VERTEX
8
1
10
10.296387
20
5.952881
0
VERTEX
8
1
10
10.284424
20
5.962280
0
VERTEX
8
1
10
10.273682
20
5.973389
0
VERTEX
8
1
10
10.264282
20
5.985718
0
VERTEX
8
1
10
10.256470
20
5.999146
0
VERTEX
8
1
10
10.250244
20
6.013550
0
VERTEX
8
1
10
10.245728
20
6.028687
0
VERTEX
8
1
10
10.243164
20
6.044189
0
VERTEX
8
1
10
10.242310
20
6.060059
0
VERTEX
8
1
10
10.243408
20
6.075806
0
VERTEX
8
1
10
10.246338
20
6.091309
0
VERTEX
8
1
10
10.251099
20
6.106201
0
VERTEX
8
1
10
10.257446
20
6.120361
0
VERTEX
8
1
10
10.265625
20
6.133667
0
VERTEX
8
1
10
10.275146
20
6.145630
0
VERTEX
8
1
10
10.286133
20
6.156250
0
VERTEX
8
1
10
10.298218
20
6.165405
0
VERTEX
8
1
10
10.311401
20
6.172852
0
VERTEX
8
1
10
10.325195
20
6.178467
0
VERTEX
8
1
10
10.339722
20
6.182129
0
VERTEX
8
1
10
10.354492
20
6.183838
0
VERTEX
8
1
10
10.369385
20
6.183594
0
VERTEX
8
1
10
10.384155
20
6.181396
0
VERTEX
8
1
10
10.398438
20
6.177246
0
VERTEX
8
1
10
10.412231
20
6.171143
0
VERTEX
8
1
10
10.425293
20
6.163330
0
VERTEX
8
1
10
10.437256
20
6.153931
0
VERTEX
8
1
10
10.447998
20
6.142822
0
VERTEX
8
1
10
10.457397
20
6.130493
0
VERTEX
8
1
10
10.465210
20
6.117065
0
VERTEX
8
1
10
10.471436
20
6.102661
0
VERTEX
8
1
10
10.475952
20
6.087524
0
VERTEX
8
1
10
10.478516
20
6.072021
0
VERTEX
8
1
10
10.479370
20
6.056152
0
VERTEX
8
1
10
10.478271
20
6.040405
0
VERTEX
8
1
10
10.475342
20
6.024902
0
VERTEX
8
1
10
10.470581
20
6.010010
0
VERTEX
8
1
10
10.464233
20
5.995850
0
VERTEX
8
1
10
10.456055
20
5.982544
0
VERTEX
8
1
10
10.446533
20
5.970581
0
VERTEX
8
1
10
10.435547
20
5.959961
0
VERTEX
8
1
10
10.423462
20
5.950806
0
VERTEX
8
1
10
10.410278
20
5.943359
0
VERTEX
8
1
10
10.396484
20
5.937744
0
VERTEX
8
1
10
10.381958
20
5.934082
0
SEQEND
0
POLYLINE
8
1
66
1
70
1
0
VERTEX
8
1
10
10.752075
20
5.952393
0
VERTEX
8
1
10
10.737183
20
5.952637
0
VERTEX
8
1
10
10.722290
20
5.954834
0
VERTEX
8
1
10
10.707886
20
5.958984
0
VERTEX
8
1
10
10.694092
20
5.964966
0
VERTEX
8
1
10
10.681152
20
5.972778
0
VERTEX
8
1
10
10.669067
20
5.982178
0
VERTEX
8
1
10
10.658325
20
5.993164
0
VERTEX
8
1
10
10.648926
20
6.005493
0
VERTEX
8
1
10
10.640991
20
6.019043
0
VERTEX
8
1
10
10.634766
20
6.033447
0
VERTEX
8
1
10
10.630249
20
6.048462
0
VERTEX
8
1
10
10.627563
20
6.064087
0
VERTEX
8
1
10
10.626831
20
6.079834
0
VERTEX
8
1
10
10.627808
20
6.095581
0
VERTEX
8
1
10
10.630737
20
6.111084
0
VERTEX
8
1
10
10.635498
20
6.126099
0
VERTEX
8
1
10
10.641968
20
6.140259
0
VERTEX
8
1
10
10.650024
20
6.153564
0
VERTEX
8
1
10
10.659546
20
6.165527
0
VERTEX
8
1
10
10.670532
20
6.176270
0
VERTEX
8
1
10
10.682617
20
6.185303
0
VERTEX
8
1
10
10.695801
20
6.192749
0
VERTEX
8
1
10
10.709717
20
6.198364
0
VERTEX
8
1
10
10.724121
20
6.202148
0
VERTEX
8
1
10
10.738892
20
6.203857
0
VERTEX
8
1
10
10.753784
20
6.203613
0
VERTEX
8
1
10
10.768677
20
6.201416
0
VERTEX
8
1
10
10.783081
20
6.197266
0
VERTEX
8
1
10
10.796875
20
6.191284
0
VERTEX
8
1
10
10.809814
20
6.183472
0
VERTEX
8
1
10
10.821899
20
6.174072
0
VERTEX
8
1
10
10.832642
20
6.163086
0
VERTEX
8
1
10
10.842041
20
6.150757
0
VERTEX
8
1
10
10.849976
20
6.137207
0
VERTEX
8
1
10
10.856201
20
6.122803
0
VERTEX
8
1
10
10.860718
20
6.107788
0
VERTEX
8
1
10
10.863403
20
6.092163
0
VERTEX
8
1
10
10.864136
20
6.076416
0
VERTEX
8
1
10
10.863159
20
6.060669
0
VERTEX
8
1
10
10.860229
20
6.045166
0
VERTEX
8
1
10
10.855469
20
6.030151
0
VERTEX
8
1
10
10.848999
20
6.015991
0
VERTEX
8
1
10
10.840942
20
6.002686
0
VERTEX
8
1
10
10.831421
20
5.990723
0
VERTEX
8
1
10
10.820435
20
5.979980
0
VERTEX
8
1
10
10.808350
20
5.970947
0
VERTEX
8
1
10
10.795166
20
5.963501
0
VERTEX
8
1
10
10.781250
20
5.957886
0
VERTEX
8
1
10
10.766846
20
5.954102
0
SEQEND
0
POLYLINE
8
1
66
1
70
1
0
VERTEX
8
1
10
9.183472
20
5.351563
0
VERTEX
8
1
10
9.168579
20
5.351807
0
VERTEX
8
1
10
9.153687
20
5.354004
0
VERTEX
8
1
10
9.139282
20
5.358154
0
VERTEX
8
1
10
9.125488
20
5.364136
0
VERTEX
8
1
10
9.112549
20
5.371948
0
VERTEX
8
1
10
9.100464
20
5.381348
0
VERTEX
8
1
10
9.089722
20
5.392334
0
VERTEX
8
1
10
9.080322
20
5.404663
0
VERTEX
8
1
10
9.072388
20
5.418213
0
VERTEX
8
1
10
9.066162
20
5.432617
0
VERTEX
8
1
10
9.061646
20
5.447632
0
VERTEX
8
1
10
9.058960
20
5.463257
0
VERTEX
8
1
10
9.058228
20
5.479004
0
VERTEX
8
1
10
9.059204
20
5.494751
0
VERTEX
8
1
10
9.062134
20
5.510254
0
VERTEX
8
1
10
9.066895
20
5.525269
0
VERTEX
8
1
10
9.073364
20
5.539429
0
VERTEX
8
1
10
9.081421
20
5.552734
0
VERTEX
8
1
10
9.090942
20
5.564697
0
VERTEX
8
1
10
9.101929
20
5.575439
0
VERTEX
8
1
10
9.114014
20
5.584473
0
VERTEX
8
1
10
9.127197
20
5.591919
0
VERTEX
8
1
10
9.141113
20
5.597534
0
VERTEX
8
1
10
9.155518
20
5.601318
0
VERTEX
8
1
10
9.170288
20
5.603027
0
VERTEX
8
1
10
9.185181
20
5.602783
0
VERTEX
8
1
10
9.200073
20
5.600586
0
VERTEX
8
1
10
9.214478
20
5.596436
0
VERTEX
8
1
10
9.228271
20
5.590454
0
VERTEX
8
1
10
9.241211
20
5.582642
0
VERTEX
8
1
10
9.253296
20
5.573242
0
VERTEX
8
1
10
9.264038
20
5.562256
0
VERTEX
8
1
10
9.273438
20
5.549927
0
VERTEX
8
1
10
9.281372
20
5.536377
0
VERTEX
8
1
10
9.287598
20
5.521973
0
VERTEX
8
1
10
9.292114
20
5.506958
0
VERTEX
8
1
10
9.294800
20
5.491333
0
VERTEX
8
1
10
9.295532
20
5.475586
0
VERTEX
8
1
10
9.294556
20
5.459839
0
VERTEX
8
1
10
9.291626
20
5.444336
0
VERTEX
8
1
10
9.286865
20
5.429321
0
VERTEX
8
1
10
9.280396
20
5.415161
0
VERTEX
8
1
10
9.272339
20
5.401855
0
VERTEX
8
1
10
9.262817
20
5.389893
0
VERTEX
8
1
10
9.251831
20
5.379150
0
VERTEX
8
1
10
9.239746
20
5.370117
0
VERTEX
8
1
10
9.226563
20
5.362671
0
VERTEX
8
1
10
9.212646
20
5.357056
0
VERTEX
8
1
10
9.198242
20
5.353271
0
SEQEND
0
POLYLINE
8
1
66
1
70
1
0
VERTEX
8
1
10
9.597900
20
5.372925
0
VERTEX
8
1
10
9.583008
20
5.373169
0
VERTEX
8
1
10
9.568237
20
5.375244
0
VERTEX
8
1
10
9.553833
20
5.379395
0
VERTEX
8
1
10
9.540039
20
5.385376
0
VERTEX
8
1
10
9.527100
20
5.393188
0
VERTEX
8
1
10
9.515137
20
5.402710
0
VERTEX
8
1
10
9.504272
20
5.413574
0
VERTEX
8
1
10
9.494873
20
5.425903
0
VERTEX
8
1
10
9.486938
20
5.439453
0
VERTEX
8
1
10
9.480713
20
5.453735
0
VERTEX
8
1
10
9.476196
20
5.468872
0
VERTEX
8
1
10
9.473511
20
5.484497
0
VERTEX
8
1
10
9.472656
20
5.500244
0
VERTEX
8
1
10
9.473633
20
5.515991
0
VERTEX
8
1
10
9.476563
20
5.531494
0
VERTEX
8
1
10
9.481201
20
5.546509
0
VERTEX
8
1
10
9.487671
20
5.560669
0
VERTEX
8
1
10
9.495728
20
5.573975
0
VERTEX
8
1
10
9.505249
20
5.585938
0
VERTEX
8
1
10
9.516235
20
5.596680
0
VERTEX
8
1
10
9.528320
20
5.605835
0
VERTEX
8
1
10
9.541382
20
5.613281
0
VERTEX
8
1
10
9.555298
20
5.618896
0
VERTEX
8
1
10
9.569702
20
5.622559
0
VERTEX
8
1
10
9.584473
20
5.624390
0
VERTEX
8
1
10
9.599365
20
5.624146
0
VERTEX
8
1
10
9.614136
20
5.622070
0
VERTEX
8
1
10
9.628540
20
5.617920
0
VERTEX
8
1
10
9.642334
20
5.611938
0
VERTEX
8
1
10
9.655273
20
5.604126
0
VERTEX
8
1
10
9.667236
20
5.594604
0
VERTEX
8
1
10
9.678101
20
5.583740
0
VERTEX
8
1
10
9.687500
20
5.571411
0
VERTEX
8
1
10
9.695435
20
5.557861
0
VERTEX
8
1
10
9.701660
20
5.543579
0
VERTEX
8
1
10
9.706177
20
5.528442
0
VERTEX
8
1
10
9.708862
20
5.512817
0
VERTEX
8
1
10
9.709717
20
5.497070
0
VERTEX
8
1
10
9.708740
20
5.481323
0
VERTEX
8
1
10
9.705811
20
5.465820
0
VERTEX
8
1
10
9.701172
20
5.450806
0
VERTEX
8
1
10
9.694702
20
5.436646
0
VERTEX
8
1
10
9.686646
20
5.423340
0
VERTEX
8
1
10
9.677124
20
5.411377
0
VERTEX
8
1
10
9.666138
20
5.400635
0
VERTEX
8
1
10
9.654053
20
5.391479
0
VERTEX
8
1
10
9.640991
20
5.384033
0
VERTEX
8
1
10
9.627075
20
5.378418
0
VERTEX
8
1
10
9.612671
20
5.374756
0
SEQEND
0
POLYLINE
8
1
66
1
70
1
0
VERTEX
8
1
10
9.967896
20
5.392212
0
VERTEX
8
1
10
9.953003
20
5.392456
0
VERTEX
8
1
10
9.938232
20
5.394531
0
VERTEX
8
1
10
9.923828
20
5.398682
0
VERTEX
8
1
10
9.910034
20
5.404663
0
VERTEX
8
1
10
9.897095
20
5.412476
0
VERTEX
8
1
10
9.885132
20
5.421997
0
VERTEX
8
1
10
9.874268
20
5.432861
0
VERTEX
8
1
10
9.864868
20
5.445190
0
VERTEX
8
1
10
9.856934
20
5.458740
0
VERTEX
8
1
10
9.850708
20
5.473022
0
VERTEX
8
1
10
9.846191
20
5.488159
0
VERTEX
8
1
10
9.843506
20
5.503784
0
VERTEX
8
1
10
9.842651
20
5.519531
0
VERTEX
8
1
10
9.843628
20
5.535278
0
VERTEX
8
1
10
9.846558
20
5.550781
0
VERTEX
8
1
10
9.851196
20
5.565796
0
VERTEX
8
1
10
9.857666
20
5.579956
0
VERTEX
8
1
10
9.865723
20
5.593262
0
VERTEX
8
1
10
9.875244
20
5.605225
0
VERTEX
8
1
10
9.886230
20
5.615967
0
VERTEX
8
1
10
9.898315
20
5.625122
0
VERTEX
8
1
10
9.911377
20
5.632568
0
VERTEX
8
1
10
9.925293
20
5.638184
0
VERTEX
8
1
10
9.939697
20
5.641846
0
VERTEX
8
1
10
9.954468
20
5.643677
0
VERTEX
8
1
10
9.969360
20
5.643433
0
VERTEX
8
1
10
9.984131
20
5.641357
0
VERTEX
8
1
10
9.998535
20
5.637207
0
VERTEX
8
1
10
10.012329
20
5.631226
0
VERTEX
8
1
10
10.025269
20
5.623413
0
VERTEX
8
1
10
10.037231
20
5.613892
0
VERTEX
8
1
10
10.048096
20
5.603027
0
VERTEX
8
1
10
10.057495
20
5.590698
0
VERTEX
8
1
10
10.065430
20
5.577148
0
VERTEX
8
1
10
10.071655
20
5.562866
0
VERTEX
8
1
10
10.076172
20
5.547729
0
VERTEX
8
1
10
10.078857
20
5.532104
0
VERTEX
8
1
10
10.079712
20
5.516357
0
VERTEX
8
1
10
10.078735
20
5.500610
0
VERTEX
8
1
10
10.075806
20
5.485107
0
VERTEX
8
1
10
10.071167
20
5.470093
0
VERTEX
8
1
10
10.064697
20
5.455933
0
VERTEX
8
1
10
10.056641
20
5.442627
0
VERTEX
8
1
10
10.047119
20
5.430664
0
VERTEX
8
1
10
10.036133
20
5.419922
0
VERTEX
8
1
10
10.024048
20
5.410767
0
VERTEX
8
1
10
10.010986
20
5.403320
0
VERTEX
8
1
10
9.997070
20
5.397705
0
VERTEX
8
1
10
9.982666
20
5.394043
0
SEQEND
0
POLYLINE
8
1
66
1
70
1
0
VERTEX
8
1
10
10.381958
20
5.413574
0
VERTEX
8
1
10
10.367065
20
5.413818
0
VERTEX
8
1
10
10.352295
20
5.416138
0
VERTEX
8
1
10
10.338013
20
5.420288
0
VERTEX
8
1
10
10.324219
20
5.426270
0
VERTEX
8
1
10
10.311157
20
5.434204
0
VERTEX
8
1
10
10.299194
20
5.443604
0
VERTEX
8
1
10
10.288452
20
5.454712
0
VERTEX
8
1
10
10.279053
20
5.467041
0
VERTEX
8
1
10
10.271240
20
5.480469
0
VERTEX
8
1
10
10.265015
20
5.494995
0
VERTEX
8
1
10
10.260620
20
5.510132
0
VERTEX
8
1
10
10.257935
20
5.525635
0
VERTEX
8
1
10
10.257080
20
5.541504
0
VERTEX
8
1
10
10.258179
20
5.557251
0
VERTEX
8
1
10
10.261108
20
5.572754
0
VERTEX
8
1
10
10.265869
20
5.587769
0
VERTEX
8
1
10
10.272217
20
5.601929
0
VERTEX
8
1
10
10.280396
20
5.615234
0
VERTEX
8
1
10
10.289917
20
5.627197
0
VERTEX
8
1
10
10.300903
20
5.637939
0
VERTEX
8
1
10
10.312988
20
5.646973
0
VERTEX
8
1
10
10.326172
20
5.654419
0
VERTEX
8
1
10
10.339966
20
5.660034
0
VERTEX
8
1
10
10.354492
20
5.663696
0
VERTEX
8
1
10
10.369263
20
5.665527
0
VERTEX
8
1
10
10.384155
20
5.665283
0
VERTEX
8
1
10
10.398926
20
5.662964
0
VERTEX
8
1
10
10.413208
20
5.658813
0
VERTEX
8
1
10
10.427002
20
5.652832
0
VERTEX
8
1
10
10.440063
20
5.644897
0
VERTEX
8
1
10
10.452026
20
5.635498
0
VERTEX
8
1
10
10.462769
20
5.624390
0
VERTEX
8
1
10
10.472168
20
5.612061
0
VERTEX
8
1
10
10.479980
20
5.598633
0
VERTEX
8
1
10
10.486206
20
5.584106
0
VERTEX
8
1
10
10.490601
20
5.568970
0
VERTEX
8
1
10
10.493286
20
5.553467
0
VERTEX
8
1
10
10.494141
20
5.537598
0
VERTEX
8
1
10
10.493042
20
5.521851
0
VERTEX
8
1
10
10.490112
20
5.506348
0
VERTEX
8
1
10
10.485352
20
5.491333
0
VERTEX
8
1
10
10.479004
20
5.477173
0
VERTEX
8
1
10
10.470825
20
5.463867
0
VERTEX
8
1
10
10.461304
20
5.451904
0
VERTEX
8
1
10
10.450317
20
5.441162
0
VERTEX
8
1
10
10.438232
20
5.432129
0
VERTEX
8
1
10
10.425049
20
5.424683
0
VERTEX
8
1
10
10.411255
20
5.419067
0
VERTEX
8
1
10
10.396729
20
5.415405
0
SEQEND
0
POLYLINE
8
1
66
1
70
1
0
VERTEX
8
1
10
10.766846
20
5.433594
0
VERTEX
8
1
10
10.751953
20
5.433838
0
VERTEX
8
1
10
10.737183
20
5.436035
0
VERTEX
8
1
10
10.722900
20
5.440308
0
VERTEX
8
1
10
10.709106
20
5.446289
0
VERTEX
8
1
10
10.696045
20
5.454224
0
VERTEX
8
1
10
10.684082
20
5.463623
0
VERTEX
8
1
10
10.673340
20
5.474731
0
VERTEX
8
1
10
10.663940
20
5.487061
0
VERTEX
8
1
10
10.656128
20
5.500610
0
VERTEX
8
1
10
10.649902
20
5.515015
0
VERTEX
8
1
10
10.645386
20
5.530151
0
VERTEX
8
1
10
10.642822
20
5.545776
0
VERTEX
8
1
10
10.641968
20
5.561646
0
VERTEX
8
1
10
10.643066
20
5.577393
0
VERTEX
8
1
10
10.645996
20
5.593018
0
VERTEX
8
1
10
10.650757
20
5.607910
0
VERTEX
8
1
10
10.657104
20
5.622192
0
VERTEX
8
1
10
10.665283
20
5.635498
0
VERTEX
8
1
10
10.674805
20
5.647461
0
VERTEX
8
1
10
10.685791
20
5.658203
0
VERTEX
8
1
10
10.697876
20
5.667358
0
VERTEX
8
1
10
10.711060
20
5.674683
0
VERTEX
8
1
10
10.724854
20
5.680298
0
VERTEX
8
1
10
10.739380
20
5.684082
0
VERTEX
8
1
10
10.754150
20
5.685791
0
VERTEX
8
1
10
10.769043
20
5.685547
0
VERTEX
8
1
10
10.783813
20
5.683350
0
VERTEX
8
1
10
10.798096
20
5.679077
0
VERTEX
8
1
10
10.811890
20
5.673096
0
VERTEX
8
1
10
10.824951
20
5.665161
0
VERTEX
8
1
10
10.836914
20
5.655762
0
VERTEX
8
1
10
10.847656
20
5.644653
0
VERTEX
8
1
10
10.857056
20
5.632324
0
VERTEX
8
1
10
10.864868
20
5.618774
0
VERTEX
8
1
10
10.871094
20
5.604370
0
VERTEX
8
1
10
10.875610
20
5.589233
0
VERTEX
8
1
10
10.878174
20
5.573608
0
VERTEX
8
1
10
10.879028
20
5.557739
0
VERTEX
8
1
10
10.877930
20
5.541992
0
VERTEX
8
1
10
10.875000
20
5.526367
0
VERTEX
8
1
10
10.870239
20
5.511475
0
VERTEX
8
1
10
10.863892
20
5.497192
0
VERTEX
8
1
10
10.855713
20
5.483887
0
VERTEX
8
1
10
10.846191
20
5.471924
0
VERTEX
8
1
10
10.835205
20
5.461182
0
VERTEX
8
1
10
10.823120
20
5.452026
0
VERTEX
8
1
10
10.809937
20
5.444702
0
VERTEX
8
1
10
10.796143
20
5.439087
0
VERTEX
8
1
10
10.781616
20
5.435303
0
SEQEND
0
POLYLINE
8
1
66
1
70
1
0
VERTEX
8
1
10
9.101074
20
3.020264
0
VERTEX
8
1
10
9.100098
20
3.006592
0
VERTEX
8
1
10
9.097046
20
2.993164
0
VERTEX
8
1
10
9.092163
20
2.980469
0
VERTEX
8
1
10
9.085449
20
2.968506
0
VERTEX
8
1
10
9.077148
20
2.957642
0
VERTEX
8
1
10
9.067261
20
2.948120
0
VERTEX
8
1
10
9.056152
20
2.940186
0
VERTEX
8
1
10
9.043945
20
2.933838
0
VERTEX
8
1
10
9.031006
20
2.929443
0
VERTEX
8
1
10
9.017456
20
2.927002
0
VERTEX
8
1
10
9.003784
20
2.926392
0
VERTEX
8
1
10
8.990112
20
2.927979
0
VERTEX
8
1
10
8.976929
20
2.931396
0
VERTEX
8
1
10
8.964233
20
2.936768
0
VERTEX
8
1
10
8.952637
20
2.943970
0
VERTEX
8
1
10
8.942017
20
2.952637
0
VERTEX
8
1
10
8.932861
20
2.962891
0
VERTEX
8
1
10
8.925293
20
2.974365
0
VERTEX
8
1
10
8.919556
20
2.986694
0
VERTEX
8
1
10
8.915527
20
2.999878
0
VERTEX
8
1
10
8.913574
20
3.013428
0
VERTEX
8
1
10
8.913574
20
3.027100
0
VERTEX
8
1
10
8.915527
20
3.040649
0
VERTEX
8
1
10
8.919556
20
3.053833
0
VERTEX
8
1
10
8.925293
20
3.066162
0
VERTEX
8
1
10
8.932861
20
3.077637
0
VERTEX
8
1
10
8.942017
20
3.087891
0
VERTEX
8
1
10
8.952637
20
3.096558
0
VERTEX
8
1
10
8.964233
20
3.103760
0
VERTEX
8
1
10
8.976929
20
3.109131
0
VERTEX
8
1
10
8.990112
20
3.112549
0
VERTEX
8
1
10
9.003784
20
3.114136
0
VERTEX
8
1
10
9.017456
20
3.113525
0
VERTEX
8
1
10
9.031006
20
3.111084
0
VERTEX
8
1
10
9.043945
20
3.106689
0
VERTEX
8
1
10
9.056152
20
3.100342
0
VERTEX
8
1
10
9.067261
20
3.092407
0
VERTEX
8
1
10
9.077148
20
3.082886
0
VERTEX
8
1
10
9.085449
20
3.072021
0
VERTEX
8
1
10
9.092163
20
3.060059
0
VERTEX
8
1
10
9.097046
20
3.047363
0
VERTEX
8
1
10
9.100098
20
3.033936
0
SEQEND
0
POLYLINE
8
1
66
1
70
1
0
VERTEX
8
1
10
9.530762
20
2.975830
0
VERTEX
8
1
10
9.529663
20
2.962158
0
VERTEX
8
1
10
9.526733
20
2.948853
0
VERTEX
8
1
10
9.521851
20
2.936035
0
VERTEX
8
1
10
9.515137
20
2.924072
0
VERTEX
8
1
10
9.506836
20
2.913330
0
VERTEX
8
1
10
9.496948
20
2.903809
0
VERTEX
8
1
10
9.485840
20
2.895874
0
VERTEX
8
1
10
9.473633
20
2.889526
0
VERTEX
8
1
10
9.460693
20
2.885132
0
VERTEX
8
1
10
9.447266
20
2.882690
0
VERTEX
8
1
10
9.433594
20
2.882202
0
VERTEX
8
1
10
9.420044
20
2.883667
0
VERTEX
8
1
10
9.406738
20
2.887085
0
VERTEX
8
1
10
9.394165
20
2.892456
0
VERTEX
8
1
10
9.382446
20
2.899658
0
VERTEX
8
1
10
9.371948
20
2.908325
0
VERTEX
8
1
10
9.362793
20
2.918579
0
VERTEX
8
1
10
9.355347
20
2.929932
0
VERTEX
8
1
10
9.349487
20
2.942383
0
VERTEX
8
1
10
9.345581
20
2.955444
0
VERTEX
8
1
10
9.343506
20
2.968994
0
VERTEX
8
1
10
9.343506
20
2.982666
0
VERTEX
8
1
10
9.345581
20
2.996216
0
VERTEX
8
1
10
9.349487
20
3.009277
0
VERTEX
8
1
10
9.355347
20
3.021729
0
VERTEX
8
1
10
9.362793
20
3.033081
0
VERTEX
8
1
10
9.371948
20
3.043335
0
VERTEX
8
1
10
9.382446
20
3.052002
0
VERTEX
8
1
10
9.394165
20
3.059204
0
VERTEX
8
1
10
9.406738
20
3.064575
0
VERTEX
8
1
10
9.420044
20
3.067993
0
VERTEX
8
1
10
9.433594
20
3.069458
0
VERTEX
8
1
10
9.447266
20
3.068970
0
VERTEX
8
1
10
9.460693
20
3.066528
0
VERTEX
8
1
10
9.473633
20
3.062134
0
VERTEX
8
1
10
9.485840
20
3.055786
0
VERTEX
8
1
10
9.496948
20
3.047852
0
VERTEX
8
1
10
9.506836
20
3.038330
0
VERTEX
8
1
10
9.515137
20
3.027588
0
VERTEX
8
1
10
9.521851
20
3.015625
0
VERTEX
8
1
10
9.526733
20
3.002808
0
VERTEX
8
1
10
9.529663
20
2.989502
0
SEQEND
0
POLYLINE
8
1
66
1
70
1
0
VERTEX
8
1
10
9.338135
20
3.843018
0
VERTEX
8
1
10
9.337158
20
3.828125
0
VERTEX
8
1
10
9.334229
20
3.813354
0
VERTEX
8
1
10
9.329468
20
3.799072
0
VERTEX
8
1
10
9.322876
20
3.785400
0
VERTEX
8
1
10
9.314575
20
3.772583
0
VERTEX
8
1
10
9.304565
20
3.760742
0
VERTEX
8
1
10
9.293213
20
3.750000
0
VERTEX
8
1
10
9.280518
20
3.740601
0
VERTEX
8
1
10
9.266602
20
3.732544
0
VERTEX
8
1
10
9.251831
20
3.726196
0
VERTEX
8
1
10
9.236328
20
3.721436
0
VERTEX
8
1
10
9.220215
20
3.718262
0
VERTEX
8
1
10
9.203979
20
3.717041
0
VERTEX
8
1
10
9.187500
20
3.717407
0
VERTEX
8
1
10
9.171387
20
3.719604
0
VERTEX
8
1
10
9.155518
20
3.723511
0
VERTEX
8
1
10
9.140381
20
3.729126
0
VERTEX
8
1
10
9.125977
20
3.736450
0
VERTEX
8
1
10
9.112671
20
3.745117
0
VERTEX
8
1
10
9.100586
20
3.755249
0
VERTEX
8
1
10
9.089844
20
3.766479
0
VERTEX
8
1
10
9.080688
20
3.778931
0
VERTEX
8
1
10
9.073242
20
3.792236
0
VERTEX
8
1
10
9.067505
20
3.806152
0
VERTEX
8
1
10
9.063721
20
3.820679
0
VERTEX
8
1
10
9.061768
20
3.835571
0
VERTEX
8
1
10
9.061768
20
3.850464
0
VERTEX
8
1
10
9.063721
20
3.865356
0
VERTEX
8
1
10
9.067505
20
3.879883
0
VERTEX
8
1
10
9.073242
20
3.893799
0
VERTEX
8
1
10
9.080688
20
3.907104
0
VERTEX
8
1
10
9.089844
20
3.919556
0
VERTEX
8
1
10
9.100586
20
3.930786
0
VERTEX
8
1
10
9.112671
20
3.940918
0
VERTEX
8
1
10
9.125977
20
3.949585
0
VERTEX
8
1
10
9.140381
20
3.956909
0
VERTEX
8
1
10
9.155518
20
3.962524
0
VERTEX
8
1
10
9.171387
20
3.966431
0
VERTEX
8
1
10
9.187500
20
3.968628
0
VERTEX
8
1
10
9.203979
20
3.968994
0
VERTEX
8
1
10
9.220215
20
3.967773
0
VERTEX
8
1
10
9.236328
20
3.964600
0
VERTEX
8
1
10
9.251831
20
3.959839
0
VERTEX
8
1
10
9.266602
20
3.953491
0
VERTEX
8
1
10
9.280518
20
3.945435
0
VERTEX
8
1
10
9.293213
20
3.936035
0
VERTEX
8
1
10
9.304565
20
3.925293
0
VERTEX
8
1
10
9.314575
20
3.913452
0
VERTEX
8
1
10
9.322876
20
3.900635
0
VERTEX
8
1
10
9.329468
20
3.886963
0
VERTEX
8
1
10
9.334229
20
3.872681
0
VERTEX
8
1
10
9.337158
20
3.857910
0
SEQEND
0
POLYLINE
8
1
66
1
70
1
0
VERTEX
8
1
10
9.510132
20
3.222534
0
VERTEX
8
1
10
9.503174
20
3.220459
0
VERTEX
8
1
10
9.495483
20
3.220337
0
VERTEX
8
1
10
9.487183
20
3.222046
0
VERTEX
8
1
10
9.478271
20
3.225586
0
VERTEX
8
1
10
9.469116
20
3.230957
0
VERTEX
8
1
10
9.459595
20
3.237915
0
VERTEX
8
1
10
9.449951
20
3.246582
0
VERTEX
8
1
10
9.440186
20
3.256836
0
VERTEX
8
1
10
9.430664
20
3.268311
0
VERTEX
8
1
10
9.421143
20
3.281128
0
VERTEX
8
1
10
9.412109
20
3.295044
0
VERTEX
8
1
10
9.403442
20
3.309814
0
VERTEX
8
1
10
9.395264
20
3.325317
0
VERTEX
8
1
10
9.387817
20
3.341431
0
VERTEX
8
1
10
9.380981
20
3.357788
0
VERTEX
8
1
10
9.375122
20
3.374268
0
VERTEX
8
1
10
9.370117
20
3.390625
0
VERTEX
8
1
10
9.365967
20
3.406738
0
VERTEX
8
1
10
9.362915
20
3.422363
0
VERTEX
8
1
10
9.360962
20
3.437256
0
VERTEX
8
1
10
9.359985
20
3.451294
0
VERTEX
8
1
10
9.360229
20
3.464233
0
VERTEX
8
1
10
9.361450
20
3.475952
0
VERTEX
8
1
10
9.363770
20
3.486328
0
VERTEX
8
1
10
9.367188
20
3.495239
0
VERTEX
8
1
10
9.371460
20
3.502563
0
VERTEX
8
1
10
9.376831
20
3.508057
0
VERTEX
8
1
10
9.382935
20
3.511841
0
VERTEX
8
1
10
9.389893
20
3.513916
0
VERTEX
8
1
10
9.397583
20
3.514038
0
VERTEX
8
1
10
9.405884
20
3.512329
0
VERTEX
8
1
10
9.414795
20
3.508789
0
VERTEX
8
1
10
9.423950
20
3.503418
0
VERTEX
8
1
10
9.433472
20
3.496460
0
VERTEX
8
1
10
9.443115
20
3.487793
0
VERTEX
8
1
10
9.452881
20
3.477539
0
VERTEX
8
1
10
9.462402
20
3.466064
0
VERTEX
8
1
10
9.471924
20
3.453247
0
VERTEX
8
1
10
9.480957
20
3.439331
0
VERTEX
8
1
10
9.489624
20
3.424561
0
VERTEX
8
1
10
9.497803
20
3.409058
0
VERTEX
8
1
10
9.505249
20
3.392944
0
VERTEX
8
1
10
9.512085
20
3.376587
0
VERTEX
8
1
10
9.517944
20
3.360107
0
VERTEX
8
1
10
9.522949
20
3.343750
0
VERTEX
8
1
10
9.527100
20
3.327637
0
VERTEX
8
1
10
9.530151
20
3.312012
0
VERTEX
8
1
10
9.532104
20
3.297119
0
VERTEX
8
1
10
9.533081
20
3.283081
0
VERTEX
8
1
10
9.532837
20
3.270142
0
VERTEX
8
1
10
9.531616
20
3.258423
0
VERTEX
8
1
10
9.529297
20
3.248047
0
VERTEX
8
1
10
9.525879
20
3.239136
0
VERTEX
8
1
10
9.521606
20
3.231812
0
VERTEX
8
1
10
9.516235
20
3.226318
0
SEQEND
0
POLYLINE
8
1
66
1
70
1
0
VERTEX
8
1
10
9.747803
20
3.961792
0
VERTEX
8
1
10
9.742065
20
3.957397
0
VERTEX
8
1
10
9.734985
20
3.954346
0
VERTEX
8
1
10
9.726685
20
3.952881
0
VERTEX
8
1
10
9.717163
20
3.952881
0
VERTEX
8
1
10
9.706543
20
3.954346
0
VERTEX
8
1
10
9.695190
20
3.957275
0
VERTEX
8
1
10
9.682983
20
3.961670
0
VERTEX
8
1
10
9.670166
20
3.967529
0
VERTEX
8
1
10
9.656860
20
3.974731
0
VERTEX
8
1
10
9.643311
20
3.983032
0
VERTEX
8
1
10
9.629639
20
3.992554
0
VERTEX
8
1
10
9.616089
20
4.003052
0
VERTEX
8
1
10
9.602783
20
4.014404
0
VERTEX
8
1
10
9.589722
20
4.026489
0
VERTEX
8
1
10
9.577393
20
4.039185
0
VERTEX
8
1
10
9.565674
20
4.052246
0
VERTEX
8
1
10
9.554932
20
4.065552
0
VERTEX
8
1
10
9.545166
20
4.078979
0
VERTEX
8
1
10
9.536499
20
4.092407
0
VERTEX
8
1
10
9.529053
20
4.105469
0
VERTEX
8
1
10
9.522949
20
4.118164
0
VERTEX
8
1
10
9.518188
20
4.130249
0
VERTEX
8
1
10
9.514893
20
4.141602
0
VERTEX
8
1
10
9.513184
20
4.152100
0
VERTEX
8
1
10
9.513062
20
4.161621
0
VERTEX
8
1
10
9.514282
20
4.170044
0
VERTEX
8
1
10
9.517212
20
4.177124
0
VERTEX
8
1
10
9.521484
20
4.182983
0
VERTEX
8
1
10
9.527222
20
4.187378
0
VERTEX
8
1
10
9.534302
20
4.190430
0
VERTEX
8
1
10
9.542603
20
4.191895
0
VERTEX
8
1
10
9.552124
20
4.191895
0
VERTEX
8
1
10
9.562744
20
4.190430
0
VERTEX
8
1
10
9.574097
20
4.187500
0
VERTEX
8
1
10
9.586304
20
4.183105
0
VERTEX
8
1
10
9.599121
20
4.177246
0
VERTEX
8
1
10
9.612427
20
4.170044
0
VERTEX
8
1
10
9.625977
20
4.161743
0
VERTEX
8
1
10
9.639648
20
4.152222
0
VERTEX
8
1
10
9.653198
20
4.141724
0
VERTEX
8
1
10
9.666504
20
4.130371
0
VERTEX
8
1
10
9.679565
20
4.118286
0
VERTEX
8
1
10
9.691895
20
4.105591
0
VERTEX
8
1
10
9.703613
20
4.092529
0
VERTEX
8
1
10
9.714355
20
4.079224
0
VERTEX
8
1
10
9.724121
20
4.065796
0
VERTEX
8
1
10
9.732788
20
4.052368
0
VERTEX
8
1
10
9.740234
20
4.039307
0
VERTEX
8
1
10
9.746338
20
4.026611
0
VERTEX
8
1
10
9.751099
20
4.014526
0
VERTEX
8
1
10
9.754395
20
4.003174
0
VERTEX
8
1
10
9.756104
20
3.992676
0
VERTEX
8
1
10
9.756226
20
3.983154
0
VERTEX
8
1
10
9.755005
20
3.974731
0
VERTEX
8
1
10
9.752075
20
3.967651
0
SEQEND
0
POLYLINE
8
1
66
1
70
1
0
VERTEX
8
1
10
9.751831
20
4.615601
0
VERTEX
8
1
10
9.750000
20
4.608643
0
VERTEX
8
1
10
9.746094
20
4.601929
0
VERTEX
8
1
10
9.740356
20
4.595703
0
VERTEX
8
1
10
9.732788
20
4.589966
0
VERTEX
8
1
10
9.723511
20
4.584839
0
VERTEX
8
1
10
9.712524
20
4.580200
0
VERTEX
8
1
10
9.700195
20
4.576416
0
VERTEX
8
1
10
9.686523
20
4.573364
0
VERTEX
8
1
10
9.671631
20
4.571045
0
VERTEX
8
1
10
9.655762
20
4.569458
0
VERTEX
8
1
10
9.639160
20
4.568848
0
VERTEX
8
1
10
9.622070
20
4.568970
0
VERTEX
8
1
10
9.604614
20
4.570068
0
VERTEX
8
1
10
9.586914
20
4.571899
0
VERTEX
8
1
10
9.569458
20
4.574463
0
VERTEX
8
1
10
9.552246
20
4.577881
0
VERTEX
8
1
10
9.535645
20
4.582031
0
VERTEX
8
1
10
9.519775
20
4.586792
0
VERTEX
8
1
10
9.504761
20
4.592285
0
VERTEX
8
1
10
9.490967
20
4.598267
0
VERTEX
8
1
10
9.478516
20
4.604614
0
VERTEX
8
1
10
9.467529
20
4.611450
0
VERTEX
8
1
10
9.458008
20
4.618652
0
VERTEX
8
1
10
9.450317
20
4.625977
0
VERTEX
8
1
10
9.444458
20
4.633423
0
VERTEX
8
1
10
9.440430
20
4.640869
0
VERTEX
8
1
10
9.438477
20
4.648315
0
VERTEX
8
1
10
9.438354
20
4.655640
0
VERTEX
8
1
10
9.440186
20
4.662598
0
VERTEX
8
1
10
9.444092
20
4.669312
0
VERTEX
8
1
10
9.449829
20
4.675537
0
VERTEX
8
1
10
9.457397
20
4.681274
0
VERTEX
8
1
10
9.466675
20
4.686401
0
VERTEX
8
1
10
9.477661
20
4.691040
0
VERTEX
8
1
10
9.489990
20
4.694824
0
VERTEX
8
1
10
9.503662
20
4.697876
0
VERTEX
8
1
10
9.518555
20
4.700195
0
VERTEX
8
1
10
9.534424
20
4.701782
0
VERTEX
8
1
10
9.551025
20
4.702393
0
VERTEX
8
1
10
9.568115
20
4.702271
0
VERTEX
8
1
10
9.585571
20
4.701172
0
VERTEX
8
1
10
9.603271
20
4.699341
0
VERTEX
8
1
10
9.620728
20
4.696777
0
VERTEX
8
1
10
9.637939
20
4.693359
0
VERTEX
8
1
10
9.654541
20
4.689209
0
VERTEX
8
1
10
9.670410
20
4.684448
0
VERTEX
8
1
10
9.685425
20
4.678955
0
VERTEX
8
1
10
9.699219
20
4.672974
0
VERTEX
8
1
10
9.711670
20
4.666626
0
VERTEX
8
1
10
9.722656
20
4.659790
0
VERTEX
8
1
10
9.732178
20
4.652588
0
VERTEX
8
1
10
9.739868
20
4.645264
0
VERTEX
8
1
10
9.745728
20
4.637817
0
VERTEX
8
1
10
9.749756
20
4.630371
0
VERTEX
8
1
10
9.751709
20
4.622925
0
SEQEND
0
POLYLINE
8
1
66
1
70
1
0
VERTEX
8
1
10
9.070190
20
4.625366
0
VERTEX
8
1
10
9.068237
20
4.618408
0
VERTEX
8
1
10
9.064453
20
4.611694
0
VERTEX
8
1
10
9.058716
20
4.605469
0
VERTEX
8
1
10
9.051147
20
4.599731
0
VERTEX
8
1
10
9.041748
20
4.594604
0
VERTEX
8
1
10
9.030884
20
4.590088
0
VERTEX
8
1
10
9.018555
20
4.586304
0
VERTEX
8
1
10
9.004761
20
4.583252
0
VERTEX
8
1
10
8.989990
20
4.580933
0
VERTEX
8
1
10
8.974121
20
4.579468
0
VERTEX
8
1
10
8.957520
20
4.578857
0
VERTEX
8
1
10
8.940430
20
4.579102
0
VERTEX
8
1
10
8.922974
20
4.580078
0
VERTEX
8
1
10
8.905396
20
4.581909
0
VERTEX
8
1
10
8.887939
20
4.584595
0
VERTEX
8
1
10
8.870728
20
4.588013
0
VERTEX
8
1
10
8.854126
20
4.592163
0
VERTEX
8
1
10
8.838257
20
4.597046
0
VERTEX
8
1
10
8.823364
20
4.602417
0
VERTEX
8
1
10
8.809570
20
4.608398
0
VERTEX
8
1
10
8.797119
20
4.614868
0
VERTEX
8
1
10
8.786011
20
4.621582
0
VERTEX
8
1
10
8.776611
20
4.628784
0
VERTEX
8
1
10
8.768921
20
4.636108
0
VERTEX
8
1
10
8.763062
20
4.643555
0
VERTEX
8
1
10
8.759155
20
4.651001
0
VERTEX
8
1
10
8.757080
20
4.658447
0
VERTEX
8
1
10
8.756958
20
4.665649
0
VERTEX
8
1
10
8.758911
20
4.672607
0
VERTEX
8
1
10
8.762695
20
4.679321
0
VERTEX
8
1
10
8.768433
20
4.685547
0
VERTEX
8
1
10
8.776001
20
4.691284
0
VERTEX
8
1
10
8.785400
20
4.696411
0
VERTEX
8
1
10
8.796265
20
4.700928
0
VERTEX
8
1
10
8.808594
20
4.704712
0
VERTEX
8
1
10
8.822388
20
4.707764
0
VERTEX
8
1
10
8.837158
20
4.710083
0
VERTEX
8
1
10
8.853027
20
4.711548
0
VERTEX
8
1
10
8.869629
20
4.712158
0
VERTEX
8
1
10
8.886719
20
4.711914
0
VERTEX
8
1
10
8.904175
20
4.710938
0
VERTEX
8
1
10
8.921753
20
4.709106
0
VERTEX
8
1
10
8.939209
20
4.706421
0
VERTEX
8
1
10
8.956421
20
4.703003
0
VERTEX
8
1
10
8.973022
20
4.698853
0
VERTEX
8
1
10
8.988892
20
4.693970
0
VERTEX
8
1
10
9.003784
20
4.688599
0
VERTEX
8
1
10
9.017578
20
4.682617
0
VERTEX
8
1
10
9.030029
20
4.676147
0
VERTEX
8
1
10
9.041138
20
4.669434
0
VERTEX
8
1
10
9.050537
20
4.662231
0
VERTEX
8
1
10
9.058228
20
4.654907
0
VERTEX
8
1
10
9.064087
20
4.647461
0
VERTEX
8
1
10
9.067993
20
4.640015
0
VERTEX
8
1
10
9.070068
20
4.632568
0
SEQEND
0
POLYLINE
8
1
66
1
70
1
0
VERTEX
8
1
10
9.058350
20
4.113770
0
VERTEX
8
1
10
9.058838
20
4.106445
0
VERTEX
8
1
10
9.057373
20
4.098877
0
VERTEX
8
1
10
9.053955
20
4.091187
0
VERTEX
8
1
10
9.048584
20
4.083252
0
VERTEX
8
1
10
9.041504
20
4.075439
0
VERTEX
8
1
10
9.032593
20
4.067627
0
VERTEX
8
1
10
9.022095
20
4.059937
0
VERTEX
8
1
10
9.010132
20
4.052612
0
VERTEX
8
1
10
8.996826
20
4.045654
0
VERTEX
8
1
10
8.982300
20
4.039185
0
VERTEX
8
1
10
8.966797
20
4.033203
0
VERTEX
8
1
10
8.950562
20
4.027954
0
VERTEX
8
1
10
8.933716
20
4.023315
0
VERTEX
8
1
10
8.916504
20
4.019409
0
VERTEX
8
1
10
8.899048
20
4.016235
0
VERTEX
8
1
10
8.881714
20
4.013916
0
VERTEX
8
1
10
8.864624
20
4.012573
0
VERTEX
8
1
10
8.848022
20
4.011963
0
VERTEX
8
1
10
8.832153
20
4.012329
0
VERTEX
8
1
10
8.817261
20
4.013550
0
VERTEX
8
1
10
8.803345
20
4.015625
0
VERTEX
8
1
10
8.790771
20
4.018555
0
VERTEX
8
1
10
8.779541
20
4.022339
0
VERTEX
8
1
10
8.769897
20
4.026855
0
VERTEX
8
1
10
8.761963
20
4.031982
0
VERTEX
8
1
10
8.755737
20
4.037842
0
VERTEX
8
1
10
8.751465
20
4.044189
0
VERTEX
8
1
10
8.749023
20
4.051025
0
VERTEX
8
1
10
8.748535
20
4.058350
0
VERTEX
8
1
10
8.750000
20
4.065918
0
VERTEX
8
1
10
8.753418
20
4.073608
0
VERTEX
8
1
10
8.758789
20
4.081543
0
VERTEX
8
1
10
8.765869
20
4.089355
0
VERTEX
8
1
10
8.774780
20
4.097168
0
VERTEX
8
1
10
8.785278
20
4.104858
0
VERTEX
8
1
10
8.797241
20
4.112183
0
VERTEX
8
1
10
8.810547
20
4.119141
0
VERTEX
8
1
10
8.825073
20
4.125610
0
VERTEX
8
1
10
8.840576
20
4.131592
0
VERTEX
8
1
10
8.856812
20
4.136841
0
VERTEX
8
1
10
8.873657
20
4.141479
0
VERTEX
8
1
10
8.890869
20
4.145386
0
VERTEX
8
1
10
8.908325
20
4.148560
0
VERTEX
8
1
10
8.925659
20
4.150879
0
VERTEX
8
1
10
8.942749
20
4.152222
0
VERTEX
8
1
10
8.959351
20
4.152832
0
VERTEX
8
1
10
8.975220
20
4.152466
0
VERTEX
8
1
10
8.990112
20
4.151245
0
VERTEX
8
1
10
9.004028
20
4.149170
0
VERTEX
8
1
10
9.016602
20
4.146240
0
VERTEX
8
1
10
9.027832
20
4.142456
0
VERTEX
8
1
10
9.037476
20
4.137939
0
VERTEX
8
1
10
9.045410
20
4.132813
0
VERTEX
8
1
10
9.051636
20
4.126953
0
VERTEX
8
1
10
9.055908
20
4.120605
0
SEQEND
0
POLYLINE
8
1
66
1
70
1
0
VERTEX
8
1
10
9.348145
20
4.378662
0
VERTEX
8
1
10
9.347168
20
4.363770
0
VERTEX
8
1
10
9.344238
20
4.349121
0
VERTEX
8
1
10
9.339478
20
4.334839
0
VERTEX
8
1
10
9.332886
20
4.321289
0
VERTEX
8
1
10
9.324585
20
4.308472
0
VERTEX
8
1
10
9.314575
20
4.296631
0
VERTEX
8
1
10
9.303223
20
4.285889
0
VERTEX
8
1
10
9.290527
20
4.276489
0
VERTEX
8
1
10
9.276611
20
4.268555
0
VERTEX
8
1
10
9.261841
20
4.262085
0
VERTEX
8
1
10
9.246338
20
4.257324
0
VERTEX
8
1
10
9.230225
20
4.254272
0
VERTEX
8
1
10
9.213989
20
4.252930
0
VERTEX
8
1
10
9.197510
20
4.253418
0
VERTEX
8
1
10
9.181396
20
4.255615
0
VERTEX
8
1
10
9.165527
20
4.259521
0
VERTEX
8
1
10
9.150391
20
4.265137
0
VERTEX
8
1
10
9.135986
20
4.272339
0
VERTEX
8
1
10
9.122681
20
4.281006
0
VERTEX
8
1
10
9.110596
20
4.291016
0
VERTEX
8
1
10
9.099854
20
4.302368
0
VERTEX
8
1
10
9.090698
20
4.314697
0
VERTEX
8
1
10
9.083252
20
4.328003
0
VERTEX
8
1
10
9.077515
20
4.341919
0
VERTEX
8
1
10
9.073730
20
4.356445
0
VERTEX
8
1
10
9.071777
20
4.371216
0
VERTEX
8
1
10
9.071777
20
4.386108
0
VERTEX
8
1
10
9.073730
20
4.400879
0
VERTEX
8
1
10
9.077515
20
4.415405
0
VERTEX
8
1
10
9.083252
20
4.429321
0
VERTEX
8
1
10
9.090698
20
4.442627
0
VERTEX
8
1
10
9.099854
20
4.454956
0
VERTEX
8
1
10
9.110596
20
4.466309
0
VERTEX
8
1
10
9.122681
20
4.476318
0
VERTEX
8
1
10
9.135986
20
4.484985
0
VERTEX
8
1
10
9.150391
20
4.492188
0
VERTEX
8
1
10
9.165527
20
4.497803
0
VERTEX
8
1
10
9.181396
20
4.501709
0
VERTEX
8
1
10
9.197510
20
4.503906
0
VERTEX
8
1
10
9.213989
20
4.504395
0
VERTEX
8
1
10
9.230225
20
4.503052
0
VERTEX
8
1
10
9.246338
20
4.500000
0
VERTEX
8
1
10
9.261841
20
4.495239
0
VERTEX
8
1
10
9.276611
20
4.488770
0
VERTEX
8
1
10
9.290527
20
4.480835
0
VERTEX
8
1
10
9.303223
20
4.471436
0
VERTEX
8
1
10
9.314575
20
4.460693
0
VERTEX
8
1
10
9.324585
20
4.448853
0
VERTEX
8
1
10
9.332886
20
4.436035
0
VERTEX
8
1
10
9.339478
20
4.422485
0
VERTEX
8
1
10
9.344238
20
4.408203
0
VERTEX
8
1
10
9.347168
20
4.393555
0
SEQEND
0
POLYLINE
8
1
66
1
70
1
0
VERTEX
8
1
10
9.017090
20
3.529175
0
VERTEX
8
1
10
9.015991
20
3.515503
0
VERTEX
8
1
10
9.013062
20
3.502197
0
VERTEX
8
1
10
9.008179
20
3.489380
0
VERTEX
8
1
10
9.001465
20
3.477417
0
VERTEX
8
1
10
8.993164
20
3.466675
0
VERTEX
8
1
10
8.983276
20
3.457153
0
VERTEX
8
1
10
8.972168
20
3.449219
0
VERTEX
8
1
10
8.959961
20
3.442871
0
VERTEX
8
1
10
8.947021
20
3.438477
0
VERTEX
8
1
10
8.933594
20
3.436035
0
VERTEX
8
1
10
8.919922
20
3.435547
0
VERTEX
8
1
10
8.906372
20
3.437012
0
VERTEX
8
1
10
8.893066
20
3.440430
0
VERTEX
8
1
10
8.880493
20
3.445801
0
VERTEX
8
1
10
8.868774
20
3.453003
0
VERTEX
8
1
10
8.858276
20
3.461670
0
VERTEX
8
1
10
8.849121
20
3.471924
0
VERTEX
8
1
10
8.841675
20
3.483276
0
VERTEX
8
1
10
8.835815
20
3.495728
0
VERTEX
8
1
10
8.831909
20
3.508789
0
VERTEX
8
1
10
8.829834
20
3.522339
0
VERTEX
8
1
10
8.829834
20
3.536011
0
VERTEX
8
1
10
8.831909
20
3.549561
0
VERTEX
8
1
10
8.835815
20
3.562622
0
VERTEX
8
1
10
8.841675
20
3.575073
0
VERTEX
8
1
10
8.849121
20
3.586426
0
VERTEX
8
1
10
8.858276
20
3.596680
0
VERTEX
8
1
10
8.868774
20
3.605347
0
VERTEX
8
1
10
8.880493
20
3.612549
0
VERTEX
8
1
10
8.893066
20
3.617920
0
VERTEX
8
1
10
8.906372
20
3.621338
0
VERTEX
8
1
10
8.919922
20
3.622803
0
VERTEX
8
1
10
8.933594
20
3.622314
0
VERTEX
8
1
10
8.947021
20
3.619873
0
VERTEX
8
1
10
8.959961
20
3.615479
0
VERTEX
8
1
10
8.972168
20
3.609131
0
VERTEX
8
1
10
8.983276
20
3.601196
0
VERTEX
8
1
10
8.993164
20
3.591675
0
VERTEX
8
1
10
9.001465
20
3.580933
0
VERTEX
8
1
10
9.008179
20
3.568970
0
VERTEX
8
1
10
9.013062
20
3.556152
0
VERTEX
8
1
10
9.015991
20
3.542847
0
SEQEND
0
POLYLINE
8
1
66
1
70
1
0
VERTEX
8
1
10
8.552979
20
2.689575
0
VERTEX
8
1
10
8.552002
20
2.675903
0
VERTEX
8
1
10
8.548950
20
2.662476
0
VERTEX
8
1
10
8.544067
20
2.649780
0
VERTEX
8
1
10
8.537354
20
2.637817
0
VERTEX
8
1
10
8.529053
20
2.626953
0
VERTEX
8
1
10
8.519165
20
2.617432
0
VERTEX
8
1
10
8.508057
20
2.609497
0
VERTEX
8
1
10
8.495850
20
2.603149
0
VERTEX
8
1
10
8.482910
20
2.598755
0
VERTEX
8
1
10
8.469360
20
2.596313
0
VERTEX
8
1
10
8.455688
20
2.595703
0
VERTEX
8
1
10
8.442017
20
2.597290
0
VERTEX
8
1
10
8.428833
20
2.600708
0
VERTEX
8
1
10
8.416138
20
2.606079
0
VERTEX
8
1
10
8.404541
20
2.613281
0
VERTEX
8
1
10
8.393921
20
2.621948
0
VERTEX
8
1
10
8.384766
20
2.632202
0
VERTEX
8
1
10
8.377197
20
2.643677
0
VERTEX
8
1
10
8.371460
20
2.656006
0
VERTEX
8
1
10
8.367432
20
2.669189
0
VERTEX
8
1
10
8.365479
20
2.682739
0
VERTEX
8
1
10
8.365479
20
2.696411
0
VERTEX
8
1
10
8.367432
20
2.709961
0
VERTEX
8
1
10
8.371460
20
2.723145
0
VERTEX
8
1
10
8.377197
20
2.735474
0
VERTEX
8
1
10
8.384766
20
2.746948
0
VERTEX
8
1
10
8.393921
20
2.757202
0
VERTEX
8
1
10
8.404541
20
2.765869
0
VERTEX
8
1
10
8.416138
20
2.773071
0
VERTEX
8
1
10
8.428833
20
2.778442
0
VERTEX
8
1
10
8.442017
20
2.781860
0
VERTEX
8
1
10
8.455688
20
2.783447
0
VERTEX
8
1
10
8.469360
20
2.782837
0
VERTEX
8
1
10
8.482910
20
2.780396
0
VERTEX
8
1
10
8.495850
20
2.776001
0
VERTEX
8
1
10
8.508057
20
2.769653
0
VERTEX
8
1
10
8.519165
20
2.761719
0
VERTEX
8
1
10
8.529053
20
2.752197
0
VERTEX
8
1
10
8.537354
20
2.741333
0
VERTEX
8
1
10
8.544067
20
2.729370
0
VERTEX
8
1
10
8.548950
20
2.716675
0
VERTEX
8
1
10
8.552002
20
2.703247
0
SEQEND
0
POLYLINE
8
1
66
1
70
1
0
VERTEX
8
1
10
9.130737
20
2.452148
0
VERTEX
8
1
10
9.129761
20
2.437256
0
VERTEX
8
1
10
9.126831
20
2.422607
0
VERTEX
8
1
10
9.122070
20
2.408325
0
VERTEX
8
1
10
9.115479
20
2.394775
0
VERTEX
8
1
10
9.107178
20
2.381958
0
VERTEX
8
1
10
9.097168
20
2.370117
0
VERTEX
8
1
10
9.085815
20
2.359375
0
VERTEX
8
1
10
9.073120
20
2.349976
0
VERTEX
8
1
10
9.059204
20
2.342041
0
VERTEX
8
1
10
9.044434
20
2.335571
0
VERTEX
8
1
10
9.028931
20
2.330811
0
VERTEX
8
1
10
9.012817
20
2.327759
0
VERTEX
8
1
10
8.996582
20
2.326416
0
VERTEX
8
1
10
8.980103
20
2.326904
0
VERTEX
8
1
10
8.963989
20
2.329102
0
VERTEX
8
1
10
8.948120
20
2.333008
0
VERTEX
8
1
10
8.932983
20
2.338623
0
VERTEX
8
1
10
8.918579
20
2.345825
0
VERTEX
8
1
10
8.905273
20
2.354492
0
VERTEX
8
1
10
8.893188
20
2.364502
0
VERTEX
8
1
10
8.882446
20
2.375854
0
VERTEX
8
1
10
8.873291
20
2.388184
0
VERTEX
8
1
10
8.865845
20
2.401489
0
VERTEX
8
1
10
8.860107
20
2.415405
0
VERTEX
8
1
10
8.856323
20
2.429932
0
VERTEX
8
1
10
8.854370
20
2.444702
0
VERTEX
8
1
10
8.854370
20
2.459595
0
VERTEX
8
1
10
8.856323
20
2.474365
0
VERTEX
8
1
10
8.860107
20
2.488892
0
VERTEX
8
1
10
8.865845
20
2.502808
0
VERTEX
8
1
10
8.873291
20
2.516113
0
VERTEX
8
1
10
8.882446
20
2.528442
0
VERTEX
8
1
10
8.893188
20
2.539795
0
VERTEX
8
1
10
8.905273
20
2.549805
0
VERTEX
8
1
10
8.918579
20
2.558472
0
VERTEX
8
1
10
8.932983
20
2.565674
0
VERTEX
8
1
10
8.948120
20
2.571289
0
VERTEX
8
1
10
8.963989
20
2.575195
0
VERTEX
8
1
10
8.980103
20
2.577393
0
VERTEX
8
1
10
8.996582
20
2.577881
0
VERTEX
8
1
10
9.012817
20
2.576538
0
VERTEX
8
1
10
9.028931
20
2.573486
0
VERTEX
8
1
10
9.044434
20
2.568726
0
VERTEX
8
1
10
9.059204
20
2.562256
0
VERTEX
8
1
10
9.073120
20
2.554321
0
VERTEX
8
1
10
9.085815
20
2.544922
0
VERTEX
8
1
10
9.097168
20
2.534180
0
VERTEX
8
1
10
9.107178
20
2.522339
0
VERTEX
8
1
10
9.115479
20
2.509521
0
VERTEX
8
1
10
9.122070
20
2.495972
0
VERTEX
8
1
10
9.126831
20
2.481689
0
VERTEX
8
1
10
9.129761
20
2.467041
0
SEQEND
0
POLYLINE
8
1
66
1
70
1
0
VERTEX
8
1
10
11.067261
20
3.914307
0
VERTEX
8
1
10
11.066284
20
3.899414
0
VERTEX
8
1
10
11.063354
20
3.884766
0
VERTEX
8
1
10
11.058594
20
3.870483
0
VERTEX
8
1
10
11.052002
20
3.856934
0
VERTEX
8
1
10
11.043701
20
3.844116
0
VERTEX
8
1
10
11.033691
20
3.832275
0
VERTEX
8
1
10
11.022339
20
3.821533
0
VERTEX
8
1
10
11.009644
20
3.812134
0
VERTEX
8
1
10
10.995728
20
3.804199
0
VERTEX
8
1
10
10.980957
20
3.797729
0
VERTEX
8
1
10
10.965454
20
3.792969
0
VERTEX
8
1
10
10.949341
20
3.789917
0
VERTEX
8
1
10
10.933105
20
3.788574
0
VERTEX
8
1
10
10.916626
20
3.789063
0
VERTEX
8
1
10
10.900513
20
3.791260
0
VERTEX
8
1
10
10.884644
20
3.795166
0
VERTEX
8
1
10
10.869507
20
3.800781
0
VERTEX
8
1
10
10.855103
20
3.807983
0
VERTEX
8
1
10
10.841797
20
3.816650
0
VERTEX
8
1
10
10.829712
20
3.826660
0
VERTEX
8
1
10
10.818970
20
3.838013
0
VERTEX
8
1
10
10.809814
20
3.850342
0
VERTEX
8
1
10
10.802368
20
3.863647
0
VERTEX
8
1
10
10.796631
20
3.877563
0
VERTEX
8
1
10
10.792847
20
3.892090
0
VERTEX
8
1
10
10.790894
20
3.906860
0
VERTEX
8
1
10
10.790894
20
3.921753
0
VERTEX
8
1
10
10.792847
20
3.936523
0
VERTEX
8
1
10
10.796631
20
3.951050
0
VERTEX
8
1
10
10.802368
20
3.964966
0
VERTEX
8
1
10
10.809814
20
3.978271
0
VERTEX
8
1
10
10.818970
20
3.990601
0
VERTEX
8
1
10
10.829712
20
4.001953
0
VERTEX
8
1
10
10.841797
20
4.011963
0
VERTEX
8
1
10
10.855103
20
4.020630
0
VERTEX
8
1
10
10.869507
20
4.027832
0
VERTEX
8
1
10
10.884644
20
4.033447
0
VERTEX
8
1
10
10.900513
20
4.037354
0
VERTEX
8
1
10
10.916626
20
4.039551
0
VERTEX
8
1
10
10.933105
20
4.040039
0
VERTEX
8
1
10
10.949341
20
4.038696
0
VERTEX
8
1
10
10.965454
20
4.035645
0
VERTEX
8
1
10
10.980957
20
4.030884
0
VERTEX
8
1
10
10.995728
20
4.024414
0
VERTEX
8
1
10
11.009644
20
4.016479
0
VERTEX
8
1
10
11.022339
20
4.007080
0
VERTEX
8
1
10
11.033691
20
3.996338
0
VERTEX
8
1
10
11.043701
20
3.984497
0
VERTEX
8
1
10
11.052002
20
3.971680
0
VERTEX
8
1
10
11.058594
20
3.958130
0
VERTEX
8
1
10
11.063354
20
3.943848
0
VERTEX
8
1
10
11.066284
20
3.929199
0
SEQEND
0
POLYLINE
8
1
66
1
70
1
0
VERTEX
8
1
10
10.598755
20
4.155396
0
VERTEX
8
1
10
10.587036
20
4.500977
0
VERTEX
8
1
10
9.786987
20
4.473755
0
VERTEX
8
1
10
9.798706
20
4.128174
0
SEQEND
0
POLYLINE
8
1
66
1
70
1
0
VERTEX
8
1
10
10.608032
20
3.194946
0
VERTEX
8
1
10
10.581787
20
3.962524
0
VERTEX
8
1
10
9.782227
20
3.935303
0
VERTEX
8
1
10
9.808105
20
3.167725
0
SEQEND
0
POLYLINE
8
1
66
1
70
1
0
VERTEX
8
1
10
15.114136
20
4.580200
0
VERTEX
8
1
10
18.796021
20
4.685303
0
VERTEX
8
1
10
18.802490
20
4.560913
0
VERTEX
8
1
10
15.120361
20
4.455444
0
SEQEND
0
POLYLINE
8
1
66
1
70
1
0
VERTEX
8
1
10
18.763184
20
5.320923
0
VERTEX
8
1
10
18.786621
20
4.866821
0
VERTEX
8
1
10
15.105957
20
4.734253
0
VERTEX
8
1
10
15.082520
20
5.188232
0
SEQEND
0
POLYLINE
8
1
66
1
70
1
0
VERTEX
8
1
10
22.787842
20
5.465942
0
VERTEX
8
1
10
22.799561
20
5.011230
0
VERTEX
8
1
10
18.943726
20
4.872314
0
VERTEX
8
1
10
18.920288
20
5.326416
0
SEQEND
0
POLYLINE
8
1
66
1
70
1
0
VERTEX
8
1
10
11.472046
20
4.476196
0
VERTEX
8
1
10
14.956787
20
4.575684
0
VERTEX
8
1
10
14.963257
20
4.451050
0
VERTEX
8
1
10
11.475464
20
4.351440
0
SEQEND
0
POLYLINE
8
1
66
1
70
1
0
VERTEX
8
1
10
14.948853
20
4.728394
0
VERTEX
8
1
10
11.477539
20
4.603271
0
VERTEX
8
1
10
11.465820
20
5.057739
0
VERTEX
8
1
10
14.925415
20
5.182373
0
SEQEND
0
POLYLINE
8
1
66
1
70
1
0
VERTEX
8
1
10
18.953369
20
4.689819
0
VERTEX
8
1
10
22.796021
20
4.799683
0
VERTEX
8
1
10
22.799561
20
4.674927
0
VERTEX
8
1
10
18.959961
20
4.565430
0
SEQEND
0
POLYLINE
8
1
66
1
70
1
0
VERTEX
8
1
10
11.739014
20
5.154175
0
VERTEX
8
1
10
11.737915
20
5.177612
0
VERTEX
8
1
10
11.737793
20
5.199463
0
VERTEX
8
1
10
11.738403
20
5.219971
0
VERTEX
8
1
10
11.739746
20
5.239014
0
VERTEX
8
1
10
11.741821
20
5.256714
0
VERTEX
8
1
10
11.744507
20
5.273071
0
VERTEX
8
1
10
11.747681
20
5.288330
0
VERTEX
8
1
10
11.751465
20
5.302368
0
VERTEX
8
1
10
11.755737
20
5.315186
0
VERTEX
8
1
10
11.760254
20
5.326904
0
VERTEX
8
1
10
11.765137
20
5.337524
0
VERTEX
8
1
10
11.770386
20
5.347290
0
VERTEX
8
1
10
11.775757
20
5.355957
0
VERTEX
8
1
10
11.781128
20
5.363892
0
VERTEX
8
1
10
11.786987
20
5.370850
0
VERTEX
8
1
10
11.792603
20
5.376953
0
VERTEX
8
1
10
11.798218
20
5.382324
0
VERTEX
8
1
10
11.803711
20
5.387085
0
VERTEX
8
1
10
11.809204
20
5.391113
0
VERTEX
8
1
10
11.814453
20
5.394531
0
VERTEX
8
1
10
11.819458
20
5.397461
0
VERTEX
8
1
10
11.824097
20
5.399780
0
VERTEX
8
1
10
11.828247
20
5.401733
0
VERTEX
8
1
10
11.832031
20
5.403198
0
VERTEX
8
1
10
11.835571
20
5.404297
0
VERTEX
8
1
10
11.838257
20
5.405029
0
VERTEX
8
1
10
11.840454
20
5.405640
0
VERTEX
8
1
10
11.841919
20
5.405884
0
VERTEX
8
1
10
11.842773
20
5.406006
0
VERTEX
8
1
10
11.842773
20
5.406128
0
VERTEX
8
1
10
11.842773
20
5.407471
0
VERTEX
8
1
10
11.842773
20
5.409790
0
VERTEX
8
1
10
11.842773
20
5.413086
0
VERTEX
8
1
10
11.842773
20
5.417358
0
VERTEX
8
1
10
11.842773
20
5.422485
0
VERTEX
8
1
10
11.842773
20
5.428467
0
VERTEX
8
1
10
11.842773
20
5.435059
0
VERTEX
8
1
10
11.842773
20
5.442261
0
VERTEX
8
1
10
11.842773
20
5.449951
0
VERTEX
8
1
10
11.842773
20
5.458008
0
VERTEX
8
1
10
11.842773
20
5.466553
0
VERTEX
8
1
10
11.842773
20
5.475342
0
VERTEX
8
1
10
11.842773
20
5.484253
0
VERTEX
8
1
10
11.842773
20
5.493408
0
VERTEX
8
1
10
11.842773
20
5.502441
0
VERTEX
8
1
10
11.842773
20
5.511475
0
VERTEX
8
1
10
11.842773
20
5.520142
0
VERTEX
8
1
10
11.842773
20
5.528809
0
VERTEX
8
1
10
11.842651
20
5.537109
0
VERTEX
8
1
10
11.842773
20
5.545044
0
VERTEX
8
1
10
11.842773
20
5.552490
0
VERTEX
8
1
10
11.842773
20
5.559204
0
VERTEX
8
1
10
11.842773
20
5.565308
0
VERTEX
8
1
10
11.842773
20
5.570801
0
VERTEX
8
1
10
11.842896
20
5.575439
0
VERTEX
8
1
10
11.842773
20
5.579224
0
VERTEX
8
1
10
11.842773
20
5.581787
0
VERTEX
8
1
10
11.842651
20
5.583740
0
VERTEX
8
1
10
11.842773
20
5.584106
0
VERTEX
8
1
10
11.843018
20
5.584106
0
VERTEX
8
1
10
11.843872
20
5.584106
0
VERTEX
8
1
10
11.844971
20
5.584106
0
VERTEX
8
1
10
11.846680
20
5.584106
0
VERTEX
8
1
10
11.848633
20
5.584106
0
VERTEX
8
1
10
11.850952
20
5.584106
0
VERTEX
8
1
10
11.853516
20
5.584106
0
VERTEX
8
1
10
11.856445
20
5.584106
0
VERTEX
8
1
10
11.859497
20
5.584106
0
VERTEX
8
1
10
11.862793
20
5.584106
0
VERTEX
8
1
10
11.866333
20
5.584106
0
VERTEX
8
1
10
11.869873
20
5.584106
0
VERTEX
8
1
10
11.873535
20
5.584106
0
VERTEX
8
1
10
11.877197
20
5.584106
0
VERTEX
8
1
10
11.881104
20
5.584106
0
VERTEX
8
1
10
11.884888
20
5.584106
0
VERTEX
8
1
10
11.888550
20
5.584106
0
VERTEX
8
1
10
11.892212
20
5.584106
0
VERTEX
8
1
10
11.895752
20
5.584106
0
VERTEX
8
1
10
11.898926
20
5.584106
0
VERTEX
8
1
10
11.902100
20
5.584229
0
VERTEX
8
1
10
11.905029
20
5.583984
0
VERTEX
8
1
10
11.907715
20
5.584106
0
VERTEX
8
1
10
11.910400
20
5.583984
0
VERTEX
8
1
10
11.912354
20
5.584106
0
VERTEX
8
1
10
11.914063
20
5.584106
0
VERTEX
8
1
10
11.915405
20
5.584106
0
VERTEX
8
1
10
11.916260
20
5.584106
0
VERTEX
8
1
10
11.916626
20
5.584106
0
VERTEX
8
1
10
11.916748
20
5.583862
0
VERTEX
8
1
10
11.916992
20
5.582397
0
VERTEX
8
1
10
11.917358
20
5.579834
0
VERTEX
8
1
10
11.917969
20
5.576050
0
VERTEX
8
1
10
11.918701
20
5.571411
0
VERTEX
8
1
10
11.919556
20
5.565796
0
VERTEX
8
1
10
11.920532
20
5.559326
0
VERTEX
8
1
10
11.921631
20
5.552124
0
VERTEX
8
1
10
11.922852
20
5.544312
0
VERTEX
8
1
10
11.924194
20
5.535889
0
VERTEX
8
1
10
11.925537
20
5.527100
0
VERTEX
8
1
10
11.926880
20
5.517822
0
VERTEX
8
1
10
11.928467
20
5.508301
0
VERTEX
8
1
10
11.930054
20
5.498535
0
VERTEX
8
1
10
11.931396
20
5.488892
0
VERTEX
8
1
10
11.932861
20
5.479004
0
VERTEX
8
1
10
11.934448
20
5.469238
0
VERTEX
8
1
10
11.935913
20
5.459595
0
VERTEX
8
1
10
11.937378
20
5.450317
0
VERTEX
8
1
10
11.938599
20
5.441528
0
VERTEX
8
1
10
11.940063
20
5.433105
0
VERTEX
8
1
10
11.941162
20
5.424927
0
VERTEX
8
1
10
11.942505
20
5.417603
0
VERTEX
8
1
10
11.943481
20
5.411011
0
VERTEX
8
1
10
11.944214
20
5.405151
0
VERTEX
8
1
10
11.944946
20
5.400269
0
VERTEX
8
1
10
11.945557
20
5.396362
0
VERTEX
8
1
10
11.946167
20
5.393433
0
VERTEX
8
1
10
11.946167
20
5.391846
0
VERTEX
8
1
10
11.946411
20
5.391235
0
VERTEX
8
1
10
11.947632
20
5.391113
0
VERTEX
8
1
10
11.950684
20
5.390747
0
VERTEX
8
1
10
11.955444
20
5.390259
0
VERTEX
8
1
10
11.961670
20
5.389648
0
VERTEX
8
1
10
11.969238
20
5.388794
0
VERTEX
8
1
10
11.978149
20
5.387939
0
VERTEX
8
1
10
11.988159
20
5.386841
0
VERTEX
8
1
10
11.999146
20
5.385620
0
VERTEX
8
1
10
12.010986
20
5.384399
0
VERTEX
8
1
10
12.023804
20
5.383057
0
VERTEX
8
1
10
12.036865
20
5.381714
0
VERTEX
8
1
10
12.050659
20
5.380249
0
VERTEX
8
1
10
12.064697
20
5.378784
0
VERTEX
8
1
10
12.078979
20
5.377319
0
VERTEX
8
1
10
12.093262
20
5.375732
0
VERTEX
8
1
10
12.107422
20
5.374268
0
VERTEX
8
1
10
12.121582
20
5.372681
0
VERTEX
8
1
10
12.135376
20
5.371216
0
VERTEX
8
1
10
12.148682
20
5.369995
0
VERTEX
8
1
10
12.161499
20
5.368530
0
VERTEX
8
1
10
12.173218
20
5.367310
0
VERTEX
8
1
10
12.184570
20
5.366089
0
VERTEX
8
1
10
12.194824
20
5.364990
0
VERTEX
8
1
10
12.203735
20
5.364014
0
VERTEX
8
1
10
12.211670
20
5.363281
0
VERTEX
8
1
10
12.218018
20
5.362671
0
VERTEX
8
1
10
12.223022
20
5.361938
0
VERTEX
8
1
10
12.226318
20
5.361694
0
VERTEX
8
1
10
12.227905
20
5.361572
0
VERTEX
8
1
10
12.234131
20
5.361816
0
VERTEX
8
1
10
12.264404
20
5.363037
0
VERTEX
8
1
10
12.318481
20
5.365112
0
VERTEX
8
1
10
12.394775
20
5.368164
0
VERTEX
8
1
10
12.491455
20
5.372070
0
VERTEX
8
1
10
12.607178
20
5.376831
0
VERTEX
8
1
10
12.740356
20
5.382324
0
VERTEX
8
1
10
12.889282
20
5.388550
0
VERTEX
8
1
10
13.052246
20
5.395386
0
VERTEX
8
1
10
13.228149
20
5.402832
0
VERTEX
8
1
10
13.414917
20
5.411011
0
VERTEX
8
1
10
13.611084
20
5.419556
0
VERTEX
8
1
10
13.815186
20
5.428711
0
VERTEX
8
1
10
14.025513
20
5.438354
0
VERTEX
8
1
10
14.240479
20
5.448364
0
VERTEX
8
1
10
14.458618
20
5.458740
0
VERTEX
8
1
10
14.678101
20
5.469482
0
VERTEX
8
1
10
14.897461
20
5.480347
0
VERTEX
8
1
10
15.115356
20
5.491577
0
VERTEX
8
1
10
15.329834
20
5.502808
0
VERTEX
8
1
10
15.539551
20
5.514282
0
VERTEX
8
1
10
15.742676
20
5.525879
0
VERTEX
8
1
10
15.937866
20
5.537476
0
VERTEX
8
1
10
16.123291
20
5.549072
0
VERTEX
8
1
10
16.297607
20
5.560669
0
VERTEX
8
1
10
16.459106
20
5.572266
0
VERTEX
8
1
10
16.606201
20
5.583496
0
VERTEX
8
1
10
16.737305
20
5.594727
0
VERTEX
8
1
10
16.850952
20
5.605591
0
VERTEX
8
1
10
16.947144
20
5.616577
0
VERTEX
8
1
10
17.054443
20
5.628784
0
VERTEX
8
1
10
17.181519
20
5.641113
0
VERTEX
8
1
10
17.326538
20
5.653564
0
VERTEX
8
1
10
17.487793
20
5.666138
0
VERTEX
8
1
10
17.663574
20
5.678711
0
VERTEX
8
1
10
17.852417
20
5.691284
0
VERTEX
8
1
10
18.052246
20
5.703735
0
VERTEX
8
1
10
18.261719
20
5.716187
0
VERTEX
8
1
10
18.479004
20
5.728394
0
VERTEX
8
1
10
18.702515
20
5.740479
0
VERTEX
8
1
10
18.930420
20
5.752441
0
VERTEX
8
1
10
19.161133
20
5.764038
0
VERTEX
8
1
10
19.392944
20
5.775269
0
VERTEX
8
1
10
19.624268
20
5.786133
0
VERTEX
8
1
10
19.853149
20
5.796753
0
VERTEX
8
1
10
20.078125
20
5.806763
0
VERTEX
8
1
10
20.297363
20
5.816528
0
VERTEX
8
1
10
20.509277
20
5.825684
0
VERTEX
8
1
10
20.712280
20
5.834106
0
VERTEX
8
1
10
20.904541
20
5.842285
0
VERTEX
8
1
10
21.084229
20
5.849609
0
VERTEX
8
1
10
21.250000
20
5.856323
0
VERTEX
8
1
10
21.400024
20
5.862183
0
VERTEX
8
1
10
21.532593
20
5.867310
0
VERTEX
8
1
10
21.645874
20
5.871826
0
VERTEX
8
1
10
21.738403
20
5.875244
0
VERTEX
8
1
10
21.808350
20
5.877808
0
VERTEX
8
1
10
21.854248
20
5.879517
0
VERTEX
8
1
10
21.874268
20
5.880493
0
VERTEX
8
1
10
21.874878
20
5.880615
0
VERTEX
8
1
10
21.874878
20
5.881470
0
VERTEX
8
1
10
21.874878
20
5.882935
0
VERTEX
8
1
10
21.874878
20
5.885010
0
VERTEX
8
1
10
21.874878
20
5.887695
0
VERTEX
8
1
10
21.874878
20
5.890747
0
VERTEX
8
1
10
21.874878
20
5.894287
0
VERTEX
8
1
10
21.874878
20
5.898193
0
VERTEX
8
1
10
21.874878
20
5.902466
0
VERTEX
8
1
10
21.874878
20
5.906982
0
VERTEX
8
1
10
21.874878
20
5.911865
0
VERTEX
8
1
10
21.874878
20
5.916748
0
VERTEX
8
1
10
21.874878
20
5.921997
0
VERTEX
8
1
10
21.874878
20
5.927124
0
VERTEX
8
1
10
21.874878
20
5.932495
0
VERTEX
8
1
10
21.874878
20
5.937744
0
VERTEX
8
1
10
21.874756
20
5.942993
0
VERTEX
8
1
10
21.874878
20
5.948120
0
VERTEX
8
1
10
21.874878
20
5.953003
0
VERTEX
8
1
10
21.874878
20
5.957886
0
VERTEX
8
1
10
21.874756
20
5.962402
0
VERTEX
8
1
10
21.874878
20
5.966553
0
VERTEX
8
1
10
21.874878
20
5.970581
0
VERTEX
8
1
10
21.874756
20
5.974121
0
VERTEX
8
1
10
21.874878
20
5.977051
0
VERTEX
8
1
10
21.874878
20
5.979736
0
VERTEX
8
1
10
21.874878
20
5.981689
0
VERTEX
8
1
10
21.875000
20
5.983032
0
VERTEX
8
1
10
21.874878
20
5.984009
0
VERTEX
8
1
10
21.875000
20
5.984131
0
VERTEX
8
1
10
21.876587
20
5.984131
0
VERTEX
8
1
10
21.880005
20
5.984131
0
VERTEX
8
1
10
21.885254
20
5.984131
0
VERTEX
8
1
10
21.891968
20
5.984131
0
VERTEX
8
1
10
21.900269
20
5.984131
0
VERTEX
8
1
10
21.909790
20
5.984131
0
VERTEX
8
1
10
21.920532
20
5.984131
0
VERTEX
8
1
10
21.932373
20
5.984131
0
VERTEX
8
1
10
21.944824
20
5.984131
0
VERTEX
8
1
10
21.958252
20
5.984131
0
VERTEX
8
1
10
21.972290
20
5.984131
0
VERTEX
8
1
10
21.986694
20
5.984131
0
VERTEX
8
1
10
22.001587
20
5.984009
0
VERTEX
8
1
10
22.016479
20
5.984131
0
VERTEX
8
1
10
22.031738
20
5.984131
0
VERTEX
8
1
10
22.046631
20
5.984131
0
VERTEX
8
1
10
22.061523
20
5.984131
0
VERTEX
8
1
10
22.075928
20
5.984131
0
VERTEX
8
1
10
22.089722
20
5.984131
0
VERTEX
8
1
10
22.103027
20
5.984253
0
VERTEX
8
1
10
22.115601
20
5.984131
0
VERTEX
8
1
10
22.127197
20
5.984131
0
VERTEX
8
1
10
22.137695
20
5.984131
0
VERTEX
8
1
10
22.147095
20
5.984131
0
VERTEX
8
1
10
22.155151
20
5.984131
0
VERTEX
8
1
10
22.161621
20
5.984009
0
VERTEX
8
1
10
22.166748
20
5.984253
0
VERTEX
8
1
10
22.169800
20
5.984253
0
VERTEX
8
1
10
22.171143
20
5.984009
0
VERTEX
8
1
10
22.171265
20
5.983643
0
VERTEX
8
1
10
22.171509
20
5.982910
0
VERTEX
8
1
10
22.171875
20
5.981934
0
VERTEX
8
1
10
22.172241
20
5.980713
0
VERTEX
8
1
10
22.172607
20
5.979248
0
VERTEX
8
1
10
22.173218
20
5.977539
0
VERTEX
8
1
10
22.173706
20
5.975464
0
VERTEX
8
1
10
22.174438
20
5.973267
0
VERTEX
8
1
10
22.175049
20
5.970947
0
VERTEX
8
1
10
22.175903
20
5.968262
0
VERTEX
8
1
10
22.176514
20
5.965454
0
VERTEX
8
1
10
22.177246
20
5.962524
0
VERTEX
8
1
10
22.177979
20
5.959229
0
VERTEX
8
1
10
22.178833
20
5.955933
0
VERTEX
8
1
10
22.179565
20
5.952515
0
VERTEX
8
1
10
22.180298
20
5.948853
0
VERTEX
8
1
10
22.181030
20
5.945190
0
VERTEX
8
1
10
22.181885
20
5.941284
0
VERTEX
8
1
10
22.182617
20
5.937256
0
VERTEX
8
1
10
22.183105
20
5.933105
0
VERTEX
8
1
10
22.183838
20
5.929077
0
VERTEX
8
1
10
22.184326
20
5.924683
0
VERTEX
8
1
10
22.184814
20
5.920410
0
VERTEX
8
1
10
22.185303
20
5.916016
0
VERTEX
8
1
10
22.185669
20
5.911621
0
VERTEX
8
1
10
22.185913
20
5.906982
0
VERTEX
8
1
10
22.186279
20
5.902466
0
VERTEX
8
1
10
22.186157
20
5.898071
0
VERTEX
8
1
10
22.186401
20
5.893555
0
VERTEX
8
1
10
22.187012
20
5.889404
0
VERTEX
8
1
10
22.188477
20
5.885620
0
VERTEX
8
1
10
22.190674
20
5.882202
0
VERTEX
8
1
10
22.193359
20
5.879028
0
VERTEX
8
1
10
22.196655
20
5.876343
0
VERTEX
8
1
10
22.200562
20
5.873901
0
VERTEX
8
1
10
22.204956
20
5.871826
0
VERTEX
8
1
10
22.209595
20
5.869995
0
VERTEX
8
1
10
22.214600
20
5.868408
0
VERTEX
8
1
10
22.220093
20
5.867065
0
VERTEX
8
1
10
22.225708
20
5.865967
0
VERTEX
8
1
10
22.231445
20
5.865112
0
VERTEX
8
1
10
22.237549
20
5.864380
0
VERTEX
8
1
10
22.243408
20
5.863892
0
VERTEX
8
1
10
22.249512
20
5.863525
0
VERTEX
8
1
10
22.255371
20
5.863403
0
VERTEX
8
1
10
22.261353
20
5.863281
0
VERTEX
8
1
10
22.267212
20
5.863281
0
VERTEX
8
1
10
22.272705
20
5.863403
0
VERTEX
8
1
10
22.278076
20
5.863647
0
VERTEX
8
1
10
22.282837
20
5.863770
0
VERTEX
8
1
10
22.287598
20
5.864014
0
VERTEX
8
1
10
22.291748
20
5.864258
0
VERTEX
8
1
10
22.295532
20
5.864624
0
VERTEX
8
1
10
22.298706
20
5.864990
0
VERTEX
8
1
10
22.301270
20
5.865112
0
VERTEX
8
1
10
22.303223
20
5.865356
0
VERTEX
8
1
10
22.304321
20
5.865601
0
VERTEX
8
1
10
22.304810
20
5.865601
0
VERTEX
8
1
10
22.304810
20
5.864868
0
VERTEX
8
1
10
22.305054
20
5.862305
0
VERTEX
8
1
10
22.305176
20
5.858276
0
VERTEX
8
1
10
22.305542
20
5.852661
0
VERTEX
8
1
10
22.305908
20
5.845703
0
VERTEX
8
1
10
22.306396
20
5.837646
0
VERTEX
8
1
10
22.306885
20
5.828369
0
VERTEX
8
1
10
22.307373
20
5.818115
0
VERTEX
8
1
10
22.308105
20
5.807007
0
VERTEX
8
1
10
22.308716
20
5.795166
0
VERTEX
8
1
10
22.309326
20
5.782837
0
VERTEX
8
1
10
22.310181
20
5.769897
0
VERTEX
8
1
10
22.310913
20
5.756592
0
VERTEX
8
1
10
22.311646
20
5.743164
0
VERTEX
8
1
10
22.312256
20
5.729614
0
VERTEX
8
1
10
22.312988
20
5.716064
0
VERTEX
8
1
10
22.313965
20
5.702759
0
VERTEX
8
1
10
22.314575
20
5.689575
0
VERTEX
8
1
10
22.315186
20
5.676880
0
VERTEX
8
1
10
22.315918
20
5.664673
0
VERTEX
8
1
10
22.316528
20
5.653076
0
VERTEX
8
1
10
22.317261
20
5.642212
0
VERTEX
8
1
10
22.317749
20
5.632446
0
VERTEX
8
1
10
22.318237
20
5.623535
0
VERTEX
8
1
10
22.318604
20
5.615967
0
VERTEX
8
1
10
22.319092
20
5.609497
0
VERTEX
8
1
10
22.319214
20
5.604370
0
VERTEX
8
1
10
22.319458
20
5.600952
0
VERTEX
8
1
10
22.319702
20
5.599243
0
VERTEX
8
1
10
22.311890
20
5.598511
0
VERTEX
8
1
10
22.244019
20
5.595703
0
VERTEX
8
1
10
22.110352
20
5.590088
0
VERTEX
8
1
10
21.915771
20
5.581909
0
VERTEX
8
1
10
21.665161
20
5.571411
0
VERTEX
8
1
10
21.363525
20
5.558716
0
VERTEX
8
1
10
21.015991
20
5.544067
0
VERTEX
8
1
10
20.627319
20
5.527710
0
VERTEX
8
1
10
20.202515
20
5.509888
0
VERTEX
8
1
10
19.746826
20
5.490723
0
VERTEX
8
1
10
19.264771
20
5.470459
0
VERTEX
8
1
10
18.761475
20
5.449341
0
VERTEX
8
1
10
18.242065
20
5.427490
0
VERTEX
8
1
10
17.711304
20
5.405151
0
VERTEX
8
1
10
17.174316
20
5.382690
0
VERTEX
8
1
10
16.635986
20
5.359985
0
VERTEX
8
1
10
16.101196
20
5.337524
0
VERTEX
8
1
10
15.575195
20
5.315308
0
VERTEX
8
1
10
15.062500
20
5.293823
0
VERTEX
8
1
10
14.568359
20
5.273071
0
VERTEX
8
1
10
14.097900
20
5.253418
0
VERTEX
8
1
10
13.655884
20
5.234619
0
VERTEX
8
1
10
13.247070
20
5.217529
0
VERTEX
8
1
10
12.876709
20
5.202026
0
VERTEX
8
1
10
12.549805
20
5.188354
0
VERTEX
8
1
10
12.271240
20
5.176514
0
VERTEX
8
1
10
12.045776
20
5.166992
0
VERTEX
8
1
10
11.878540
20
5.160156
0
VERTEX
8
1
10
11.774780
20
5.155640
0
SEQEND
0
POLYLINE
8
1
66
1
70
1
0
VERTEX
8
1
10
13.265259
20
2.946167
0
VERTEX
8
1
10
13.265259
20
3.316895
0
VERTEX
8
1
10
12.924438
20
3.316895
0
VERTEX
8
1
10
12.924438
20
2.946167
0
SEQEND
0
POLYLINE
8
1
66
1
70
1
0
VERTEX
8
1
10
22.563843
20
3.087158
0
VERTEX
8
1
10
22.563843
20
3.457397
0
VERTEX
8
1
10
22.223145
20
3.457397
0
VERTEX
8
1
10
22.223145
20
3.087158
0
SEQEND
0
POLYLINE
8
1
66
1
70
1
0
VERTEX
8
1
10
16.036499
20
2.160767
0
VERTEX
8
1
10
16.036255
20
2.160767
0
VERTEX
8
1
10
16.035400
20
2.160645
0
VERTEX
8
1
10
16.034180
20
2.160400
0
VERTEX
8
1
10
16.032349
20
2.160278
0
VERTEX
8
1
10
16.030151
20
2.159912
0
VERTEX
8
1
10
16.027466
20
2.159668
0
VERTEX
8
1
10
16.024414
20
2.159180
0
VERTEX
8
1
10
16.020874
20
2.158813
0
VERTEX
8
1
10
16.016968
20
2.158447
0
VERTEX
8
1
10
16.012695
20
2.157959
0
VERTEX
8
1
10
16.008301
20
2.157593
0
VERTEX
8
1
10
16.003296
20
2.157104
0
VERTEX
8
1
10
15.998169
20
2.156616
0
VERTEX
8
1
10
15.992554
20
2.156250
0
VERTEX
8
1
10
15.986816
20
2.155884
0
VERTEX
8
1
10
15.981079
20
2.155518
0
VERTEX
8
1
10
15.974854
20
2.155151
0
VERTEX
8
1
10
15.968384
20
2.154785
0
VERTEX
8
1
10
15.961914
20
2.154541
0
VERTEX
8
1
10
15.955322
20
2.154419
0
VERTEX
8
1
10
15.948364
20
2.154175
0
VERTEX
8
1
10
15.941528
20
2.154175
0
VERTEX
8
1
10
15.934448
20
2.154175
0
VERTEX
8
1
10
15.927368
20
2.154297
0
VERTEX
8
1
10
15.920166
20
2.154419
0
VERTEX
8
1
10
15.913086
20
2.154541
0
VERTEX
8
1
10
15.905884
20
2.155029
0
VERTEX
8
1
10
15.898682
20
2.155518
0
VERTEX
8
1
10
15.891602
20
2.156128
0
VERTEX
8
1
10
15.884399
20
2.156860
0
VERTEX
8
1
10
15.877441
20
2.157593
0
VERTEX
8
1
10
15.870605
20
2.158569
0
VERTEX
8
1
10
15.863892
20
2.159668
0
VERTEX
8
1
10
15.861816
20
2.184448
0
VERTEX
8
1
10
15.886353
20
2.322998
0
VERTEX
8
1
10
15.915649
20
2.454590
0
VERTEX
8
1
10
15.949707
20
2.579346
0
VERTEX
8
1
10
15.988159
20
2.697632
0
VERTEX
8
1
10
16.030884
20
2.809448
0
VERTEX
8
1
10
16.077515
20
2.914917
0
VERTEX
8
1
10
16.127930
20
3.014404
0
VERTEX
8
1
10
16.181763
20
3.107910
0
VERTEX
8
1
10
16.238770
20
3.195801
0
VERTEX
8
1
10
16.298828
20
3.278198
0
VERTEX
8
1
10
16.361694
20
3.355103
0
VERTEX
8
1
10
16.427124
20
3.426758
0
VERTEX
8
1
10
16.494629
20
3.493530
0
VERTEX
8
1
10
16.564331
20
3.555420
0
VERTEX
8
1
10
16.635742
20
3.612671
0
VERTEX
8
1
10
16.708740
20
3.665283
0
VERTEX
8
1
10
16.782959
20
3.713623
0
VERTEX
8
1
10
16.858276
20
3.757935
0
VERTEX
8
1
10
16.934448
20
3.798096
0
VERTEX
8
1
10
17.011353
20
3.834595
0
VERTEX
8
1
10
17.088379
20
3.867310
0
VERTEX
8
1
10
17.165527
20
3.896729
0
VERTEX
8
1
10
17.242432
20
3.922729
0
VERTEX
8
1
10
17.319214
20
3.945801
0
VERTEX
8
1
10
17.395264
20
3.965820
0
VERTEX
8
1
10
17.470459
20
3.983154
0
VERTEX
8
1
10
17.544678
20
3.997681
0
VERTEX
8
1
10
17.617310
20
4.010010
0
VERTEX
8
1
10
17.688599
20
4.020020
0
VERTEX
8
1
10
17.757813
20
4.028076
0
VERTEX
8
1
10
17.824951
20
4.034180
0
VERTEX
8
1
10
17.890015
20
4.038696
0
VERTEX
8
1
10
17.952515
20
4.041626
0
VERTEX
8
1
10
18.045044
20
4.037109
0
VERTEX
8
1
10
18.197144
20
4.015259
0
VERTEX
8
1
10
18.341064
20
3.986450
0
VERTEX
8
1
10
18.477173
20
3.951294
0
VERTEX
8
1
10
18.605591
20
3.910156
0
VERTEX
8
1
10
18.726563
20
3.863525
0
VERTEX
8
1
10
18.840332
20
3.811768
0
VERTEX
8
1
10
18.947144
20
3.755615
0
VERTEX
8
1
10
19.047119
20
3.695313
0
VERTEX
8
1
10
19.140503
20
3.631470
0
VERTEX
8
1
10
19.227539
20
3.564575
0
VERTEX
8
1
10
19.308472
20
3.494873
0
VERTEX
8
1
10
19.383423
20
3.423096
0
VERTEX
8
1
10
19.452759
20
3.349609
0
VERTEX
8
1
10
19.516479
20
3.274902
0
VERTEX
8
1
10
19.575195
20
3.199463
0
VERTEX
8
1
10
19.628662
20
3.123779
0
VERTEX
8
1
10
19.677246
20
3.048096
0
VERTEX
8
1
10
19.721436
20
2.973145
0
VERTEX
8
1
10
19.760986
20
2.899414
0
VERTEX
8
1
10
19.796631
20
2.827271
0
VERTEX
8
1
10
19.828247
20
2.757080
0
VERTEX
8
1
10
19.855957
20
2.689575
0
VERTEX
8
1
10
19.880249
20
2.625122
0
VERTEX
8
1
10
19.901245
20
2.564209
0
VERTEX
8
1
10
19.919312
20
2.507202
0
VERTEX
8
1
10
19.934326
20
2.454590
0
VERTEX
8
1
10
19.946655
20
2.406860
0
VERTEX
8
1
10
19.956665
20
2.364624
0
VERTEX
8
1
10
19.964478
20
2.328125
0
VERTEX
8
1
10
19.970337
20
2.298096
0
VERTEX
8
1
10
19.974243
20
2.274780
0
VERTEX
8
1
10
19.976807
20
2.258911
0
VERTEX
8
1
10
19.977905
20
2.250732
0
VERTEX
8
1
10
19.977905
20
2.249634
0
VERTEX
8
1
10
19.977295
20
2.249512
0
VERTEX
8
1
10
19.975952
20
2.249390
0
VERTEX
8
1
10
19.973999
20
2.249146
0
VERTEX
8
1
10
19.971436
20
2.248901
0
VERTEX
8
1
10
19.968384
20
2.248657
0
VERTEX
8
1
10
19.964722
20
2.248291
0
VERTEX
8
1
10
19.960693
20
2.247925
0
VERTEX
8
1
10
19.956055
20
2.247559
0
VERTEX
8
1
10
19.951050
20
2.247070
0
VERTEX
8
1
10
19.945679
20
2.246704
0
VERTEX
8
1
10
19.939941
20
2.246216
0
VERTEX
8
1
10
19.933838
20
2.245728
0
VERTEX
8
1
10
19.927612
20
2.245483
0
VERTEX
8
1
10
19.920898
20
2.244873
0
VERTEX
8
1
10
19.913940
20
2.244507
0
VERTEX
8
1
10
19.906860
20
2.244141
0
VERTEX
8
1
10
19.899780
20
2.243896
0
VERTEX
8
1
10
19.892334
20
2.243652
0
VERTEX
8
1
10
19.884766
20
2.243286
0
VERTEX
8
1
10
19.877319
20
2.243164
0
VERTEX
8
1
10
19.869629
20
2.243042
0
VERTEX
8
1
10
19.862061
20
2.243042
0
VERTEX
8
1
10
19.854370
20
2.243164
0
VERTEX
8
1
10
19.846924
20
2.243164
0
VERTEX
8
1
10
19.839600
20
2.243286
0
VERTEX
8
1
10
19.832153
20
2.243652
0
VERTEX
8
1
10
19.825073
20
2.244141
0
VERTEX
8
1
10
19.818115
20
2.244507
0
VERTEX
8
1
10
19.811279
20
2.245361
0
VERTEX
8
1
10
19.804810
20
2.246094
0
VERTEX
8
1
10
19.798706
20
2.246826
0
VERTEX
8
1
10
19.792725
20
2.248047
0
VERTEX
8
1
10
19.787354
20
2.249268
0
VERTEX
8
1
10
19.757813
20
2.328003
0
VERTEX
8
1
10
19.714600
20
2.440430
0
VERTEX
8
1
10
19.669434
20
2.546997
0
VERTEX
8
1
10
19.622437
20
2.647705
0
VERTEX
8
1
10
19.573730
20
2.742798
0
VERTEX
8
1
10
19.523438
20
2.832520
0
VERTEX
8
1
10
19.471558
20
2.916992
0
VERTEX
8
1
10
19.418457
20
2.996338
0
VERTEX
8
1
10
19.363892
20
3.070679
0
VERTEX
8
1
10
19.308350
20
3.140259
0
VERTEX
8
1
10
19.251831
20
3.205200
0
VERTEX
8
1
10
19.194458
20
3.265625
0
VERTEX
8
1
10
19.136353
20
3.321777
0
VERTEX
8
1
10
19.077393
20
3.373901
0
VERTEX
8
1
10
19.018066
20
3.422119
0
VERTEX
8
1
10
18.958374
20
3.466431
0
VERTEX
8
1
10
18.898315
20
3.507202
0
VERTEX
8
1
10
18.838257
20
3.544556
0
VERTEX
8
1
10
18.778076
20
3.578491
0
VERTEX
8
1
10
18.718018
20
3.609253
0
VERTEX
8
1
10
18.658081
20
3.637207
0
VERTEX
8
1
10
18.598755
20
3.662231
0
VERTEX
8
1
10
18.539673
20
3.684692
0
VERTEX
8
1
10
18.481201
20
3.704590
0
VERTEX
8
1
10
18.423340
20
3.722290
0
VERTEX
8
1
10
18.366455
20
3.737915
0
VERTEX
8
1
10
18.310303
20
3.751465
0
VERTEX
8
1
10
18.255493
20
3.763184
0
VERTEX
8
1
10
18.201782
20
3.773315
0
VERTEX
8
1
10
18.149292
20
3.781860
0
VERTEX
8
1
10
18.098389
20
3.789307
0
VERTEX
8
1
10
18.048828
20
3.795532
0
VERTEX
8
1
10
18.001099
20
3.800781
0
VERTEX
8
1
10
17.955200
20
3.805054
0
VERTEX
8
1
10
17.821411
20
3.804932
0
VERTEX
8
1
10
17.677246
20
3.796143
0
VERTEX
8
1
10
17.541016
20
3.779297
0
VERTEX
8
1
10
17.412476
20
3.755127
0
VERTEX
8
1
10
17.291382
20
3.723999
0
VERTEX
8
1
10
17.177490
20
3.686401
0
VERTEX
8
1
10
17.070679
20
3.642944
0
VERTEX
8
1
10
16.970703
20
3.594116
0
VERTEX
8
1
10
16.877319
20
3.540527
0
VERTEX
8
1
10
16.790161
20
3.482666
0
VERTEX
8
1
10
16.709229
20
3.420898
0
VERTEX
8
1
10
16.634277
20
3.355957
0
VERTEX
8
1
10
16.564941
20
3.288208
0
VERTEX
8
1
10
16.500977
20
3.218384
0
VERTEX
8
1
10
16.442505
20
3.146729
0
VERTEX
8
1
10
16.389038
20
3.073975
0
VERTEX
8
1
10
16.340332
20
3.000488
0
VERTEX
8
1
10
16.296143
20
2.926880
0
VERTEX
8
1
10
16.256470
20
2.853760
0
VERTEX
8
1
10
16.220947
20
2.781616
0
VERTEX
8
1
10
16.189331
20
2.710815
0
VERTEX
8
1
10
16.161377
20
2.641968
0
VERTEX
8
1
10
16.136963
20
2.575684
0
VERTEX
8
1
10
16.115845
20
2.512329
0
VERTEX
8
1
10
16.097900
20
2.452637
0
VERTEX
8
1
10
16.082642
20
2.396973
0
VERTEX
8
1
10
16.069946
20
2.345825
0
VERTEX
8
1
10
16.059814
20
2.299927
0
VERTEX
8
1
10
16.051758
20
2.259521
0
VERTEX
8
1
10
16.045776
20
2.225342
0
VERTEX
8
1
10
16.041260
20
2.197876
0
VERTEX
8
1
10
16.038452
20
2.177612
0
VERTEX
8
1
10
16.036865
20
2.164917
0
SEQEND
0
POLYLINE
8
1
66
1
70
1
0
VERTEX
8
1
10
22.752686
20
2.407104
0
VERTEX
8
1
10
22.742676
20
2.895874
0
VERTEX
8
1
10
20.653931
20
2.853516
0
VERTEX
8
1
10
20.663940
20
2.364380
0
SEQEND
0
POLYLINE
8
1
66
1
70
1
0
VERTEX
8
1
10
15.520020
20
2.324341
0
VERTEX
8
1
10
15.517578
20
2.813232
0
VERTEX
8
1
10
11.568848
20
2.795654
0
VERTEX
8
1
10
11.570923
20
2.306763
0
SEQEND
0
POLYLINE
8
1
66
1
70
1
0
VERTEX
8
1
10
23.169189
20
4.260132
0
VERTEX
8
1
10
23.356934
20
4.250122
0
VERTEX
8
1
10
23.376587
20
3.548706
0
VERTEX
8
1
10
23.198853
20
3.627930
0
SEQEND
0
POLYLINE
8
1
66
1
70
1
0
VERTEX
8
1
10
23.159180
20
4.892334
0
VERTEX
8
1
10
23.317261
20
4.882690
0
VERTEX
8
1
10
23.336914
20
4.388672
0
VERTEX
8
1
10
23.178833
20
4.408325
0
SEQEND
0
POLYLINE
8
1
66
1
70
1
0
VERTEX
8
1
10
23.080322
20
6.769531
0
VERTEX
8
1
10
23.238403
20
6.808838
0
VERTEX
8
1
10
23.268066
20
5.831177
0
VERTEX
8
1
10
23.109863
20
5.831177
0
SEQEND
0
POLYLINE
8
1
66
1
70
1
0
VERTEX
8
1
10
23.080322
20
6.927734
0
VERTEX
8
1
10
23.030640
20
7.846191
0
VERTEX
8
1
10
23.188843
20
7.945068
0
VERTEX
8
1
10
23.218384
20
6.957275
0
SEQEND
0
POLYLINE
8
1
66
1
70
1
0
VERTEX
8
1
10
23.020996
20
8.024292
0
VERTEX
8
1
10
22.961792
20
9.338257
0
VERTEX
8
1
10
22.368896
20
9.318237
0
VERTEX
8
1
10
22.388550
20
9.397461
0
VERTEX
8
1
10
23.129517
20
9.407104
0
VERTEX
8
1
10
23.159180
20
8.113159
0
SEQEND
0
POLYLINE
8
1
66
1
70
1
0
VERTEX
8
1
10
22.368896
20
9.199707
0
VERTEX
8
1
10
22.375610
20
9.199463
0
VERTEX
8
1
10
22.394531
20
9.198608
0
VERTEX
8
1
10
22.423584
20
9.197510
0
VERTEX
8
1
10
22.460938
20
9.195923
0
VERTEX
8
1
10
22.504395
20
9.194092
0
VERTEX
8
1
10
22.552002
20
9.192139
0
VERTEX
8
1
10
22.601563
20
9.190063
0
VERTEX
8
1
10
22.651733
20
9.187988
0
VERTEX
8
1
10
22.699707
20
9.185913
0
VERTEX
8
1
10
22.743896
20
9.184326
0
VERTEX
8
1
10
22.782349
20
9.182617
0
VERTEX
8
1
10
22.812988
20
9.181274
0
VERTEX
8
1
10
22.833740
20
9.180542
0
VERTEX
8
1
10
22.842651
20
9.180054
0
VERTEX
8
1
10
22.843018
20
9.173340
0
VERTEX
8
1
10
22.843262
20
9.149170
0
VERTEX
8
1
10
22.843872
20
9.110107
0
VERTEX
8
1
10
22.844727
20
9.059082
0
VERTEX
8
1
10
22.845581
20
8.998901
0
VERTEX
8
1
10
22.846558
20
8.932129
0
VERTEX
8
1
10
22.847656
20
8.861938
0
VERTEX
8
1
10
22.848633
20
8.791138
0
VERTEX
8
1
10
22.849609
20
8.722290
0
VERTEX
8
1
10
22.850586
20
8.658325
0
VERTEX
8
1
10
22.851440
20
8.602417
0
VERTEX
8
1
10
22.852173
20
8.557007
0
VERTEX
8
1
10
22.852661
20
8.525024
0
VERTEX
8
1
10
22.852905
20
8.509521
0
VERTEX
8
1
10
22.852295
20
8.508423
0
VERTEX
8
1
10
22.849487
20
8.508667
0
VERTEX
8
1
10
22.844604
20
8.509155
0
VERTEX
8
1
10
22.838135
20
8.509888
0
VERTEX
8
1
10
22.830322
20
8.510742
0
VERTEX
8
1
10
22.821533
20
8.511719
0
VERTEX
8
1
10
22.812500
20
8.512695
0
VERTEX
8
1
10
22.802979
20
8.513794
0
VERTEX
8
1
10
22.793701
20
8.514648
0
VERTEX
8
1
10
22.785278
20
8.515625
0
VERTEX
8
1
10
22.777710
20
8.516479
0
VERTEX
8
1
10
22.771240
20
8.517212
0
VERTEX
8
1
10
22.766724
20
8.517578
0
VERTEX
8
1
10
22.764404
20
8.517944
0
VERTEX
8
1
10
22.764038
20
8.518555
0
VERTEX
8
1
10
22.763672
20
8.523682
0
VERTEX
8
1
10
22.763184
20
8.533569
0
VERTEX
8
1
10
22.762451
20
8.547729
0
VERTEX
8
1
10
22.761597
20
8.565796
0
VERTEX
8
1
10
22.760620
20
8.587402
0
VERTEX
8
1
10
22.759644
20
8.612183
0
VERTEX
8
1
10
22.758545
20
8.639771
0
VERTEX
8
1
10
22.757568
20
8.669556
0
VERTEX
8
1
10
22.756470
20
8.701416
0
VERTEX
8
1
10
22.755859
20
8.734863
0
VERTEX
8
1
10
22.754883
20
8.769287
0
VERTEX
8
1
10
22.754395
20
8.804565
0
VERTEX
8
1
10
22.754028
20
8.839966
0
VERTEX
8
1
10
22.752075
20
8.871948
0
VERTEX
8
1
10
22.739868
20
8.892578
0
VERTEX
8
1
10
22.719360
20
8.908325
0
VERTEX
8
1
10
22.692017
20
8.919678
0
VERTEX
8
1
10
22.659302
20
8.927246
0
VERTEX
8
1
10
22.622803
20
8.931641
0
VERTEX
8
1
10
22.583862
20
8.933228
0
VERTEX
8
1
10
22.544189
20
8.932495
0
VERTEX
8
1
10
22.505127
20
8.930298
0
VERTEX
8
1
10
22.468262
20
8.927002
0
VERTEX
8
1
10
22.435059
20
8.923096
0
VERTEX
8
1
10
22.406982
20
8.919312
0
VERTEX
8
1
10
22.385864
20
8.916016
0
VERTEX
8
1
10
22.372559
20
8.913696
0
VERTEX
8
1
10
22.368896
20
8.913208
0
VERTEX
8
1
10
22.368896
20
8.918579
0
VERTEX
8
1
10
22.368896
20
8.931152
0
VERTEX
8
1
10
22.368896
20
8.949707
0
VERTEX
8
1
10
22.368896
20
8.972900
0
VERTEX
8
1
10
22.368896
20
8.999634
0
VERTEX
8
1
10
22.368896
20
9.028687
0
VERTEX
8
1
10
22.368896
20
9.058960
0
VERTEX
8
1
10
22.369019
20
9.089111
0
VERTEX
8
1
10
22.369019
20
9.117798
0
VERTEX
8
1
10
22.368896
20
9.144043
0
VERTEX
8
1
10
22.368896
20
9.166504
0
VERTEX
8
1
10
22.368896
20
9.184082
0
VERTEX
8
1
10
22.368896
20
9.195557
0
SEQEND
0
POLYLINE
8
1
66
1
70
1
0
VERTEX
8
1
10
22.645508
20
8.360229
0
VERTEX
8
1
10
22.647461
20
8.360107
0
VERTEX
8
1
10
22.653076
20
8.359863
0
VERTEX
8
1
10
22.661865
20
8.359497
0
VERTEX
8
1
10
22.673462
20
8.359009
0
VERTEX
8
1
10
22.687256
20
8.358276
0
VERTEX
8
1
10
22.702759
20
8.357544
0
VERTEX
8
1
10
22.719727
20
8.356812
0
VERTEX
8
1
10
22.737427
20
8.355957
0
VERTEX
8
1
10
22.755737
20
8.355225
0
VERTEX
8
1
10
22.773926
20
8.354370
0
VERTEX
8
1
10
22.791626
20
8.353516
0
VERTEX
8
1
10
22.808350
20
8.352783
0
VERTEX
8
1
10
22.823730
20
8.351929
0
VERTEX
8
1
10
22.837036
20
8.351440
0
VERTEX
8
1
10
22.848145
20
8.351074
0
VERTEX
8
1
10
22.856567
20
8.350464
0
VERTEX
8
1
10
22.861450
20
8.350342
0
VERTEX
8
1
10
22.862915
20
8.349854
0
VERTEX
8
1
10
22.863647
20
8.332153
0
VERTEX
8
1
10
22.865356
20
8.290283
0
VERTEX
8
1
10
22.867920
20
8.227417
0
VERTEX
8
1
10
22.871094
20
8.146729
0
VERTEX
8
1
10
22.875000
20
8.051025
0
VERTEX
8
1
10
22.879272
20
7.943848
0
VERTEX
8
1
10
22.884033
20
7.828003
0
VERTEX
8
1
10
22.888794
20
7.706787
0
VERTEX
8
1
10
22.893677
20
7.583252
0
VERTEX
8
1
10
22.898804
20
7.460449
0
VERTEX
8
1
10
22.903564
20
7.341431
0
VERTEX
8
1
10
22.908081
20
7.229492
0
VERTEX
8
1
10
22.912109
20
7.127686
0
VERTEX
8
1
10
22.915649
20
7.039063
0
VERTEX
8
1
10
22.918579
20
6.967041
0
VERTEX
8
1
10
22.920654
20
6.914185
0
VERTEX
8
1
10
22.921997
20
6.883911
0
VERTEX
8
1
10
22.921997
20
6.877808
0
VERTEX
8
1
10
22.919556
20
6.874146
0
VERTEX
8
1
10
22.914673
20
6.866455
0
VERTEX
8
1
10
22.907593
20
6.855347
0
VERTEX
8
1
10
22.898682
20
6.841309
0
VERTEX
8
1
10
22.888184
20
6.824951
0
VERTEX
8
1
10
22.876465
20
6.806763
0
VERTEX
8
1
10
22.863892
20
6.787109
0
VERTEX
8
1
10
22.850830
20
6.766724
0
VERTEX
8
1
10
22.837524
20
6.745972
0
VERTEX
8
1
10
22.824463
20
6.725342
0
VERTEX
8
1
10
22.811768
20
6.705566
0
VERTEX
8
1
10
22.800049
20
6.687134
0
VERTEX
8
1
10
22.789185
20
6.670288
0
VERTEX
8
1
10
22.779907
20
6.656006
0
VERTEX
8
1
10
22.772461
20
6.644287
0
VERTEX
8
1
10
22.767212
20
6.635986
0
VERTEX
8
1
10
22.764282
20
6.631592
0
VERTEX
8
1
10
22.764038
20
6.632202
0
VERTEX
8
1
10
22.763794
20
6.640991
0
VERTEX
8
1
10
22.763550
20
6.657837
0
VERTEX
8
1
10
22.763062
20
6.682129
0
VERTEX
8
1
10
22.762451
20
6.713135
0
VERTEX
8
1
10
22.761719
20
6.750122
0
VERTEX
8
1
10
22.761108
20
6.792480
0
VERTEX
8
1
10
22.760254
20
6.839355
0
VERTEX
8
1
10
22.759399
20
6.890381
0
VERTEX
8
1
10
22.758545
20
6.944702
0
VERTEX
8
1
10
22.757690
20
7.001465
0
VERTEX
8
1
10
22.757080
20
7.060059
0
VERTEX
8
1
10
22.756226
20
7.120117
0
VERTEX
8
1
10
22.755493
20
7.180420
0
VERTEX
8
1
10
22.755005
20
7.240845
0
VERTEX
8
1
10
22.754395
20
7.300171
0
VERTEX
8
1
10
22.754150
20
7.357910
0
VERTEX
8
1
10
22.754028
20
7.413452
0
VERTEX
8
1
10
22.752686
20
7.463135
0
VERTEX
8
1
10
22.749390
20
7.509277
0
VERTEX
8
1
10
22.744995
20
7.553589
0
VERTEX
8
1
10
22.739502
20
7.595947
0
VERTEX
8
1
10
22.733276
20
7.636108
0
VERTEX
8
1
10
22.726318
20
7.674072
0
VERTEX
8
1
10
22.718872
20
7.709839
0
VERTEX
8
1
10
22.710938
20
7.743042
0
VERTEX
8
1
10
22.703125
20
7.773560
0
VERTEX
8
1
10
22.695313
20
7.801636
0
VERTEX
8
1
10
22.687622
20
7.826782
0
VERTEX
8
1
10
22.680420
20
7.848999
0
VERTEX
8
1
10
22.673950
20
7.868286
0
VERTEX
8
1
10
22.667969
20
7.884399
0
VERTEX
8
1
10
22.662964
20
7.897339
0
VERTEX
8
1
10
22.659180
20
7.906860
0
VERTEX
8
1
10
22.656738
20
7.912842
0
VERTEX
8
1
10
22.655518
20
7.915283
0
VERTEX
8
1
10
22.655396
20
7.918213
0
VERTEX
8
1
10
22.655273
20
7.928589
0
VERTEX
8
1
10
22.654785
20
7.945557
0
VERTEX
8
1
10
22.654297
20
7.968262
0
VERTEX
8
1
10
22.653687
20
7.995728
0
VERTEX
8
1
10
22.652954
20
8.027100
0
VERTEX
8
1
10
22.652100
20
8.061279
0
VERTEX
8
1
10
22.651489
20
8.097412
0
VERTEX
8
1
10
22.650513
20
8.134644
0
VERTEX
8
1
10
22.649658
20
8.171997
0
VERTEX
8
1
10
22.648926
20
8.208496
0
VERTEX
8
1
10
22.648193
20
8.243042
0
VERTEX
8
1
10
22.647461
20
8.274780
0
VERTEX
8
1
10
22.646851
20
8.303101
0
VERTEX
8
1
10
22.646240
20
8.326782
0
VERTEX
8
1
10
22.645752
20
8.344727
0
VERTEX
8
1
10
22.645508
20
8.356201
0
SEQEND
0
POLYLINE
8
1
66
1
70
1
0
VERTEX
8
1
10
22.872559
20
6.562134
0
VERTEX
8
1
10
22.951782
20
6.680664
0
VERTEX
8
1
10
22.971436
20
5.831177
0
VERTEX
8
1
10
22.902466
20
5.840820
0
SEQEND
0
POLYLINE
8
1
66
1
70
1
0
VERTEX
8
1
10
22.882568
20
3.875000
0
VERTEX
8
1
10
22.866455
20
3.876099
0
VERTEX
8
1
10
22.850586
20
3.879028
0
VERTEX
8
1
10
22.835205
20
3.884033
0
VERTEX
8
1
10
22.820435
20
3.890869
0
VERTEX
8
1
10
22.806519
20
3.899536
0
VERTEX
8
1
10
22.793701
20
3.909790
0
VERTEX
8
1
10
22.781982
20
3.921631
0
VERTEX
8
1
10
22.771606
20
3.934814
0
VERTEX
8
1
10
22.762817
20
3.949219
0
VERTEX
8
1
10
22.755615
20
3.964722
0
VERTEX
8
1
10
22.750122
20
3.980835
0
VERTEX
8
1
10
22.746460
20
3.997681
0
VERTEX
8
1
10
22.744629
20
4.014771
0
VERTEX
8
1
10
22.744629
20
4.031982
0
VERTEX
8
1
10
22.746460
20
4.049072
0
VERTEX
8
1
10
22.750244
20
4.065796
0
VERTEX
8
1
10
22.755737
20
4.082031
0
VERTEX
8
1
10
22.762939
20
4.097412
0
VERTEX
8
1
10
22.771851
20
4.111816
0
VERTEX
8
1
10
22.782227
20
4.125000
0
VERTEX
8
1
10
22.793945
20
4.136719
0
VERTEX
8
1
10
22.806885
20
4.147095
0
VERTEX
8
1
10
22.820801
20
4.155640
0
VERTEX
8
1
10
22.835571
20
4.162476
0
VERTEX
8
1
10
22.850952
20
4.167358
0
VERTEX
8
1
10
22.866821
20
4.170410
0
VERTEX
8
1
10
22.882813
20
4.171387
0
VERTEX
8
1
10
22.898926
20
4.170288
0
VERTEX
8
1
10
22.914795
20
4.167358
0
VERTEX
8
1
10
22.930176
20
4.162354
0
VERTEX
8
1
10
22.944946
20
4.155518
0
VERTEX
8
1
10
22.958862
20
4.146851
0
VERTEX
8
1
10
22.971680
20
4.136597
0
VERTEX
8
1
10
22.983398
20
4.124756
0
VERTEX
8
1
10
22.993774
20
4.111572
0
VERTEX
8
1
10
23.002563
20
4.097168
0
VERTEX
8
1
10
23.009766
20
4.081665
0
VERTEX
8
1
10
23.015259
20
4.065552
0
VERTEX
8
1
10
23.018921
20
4.048706
0
VERTEX
8
1
10
23.020752
20
4.031616
0
VERTEX
8
1
10
23.020752
20
4.014404
0
VERTEX
8
1
10
23.018921
20
3.997314
0
VERTEX
8
1
10
23.015137
20
3.980591
0
VERTEX
8
1
10
23.009644
20
3.964355
0
VERTEX
8
1
10
23.002441
20
3.948975
0
VERTEX
8
1
10
22.993530
20
3.934570
0
VERTEX
8
1
10
22.983154
20
3.921387
0
VERTEX
8
1
10
22.971436
20
3.909668
0
VERTEX
8
1
10
22.958496
20
3.899292
0
VERTEX
8
1
10
22.944580
20
3.890747
0
VERTEX
8
1
10
22.929810
20
3.883911
0
VERTEX
8
1
10
22.914429
20
3.879028
0
VERTEX
8
1
10
22.898560
20
3.875977
0
SEQEND
0
POLYLINE
8
1
66
1
70
1
0
VERTEX
8
1
10
5.114746
20
3.998291
0
VERTEX
8
1
10
5.885498
20
4.013184
0
VERTEX
8
1
10
5.869629
20
3.613159
0
VERTEX
8
1
10
5.366577
20
3.598389
0
SEQEND
0
POLYLINE
8
1
66
1
70
1
0
VERTEX
8
1
10
6.100464
20
4.020752
0
VERTEX
8
1
10
8.108276
20
4.087280
0
VERTEX
8
1
10
8.108276
20
3.687256
0
VERTEX
8
1
10
6.107666
20
3.635254
0
SEQEND
0
POLYLINE
8
1
66
1
70
1
0
VERTEX
8
1
10
8.382446
20
4.109619
0
VERTEX
8
1
10
8.530640
20
4.116821
0
VERTEX
8
1
10
8.530640
20
3.731689
0
VERTEX
8
1
10
8.374878
20
3.724121
0
SEQEND
0
POLYLINE
8
1
66
1
70
1
0
VERTEX
8
1
10
2.314331
20
2.360840
0
VERTEX
8
1
10
2.338623
20
2.411499
0
VERTEX
8
1
10
2.368652
20
2.453857
0
VERTEX
8
1
10
2.403442
20
2.488770
0
VERTEX
8
1
10
2.441406
20
2.516846
0
VERTEX
8
1
10
2.481445
20
2.538940
0
VERTEX
8
1
10
2.522217
20
2.555542
0
VERTEX
8
1
10
2.562744
20
2.567749
0
VERTEX
8
1
10
2.601440
20
2.575928
0
VERTEX
8
1
10
2.637329
20
2.580933
0
VERTEX
8
1
10
2.668945
20
2.583374
0
VERTEX
8
1
10
2.695068
20
2.584229
0
VERTEX
8
1
10
2.714600
20
2.584106
0
VERTEX
8
1
10
2.726318
20
2.583374
0
VERTEX
8
1
10
2.729126
20
2.582886
0
VERTEX
8
1
10
2.729614
20
2.577881
0
VERTEX
8
1
10
2.730713
20
2.566895
0
VERTEX
8
1
10
2.732178
20
2.550659
0
VERTEX
8
1
10
2.733887
20
2.530151
0
VERTEX
8
1
10
2.735962
20
2.506104
0
VERTEX
8
1
10
2.738037
20
2.479492
0
VERTEX
8
1
10
2.740112
20
2.450928
0
VERTEX
8
1
10
2.741943
20
2.421509
0
VERTEX
8
1
10
2.743652
20
2.391968
0
VERTEX
8
1
10
2.744873
20
2.363037
0
VERTEX
8
1
10
2.745239
20
2.335815
0
VERTEX
8
1
10
2.745361
20
2.310791
0
VERTEX
8
1
10
2.744751
20
2.288940
0
VERTEX
8
1
10
2.743042
20
2.270020
0
VERTEX
8
1
10
2.741211
20
2.252686
0
VERTEX
8
1
10
2.739014
20
2.237061
0
VERTEX
8
1
10
2.736328
20
2.223389
0
VERTEX
8
1
10
2.733398
20
2.211182
0
VERTEX
8
1
10
2.729614
20
2.200439
0
VERTEX
8
1
10
2.725464
20
2.190918
0
VERTEX
8
1
10
2.720459
20
2.182617
0
VERTEX
8
1
10
2.714844
20
2.175171
0
VERTEX
8
1
10
2.708252
20
2.168579
0
VERTEX
8
1
10
2.700806
20
2.162720
0
VERTEX
8
1
10
2.692627
20
2.156982
0
VERTEX
8
1
10
2.682861
20
2.151978
0
VERTEX
8
1
10
2.672607
20
2.147095
0
VERTEX
8
1
10
2.654785
20
2.147705
0
VERTEX
8
1
10
2.630249
20
2.155396
0
VERTEX
8
1
10
2.601440
20
2.168213
0
VERTEX
8
1
10
2.569580
20
2.185181
0
VERTEX
8
1
10
2.535522
20
2.205078
0
VERTEX
8
1
10
2.500610
20
2.227173
0
VERTEX
8
1
10
2.465698
20
2.250488
0
VERTEX
8
1
10
2.432007
20
2.273804
0
VERTEX
8
1
10
2.400635
20
2.296143
0
VERTEX
8
1
10
2.372314
20
2.316772
0
VERTEX
8
1
10
2.348511
20
2.334595
0
VERTEX
8
1
10
2.330322
20
2.348511
0
VERTEX
8
1
10
2.318481
20
2.357666
0
SEQEND
0
POLYLINE
8
1
66
1
70
1
0
VERTEX
8
1
10
2.921631
20
2.561035
0
VERTEX
8
1
10
2.975708
20
2.560303
0
VERTEX
8
1
10
3.026733
20
2.552246
0
VERTEX
8
1
10
3.074341
20
2.537964
0
VERTEX
8
1
10
3.118530
20
2.518311
0
VERTEX
8
1
10
3.159302
20
2.494019
0
VERTEX
8
1
10
3.196167
20
2.466431
0
VERTEX
8
1
10
3.229126
20
2.435913
0
VERTEX
8
1
10
3.258179
20
2.403931
0
VERTEX
8
1
10
3.282837
20
2.371094
0
VERTEX
8
1
10
3.302979
20
2.338379
0
VERTEX
8
1
10
3.318726
20
2.306763
0
VERTEX
8
1
10
3.329590
20
2.277100
0
VERTEX
8
1
10
3.335815
20
2.250366
0
VERTEX
8
1
10
3.336792
20
2.227539
0
VERTEX
8
1
10
3.332397
20
2.218872
0
VERTEX
8
1
10
3.322754
20
2.209229
0
VERTEX
8
1
10
3.308716
20
2.198608
0
VERTEX
8
1
10
3.290894
20
2.187378
0
VERTEX
8
1
10
3.270142
20
2.175781
0
VERTEX
8
1
10
3.247192
20
2.164063
0
VERTEX
8
1
10
3.222656
20
2.152466
0
VERTEX
8
1
10
3.197388
20
2.141113
0
VERTEX
8
1
10
3.171997
20
2.130493
0
VERTEX
8
1
10
3.147339
20
2.120605
0
VERTEX
8
1
10
3.123901
20
2.111816
0
VERTEX
8
1
10
3.102661
20
2.104370
0
VERTEX
8
1
10
3.084473
20
2.098267
0
VERTEX
8
1
10
3.069824
20
2.094238
0
VERTEX
8
1
10
3.058716
20
2.093506
0
VERTEX
8
1
10
3.047729
20
2.094360
0
VERTEX
8
1
10
3.036743
20
2.096802
0
VERTEX
8
1
10
3.026123
20
2.100342
0
VERTEX
8
1
10
3.015625
20
2.105103
0
VERTEX
8
1
10
3.005493
20
2.110840
0
VERTEX
8
1
10
2.995728
20
2.117432
0
VERTEX
8
1
10
2.986572
20
2.124268
0
VERTEX
8
1
10
2.977783
20
2.131714
0
VERTEX
8
1
10
2.969482
20
2.139282
0
VERTEX
8
1
10
2.962036
20
2.147095
0
VERTEX
8
1
10
2.955200
20
2.154419
0
VERTEX
8
1
10
2.949341
20
2.161621
0
VERTEX
8
1
10
2.944092
20
2.168335
0
VERTEX
8
1
10
2.935547
20
2.202759
0
VERTEX
8
1
10
2.928833
20
2.239136
0
VERTEX
8
1
10
2.923828
20
2.276489
0
VERTEX
8
1
10
2.920288
20
2.314209
0
VERTEX
8
1
10
2.917847
20
2.351685
0
VERTEX
8
1
10
2.916626
20
2.388306
0
VERTEX
8
1
10
2.916260
20
2.422974
0
VERTEX
8
1
10
2.916504
20
2.455444
0
VERTEX
8
1
10
2.917236
20
2.484863
0
VERTEX
8
1
10
2.918213
20
2.510376
0
VERTEX
8
1
10
2.919434
20
2.531494
0
VERTEX
8
1
10
2.920532
20
2.547363
0
VERTEX
8
1
10
2.921265
20
2.557617
0
SEQEND
0
POLYLINE
8
1
66
1
70
1
0
VERTEX
8
1
10
3.373657
20
2.086670
0
VERTEX
8
1
10
3.397949
20
2.026245
0
VERTEX
8
1
10
3.415161
20
1.967041
0
VERTEX
8
1
10
3.426147
20
1.909668
0
VERTEX
8
1
10
3.431763
20
1.854492
0
VERTEX
8
1
10
3.432617
20
1.802246
0
VERTEX
8
1
10
3.429810
20
1.753296
0
VERTEX
8
1
10
3.423828
20
1.708252
0
VERTEX
8
1
10
3.415649
20
1.667480
0
VERTEX
8
1
10
3.406250
20
1.631714
0
VERTEX
8
1
10
3.395874
20
1.601440
0
VERTEX
8
1
10
3.385864
20
1.577026
0
VERTEX
8
1
10
3.376587
20
1.559204
0
VERTEX
8
1
10
3.369385
20
1.548218
0
VERTEX
8
1
10
3.365723
20
1.546265
0
VERTEX
8
1
10
3.360474
20
1.550415
0
VERTEX
8
1
10
3.350830
20
1.558228
0
VERTEX
8
1
10
3.337158
20
1.569092
0
VERTEX
8
1
10
3.320679
20
1.582520
0
VERTEX
8
1
10
3.301514
20
1.598267
0
VERTEX
8
1
10
3.280884
20
1.615356
0
VERTEX
8
1
10
3.259399
20
1.633667
0
VERTEX
8
1
10
3.237793
20
1.652588
0
VERTEX
8
1
10
3.216431
20
1.671631
0
VERTEX
8
1
10
3.196655
20
1.690308
0
VERTEX
8
1
10
3.178589
20
1.708008
0
VERTEX
8
1
10
3.163330
20
1.724365
0
VERTEX
8
1
10
3.151489
20
1.738647
0
VERTEX
8
1
10
3.140503
20
1.752319
0
VERTEX
8
1
10
3.130737
20
1.766724
0
VERTEX
8
1
10
3.122192
20
1.781616
0
VERTEX
8
1
10
3.114746
20
1.796997
0
VERTEX
8
1
10
3.108521
20
1.812622
0
VERTEX
8
1
10
3.103394
20
1.828125
0
VERTEX
8
1
10
3.099487
20
1.843262
0
VERTEX
8
1
10
3.096558
20
1.858276
0
VERTEX
8
1
10
3.094604
20
1.872559
0
VERTEX
8
1
10
3.094116
20
1.885986
0
VERTEX
8
1
10
3.094360
20
1.898438
0
VERTEX
8
1
10
3.095459
20
1.909668
0
VERTEX
8
1
10
3.097900
20
1.919434
0
VERTEX
8
1
10
3.102783
20
1.931274
0
VERTEX
8
1
10
3.114624
20
1.946899
0
VERTEX
8
1
10
3.132446
20
1.963013
0
VERTEX
8
1
10
3.154663
20
1.979370
0
VERTEX
8
1
10
3.180420
20
1.995605
0
VERTEX
8
1
10
3.208496
20
2.011475
0
VERTEX
8
1
10
3.237671
20
2.026611
0
VERTEX
8
1
10
3.266602
20
2.040771
0
VERTEX
8
1
10
3.294434
20
2.053467
0
VERTEX
8
1
10
3.319946
20
2.064575
0
VERTEX
8
1
10
3.341553
20
2.073853
0
VERTEX
8
1
10
3.358643
20
2.080811
0
VERTEX
8
1
10
3.369629
20
2.085205
0
SEQEND
0
POLYLINE
8
1
66
1
70
1
0
VERTEX
8
1
10
2.944092
20
1.560547
0
VERTEX
8
1
10
2.970459
20
1.565552
0
VERTEX
8
1
10
2.996582
20
1.567017
0
VERTEX
8
1
10
3.022583
20
1.565186
0
VERTEX
8
1
10
3.048096
20
1.560547
0
VERTEX
8
1
10
3.073242
20
1.553345
0
VERTEX
8
1
10
3.097656
20
1.544189
0
VERTEX
8
1
10
3.121216
20
1.533203
0
VERTEX
8
1
10
3.144043
20
1.520874
0
VERTEX
8
1
10
3.165649
20
1.507690
0
VERTEX
8
1
10
3.186279
20
1.493774
0
VERTEX
8
1
10
3.205444
20
1.479858
0
VERTEX
8
1
10
3.223267
20
1.466064
0
VERTEX
8
1
10
3.239502
20
1.452759
0
VERTEX
8
1
10
3.254028
20
1.440430
0
VERTEX
8
1
10
3.266968
20
1.429443
0
VERTEX
8
1
10
3.277588
20
1.420044
0
VERTEX
8
1
10
3.250854
20
1.366943
0
VERTEX
8
1
10
3.221313
20
1.321411
0
VERTEX
8
1
10
3.189453
20
1.282715
0
VERTEX
8
1
10
3.155884
20
1.250366
0
VERTEX
8
1
10
3.121216
20
1.223877
0
VERTEX
8
1
10
3.086060
20
1.202881
0
VERTEX
8
1
10
3.050781
20
1.186523
0
VERTEX
8
1
10
3.016113
20
1.174438
0
VERTEX
8
1
10
2.982910
20
1.166138
0
VERTEX
8
1
10
2.951294
20
1.161133
0
VERTEX
8
1
10
2.922119
20
1.158691
0
VERTEX
8
1
10
2.895996
20
1.158447
0
VERTEX
8
1
10
2.873413
20
1.159546
0
VERTEX
8
1
10
2.854858
20
1.161987
0
VERTEX
8
1
10
2.841187
20
1.164917
0
VERTEX
8
1
10
2.832764
20
1.167847
0
VERTEX
8
1
10
2.831543
20
1.227173
0
VERTEX
8
1
10
2.833374
20
1.280518
0
VERTEX
8
1
10
2.837524
20
1.327881
0
VERTEX
8
1
10
2.843872
20
1.369873
0
VERTEX
8
1
10
2.852051
20
1.406738
0
VERTEX
8
1
10
2.861572
20
1.438721
0
VERTEX
8
1
10
2.871948
20
1.466064
0
VERTEX
8
1
10
2.882935
20
1.489258
0
VERTEX
8
1
10
2.893921
20
1.508545
0
VERTEX
8
1
10
2.905029
20
1.524292
0
VERTEX
8
1
10
2.915283
20
1.536743
0
VERTEX
8
1
10
2.924561
20
1.546021
0
VERTEX
8
1
10
2.932495
20
1.552856
0
VERTEX
8
1
10
2.938599
20
1.557251
0
VERTEX
8
1
10
2.942749
20
1.559814
0
SEQEND
0
POLYLINE
8
1
66
1
70
1
0
VERTEX
8
1
10
2.247437
20
1.516113
0
VERTEX
8
1
10
2.266479
20
1.471069
0
VERTEX
8
1
10
2.289307
20
1.429321
0
VERTEX
8
1
10
2.315186
20
1.390991
0
VERTEX
8
1
10
2.343506
20
1.355957
0
VERTEX
8
1
10
2.373657
20
1.324219
0
VERTEX
8
1
10
2.404907
20
1.295532
0
VERTEX
8
1
10
2.436768
20
1.270142
0
VERTEX
8
1
10
2.468384
20
1.247803
0
VERTEX
8
1
10
2.499390
20
1.228638
0
VERTEX
8
1
10
2.529053
20
1.212280
0
VERTEX
8
1
10
2.556519
20
1.199097
0
VERTEX
8
1
10
2.581543
20
1.188843
0
VERTEX
8
1
10
2.603149
20
1.181396
0
VERTEX
8
1
10
2.620972
20
1.176880
0
VERTEX
8
1
10
2.634155
20
1.175049
0
VERTEX
8
1
10
2.645630
20
1.183105
0
VERTEX
8
1
10
2.659912
20
1.208374
0
VERTEX
8
1
10
2.671021
20
1.236084
0
VERTEX
8
1
10
2.679199
20
1.265991
0
VERTEX
8
1
10
2.684692
20
1.297119
0
VERTEX
8
1
10
2.687988
20
1.329346
0
VERTEX
8
1
10
2.688843
20
1.362061
0
VERTEX
8
1
10
2.687744
20
1.394531
0
VERTEX
8
1
10
2.684814
20
1.426392
0
VERTEX
8
1
10
2.680542
20
1.457275
0
VERTEX
8
1
10
2.674927
20
1.486084
0
VERTEX
8
1
10
2.668213
20
1.513062
0
VERTEX
8
1
10
2.660645
20
1.536865
0
VERTEX
8
1
10
2.652588
20
1.557617
0
VERTEX
8
1
10
2.644165
20
1.574585
0
VERTEX
8
1
10
2.635376
20
1.587158
0
VERTEX
8
1
10
2.616699
20
1.596802
0
VERTEX
8
1
10
2.590210
20
1.602905
0
VERTEX
8
1
10
2.561157
20
1.605347
0
VERTEX
8
1
10
2.530273
20
1.604370
0
VERTEX
8
1
10
2.498169
20
1.600464
0
VERTEX
8
1
10
2.465454
20
1.594238
0
VERTEX
8
1
10
2.432739
20
1.586304
0
VERTEX
8
1
10
2.400757
20
1.577026
0
VERTEX
8
1
10
2.370117
20
1.566895
0
VERTEX
8
1
10
2.341431
20
1.556519
0
VERTEX
8
1
10
2.315430
20
1.546265
0
VERTEX
8
1
10
2.292725
20
1.536743
0
VERTEX
8
1
10
2.273804
20
1.528442
0
VERTEX
8
1
10
2.259521
20
1.521973
0
VERTEX
8
1
10
2.250610
20
1.517578
0
SEQEND
0
POLYLINE
8
1
66
1
70
1
0
VERTEX
8
1
10
2.188232
20
2.212769
0
VERTEX
8
1
10
2.221191
20
2.204590
0
VERTEX
8
1
10
2.251953
20
2.194092
0
VERTEX
8
1
10
2.280762
20
2.181396
0
VERTEX
8
1
10
2.307373
20
2.166748
0
VERTEX
8
1
10
2.331909
20
2.150269
0
VERTEX
8
1
10
2.354614
20
2.132324
0
VERTEX
8
1
10
2.375122
20
2.113159
0
VERTEX
8
1
10
2.393799
20
2.093018
0
VERTEX
8
1
10
2.410400
20
2.072021
0
VERTEX
8
1
10
2.425293
20
2.050537
0
VERTEX
8
1
10
2.438232
20
2.028687
0
VERTEX
8
1
10
2.449463
20
2.006714
0
VERTEX
8
1
10
2.458862
20
1.984985
0
VERTEX
8
1
10
2.466309
20
1.963623
0
VERTEX
8
1
10
2.472168
20
1.942871
0
VERTEX
8
1
10
2.476318
20
1.922852
0
VERTEX
8
1
10
2.471069
20
1.898682
0
VERTEX
8
1
10
2.458618
20
1.873413
0
VERTEX
8
1
10
2.443237
20
1.849731
0
VERTEX
8
1
10
2.425171
20
1.827759
0
VERTEX
8
1
10
2.404907
20
1.807251
0
VERTEX
8
1
10
2.382935
20
1.788330
0
VERTEX
8
1
10
2.359741
20
1.770996
0
VERTEX
8
1
10
2.335693
20
1.755127
0
VERTEX
8
1
10
2.311279
20
1.740845
0
VERTEX
8
1
10
2.286743
20
1.728027
0
VERTEX
8
1
10
2.262817
20
1.716675
0
VERTEX
8
1
10
2.239990
20
1.706787
0
VERTEX
8
1
10
2.218384
20
1.698242
0
VERTEX
8
1
10
2.198608
20
1.691284
0
VERTEX
8
1
10
2.181152
20
1.685547
0
VERTEX
8
1
10
2.166504
20
1.681152
0
VERTEX
8
1
10
2.149048
20
1.696289
0
VERTEX
8
1
10
2.125488
20
1.747437
0
VERTEX
8
1
10
2.108887
20
1.797363
0
VERTEX
8
1
10
2.098633
20
1.846069
0
VERTEX
8
1
10
2.093750
20
1.892944
0
VERTEX
8
1
10
2.093628
20
1.937866
0
VERTEX
8
1
10
2.097534
20
1.980469
0
VERTEX
8
1
10
2.104492
20
2.020508
0
VERTEX
8
1
10
2.114014
20
2.057617
0
VERTEX
8
1
10
2.125244
20
2.091431
0
VERTEX
8
1
10
2.137451
20
2.121704
0
VERTEX
8
1
10
2.149780
20
2.148315
0
VERTEX
8
1
10
2.161621
20
2.170532
0
VERTEX
8
1
10
2.172119
20
2.188721
0
VERTEX
8
1
10
2.180542
20
2.201904
0
VERTEX
8
1
10
2.186279
20
2.210083
0
SEQEND
0
POLYLINE
8
1
66
1
70
1
0
VERTEX
8
1
10
2.766235
20
1.604980
0
VERTEX
8
1
10
2.744385
20
1.605957
0
VERTEX
8
1
10
2.722656
20
1.609009
0
VERTEX
8
1
10
2.701294
20
1.613892
0
VERTEX
8
1
10
2.680420
20
1.620728
0
VERTEX
8
1
10
2.660156
20
1.629517
0
VERTEX
8
1
10
2.640869
20
1.640015
0
VERTEX
8
1
10
2.622559
20
1.652344
0
VERTEX
8
1
10
2.605469
20
1.666260
0
VERTEX
8
1
10
2.589600
20
1.681641
0
VERTEX
8
1
10
2.575073
20
1.698364
0
VERTEX
8
1
10
2.562256
20
1.716431
0
VERTEX
8
1
10
2.550903
20
1.735596
0
VERTEX
8
1
10
2.541382
20
1.755615
0
VERTEX
8
1
10
2.533691
20
1.776489
0
VERTEX
8
1
10
2.527832
20
1.797974
0
VERTEX
8
1
10
2.523926
20
1.819824
0
VERTEX
8
1
10
2.521973
20
1.842041
0
VERTEX
8
1
10
2.521973
20
1.864380
0
VERTEX
8
1
10
2.523926
20
1.886597
0
VERTEX
8
1
10
2.527832
20
1.908447
0
VERTEX
8
1
10
2.533569
20
1.929932
0
VERTEX
8
1
10
2.541260
20
1.950806
0
VERTEX
8
1
10
2.550781
20
1.970947
0
VERTEX
8
1
10
2.562012
20
1.990112
0
VERTEX
8
1
10
2.574951
20
2.008179
0
VERTEX
8
1
10
2.589355
20
2.024902
0
VERTEX
8
1
10
2.605225
20
2.040283
0
VERTEX
8
1
10
2.622314
20
2.054199
0
VERTEX
8
1
10
2.640625
20
2.066528
0
VERTEX
8
1
10
2.659912
20
2.077148
0
VERTEX
8
1
10
2.680054
20
2.085938
0
VERTEX
8
1
10
2.700928
20
2.092773
0
VERTEX
8
1
10
2.722290
20
2.097778
0
VERTEX
8
1
10
2.744019
20
2.100830
0
VERTEX
8
1
10
2.765991
20
2.101807
0
VERTEX
8
1
10
2.787842
20
2.100830
0
VERTEX
8
1
10
2.809570
20
2.097778
0
VERTEX
8
1
10
2.830933
20
2.092896
0
VERTEX
8
1
10
2.851807
20
2.086060
0
VERTEX
8
1
10
2.872070
20
2.077271
0
VERTEX
8
1
10
2.891357
20
2.066772
0
VERTEX
8
1
10
2.909668
20
2.054443
0
VERTEX
8
1
10
2.926758
20
2.040527
0
VERTEX
8
1
10
2.942627
20
2.025146
0
VERTEX
8
1
10
2.957153
20
2.008423
0
VERTEX
8
1
10
2.969971
20
1.990356
0
VERTEX
8
1
10
2.981323
20
1.971191
0
VERTEX
8
1
10
2.990845
20
1.951172
0
VERTEX
8
1
10
2.998535
20
1.930298
0
VERTEX
8
1
10
3.004395
20
1.908813
0
VERTEX
8
1
10
3.008301
20
1.886963
0
VERTEX
8
1
10
3.010254
20
1.864746
0
VERTEX
8
1
10
3.010254
20
1.842407
0
VERTEX
8
1
10
3.008301
20
1.820190
0
VERTEX
8
1
10
3.004395
20
1.798340
0
VERTEX
8
1
10
2.998657
20
1.776855
0
VERTEX
8
1
10
2.990967
20
1.755981
0
VERTEX
8
1
10
2.981445
20
1.735840
0
VERTEX
8
1
10
2.970215
20
1.716675
0
VERTEX
8
1
10
2.957275
20
1.698608
0
VERTEX
8
1
10
2.942871
20
1.681885
0
VERTEX
8
1
10
2.927002
20
1.666504
0
VERTEX
8
1
10
2.909912
20
1.652588
0
VERTEX
8
1
10
2.891602
20
1.640259
0
VERTEX
8
1
10
2.872314
20
1.629639
0
VERTEX
8
1
10
2.852173
20
1.620850
0
VERTEX
8
1
10
2.831299
20
1.614014
0
VERTEX
8
1
10
2.809937
20
1.609009
0
VERTEX
8
1
10
2.788208
20
1.605957
0
SEQEND
0
POLYLINE
8
1
66
1
70
1
0
VERTEX
8
1
10
17.363525
20
2.538330
0
VERTEX
8
1
10
17.389648
20
2.593628
0
VERTEX
8
1
10
17.421875
20
2.640503
0
VERTEX
8
1
10
17.458740
20
2.679688
0
VERTEX
8
1
10
17.499268
20
2.711914
0
VERTEX
8
1
10
17.542236
20
2.737793
0
VERTEX
8
1
10
17.586426
20
2.757935
0
VERTEX
8
1
10
17.630615
20
2.773071
0
VERTEX
8
1
10
17.673828
20
2.783936
0
VERTEX
8
1
10
17.714844
20
2.791260
0
VERTEX
8
1
10
17.752319
20
2.795776
0
VERTEX
8
1
10
17.785156
20
2.797729
0
VERTEX
8
1
10
17.812012
20
2.798218
0
VERTEX
8
1
10
17.832031
20
2.797852
0
VERTEX
8
1
10
17.843994
20
2.797241
0
VERTEX
8
1
10
17.846802
20
2.796753
0
VERTEX
8
1
10
17.847290
20
2.791748
0
VERTEX
8
1
10
17.848389
20
2.780518
0
VERTEX
8
1
10
17.849976
20
2.763794
0
VERTEX
8
1
10
17.851807
20
2.742676
0
VERTEX
8
1
10
17.853882
20
2.717773
0
VERTEX
8
1
10
17.856201
20
2.689819
0
VERTEX
8
1
10
17.858398
20
2.659668
0
VERTEX
8
1
10
17.860474
20
2.628174
0
VERTEX
8
1
10
17.862427
20
2.595947
0
VERTEX
8
1
10
17.864136
20
2.563965
0
VERTEX
8
1
10
17.865234
20
2.532837
0
VERTEX
8
1
10
17.865845
20
2.503662
0
VERTEX
8
1
10
17.865845
20
2.476807
0
VERTEX
8
1
10
17.864746
20
2.453369
0
VERTEX
8
1
10
17.863159
20
2.432983
0
VERTEX
8
1
10
17.861084
20
2.413940
0
VERTEX
8
1
10
17.858765
20
2.396851
0
VERTEX
8
1
10
17.855957
20
2.381592
0
VERTEX
8
1
10
17.852783
20
2.367798
0
VERTEX
8
1
10
17.849121
20
2.355713
0
VERTEX
8
1
10
17.844727
20
2.344849
0
VERTEX
8
1
10
17.839722
20
2.335205
0
VERTEX
8
1
10
17.833984
20
2.326660
0
VERTEX
8
1
10
17.827393
20
2.318848
0
VERTEX
8
1
10
17.819946
20
2.312012
0
VERTEX
8
1
10
17.811768
20
2.305786
0
VERTEX
8
1
10
17.802490
20
2.300049
0
VERTEX
8
1
10
17.792114
20
2.294556
0
VERTEX
8
1
10
17.780640
20
2.289063
0
VERTEX
8
1
10
17.761475
20
2.289673
0
VERTEX
8
1
10
17.735229
20
2.297607
0
VERTEX
8
1
10
17.704712
20
2.310669
0
VERTEX
8
1
10
17.670654
20
2.328125
0
VERTEX
8
1
10
17.634399
20
2.348999
0
VERTEX
8
1
10
17.596680
20
2.372314
0
VERTEX
8
1
10
17.558594
20
2.397095
0
VERTEX
8
1
10
17.521118
20
2.422607
0
VERTEX
8
1
10
17.485352
20
2.447754
0
VERTEX
8
1
10
17.452393
20
2.471558
0
VERTEX
8
1
10
17.423218
20
2.493042
0
VERTEX
8
1
10
17.398560
20
2.511475
0
VERTEX
8
1
10
17.379761
20
2.525757
0
VERTEX
8
1
10
17.367798
20
2.535034
0
SEQEND
0
POLYLINE
8
1
66
1
70
1
0
VERTEX
8
1
10
18.071411
20
2.771240
0
VERTEX
8
1
10
18.130371
20
2.770630
0
VERTEX
8
1
10
18.186035
20
2.762695
0
VERTEX
8
1
10
18.238525
20
2.748169
0
VERTEX
8
1
10
18.287476
20
2.728027
0
VERTEX
8
1
10
18.332886
20
2.703125
0
VERTEX
8
1
10
18.374634
20
2.674194
0
VERTEX
8
1
10
18.412354
20
2.642334
0
VERTEX
8
1
10
18.446045
20
2.608276
0
VERTEX
8
1
10
18.475464
20
2.572754
0
VERTEX
8
1
10
18.500488
20
2.537109
0
VERTEX
8
1
10
18.520996
20
2.501831
0
VERTEX
8
1
10
18.536743
20
2.467773
0
VERTEX
8
1
10
18.547852
20
2.436035
0
VERTEX
8
1
10
18.553833
20
2.407349
0
VERTEX
8
1
10
18.554810
20
2.382568
0
VERTEX
8
1
10
18.550171
20
2.373291
0
VERTEX
8
1
10
18.540283
20
2.362915
0
VERTEX
8
1
10
18.525757
20
2.351563
0
VERTEX
8
1
10
18.507446
20
2.339478
0
VERTEX
8
1
10
18.485718
20
2.327026
0
VERTEX
8
1
10
18.461548
20
2.314331
0
VERTEX
8
1
10
18.435425
20
2.301636
0
VERTEX
8
1
10
18.408447
20
2.289063
0
VERTEX
8
1
10
18.380859
20
2.277100
0
VERTEX
8
1
10
18.353271
20
2.265747
0
VERTEX
8
1
10
18.326904
20
2.255249
0
VERTEX
8
1
10
18.302002
20
2.245972
0
VERTEX
8
1
10
18.279541
20
2.238037
0
VERTEX
8
1
10
18.259766
20
2.231689
0
VERTEX
8
1
10
18.244019
20
2.227173
0
VERTEX
8
1
10
18.231934
20
2.226318
0
VERTEX
8
1
10
18.219971
20
2.227173
0
VERTEX
8
1
10
18.208008
20
2.229614
0
VERTEX
8
1
10
18.196289
20
2.233276
0
VERTEX
8
1
10
18.184814
20
2.238159
0
VERTEX
8
1
10
18.173584
20
2.244019
0
VERTEX
8
1
10
18.162964
20
2.250732
0
VERTEX
8
1
10
18.152466
20
2.258057
0
VERTEX
8
1
10
18.142700
20
2.265869
0
VERTEX
8
1
10
18.133301
20
2.274048
0
VERTEX
8
1
10
18.124756
20
2.282227
0
VERTEX
8
1
10
18.116699
20
2.290649
0
VERTEX
8
1
10
18.109375
20
2.298706
0
VERTEX
8
1
10
18.102783
20
2.306519
0
VERTEX
8
1
10
18.097290
20
2.313721
0
VERTEX
8
1
10
18.087891
20
2.351074
0
VERTEX
8
1
10
18.080444
20
2.390381
0
VERTEX
8
1
10
18.074707
20
2.430908
0
VERTEX
8
1
10
18.070435
20
2.471924
0
VERTEX
8
1
10
18.067505
20
2.512817
0
VERTEX
8
1
10
18.065674
20
2.553101
0
VERTEX
8
1
10
18.064941
20
2.591797
0
VERTEX
8
1
10
18.064941
20
2.628540
0
VERTEX
8
1
10
18.065430
20
2.662354
0
VERTEX
8
1
10
18.066528
20
2.692871
0
VERTEX
8
1
10
18.067749
20
2.719360
0
VERTEX
8
1
10
18.068970
20
2.740967
0
VERTEX
8
1
10
18.070313
20
2.757324
0
VERTEX
8
1
10
18.071167
20
2.767700
0
SEQEND
0
POLYLINE
8
1
66
1
70
1
0
VERTEX
8
1
10
18.597900
20
2.218628
0
VERTEX
8
1
10
18.624512
20
2.152954
0
VERTEX
8
1
10
18.643799
20
2.088623
0
VERTEX
8
1
10
18.656860
20
2.025879
0
VERTEX
8
1
10
18.664307
20
1.965576
0
VERTEX
8
1
10
18.666748
20
1.907715
0
VERTEX
8
1
10
18.665039
20
1.853149
0
VERTEX
8
1
10
18.660034
20
1.802368
0
VERTEX
8
1
10
18.652344
20
1.755615
0
VERTEX
8
1
10
18.642700
20
1.713745
0
VERTEX
8
1
10
18.631958
20
1.677002
0
VERTEX
8
1
10
18.620728
20
1.645752
0
VERTEX
8
1
10
18.609985
20
1.620728
0
VERTEX
8
1
10
18.599976
20
1.602417
0
VERTEX
8
1
10
18.592285
20
1.591309
0
VERTEX
8
1
10
18.588501
20
1.589111
0
VERTEX
8
1
10
18.583252
20
1.593262
0
VERTEX
8
1
10
18.573364
20
1.601196
0
VERTEX
8
1
10
18.559448
20
1.612305
0
VERTEX
8
1
10
18.542236
20
1.626221
0
VERTEX
8
1
10
18.522461
20
1.642334
0
VERTEX
8
1
10
18.500610
20
1.660400
0
VERTEX
8
1
10
18.477783
20
1.679688
0
VERTEX
8
1
10
18.454102
20
1.700073
0
VERTEX
8
1
10
18.430786
20
1.720581
0
VERTEX
8
1
10
18.407959
20
1.741211
0
VERTEX
8
1
10
18.386841
20
1.761230
0
VERTEX
8
1
10
18.367676
20
1.780151
0
VERTEX
8
1
10
18.351318
20
1.797852
0
VERTEX
8
1
10
18.338745
20
1.813110
0
VERTEX
8
1
10
18.326904
20
1.827759
0
VERTEX
8
1
10
18.316284
20
1.843384
0
VERTEX
8
1
10
18.306885
20
1.859497
0
VERTEX
8
1
10
18.298584
20
1.876099
0
VERTEX
8
1
10
18.291504
20
1.892822
0
VERTEX
8
1
10
18.285400
20
1.909790
0
VERTEX
8
1
10
18.280640
20
1.926514
0
VERTEX
8
1
10
18.276855
20
1.942993
0
VERTEX
8
1
10
18.274292
20
1.958740
0
VERTEX
8
1
10
18.272583
20
1.974121
0
VERTEX
8
1
10
18.272217
20
1.988403
0
VERTEX
8
1
10
18.272827
20
2.001465
0
VERTEX
8
1
10
18.274292
20
2.013550
0
VERTEX
8
1
10
18.276855
20
2.024048
0
VERTEX
8
1
10
18.282104
20
2.036987
0
VERTEX
8
1
10
18.294556
20
2.053955
0
VERTEX
8
1
10
18.312866
20
2.071289
0
VERTEX
8
1
10
18.336182
20
2.089111
0
VERTEX
8
1
10
18.363159
20
2.106812
0
VERTEX
8
1
10
18.392822
20
2.124146
0
VERTEX
8
1
10
18.424072
20
2.140869
0
VERTEX
8
1
10
18.455811
20
2.156738
0
VERTEX
8
1
10
18.486816
20
2.171509
0
VERTEX
8
1
10
18.516235
20
2.184692
0
VERTEX
8
1
10
18.542725
20
2.196045
0
VERTEX
8
1
10
18.565063
20
2.205444
0
VERTEX
8
1
10
18.582642
20
2.212646
0
VERTEX
8
1
10
18.593994
20
2.217163
0
SEQEND
0
POLYLINE
8
1
66
1
70
1
0
VERTEX
8
1
10
18.097290
20
1.605713
0
VERTEX
8
1
10
18.125610
20
1.611206
0
VERTEX
8
1
10
18.153931
20
1.613159
0
VERTEX
8
1
10
18.181885
20
1.611816
0
VERTEX
8
1
10
18.209595
20
1.607544
0
VERTEX
8
1
10
18.236694
20
1.600708
0
VERTEX
8
1
10
18.263306
20
1.591675
0
VERTEX
8
1
10
18.289063
20
1.580688
0
VERTEX
8
1
10
18.314087
20
1.568237
0
VERTEX
8
1
10
18.338257
20
1.554565
0
VERTEX
8
1
10
18.361206
20
1.540161
0
VERTEX
8
1
10
18.383057
20
1.525269
0
VERTEX
8
1
10
18.403442
20
1.510132
0
VERTEX
8
1
10
18.422485
20
1.495117
0
VERTEX
8
1
10
18.439819
20
1.480835
0
VERTEX
8
1
10
18.455933
20
1.467529
0
VERTEX
8
1
10
18.469849
20
1.455322
0
VERTEX
8
1
10
18.482056
20
1.444824
0
VERTEX
8
1
10
18.466919
20
1.402710
0
VERTEX
8
1
10
18.436401
20
1.350342
0
VERTEX
8
1
10
18.403320
20
1.305054
0
VERTEX
8
1
10
18.368164
20
1.266479
0
VERTEX
8
1
10
18.331665
20
1.234009
0
VERTEX
8
1
10
18.294067
20
1.207153
0
VERTEX
8
1
10
18.256226
20
1.185547
0
VERTEX
8
1
10
18.218506
20
1.168579
0
VERTEX
8
1
10
18.181396
20
1.155762
0
VERTEX
8
1
10
18.145386
20
1.146729
0
VERTEX
8
1
10
18.111328
20
1.140869
0
VERTEX
8
1
10
18.079346
20
1.137695
0
VERTEX
8
1
10
18.050293
20
1.136963
0
VERTEX
8
1
10
18.024658
20
1.137695
0
VERTEX
8
1
10
18.002808
20
1.139893
0
VERTEX
8
1
10
17.985352
20
1.142944
0
VERTEX
8
1
10
17.973022
20
1.146118
0
VERTEX
8
1
10
17.966919
20
1.170288
0
VERTEX
8
1
10
17.966553
20
1.232300
0
VERTEX
8
1
10
17.968994
20
1.288330
0
VERTEX
8
1
10
17.973755
20
1.338745
0
VERTEX
8
1
10
17.980713
20
1.383667
0
VERTEX
8
1
10
17.989380
20
1.423462
0
VERTEX
8
1
10
17.999390
20
1.458374
0
VERTEX
8
1
10
18.010376
20
1.488770
0
VERTEX
8
1
10
18.022095
20
1.514893
0
VERTEX
8
1
10
18.034058
20
1.537109
0
VERTEX
8
1
10
18.046021
20
1.555420
0
VERTEX
8
1
10
18.057373
20
1.570557
0
VERTEX
8
1
10
18.068115
20
1.582397
0
VERTEX
8
1
10
18.077759
20
1.591675
0
VERTEX
8
1
10
18.085815
20
1.598267
0
VERTEX
8
1
10
18.091919
20
1.602539
0
VERTEX
8
1
10
18.095825
20
1.604980
0
SEQEND
0
POLYLINE
8
1
66
1
70
1
0
VERTEX
8
1
10
17.285645
20
1.554077
0
VERTEX
8
1
10
17.306030
20
1.505493
0
VERTEX
8
1
10
17.330078
20
1.460205
0
VERTEX
8
1
10
17.357300
20
1.418457
0
VERTEX
8
1
10
17.387085
20
1.379761
0
VERTEX
8
1
10
17.418701
20
1.344360
0
VERTEX
8
1
10
17.451904
20
1.312134
0
VERTEX
8
1
10
17.485840
20
1.283203
0
VERTEX
8
1
10
17.520142
20
1.257202
0
VERTEX
8
1
10
17.553955
20
1.234375
0
VERTEX
8
1
10
17.586914
20
1.214478
0
VERTEX
8
1
10
17.618286
20
1.197510
0
VERTEX
8
1
10
17.647583
20
1.183716
0
VERTEX
8
1
10
17.674561
20
1.172607
0
VERTEX
8
1
10
17.697998
20
1.164673
0
VERTEX
8
1
10
17.717651
20
1.159302
0
VERTEX
8
1
10
17.732788
20
1.156738
0
VERTEX
8
1
10
17.743164
20
1.156860
0
VERTEX
8
1
10
17.759766
20
1.182739
0
VERTEX
8
1
10
17.773193
20
1.211426
0
VERTEX
8
1
10
17.783691
20
1.242310
0
VERTEX
8
1
10
17.791260
20
1.275024
0
VERTEX
8
1
10
17.796387
20
1.308960
0
VERTEX
8
1
10
17.799194
20
1.343628
0
VERTEX
8
1
10
17.799805
20
1.378784
0
VERTEX
8
1
10
17.798462
20
1.413574
0
VERTEX
8
1
10
17.795532
20
1.447998
0
VERTEX
8
1
10
17.790894
20
1.481079
0
VERTEX
8
1
10
17.785156
20
1.512451
0
VERTEX
8
1
10
17.778198
20
1.541870
0
VERTEX
8
1
10
17.770264
20
1.568726
0
VERTEX
8
1
10
17.761841
20
1.592285
0
VERTEX
8
1
10
17.752808
20
1.612549
0
VERTEX
8
1
10
17.743774
20
1.628540
0
VERTEX
8
1
10
17.734497
20
1.640137
0
VERTEX
8
1
10
17.708496
20
1.650146
0
VERTEX
8
1
10
17.679443
20
1.655884
0
VERTEX
8
1
10
17.647949
20
1.657959
0
VERTEX
8
1
10
17.614624
20
1.656738
0
VERTEX
8
1
10
17.580078
20
1.652710
0
VERTEX
8
1
10
17.544922
20
1.646362
0
VERTEX
8
1
10
17.509888
20
1.638062
0
VERTEX
8
1
10
17.475220
20
1.628418
0
VERTEX
8
1
10
17.441772
20
1.617798
0
VERTEX
8
1
10
17.410034
20
1.606567
0
VERTEX
8
1
10
17.380615
20
1.595459
0
VERTEX
8
1
10
17.353882
20
1.584717
0
VERTEX
8
1
10
17.330933
20
1.574951
0
VERTEX
8
1
10
17.312012
20
1.566528
0
VERTEX
8
1
10
17.297729
20
1.559814
0
VERTEX
8
1
10
17.288696
20
1.555542
0
SEQEND
0
POLYLINE
8
1
66
1
70
1
0
VERTEX
8
1
10
17.216675
20
2.365356
0
VERTEX
8
1
10
17.252197
20
2.356812
0
VERTEX
8
1
10
17.285645
20
2.345703
0
VERTEX
8
1
10
17.317017
20
2.332397
0
VERTEX
8
1
10
17.346313
20
2.317139
0
VERTEX
8
1
10
17.373535
20
2.300049
0
VERTEX
8
1
10
17.398682
20
2.281494
0
VERTEX
8
1
10
17.421875
20
2.261475
0
VERTEX
8
1
10
17.443115
20
2.240356
0
VERTEX
8
1
10
17.462524
20
2.218262
0
VERTEX
8
1
10
17.479980
20
2.195435
0
VERTEX
8
1
10
17.495605
20
2.172119
0
VERTEX
8
1
10
17.509155
20
2.148560
0
VERTEX
8
1
10
17.521240
20
2.125000
0
VERTEX
8
1
10
17.531128
20
2.101318
0
VERTEX
8
1
10
17.539429
20
2.078247
0
VERTEX
8
1
10
17.546143
20
2.055908
0
VERTEX
8
1
10
17.551025
20
2.034180
0
VERTEX
8
1
10
17.550171
20
2.010498
0
VERTEX
8
1
10
17.538330
20
1.982544
0
VERTEX
8
1
10
17.523315
20
1.956177
0
VERTEX
8
1
10
17.505371
20
1.931519
0
VERTEX
8
1
10
17.485107
20
1.908447
0
VERTEX
8
1
10
17.462646
20
1.886963
0
VERTEX
8
1
10
17.438599
20
1.866943
0
VERTEX
8
1
10
17.413452
20
1.848511
0
VERTEX
8
1
10
17.387451
20
1.831665
0
VERTEX
8
1
10
17.360962
20
1.816284
0
VERTEX
8
1
10
17.334717
20
1.802368
0
VERTEX
8
1
10
17.308716
20
1.789795
0
VERTEX
8
1
10
17.283691
20
1.778809
0
VERTEX
8
1
10
17.260010
20
1.769287
0
VERTEX
8
1
10
17.237915
20
1.761108
0
VERTEX
8
1
10
17.218018
20
1.754395
0
VERTEX
8
1
10
17.200562
20
1.748901
0
VERTEX
8
1
10
17.186035
20
1.744873
0
VERTEX
8
1
10
17.162109
20
1.780884
0
VERTEX
8
1
10
17.138672
20
1.835571
0
VERTEX
8
1
10
17.122070
20
1.889160
0
VERTEX
8
1
10
17.111572
20
1.941284
0
VERTEX
8
1
10
17.106445
20
1.991821
0
VERTEX
8
1
10
17.106079
20
2.040283
0
VERTEX
8
1
10
17.109741
20
2.086548
0
VERTEX
8
1
10
17.116577
20
2.130249
0
VERTEX
8
1
10
17.126221
20
2.171143
0
VERTEX
8
1
10
17.137817
20
2.208862
0
VERTEX
8
1
10
17.150635
20
2.243164
0
VERTEX
8
1
10
17.164063
20
2.274048
0
VERTEX
8
1
10
17.177124
20
2.300781
0
VERTEX
8
1
10
17.189575
20
2.323364
0
VERTEX
8
1
10
17.200439
20
2.341309
0
VERTEX
8
1
10
17.208862
20
2.354370
0
VERTEX
8
1
10
17.214600
20
2.362671
0
SEQEND
0
POLYLINE
8
1
66
1
70
1
0
VERTEX
8
1
10
10.894287
20
4.857910
0
VERTEX
8
1
10
10.894287
20
4.976440
0
VERTEX
8
1
10
10.760986
20
4.976440
0
VERTEX
8
1
10
10.760986
20
4.857910
0
SEQEND
0
POLYLINE
8
1
66
1
70
1
0
VERTEX
8
1
10
11.205444
20
4.576416
0
VERTEX
8
1
10
11.205444
20
4.709717
0
VERTEX
8
1
10
11.086914
20
4.709717
0
VERTEX
8
1
10
11.086914
20
4.576416
0
SEQEND
0
POLYLINE
8
1
66
1
70
1
0
VERTEX
8
1
10
11.012817
20
4.353882
0
VERTEX
8
1
10
11.012817
20
4.443115
0
VERTEX
8
1
10
10.760986
20
4.443115
0
VERTEX
8
1
10
10.760986
20
4.353882
0
SEQEND
0
POLYLINE
8
1
66
1
70
1
0
VERTEX
8
1
10
11.242554
20
4.932007
0
VERTEX
8
1
10
11.242554
20
5.020874
0
VERTEX
8
1
10
10.990356
20
5.020874
0
VERTEX
8
1
10
10.990356
20
4.932007
0
SEQEND
0
POLYLINE
8
1
66
1
70
1
0
VERTEX
8
1
10
10.479126
20
6.747192
0
VERTEX
8
1
10
10.478149
20
6.735107
0
VERTEX
8
1
10
10.475220
20
6.723267
0
VERTEX
8
1
10
10.470337
20
6.711914
0
VERTEX
8
1
10
10.463745
20
6.701416
0
VERTEX
8
1
10
10.455444
20
6.691895
0
VERTEX
8
1
10
10.445679
20
6.683594
0
VERTEX
8
1
10
10.434692
20
6.676758
0
VERTEX
8
1
10
10.422729
20
6.671509
0
VERTEX
8
1
10
10.410034
20
6.667969
0
VERTEX
8
1
10
10.396851
20
6.666138
0
VERTEX
8
1
10
10.383667
20
6.666138
0
VERTEX
8
1
10
10.370483
20
6.667969
0
VERTEX
8
1
10
10.357788
20
6.671509
0
VERTEX
8
1
10
10.345825
20
6.676758
0
VERTEX
8
1
10
10.334839
20
6.683594
0
VERTEX
8
1
10
10.325073
20
6.691895
0
VERTEX
8
1
10
10.316772
20
6.701416
0
VERTEX
8
1
10
10.310181
20
6.711914
0
VERTEX
8
1
10
10.305298
20
6.723267
0
VERTEX
8
1
10
10.302368
20
6.735107
0
VERTEX
8
1
10
10.301392
20
6.747192
0
VERTEX
8
1
10
10.302368
20
6.759277
0
VERTEX
8
1
10
10.305298
20
6.771118
0
VERTEX
8
1
10
10.310181
20
6.782471
0
VERTEX
8
1
10
10.316772
20
6.792969
0
VERTEX
8
1
10
10.325073
20
6.802490
0
VERTEX
8
1
10
10.334839
20
6.810791
0
VERTEX
8
1
10
10.345825
20
6.817627
0
VERTEX
8
1
10
10.357788
20
6.822876
0
VERTEX
8
1
10
10.370483
20
6.826416
0
VERTEX
8
1
10
10.383667
20
6.828247
0
VERTEX
8
1
10
10.396851
20
6.828247
0
VERTEX
8
1
10
10.410034
20
6.826416
0
VERTEX
8
1
10
10.422729
20
6.822876
0
VERTEX
8
1
10
10.434692
20
6.817627
0
VERTEX
8
1
10
10.445679
20
6.810791
0
VERTEX
8
1
10
10.455444
20
6.802490
0
VERTEX
8
1
10
10.463745
20
6.792969
0
VERTEX
8
1
10
10.470337
20
6.782471
0
VERTEX
8
1
10
10.475220
20
6.771118
0
VERTEX
8
1
10
10.478149
20
6.759277
0
SEQEND
0
LINE
8
1
10
9.945801
20
7.228760
11
9.679199
21
7.302856
0
ENDSEC
0
EOF
