  0
SECTION
  2
HEADER
  9
$ACADVER
  1
AC1015
  9
$ACADMAINTVER
 70
     6
  9
$DWGCODEPAGE
  3
ANSI_1252
  9
$INSBASE
 10
0.0
 20
0.0
 30
0.0
  9
$EXTMIN
 10
0.0
 20
0.0
 30
0.0
  9
$EXTMAX
 10
210.0
 20
297.0
 30
0.0
  9
$LIMMIN
 10
0.0
 20
0.0
  9
$LIMMAX
 10
210.0
 20
297.0
  9
$ORTHOMODE
 70
     0
  9
$REGENMODE
 70
     1
  9
$FILLMODE
 70
     1
  9
$QTEXTMODE
 70
     0
  9
$MIRRTEXT
 70
     1
  9
$LTSCALE
 40
1.0
  9
$ATTMODE
 70
     1
  9
$TEXTSIZE
 40
3.5
  9
$TRACEWID
 40
1.0
  9
$TEXTSTYLE
  7
Standard
  9
$CLAYER
  8
0
  9
$CELTYPE
  6
ByLayer
  9
$CECOLOR
 62
   256
  9
$CELTSCALE
 40
1.0
  9
$DISPSILH
 70
     0
  9
$DIMSCALE
 40
1.0
  9
$DIMASZ
 40
6.0
  9
$DIMEXO
 40
1.0
  9
$DIMDLI
 40
3.75
  9
$DIMRND
 40
0.0
  9
$DIMDLE
 40
0.0
  9
$DIMEXE
 40
1.0
  9
$DIMTP
 40
0.0
  9
$DIMTM
 40
0.0
  9
$DIMTXT
 40
3.5
  9
$DIMCEN
 40
2.5
  9
$DIMTSZ
 40
0.0
  9
$DIMTOL
 70
     0
  9
$DIMLIM
 70
     0
  9
$DIMTIH
 70
     1
  9
$DIMTOH
 70
     1
  9
$DIMSE1
 70
     0
  9
$DIMSE2
 70
     0
  9
$DIMTAD
 70
     1
  9
$DIMZIN
 70
     0
  9
$DIMBLK
  1

  9
$DIMASO
 70
     1
  9
$DIMSHO
 70
     1
  9
$DIMPOST
  1

  9
$DIMAPOST
  1

  9
$DIMALT
 70
     0
  9
$DIMALTD
 70
     3
  9
$DIMALTF
 40
0.0393700787
  9
$DIMLFAC
 40
1.0
  9
$DIMTOFL
 70
     1
  9
$DIMTVP
 40
0.0
  9
$DIMTIX
 70
     0
  9
$DIMSOXD
 70
     0
  9
$DIMSAH
 70
     0
  9
$DIMBLK1
  1

  9
$DIMBLK2
  1

  9
$DIMSTYLE
  2
ISO-25
  9
$DIMCLRD
 70
     0
  9
$DIMCLRE
 70
     0
  9
$DIMCLRT
 70
     0
  9
$DIMTFAC
 40
1.0
  9
$DIMGAP
 40
1.524
  9
$DIMJUST
 70
     0
  9
$DIMSD1
 70
     0
  9
$DIMSD2
 70
     0
  9
$DIMTOLJ
 70
     0
  9
$DIMTZIN
 70
     0
  9
$DIMALTZ
 70
     0
  9
$DIMALTTZ
 70
     0
  9
$DIMUPT
 70
     0
  9
$DIMDEC
 70
     3
  9
$DIMTDEC
 70
     3
  9
$DIMALTU
 70
     2
  9
$DIMALTTD
 70
     3
  9
$DIMTXSTY
  7
Standard
  9
$DIMAUNIT
 70
     0
  9
$DIMADEC
 70
     2
  9
$DIMALTRND
 40
0.0
  9
$DIMAZIN
 70
     0
  9
$DIMDSEP
 70
    44
  9
$DIMATFIT
 70
     3
  9
$DIMFRAC
 70
     0
  9
$DIMLDRBLK
  1

  9
$DIMLUNIT
 70
     2
  9
$DIMLWD
 70
    -2
  9
$DIMLWE
 70
    -2
  9
$DIMTMOVE
 70
     0
  9
$LUNITS
 70
     2
  9
$LUPREC
 70
     2
  9
$SKETCHINC
 40
1.0
  9
$FILLETRAD
 40
10.0
  9
$AUNITS
 70
     0
  9
$AUPREC
 70
     2
  9
$MENU
  1
.
  9
$ELEVATION
 40
0.0
  9
$PELEVATION
 40
0.0
  9
$THICKNESS
 40
0.0
  9
$LIMCHECK
 70
     0
  9
$CHAMFERA
 40
10.0
  9
$CHAMFERB
 40
10.0
  9
$CHAMFERC
 40
20.0
  9
$CHAMFERD
 40
0.0
  9
$SKPOLY
 70
     0
  9
$TDCREATE
 40
2455988.83625897
  9
$TDUCREATE
 40
2455988.669592303
  9
$TDUPDATE
 40
2455988.836258981
  9
$TDUUPDATE
 40
2455988.669592315
  9
$TDINDWG
 40
0.0000000116
  9
$TDUSRTIMER
 40
0.0000000116
  9
$USRTIMER
 70
     1
  9
$ANGBASE
 50
0.0
  9
$ANGDIR
 70
     0
  9
$PDMODE
 70
     0
  9
$PDSIZE
 40
-1.0
  9
$PLINEWID
 40
0.0
  9
$SPLFRAME
 70
     0
  9
$SPLINETYPE
 70
     6
  9
$SPLINESEGS
 70
     8
  9
$HANDSEED
  5
423
  9
$SURFTAB1
 70
     6
  9
$SURFTAB2
 70
     6
  9
$SURFTYPE
 70
     6
  9
$SURFU
 70
     6
  9
$SURFV
 70
     6
  9
$UCSBASE
  2

  9
$UCSNAME
  2

  9
$UCSORG
 10
0.0
 20
0.0
 30
0.0
  9
$UCSXDIR
 10
1.0
 20
0.0
 30
0.0
  9
$UCSYDIR
 10
0.0
 20
1.0
 30
0.0
  9
$UCSORTHOREF
  2

  9
$UCSORTHOVIEW
 70
     0
  9
$UCSORGTOP
 10
0.0
 20
0.0
 30
0.0
  9
$UCSORGBOTTOM
 10
0.0
 20
0.0
 30
0.0
  9
$UCSORGLEFT
 10
0.0
 20
0.0
 30
0.0
  9
$UCSORGRIGHT
 10
0.0
 20
0.0
 30
0.0
  9
$UCSORGFRONT
 10
0.0
 20
0.0
 30
0.0
  9
$UCSORGBACK
 10
0.0
 20
0.0
 30
0.0
  9
$PUCSBASE
  2

  9
$PUCSNAME
  2

  9
$PUCSORG
 10
0.0
 20
0.0
 30
0.0
  9
$PUCSXDIR
 10
1.0
 20
0.0
 30
0.0
  9
$PUCSYDIR
 10
0.0
 20
1.0
 30
0.0
  9
$PUCSORTHOREF
  2

  9
$PUCSORTHOVIEW
 70
     0
  9
$PUCSORGTOP
 10
0.0
 20
0.0
 30
0.0
  9
$PUCSORGBOTTOM
 10
0.0
 20
0.0
 30
0.0
  9
$PUCSORGLEFT
 10
0.0
 20
0.0
 30
0.0
  9
$PUCSORGRIGHT
 10
0.0
 20
0.0
 30
0.0
  9
$PUCSORGFRONT
 10
0.0
 20
0.0
 30
0.0
  9
$PUCSORGBACK
 10
0.0
 20
0.0
 30
0.0
  9
$USERI1
 70
     0
  9
$USERI2
 70
     0
  9
$USERI3
 70
     0
  9
$USERI4
 70
     0
  9
$USERI5
 70
     0
  9
$USERR1
 40
0.0
  9
$USERR2
 40
0.0
  9
$USERR3
 40
0.0
  9
$USERR4
 40
0.0
  9
$USERR5
 40
0.0
  9
$WORLDVIEW
 70
     1
  9
$SHADEDGE
 70
     3
  9
$SHADEDIF
 70
    70
  9
$TILEMODE
 70
     1
  9
$MAXACTVP
 70
    64
  9
$PINSBASE
 10
0.0
 20
0.0
 30
0.0
  9
$PLIMCHECK
 70
     0
  9
$PEXTMIN
 10
1.0000000000E+20
 20
1.0000000000E+20
 30
1.0000000000E+20
  9
$PEXTMAX
 10
-1.0000000000E+20
 20
-1.0000000000E+20
 30
-1.0000000000E+20
  9
$PLIMMIN
 10
0.0
 20
0.0
  9
$PLIMMAX
 10
420.0
 20
297.0
  9
$UNITMODE
 70
     0
  9
$VISRETAIN
 70
     1
  9
$PLINEGEN
 70
     0
  9
$PSLTSCALE
 70
     1
  9
$TREEDEPTH
 70
  3020
  9
$CMLSTYLE
  2
Standard
  9
$CMLJUST
 70
     0
  9
$CMLSCALE
 40
20.0
  9
$PROXYGRAPHICS
 70
     1
  9
$MEASUREMENT
 70
     1
  9
$CELWEIGHT
370
    -1
  9
$ENDCAPS
280
     0
  9
$JOINSTYLE
280
     0
  9
$LWDISPLAY
290
     1
  9
$INSUNITS
 70
     4
  9
$HYPERLINKBASE
  1

  9
$STYLESHEET
  1

  9
$XEDIT
290
     1
  9
$CEPSNTYPE
380
     0
  9
$PSTYLEMODE
290
     1
  9
$FINGERPRINTGUID
  2
{59C8F91A-C0C9-4287-A95A-6F13AC247FE5}
  9
$VERSIONGUID
  2
{FAEB1C32-E019-11D5-929B-00C0DF256EC4}
  9
$EXTNAMES
290
     1
  9
$PSVPSCALE
 40
0.0
  9
$OLESTARTUP
290
     0
  0
ENDSEC
  0
SECTION
  2
CLASSES
  0
CLASS
  1
ACDBDICTIONARYWDFLT
  2
AcDbDictionaryWithDefault
  3
ObjectDBX Classes
 90
        0
280
     0
281
     0
  0
CLASS
  1
VISUALSTYLE
  2
AcDbVisualStyle
  3
ObjectDBX Classes
 90
     4095
280
     0
281
     0
  0
CLASS
  1
MATERIAL
  2
AcDbMaterial
  3
ObjectDBX Classes
 90
     1153
280
     0
281
     0
  0
CLASS
  1
ACDBPLACEHOLDER
  2
AcDbPlaceHolder
  3
ObjectDBX Classes
 90
        0
280
     0
281
     0
  0
CLASS
  1
LAYOUT
  2
AcDbLayout
  3
ObjectDBX Classes
 90
        0
280
     0
281
     0
  0
ENDSEC
  0
SECTION
  2
TABLES
  0
TABLE
  2
VPORT
  5
8
330
0
100
AcDbSymbolTable
 70
     1
  0
VPORT
  5
29
330
8
100
AcDbSymbolTableRecord
100
AcDbViewportTableRecord
  2
*Active
 70
     0
 10
0.0
 20
0.0
 11
1.0
 21
1.0
 12
105.0
 22
148.5
 13
0.0
 23
0.0
 14
10.0
 24
10.0
 15
10.0
 25
10.0
 16
0.0
 26
0.0
 36
1.0
 17
0.0
 27
0.0
 37
0.0
 40
297.0
 41
0.7070707071
 42
50.0
 43
0.0
 44
0.0
 50
0.0
 51
0.0
 71
     0
 72
  2000
 73
     1
 74
     3
 75
     0
 76
     0
 77
     0
 78
     0
281
     0
 65
     1
110
0.0
120
0.0
130
0.0
111
1.0
121
0.0
131
0.0
112
0.0
122
1.0
132
0.0
 79
     0
146
0.0
  0
ENDTAB
  0
TABLE
  2
LTYPE
  5
5
330
0
100
AcDbSymbolTable
 70
     6
  0
LTYPE
  5
14
330
5
100
AcDbSymbolTableRecord
100
AcDbLinetypeTableRecord
  2
ByBlock
 70
     0
  3

 72
    65
 73
     0
 40
0.0
  0
LTYPE
  5
15
330
5
100
AcDbSymbolTableRecord
100
AcDbLinetypeTableRecord
  2
ByLayer
 70
     0
  3

 72
    65
 73
     0
 40
0.0
  0
LTYPE
  5
16
330
5
100
AcDbSymbolTableRecord
100
AcDbLinetypeTableRecord
  2
Continuous
 70
     0
  3
Solid line
 72
    65
 73
     0
 40
0.0
  0
LTYPE
  5
3F
330
5
100
AcDbSymbolTableRecord
100
AcDbLinetypeTableRecord
  2
HIDDEN
 70
     0
  3
Hidden __ __ __ __ __ __ __ __ __ __ __ __ __ __
 72
    65
 73
     2
 40
1.905
 49
1.27
 74
     0
 49
-0.635
 74
     0
  0
LTYPE
  5
40
330
5
100
AcDbSymbolTableRecord
100
AcDbLinetypeTableRecord
  2
PHANTOM
 70
     0
  3
Phantom ______  __  __  ______  __  __  ______
 72
    65
 73
     6
 40
12.7
 49
6.35
 74
     0
 49
-1.27
 74
     0
 49
1.27
 74
     0
 49
-1.27
 74
     0
 49
1.27
 74
     0
 49
-1.27
 74
     0
  0
LTYPE
  5
41
330
5
100
AcDbSymbolTableRecord
100
AcDbLinetypeTableRecord
  2
CENTER
 70
     0
  3
Center ____ _ ____ _ ____ _ ____ _ ____ _ ____
 72
    65
 73
     4
 40
10.16
 49
6.35
 74
     0
 49
-1.27
 74
     0
 49
1.27
 74
     0
 49
-1.27
 74
     0
  0
LTYPE
  5
42
330
5
100
AcDbSymbolTableRecord
100
AcDbLinetypeTableRecord
  2
CENTERX2
 70
     0
  3
Center (2x) ________  __  ________  __  _____
 72
    65
 73
     4
 40
20.32
 49
12.7
 74
     0
 49
-2.54
 74
     0
 49
2.54
 74
     0
 49
-2.54
 74
     0
  0
LTYPE
  5
43
330
5
100
AcDbSymbolTableRecord
100
AcDbLinetypeTableRecord
  2
DOT2
 70
     0
  3
Dot (.5x) ........................................
 72
    65
 73
     2
 40
0.635
 49
0.0
 74
     0
 49
-0.635
 74
     0
  0
ENDTAB
  0
TABLE
  2
LAYER
  5
2
330
0
100
AcDbSymbolTable
 70
     1
  0
LAYER
  5
10
330
2
100
AcDbSymbolTableRecord
100
AcDbLayerTableRecord
  2
0
 70
     0
 62
     7
  6
Continuous
370
    -3
390
F
  0
ENDTAB
  0
TABLE
  2
STYLE
  5
3
330
0
100
AcDbSymbolTable
 70
     1
  0
STYLE
  5
11
330
3
100
AcDbSymbolTableRecord
100
AcDbTextStyleTableRecord
  2
Standard
 70
     0
 40
0.0
 41
1.0
 50
0.0
 71
     0
 42
2.5
  3
txt
  4

  0
ENDTAB
  0
TABLE
  2
VIEW
  5
6
330
0
100
AcDbSymbolTable
 70
     0
  0
ENDTAB
  0
TABLE
  2
UCS
  5
7
330
0
100
AcDbSymbolTable
 70
     0
  0
ENDTAB
  0
TABLE
  2
APPID
  5
9
330
0
100
AcDbSymbolTable
 70
     1
  0
APPID
  5
12
330
9
100
AcDbSymbolTableRecord
100
AcDbRegAppTableRecord
  2
ACAD
 70
     0
  0
ENDTAB
  0
TABLE
  2
DIMSTYLE
  5
A
330
0
100
AcDbSymbolTable
 70
     1
100
AcDbDimStyleTable
  0
DIMSTYLE
105
27
330
A
100
AcDbSymbolTableRecord
100
AcDbDimStyleTableRecord
  2
ISO-25
 70
     0
 41
2.5
 42
0.625
 43
3.75
 44
1.25
 73
     0
 74
     0
 77
     1
 78
     8
140
2.5
141
2.5
143
0.0393700787
147
0.625
171
     3
172
     1
271
     2
272
     2
274
     3
278
    44
283
     0
284
     8
340
11
  0
ENDTAB
  0
TABLE
  2
BLOCK_RECORD
  5
1
330
0
100
AcDbSymbolTable
 70
     1
  0
BLOCK_RECORD
  5
1F
330
1
100
AcDbSymbolTableRecord
100
AcDbBlockTableRecord
  2
*Model_Space
340
22
  0
BLOCK_RECORD
  5
1B
330
1
100
AcDbSymbolTableRecord
100
AcDbBlockTableRecord
  2
*Paper_Space
340
1E
  0
BLOCK_RECORD
  5
23
330
1
100
AcDbSymbolTableRecord
100
AcDbBlockTableRecord
  2
*Paper_Space0
340
26
  0
ENDTAB
  0
ENDSEC
  0
SECTION
  2
BLOCKS
  0
BLOCK
  5
20
330
1F
100
AcDbEntity
  8
0
100
AcDbBlockBegin
  2
*Model_Space
 70
     0
 10
0.0
 20
0.0
 30
0.0
  3
*Model_Space
  1

  0
ENDBLK
  5
21
330
1F
100
AcDbEntity
  8
0
100
AcDbBlockEnd
  0
BLOCK
  5
1C
330
1B
100
AcDbEntity
 67
     1
  8
0
100
AcDbBlockBegin
  2
*Paper_Space
 70
     0
 10
0.0
 20
0.0
 30
0.0
  3
*Paper_Space
  1

  0
ENDBLK
  5
1D
330
1B
100
AcDbEntity
 67
     1
  8
0
100
AcDbBlockEnd
  0
BLOCK
  5
24
330
23
100
AcDbEntity
  8
0
100
AcDbBlockBegin
  2
*Paper_Space0
 70
     0
 10
0.0
 20
0.0
 30
0.0
  3
*Paper_Space0
  1

  0
ENDBLK
  5
25
330
23
100
AcDbEntity
  8
0
100
AcDbBlockEnd
  0
ENDSEC
  0
SECTION
  2
ENTITIES
  0
LINE
  5
44
330
1F
100
AcDbEntity
  8
0
  6
Continuous
 62
     7
370
    15
100
AcDbLine
 10
2526.9448401118
 20
-796.9587069463
 30
0.0
 11
2526.9448401118
 21
-817.3573237371
 31
0.0
  0
LINE
  5
45
330
1F
100
AcDbEntity
  8
0
  6
Continuous
 62
     7
370
    15
100
AcDbLine
 10
2526.9448401118
 20
-817.3573237371
 30
0.0
 11
1909.2566610956
 21
-817.3573237371
 31
0.0
  0
LINE
  5
46
330
1F
100
AcDbEntity
  8
0
  6
Continuous
 62
     7
370
    15
100
AcDbLine
 10
1909.2566610956
 20
-796.9587069463
 30
0.0
 11
1909.2566610956
 21
-817.3573237371
 31
0.0
  0
LINE
  5
47
330
1F
100
AcDbEntity
  8
0
  6
Continuous
 62
     7
370
    15
100
AcDbLine
 10
1909.2566610956
 20
-796.9587069463
 30
0.0
 11
1923.8812567377
 21
-796.9587069463
 31
0.0
  0
ARC
  5
48
330
1F
100
AcDbEntity
  8
0
  6
Continuous
 62
     7
370
    15
100
AcDbCircle
 10
1926.0688903538
 20
-794.9059749475
 30
0.0
 40
3.000000000000167
100
AcDbArc
 50
223.1764011084
 51
43.1764011084
  0
LINE
  5
49
330
1F
100
AcDbEntity
  8
0
  6
Continuous
 62
     7
370
    15
100
AcDbLine
 10
1928.2567145014
 20
-792.8532284211
 30
0.0
 11
1928.2567145014
 21
-779.9062651109
 31
0.0
  0
ARC
  5
4A
330
1F
100
AcDbEntity
  8
0
  6
Continuous
 62
     7
370
    15
100
AcDbCircle
 10
1925.7665036095
 20
-778.2331928399
 30
0.0
 40
3.000000000000332
100
AcDbArc
 50
326.103473587
 51
146.103473587
  0
LINE
  5
4B
330
1F
100
AcDbEntity
  8
0
  6
Continuous
 62
     7
370
    15
100
AcDbLine
 10
1923.2763888026
 20
-776.5601199578
 30
0.0
 11
1909.2566610956
 21
-776.5601199578
 31
0.0
  0
LINE
  5
4C
330
1F
100
AcDbEntity
  8
0
  6
Continuous
 62
     7
370
    15
100
AcDbLine
 10
1909.2566610956
 20
-756.1615031671
 30
0.0
 11
1909.2566610956
 21
-776.5601199578
 31
0.0
  0
LINE
  5
4D
330
1F
100
AcDbEntity
  8
0
  6
Continuous
 62
     7
370
    15
100
AcDbLine
 10
2526.9448401118
 20
-756.1615031671
 30
0.0
 11
1909.2566610956
 21
-756.1615031671
 31
0.0
  0
LINE
  5
4E
330
1F
100
AcDbEntity
  8
0
  6
Continuous
 62
     7
370
    15
100
AcDbLine
 10
2526.9448401118
 20
-756.1615031671
 30
0.0
 11
2526.9448401118
 21
-776.5601199578
 31
0.0
  0
LINE
  5
4F
330
1F
100
AcDbEntity
  8
0
  6
Continuous
 62
     7
370
    15
100
AcDbLine
 10
2526.9448401118
 20
-776.5601199578
 30
0.0
 11
2512.5620009089
 21
-776.5601199578
 31
0.0
  0
ARC
  5
50
330
1F
100
AcDbEntity
  8
0
  6
Continuous
 62
     7
370
    15
100
AcDbCircle
 10
2510.2533338667
 20
-778.4759816417
 30
0.0
 40
3.000000000000246
100
AcDbArc
 50
39.6893199376
 51
219.6893199376
  0
LINE
  5
51
330
1F
100
AcDbEntity
  8
0
  6
Continuous
 62
     7
370
    15
100
AcDbLine
 10
2507.944786706
 20
-780.3918641519
 30
0.0
 11
2507.944786706
 21
-793.5637455892
 31
0.0
  0
ARC
  5
52
330
1F
100
AcDbEntity
  8
0
  6
Continuous
 62
     7
370
    15
100
AcDbCircle
 10
2510.4183433594
 20
-795.2612246737
 30
0.0
 40
3.000000000000024
100
AcDbArc
 50
145.5400364303
 51
325.5400364303
  0
LINE
  5
53
330
1F
100
AcDbEntity
  8
0
  6
Continuous
 62
     7
370
    15
100
AcDbLine
 10
2512.8919722224
 20
-796.9587069463
 30
0.0
 11
2526.9448401118
 21
-796.9587069463
 31
0.0
  0
LINE
  5
54
330
1F
100
AcDbEntity
  8
0
  6
Continuous
 62
     7
370
    15
100
AcDbLine
 10
2546.3215948725
 20
-688.4026896667
 30
0.0
 11
2546.3215948725
 21
-708.8012915563
 31
0.0
  0
LINE
  5
55
330
1F
100
AcDbEntity
  8
0
  6
Continuous
 62
     7
370
    15
100
AcDbLine
 10
2546.3215948725
 20
-708.8012915563
 30
0.0
 11
1928.6334158564
 21
-708.8012915563
 31
0.0
  0
LINE
  5
56
330
1F
100
AcDbEntity
  8
0
  6
Continuous
 62
     7
370
    15
100
AcDbLine
 10
1928.6334158564
 20
-688.4026896667
 30
0.0
 11
1928.6334158564
 21
-708.8012915563
 31
0.0
  0
LINE
  5
57
330
1F
100
AcDbEntity
  8
0
  6
Continuous
 62
     7
370
    15
100
AcDbLine
 10
1943.3974863672
 20
-688.4026896667
 30
0.0
 11
1928.6334158564
 21
-688.4026896667
 31
0.0
  0
ARC
  5
58
330
1F
100
AcDbEntity
  8
0
  6
Continuous
 62
     7
370
    15
100
AcDbCircle
 10
1945.5155238791
 20
-686.278060612
 30
0.0
 40
3.000000000000148
100
AcDbArc
 50
225.0894072731
 51
45.0894072731
  0
LINE
  5
59
330
1F
100
AcDbEntity
  8
0
  6
Continuous
 62
     7
370
    15
100
AcDbLine
 10
1947.6334692621
 20
-684.1534298371
 30
0.0
 11
1947.6334692621
 21
-672.0059883307
 31
0.0
  0
ARC
  5
5A
330
1F
100
AcDbEntity
  8
0
  6
Continuous
 62
     7
370
    15
100
AcDbCircle
 10
1945.3983186716
 20
-670.0050374717
 30
0.0
 40
3.000000000000085
100
AcDbArc
 50
318.1651905695
 51
138.1651905695
  0
LINE
  5
5B
330
1F
100
AcDbEntity
  8
0
  6
Continuous
 62
     7
370
    15
100
AcDbLine
 10
1943.163120904
 20
-668.004087777
 30
0.0
 11
1928.6334158564
 21
-668.004087777
 31
0.0
  0
LINE
  5
5C
330
1F
100
AcDbEntity
  8
0
  6
Continuous
 62
     7
370
    15
100
AcDbLine
 10
1928.6334158564
 20
-647.6054709863
 30
0.0
 11
1928.6334158564
 21
-668.004087777
 31
0.0
  0
LINE
  5
5D
330
1F
100
AcDbEntity
  8
0
  6
Continuous
 62
     7
370
    15
100
AcDbLine
 10
2546.3215948725
 20
-647.6054709863
 30
0.0
 11
1928.6334158564
 21
-647.6054709863
 31
0.0
  0
LINE
  5
5E
330
1F
100
AcDbEntity
  8
0
  6
Continuous
 62
     7
370
    15
100
AcDbLine
 10
2546.3215948725
 20
-647.6054709863
 30
0.0
 11
2546.3215948725
 21
-668.004087777
 31
0.0
  0
LINE
  5
5F
330
1F
100
AcDbEntity
  8
0
  6
Continuous
 62
     7
370
    15
100
AcDbLine
 10
2532.1671606684
 20
-668.004087777
 30
0.0
 11
2546.3215948725
 21
-668.004087777
 31
0.0
  0
ARC
  5
60
330
1F
100
AcDbEntity
  8
0
  6
Continuous
 62
     7
370
    15
100
AcDbCircle
 10
2529.744355372
 20
-669.7734272903
 30
0.0
 40
3.000000000000222
100
AcDbArc
 50
36.1415298016
 51
216.1415298016
  0
LINE
  5
61
330
1F
100
AcDbEntity
  8
0
  6
Continuous
 62
     7
370
    15
100
AcDbLine
 10
2527.3217798853
 20
-671.5427708339
 30
0.0
 11
2527.3217798853
 21
-684.2613440465
 31
0.0
  0
ARC
  5
62
330
1F
100
AcDbEntity
  8
0
  6
Continuous
 62
     7
370
    15
100
AcDbCircle
 10
2529.4924576931
 20
-686.3320195649
 30
0.0
 40
3.00000000000056
100
AcDbArc
 50
136.3522355344
 51
316.3522355344
  0
LINE
  5
63
330
1F
100
AcDbEntity
  8
0
  6
Continuous
 62
     7
370
    15
100
AcDbLine
 10
2531.6631437922
 20
-688.4026896667
 30
0.0
 11
2546.3215948725
 21
-688.4026896667
 31
0.0
  0
LINE
  5
64
330
1F
100
AcDbEntity
  8
0
  6
Continuous
 62
     7
370
    15
100
AcDbLine
 10
2537.6257540369
 20
-583.5823785972
 30
0.0
 11
2537.6257540369
 21
-603.9809953879
 31
0.0
  0
LINE
  5
65
330
1F
100
AcDbEntity
  8
0
  6
Continuous
 62
     7
370
    15
100
AcDbLine
 10
2537.6257540369
 20
-603.9809953879
 30
0.0
 11
1919.9378134394
 21
-603.9809953879
 31
0.0
  0
LINE
  5
66
330
1F
100
AcDbEntity
  8
0
  6
Continuous
 62
     7
370
    15
100
AcDbLine
 10
1919.9378134394
 20
-583.5823785972
 30
0.0
 11
1919.9378134394
 21
-603.9809953879
 31
0.0
  0
LINE
  5
67
330
1F
100
AcDbEntity
  8
0
  6
Continuous
 62
     7
370
    15
100
AcDbLine
 10
1934.3115927363
 20
-583.5823785972
 30
0.0
 11
1919.9378134394
 21
-583.5823785972
 31
0.0
  0
ARC
  5
68
330
1F
100
AcDbEntity
  8
0
  6
Continuous
 62
     7
370
    15
100
AcDbCircle
 10
1936.624597084
 20
-581.6720000212
 30
0.0
 40
3.000000000000227
100
AcDbArc
 50
219.5531694954
 51
39.5531694954
  0
LINE
  5
69
330
1F
100
AcDbEntity
  8
0
  6
Continuous
 62
     7
370
    15
100
AcDbLine
 10
1938.9376284266
 20
-579.7616165589
 30
0.0
 11
1938.9376284266
 21
-566.7214613866
 31
0.0
  0
ARC
  5
6A
330
1F
100
AcDbEntity
  8
0
  6
Continuous
 62
     7
370
    15
100
AcDbCircle
 10
1936.5146447555
 20
-564.9526188337
 30
0.0
 40
3.000000000000271
100
AcDbArc
 50
323.8703388586
 51
143.8703388586
  0
LINE
  5
6B
330
1F
100
AcDbEntity
  8
0
  6
Continuous
 62
     7
370
    15
100
AcDbLine
 10
1934.0915323878
 20
-563.1837767076
 30
0.0
 11
1919.9378134394
 21
-563.1837767076
 31
0.0
  0
LINE
  5
6C
330
1F
100
AcDbEntity
  8
0
  6
Continuous
 62
     7
370
    15
100
AcDbLine
 10
1919.9378134394
 20
-542.7851673674
 30
0.0
 11
1919.9378134394
 21
-563.1837767076
 31
0.0
  0
LINE
  5
6D
330
1F
100
AcDbEntity
  8
0
  6
Continuous
 62
     7
370
    15
100
AcDbLine
 10
2537.6257540369
 20
-542.7851673674
 30
0.0
 11
1919.9378134394
 21
-542.7851673674
 31
0.0
  0
LINE
  5
6E
330
1F
100
AcDbEntity
  8
0
  6
Continuous
 62
     7
370
    15
100
AcDbLine
 10
2537.6257540369
 20
-542.7851673674
 30
0.0
 11
2537.6257540369
 21
-563.1837767076
 31
0.0
  0
LINE
  5
6F
330
1F
100
AcDbEntity
  8
0
  6
Continuous
 62
     7
370
    15
100
AcDbLine
 10
2523.1687666559
 20
-563.1837767076
 30
0.0
 11
2537.6257540369
 21
-563.1837767076
 31
0.0
  0
ARC
  5
70
330
1F
100
AcDbEntity
  8
0
  6
Continuous
 62
     7
370
    15
100
AcDbCircle
 10
2520.8972958278
 20
-565.1434859579
 30
0.0
 40
3.000000000000084
100
AcDbArc
 50
40.7860999868
 51
220.7860999868
  0
LINE
  5
71
330
1F
100
AcDbEntity
  8
0
  6
Continuous
 62
     7
370
    15
100
AcDbLine
 10
2518.6259390497
 20
-567.1031993341
 30
0.0
 11
2518.6259390497
 21
-579.7166299533
 31
0.0
  0
ARC
  5
72
330
1F
100
AcDbEntity
  8
0
  6
Continuous
 62
     7
370
    15
100
AcDbCircle
 10
2520.920174019
 20
-581.6495061271
 30
0.0
 40
3.000000000000248
100
AcDbArc
 50
139.8873898024
 51
319.8873898024
  0
LINE
  5
73
330
1F
100
AcDbEntity
  8
0
  6
Continuous
 62
     7
370
    15
100
AcDbLine
 10
2523.2145430231
 20
-583.5823785972
 30
0.0
 11
2537.6257540369
 21
-583.5823785972
 31
0.0
  0
LINE
  5
74
330
1F
100
AcDbEntity
  8
0
  6
Continuous
 62
     7
370
    15
100
AcDbLine
 10
2535.7064844752
 20
-473.443458927
 30
0.0
 11
2535.7064844752
 21
-493.8420650076
 31
0.0
  0
LINE
  5
75
330
1F
100
AcDbEntity
  8
0
  6
Continuous
 62
     7
370
    15
100
AcDbLine
 10
2535.7064844752
 20
-493.8420650076
 30
0.0
 11
1918.018305459
 21
-493.8420650076
 31
0.0
  0
LINE
  5
76
330
1F
100
AcDbEntity
  8
0
  6
Continuous
 62
     7
370
    15
100
AcDbLine
 10
1918.018305459
 20
-473.443458927
 30
0.0
 11
1918.018305459
 21
-493.8420650076
 31
0.0
  0
LINE
  5
77
330
1F
100
AcDbEntity
  8
0
  6
Continuous
 62
     7
370
    15
100
AcDbLine
 10
1932.1817995692
 20
-473.443458927
 30
0.0
 11
1918.018305459
 21
-473.443458927
 31
0.0
  0
ARC
  5
78
330
1F
100
AcDbEntity
  8
0
  6
Continuous
 62
     7
370
    15
100
AcDbCircle
 10
1934.6000880086
 20
-471.6679583073
 30
0.0
 40
3.000000000000098
100
AcDbArc
 50
216.2872271788
 51
36.2872271788
  0
LINE
  5
79
330
1F
100
AcDbEntity
  8
0
  6
Continuous
 62
     7
370
    15
100
AcDbLine
 10
1937.0183588648
 20
-469.8924577322
 30
0.0
 11
1937.0183588648
 21
-456.6170700352
 31
0.0
  0
ARC
  5
7A
330
1F
100
AcDbEntity
  8
0
  6
Continuous
 62
     7
370
    15
100
AcDbCircle
 10
1934.6079129461
 20
-454.8309608383
 30
0.0
 40
3.000000000000155
100
AcDbArc
 50
323.4610129443
 51
143.4610129444
  0
LINE
  5
7B
330
1F
100
AcDbEntity
  8
0
  6
Continuous
 62
     7
370
    15
100
AcDbLine
 10
1932.1975351954
 20
-453.0448519151
 30
0.0
 11
1918.018305459
 21
-453.0448519151
 31
0.0
  0
LINE
  5
7C
330
1F
100
AcDbEntity
  8
0
  6
Continuous
 62
     7
370
    15
100
AcDbLine
 10
1918.018305459
 20
-432.6462444376
 30
0.0
 11
1918.018305459
 21
-453.0448519151
 31
0.0
  0
LINE
  5
7D
330
1F
100
AcDbEntity
  8
0
  6
Continuous
 62
     7
370
    15
100
AcDbLine
 10
2535.7064844752
 20
-432.6462444376
 30
0.0
 11
1918.018305459
 21
-432.6462444376
 31
0.0
  0
LINE
  5
7E
330
1F
100
AcDbEntity
  8
0
  6
Continuous
 62
     7
370
    15
100
AcDbLine
 10
2535.7064844752
 20
-432.6462444376
 30
0.0
 11
2535.7064844752
 21
-453.0448519151
 31
0.0
  0
LINE
  5
7F
330
1F
100
AcDbEntity
  8
0
  6
Continuous
 62
     7
370
    15
100
AcDbLine
 10
2520.7152010584
 20
-453.0448519151
 30
0.0
 11
2535.7064844752
 21
-453.0448519151
 31
0.0
  0
ARC
  5
80
330
1F
100
AcDbEntity
  8
0
  6
Continuous
 62
     7
370
    15
100
AcDbCircle
 10
2518.7108590568
 20
-455.2769279563
 30
0.0
 40
3.000000000000215
100
AcDbArc
 50
48.0754513092
 51
228.0754513092
  0
LINE
  5
81
330
1F
100
AcDbEntity
  8
0
  6
Continuous
 62
     7
370
    15
100
AcDbLine
 10
2516.7064310694
 20
-457.5090041842
 30
0.0
 11
2516.7064310694
 21
-469.2287924925
 31
0.0
  0
ARC
  5
82
330
1F
100
AcDbEntity
  8
0
  6
Continuous
 62
     7
370
    15
100
AcDbCircle
 10
2518.8416207415
 20
-471.336125625
 30
0.0
 40
3.000000000000178
100
AcDbArc
 50
135.3765514169
 51
315.3765514169
  0
LINE
  5
83
330
1F
100
AcDbEntity
  8
0
  6
Continuous
 62
     7
370
    15
100
AcDbLine
 10
2520.9767462397
 20
-473.443458927
 30
0.0
 11
2535.7064844752
 21
-473.443458927
 31
0.0
  0
LINE
  5
84
330
1F
100
AcDbEntity
  8
0
  6
Continuous
 62
     7
370
    15
100
AcDbLine
 10
2526.944124856
 20
-360.8108085107
 30
0.0
 11
2526.944124856
 21
-381.2094104003
 31
0.0
  0
LINE
  5
85
330
1F
100
AcDbEntity
  8
0
  6
Continuous
 62
     7
370
    15
100
AcDbLine
 10
2526.944124856
 20
-381.2094104003
 30
0.0
 11
1909.2559458399
 21
-381.2094104003
 31
0.0
  0
LINE
  5
86
330
1F
100
AcDbEntity
  8
0
  6
Continuous
 62
     7
370
    15
100
AcDbLine
 10
1909.2559458399
 20
-360.8108085107
 30
0.0
 11
1909.2559458399
 21
-381.2094104003
 31
0.0
  0
LINE
  5
87
330
1F
100
AcDbEntity
  8
0
  6
Continuous
 62
     7
370
    15
100
AcDbLine
 10
1924.1718889857
 20
-360.8108085107
 30
0.0
 11
1909.2559458399
 21
-360.8108085107
 31
0.0
  0
ARC
  5
88
330
1F
100
AcDbEntity
  8
0
  6
Continuous
 62
     7
370
    15
100
AcDbCircle
 10
1926.2139905132
 20
-358.6130453066
 30
0.0
 40
3.000000000000245
100
AcDbArc
 50
227.1036741071
 51
47.1036741071
  0
LINE
  5
89
330
1F
100
AcDbEntity
  8
0
  6
Continuous
 62
     7
370
    15
100
AcDbLine
 10
1928.2559992457
 20
-356.4152863335
 30
0.0
 11
1928.2559992457
 21
-343.9615440082
 31
0.0
  0
ARC
  5
8A
330
1F
100
AcDbEntity
  8
0
  6
Continuous
 62
     7
370
    15
100
AcDbCircle
 10
1925.8372247067
 20
-342.1868718774
 30
0.0
 40
3.000000000000153
100
AcDbArc
 50
323.7323579916
 51
143.7323579916
  0
LINE
  5
8B
330
1F
100
AcDbEntity
  8
0
  6
Continuous
 62
     7
370
    15
100
AcDbLine
 10
1923.4184862757
 20
-340.4121917199
 30
0.0
 11
1909.2559458399
 21
-340.4121917199
 31
0.0
  0
LINE
  5
8C
330
1F
100
AcDbEntity
  8
0
  6
Continuous
 62
     7
370
    15
100
AcDbLine
 10
1909.2559458399
 20
-320.0135898303
 30
0.0
 11
1909.2559458399
 21
-340.4121917199
 31
0.0
  0
LINE
  5
8D
330
1F
100
AcDbEntity
  8
0
  6
Continuous
 62
     7
370
    15
100
AcDbLine
 10
2526.944124856
 20
-320.0135898303
 30
0.0
 11
1909.2559458399
 21
-320.0135898303
 31
0.0
  0
LINE
  5
8E
330
1F
100
AcDbEntity
  8
0
  6
Continuous
 62
     7
370
    15
100
AcDbLine
 10
2526.944124856
 20
-320.0135898303
 30
0.0
 11
2526.944124856
 21
-340.4121917199
 31
0.0
  0
LINE
  5
8F
330
1F
100
AcDbEntity
  8
0
  6
Continuous
 62
     7
370
    15
100
AcDbLine
 10
2512.9675509119
 20
-340.4121917199
 30
0.0
 11
2526.944124856
 21
-340.4121917199
 31
0.0
  0
ARC
  5
90
330
1F
100
AcDbEntity
  8
0
  6
Continuous
 62
     7
370
    15
100
AcDbCircle
 10
2510.4558660248
 20
-342.0527084303
 30
0.0
 40
3.000000000000313
100
AcDbArc
 50
33.1502726487
 51
213.1502726487
  0
LINE
  5
91
330
1F
100
AcDbEntity
  8
0
  6
Continuous
 62
     7
370
    15
100
AcDbLine
 10
2507.9440714503
 20
-343.6932187985
 30
0.0
 11
2507.9440714503
 21
-357.7640351366
 31
0.0
  0
ARC
  5
92
330
1F
100
AcDbEntity
  8
0
  6
Continuous
 62
     7
370
    15
100
AcDbCircle
 10
2510.5285819829
 20
-359.2874196788
 30
0.0
 40
3.000000000000598
100
AcDbArc
 50
149.4829268305
 51
329.4829268305
  0
LINE
  5
93
330
1F
100
AcDbEntity
  8
0
  6
Continuous
 62
     7
370
    15
100
AcDbLine
 10
2513.1129862452
 20
-360.8108085107
 30
0.0
 11
2526.944124856
 21
-360.8108085107
 31
0.0
  0
LINE
  5
94
330
1F
100
AcDbEntity
  8
0
  6
Continuous
 62
     7
370
    15
100
AcDbLine
 10
2528.1264425898
 20
-261.7281299542
 30
0.0
 11
2528.1264425898
 21
-282.293416233
 31
0.0
  0
LINE
  5
95
330
1F
100
AcDbEntity
  8
0
  6
Continuous
 62
     7
370
    15
100
AcDbLine
 10
2528.1264425898
 20
-282.293416233
 30
0.0
 11
1910.4382635737
 21
-282.293416233
 31
0.0
  0
LINE
  5
96
330
1F
100
AcDbEntity
  8
0
  6
Continuous
 62
     7
370
    15
100
AcDbLine
 10
1910.4382635737
 20
-261.7281299542
 30
0.0
 11
1910.4382635737
 21
-282.293416233
 31
0.0
  0
LINE
  5
97
330
1F
100
AcDbEntity
  8
0
  6
Continuous
 62
     7
370
    15
100
AcDbLine
 10
1924.5781542444
 20
-261.7281299542
 30
0.0
 11
1910.4382635737
 21
-261.7281299542
 31
0.0
  0
ARC
  5
98
330
1F
100
AcDbEntity
  8
0
  6
Continuous
 62
     7
370
    15
100
AcDbCircle
 10
1927.008175857
 20
-259.9688799574
 30
0.0
 40
3.000000000000322
100
AcDbArc
 50
215.9032897566
 51
35.9032897566
  0
LINE
  5
99
330
1F
100
AcDbEntity
  8
0
  6
Continuous
 62
     7
370
    15
100
AcDbLine
 10
1929.4383169794
 20
-258.2096230697
 30
0.0
 11
1929.4383169794
 21
-244.7121363591
 31
0.0
  0
ARC
  5
9A
330
1F
100
AcDbEntity
  8
0
  6
Continuous
 62
     7
370
    15
100
AcDbCircle
 10
1927.019385919
 20
-242.9375008771
 30
0.0
 40
3.000000000000339
100
AcDbArc
 50
323.733209241
 51
143.733209241
  0
LINE
  5
9B
330
1F
100
AcDbEntity
  8
0
  6
Continuous
 62
     7
370
    15
100
AcDbLine
 10
1924.6005655909
 20
-241.1628585767
 30
0.0
 11
1910.4382635737
 21
-241.1628585767
 31
0.0
  0
LINE
  5
9C
330
1F
100
AcDbEntity
  8
0
  6
Continuous
 62
     7
370
    15
100
AcDbLine
 10
1910.4382635737
 20
-220.5975871991
 30
0.0
 11
1910.4382635737
 21
-241.1628585767
 31
0.0
  0
LINE
  5
9D
330
1F
100
AcDbEntity
  8
0
  6
Continuous
 62
     7
370
    15
100
AcDbLine
 10
2528.1264425898
 20
-220.5975871991
 30
0.0
 11
1910.4382635737
 21
-220.5975871991
 31
0.0
  0
LINE
  5
9E
330
1F
100
AcDbEntity
  8
0
  6
Continuous
 62
     7
370
    15
100
AcDbLine
 10
2528.1264425898
 20
-220.5975871991
 30
0.0
 11
2528.1264425898
 21
-241.1628585767
 31
0.0
  0
LINE
  5
9F
330
1F
100
AcDbEntity
  8
0
  6
Continuous
 62
     7
370
    15
100
AcDbLine
 10
2513.0319239283
 20
-241.1628585767
 30
0.0
 11
2528.1264425898
 21
-241.1628585767
 31
0.0
  0
ARC
  5
A0
330
1F
100
AcDbEntity
  8
0
  6
Continuous
 62
     7
370
    15
100
AcDbCircle
 10
2511.0791535279
 20
-243.4402526027
 30
0.0
 40
3.000000000000378
100
AcDbArc
 50
49.3875484989
 51
229.3875484989
  0
LINE
  5
A1
330
1F
100
AcDbEntity
  8
0
  6
Continuous
 62
     7
370
    15
100
AcDbLine
 10
2509.126389184
 20
-245.7176369142
 30
0.0
 11
2509.126389184
 21
-257.1992051314
 31
0.0
  0
ARC
  5
A2
330
1F
100
AcDbEntity
  8
0
  6
Continuous
 62
     7
370
    15
100
AcDbCircle
 10
2511.0941256647
 20
-259.4636711716
 30
0.0
 40
3.00000000000049
100
AcDbArc
 50
130.9901989857
 51
310.9901989858
  0
LINE
  5
A3
330
1F
100
AcDbEntity
  8
0
  6
Continuous
 62
     7
370
    15
100
AcDbLine
 10
2513.0619646692
 20
-261.7281299542
 30
0.0
 11
2528.1264425898
 21
-261.7281299542
 31
0.0
  0
LINE
  5
A4
330
1F
100
AcDbEntity
  8
0
  6
Continuous
 62
     7
370
    15
100
AcDbLine
 10
2530.9128405237
 20
-179.3074530076
 30
0.0
 11
2530.9128405237
 21
-198.3487230252
 31
0.0
  0
LINE
  5
A5
330
1F
100
AcDbEntity
  8
0
  6
Continuous
 62
     7
370
    15
100
AcDbLine
 10
2530.9128405237
 20
-198.3487230252
 30
0.0
 11
1913.2246615076
 21
-198.3487230252
 31
0.0
  0
LINE
  5
A6
330
1F
100
AcDbEntity
  8
0
  6
Continuous
 62
     7
370
    15
100
AcDbLine
 10
1913.2246615076
 20
-179.3074530076
 30
0.0
 11
1913.2246615076
 21
-198.3487230252
 31
0.0
  0
LINE
  5
A7
330
1F
100
AcDbEntity
  8
0
  6
Continuous
 62
     7
370
    15
100
AcDbLine
 10
1928.1241537714
 20
-179.3074530076
 30
0.0
 11
1913.2246615076
 21
-179.3074530076
 31
0.0
  0
ARC
  5
A8
330
1F
100
AcDbEntity
  8
0
  6
Continuous
 62
     7
370
    15
100
AcDbCircle
 10
1930.174464119
 20
-177.1173313551
 30
0.0
 40
3.000000000000146
100
AcDbArc
 50
226.8896029483
 51
46.8896029483
  0
LINE
  5
A9
330
1F
100
AcDbEntity
  8
0
  6
Continuous
 62
     7
370
    15
100
AcDbLine
 10
1932.2247149134
 20
-174.9272268724
 30
0.0
 11
1932.2247149134
 21
-164.6900397252
 31
0.0
  0
ARC
  5
AA
330
1F
100
AcDbEntity
  8
0
  6
Continuous
 62
     7
370
    15
100
AcDbCircle
 10
1930.1980238393
 20
-162.4780907764
 30
0.0
 40
3.00000000000032
100
AcDbArc
 50
312.4971100889
 51
132.4971100889
  0
LINE
  5
AB
330
1F
100
AcDbEntity
  8
0
  6
Continuous
 62
     7
370
    15
100
AcDbLine
 10
1928.1713606501
 20
-160.2661531877
 30
0.0
 11
1913.2246615076
 21
-160.2661531877
 31
0.0
  0
LINE
  5
AC
330
1F
100
AcDbEntity
  8
0
  6
Continuous
 62
     7
370
    15
100
AcDbLine
 10
1913.2246615076
 20
-141.2248533677
 30
0.0
 11
1913.2246615076
 21
-160.2661531877
 31
0.0
  0
LINE
  5
AD
330
1F
100
AcDbEntity
  8
0
  6
Continuous
 62
     7
370
    15
100
AcDbLine
 10
2530.9128405237
 20
-141.2248533677
 30
0.0
 11
1913.2246615076
 21
-141.2248533677
 31
0.0
  0
LINE
  5
AE
330
1F
100
AcDbEntity
  8
0
  6
Continuous
 62
     7
370
    15
100
AcDbLine
 10
2530.9128405237
 20
-141.2248533677
 30
0.0
 11
2530.9128405237
 21
-160.2661531877
 31
0.0
  0
LINE
  5
AF
330
1F
100
AcDbEntity
  8
0
  6
Continuous
 62
     7
370
    15
100
AcDbLine
 10
2516.2014605189
 20
-160.2661531877
 30
0.0
 11
2530.9128405237
 21
-160.2661531877
 31
0.0
  0
ARC
  5
B0
330
1F
100
AcDbEntity
  8
0
  6
Continuous
 62
     7
370
    15
100
AcDbCircle
 10
2514.0570835616
 20
-162.3642818102
 30
0.0
 40
3.000000000000315
100
AcDbArc
 50
44.3768888223
 51
224.3768888223
  0
LINE
  5
B1
330
1F
100
AcDbEntity
  8
0
  6
Continuous
 62
     7
370
    15
100
AcDbLine
 10
2511.912787118
 20
-164.4624095868
 30
0.0
 11
2511.912787118
 21
-174.9280613374
 31
0.0
  0
ARC
  5
B2
330
1F
100
AcDbEntity
  8
0
  6
Continuous
 62
     7
370
    15
100
AcDbCircle
 10
2513.9634925737
 20
-177.1177571545
 30
0.0
 40
3.000000000000146
100
AcDbArc
 50
133.1222951971
 51
313.1222951971
  0
LINE
  5
B3
330
1F
100
AcDbEntity
  8
0
  6
Continuous
 62
     7
370
    15
100
AcDbLine
 10
2516.0140635157
 20
-179.3074530076
 30
0.0
 11
2530.9128405237
 21
-179.3074530076
 31
0.0
  0
LINE
  5
B4
330
1F
100
AcDbEntity
  8
0
  6
Continuous
 62
     7
370
    15
100
AcDbLine
 10
2511.6700770045
 20
-79.8444968175
 30
0.0
 11
2511.6700770045
 21
-99.6862870168
 31
0.0
  0
LINE
  5
B5
330
1F
100
AcDbEntity
  8
0
  6
Continuous
 62
     7
370
    15
100
AcDbLine
 10
2511.6700770045
 20
-99.6862870168
 30
0.0
 11
1893.9818979883
 21
-99.6862870168
 31
0.0
  0
LINE
  5
B6
330
1F
100
AcDbEntity
  8
0
  6
Continuous
 62
     7
370
    15
100
AcDbLine
 10
1893.9818979883
 20
-79.8444968175
 30
0.0
 11
1893.9818979883
 21
-99.6862870168
 31
0.0
  0
LINE
  5
B7
330
1F
100
AcDbEntity
  8
0
  6
Continuous
 62
     7
370
    15
100
AcDbLine
 10
1908.7597967768
 20
-79.8444968175
 30
0.0
 11
1893.9818979883
 21
-79.8444968175
 31
0.0
  0
ARC
  5
B8
330
1F
100
AcDbEntity
  8
0
  6
Continuous
 62
     7
370
    15
100
AcDbCircle
 10
1910.8708867882
 20
-77.7129797034
 30
0.0
 40
3.000000000000145
100
AcDbArc
 50
225.2760385334
 51
45.2760385334
  0
LINE
  5
B9
330
1F
100
AcDbEntity
  8
0
  6
Continuous
 62
     7
370
    15
100
AcDbLine
 10
1912.9819513941
 20
-75.5814534139
 30
0.0
 11
1912.9819513941
 21
-63.9165562104
 31
0.0
  0
ARC
  5
BA
330
1F
100
AcDbEntity
  8
0
  6
Continuous
 62
     7
370
    15
100
AcDbCircle
 10
1910.7081017032
 20
-61.9596329196
 30
0.0
 40
3.000000000000218
100
AcDbArc
 50
319.2841221636
 51
139.2841221636
  0
LINE
  5
BB
330
1F
100
AcDbEntity
  8
0
  6
Continuous
 62
     7
370
    15
100
AcDbLine
 10
1908.4343554163
 20
-60.0027066182
 30
0.0
 11
1893.9818979883
 21
-60.0027066182
 31
0.0
  0
LINE
  5
BC
330
1F
100
AcDbEntity
  8
0
  6
Continuous
 62
     7
370
    15
100
AcDbLine
 10
1893.9818979883
 20
-40.1609164189
 30
0.0
 11
1893.9818979883
 21
-60.0027066182
 31
0.0
  0
LINE
  5
BD
330
1F
100
AcDbEntity
  8
0
  6
Continuous
 62
     7
370
    15
100
AcDbLine
 10
2511.6700770045
 20
-40.1609164189
 30
0.0
 11
1893.9818979883
 21
-40.1609164189
 31
0.0
  0
LINE
  5
BE
330
1F
100
AcDbEntity
  8
0
  6
Continuous
 62
     7
370
    15
100
AcDbLine
 10
2511.6700770045
 20
-40.1609164189
 30
0.0
 11
2511.6700770045
 21
-60.0027066182
 31
0.0
  0
LINE
  5
BF
330
1F
100
AcDbEntity
  8
0
  6
Continuous
 62
     7
370
    15
100
AcDbLine
 10
2497.2927214289
 20
-60.0027066182
 30
0.0
 11
2511.6700770045
 21
-60.0027066182
 31
0.0
  0
ARC
  5
C0
330
1F
100
AcDbEntity
  8
0
  6
Continuous
 62
     7
370
    15
100
AcDbCircle
 10
2494.98137891
 20
-61.9152930475
 30
0.0
 40
3.000000000000051
100
AcDbArc
 50
39.6077730639
 51
219.6077730639
  0
LINE
  5
C1
330
1F
100
AcDbEntity
  8
0
  6
Continuous
 62
     7
370
    15
100
AcDbLine
 10
2492.6700235987
 20
-63.827864499
 30
0.0
 11
2492.6700235987
 21
-75.8474987458
 31
0.0
  0
ARC
  5
C2
330
1F
100
AcDbEntity
  8
0
  6
Continuous
 62
     7
370
    15
100
AcDbCircle
 10
2494.9075054976
 20
-77.8459933769
 30
0.0
 40
3.00000000000044
100
AcDbArc
 50
138.2280557784
 51
318.2280557784
  0
LINE
  5
C3
330
1F
100
AcDbEntity
  8
0
  6
Continuous
 62
     7
370
    15
100
AcDbLine
 10
2497.1449019099
 20
-79.8444968175
 30
0.0
 11
2511.6700770045
 21
-79.8444968175
 31
0.0
  0
LINE
  5
C4
330
1F
100
AcDbEntity
  8
0
  6
Continuous
 62
     7
370
    15
100
AcDbLine
 10
2497.088158288
 20
27.2599536468
 30
0.0
 11
2497.088158288
 21
6.861336856
 31
0.0
  0
LINE
  5
C5
330
1F
100
AcDbEntity
  8
0
  6
Continuous
 62
     7
370
    15
100
AcDbLine
 10
2497.088158288
 20
6.861336856
 30
0.0
 11
1879.3999792719
 21
6.861336856
 31
0.0
  0
LINE
  5
C6
330
1F
100
AcDbEntity
  8
0
  6
Continuous
 62
     7
370
    15
100
AcDbLine
 10
1879.3999792719
 20
27.2599536468
 30
0.0
 11
1879.3999792719
 21
6.861336856
 31
0.0
  0
LINE
  5
C7
330
1F
100
AcDbEntity
  8
0
  6
Continuous
 62
     7
370
    15
100
AcDbLine
 10
1893.9022661829
 20
27.2599536468
 30
0.0
 11
1879.3999792719
 21
27.2599536468
 31
0.0
  0
ARC
  5
C8
330
1F
100
AcDbEntity
  8
0
  6
Continuous
 62
     7
370
    15
100
AcDbCircle
 10
1896.1511339978
 20
29.2454987561
 30
0.0
 40
3.000000000000424
100
AcDbArc
 50
221.4413143982
 51
41.4413143982
  0
LINE
  5
C9
330
1F
100
AcDbEntity
  8
0
  6
Continuous
 62
     7
370
    15
100
AcDbLine
 10
1898.4000326777
 20
31.2310535003
 30
0.0
 11
1898.4000326777
 21
43.5622412253
 31
0.0
  0
ARC
  5
CA
330
1F
100
AcDbEntity
  8
0
  6
Continuous
 62
     7
370
    15
100
AcDbCircle
 10
1896.2079776266
 20
45.6104073228
 30
0.0
 40
3.000000000000191
100
AcDbArc
 50
316.9439468672
 51
136.9439468672
  0
LINE
  5
CB
330
1F
100
AcDbEntity
  8
0
  6
Continuous
 62
     7
370
    15
100
AcDbLine
 10
1894.0159918452
 20
47.6585704375
 30
0.0
 11
1879.3999792719
 21
47.6585704375
 31
0.0
  0
LINE
  5
CC
330
1F
100
AcDbEntity
  8
0
  6
Continuous
 62
     7
370
    15
100
AcDbLine
 10
1879.3999792719
 20
68.0571276237
 30
0.0
 11
1879.3999792719
 21
47.6585704375
 31
0.0
  0
LINE
  5
CD
330
1F
100
AcDbEntity
  8
0
  6
Continuous
 62
     7
370
    15
100
AcDbLine
 10
2497.088158288
 20
68.0571276237
 30
0.0
 11
1879.3999792719
 21
68.0571276237
 31
0.0
  0
LINE
  5
CE
330
1F
100
AcDbEntity
  8
0
  6
Continuous
 62
     7
370
    15
100
AcDbLine
 10
2497.088158288
 20
68.0571276237
 30
0.0
 11
2497.088158288
 21
47.6585704375
 31
0.0
  0
LINE
  5
CF
330
1F
100
AcDbEntity
  8
0
  6
Continuous
 62
     7
370
    15
100
AcDbLine
 10
2482.7952028895
 20
47.6585704375
 30
0.0
 11
2497.088158288
 21
47.6585704375
 31
0.0
  0
ARC
  5
D0
330
1F
100
AcDbEntity
  8
0
  6
Continuous
 62
     7
370
    15
100
AcDbCircle
 10
2480.4417426368
 20
45.7982505598
 30
0.0
 40
3.000000000000412
100
AcDbArc
 50
38.3233726015
 51
218.3233726016
  0
LINE
  5
D1
330
1F
100
AcDbEntity
  8
0
  6
Continuous
 62
     7
370
    15
100
AcDbLine
 10
2478.0881048823
 20
43.9379293014
 30
0.0
 11
2478.0881048823
 21
31.4245897819
 31
0.0
  0
ARC
  5
D2
330
1F
100
AcDbEntity
  8
0
  6
Continuous
 62
     7
370
    15
100
AcDbCircle
 10
2480.2477898514
 20
29.3422598249
 30
0.0
 40
3.000000000000172
100
AcDbArc
 50
136.0439590182
 51
316.0439590183
  0
LINE
  5
D3
330
1F
100
AcDbEntity
  8
0
  6
Continuous
 62
     7
370
    15
100
AcDbLine
 10
2482.4072958613
 20
27.2599536468
 30
0.0
 11
2497.088158288
 21
27.2599536468
 31
0.0
  0
CIRCLE
  5
D4
330
1F
100
AcDbEntity
  8
0
  6
Continuous
 62
     7
370
    15
100
AcDbCircle
 10
1899.0069858884
 20
174.9056399817
 30
0.0
 40
2.500000000000171
  0
CIRCLE
  5
D5
330
1F
100
AcDbEntity
  8
0
  6
Continuous
 62
     7
370
    15
100
AcDbCircle
 10
2450.812625237
 20
174.9056399817
 30
0.0
 40
2.500000000000171
  0
LINE
  5
D6
330
1F
100
AcDbEntity
  8
0
  6
Continuous
 62
     7
370
    15
100
AcDbLine
 10
2483.753883996
 20
172.6924854804
 30
0.0
 11
2483.753883996
 21
152.2938686896
 31
0.0
  0
LINE
  5
D7
330
1F
100
AcDbEntity
  8
0
  6
Continuous
 62
     7
370
    15
100
AcDbLine
 10
2483.753883996
 20
152.2938686896
 30
0.0
 11
1866.0657049799
 21
152.2938686896
 31
0.0
  0
LINE
  5
D8
330
1F
100
AcDbEntity
  8
0
  6
Continuous
 62
     7
370
    15
100
AcDbLine
 10
1866.0657049799
 20
172.6924854804
 30
0.0
 11
1866.0657049799
 21
152.2938686896
 31
0.0
  0
LINE
  5
D9
330
1F
100
AcDbEntity
  8
0
  6
Continuous
 62
     7
370
    15
100
AcDbLine
 10
1880.9902311945
 20
172.6924854804
 30
0.0
 11
1866.0657049799
 21
172.6924854804
 31
0.0
  0
ARC
  5
DA
330
1F
100
AcDbEntity
  8
0
  6
Continuous
 62
     7
370
    15
100
AcDbCircle
 10
1883.0279963088
 20
174.8942231408
 30
0.0
 40
3.00000000000021
100
AcDbArc
 50
227.2151662285
 51
47.2151662285
  0
LINE
  5
DB
330
1F
100
AcDbEntity
  8
0
  6
Continuous
 62
     7
370
    15
100
AcDbLine
 10
1885.0657583857
 20
177.0959574271
 30
0.0
 11
1885.0657583857
 21
189.3495995093
 31
0.0
  0
ARC
  5
DC
330
1F
100
AcDbEntity
  8
0
  6
Continuous
 62
     7
370
    15
100
AcDbCircle
 10
1882.7204720494
 20
191.2203444249
 30
0.0
 40
3.000000000000204
100
AcDbArc
 50
321.4215572039
 51
141.4215572039
  0
LINE
  5
DD
330
1F
100
AcDbEntity
  8
0
  6
Continuous
 62
     7
370
    15
100
AcDbLine
 10
1880.3751112604
 20
193.0911022712
 30
0.0
 11
1866.0657049799
 21
193.0911022712
 31
0.0
  0
LINE
  5
DE
330
1F
100
AcDbEntity
  8
0
  6
Continuous
 62
     7
370
    15
100
AcDbLine
 10
1866.0657049799
 20
213.4897190619
 30
0.0
 11
1866.0657049799
 21
193.0911022712
 31
0.0
  0
LINE
  5
DF
330
1F
100
AcDbEntity
  8
0
  6
Continuous
 62
     7
370
    15
100
AcDbLine
 10
2483.753883996
 20
213.4897190619
 30
0.0
 11
1866.0657049799
 21
213.4897190619
 31
0.0
  0
LINE
  5
E0
330
1F
100
AcDbEntity
  8
0
  6
Continuous
 62
     7
370
    15
100
AcDbLine
 10
2483.753883996
 20
213.4897190619
 30
0.0
 11
2483.753883996
 21
193.0911022712
 31
0.0
  0
LINE
  5
E1
330
1F
100
AcDbEntity
  8
0
  6
Continuous
 62
     7
370
    15
100
AcDbLine
 10
2469.699108758
 20
193.0911022712
 30
0.0
 11
2483.753883996
 21
193.0911022712
 31
0.0
  0
ARC
  5
E2
330
1F
100
AcDbEntity
  8
0
  6
Continuous
 62
     7
370
    15
100
AcDbCircle
 10
2467.2265234098
 20
191.3922769284
 30
0.0
 40
3.000000000000168
100
AcDbArc
 50
34.4908539498
 51
214.4908539498
  0
LINE
  5
E3
330
1F
100
AcDbEntity
  8
0
  6
Continuous
 62
     7
370
    15
100
AcDbLine
 10
2464.7538305903
 20
189.693458705
 30
0.0
 11
2464.7538305903
 21
176.7800528098
 31
0.0
  0
ARC
  5
E4
330
1F
100
AcDbEntity
  8
0
  6
Continuous
 62
     7
370
    15
100
AcDbCircle
 10
2466.9500024505
 20
174.7362695582
 30
0.0
 40
3.000000000000213
100
AcDbArc
 50
137.0579354208
 51
317.0579354207
  0
LINE
  5
E5
330
1F
100
AcDbEntity
  8
0
  6
Continuous
 62
     7
370
    15
100
AcDbLine
 10
2469.1462160731
 20
172.6924854804
 30
0.0
 11
2483.753883996
 21
172.6924854804
 31
0.0
  0
CIRCLE
  5
E6
330
1F
100
AcDbEntity
  8
0
  6
Continuous
 62
     7
370
    15
100
AcDbCircle
 10
1954.3626403656
 20
334.9680165888
 30
0.0
 40
2.499999999999943
  0
CIRCLE
  5
E7
330
1F
100
AcDbEntity
  8
0
  6
Continuous
 62
     7
370
    15
100
AcDbCircle
 10
2349.9133762481
 20
334.9680165888
 30
0.0
 40
2.499999999999943
  0
LINE
  5
E8
330
1F
100
AcDbEntity
  8
0
  6
Continuous
 62
     7
370
    15
100
AcDbLine
 10
2460.9820486689
 20
328.9131003905
 30
0.0
 11
2460.9820486689
 21
308.5144835998
 31
0.0
  0
LINE
  5
E9
330
1F
100
AcDbEntity
  8
0
  6
Continuous
 62
     7
370
    15
100
AcDbLine
 10
2460.9820486689
 20
308.5144835998
 30
0.0
 11
1843.2939888621
 21
308.5144835998
 31
0.0
  0
LINE
  5
EA
330
1F
100
AcDbEntity
  8
0
  6
Continuous
 62
     7
370
    15
100
AcDbLine
 10
1843.2939888621
 20
328.9131003905
 30
0.0
 11
1843.2939888621
 21
308.5144835998
 31
0.0
  0
LINE
  5
EB
330
1F
100
AcDbEntity
  8
0
  6
Continuous
 62
     7
370
    15
100
AcDbLine
 10
1857.5816990519
 20
328.9131003905
 30
0.0
 11
1843.2939888621
 21
328.9131003905
 31
0.0
  0
ARC
  5
EC
330
1F
100
AcDbEntity
  8
0
  6
Continuous
 62
     7
370
    15
100
AcDbCircle
 10
1859.9378065146
 20
330.770135448
 30
0.0
 40
3.000000000000162
100
AcDbArc
 50
218.2443563627
 51
38.2443563627
  0
LINE
  5
ED
330
1F
100
AcDbEntity
  8
0
  6
Continuous
 62
     7
370
    15
100
AcDbLine
 10
1862.2939230585
 20
332.6271850158
 30
0.0
 11
1862.2939230585
 21
345.1744395781
 31
0.0
  0
ARC
  5
EE
330
1F
100
AcDbEntity
  8
0
  6
Continuous
 62
     7
370
    15
100
AcDbCircle
 10
1860.1211905027
 20
347.243079826
 30
0.0
 40
2.999999999999934
100
AcDbArc
 50
316.4064850588
 51
136.4064850588
  0
LINE
  5
EF
330
1F
100
AcDbEntity
  8
0
  6
Continuous
 62
     7
370
    15
100
AcDbLine
 10
1857.9483868265
 20
349.3117171813
 30
0.0
 11
1843.2939888621
 21
349.3117171813
 31
0.0
  0
LINE
  5
F0
330
1F
100
AcDbEntity
  8
0
  6
Continuous
 62
     7
370
    15
100
AcDbLine
 10
1843.2939888621
 20
369.7102743674
 30
0.0
 11
1843.2939888621
 21
349.3117171813
 31
0.0
  0
LINE
  5
F1
330
1F
100
AcDbEntity
  8
0
  6
Continuous
 62
     7
370
    15
100
AcDbLine
 10
2460.9820486689
 20
369.7102743674
 30
0.0
 11
1843.2939888621
 21
369.7102743674
 31
0.0
  0
LINE
  5
F2
330
1F
100
AcDbEntity
  8
0
  6
Continuous
 62
     7
370
    15
100
AcDbLine
 10
2460.9820486689
 20
369.7102743674
 30
0.0
 11
2460.9820486689
 21
349.3117171813
 31
0.0
  0
LINE
  5
F3
330
1F
100
AcDbEntity
  8
0
  6
Continuous
 62
     7
370
    15
100
AcDbLine
 10
2445.8117128992
 20
349.3117171813
 30
0.0
 11
2460.9820486689
 21
349.3117171813
 31
0.0
  0
ARC
  5
F4
330
1F
100
AcDbEntity
  8
0
  6
Continuous
 62
     7
370
    15
100
AcDbCircle
 10
2443.8968838988
 20
347.0022527553
 30
0.0
 40
3.000000000000095
100
AcDbArc
 50
50.3371230581
 51
230.3371230584
  0
LINE
  5
F5
330
1F
100
AcDbEntity
  8
0
  6
Continuous
 62
     7
370
    15
100
AcDbLine
 10
2441.9819952631
 20
344.6928340484
 30
0.0
 11
2441.9819952631
 21
333.4711271811
 31
0.0
  0
ARC
  5
F6
330
1F
100
AcDbEntity
  8
0
  6
Continuous
 62
     7
370
    15
100
AcDbCircle
 10
2443.9329855762
 20
331.1921103063
 30
0.0
 40
3.000000000000256
100
AcDbArc
 50
130.5644557138
 51
310.5644557137
  0
LINE
  5
F7
330
1F
100
AcDbEntity
  8
0
  6
Continuous
 62
     7
370
    15
100
AcDbLine
 10
2445.8839537287
 20
328.9131003905
 30
0.0
 11
2460.9820486689
 21
328.9131003905
 31
0.0
  0
LINE
  5
F8
330
1F
100
AcDbEntity
  8
0
  6
Continuous
 62
     7
370
    15
100
AcDbLine
 10
2428.9805533076
 20
499.4279223968
 30
0.0
 11
2444.3370939875
 21
499.4279223968
 31
0.0
  0
LINE
  5
F9
330
1F
100
AcDbEntity
  8
0
  6
Continuous
 62
     7
370
    15
100
AcDbLine
 10
2444.3370939875
 20
499.4279223968
 30
0.0
 11
2444.3370939875
 21
479.1358787108
 31
0.0
  0
LINE
  5
FA
330
1F
100
AcDbEntity
  8
0
  6
Continuous
 62
     7
370
    15
100
AcDbLine
 10
1826.6489149714
 20
479.1358787108
 30
0.0
 11
2444.3370939875
 21
479.1358787108
 31
0.0
  0
LINE
  5
FB
330
1F
100
AcDbEntity
  8
0
  6
Continuous
 62
     7
370
    15
100
AcDbLine
 10
1826.6489149714
 20
499.4279223968
 30
0.0
 11
1826.6489149714
 21
479.1358787108
 31
0.0
  0
LINE
  5
FC
330
1F
100
AcDbEntity
  8
0
  6
Continuous
 62
     7
370
    15
100
AcDbLine
 10
1841.2705303812
 20
499.4279223968
 30
0.0
 11
1826.6489149714
 21
499.4279223968
 31
0.0
  0
ARC
  5
FD
330
1F
100
AcDbEntity
  8
0
  6
Continuous
 62
     7
370
    15
100
AcDbCircle
 10
1843.4597179265
 20
501.4790919663
 30
0.0
 40
2.999999999999931
100
AcDbArc
 50
223.1360363275
 51
43.1360363275
  0
LINE
  5
FE
330
1F
100
AcDbEntity
  8
0
  6
Continuous
 62
     7
370
    15
100
AcDbLine
 10
1845.6489683771
 20
503.5302716781
 30
0.0
 11
1845.6489683771
 21
516.1446410705
 31
0.0
  0
ARC
  5
FF
330
1F
100
AcDbEntity
  8
0
  6
Continuous
 62
     7
370
    15
100
AcDbCircle
 10
1843.2396903827
 20
517.9322982693
 30
0.0
 40
3.00000000000023
100
AcDbArc
 50
323.424745106
 51
143.424745106
  0
LINE
  5
100
330
1F
100
AcDbEntity
  8
0
  6
Continuous
 62
     7
370
    15
100
AcDbLine
 10
1840.8304096842
 20
519.719906478
 30
0.0
 11
1826.6489149714
 21
519.719906478
 31
0.0
  0
LINE
  5
101
330
1F
100
AcDbEntity
  8
0
  6
Continuous
 62
     7
370
    15
100
AcDbLine
 10
1826.6489149714
 20
540.0120097686
 30
0.0
 11
1826.6489149714
 21
519.719906478
 31
0.0
  0
LINE
  5
102
330
1F
100
AcDbEntity
  8
0
  6
Continuous
 62
     7
370
    15
100
AcDbLine
 10
1826.6489149714
 20
540.0120097686
 30
0.0
 11
2444.3370939875
 21
540.0120097686
 31
0.0
  0
LINE
  5
103
330
1F
100
AcDbEntity
  8
0
  6
Continuous
 62
     7
370
    15
100
AcDbLine
 10
2444.3370939875
 20
540.0120097686
 30
0.0
 11
2444.3370939875
 21
519.719906478
 31
0.0
  0
LINE
  5
104
330
1F
100
AcDbEntity
  8
0
  6
Continuous
 62
     7
370
    15
100
AcDbLine
 10
2429.9440027857
 20
519.719906478
 30
0.0
 11
2444.3370939875
 21
519.719906478
 31
0.0
  0
ARC
  5
105
330
1F
100
AcDbEntity
  8
0
  6
Continuous
 62
     7
370
    15
100
AcDbCircle
 10
2427.640496552
 20
517.7979180914
 30
0.0
 40
3.000000000000332
100
AcDbArc
 50
39.8419089329
 51
219.8419089329
  0
LINE
  5
106
330
1F
100
AcDbEntity
  8
0
  6
Continuous
 62
     7
370
    15
100
AcDbLine
 10
2425.3370405817
 20
515.8758837272
 30
0.0
 11
2425.3370405817
 21
504.1948634673
 31
0.0
  0
ARC
  5
107
330
1F
100
AcDbEntity
  8
0
  6
Continuous
 62
     7
370
    15
100
AcDbCircle
 10
2427.1588533925
 20
501.8113859114
 30
0.0
 40
3.000000000000194
100
AcDbArc
 50
127.3921787136
 51
307.3921787136
  0
ARC
  5
108
330
1F
100
AcDbEntity
  8
0
  6
Continuous
 62
     7
370
    15
100
AcDbCircle
 10
1549.7769413621
 20
-871.8429994616
 30
0.0
 40
3.00000000000006
100
AcDbArc
 50
330.1123151785
 51
150.1123151785
  0
LINE
  5
109
330
1F
100
AcDbEntity
  8
0
  6
Continuous
 62
     7
370
    15
100
AcDbLine
 10
1547.1759678507
 20
-870.3480881166
 30
0.0
 11
1537.8208996439
 21
-870.3480881166
 31
0.0
  0
ARC
  5
10A
330
1F
100
AcDbEntity
  8
0
  6
Continuous
 62
     7
370
    15
100
AcDbCircle
 10
1535.5994509281
 20
-872.3642666137
 30
0.0
 40
2.999999999999848
100
AcDbArc
 50
42.2260331042
 51
222.2260331042
  0
LINE
  5
10B
330
1F
100
AcDbEntity
  8
0
  6
Continuous
 62
     7
370
    15
100
AcDbLine
 10
1533.3779694224
 20
-874.3804317426
 30
0.0
 11
1533.3779694224
 21
-925.9668510865
 31
0.0
  0
ARC
  5
10C
330
1F
100
AcDbEntity
  8
0
  6
Continuous
 62
     7
370
    15
100
AcDbCircle
 10
1535.4276302014
 20
-928.1574735992
 30
0.0
 40
3.000000000001491
100
AcDbArc
 50
133.0962308389
 51
313.0962308388
  0
LINE
  5
10D
330
1F
100
AcDbEntity
  8
0
  6
Continuous
 62
     7
370
    15
100
AcDbLine
 10
1537.4773384714
 20
-930.3480905007
 30
0.0
 11
1548.8375069285
 21
-930.3480905007
 31
0.0
  0
ARC
  5
10E
330
1F
100
AcDbEntity
  8
0
  6
Continuous
 62
     7
370
    15
100
AcDbCircle
 10
1550.6077589682
 20
-927.9260273222
 30
0.0
 40
3.000000000000042
100
AcDbArc
 50
233.8384023412
 51
53.8384023412
  0
LINE
  5
10F
330
1F
100
AcDbEntity
  8
0
  6
Continuous
 62
     7
370
    15
100
AcDbLine
 10
1552.3779036188
 20
-925.5039614152
 30
0.0
 11
1552.3779036188
 21
-873.3379167031
 31
0.0
  0
ARC
  5
110
330
1F
100
AcDbEntity
  8
0
  6
Continuous
 62
     7
370
    15
100
AcDbCircle
 10
1650.8957537393
 20
-879.3383518241
 30
0.0
 40
2.999999999999977
100
AcDbArc
 50
276.6900109187
 51
96.6900109187
  0
LINE
  5
111
330
1F
100
AcDbEntity
  8
0
  6
Continuous
 62
     7
370
    15
100
AcDbLine
 10
1642.0002819681
 20
-869.9743669938
 30
0.0
 11
1650.5462767267
 21
-876.3587695073
 31
0.0
  0
ARC
  5
112
330
1F
100
AcDbEntity
  8
0
  6
Continuous
 62
     7
370
    15
100
AcDbCircle
 10
1639.0350423166
 20
-870.4296861657
 30
0.0
 40
2.999999999999861
100
AcDbArc
 50
8.7297213311
 51
188.7297213311
  0
LINE
  5
113
330
1F
100
AcDbEntity
  8
0
  6
Continuous
 62
     7
370
    15
100
AcDbLine
 10
1636.0697390223
 20
-870.8850067567
 30
0.0
 11
1611.5842701578
 21
-903.6605280351
 31
0.0
  0
ARC
  5
114
330
1F
100
AcDbEntity
  8
0
  6
Continuous
 62
     7
370
    15
100
AcDbCircle
 10
1611.5821695845
 20
-906.6605341029
 30
0.0
 40
2.99999999999994
100
AcDbArc
 50
89.9596123782
 51
269.9596123782
  0
LINE
  5
115
330
1F
100
AcDbEntity
  8
0
  6
Continuous
 62
     7
370
    15
100
AcDbLine
 10
1611.5800978327
 20
-909.6605401944
 30
0.0
 11
1620.3598620081
 21
-916.2196737241
 31
0.0
  0
ARC
  5
116
330
1F
100
AcDbEntity
  8
0
  6
Continuous
 62
     7
370
    15
100
AcDbCircle
 10
1623.3469795872
 20
-915.9414640474
 30
0.0
 40
2.999999999999989
100
AcDbArc
 50
185.3209963475
 51
5.3209963475
  0
LINE
  5
117
330
1F
100
AcDbEntity
  8
0
  6
Continuous
 62
     7
370
    15
100
AcDbLine
 10
1651.2452007914
 20
-882.3179226827
 30
0.0
 11
1626.334035554
 21
-915.6632643651
 31
0.0
  0
LINE
  5
118
330
1F
100
AcDbEntity
  8
0
  6
Continuous
 62
     7
370
    15
100
AcDbLine
 10
1215.0356413508
 20
-951.3369720887
 30
0.0
 11
1205.4762484217
 21
-956.5168839406
 31
0.0
  0
ARC
  5
119
330
1F
100
AcDbEntity
  8
0
  6
Continuous
 62
     7
370
    15
100
AcDbCircle
 10
1204.6551413293
 20
-959.4023444133
 30
0.0
 40
2.999999999999938
100
AcDbArc
 50
74.115820293
 51
254.1158202929
  0
LINE
  5
11A
330
1F
100
AcDbEntity
  8
0
  6
Continuous
 62
     7
370
    15
100
AcDbLine
 10
1223.2931496287
 20
-998.1991570901
 30
0.0
 11
1203.8340212488
 21
-962.2878056478
 31
0.0
  0
ARC
  5
11B
330
1F
100
AcDbEntity
  8
0
  6
Continuous
 62
     7
370
    15
100
AcDbCircle
 10
1225.9961758789
 20
-999.5004833778
 30
0.0
 40
2.99999999999995
100
AcDbArc
 50
154.2925862339
 51
334.2925862338
  0
LINE
  5
11C
330
1F
100
AcDbEntity
  8
0
  6
Continuous
 62
     7
370
    15
100
AcDbLine
 10
1238.3374811793
 20
-995.5791753243
 30
0.0
 11
1228.6992909098
 21
-1000.8017939042
 31
0.0
  0
ARC
  5
11D
330
1F
100
AcDbEntity
  8
0
  6
Continuous
 62
     7
370
    15
100
AcDbCircle
 10
1239.3878068952
 20
-992.7690317172
 30
0.0
 40
2.999999999999908
100
AcDbArc
 50
249.5069404321
 51
69.5069404321
  0
LINE
  5
11E
330
1F
100
AcDbEntity
  8
0
  6
Continuous
 62
     7
370
    15
100
AcDbLine
 10
1240.4380680704
 20
-989.9588745545
 30
0.0
 11
1220.6529022837
 21
-953.4456652116
 31
0.0
  0
ARC
  5
11F
330
1F
100
AcDbEntity
  8
0
  6
Continuous
 62
     7
370
    15
100
AcDbCircle
 10
958.8795772769
 20
-1091.4632226705
 30
0.0
 40
2.999999999999962
100
AcDbArc
 50
224.3513901321
 51
44.3513901321
  0
LINE
  5
120
330
1F
100
AcDbEntity
  8
0
  6
Continuous
 62
     7
370
    15
100
AcDbLine
 10
961.0247255945
 20
-1089.3660705995
 30
0.0
 11
961.0247255945
 21
-1047.2511571359
 31
0.0
  0
ARC
  5
121
330
1F
100
AcDbEntity
  8
0
  6
Continuous
 62
     7
370
    15
100
AcDbCircle
 10
958.6594856908
 20
-1045.4057673785
 30
0.0
 40
2.999999999999985
100
AcDbArc
 50
322.039022533
 51
142.039022533
  0
LINE
  5
122
330
1F
100
AcDbEntity
  8
0
  6
Continuous
 62
     7
370
    15
100
AcDbLine
 10
956.2941433573
 20
-1043.5603779267
 30
0.0
 11
946.4102627421
 21
-1043.5603779267
 31
0.0
  0
ARC
  5
123
330
1F
100
AcDbEntity
  8
0
  6
Continuous
 62
     7
370
    15
100
AcDbCircle
 10
944.2175035291
 20
-1045.6078169722
 30
0.0
 40
3.000000000000091
100
AcDbArc
 50
43.0373135493
 51
223.0373135493
  0
LINE
  5
124
330
1F
100
AcDbEntity
  8
0
  6
Continuous
 62
     7
370
    15
100
AcDbLine
 10
942.0247913981
 20
-1088.9993232202
 30
0.0
 11
942.0247913981
 21
-1047.6552170228
 31
0.0
  0
ARC
  5
125
330
1F
100
AcDbEntity
  8
0
  6
Continuous
 62
     7
370
    15
100
AcDbCircle
 10
943.9739283647
 20
-1091.2798666629
 30
0.0
 40
3.000000000000028
100
AcDbArc
 50
130.5203193527
 51
310.5203193527
  0
LINE
  5
126
330
1F
100
AcDbEntity
  8
0
  6
Continuous
 62
     7
370
    15
100
AcDbLine
 10
956.7343832636
 20
-1093.5603898477
 30
0.0
 11
945.9230543757
 21
-1093.5603898477
 31
0.0
  0
LINE
  5
127
330
1F
100
AcDbEntity
  8
0
  6
Continuous
 62
     7
370
    15
100
AcDbLine
 10
1717.4094559336
 20
-923.5028248738
 30
0.0
 11
952.6754261637
 21
-1146.0373919915
 31
0.0
  0
LINE
  5
128
330
1F
100
AcDbEntity
  8
0
  6
Continuous
 62
     7
370
    15
100
AcDbLine
 10
952.6754261637
 20
-1146.0373919915
 30
0.0
 11
749.9811889315
 21
-1146.0373919915
 31
0.0
  0
ARC
  5
129
330
1F
100
AcDbEntity
  8
0
  6
Continuous
 62
     7
370
    15
100
AcDbCircle
 10
869.8831557835
 20
-1141.1877622
 30
0.0
 40
120.0000000000003
100
AcDbArc
 50
101.982070428
 51
182.3161460052
  0
LINE
  5
12A
330
1F
100
AcDbEntity
  8
0
  6
Continuous
 62
     7
370
    15
100
AcDbLine
 10
844.9704887057
 20
-1023.8022726487
 30
0.0
 11
1017.3737646723
 21
-987.213186593
 31
0.0
  0
SPLINE
  5
12B
330
1F
100
AcDbEntity
  8
0
  6
Continuous
 62
     7
370
    15
100
AcDbSpline
210
0.0
220
0.0
230
1.0
 70
     8
 71
     3
 72
    12
 73
     8
 74
     0
 42
0.00000001
 43
0.00000001
 40
0.0
 40
0.0
 40
0.0
 40
0.0
 40
0.1881992071980512
 40
0.3727117551389525
 40
0.556203007425695
 40
0.7747812930317649
 40
1.0
 40
1.0
 40
1.0
 40
1.0
 10
1058.617437043212
 20
-998.2612651299501
 30
0.0
 10
1056.290473085972
 20
-996.8406386032165
 30
0.0
 10
1051.682128377404
 20
-994.0272143913993
 30
0.0
 10
1044.240551268515
 20
-990.8817261554248
 30
0.0
 10
1036.079360276061
 20
-988.5054844087531
 30
0.0
 10
1027.067866899195
 20
-987.0797653750352
 30
0.0
 10
1020.637205530643
 20
-987.1682714225052
 30
0.0
 10
1017.373764672302
 20
-987.2131865929628
 30
0.0
  0
LINE
  5
12C
330
1F
100
AcDbEntity
  8
0
  6
Continuous
 62
     7
370
    15
100
AcDbLine
 10
1058.6174370432
 20
-998.26126513
 30
0.0
 11
1060.0868107462
 21
-1000.5876940202
 31
0.0
  0
LINE
  5
12D
330
1F
100
AcDbEntity
  8
0
  6
Continuous
 62
     7
370
    15
100
AcDbLine
 10
1060.0868107462
 20
-1000.5876940202
 30
0.0
 11
1063.9220120096
 21
-1007.6655667733
 31
0.0
  0
ARC
  5
12E
330
1F
100
AcDbEntity
  8
0
  6
Continuous
 62
     7
370
    15
100
AcDbCircle
 10
1066.8202996454
 20
-1008.4401072371
 30
0.0
 40
3.000000000000349
100
AcDbArc
 50
165.0381755923
 51
345.0381755923
  0
LINE
  5
12F
330
1F
100
AcDbEntity
  8
0
  6
Continuous
 62
     7
370
    15
100
AcDbLine
 10
1079.5426012659
 20
-1003.8914006661
 30
0.0
 11
1069.718563714
 21
-1009.2146318864
 31
0.0
  0
ARC
  5
130
330
1F
100
AcDbEntity
  8
0
  6
Continuous
 62
     7
370
    15
100
AcDbCircle
 10
1080.7650344432
 20
-1001.1517409705
 30
0.0
 40
3.0000000000002
100
AcDbArc
 50
245.9530215067
 51
65.9530215067
  0
LINE
  5
131
330
1F
100
AcDbEntity
  8
0
  6
Continuous
 62
     7
370
    15
100
AcDbLine
 10
1074.6757628107
 20
-984.9184673738
 30
0.0
 11
1081.9874645853
 21
-998.4121244859
 31
0.0
  0
LINE
  5
132
330
1F
100
AcDbEntity
  8
0
  6
Continuous
 62
     7
370
    15
100
AcDbLine
 10
1092.5169827128
 20
-975.2509516191
 30
0.0
 11
1074.6757628107
 21
-984.9184673738
 31
0.0
  0
LINE
  5
133
330
1F
100
AcDbEntity
  8
0
  6
Continuous
 62
     7
370
    15
100
AcDbLine
 10
1099.5493771219
 20
-988.2293265771
 30
0.0
 11
1092.5169827128
 21
-975.2509516191
 31
0.0
  0
ARC
  5
134
330
1F
100
AcDbEntity
  8
0
  6
Continuous
 62
     7
370
    15
100
AcDbCircle
 10
1102.4259571589
 20
-989.0811915272
 30
0.0
 40
3.000000000000078
100
AcDbArc
 50
163.5041693265
 51
343.5041693266
  0
LINE
  5
135
330
1F
100
AcDbEntity
  8
0
  6
Continuous
 62
     7
370
    15
100
AcDbLine
 10
1133.0952288294
 20
-974.8731773805
 30
0.0
 11
1105.302536645
 21
-989.9330061387
 31
0.0
  0
ARC
  5
136
330
1F
100
AcDbEntity
  8
0
  6
Continuous
 62
     7
370
    15
100
AcDbCircle
 10
1134.3732011397
 20
-972.1590267409
 30
0.0
 40
3.000000000000028
100
AcDbArc
 50
244.785446715
 51
64.785446715
  0
LINE
  5
137
330
1F
100
AcDbEntity
  8
0
  6
Continuous
 62
     7
370
    15
100
AcDbLine
 10
1128.2928825999
 20
-955.8652561616
 30
0.0
 11
1135.6511952067
 21
-969.4448631715
 31
0.0
  0
LINE
  5
138
330
1F
100
AcDbEntity
  8
0
  6
Continuous
 62
     7
370
    15
100
AcDbLine
 10
1146.2278010035
 20
-946.1470168542
 30
0.0
 11
1128.2928825999
 21
-955.8652561616
 31
0.0
  0
LINE
  5
139
330
1F
100
AcDbEntity
  8
0
  6
Continuous
 62
     7
370
    15
100
AcDbLine
 10
1153.0162932062
 20
-958.674989314
 30
0.0
 11
1146.2278010035
 21
-946.1470168542
 31
0.0
  0
ARC
  5
13A
330
1F
100
AcDbEntity
  8
0
  6
Continuous
 62
     7
370
    15
100
AcDbCircle
 10
1155.7588726503
 20
-959.8907075108
 30
0.0
 40
2.999999999999971
100
AcDbArc
 50
156.0939644253
 51
336.0939644254
  0
LINE
  5
13B
330
1F
100
AcDbEntity
  8
0
  6
Continuous
 62
     7
370
    15
100
AcDbLine
 10
1158.5014702463
 20
-961.106411786
 30
0.0
 11
1187.5105740214
 21
-945.3874450635
 31
0.0
  0
ARC
  5
13C
330
1F
100
AcDbEntity
  8
0
  6
Continuous
 62
     7
370
    15
100
AcDbCircle
 10
1188.6432922394
 20
-942.60948457
 30
0.0
 40
3.000000000000063
100
AcDbArc
 50
247.8175514249
 51
67.8175514249
  0
LINE
  5
13D
330
1F
100
AcDbEntity
  8
0
  6
Continuous
 62
     7
370
    15
100
AcDbLine
 10
1182.5371624613
 20
-926.4723282765
 30
0.0
 11
1189.7759081507
 21
-939.83151731
 31
0.0
  0
LINE
  5
13E
330
1F
100
AcDbEntity
  8
0
  6
Continuous
 62
     7
370
    15
100
AcDbLine
 10
1200.4719616556
 20
-916.7540889691
 30
0.0
 11
1182.5371624613
 21
-926.4723282765
 31
0.0
  0
LINE
  5
13F
330
1F
100
AcDbEntity
  8
0
  6
Continuous
 62
     7
370
    15
100
AcDbLine
 10
1207.2971703196
 20
-929.3499511193
 30
0.0
 11
1200.4719616556
 21
-916.7540889691
 31
0.0
  0
ARC
  5
140
330
1F
100
AcDbEntity
  8
0
  6
Continuous
 62
     7
370
    15
100
AcDbCircle
 10
1210.0645231698
 20
-930.5083813842
 30
0.0
 40
2.999999999999936
100
AcDbArc
 50
157.2855303254
 51
337.2855303254
  0
LINE
  5
141
330
1F
100
AcDbEntity
  8
0
  6
Continuous
 62
     7
370
    15
100
AcDbLine
 10
1212.8318192148
 20
-931.6667836617
 30
0.0
 11
1227.8983236933
 21
-923.5028248738
 31
0.0
  0
LINE
  5
142
330
1F
100
AcDbEntity
  8
0
  6
Continuous
 62
     7
370
    15
100
AcDbLine
 10
1227.8983236933
 20
-923.5028248738
 30
0.0
 11
1243.2942034388
 21
-919.5157211732
 31
0.0
  0
ARC
  5
143
330
1F
100
AcDbEntity
  8
0
  6
Continuous
 62
     7
370
    15
100
AcDbCircle
 10
1244.9716380571
 20
-917.0285311966
 30
0.0
 40
2.999999999999951
100
AcDbArc
 50
236.0024633822
 51
56.0024633822
  0
LINE
  5
144
330
1F
100
AcDbEntity
  8
0
  6
Continuous
 62
     7
370
    15
100
AcDbLine
 10
1242.8822161341
 20
-899.9956172418
 30
0.0
 11
1246.6491104746
 21
-914.5413559388
 31
0.0
  0
LINE
  5
145
330
1F
100
AcDbEntity
  8
0
  6
Continuous
 62
     7
370
    15
100
AcDbLine
 10
1262.6293541575
 20
-894.881628127
 30
0.0
 11
1242.8822161341
 21
-899.9956172418
 31
0.0
  0
LINE
  5
146
330
1F
100
AcDbEntity
  8
0
  6
Continuous
 62
     7
370
    15
100
AcDbLine
 10
1266.2335278177
 20
-908.7989550542
 30
0.0
 11
1262.6293541575
 21
-894.881628127
 31
0.0
  0
ARC
  5
147
330
1F
100
AcDbEntity
  8
0
  6
Continuous
 62
     7
370
    15
100
AcDbCircle
 10
1268.6640191133
 20
-910.5575717411
 30
0.0
 40
2.999999999999973
100
AcDbArc
 50
144.1118571592
 51
324.1118571593
  0
LINE
  5
148
330
1F
100
AcDbEntity
  8
0
  6
Continuous
 62
     7
370
    15
100
AcDbLine
 10
1271.0945250178
 20
-912.3161953401
 30
0.0
 11
1287.6238466883
 21
-908.0355387639
 31
0.0
  0
LINE
  5
149
330
1F
100
AcDbEntity
  8
0
  6
Continuous
 62
     7
370
    15
100
AcDbLine
 10
1287.6238466883
 20
-908.0355387639
 30
0.0
 11
1302.8521181727
 21
-905.1983874749
 31
0.0
  0
ARC
  5
14A
330
1F
100
AcDbEntity
  8
0
  6
Continuous
 62
     7
370
    15
100
AcDbCircle
 10
1304.6127386782
 20
-902.7693760106
 30
0.0
 40
3.000000000000025
100
AcDbArc
 50
234.063614961
 51
54.063614961
  0
LINE
  5
14B
330
1F
100
AcDbEntity
  8
0
  6
Continuous
 62
     7
370
    15
100
AcDbLine
 10
1303.6499859476
 20
-885.7227784108
 30
0.0
 11
1306.3734413767
 21
-900.3403705071
 31
0.0
  0
LINE
  5
14C
330
1F
100
AcDbEntity
  8
0
  6
Continuous
 62
     7
370
    15
100
AcDbLine
 10
1323.1562019968
 20
-882.0886236142
 30
0.0
 11
1303.6499859476
 21
-885.7227784108
 31
0.0
  0
LINE
  5
14D
330
1F
100
AcDbEntity
  8
0
  6
Continuous
 62
     7
370
    15
100
AcDbLine
 10
1325.8934857035
 20
-896.7809599351
 30
0.0
 11
1323.1562019968
 21
-882.0886236142
 31
0.0
  0
ARC
  5
14E
330
1F
100
AcDbEntity
  8
0
  6
Continuous
 62
     7
370
    15
100
AcDbCircle
 10
1328.4386280766
 20
-898.3690751793
 30
0.0
 40
3.000000000000156
100
AcDbArc
 50
148.0368296026
 51
328.0368296026
  0
LINE
  5
14F
330
1F
100
AcDbEntity
  8
0
  6
Continuous
 62
     7
370
    15
100
AcDbLine
 10
1330.9838415766
 20
-899.9572020482
 30
0.0
 11
1348.275983491
 21
-896.7355113935
 31
0.0
  0
LINE
  5
150
330
1F
100
AcDbEntity
  8
0
  6
Continuous
 62
     7
370
    15
100
AcDbLine
 10
1348.275983491
 20
-896.7355113935
 30
0.0
 11
1362.3083473826
 21
-892.8182643365
 31
0.0
  0
ARC
  5
151
330
1F
100
AcDbEntity
  8
0
  6
Continuous
 62
     7
370
    15
100
AcDbCircle
 10
1363.9244880244
 20
-890.2908170051
 30
0.0
 40
3.000000000000033
100
AcDbArc
 50
237.4028407869
 51
57.4028407868
  0
LINE
  5
152
330
1F
100
AcDbEntity
  8
0
  6
Continuous
 62
     7
370
    15
100
AcDbLine
 10
1361.5073801661
 20
-873.3153861474
 30
0.0
 11
1365.5407072687
 21
-887.763373227
 31
0.0
  0
LINE
  5
153
330
1F
100
AcDbEntity
  8
0
  6
Continuous
 62
     7
370
    15
100
AcDbLine
 10
1379.8474909449
 20
-868.1955855798
 30
0.0
 11
1361.5073801661
 21
-873.3153861474
 31
0.0
  0
LINE
  5
154
330
1F
100
AcDbEntity
  8
0
  6
Continuous
 62
     7
370
    15
100
AcDbLine
 10
1383.7630392695
 20
-882.2218399953
 30
0.0
 11
1379.8474909449
 21
-868.1955855798
 31
0.0
  0
ARC
  5
155
330
1F
100
AcDbEntity
  8
0
  6
Continuous
 62
     7
370
    15
100
AcDbCircle
 10
1386.3044557055
 20
-883.81594036
 30
0.0
 40
2.999999999999926
100
AcDbArc
 50
147.9024631609
 51
327.9024631609
  0
LINE
  5
156
330
1F
100
AcDbEntity
  8
0
  6
Continuous
 62
     7
370
    15
100
AcDbLine
 10
1388.8458849573
 20
-885.4100328397
 30
0.0
 11
1407.6997877741
 21
-880.1467638921
 31
0.0
  0
LINE
  5
157
330
1F
100
AcDbEntity
  8
0
  6
Continuous
 62
     7
370
    15
100
AcDbLine
 10
1407.6997877741
 20
-880.1467638921
 30
0.0
 11
1422.4000813151
 21
-872.3394494962
 31
0.0
  0
ARC
  5
158
330
1F
100
AcDbEntity
  8
0
  6
Continuous
 62
     7
370
    15
100
AcDbCircle
 10
1423.0660233854
 20
-869.4142891098
 30
0.0
 40
3.000000000000088
100
AcDbArc
 50
257.1744611755
 51
77.1744611755
  0
LINE
  5
159
330
1F
100
AcDbEntity
  8
0
  6
Continuous
 62
     7
370
    15
100
AcDbLine
 10
1416.9504286432
 20
-853.7203293752
 30
0.0
 11
1423.7320067072
 21
-866.4891344022
 31
0.0
  0
LINE
  5
15A
330
1F
100
AcDbEntity
  8
0
  6
Continuous
 62
     7
370
    15
100
AcDbLine
 10
1435.1130367899
 20
-844.074122281
 30
0.0
 11
1416.9504286432
 21
-853.7203293752
 31
0.0
  0
LINE
  5
15B
330
1F
100
AcDbEntity
  8
0
  6
Continuous
 62
     7
370
    15
100
AcDbLine
 10
1441.9861675883
 20
-857.015244336
 30
0.0
 11
1435.1130367899
 21
-844.074122281
 31
0.0
  0
ARC
  5
15C
330
1F
100
AcDbEntity
  8
0
  6
Continuous
 62
     7
370
    15
100
AcDbCircle
 10
1444.8318473197
 20
-857.9648804659
 30
0.0
 40
2.999999999999993
100
AcDbArc
 50
161.5457586325
 51
341.5457586325
  0
LINE
  5
15D
330
1F
100
AcDbEntity
  8
0
  6
Continuous
 62
     7
370
    15
100
AcDbLine
 10
1447.6775766993
 20
-858.9145165395
 30
0.0
 11
1462.1877314234
 21
-851.2081724118
 31
0.0
  0
LINE
  5
15E
330
1F
100
AcDbEntity
  8
0
  6
Continuous
 62
     7
370
    15
100
AcDbLine
 10
1462.1877314234
 20
-851.2081724118
 30
0.0
 11
1477.3611666346
 21
-844.1386741113
 31
0.0
  0
ARC
  5
15F
330
1F
100
AcDbEntity
  8
0
  6
Continuous
 62
     7
370
    15
100
AcDbCircle
 10
1478.3329857074
 20
-841.3004195612
 30
0.0
 40
3.000000000000113
100
AcDbArc
 50
251.0992147841
 51
71.0992147841
  0
LINE
  5
160
330
1F
100
AcDbEntity
  8
0
  6
Continuous
 62
     7
370
    15
100
AcDbLine
 10
1473.1070639277
 20
-825.1597207498
 30
0.0
 11
1479.3047548914
 21
-838.4621661614
 31
0.0
  0
LINE
  5
161
330
1F
100
AcDbEntity
  8
0
  6
Continuous
 62
     7
370
    15
100
AcDbLine
 10
1491.597259202
 20
-816.5449124288
 30
0.0
 11
1473.1070639277
 21
-825.1597207498
 31
0.0
  0
LINE
  5
162
330
1F
100
AcDbEntity
  8
0
  6
Continuous
 62
     7
370
    15
100
AcDbLine
 10
1498.0444552088
 20
-830.3827267598
 30
0.0
 11
1491.597259202
 21
-816.5449124288
 31
0.0
  0
ARC
  5
163
330
1F
100
AcDbEntity
  8
0
  6
Continuous
 62
     7
370
    15
100
AcDbCircle
 10
1500.9614733877
 20
-831.083325819
 30
0.0
 40
3.000000000000012
100
AcDbArc
 50
166.4948349568
 51
346.4948349568
  0
LINE
  5
164
330
1F
100
AcDbEntity
  8
0
  6
Continuous
 62
     7
370
    15
100
AcDbLine
 10
1503.8785578394
 20
-831.7839127492
 30
0.0
 11
1518.1115509653
 21
-825.1525681924
 31
0.0
  0
LINE
  5
165
330
1F
100
AcDbEntity
  8
0
  6
Continuous
 62
     7
370
    15
100
AcDbLine
 10
1518.1115509653
 20
-825.1525681924
 30
0.0
 11
1534.2449785853
 21
-823.2096057843
 31
0.0
  0
ARC
  5
166
330
1F
100
AcDbEntity
  8
0
  6
Continuous
 62
     7
370
    15
100
AcDbCircle
 10
1536.3258363875
 20
-821.0485747521
 30
0.0
 40
2.999999999999913
100
AcDbArc
 50
226.0824580191
 51
46.0824580192
  0
LINE
  5
167
330
1F
100
AcDbEntity
  8
0
  6
Continuous
 62
     7
370
    15
100
AcDbLine
 10
1536.5885140085
 20
-803.7900548886
 30
0.0
 11
1538.4066940928
 21
-818.8875537824
 31
0.0
  0
LINE
  5
168
330
1F
100
AcDbEntity
  8
0
  6
Continuous
 62
     7
370
    15
100
AcDbLine
 10
1556.8407417917
 20
-801.3510328244
 30
0.0
 11
1536.5885140085
 21
-803.7900548886
 31
0.0
  0
LINE
  5
169
330
1F
100
AcDbEntity
  8
0
  6
Continuous
 62
     7
370
    15
100
AcDbLine
 10
1558.6542727137
 20
-816.409133048
 30
0.0
 11
1556.8407417917
 21
-801.3510328244
 31
0.0
  0
ARC
  5
16A
330
1F
100
AcDbEntity
  8
0
  6
Continuous
 62
     7
370
    15
100
AcDbCircle
 10
1561.174821808
 20
-818.035976926
 30
0.0
 40
2.99999999999977
100
AcDbArc
 50
147.1610840937
 51
327.1610840937
  0
LINE
  5
16B
330
1F
100
AcDbEntity
  8
0
  6
Continuous
 62
     7
370
    15
100
AcDbLine
 10
1563.6953951502
 20
-819.6628015946
 30
0.0
 11
1579.3648602152
 21
-817.7757185411
 31
0.0
  0
LINE
  5
16C
330
1F
100
AcDbEntity
  8
0
  6
Continuous
 62
     7
370
    15
100
AcDbLine
 10
1579.3648602152
 20
-817.7757185411
 30
0.0
 11
1594.9599386835
 21
-821.4407187413
 31
0.0
  0
ARC
  5
16D
330
1F
100
AcDbEntity
  8
0
  6
Continuous
 62
     7
370
    15
100
AcDbCircle
 10
1597.7340468886
 20
-820.2987598853
 30
0.0
 40
2.999999999999898
100
AcDbArc
 50
202.3740410529
 51
22.3740410529
  0
LINE
  5
16E
330
1F
100
AcDbEntity
  8
0
  6
Continuous
 62
     7
370
    15
100
AcDbLine
 10
1604.0559651041
 20
-804.0607493829
 30
0.0
 11
1600.5081774378
 21
-819.1568177651
 31
0.0
  0
LINE
  5
16F
330
1F
100
AcDbEntity
  8
0
  6
Continuous
 62
     7
370
    15
100
AcDbLine
 10
1623.9134909296
 20
-808.7274652432
 30
0.0
 11
1604.0559651041
 21
-804.0607493829
 31
0.0
  0
LINE
  5
170
330
1F
100
AcDbEntity
  8
0
  6
Continuous
 62
     7
370
    15
100
AcDbLine
 10
1620.6314207697
 20
-822.693191142
 30
0.0
 11
1623.9134909296
 21
-808.7274652432
 31
0.0
  0
ARC
  5
171
330
1F
100
AcDbEntity
  8
0
  6
Continuous
 62
     7
370
    15
100
AcDbCircle
 10
1621.9424370846
 20
-825.3915732223
 30
0.0
 40
3.000000000000059
100
AcDbArc
 50
115.9121185383
 51
295.9121185383
  0
LINE
  5
172
330
1F
100
AcDbEntity
  8
0
  6
Continuous
 62
     7
370
    15
100
AcDbLine
 10
1623.2534290934
 20
-828.0899744939
 30
0.0
 11
1639.4244076395
 21
-831.8903070401
 31
0.0
  0
LINE
  5
173
330
1F
100
AcDbEntity
  8
0
  6
Continuous
 62
     7
370
    15
100
AcDbLine
 10
1639.4244076395
 20
-831.8903070401
 30
0.0
 11
1652.8890968943
 21
-841.949335904
 31
0.0
  0
ARC
  5
174
330
1F
100
AcDbEntity
  8
0
  6
Continuous
 62
     7
370
    15
100
AcDbCircle
 10
1655.8412544791
 20
-841.4157368469
 30
0.0
 40
2.99999999999999
100
AcDbArc
 50
190.2456365293
 51
10.2456365293
  0
LINE
  5
175
330
1F
100
AcDbEntity
  8
0
  6
Continuous
 62
     7
370
    15
100
AcDbLine
 10
1667.53824965
 20
-829.1766267728
 30
0.0
 11
1658.7934137964
 21
-840.8821445416
 31
0.0
  0
LINE
  5
176
330
1F
100
AcDbEntity
  8
0
  6
Continuous
 62
     7
370
    15
100
AcDbLine
 10
1683.8800551081
 20
-841.3850885343
 30
0.0
 11
1667.53824965
 21
-829.1766267728
 31
0.0
  0
LINE
  5
177
330
1F
100
AcDbEntity
  8
0
  6
Continuous
 62
     7
370
    15
100
AcDbLine
 10
1674.7202517176
 20
-853.6462109994
 30
0.0
 11
1683.8800551081
 21
-841.3850885343
 31
0.0
  0
ARC
  5
178
330
1F
100
AcDbEntity
  8
0
  6
Continuous
 62
     7
370
    15
100
AcDbCircle
 10
1675.5079608512
 20
-856.5409272363
 30
0.0
 40
2.999999999999959
100
AcDbArc
 50
105.2234440557
 51
285.2234440557
  0
LINE
  5
179
330
1F
100
AcDbEntity
  8
0
  6
Continuous
 62
     7
370
    15
100
AcDbLine
 10
1676.2957216883
 20
-859.4356399488
 30
0.0
 11
1688.8504864359
 21
-868.8149374436
 31
0.0
  0
LINE
  5
17A
330
1F
100
AcDbEntity
  8
0
  6
Continuous
 62
     7
370
    15
100
AcDbLine
 10
1688.8504864359
 20
-868.8149374436
 30
0.0
 11
1696.182572999
 21
-882.855228753
 31
0.0
  0
ARC
  5
17B
330
1F
100
AcDbEntity
  8
0
  6
Continuous
 62
     7
370
    15
100
AcDbCircle
 10
1698.7831955253
 20
-884.3508857861
 30
0.0
 40
3.00000000000004
100
AcDbArc
 50
150.0958638654
 51
330.0958638654
  0
LINE
  5
17C
330
1F
100
AcDbEntity
  8
0
  6
Continuous
 62
     7
370
    15
100
AcDbLine
 10
1701.3837935114
 20
-885.8465474557
 30
0.0
 11
1715.36632792
 21
-878.5446208428
 31
0.0
  0
LINE
  5
17D
330
1F
100
AcDbEntity
  8
0
  6
Continuous
 62
     7
370
    15
100
AcDbLine
 10
1715.36632792
 20
-878.5446208428
 30
0.0
 11
1724.808776536
 21
-896.6261964749
 31
0.0
  0
LINE
  5
17E
330
1F
100
AcDbEntity
  8
0
  6
Continuous
 62
     7
370
    15
100
AcDbLine
 10
1712.0703102732
 20
-903.2784026574
 30
0.0
 11
1724.808776536
 21
-896.6261964749
 31
0.0
  0
ARC
  5
17F
330
1F
100
AcDbEntity
  8
0
  6
Continuous
 62
     7
370
    15
100
AcDbCircle
 10
1710.9021308814
 20
-906.0416167698
 30
0.0
 40
2.999999999999906
100
AcDbArc
 50
67.0826492123
 51
247.0826492123
  0
LINE
  5
180
330
1F
100
AcDbEntity
  8
0
  6
Continuous
 62
     7
370
    15
100
AcDbLine
 10
1709.7339274073
 20
-908.8048261117
 30
0.0
 11
1717.4094559336
 21
-923.5028248738
 31
0.0
  0
ARC
  5
181
330
1F
100
AcDbEntity
  8
0
  6
Continuous
 62
     7
370
    15
100
AcDbCircle
 10
1217.8442874591
 20
-952.3913243013
 30
0.0
 40
2.999999999999895
100
AcDbArc
 50
339.4241176077
 51
159.4241176077
  0
ARC
  5
182
330
1F
100
AcDbEntity
  8
0
  6
Continuous
 62
     7
370
    15
100
AcDbCircle
 10
1393.9369032981
 20
-585.685456807
 30
0.0
 40
2.999999999999955
100
AcDbArc
 50
321.2822796385
 51
141.2822796384
  0
LINE
  5
183
330
1F
100
AcDbEntity
  8
0
  6
Continuous
 62
     7
370
    15
100
AcDbLine
 10
1381.58329741
 20
-583.8090029072
 30
0.0
 11
1391.5961624766
 21
-583.8090029072
 31
0.0
  0
ARC
  5
184
330
1F
100
AcDbEntity
  8
0
  6
Continuous
 62
     7
370
    15
100
AcDbCircle
 10
1379.4304744602
 20
-585.8983092624
 30
0.0
 40
2.999999999999976
100
AcDbArc
 50
44.1416640032
 51
224.1416640031
  0
LINE
  5
185
330
1F
100
AcDbEntity
  8
0
  6
Continuous
 62
     7
370
    15
100
AcDbLine
 10
1377.2775770807
 20
-639.5089846562
 30
0.0
 11
1377.2775770807
 21
-587.9876163315
 31
0.0
  0
ARC
  5
186
330
1F
100
AcDbEntity
  8
0
  6
Continuous
 62
     7
370
    15
100
AcDbCircle
 10
1379.3698511157
 20
-641.6589943405
 30
0.0
 40
3.000000000003116
100
AcDbArc
 50
134.2197575482
 51
314.2197575483
  0
LINE
  5
187
330
1F
100
AcDbEntity
  8
0
  6
Continuous
 62
     7
370
    15
100
AcDbLine
 10
1391.7326571131
 20
-643.8089978408
 30
0.0
 11
1381.4620615626
 21
-643.8089978408
 31
0.0
  0
ARC
  5
188
330
1F
100
AcDbEntity
  8
0
  6
Continuous
 62
     7
370
    15
100
AcDbCircle
 10
1394.0051331513
 20
-641.8504774373
 30
0.0
 40
3.000000000000112
100
AcDbArc
 50
220.7562555673
 51
40.7562555673
  0
LINE
  5
189
330
1F
100
AcDbEntity
  8
0
  6
Continuous
 62
     7
370
    15
100
AcDbLine
 10
1396.2776304865
 20
-587.5619125079
 30
0.0
 11
1396.2776304865
 21
-639.8919444989
 31
0.0
  0
ARC
  5
18A
330
1F
100
AcDbEntity
  8
0
  6
Continuous
 62
     7
370
    15
100
AcDbCircle
 10
1467.1609331817
 20
-629.4205778155
 30
0.0
 40
3.000000000000365
100
AcDbArc
 50
183.647524639
 51
3.647524639
  0
LINE
  5
18B
330
1F
100
AcDbEntity
  8
0
  6
Continuous
 62
     7
370
    15
100
AcDbLine
 10
1495.3921677256
 20
-595.447815628
 30
0.0
 11
1470.1548458719
 21
-629.2297166299
 31
0.0
  0
ARC
  5
18C
330
1F
100
AcDbEntity
  8
0
  6
Continuous
 62
     7
370
    15
100
AcDbCircle
 10
1494.7602731008
 20
-592.5151292013
 30
0.0
 40
3.000000000000002
100
AcDbArc
 50
282.1599603205
 51
102.1599603206
  0
LINE
  5
18D
330
1F
100
AcDbEntity
  8
0
  6
Continuous
 62
     7
370
    15
100
AcDbLine
 10
1485.7937933588
 20
-583.3559331011
 30
0.0
 11
1494.1283108378
 21
-589.5824429106
 31
0.0
  0
ARC
  5
18E
330
1F
100
AcDbEntity
  8
0
  6
Continuous
 62
     7
370
    15
100
AcDbCircle
 10
1482.8437821889
 20
-583.9015522778
 30
0.0
 40
2.999999999999817
100
AcDbArc
 50
10.4788234137
 51
190.4788234136
  0
LINE
  5
18F
330
1F
100
AcDbEntity
  8
0
  6
Continuous
 62
     7
370
    15
100
AcDbLine
 10
1479.8937679911
 20
-584.4471674871
 30
0.0
 11
1454.8794867182
 21
-617.9306280326
 31
0.0
  0
ARC
  5
190
330
1F
100
AcDbEntity
  8
0
  6
Continuous
 62
     7
370
    15
100
AcDbCircle
 10
1455.6026973557
 20
-620.8421334981
 30
0.0
 40
2.999999999999953
100
AcDbArc
 50
103.950736634
 51
283.950736634
  0
LINE
  5
191
330
1F
100
AcDbEntity
  8
0
  6
Continuous
 62
     7
370
    15
100
AcDbLine
 10
1456.3259722376
 20
-623.7536441993
 30
0.0
 11
1464.1669632578
 21
-629.6114396762
 31
0.0
  0
ARC
  5
192
330
1F
100
AcDbEntity
  8
0
  6
Continuous
 62
     7
370
    15
100
AcDbCircle
 10
1061.7403237643
 20
-665.8514264675
 30
0.0
 40
2.99999999999992
100
AcDbArc
 50
339.4950463466
 51
159.4950463465
  0
LINE
  5
193
330
1F
100
AcDbEntity
  8
0
  6
Continuous
 62
     7
370
    15
100
AcDbLine
 10
1058.9303614283
 20
-664.8005616378
 30
0.0
 11
1048.9421726847
 21
-670.2127825927
 31
0.0
  0
ARC
  5
194
330
1F
100
AcDbEntity
  8
0
  6
Continuous
 62
     7
370
    15
100
AcDbCircle
 10
1048.4408452646
 20
-673.1705918006
 30
0.0
 40
3.000000000000715
100
AcDbArc
 50
80.3791656738
 51
260.3791656738
  0
LINE
  5
195
330
1F
100
AcDbEntity
  8
0
  6
Continuous
 62
     7
370
    15
100
AcDbLine
 10
1067.0584084177
 20
-711.4121836137
 30
0.0
 11
1047.9395033503
 21
-676.128394575
 31
0.0
  0
ARC
  5
196
330
1F
100
AcDbEntity
  8
0
  6
Continuous
 62
     7
370
    15
100
AcDbCircle
 10
1069.6406710858
 20
-712.9393254334
 30
0.0
 40
3.00000000000007
100
AcDbArc
 50
149.3995956002
 51
329.3995956003
  0
LINE
  5
197
330
1F
100
AcDbEntity
  8
0
  6
Continuous
 62
     7
370
    15
100
AcDbLine
 10
1082.2741629267
 20
-709.0200704049
 30
0.0
 11
1072.2229124689
 21
-714.4664746236
 31
0.0
  0
ARC
  5
198
330
1F
100
AcDbEntity
  8
0
  6
Continuous
 62
     7
370
    15
100
AcDbCircle
 10
1083.2945682487
 20
-706.1989586635
 30
0.0
 40
2.999999999999961
100
AcDbArc
 50
250.114005876
 51
70.1140058759
  0
LINE
  5
199
330
1F
100
AcDbEntity
  8
0
  6
Continuous
 62
     7
370
    15
100
AcDbLine
 10
1084.3150259638
 20
-703.377850027
 30
0.0
 11
1064.5502449656
 21
-666.9022959184
 31
0.0
  0
LINE
  5
19A
330
1F
100
AcDbEntity
  8
0
  6
Continuous
 62
     7
370
    15
100
AcDbLine
 10
800.9933473253
 20
-757.0213001679
 30
0.0
 11
790.328407445
 21
-757.0213001679
 31
0.0
  0
ARC
  5
19B
330
1F
100
AcDbEntity
  8
0
  6
Continuous
 62
     7
370
    15
100
AcDbCircle
 10
788.1264173617
 20
-759.0587722342
 30
0.0
 40
3.000000000000071
100
AcDbArc
 50
42.7777571164
 51
222.7777571164
  0
LINE
  5
19C
330
1F
100
AcDbEntity
  8
0
  6
Continuous
 62
     7
370
    15
100
AcDbLine
 10
785.9244586611
 20
-802.4376254987
 30
0.0
 11
785.9244586611
 21
-761.0962313127
 31
0.0
  0
ARC
  5
19D
330
1F
100
AcDbEntity
  8
0
  6
Continuous
 62
     7
370
    15
100
AcDbCircle
 10
787.8602730482
 20
-804.7294615212
 30
0.0
 40
3.000000000000136
100
AcDbArc
 50
130.1865825281
 51
310.1865825281
  0
LINE
  5
19E
330
1F
100
AcDbEntity
  8
0
  6
Continuous
 62
     7
370
    15
100
AcDbLine
 10
800.1340271616
 20
-807.0213120889
 30
0.0
 11
789.7961379671
 21
-807.0213120889
 31
0.0
  0
ARC
  5
19F
330
1F
100
AcDbEntity
  8
0
  6
Continuous
 62
     7
370
    15
100
AcDbCircle
 10
802.5292288406
 20
-805.21493105
 30
0.0
 40
3.000000000000079
100
AcDbArc
 50
217.0221687353
 51
37.0221687353
  0
LINE
  5
1A0
330
1F
100
AcDbEntity
  8
0
  6
Continuous
 62
     7
370
    15
100
AcDbLine
 10
804.9244524622
 20
-803.4085553597
 30
0.0
 11
804.9244524622
 21
-761.5541141938
 31
0.0
  0
ARC
  5
1A1
330
1F
100
AcDbEntity
  8
0
  6
Continuous
 62
     7
370
    15
100
AcDbCircle
 10
802.958878408
 20
-759.2877056283
 30
0.0
 40
3.00000000000003
100
AcDbArc
 50
310.9337606578
 51
130.9337606578
  0
LINE
  5
1A2
330
1F
100
AcDbEntity
  8
0
  6
Continuous
 62
     7
370
    15
100
AcDbLine
 10
1561.3091828013
 20
-636.9637173127
 30
0.0
 11
796.5750934267
 21
-859.4982844304
 31
0.0
  0
LINE
  5
1A3
330
1F
100
AcDbEntity
  8
0
  6
Continuous
 62
     7
370
    15
100
AcDbLine
 10
796.5750934267
 20
-859.4982844304
 30
0.0
 11
593.8808561945
 21
-859.4982844304
 31
0.0
  0
ARC
  5
1A4
330
1F
100
AcDbEntity
  8
0
  6
Continuous
 62
     7
370
    15
100
AcDbCircle
 10
713.7828170847
 20
-854.6486717461
 30
0.0
 40
120.0000000000002
100
AcDbArc
 50
101.982070428
 51
182.3161460052
  0
LINE
  5
1A5
330
1F
100
AcDbEntity
  8
0
  6
Continuous
 62
     7
370
    15
100
AcDbLine
 10
688.8701559687
 20
-737.2631650876
 30
0.0
 11
861.2734319353
 21
-700.674093933
 31
0.0
  0
SPLINE
  5
1A6
330
1F
100
AcDbEntity
  8
0
  6
Continuous
 62
     7
370
    15
100
AcDbSpline
210
0.0
220
0.0
230
1.0
 70
     8
 71
     3
 72
    12
 73
     8
 74
     0
 42
0.00000001
 43
0.00000001
 40
0.0
 40
0.0
 40
0.0
 40
0.0
 40
0.1916620115076253
 40
0.3780919861682823
 40
0.561878238106495
 40
0.7787037272316581
 40
0.9999999999999999
 40
0.9999999999999999
 40
0.9999999999999999
 40
0.9999999999999999
 10
861.2734319353327
 20
-700.6740939330125
 30
0.0
 10
864.0491985077031
 20
-700.6210733482299
 30
0.0
 10
869.5249580921493
 20
-700.5164795476611
 30
0.0
 10
877.6221245663886
 20
-701.5275650200671
 30
0.0
 10
885.8852270332648
 20
-703.5476957179866
 30
0.0
 10
894.3321946064854
 20
-706.7884395551603
 30
0.0
 10
899.7703430710299
 20
-710.0664348710557
 30
0.0
 10
902.5171639108881
 20
-711.7221575688386
 30
0.0
  0
LINE
  5
1A7
330
1F
100
AcDbEntity
  8
0
  6
Continuous
 62
     7
370
    15
100
AcDbLine
 10
903.9864184046
 20
-714.0486311626
 30
0.0
 11
902.5171639109
 21
-711.7221575688
 31
0.0
  0
LINE
  5
1A8
330
1F
100
AcDbEntity
  8
0
  6
Continuous
 62
     7
370
    15
100
AcDbLine
 10
907.9916121149
 20
-721.4400094461
 30
0.0
 11
903.9864184046
 21
-714.0486311626
 31
0.0
  0
ARC
  5
1A9
330
1F
100
AcDbEntity
  8
0
  6
Continuous
 62
     7
370
    15
100
AcDbCircle
 10
910.9419080665
 20
-721.9835435728
 30
0.0
 40
3.00000000000006
100
AcDbArc
 50
169.5617744558
 51
349.5617744558
  0
LINE
  5
1AA
330
1F
100
AcDbEntity
  8
0
  6
Continuous
 62
     7
370
    15
100
AcDbLine
 10
913.8922335291
 20
-722.5270789575
 30
0.0
 11
923.4035851145
 21
-717.3732441377
 31
0.0
  0
ARC
  5
1AB
330
1F
100
AcDbEntity
  8
0
  6
Continuous
 62
     7
370
    15
100
AcDbCircle
 10
924.6591847202
 20
-714.6486572813
 30
0.0
 40
2.999999999999986
100
AcDbArc
 50
245.257330563
 51
65.2573305629
  0
LINE
  5
1AC
330
1F
100
AcDbEntity
  8
0
  6
Continuous
 62
     7
370
    15
100
AcDbLine
 10
925.9148480082
 20
-711.924068303
 30
0.0
 11
918.5754896784
 21
-698.3793598126
 31
0.0
  0
LINE
  5
1AD
330
1F
100
AcDbEntity
  8
0
  6
Continuous
 62
     7
370
    15
100
AcDbLine
 10
918.5754896784
 20
-698.3793598126
 30
0.0
 11
936.4165903712
 21
-688.7118887614
 31
0.0
  0
LINE
  5
1AE
330
1F
100
AcDbEntity
  8
0
  6
Continuous
 62
     7
370
    15
100
AcDbLine
 10
936.4165903712
 20
-688.7118887614
 30
0.0
 11
943.4657932902
 21
-701.7210346173
 31
0.0
  0
ARC
  5
1AF
330
1F
100
AcDbEntity
  8
0
  6
Continuous
 62
     7
370
    15
100
AcDbCircle
 10
946.3491903802
 20
-702.5492340456
 30
0.0
 40
3.000000000000078
100
AcDbArc
 50
163.9745216232
 51
343.9745216232
  0
LINE
  5
1B0
330
1F
100
AcDbEntity
  8
0
  6
Continuous
 62
     7
370
    15
100
AcDbLine
 10
949.2326618815
 20
-703.3774327945
 30
0.0
 11
977.1883131647
 21
-688.2292252492
 31
0.0
  0
ARC
  5
1B1
330
1F
100
AcDbEntity
  8
0
  6
Continuous
 62
     7
370
    15
100
AcDbCircle
 10
978.3026117708
 20
-685.4438232405
 30
0.0
 40
3.000000000000131
100
AcDbArc
 50
248.1971127758
 51
68.1971127758
  0
LINE
  5
1B2
330
1F
100
AcDbEntity
  8
0
  6
Continuous
 62
     7
370
    15
100
AcDbLine
 10
979.4168116236
 20
-682.6584261369
 30
0.0
 11
972.1926094675
 21
-669.3261784028
 31
0.0
  0
LINE
  5
1B3
330
1F
100
AcDbEntity
  8
0
  6
Continuous
 62
     7
370
    15
100
AcDbLine
 10
972.1926094675
 20
-669.3261784028
 30
0.0
 11
990.1274086619
 21
-659.6079390954
 31
0.0
  0
LINE
  5
1B4
330
1F
100
AcDbEntity
  8
0
  6
Continuous
 62
     7
370
    15
100
AcDbLine
 10
990.1274086619
 20
-659.6079390954
 30
0.0
 11
997.2228647852
 21
-672.702379198
 31
0.0
  0
ARC
  5
1B5
330
1F
100
AcDbEntity
  8
0
  6
Continuous
 62
     7
370
    15
100
AcDbCircle
 10
1000.1241071346
 20
-673.465740866
 30
0.0
 40
2.999999999999873
100
AcDbArc
 50
165.2587660605
 51
345.2587660606
  0
LINE
  5
1B6
330
1F
100
AcDbEntity
  8
0
  6
Continuous
 62
     7
370
    15
100
AcDbLine
 10
1003.0253769541
 20
-674.2291074704
 30
0.0
 11
1031.2951447153
 21
-658.9107435655
 31
0.0
  0
ARC
  5
1B7
330
1F
100
AcDbEntity
  8
0
  6
Continuous
 62
     7
370
    15
100
AcDbCircle
 10
1032.5248002026
 20
-656.1743373144
 30
0.0
 40
2.999999999999875
100
AcDbArc
 50
245.8022307944
 51
65.8022307944
  0
LINE
  5
1B8
330
1F
100
AcDbEntity
  8
0
  6
Continuous
 62
     7
370
    15
100
AcDbLine
 10
1033.7544323588
 20
-653.4379344892
 30
0.0
 11
1026.4367701197
 21
-639.9332505178
 31
0.0
  0
LINE
  5
1B9
330
1F
100
AcDbEntity
  8
0
  6
Continuous
 62
     7
370
    15
100
AcDbLine
 10
1026.4367701197
 20
-639.9332505178
 30
0.0
 11
1044.371569314
 21
-630.2149963092
 31
0.0
  0
LINE
  5
1BA
330
1F
100
AcDbEntity
  8
0
  6
Continuous
 62
     7
370
    15
100
AcDbLine
 10
1044.371569314
 20
-630.2149963092
 30
0.0
 11
1051.304662385
 21
-643.0098336648
 31
0.0
  0
ARC
  5
1BB
330
1F
100
AcDbEntity
  8
0
  6
Continuous
 62
     7
370
    15
100
AcDbCircle
 10
1054.1345787348
 20
-644.0056531638
 30
0.0
 40
3.00000000000006
100
AcDbArc
 50
160.6135638169
 51
340.6135638169
  0
LINE
  5
1BC
330
1F
100
AcDbEntity
  8
0
  6
Continuous
 62
     7
370
    15
100
AcDbLine
 10
1056.9644810343
 20
-645.0014632653
 30
0.0
 11
1071.798050561
 21
-636.9637173127
 31
0.0
  0
LINE
  5
1BD
330
1F
100
AcDbEntity
  8
0
  6
Continuous
 62
     7
370
    15
100
AcDbLine
 10
1071.798050561
 20
-636.9637173127
 30
0.0
 11
1087.5328423166
 21
-632.8888308715
 31
0.0
  0
ARC
  5
1BE
330
1F
100
AcDbEntity
  8
0
  6
Continuous
 62
     7
370
    15
100
AcDbCircle
 10
1088.99518429
 20
-630.2693707422
 30
0.0
 40
2.999999999999973
100
AcDbArc
 50
240.8271165818
 51
60.8271165818
  0
LINE
  5
1BF
330
1F
100
AcDbEntity
  8
0
  6
Continuous
 62
     7
370
    15
100
AcDbLine
 10
1090.4575230265
 20
-627.6499104213
 30
0.0
 11
1086.7818237925
 21
-613.4565245818
 31
0.0
  0
LINE
  5
1C0
330
1F
100
AcDbEntity
  8
0
  6
Continuous
 62
     7
370
    15
100
AcDbLine
 10
1086.7818237925
 20
-613.4565245818
 30
0.0
 11
1106.5289618159
 21
-608.3425503682
 31
0.0
  0
LINE
  5
1C1
330
1F
100
AcDbEntity
  8
0
  6
Continuous
 62
     7
370
    15
100
AcDbLine
 10
1106.5289618159
 20
-608.3425503682
 30
0.0
 11
1110.1948858881
 21
-622.4979233455
 31
0.0
  0
ARC
  5
1C2
330
1F
100
AcDbEntity
  8
0
  6
Continuous
 62
     7
370
    15
100
AcDbCircle
 10
1112.7296564052
 20
-624.1025054196
 30
0.0
 40
2.999999999999936
100
AcDbArc
 50
147.6653853601
 51
327.6653853602
  0
LINE
  5
1C3
330
1F
100
AcDbEntity
  8
0
  6
Continuous
 62
     7
370
    15
100
AcDbLine
 10
1115.2644993448
 20
-625.7070970248
 30
0.0
 11
1131.523573556
 21
-621.496446104
 31
0.0
  0
LINE
  5
1C4
330
1F
100
AcDbEntity
  8
0
  6
Continuous
 62
     7
370
    15
100
AcDbLine
 10
1131.523573556
 20
-621.496446104
 30
0.0
 11
1146.7033268595
 21
-618.6683100175
 31
0.0
  0
ARC
  5
1C5
330
1F
100
AcDbEntity
  8
0
  6
Continuous
 62
     7
370
    15
100
AcDbCircle
 10
1148.4929985437
 20
-616.260608232
 30
0.0
 40
2.999999999999931
100
AcDbArc
 50
233.3760932231
 51
53.3760932231
  0
LINE
  5
1C6
330
1F
100
AcDbEntity
  8
0
  6
Continuous
 62
     7
370
    15
100
AcDbLine
 10
1150.2827049875
 20
-613.8528954696
 30
0.0
 11
1147.5497128153
 21
-599.1836857509
 31
0.0
  0
LINE
  5
1C7
330
1F
100
AcDbEntity
  8
0
  6
Continuous
 62
     7
370
    15
100
AcDbLine
 10
1147.5497128153
 20
-599.1836857509
 30
0.0
 11
1167.0558096552
 21
-595.5495309543
 31
0.0
  0
LINE
  5
1C8
330
1F
100
AcDbEntity
  8
0
  6
Continuous
 62
     7
370
    15
100
AcDbLine
 10
1167.0558096552
 20
-595.5495309543
 30
0.0
 11
1169.6328760767
 21
-609.3817424487
 31
0.0
  0
ARC
  5
1C9
330
1F
100
AcDbEntity
  8
0
  6
Continuous
 62
     7
370
    15
100
AcDbCircle
 10
1171.7654777649
 20
-611.4917134848
 30
0.0
 40
2.999999999999944
100
AcDbArc
 50
135.3055590877
 51
315.3055590877
  0
LINE
  5
1CA
330
1F
100
AcDbEntity
  8
0
  6
Continuous
 62
     7
370
    15
100
AcDbLine
 10
1173.8980652476
 20
-613.6016916942
 30
0.0
 11
1192.1757103586
 21
-610.1964187335
 31
0.0
  0
LINE
  5
1CB
330
1F
100
AcDbEntity
  8
0
  6
Continuous
 62
     7
370
    15
100
AcDbLine
 10
1192.1757103586
 20
-610.1964187335
 30
0.0
 11
1205.5229784632
 21
-606.4703982781
 31
0.0
  0
ARC
  5
1CC
330
1F
100
AcDbEntity
  8
0
  6
Continuous
 62
     7
370
    15
100
AcDbCircle
 10
1207.6131383883
 20
-604.3184082973
 30
0.0
 40
2.999999999999961
100
AcDbArc
 50
225.8344119683
 51
45.8344119684
  0
LINE
  5
1CD
330
1F
100
AcDbEntity
  8
0
  6
Continuous
 62
     7
370
    15
100
AcDbLine
 10
1209.7032906199
 20
-602.1664213847
 30
0.0
 11
1205.4069878245
 21
-586.776300938
 31
0.0
  0
LINE
  5
1CE
330
1F
100
AcDbEntity
  8
0
  6
Continuous
 62
     7
370
    15
100
AcDbLine
 10
1205.4069878245
 20
-586.776300938
 30
0.0
 11
1223.7470986033
 21
-581.6564929198
 31
0.0
  0
LINE
  5
1CF
330
1F
100
AcDbEntity
  8
0
  6
Continuous
 62
     7
370
    15
100
AcDbLine
 10
1223.7470986033
 20
-581.6564929198
 30
0.0
 11
1227.7314306879
 21
-595.9288996171
 31
0.0
  0
ARC
  5
1D0
330
1F
100
AcDbEntity
  8
0
  6
Continuous
 62
     7
370
    15
100
AcDbCircle
 10
1230.3656509344
 20
-597.3644175835
 30
0.0
 40
3.000000000000106
100
AcDbArc
 50
151.4122352343
 51
331.4122352343
  0
LINE
  5
1D1
330
1F
100
AcDbEntity
  8
0
  6
Continuous
 62
     7
370
    15
100
AcDbLine
 10
1232.9998852396
 20
-598.7999361466
 30
0.0
 11
1251.5995146418
 21
-593.6076861333
 31
0.0
  0
LINE
  5
1D2
330
1F
100
AcDbEntity
  8
0
  6
Continuous
 62
     7
370
    15
100
AcDbLine
 10
1251.5995146418
 20
-593.6076861333
 30
0.0
 11
1265.2083279276
 21
-586.3800045561
 31
0.0
  0
ARC
  5
1D3
330
1F
100
AcDbEntity
  8
0
  6
Continuous
 62
     7
370
    15
100
AcDbCircle
 10
1266.7656453768
 20
-583.8158888703
 30
0.0
 40
3.000000000000098
100
AcDbArc
 50
238.7273046765
 51
58.7273046765
  0
LINE
  5
1D4
330
1F
100
AcDbEntity
  8
0
  6
Continuous
 62
     7
370
    15
100
AcDbLine
 10
1268.323028245
 20
-581.2517699312
 30
0.0
 11
1260.8501555109
 21
-567.1812441658
 31
0.0
  0
LINE
  5
1D5
330
1F
100
AcDbEntity
  8
0
  6
Continuous
 62
     7
370
    15
100
AcDbLine
 10
1260.8501555109
 20
-567.1812441658
 30
0.0
 11
1279.0127636576
 21
-557.5350445222
 31
0.0
  0
LINE
  5
1D6
330
1F
100
AcDbEntity
  8
0
  6
Continuous
 62
     7
370
    15
100
AcDbLine
 10
1279.0127636576
 20
-557.5350445222
 30
0.0
 11
1285.7581020975
 21
-570.235795946
 31
0.0
  0
ARC
  5
1D7
330
1F
100
AcDbEntity
  8
0
  6
Continuous
 62
     7
370
    15
100
AcDbCircle
 10
1288.5323999654
 20
-571.3774617941
 30
0.0
 40
3.000000000000158
100
AcDbArc
 50
157.6318887683
 51
337.6318887683
  0
LINE
  5
1D8
330
1F
100
AcDbEntity
  8
0
  6
Continuous
 62
     7
370
    15
100
AcDbLine
 10
1291.3066984797
 20
-572.5191306781
 30
0.0
 11
1306.0873390818
 21
-564.6690723013
 31
0.0
  0
LINE
  5
1D9
330
1F
100
AcDbEntity
  8
0
  6
Continuous
 62
     7
370
    15
100
AcDbLine
 10
1306.0873390818
 20
-564.6690723013
 30
0.0
 11
1320.956552186
 21
-557.7413734507
 31
0.0
  0
ARC
  5
1DA
330
1F
100
AcDbEntity
  8
0
  6
Continuous
 62
     7
370
    15
100
AcDbCircle
 10
1322.1544031483
 20
-554.9909105076
 30
0.0
 40
2.999999999999978
100
AcDbArc
 50
246.4656191855
 51
66.4656191856
  0
LINE
  5
1DB
330
1F
100
AcDbEntity
  8
0
  6
Continuous
 62
     7
370
    15
100
AcDbLine
 10
1323.3523012781
 20
-552.2404458832
 30
0.0
 11
1317.0066715861
 21
-538.620642991
 31
0.0
  0
LINE
  5
1DC
330
1F
100
AcDbEntity
  8
0
  6
Continuous
 62
     7
370
    15
100
AcDbLine
 10
1317.0066715861
 20
-538.620642991
 30
0.0
 11
1335.4968668604
 21
-530.0058309447
 31
0.0
  0
LINE
  5
1DD
330
1F
100
AcDbEntity
  8
0
  6
Continuous
 62
     7
370
    15
100
AcDbLine
 10
1335.4968668604
 20
-530.0058309447
 30
0.0
 11
1341.5431620264
 21
-542.9831516456
 31
0.0
  0
ARC
  5
1DE
330
1F
100
AcDbEntity
  8
0
  6
Continuous
 62
     7
370
    15
100
AcDbCircle
 10
1344.2319573841
 20
-544.31373974
 30
0.0
 40
3.000000000000181
100
AcDbArc
 50
153.6707099717
 51
333.6707099718
  0
LINE
  5
1DF
330
1F
100
AcDbEntity
  8
0
  6
Continuous
 62
     7
370
    15
100
AcDbLine
 10
1346.9206930781
 20
-545.6443276714
 30
0.0
 11
1362.011277833
 21
-538.6134755324
 31
0.0
  0
LINE
  5
1E0
330
1F
100
AcDbEntity
  8
0
  6
Continuous
 62
     7
370
    15
100
AcDbLine
 10
1362.011277833
 20
-538.6134755324
 30
0.0
 11
1378.458464303
 21
-536.6327088784
 31
0.0
  0
ARC
  5
1E1
330
1F
100
AcDbEntity
  8
0
  6
Continuous
 62
     7
370
    15
100
AcDbCircle
 10
1380.361038267
 20
-534.3132015938
 30
0.0
 40
3.000000000000024
100
AcDbArc
 50
230.6393098926
 51
50.6393098926
  0
LINE
  5
1E2
330
1F
100
AcDbEntity
  8
0
  6
Continuous
 62
     7
370
    15
100
AcDbLine
 10
1382.2636248255
 20
-531.9936942767
 30
0.0
 11
1380.4881216669
 21
-517.2509771298
 31
0.0
  0
LINE
  5
1E3
330
1F
100
AcDbEntity
  8
0
  6
Continuous
 62
     7
370
    15
100
AcDbLine
 10
1380.4881216669
 20
-517.2509771298
 30
0.0
 11
1400.7404686594
 21
-514.8119550656
 31
0.0
  0
LINE
  5
1E4
330
1F
100
AcDbEntity
  8
0
  6
Continuous
 62
     7
370
    15
100
AcDbLine
 10
1400.7404686594
 20
-514.8119550656
 30
0.0
 11
1402.4293066645
 21
-528.8357470643
 31
0.0
  0
ARC
  5
1E5
330
1F
100
AcDbEntity
  8
0
  6
Continuous
 62
     7
370
    15
100
AcDbCircle
 10
1404.4571883107
 20
-531.0465764341
 30
0.0
 40
3.0000000000009
100
AcDbArc
 50
132.5283246217
 51
312.5283246217
  0
LINE
  5
1E6
330
1F
100
AcDbEntity
  8
0
  6
Continuous
 62
     7
370
    15
100
AcDbLine
 10
1406.4850451136
 20
-533.2574096035
 30
0.0
 11
1423.2644678736
 21
-531.2366258811
 31
0.0
  0
LINE
  5
1E7
330
1F
100
AcDbEntity
  8
0
  6
Continuous
 62
     7
370
    15
100
AcDbLine
 10
1423.2644678736
 20
-531.2366258811
 30
0.0
 11
1439.5316483164
 21
-535.0595709394
 31
0.0
  0
ARC
  5
1E8
330
1F
100
AcDbEntity
  8
0
  6
Continuous
 62
     7
370
    15
100
AcDbCircle
 10
1442.0616885984
 20
-533.4474616999
 30
0.0
 40
2.999999999999911
100
AcDbArc
 50
212.5048177085
 51
32.5048177085
  0
LINE
  5
1E9
330
1F
100
AcDbEntity
  8
0
  6
Continuous
 62
     7
370
    15
100
AcDbLine
 10
1444.59172503
 20
-531.8353470873
 30
0.0
 11
1447.9555727625
 21
-517.5216492723
 31
0.0
  0
LINE
  5
1EA
330
1F
100
AcDbEntity
  8
0
  6
Continuous
 62
     7
370
    15
100
AcDbLine
 10
1447.9555727625
 20
-517.5216492723
 30
0.0
 11
1467.8132177973
 21
-522.1883837592
 31
0.0
  0
LINE
  5
1EB
330
1F
100
AcDbEntity
  8
0
  6
Continuous
 62
     7
370
    15
100
AcDbLine
 10
1467.8132177973
 20
-522.1883837592
 30
0.0
 11
1464.4232632303
 21
-536.6131809067
 31
0.0
  0
ARC
  5
1EC
330
1F
100
AcDbEntity
  8
0
  6
Continuous
 62
     7
370
    15
100
AcDbCircle
 10
1466.038889579
 20
-539.1409550903
 30
0.0
 40
3.000000000000011
100
AcDbArc
 50
122.5851842049
 51
302.5851842049
  0
LINE
  5
1ED
330
1F
100
AcDbEntity
  8
0
  6
Continuous
 62
     7
370
    15
100
AcDbLine
 10
1467.6545502329
 20
-541.6687276672
 30
0.0
 11
1483.3240152979
 21
-545.3512143802
 31
0.0
  0
LINE
  5
1EE
330
1F
100
AcDbEntity
  8
0
  6
Continuous
 62
     7
370
    15
100
AcDbLine
 10
1483.3240152979
 20
-545.3512143802
 30
0.0
 11
1496.6382624293
 21
-555.2978139829
 31
0.0
  0
ARC
  5
1EF
330
1F
100
AcDbEntity
  8
0
  6
Continuous
 62
     7
370
    15
100
AcDbCircle
 10
1499.6109110894
 20
-554.8937207364
 30
0.0
 40
2.999999999999867
100
AcDbArc
 50
187.7412078877
 51
7.7412078878
  0
LINE
  5
1F0
330
1F
100
AcDbEntity
  8
0
  6
Continuous
 62
     7
370
    15
100
AcDbLine
 10
1502.583587327
 20
-554.4896271538
 30
0.0
 11
1511.4378573084
 21
-542.6375266623
 31
0.0
  0
LINE
  5
1F1
330
1F
100
AcDbEntity
  8
0
  6
Continuous
 62
     7
370
    15
100
AcDbLine
 10
1511.4378573084
 20
-542.6375266623
 30
0.0
 11
1527.7797819758
 21
-554.8459884237
 31
0.0
  0
LINE
  5
1F2
330
1F
100
AcDbEntity
  8
0
  6
Continuous
 62
     7
370
    15
100
AcDbLine
 10
1527.7797819758
 20
-554.8459884237
 30
0.0
 11
1518.9365984583
 21
-566.6830908965
 31
0.0
  0
ARC
  5
1F3
330
1F
100
AcDbEntity
  8
0
  6
Continuous
 62
     7
370
    15
100
AcDbCircle
 10
1519.3791975164
 20
-569.650265669
 30
0.0
 40
3.000000000000129
100
AcDbArc
 50
98.4831344646
 51
278.4831344646
  0
LINE
  5
1F4
330
1F
100
AcDbEntity
  8
0
  6
Continuous
 62
     7
370
    15
100
AcDbLine
 10
1519.8217274332
 20
-572.6174410891
 30
0.0
 11
1532.7502133036
 21
-582.2758596849
 31
0.0
  0
LINE
  5
1F5
330
1F
100
AcDbEntity
  8
0
  6
Continuous
 62
     7
370
    15
100
AcDbLine
 10
1532.7502133036
 20
-582.2758596849
 30
0.0
 11
1540.3794886255
 21
-596.8851816367
 31
0.0
  0
ARC
  5
1F6
330
1F
100
AcDbEntity
  8
0
  6
Continuous
 62
     7
370
    15
100
AcDbCircle
 10
1543.2014782255
 20
-597.9030770734
 30
0.0
 40
2.999999999999928
100
AcDbArc
 50
160.1660115883
 51
340.1660115883
  0
LINE
  5
1F7
330
1F
100
AcDbEntity
  8
0
  6
Continuous
 62
     7
370
    15
100
AcDbLine
 10
1546.0235716486
 20
-598.9209633779
 30
0.0
 11
1559.2659355784
 21
-592.0055430841
 31
0.0
  0
LINE
  5
1F8
330
1F
100
AcDbEntity
  8
0
  6
Continuous
 62
     7
370
    15
100
AcDbLine
 10
1559.2659355784
 20
-592.0055430841
 30
0.0
 11
1568.7085034037
 21
-610.0870889138
 31
0.0
  0
LINE
  5
1F9
330
1F
100
AcDbEntity
  8
0
  6
Continuous
 62
     7
370
    15
100
AcDbLine
 10
1556.0625435496
 20
-616.6909855317
 30
0.0
 11
1568.7085034037
 21
-610.0870889138
 31
0.0
  0
ARC
  5
1FA
330
1F
100
AcDbEntity
  8
0
  6
Continuous
 62
     7
370
    15
100
AcDbCircle
 10
1554.8179196321
 20
-619.420601397
 30
0.0
 40
2.999999999999956
100
AcDbArc
 50
65.4879181616
 51
245.4879181616
  0
LINE
  5
1FB
330
1F
100
AcDbEntity
  8
0
  6
Continuous
 62
     7
370
    15
100
AcDbLine
 10
1553.5732151652
 20
-622.1502196502
 30
0.0
 11
1561.3091828013
 21
-636.9637173127
 31
0.0
  0
LINE
  5
1FC
330
1F
100
AcDbEntity
  8
0
  6
Continuous
 62
     7
370
    15
100
AcDbLine
 10
-736.927425704
 20
-601.8935662221
 30
0.0
 11
-157.2392938947
 21
-601.8935662221
 31
0.0
  0
LINE
  5
1FD
330
1F
100
AcDbEntity
  8
0
  6
Continuous
 62
     7
370
    15
100
AcDbLine
 10
-741.6075824117
 20
-578.7942927789
 30
0.0
 11
-755.9274195051
 21
-578.7942927789
 31
0.0
  0
LINE
  5
1FE
330
1F
100
AcDbEntity
  8
0
  6
Continuous
 62
     7
370
    15
100
AcDbLine
 10
-138.2392935744
 20
-578.7942927789
 30
0.0
 11
-153.2390380567
 21
-578.7942927789
 31
0.0
  0
ARC
  5
1FF
330
1F
100
AcDbEntity
  8
0
  6
Continuous
 62
     7
370
    15
100
AcDbCircle
 10
-155.2391659603
 20
-581.0302466879
 30
0.0
 40
3.00000000000008
100
AcDbArc
 50
48.1864099042
 51
228.1864099042
  0
LINE
  5
200
330
1F
100
AcDbEntity
  8
0
  6
Continuous
 62
     7
370
    15
100
AcDbLine
 10
-736.927425704
 20
-505.9543434989
 30
0.0
 11
-157.2392938947
 21
-505.9543434989
 31
0.0
  0
LINE
  5
201
330
1F
100
AcDbEntity
  8
0
  6
Continuous
 62
     7
370
    15
100
AcDbLine
 10
-736.927425704
 20
-601.8935662221
 30
0.0
 11
-736.927425704
 21
-582.548811705
 31
0.0
  0
LINE
  5
202
330
1F
100
AcDbEntity
  8
0
  6
Continuous
 62
     7
370
    15
100
AcDbLine
 10
-157.2392938947
 20
-601.8935662221
 30
0.0
 11
-157.2392938947
 21
-583.2661983084
 31
0.0
  0
ARC
  5
203
330
1F
100
AcDbEntity
  8
0
  6
Continuous
 62
     7
370
    15
100
AcDbCircle
 10
-155.1477345883
 20
-526.6436233401
 30
0.0
 40
3.000000000000031
100
AcDbArc
 50
134.2017018104
 51
314.2017018104
  0
LINE
  5
204
330
1F
100
AcDbEntity
  8
0
  6
Continuous
 62
     7
370
    15
100
AcDbLine
 10
-755.9274195051
 20
-528.7942920338
 30
0.0
 11
-741.7553423261
 21
-528.7942920338
 31
0.0
  0
LINE
  5
205
330
1F
100
AcDbEntity
  8
0
  6
Continuous
 62
     7
370
    15
100
AcDbLine
 10
-157.2392938947
 20
-524.4929526459
 30
0.0
 11
-157.2392938947
 21
-505.9543434989
 31
0.0
  0
LINE
  5
206
330
1F
100
AcDbEntity
  8
0
  6
Continuous
 62
     7
370
    15
100
AcDbLine
 10
-736.927425704
 20
-525.231804372
 30
0.0
 11
-736.927425704
 21
-505.9543434989
 31
0.0
  0
LINE
  5
207
330
1F
100
AcDbEntity
  8
0
  6
Continuous
 62
     7
370
    15
100
AcDbLine
 10
-138.2392935744
 20
-528.7942920338
 30
0.0
 11
-138.2392935744
 21
-578.7942927789
 31
0.0
  0
LINE
  5
208
330
1F
100
AcDbEntity
  8
0
  6
Continuous
 62
     7
370
    15
100
AcDbLine
 10
-153.0561747318
 20
-528.7942920338
 30
0.0
 11
-138.2392935744
 21
-528.7942920338
 31
0.0
  0
ARC
  5
209
330
1F
100
AcDbEntity
  8
0
  6
Continuous
 62
     7
370
    15
100
AcDbCircle
 10
-739.2674945207
 20
-580.6715510513
 30
0.0
 40
3.00000000000012
100
AcDbArc
 50
321.2625471952
 51
141.2625471952
  0
ARC
  5
20A
330
1F
100
AcDbEntity
  8
0
  6
Continuous
 62
     7
370
    15
100
AcDbCircle
 10
-739.341382963
 20
-527.0130489015
 30
0.0
 40
3.000000000000119
100
AcDbArc
 50
216.4234345217
 51
36.4234345217
  0
LINE
  5
20B
330
1F
100
AcDbEntity
  8
0
  6
Continuous
 62
     7
370
    15
100
AcDbLine
 10
-755.9274195051
 20
-578.7942927789
 30
0.0
 11
-755.9274195051
 21
-528.7942920338
 31
0.0
  0
LINE
  5
20C
330
1F
100
AcDbEntity
  8
0
  6
Continuous
 62
     7
370
    15
100
AcDbLine
 10
-786.8867276525
 20
-758.6912136983
 30
0.0
 11
-207.1986107445
 21
-758.6912136983
 31
0.0
  0
LINE
  5
20D
330
1F
100
AcDbEntity
  8
0
  6
Continuous
 62
     7
370
    15
100
AcDbLine
 10
-786.8867276525
 20
-758.6912136983
 30
0.0
 11
-786.8867276525
 21
-732.3764186811
 31
0.0
  0
ARC
  5
20E
330
1F
100
AcDbEntity
  8
0
  6
Continuous
 62
     7
370
    15
100
AcDbCircle
 10
-788.9066409266
 20
-730.1583099801
 30
0.0
 40
3.000000000000145
100
AcDbArc
 50
312.3220467223
 51
132.3220467222
  0
LINE
  5
20F
330
1F
100
AcDbEntity
  8
0
  6
Continuous
 62
     7
370
    15
100
AcDbLine
 10
-790.9265516615
 20
-727.940193982
 30
0.0
 11
-805.8867214536
 21
-727.940193982
 31
0.0
  0
LINE
  5
210
330
1F
100
AcDbEntity
  8
0
  6
Continuous
 62
     7
370
    15
100
AcDbLine
 10
-805.8867214536
 20
-677.9401969623
 30
0.0
 11
-805.8867214536
 21
-727.940193982
 31
0.0
  0
LINE
  5
211
330
1F
100
AcDbEntity
  8
0
  6
Continuous
 62
     7
370
    15
100
AcDbLine
 10
-805.8867214536
 20
-677.9401969623
 30
0.0
 11
-790.8801792478
 21
-677.9401969623
 31
0.0
  0
ARC
  5
212
330
1F
100
AcDbEntity
  8
0
  6
Continuous
 62
     7
370
    15
100
AcDbCircle
 10
-788.8834582592
 20
-675.7011861549
 30
0.0
 40
2.999999999999971
100
AcDbArc
 50
228.2739685887
 51
48.2739685887
  0
LINE
  5
213
330
1F
100
AcDbEntity
  8
0
  6
Continuous
 62
     7
370
    15
100
AcDbLine
 10
-786.8867276525
 20
-673.4621745061
 30
0.0
 11
-786.8867276525
 21
-659.5958542537
 31
0.0
  0
LINE
  5
214
330
1F
100
AcDbEntity
  8
0
  6
Continuous
 62
     7
370
    15
100
AcDbLine
 10
-786.8867276525
 20
-659.5958542537
 30
0.0
 11
-506.5426884508
 21
-659.5958542537
 31
0.0
  0
LINE
  5
215
330
1F
100
AcDbEntity
  8
0
  6
Continuous
 62
     7
370
    15
100
AcDbLine
 10
-506.5426884508
 20
-674.6860366773
 30
0.0
 11
-506.5426884508
 21
-659.5958542537
 31
0.0
  0
ARC
  5
216
330
1F
100
AcDbEntity
  8
0
  6
Continuous
 62
     7
370
    15
100
AcDbCircle
 10
-504.9912374076
 20
-677.2537177598
 30
0.0
 40
3.000000000000182
100
AcDbArc
 50
121.1411443852
 51
301.1411443852
  0
LINE
  5
217
330
1F
100
AcDbEntity
  8
0
  6
Continuous
 62
     7
370
    15
100
AcDbLine
 10
-492.6203547334
 20
-679.8214089583
 30
0.0
 11
-503.4397898531
 21
-679.8214089583
 31
0.0
  0
ARC
  5
218
330
1F
100
AcDbEntity
  8
0
  6
Continuous
 62
     7
370
    15
100
AcDbCircle
 10
-490.0815119455
 20
-678.2231750545
 30
0.0
 40
3.000000000000077
100
AcDbArc
 50
212.1910106525
 51
32.1910106525
  0
LINE
  5
219
330
1F
100
AcDbEntity
  8
0
  6
Continuous
 62
     7
370
    15
100
AcDbLine
 10
-487.5426946497
 20
-659.5958542537
 30
0.0
 11
-487.5426946497
 21
-676.6249459695
 31
0.0
  0
LINE
  5
21A
330
1F
100
AcDbEntity
  8
0
  6
Continuous
 62
     7
370
    15
100
AcDbLine
 10
-487.5426946497
 20
-659.5958542537
 30
0.0
 11
-207.1986107445
 21
-659.5958542537
 31
0.0
  0
LINE
  5
21B
330
1F
100
AcDbEntity
  8
0
  6
Continuous
 62
     7
370
    15
100
AcDbLine
 10
-207.1986107445
 20
-673.4603267621
 30
0.0
 11
-207.1986107445
 21
-659.5958542537
 31
0.0
  0
ARC
  5
21C
330
1F
100
AcDbEntity
  8
0
  6
Continuous
 62
     7
370
    15
100
AcDbCircle
 10
-205.2029404278
 20
-675.7002632682
 30
0.0
 40
3.00000000000005
100
AcDbArc
 50
131.6995422067
 51
311.6995422067
  0
LINE
  5
21D
330
1F
100
AcDbEntity
  8
0
  6
Continuous
 62
     7
370
    15
100
AcDbLine
 10
-203.2072676635
 20
-677.9401969623
 30
0.0
 11
-188.198613218
 21
-677.9401969623
 31
0.0
  0
LINE
  5
21E
330
1F
100
AcDbEntity
  8
0
  6
Continuous
 62
     7
370
    15
100
AcDbLine
 10
-188.198613218
 20
-727.940193982
 30
0.0
 11
-188.198613218
 21
-677.9401969623
 31
0.0
  0
LINE
  5
21F
330
1F
100
AcDbEntity
  8
0
  6
Continuous
 62
     7
370
    15
100
AcDbLine
 10
-188.198613218
 20
-727.940193982
 30
0.0
 11
-203.1608877992
 21
-727.940193982
 31
0.0
  0
ARC
  5
220
330
1F
100
AcDbEntity
  8
0
  6
Continuous
 62
     7
370
    15
100
AcDbCircle
 10
-205.179750342
 20
-730.1592456226
 30
0.0
 40
3.000000000000108
100
AcDbArc
 50
47.7045002584
 51
227.7045002584
  0
LINE
  5
221
330
1F
100
AcDbEntity
  8
0
  6
Continuous
 62
     7
370
    15
100
AcDbLine
 10
-207.1986107445
 20
-758.6912136983
 30
0.0
 11
-207.1986107445
 21
-732.3782962274
 31
0.0
  0
LINE
  5
222
330
1F
100
AcDbEntity
  8
0
  6
Continuous
 62
     7
370
    15
100
AcDbLine
 10
-779.0207026815
 20
-953.7627917241
 30
0.0
 11
-161.3325497424
 21
-953.7627917241
 31
0.0
  0
LINE
  5
223
330
1F
100
AcDbEntity
  8
0
  6
Continuous
 62
     7
370
    15
100
AcDbLine
 10
-779.0207026815
 20
-953.7627917241
 30
0.0
 11
-779.0207026815
 21
-917.2611754846
 31
0.0
  0
ARC
  5
224
330
1F
100
AcDbEntity
  8
0
  6
Continuous
 62
     7
370
    15
100
AcDbCircle
 10
-781.0217741027
 20
-915.0260683262
 30
0.0
 40
3.000000000000389
100
AcDbArc
 50
311.8382237436
 51
131.8382237436
  0
LINE
  5
225
330
1F
100
AcDbEntity
  8
0
  6
Continuous
 62
     7
370
    15
100
AcDbLine
 10
-798.0206964826
 20
-912.790976138
 30
0.0
 11
-783.022856555
 21
-912.790976138
 31
0.0
  0
LINE
  5
226
330
1F
100
AcDbEntity
  8
0
  6
Continuous
 62
     7
370
    15
100
AcDbLine
 10
-798.0206964826
 20
-862.7909642171
 30
0.0
 11
-798.0206964826
 21
-912.790976138
 31
0.0
  0
LINE
  5
227
330
1F
100
AcDbEntity
  8
0
  6
Continuous
 62
     7
370
    15
100
AcDbLine
 10
-784.0073464727
 20
-862.7909642171
 30
0.0
 11
-798.0206964826
 21
-862.7909642171
 31
0.0
  0
ARC
  5
228
330
1F
100
AcDbEntity
  8
0
  6
Continuous
 62
     7
370
    15
100
AcDbCircle
 10
-781.5140129338
 20
-861.1226473441
 30
0.0
 40
3.000000000000163
100
AcDbArc
 50
213.7871448171
 51
33.7871448171
  0
LINE
  5
229
330
1F
100
AcDbEntity
  8
0
  6
Continuous
 62
     7
370
    15
100
AcDbLine
 10
-779.0207026815
 20
-859.4543260049
 30
0.0
 11
-779.0207026815
 21
-821.819148631
 31
0.0
  0
LINE
  5
22A
330
1F
100
AcDbEntity
  8
0
  6
Continuous
 62
     7
370
    15
100
AcDbLine
 10
-779.0207026815
 20
-821.819148631
 30
0.0
 11
-161.3325497424
 21
-821.819148631
 31
0.0
  0
LINE
  5
22B
330
1F
100
AcDbEntity
  8
0
  6
Continuous
 62
     7
370
    15
100
AcDbLine
 10
-161.3325497424
 20
-858.6783033322
 30
0.0
 11
-161.3325497424
 21
-821.819148631
 31
0.0
  0
ARC
  5
22C
330
1F
100
AcDbEntity
  8
0
  6
Continuous
 62
     7
370
    15
100
AcDbCircle
 10
-159.1481800991
 20
-860.7346352393
 30
0.0
 40
3.000000000000214
100
AcDbArc
 50
136.7292660092
 51
316.7292660092
  0
LINE
  5
22D
330
1F
100
AcDbEntity
  8
0
  6
Continuous
 62
     7
370
    15
100
AcDbLine
 10
-142.3325494221
 20
-862.7909642171
 30
0.0
 11
-156.9638105398
 21
-862.7909642171
 31
0.0
  0
LINE
  5
22E
330
1F
100
AcDbEntity
  8
0
  6
Continuous
 62
     7
370
    15
100
AcDbLine
 10
-142.3325494221
 20
-912.790976138
 30
0.0
 11
-142.3325494221
 21
-862.7909642171
 31
0.0
  0
LINE
  5
22F
330
1F
100
AcDbEntity
  8
0
  6
Continuous
 62
     7
370
    15
100
AcDbLine
 10
-157.424349553
 20
-912.790976138
 30
0.0
 11
-142.3325494221
 21
-912.790976138
 31
0.0
  0
ARC
  5
230
330
1F
100
AcDbEntity
  8
0
  6
Continuous
 62
     7
370
    15
100
AcDbCircle
 10
-159.3784496107
 20
-915.067264678
 30
0.0
 40
3.000000000000111
100
AcDbArc
 50
49.3552929882
 51
229.3552929882
  0
LINE
  5
231
330
1F
100
AcDbEntity
  8
0
  6
Continuous
 62
     7
370
    15
100
AcDbLine
 10
-161.3325497424
 20
-953.7627917241
 30
0.0
 11
-161.3325497424
 21
-917.3435491036
 31
0.0
  0
LINE
  5
232
330
1F
100
AcDbEntity
  8
0
  6
Continuous
 62
     7
370
    15
100
AcDbLine
 10
377.5118233347
 20
-33.6145084809
 30
0.0
 11
559.1022016192
 21
-33.6145084809
 31
0.0
  0
LINE
  5
233
330
1F
100
AcDbEntity
  8
0
  6
Continuous
 62
     7
370
    15
100
AcDbLine
 10
559.1022016192
 20
-33.6145084809
 30
0.0
 11
559.1022016192
 21
-617.7716922473
 31
0.0
  0
LINE
  5
234
330
1F
100
AcDbEntity
  8
0
  6
Continuous
 62
     7
370
    15
100
AcDbLine
 10
559.1022016192
 20
-617.7716922473
 30
0.0
 11
377.5118233347
 21
-617.7716922473
 31
0.0
  0
LINE
  5
235
330
1F
100
AcDbEntity
  8
0
  6
Continuous
 62
     7
370
    15
100
AcDbLine
 10
377.5118233347
 20
-617.7716922473
 30
0.0
 11
377.5118233347
 21
-33.6145084809
 31
0.0
  0
ARC
  5
236
330
1F
100
AcDbEntity
  8
0
  6
Continuous
 62
     7
370
    15
100
AcDbCircle
 10
484.1608822579
 20
-532.243598001
 30
0.0
 40
3.000000000000164
100
AcDbArc
 50
242.0204484802
 51
62.0204484802
  0
LINE
  5
237
330
1F
100
AcDbEntity
  8
0
  6
Continuous
 62
     7
370
    15
100
AcDbLine
 10
473.9780069971
 20
-489.7643622469
 30
0.0
 11
485.5683685923
 21
-529.5942534219
 31
0.0
  0
ARC
  5
238
330
1F
100
AcDbEntity
  8
0
  6
Continuous
 62
     7
370
    15
100
AcDbCircle
 10
471.3397652103
 20
-488.336198479
 30
0.0
 40
3.000000000000074
100
AcDbArc
 50
331.571959419
 51
151.571959419
  0
LINE
  5
239
330
1F
100
AcDbEntity
  8
0
  6
Continuous
 62
     7
370
    15
100
AcDbLine
 10
458.4771634722
 20
-489.8832791012
 30
0.0
 11
468.7015058184
 21
-486.9080350261
 31
0.0
  0
ARC
  5
23A
330
1F
100
AcDbEntity
  8
0
  6
Continuous
 62
     7
370
    15
100
AcDbCircle
 10
457.1310078246
 20
-492.5642930382
 30
0.0
 40
3.000000000000211
100
AcDbArc
 50
63.3383064107
 51
243.3383064107
  0
LINE
  5
23B
330
1F
100
AcDbEntity
  8
0
  6
Continuous
 62
     7
370
    15
100
AcDbLine
 10
455.7848216677
 20
-495.2453073572
 30
0.0
 11
467.3053862238
 21
-534.8353904199
 31
0.0
  0
ARC
  5
23C
330
1F
100
AcDbEntity
  8
0
  6
Continuous
 62
     7
370
    15
100
AcDbCircle
 10
469.8891322853
 20
-536.3599674808
 30
0.0
 40
3.00000000000006
100
AcDbArc
 50
149.4565621319
 51
329.4565621319
  0
LINE
  5
23D
330
1F
100
AcDbEntity
  8
0
  6
Continuous
 62
     7
370
    15
100
AcDbLine
 10
472.4728705073
 20
-537.8845405292
 30
0.0
 11
482.7534200335
 21
-534.892946155
 31
0.0
  0
ARC
  5
23E
330
1F
100
AcDbEntity
  8
0
  6
Continuous
 62
     7
370
    15
100
AcDbCircle
 10
424.4238653526
 20
-100.8721476122
 30
0.0
 40
3.000000000000132
100
AcDbArc
 50
225.8948758806
 51
45.8948758806
  0
LINE
  5
23F
330
1F
100
AcDbEntity
  8
0
  6
Continuous
 62
     7
370
    15
100
AcDbLine
 10
426.5117885256
 20
-66.6917484712
 30
0.0
 11
426.5117885256
 21
-98.7179499578
 31
0.0
  0
ARC
  5
240
330
1F
100
AcDbEntity
  8
0
  6
Continuous
 62
     7
370
    15
100
AcDbCircle
 10
424.1366797249
 20
-64.8590483678
 30
0.0
 40
3.000000000000174
100
AcDbArc
 50
322.3451856353
 51
142.3451856353
  0
LINE
  5
241
330
1F
100
AcDbEntity
  8
0
  6
Continuous
 62
     7
370
    15
100
AcDbLine
 10
411.551857152
 20
-63.0263310384
 30
0.0
 11
421.7615367556
 21
-63.0263310384
 31
0.0
  0
ARC
  5
242
330
1F
100
AcDbEntity
  8
0
  6
Continuous
 62
     7
370
    15
100
AcDbCircle
 10
409.531832058
 20
-65.2443244476
 30
0.0
 40
2.999999999999904
100
AcDbArc
 50
47.6742217081
 51
227.6742217081
  0
LINE
  5
243
330
1F
100
AcDbEntity
  8
0
  6
Continuous
 62
     7
370
    15
100
AcDbLine
 10
407.5117947245
 20
-98.0674248647
 30
0.0
 11
407.5117947245
 21
-67.4623173188
 31
0.0
  0
ARC
  5
244
330
1F
100
AcDbEntity
  8
0
  6
Continuous
 62
     7
370
    15
100
AcDbCircle
 10
409.2006701827
 20
-100.546883117
 30
0.0
 40
2.999999999999999
100
AcDbArc
 50
124.2606058451
 51
304.260605845
  0
LINE
  5
245
330
1F
100
AcDbEntity
  8
0
  6
Continuous
 62
     7
370
    15
100
AcDbLine
 10
422.3359467173
 20
-103.0263524961
 30
0.0
 11
410.8895303393
 21
-103.0263524961
 31
0.0
  0
ARC
  5
246
330
1F
100
AcDbEntity
  8
0
  6
Continuous
 62
     7
370
    15
100
AcDbCircle
 10
545.7793159869
 20
-101.12789467
 30
0.0
 40
3.000000000000168
100
AcDbArc
 50
219.2581176709
 51
39.2581176709
  0
LINE
  5
247
330
1F
100
AcDbEntity
  8
0
  6
Continuous
 62
     7
370
    15
100
AcDbLine
 10
548.1022240305
 20
-66.1554854821
 30
0.0
 11
548.1022240305
 21
-99.2294472169
 31
0.0
  0
ARC
  5
248
330
1F
100
AcDbEntity
  8
0
  6
Continuous
 62
     7
370
    15
100
AcDbCircle
 10
545.5425170724
 20
-64.5909149588
 30
0.0
 40
3.000000000000182
100
AcDbArc
 50
328.5653949213
 51
148.5653949213
  0
LINE
  5
249
330
1F
100
AcDbEntity
  8
0
  6
Continuous
 62
     7
370
    15
100
AcDbLine
 10
534.0708734179
 20
-63.0263310384
 30
0.0
 11
542.9827810908
 21
-63.0263310384
 31
0.0
  0
ARC
  5
24A
330
1F
100
AcDbEntity
  8
0
  6
Continuous
 62
     7
370
    15
100
AcDbCircle
 10
531.5865351574
 20
-64.7080659502
 30
0.0
 40
3.00000000000002
100
AcDbArc
 50
34.0955990368
 51
214.0955990368
  0
LINE
  5
24B
330
1F
100
AcDbEntity
  8
0
  6
Continuous
 62
     7
370
    15
100
AcDbLine
 10
529.1022302294
 20
-98.9999693345
 30
0.0
 11
529.1022302294
 21
-66.3897913407
 31
0.0
  0
ARC
  5
24C
330
1F
100
AcDbEntity
  8
0
  6
Continuous
 62
     7
370
    15
100
AcDbCircle
 10
531.3264288025
 20
-101.0131539228
 30
0.0
 40
2.999999999999957
100
AcDbArc
 50
137.8509200842
 51
317.8509200842
  0
LINE
  5
24D
330
1F
100
AcDbEntity
  8
0
  6
Continuous
 62
     7
370
    15
100
AcDbLine
 10
543.4563995981
 20
-103.0263524961
 30
0.0
 11
533.5506440783
 21
-103.0263524961
 31
0.0
  0
ARC
  5
24E
330
1F
100
AcDbEntity
  8
0
  6
Continuous
 62
     7
370
    15
100
AcDbCircle
 10
470.052166681
 20
-399.8495986659
 30
0.0
 40
3.000000000000393
100
AcDbArc
 50
228.0967176415
 51
48.0967176415
  0
LINE
  5
24F
330
1F
100
AcDbEntity
  8
0
  6
Continuous
 62
     7
370
    15
100
AcDbLine
 10
472.0558168078
 20
-346.3583883356
 30
0.0
 11
472.0558168078
 21
-397.6167809676
 31
0.0
  0
ARC
  5
250
330
1F
100
AcDbEntity
  8
0
  6
Continuous
 62
     7
370
    15
100
AcDbCircle
 10
469.9512674728
 20
-344.220402482
 30
0.0
 40
2.999999999999964
100
AcDbArc
 50
314.5481378219
 51
134.5481378219
  0
LINE
  5
251
330
1F
100
AcDbEntity
  8
0
  6
Continuous
 62
     7
370
    15
100
AcDbLine
 10
456.3765169764
 20
-342.0824181747
 30
0.0
 11
467.8467156077
 21
-342.0824181747
 31
0.0
  0
ARC
  5
252
330
1F
100
AcDbEntity
  8
0
  6
Continuous
 62
     7
370
    15
100
AcDbCircle
 10
454.7161540114
 20
-344.5810579282
 30
0.0
 40
3.00000000000007
100
AcDbArc
 50
56.3957097704
 51
236.3957097704
  0
LINE
  5
253
330
1F
100
AcDbEntity
  8
0
  6
Continuous
 62
     7
370
    15
100
AcDbLine
 10
453.055763402
 20
-397.251531155
 30
0.0
 11
453.055763402
 21
-347.0796939444
 31
0.0
  0
ARC
  5
254
330
1F
100
AcDbEntity
  8
0
  6
Continuous
 62
     7
370
    15
100
AcDbCircle
 10
454.8350148954
 20
-399.6669751225
 30
0.0
 40
3.000000000000372
100
AcDbArc
 50
126.3754683423
 51
306.3754683423
  0
LINE
  5
255
330
1F
100
AcDbEntity
  8
0
  6
Continuous
 62
     7
370
    15
100
AcDbLine
 10
468.0485369349
 20
-402.0824205588
 30
0.0
 11
456.6142202997
 21
-402.0824205588
 31
0.0
  0
LINE
  5
256
330
1F
100
AcDbEntity
  8
0
  6
Continuous
 62
     7
370
    15
100
AcDbLine
 10
659.7994805956
 20
-332.3121887158
 30
0.0
 11
652.0118953371
 21
391.5622312118
 31
0.0
  0
ARC
  5
257
330
1F
100
AcDbEntity
  8
0
  6
Continuous
 62
     7
370
    15
100
AcDbCircle
 10
734.1294193166
 20
392.4456401063
 30
0.0
 40
82.1222616650289
100
AcDbArc
 50
355.4456868795
 51
180.6163751063
  0
LINE
  5
258
330
1F
100
AcDbEntity
  8
0
  6
Continuous
 62
     7
370
    15
100
AcDbLine
 10
815.9923793459
 20
385.9248239089
 30
0.0
 11
769.9255587244
 21
-192.3998814534
 31
0.0
  0
ARC
  5
259
330
1F
100
AcDbEntity
  8
0
  6
Continuous
 62
     7
370
    15
100
AcDbCircle
 10
377.9054560418
 20
2.8655640165
 30
0.0
 40
437.9593267828752
100
AcDbArc
 50
310.0647907346
 51
333.5220806112
  0
LINE
  5
25A
330
1F
100
AcDbEntity
  8
0
  6
Continuous
 62
     7
370
    15
100
AcDbLine
 10
764.7410871172
 20
409.4771224547
 30
0.0
 11
733.0838085795
 21
409.4771224547
 31
0.0
  0
ARC
  5
25B
330
1F
100
AcDbEntity
  8
0
  6
Continuous
 62
     7
370
    15
100
AcDbCircle
 10
766.7476892603
 20
411.7072932181
 30
0.0
 40
3.000000000000119
100
AcDbArc
 50
228.0205077569
 51
48.0205077569
  0
LINE
  5
25C
330
1F
100
AcDbEntity
  8
0
  6
Continuous
 62
     7
370
    15
100
AcDbLine
 10
764.0615941668
 20
287.8866869498
 30
0.0
 11
733.6978556299
 21
287.8866869498
 31
0.0
  0
ARC
  5
25D
330
1F
100
AcDbEntity
  8
0
  6
Continuous
 62
     7
370
    15
100
AcDbCircle
 10
766.4079409807
 20
289.7561179407
 30
0.0
 40
3.000000000000075
100
AcDbArc
 50
218.5454593612
 51
38.5454593612
  0
LINE
  5
25E
330
1F
100
AcDbEntity
  8
0
  6
Continuous
 62
     7
370
    15
100
AcDbLine
 10
680.8766366625
 20
-268.8879143905
 30
0.0
 11
694.1415907526
 21
-271.8978446435
 31
0.0
  0
ARC
  5
25F
330
1F
100
AcDbEntity
  8
0
  6
Continuous
 62
     7
370
    15
100
AcDbCircle
 10
696.0338011333
 20
-269.5698546764
 30
0.0
 40
3.000000000000193
100
AcDbArc
 50
230.8952724142
 51
50.8952724143
  0
LINE
  5
260
330
1F
100
AcDbEntity
  8
0
  6
Continuous
 62
     7
370
    15
100
AcDbLine
 10
697.9260088587
 20
-267.2418725204
 30
0.0
 11
709.2598320627
 21
-217.2927480649
 31
0.0
  0
ARC
  5
261
330
1F
100
AcDbEntity
  8
0
  6
Continuous
 62
     7
370
    15
100
AcDbCircle
 10
707.2268888206
 20
-215.0866062676
 30
0.0
 40
3.000000000000098
100
AcDbArc
 50
312.6608026355
 51
132.6608026354
  0
LINE
  5
262
330
1F
100
AcDbEntity
  8
0
  6
Continuous
 62
     7
370
    15
100
AcDbLine
 10
705.1939012194
 20
-212.8804844331
 30
0.0
 11
695.4430581713
 21
-210.6679302167
 31
0.0
  0
ARC
  5
263
330
1F
100
AcDbEntity
  8
0
  6
Continuous
 62
     7
370
    15
100
AcDbCircle
 10
692.974699482
 20
-212.3729581687
 30
0.0
 40
3.000000000000119
100
AcDbArc
 50
34.6347262265
 51
214.6347262265
  0
LINE
  5
264
330
1F
100
AcDbEntity
  8
0
  6
Continuous
 62
     7
370
    15
100
AcDbLine
 10
690.5063034678
 20
-214.0779715489
 30
0.0
 11
679.3884278918
 21
-263.0754035424
 31
0.0
  0
ARC
  5
265
330
1F
100
AcDbEntity
  8
0
  6
Continuous
 62
     7
370
    15
100
AcDbCircle
 10
680.1325295304
 20
-265.981661793
 30
0.0
 40
3.000000000000073
100
AcDbArc
 50
104.3610534443
 51
284.3610534443
  0
ARC
  5
266
330
1F
100
AcDbEntity
  8
0
  6
Continuous
 62
     7
370
    15
100
AcDbCircle
 10
766.6801574769
 20
426.3096525693
 30
0.0
 40
3.000000000000062
100
AcDbArc
 50
313.7390639643
 51
133.7390639643
  0
LINE
  5
267
330
1F
100
AcDbEntity
  8
0
  6
Continuous
 62
     7
370
    15
100
AcDbLine
 10
728.7543059969
 20
413.6310893584
 30
0.0
 11
728.7543059969
 21
424.4580942679
 31
0.0
  0
ARC
  5
268
330
1F
100
AcDbEntity
  8
0
  6
Continuous
 62
     7
370
    15
100
AcDbCircle
 10
731.2260671344
 20
289.5867950707
 30
0.0
 40
3.000000000000079
100
AcDbArc
 50
145.4799624
 51
325.4799624
  0
ARC
  5
269
330
1F
100
AcDbEntity
  8
0
  6
Continuous
 62
     7
370
    15
100
AcDbCircle
 10
766.1120826706
 20
305.4658748974
 30
0.0
 40
3.000000000000069
100
AcDbArc
 50
331.7309641266
 51
151.7309641266
  0
ARC
  5
26A
330
1F
100
AcDbEntity
  8
0
  6
Continuous
 62
     7
370
    15
100
AcDbCircle
 10
731.4753760108
 20
305.6235203502
 30
0.0
 40
3.00000000000006
100
AcDbArc
 50
24.9017692979
 51
204.9017692979
  0
LINE
  5
26B
330
1F
100
AcDbEntity
  8
0
  6
Continuous
 62
     7
370
    15
100
AcDbLine
 10
768.7542678499
 20
424.1421896506
 30
0.0
 11
768.7542678499
 21
413.9374572326
 31
0.0
  0
ARC
  5
26C
330
1F
100
AcDbEntity
  8
0
  6
Continuous
 62
     7
370
    15
100
AcDbCircle
 10
730.9818051152
 20
426.4676267327
 30
0.0
 40
3.000000000000092
100
AcDbArc
 50
42.0545538012
 51
222.0545538012
  0
ARC
  5
26D
330
1F
100
AcDbEntity
  8
0
  6
Continuous
 62
     7
370
    15
100
AcDbCircle
 10
730.9190393521
 20
411.5541165079
 30
0.0
 40
3.000000000000119
100
AcDbArc
 50
136.1855345058
 51
316.1855345058
  0
LINE
  5
26E
330
1F
100
AcDbEntity
  8
0
  6
Continuous
 62
     7
370
    15
100
AcDbLine
 10
733.2093359614
 20
428.4771162559
 30
0.0
 11
764.6060229922
 21
428.4771162559
 31
0.0
  0
LINE
  5
26F
330
1F
100
AcDbEntity
  8
0
  6
Continuous
 62
     7
370
    15
100
AcDbLine
 10
768.7542678499
 20
304.0450293113
 30
0.0
 11
768.7542678499
 21
291.6255075026
 31
0.0
  0
LINE
  5
270
330
1F
100
AcDbEntity
  8
0
  6
Continuous
 62
     7
370
    15
100
AcDbLine
 10
734.1964484835
 20
306.8867403556
 30
0.0
 11
763.4698988581
 21
306.8867403556
 31
0.0
  0
LINE
  5
271
330
1F
100
AcDbEntity
  8
0
  6
Continuous
 62
     7
370
    15
100
AcDbLine
 10
728.7543059969
 20
291.2868935157
 30
0.0
 11
728.7543059969
 21
304.3603378821
 31
0.0
  0
LINE
  5
272
330
1F
100
AcDbEntity
  8
0
  6
Continuous
 62
     7
370
    15
100
AcDbLine
 10
144.1478942168
 20
319.7077867805
 30
0.0
 11
144.1536147194
 21
319.7192709938
 31
0.0
  0
LINE
  5
273
330
1F
100
AcDbEntity
  8
0
  6
Continuous
 62
     7
370
    15
100
AcDbLine
 10
144.151853715
 20
319.6971632631
 30
0.0
 11
144.1478942168
 21
319.7077867805
 31
0.0
  0
LINE
  5
274
330
1F
100
AcDbEntity
  8
0
  6
Continuous
 62
     7
370
    15
100
AcDbLine
 10
144.1518606329
 20
319.6971494246
 30
0.0
 11
144.143545785
 21
319.6990567733
 31
0.0
  0
ARC
  5
275
330
1F
100
AcDbEntity
  8
0
  6
Continuous
 62
     7
370
    15
100
AcDbCircle
 10
-247.8665161799
 20
514.9847028699
 30
0.0
 40
437.9593267828752
100
AcDbArc
 50
206.481150594
 51
333.5191252918
  0
ARC
  5
276
330
1F
100
AcDbEntity
  8
0
  6
Continuous
 62
     7
370
    15
100
AcDbCircle
 10
-581.6792838133
 20
298.0128124702
 30
0.0
 40
62.1049619137537
100
AcDbArc
 50
46.0263741094
 51
159.5642687655
  0
LINE
  5
277
330
1F
100
AcDbEntity
  8
0
  6
Continuous
 62
     7
370
    15
100
AcDbLine
 10
-538.558131299
 20
342.707224517
 30
0.0
 11
-398.7763284063
 21
239.9092394401
 31
0.0
  0
LINE
  5
278
330
1F
100
AcDbEntity
  8
0
  6
Continuous
 62
     7
370
    15
100
AcDbLine
 10
-398.7763284063
 20
239.9092394401
 30
0.0
 11
-247.8618903374
 21
206.6623050261
 31
0.0
  0
LINE
  5
279
330
1F
100
AcDbEntity
  8
0
  6
Continuous
 62
     7
370
    15
100
AcDbLine
 10
-247.8618903374
 20
206.6623050261
 30
0.0
 11
-96.9474485433
 21
239.9092394401
 31
0.0
  0
LINE
  5
27A
330
1F
100
AcDbEntity
  8
0
  6
Continuous
 62
     7
370
    15
100
AcDbLine
 10
-96.9474485433
 20
239.9092394401
 30
0.0
 11
42.8343357229
 21
342.707224517
 31
0.0
  0
ARC
  5
27B
330
1F
100
AcDbEntity
  8
0
  6
Continuous
 62
     7
370
    15
100
AcDbCircle
 10
85.9555030992
 20
298.0128124702
 30
0.0
 40
62.10496191375375
100
AcDbArc
 50
20.4599401192
 51
133.9736258906
  0
LINE
  5
27C
330
1F
100
AcDbEntity
  8
0
  6
Continuous
 62
     7
370
    15
100
AcDbLine
 10
144.1426815176
 20
319.7217661429
 30
0.0
 11
144.1536189699
 21
319.7192627479
 31
0.0
  0
ARC
  5
27D
330
1F
100
AcDbEntity
  8
0
  6
Continuous
 62
     7
370
    15
100
AcDbCircle
 10
-577.4846807815
 20
296.457194424
 30
0.0
 40
3.000000000000178
100
AcDbArc
 50
59.8092784115
 51
239.8092784115
  0
ARC
  5
27E
330
1F
100
AcDbEntity
  8
0
  6
Continuous
 62
     7
370
    15
100
AcDbCircle
 10
-565.2486012016
 20
242.2648707787
 30
0.0
 40
2.999999999999996
100
AcDbArc
 50
144.2362174728
 51
324.2362174728
  0
LINE
  5
27F
330
1F
100
AcDbEntity
  8
0
  6
Continuous
 62
     7
370
    15
100
AcDbLine
 10
-512.2500418043
 20
224.1520363379
 30
0.0
 11
-520.1202391004
 21
229.9399453689
 31
0.0
  0
ARC
  5
280
330
1F
100
AcDbEntity
  8
0
  6
Continuous
 62
     7
370
    15
100
AcDbCircle
 10
-509.250046679
 20
224.1606307427
 30
0.0
 40
3.000000000000135
100
AcDbArc
 50
180.1637456224
 51
0.1637456225
  0
LINE
  5
281
330
1F
100
AcDbEntity
  8
0
  6
Continuous
 62
     7
370
    15
100
AcDbLine
 10
-481.5318940496
 20
257.7802616645
 30
0.0
 11
-506.2500594473
 21
224.1692024756
 31
0.0
  0
LINE
  5
282
330
1F
100
AcDbEntity
  8
0
  6
Continuous
 62
     7
370
    15
100
AcDbLine
 10
-335.0275514936
 20
195.2255446006
 30
0.0
 11
-324.8429803467
 21
192.9818469573
 31
0.0
  0
ARC
  5
283
330
1F
100
AcDbEntity
  8
0
  6
Continuous
 62
     7
370
    15
100
AcDbCircle
 10
-337.5018353548
 20
193.5291077167
 30
0.0
 40
3.000000000000032
100
AcDbArc
 50
34.4354909509
 51
214.4354909508
  0
LINE
  5
284
330
1F
100
AcDbEntity
  8
0
  6
Continuous
 62
     7
370
    15
100
AcDbLine
 10
-335.3875933504
 20
144.1059190322
 30
0.0
 11
-346.2250439739
 21
146.4934426833
 31
0.0
  0
ARC
  5
285
330
1F
100
AcDbEntity
  8
0
  6
Continuous
 62
     7
370
    15
100
AcDbCircle
 10
-332.8564574384
 20
145.7162972591
 30
0.0
 40
3.000000000000037
100
AcDbArc
 50
212.4660588091
 51
32.4660588091
  0
LINE
  5
286
330
1F
100
AcDbEntity
  8
0
  6
Continuous
 62
     7
370
    15
100
AcDbLine
 10
-150.4336951589
 20
146.287449031
 30
0.0
 11
-160.5049280739
 21
144.0687257338
 31
0.0
  0
ARC
  5
287
330
1F
100
AcDbEntity
  8
0
  6
Continuous
 62
     7
370
    15
100
AcDbCircle
 10
-148.5962316797
 20
148.6588903852
 30
0.0
 40
3.000000000000022
100
AcDbArc
 50
232.2304054835
 51
52.2304054835
  0
LINE
  5
288
330
1F
100
AcDbEntity
  8
0
  6
Continuous
 62
     7
370
    15
100
AcDbLine
 10
-155.7662153905
 20
191.9168907691
 30
0.0
 11
-146.7587689227
 21
151.030309825
 31
0.0
  0
ARC
  5
289
330
1F
100
AcDbEntity
  8
0
  6
Continuous
 62
     7
370
    15
100
AcDbCircle
 10
-158.2752476168
 20
193.5615316985
 30
0.0
 40
3.0
100
AcDbArc
 50
326.7560815199
 51
146.7560815199
  0
LINE
  5
28A
330
1F
100
AcDbEntity
  8
0
  6
Continuous
 62
     7
370
    15
100
AcDbLine
 10
-170.6703251517
 20
193.0282193709
 30
0.0
 11
-160.7842801428
 21
195.206173091
 31
0.0
  0
ARC
  5
28B
330
1F
100
AcDbEntity
  8
0
  6
Continuous
 62
     7
370
    15
100
AcDbCircle
 10
-172.5541188229
 20
190.6934113047
 30
0.0
 40
3.000000000000039
100
AcDbArc
 50
51.102345742
 51
231.102345742
  0
LINE
  5
28C
330
1F
100
AcDbEntity
  8
0
  6
Continuous
 62
     7
370
    15
100
AcDbLine
 10
-165.4343029773
 20
147.4894362975
 30
0.0
 11
-174.4379123962
 21
188.3586126853
 31
0.0
  0
ARC
  5
28D
330
1F
100
AcDbEntity
  8
0
  6
Continuous
 62
     7
370
    15
100
AcDbCircle
 10
-162.9696162068
 20
145.7790801184
 30
0.0
 40
3.000000000000066
100
AcDbArc
 50
145.2415169904
 51
325.2415169905
  0
LINE
  5
28E
330
1F
100
AcDbEntity
  8
0
  6
Continuous
 62
     7
370
    15
100
AcDbLine
 10
24.3831367874
 20
229.9301702071
 30
0.0
 11
15.9605087424
 21
223.7359959174
 31
0.0
  0
ARC
  5
28F
330
1F
100
AcDbEntity
  8
0
  6
Continuous
 62
     7
370
    15
100
AcDbCircle
 10
24.9642989679
 20
232.8733159917
 30
0.0
 40
3.000000000000016
100
AcDbArc
 50
258.8299250147
 51
78.8299250147
  0
LINE
  5
290
330
1F
100
AcDbEntity
  8
0
  6
Continuous
 62
     7
370
    15
100
AcDbLine
 10
0.9099187041
 20
269.31519094
 30
0.0
 11
25.545472064
 21
235.8164865066
 31
0.0
  0
ARC
  5
291
330
1F
100
AcDbEntity
  8
0
  6
Continuous
 62
     7
370
    15
100
AcDbCircle
 10
-2.0413714721
 20
269.8535579778
 30
0.0
 40
3.000000000000122
100
AcDbArc
 50
349.661756711
 51
169.6617567109
  0
LINE
  5
292
330
1F
100
AcDbEntity
  8
0
  6
Continuous
 62
     7
370
    15
100
AcDbLine
 10
-13.6040432668
 20
264.0589553405
 30
0.0
 11
-4.9926696634
 21
270.3919488479
 31
0.0
  0
ARC
  5
293
330
1F
100
AcDbEntity
  8
0
  6
Continuous
 62
     7
370
    15
100
AcDbCircle
 10
-14.0219672781
 20
261.0882273357
 30
0.0
 40
3.000000000000021
100
AcDbArc
 50
81.9922074165
 51
261.9922074165
  0
LINE
  5
294
330
1F
100
AcDbEntity
  8
0
  6
Continuous
 62
     7
370
    15
100
AcDbLine
 10
10.0569368983
 20
224.8073894073
 30
0.0
 11
-14.4398941016
 21
258.1175047446
 31
0.0
  0
ARC
  5
295
330
1F
100
AcDbEntity
  8
0
  6
Continuous
 62
     7
370
    15
100
AcDbCircle
 10
13.0087249562
 20
224.2716966451
 30
0.0
 40
3.000000000000081
100
AcDbArc
 50
169.7137433433
 51
349.7137433434
  0
LINE
  5
296
330
1F
100
AcDbEntity
  8
0
  6
Continuous
 62
     7
370
    15
100
AcDbLine
 10
80.678352871
 20
298.9536005546
 30
0.0
 11
69.0732987309
 21
301.5868741561
 31
0.0
  0
ARC
  5
297
330
1F
100
AcDbEntity
  8
0
  6
Continuous
 62
     7
370
    15
100
AcDbCircle
 10
66.849254902
 20
299.5734968858
 30
0.0
 40
2.999999999999994
100
AcDbArc
 50
42.1534783892
 51
222.1534783891
  0
LINE
  5
298
330
1F
100
AcDbEntity
  8
0
  6
Continuous
 62
     7
370
    15
100
AcDbLine
 10
64.6252127075
 20
297.560163169
 30
0.0
 11
53.4309090758
 21
248.2259351302
 31
0.0
  0
ARC
  5
299
330
1F
100
AcDbEntity
  8
0
  6
Continuous
 62
     7
370
    15
100
AcDbCircle
 10
54.8677764397
 20
245.5924472573
 30
0.0
 40
3.000000000000217
100
AcDbArc
 50
118.6173252009
 51
298.617325201
  0
LINE
  5
29A
330
1F
100
AcDbEntity
  8
0
  6
Continuous
 62
     7
370
    15
100
AcDbLine
 10
56.3046427155
 20
242.95891109
 30
0.0
 11
66.5659399414
 21
240.6305748511
 31
0.0
  0
ARC
  5
29B
330
1F
100
AcDbEntity
  8
0
  6
Continuous
 62
     7
370
    15
100
AcDbCircle
 10
69.2028240188
 20
242.0612503076
 30
0.0
 40
3.000000000000033
100
AcDbArc
 50
208.4827709971
 51
28.4827709972
  0
LINE
  5
29C
330
1F
100
AcDbEntity
  8
0
  6
Continuous
 62
     7
370
    15
100
AcDbLine
 10
71.8396993065
 20
243.4919554282
 30
0.0
 11
83.1877233172
 21
293.5035306502
 31
0.0
  0
ARC
  5
29D
330
1F
100
AcDbEntity
  8
0
  6
Continuous
 62
     7
370
    15
100
AcDbCircle
 10
81.9330325569
 20
296.2285552136
 30
0.0
 40
3.000000000000038
100
AcDbArc
 50
294.7227949058
 51
114.7227949058
  0
ARC
  5
29E
330
1F
100
AcDbEntity
  8
0
  6
Continuous
 62
     7
370
    15
100
AcDbCircle
 10
-347.4961177461
 20
149.2108414529
 30
0.0
 40
3.000000000000006
100
AcDbArc
 50
115.0679343809
 51
295.0679343809
  0
LINE
  5
29F
330
1F
100
AcDbEntity
  8
0
  6
Continuous
 62
     7
370
    15
100
AcDbLine
 10
-562.814301095
 20
240.5115443755
 30
0.0
 11
-552.3918627119
 21
242.8764778663
 31
0.0
  0
LINE
  5
2A0
330
1F
100
AcDbEntity
  8
0
  6
Continuous
 62
     7
370
    15
100
AcDbLine
 10
-348.7671969747
 20
151.9282537986
 30
0.0
 11
-339.976122818
 21
191.832669406
 31
0.0
  0
LINE
  5
2A1
330
1F
100
AcDbEntity
  8
0
  6
Continuous
 62
     7
370
    15
100
AcDbLine
 10
-521.2585984087
 20
235.8309704352
 30
0.0
 11
-496.8502579546
 21
269.0206843902
 31
0.0
  0
ARC
  5
2A2
330
1F
100
AcDbEntity
  8
0
  6
Continuous
 62
     7
370
    15
100
AcDbCircle
 10
-562.6304725044
 20
299.5977273785
 30
0.0
 40
2.999999999999946
100
AcDbArc
 50
319.0371244117
 51
139.0371244117
  0
LINE
  5
2A3
330
1F
100
AcDbEntity
  8
0
  6
Continuous
 62
     7
370
    15
100
AcDbLine
 10
-549.0754006719
 20
247.8765923072
 30
0.0
 11
-560.3650568342
 21
297.6310330916
 31
0.0
  0
ARC
  5
2A4
330
1F
100
AcDbEntity
  8
0
  6
Continuous
 62
     7
370
    15
100
AcDbCircle
 10
-550.733636553
 20
245.3765208492
 30
0.0
 40
2.999999999999957
100
AcDbArc
 50
236.4445843885
 51
56.4445843885
  0
LINE
  5
2A5
330
1F
100
AcDbEntity
  8
0
  6
Continuous
 62
     7
370
    15
100
AcDbLine
 10
-564.8958741045
 20
301.5644628097
 30
0.0
 11
-575.9760497427
 21
299.0502792884
 31
0.0
  0
LINE
  5
2A6
330
1F
100
AcDbEntity
  8
0
  6
Continuous
 62
     7
370
    15
100
AcDbLine
 10
-491.0740612364
 20
270.6441360999
 30
0.0
 11
-481.7360101557
 21
263.7767869521
 31
0.0
  0
ARC
  5
2A7
330
1F
100
AcDbEntity
  8
0
  6
Continuous
 62
     7
370
    15
100
AcDbCircle
 10
-520.6894160706
 20
232.8854525712
 30
0.0
 40
3.000000000000044
100
AcDbArc
 50
100.936882257
 51
280.936882257
  0
ARC
  5
2A8
330
1F
100
AcDbEntity
  8
0
  6
Continuous
 62
     7
370
    15
100
AcDbCircle
 10
-481.6339519634
 20
260.778507048
 30
0.0
 40
3.000000000000031
100
AcDbArc
 50
271.9494263422
 51
91.9494263422
  0
LINE
  5
2A9
330
1F
100
AcDbEntity
  8
0
  6
Continuous
 62
     7
370
    15
100
AcDbLine
 10
-578.9933262682
 20
293.8641387511
 30
0.0
 11
-567.6828978872
 21
244.0182048369
 31
0.0
  0
LINE
  5
2AA
330
1F
100
AcDbEntity
  8
0
  6
Continuous
 62
     7
370
    15
100
AcDbLine
 10
-321.3405965185
 20
188.1101805259
 30
0.0
 11
-330.3253261661
 21
147.3267156173
 31
0.0
  0
ARC
  5
2AB
330
1F
100
AcDbEntity
  8
0
  6
Continuous
 62
     7
370
    15
100
AcDbCircle
 10
-323.091790981
 20
190.5460063049
 30
0.0
 40
3.000000000000043
100
AcDbArc
 50
305.713324368
 51
125.713324368
  0
ARC
  5
2AC
330
1F
100
AcDbEntity
  8
0
  6
Continuous
 62
     7
370
    15
100
AcDbCircle
 10
-493.9621724155
 20
269.83243029
 30
0.0
 40
3.000000000000039
100
AcDbArc
 50
15.6984957198
 51
195.6984957197
  0
LINE
  5
2AD
330
1F
100
AcDbEntity
  8
0
  6
Continuous
 62
     7
370
    15
100
AcDbLine
 10
409.3095304156
 20
593.0420238067
 30
0.0
 11
409.3095304156
 21
533.0419618178
 31
0.0
  0
ARC
  5
2AE
330
1F
100
AcDbEntity
  8
0
  6
Continuous
 62
     7
370
    15
100
AcDbCircle
 10
444.8902663126
 20
594.8159547539
 30
0.0
 40
3.00000000000002
100
AcDbArc
 50
216.2514445225
 51
36.2514445225
  0
LINE
  5
2AF
330
1F
100
AcDbEntity
  8
0
  6
Continuous
 62
     7
370
    15
100
AcDbLine
 10
447.3095776224
 20
612.2276860763
 30
0.0
 11
447.3095776224
 21
596.5899306823
 31
0.0
  0
ARC
  5
2B0
330
1F
100
AcDbEntity
  8
0
  6
Continuous
 62
     7
370
    15
100
AcDbCircle
 10
413.2321430574
 20
563.0419648139
 30
0.0
 40
59.8373704396039
100
AcDbArc
 50
304.7154013942
 51
55.2845986058
  0
ARC
  5
2B1
330
1F
100
AcDbEntity
  8
0
  6
Continuous
 62
     7
370
    15
100
AcDbCircle
 10
445.1694391702
 20
530.9396083933
 30
0.0
 40
3.000000000000071
100
AcDbArc
 50
315.5099433294
 51
135.5099433294
  0
LINE
  5
2B2
330
1F
100
AcDbEntity
  8
0
  6
Continuous
 62
     7
370
    15
100
AcDbLine
 10
409.3095304156
 20
533.0419618178
 30
0.0
 11
443.0293084765
 21
533.0419618178
 31
0.0
  0
LINE
  5
2B3
330
1F
100
AcDbEntity
  8
0
  6
Continuous
 62
     7
370
    15
100
AcDbLine
 10
442.4709917689
 20
593.0420238067
 30
0.0
 11
409.3095304156
 21
593.0420238067
 31
0.0
  0
LINE
  5
2B4
330
1F
100
AcDbEntity
  8
0
  6
Continuous
 62
     7
370
    15
100
AcDbLine
 10
447.3095776224
 20
528.8372713614
 30
0.0
 11
447.3095776224
 21
513.856180339
 31
0.0
  0
LINE
  5
2B5
330
1F
100
AcDbEntity
  8
0
  6
Continuous
 62
     7
370
    15
100
AcDbLine
 10
282.0292653227
 20
635.5213004638
 30
0.0
 11
282.0292653227
 21
595.5213386107
 31
0.0
  0
LINE
  5
2B6
330
1F
100
AcDbEntity
  8
0
  6
Continuous
 62
     7
370
    15
100
AcDbLine
 10
282.0292653227
 20
635.5213004638
 30
0.0
 11
296.5027035856
 21
635.5213004638
 31
0.0
  0
ARC
  5
2B7
330
1F
100
AcDbEntity
  8
0
  6
Continuous
 62
     7
370
    15
100
AcDbCircle
 10
298.7659836475
 20
637.490432772
 30
0.0
 40
3.000000000000084
100
AcDbArc
 50
221.0244320074
 51
41.0244320074
  0
LINE
  5
2B8
330
1F
100
AcDbEntity
  8
0
  6
Continuous
 62
     7
370
    15
100
AcDbLine
 10
301.0292591238
 20
664.9330932189
 30
0.0
 11
301.0292591238
 21
639.4596177627
 31
0.0
  0
LINE
  5
2B9
330
1F
100
AcDbEntity
  8
0
  6
Continuous
 62
     7
370
    15
100
AcDbLine
 10
318.8828171873
 20
664.9330932189
 30
0.0
 11
301.0292591238
 21
664.9330932189
 31
0.0
  0
ARC
  5
2BA
330
1F
100
AcDbEntity
  8
0
  6
Continuous
 62
     7
370
    15
100
AcDbCircle
 10
321.4561178784
 20
666.4752540848
 30
0.0
 40
3.000000000000015
100
AcDbArc
 50
210.9337013978
 51
30.9337013978
  0
LINE
  5
2BB
330
1F
100
AcDbEntity
  8
0
  6
Continuous
 62
     7
370
    15
100
AcDbLine
 10
324.0294100428
 20
668.0173951674
 30
0.0
 11
324.0294100428
 21
683.9331466247
 31
0.0
  0
LINE
  5
2BC
330
1F
100
AcDbEntity
  8
0
  6
Continuous
 62
     7
370
    15
100
AcDbLine
 10
324.0294100428
 20
683.9331466247
 30
0.0
 11
364.0294016981
 21
683.9331466247
 31
0.0
  0
LINE
  5
2BD
330
1F
100
AcDbEntity
  8
0
  6
Continuous
 62
     7
370
    15
100
AcDbLine
 10
364.0294016981
 20
668.4720593978
 30
0.0
 11
364.0294016981
 21
683.9331466247
 31
0.0
  0
ARC
  5
2BE
330
1F
100
AcDbEntity
  8
0
  6
Continuous
 62
     7
370
    15
100
AcDbCircle
 10
366.4519836865
 20
666.7026127469
 30
0.0
 40
3.000000000000052
100
AcDbArc
 50
143.854905729
 51
323.854905729
  0
LINE
  5
2BF
330
1F
100
AcDbEntity
  8
0
  6
Continuous
 62
     7
370
    15
100
AcDbLine
 10
391.2059904719
 20
664.9330932189
 30
0.0
 11
368.874573865
 21
664.9330932189
 31
0.0
  0
SPLINE
  5
2C0
330
1F
100
AcDbEntity
  8
0
  6
Continuous
 62
     7
370
    15
100
AcDbSpline
210
0.0
220
0.0
230
1.0
 70
     8
 71
     3
 72
    34
 73
    30
 74
     0
 42
0.00000001
 43
0.00000001
 40
0.0
 40
0.0
 40
0.0
 40
0.0
 40
0.0464377323921268
 40
0.0878286054974811
 40
0.1251007641987914
 40
0.1591695210267547
 40
0.1908901347346909
 40
0.2283375704845448
 40
0.2643517256146237
 40
0.2995668974001817
 40
0.3342058385191004
 40
0.3792832978514049
 40
0.4223628750591267
 40
0.4624900896943124
 40
0.4991262482872306
 40
0.533107605239189
 40
0.56607341723434
 40
0.6057082259327793
 40
0.6459848344287028
 40
0.686661240131513
 40
0.7271356354775113
 40
0.7669109510289094
 40
0.7995692274523505
 40
0.8324110294787773
 40
0.866746566842696
 40
0.8946651879372349
 40
0.9255055157039594
 40
0.9602857894025343
 40
0.9999999999999999
 40
0.9999999999999999
 40
0.9999999999999999
 40
0.9999999999999999
 10
301.0292591238245
 20
567.0243579436278
 30
0.0
 10
303.2347518213044
 20
567.3470032386176
 30
0.0
 10
307.4060439597505
 20
567.9572286925652
 30
0.0
 10
313.1936779950611
 20
569.6034850877699
 30
0.0
 10
318.1993003774396
 20
571.6793688818041
 30
0.0
 10
322.4847142502267
 20
574.1734698855153
 30
0.0
 10
326.3953551597375
 20
577.2335077956084
 30
0.0
 10
329.8703153624013
 20
580.9212910892785
 30
0.0
 10
332.8375099134572
 20
585.2260331978302
 30
0.0
 10
335.1812188378307
 20
589.740981825817
 30
0.0
 10
337.2558301417764
 20
594.8531436299942
 30
0.0
 10
339.0771669373663
 20
600.4562366795602
 30
0.0
 10
340.8395407522642
 20
606.3497980461112
 30
0.0
 10
342.6958257548113
 20
611.7924641733916
 30
0.0
 10
345.039710315474
 20
616.5921648423179
 30
0.0
 10
348.1660790175544
 20
620.5025733709206
 30
0.0
 10
352.0769054461621
 20
623.8305267699085
 30
0.0
 10
356.7370077648911
 20
626.6243179144125
 30
0.0
 10
361.9986568241326
 20
629.03458892384
 30
0.0
 10
367.3993038781894
 20
631.2120757286333
 30
0.0
 10
372.7492627946374
 20
633.4519895894646
 30
0.0
 10
377.583478320431
 20
635.9152670871184
 30
0.0
 10
381.7580693035608
 20
638.7846911228356
 30
0.0
 10
385.2158948968981
 20
642.1370831255948
 30
0.0
 10
387.7894203022108
 20
645.9456881950476
 30
0.0
 10
389.5627887164247
 20
650.0626905555838
 30
0.0
 10
390.6864814959873
 20
654.4203254162551
 30
0.0
 10
391.3029902571589
 20
659.4515235862737
 30
0.0
 10
391.2397205648712
 20
663.0269667983324
 30
0.0
 10
391.2059904718622
 20
664.9330932188964
 30
0.0
  0
LINE
  5
2C1
330
1F
100
AcDbEntity
  8
0
  6
Continuous
 62
     7
370
    15
100
AcDbLine
 10
301.0292591238
 20
591.1966640044
 30
0.0
 11
301.0292591238
 21
567.0243579436
 31
0.0
  0
ARC
  5
2C2
330
1F
100
AcDbEntity
  8
0
  6
Continuous
 62
     7
370
    15
100
AcDbCircle
 10
298.9497227811
 20
593.3590065938
 30
0.0
 40
3.000000000000011
100
AcDbArc
 50
313.8826320871
 51
133.8826320871
  0
LINE
  5
2C3
330
1F
100
AcDbEntity
  8
0
  6
Continuous
 62
     7
370
    15
100
AcDbLine
 10
282.0292653227
 20
595.5213386107
 30
0.0
 11
296.8701662207
 21
595.5213386107
 31
0.0
  0
LINE
  5
2C4
330
1F
100
AcDbEntity
  8
0
  6
Continuous
 62
     7
370
    15
100
AcDbLine
 10
272.1343876505
 20
828.4282762099
 30
0.0
 11
272.1343876505
 21
854.5557338286
 31
0.0
  0
LINE
  5
2C5
330
1F
100
AcDbEntity
  8
0
  6
Continuous
 62
     7
370
    15
100
AcDbLine
 10
272.1343876505
 20
854.5557338286
 30
0.0
 11
291.5657402659
 21
854.5557338286
 31
0.0
  0
LINE
  5
2C6
330
1F
100
AcDbEntity
  8
0
  6
Continuous
 62
     7
370
    15
100
AcDbLine
 10
253.1343938494
 20
825.1438218642
 30
0.0
 11
253.1343938494
 21
785.1438600112
 31
0.0
  0
ARC
  5
2C7
330
1F
100
AcDbEntity
  8
0
  6
Continuous
 62
     7
370
    15
100
AcDbCircle
 10
270.349284788
 20
782.7327887053
 30
0.0
 40
3.000000000000035
100
AcDbArc
 50
306.5154245294
 51
126.5154245294
  0
ARC
  5
2C8
330
1F
100
AcDbEntity
  8
0
  6
Continuous
 62
     7
370
    15
100
AcDbCircle
 10
269.6237902249
 20
826.7860806837
 30
0.0
 40
3.000000000000009
100
AcDbArc
 50
213.1888671806
 51
33.1888671806
  0
ARC
  5
2C9
330
1F
100
AcDbEntity
  8
0
  6
Continuous
 62
     7
370
    15
100
AcDbCircle
 10
336.9136308034
 20
856.9712419308
 30
0.0
 40
3.000000000000019
100
AcDbArc
 50
126.3724519011
 51
306.3724519011
  0
ARC
  5
2CA
330
1F
100
AcDbEntity
  8
0
  6
Continuous
 62
     7
370
    15
100
AcDbCircle
 10
293.3501335768
 20
856.967324721
 30
0.0
 40
3.000000000000012
100
AcDbArc
 50
233.5015822363
 51
53.5015822363
  0
LINE
  5
2CB
330
1F
100
AcDbEntity
  8
0
  6
Continuous
 62
     7
370
    15
100
AcDbLine
 10
295.1345385695
 20
873.5556680251
 30
0.0
 11
335.1345302248
 21
873.5556680251
 31
0.0
  0
LINE
  5
2CC
330
1F
100
AcDbEntity
  8
0
  6
Continuous
 62
     7
370
    15
100
AcDbLine
 10
335.1345302248
 20
859.386809497
 30
0.0
 11
335.1345302248
 21
873.5556680251
 31
0.0
  0
LINE
  5
2CD
330
1F
100
AcDbEntity
  8
0
  6
Continuous
 62
     7
370
    15
100
AcDbLine
 10
295.1345385695
 20
859.3789416839
 30
0.0
 11
295.1345385695
 21
873.5556680251
 31
0.0
  0
LINE
  5
2CE
330
1F
100
AcDbEntity
  8
0
  6
Continuous
 62
     7
370
    15
100
AcDbLine
 10
253.1343938494
 20
825.1438218642
 30
0.0
 11
267.1131731653
 21
825.1438218642
 31
0.0
  0
LINE
  5
2CF
330
1F
100
AcDbEntity
  8
0
  6
Continuous
 62
     7
370
    15
100
AcDbLine
 10
253.1343938494
 20
785.1438600112
 30
0.0
 11
268.5641588354
 21
785.1438600112
 31
0.0
  0
SPLINE
  5
2D0
330
1F
100
AcDbEntity
  8
0
  6
Continuous
 62
     7
370
    15
100
AcDbSpline
210
0.0
220
0.0
230
1.0
 70
     8
 71
     3
 72
    34
 73
    30
 74
     0
 42
0.00000001
 43
0.00000001
 40
0.0
 40
0.0
 40
0.0
 40
0.0
 40
0.0397142035946844
 40
0.07449449793079
 40
0.1053347683656699
 40
0.1332535508673751
 40
0.1675897696649937
 40
0.2004308390678233
 40
0.2330889412078332
 40
0.2728644346869086
 40
0.3133388243997489
 40
0.3540152244412855
 40
0.3942918273315786
 40
0.4339266305137122
 40
0.4668929790129828
 40
0.5008736825502383
 40
0.5375105738971767
 40
0.5776377829475243
 40
0.620716562816397
 40
0.6657940158748967
 40
0.7004329521728261
 40
0.7356488526035276
 40
0.771662322324073
 40
0.8091097528620559
 40
0.8408303621551706
 40
0.8748991142415019
 40
0.9121712677553361
 40
0.9535621350999784
 40
1.0
 40
1.0
 40
1.0
 40
1.0
 10
362.3111189985498
 20
854.5557338286376
 30
0.0
 10
362.3448680118843
 20
852.6496061230391
 30
0.0
 10
362.4081732169857
 20
849.074159215688
 30
0.0
 10
361.7915804091688
 20
844.0429780257632
 30
0.0
 10
360.6679808563248
 20
839.6853055691105
 30
0.0
 10
358.8944615737366
 20
835.5683323565078
 30
0.0
 10
356.3210828288551
 20
831.7596207159119
 30
0.0
 10
352.8631495721125
 20
828.4073421026386
 30
0.0
 10
348.6886357210761
 20
825.5378825972666
 30
0.0
 10
343.8543931979834
 20
823.0746425401238
 30
0.0
 10
338.5044347443618
 20
820.8347132240555
 30
0.0
 10
333.1037823191817
 20
818.6572329244007
 30
0.0
 10
327.8421459169315
 20
816.2469482429633
 30
0.0
 10
323.1819792110517
 20
813.4531884810403
 30
0.0
 10
319.271292618453
 20
810.1250926391103
 30
0.0
 10
316.1447577072269
 20
806.2147836986027
 30
0.0
 10
313.8009938034132
 20
801.4150009084533
 30
0.0
 10
311.9446840093231
 20
795.9723573215274
 30
0.0
 10
310.1822709284332
 20
790.0788449290897
 30
0.0
 10
308.3609692965543
 20
784.4757789727316
 30
0.0
 10
306.2863097776359
 20
779.3636033062847
 30
0.0
 10
303.942711892125
 20
774.8485891146302
 30
0.0
 10
300.9753962264283
 20
770.5439243886556
 30
0.0
 10
297.5004893557028
 20
766.8561447708045
 30
0.0
 10
293.5898413065249
 20
763.796111156472
 30
0.0
 10
289.3044291202448
 20
761.3020106439799
 30
0.0
 10
284.298807448357
 20
759.2261195077934
 30
0.0
 10
278.5111613922047
 20
757.5798950821451
 30
0.0
 10
274.3398785455827
 20
756.9695750831189
 30
0.0
 10
272.1343876505121
 20
756.6468793440795
 30
0.0
  0
LINE
  5
2D1
330
1F
100
AcDbEntity
  8
0
  6
Continuous
 62
     7
370
    15
100
AcDbLine
 10
272.1343876505
 20
756.6468793441
 30
0.0
 11
272.1343876505
 21
780.3217250396
 31
0.0
  0
LINE
  5
2D2
330
1F
100
AcDbEntity
  8
0
  6
Continuous
 62
     7
370
    15
100
AcDbLine
 10
338.6927189017
 20
854.5557338286
 30
0.0
 11
362.3111189985
 21
854.5557338286
 31
0.0
  0
LINE
  5
2D3
330
1F
100
AcDbEntity
  8
0
  6
Continuous
 62
     7
370
    15
100
AcDbLine
 10
-166.6523164427
 20
359.497554927
 30
0.0
 11
-186.5953116035
 21
359.497554927
 31
0.0
  0
ARC
  5
2D4
330
1F
100
AcDbEntity
  8
0
  6
Continuous
 62
     7
370
    15
100
AcDbCircle
 10
-132.0897824274
 20
316.0964959636
 30
0.0
 40
69.67428152998244
100
AcDbArc
 50
38.5292276467
 51
141.4707723533
  0
LINE
  5
2D5
330
1F
100
AcDbEntity
  8
0
  6
Continuous
 62
     7
370
    15
100
AcDbLine
 10
-77.5842538392
 20
359.497554927
 30
0.0
 11
-97.986392892
 21
359.497554927
 31
0.0
  0
ARC
  5
2D6
330
1F
100
AcDbEntity
  8
0
  6
Continuous
 62
     7
370
    15
100
AcDbCircle
 10
-100.0380878294
 20
357.3088336018
 30
0.0
 40
3.000000000000074
100
AcDbArc
 50
46.8509817389
 51
226.8509817389
  0
LINE
  5
2D7
330
1F
100
AcDbEntity
  8
0
  6
Continuous
 62
     7
370
    15
100
AcDbLine
 10
-102.0897815293
 20
355.12013021
 30
0.0
 11
-102.0897815293
 21
321.4975673247
 31
0.0
  0
LINE
  5
2D8
330
1F
100
AcDbEntity
  8
0
  6
Continuous
 62
     7
370
    15
100
AcDbLine
 10
-102.0897815293
 20
321.4975673247
 30
0.0
 11
-162.0897820508
 21
321.4975673247
 31
0.0
  0
LINE
  5
2D9
330
1F
100
AcDbEntity
  8
0
  6
Continuous
 62
     7
370
    15
100
AcDbLine
 10
-162.0897820508
 20
321.4975673247
 30
0.0
 11
-162.0897820508
 21
355.6010204841
 31
0.0
  0
ARC
  5
2DA
330
1F
100
AcDbEntity
  8
0
  6
Continuous
 62
     7
370
    15
100
AcDbCircle
 10
-164.3710488345
 20
357.5492786012
 30
0.0
 40
3.000000000000031
100
AcDbArc
 50
319.5014265835
 51
139.5014265835
  0
LINE
  5
2DB
330
1F
100
AcDbEntity
  8
0
  6
Continuous
 62
     7
370
    15
100
AcDbLine
 10
-66.1488233423
 20
402.8593975593
 30
0.0
 11
-16.1488263225
 21
402.8593975593
 31
0.0
  0
LINE
  5
2DC
330
1F
100
AcDbEntity
  8
0
  6
Continuous
 62
     7
370
    15
100
AcDbLine
 10
-66.1488233423
 20
417.3690158416
 30
0.0
 11
-66.1488233423
 21
402.8593975593
 31
0.0
  0
ARC
  5
2DD
330
1F
100
AcDbEntity
  8
0
  6
Continuous
 62
     7
370
    15
100
AcDbCircle
 10
-68.1385958433
 20
419.6141932318
 30
0.0
 40
3.000000000000094
100
AcDbArc
 50
311.5487107519
 51
131.5487107519
  0
LINE
  5
2DE
330
1F
100
AcDbEntity
  8
0
  6
Continuous
 62
     7
370
    15
100
AcDbLine
 10
-96.070924989
 20
421.8593913604
 30
0.0
 11
-70.1283647036
 21
421.8593913604
 31
0.0
  0
LINE
  5
2DF
330
1F
100
AcDbEntity
  8
0
  6
Continuous
 62
     7
370
    15
100
AcDbLine
 10
-85.6241157567
 20
445.7910138656
 30
0.0
 11
-96.070924989
 21
421.8593913604
 31
0.0
  0
ARC
  5
2E0
330
1F
100
AcDbEntity
  8
0
  6
Continuous
 62
     7
370
    15
100
AcDbCircle
 10
-86.9861616871
 20
448.4639891604
 30
0.0
 40
3.000000000000093
100
AcDbArc
 50
297.0015579654
 51
117.0015579654
  0
LINE
  5
2E1
330
1F
100
AcDbEntity
  8
0
  6
Continuous
 62
     7
370
    15
100
AcDbLine
 10
-101.5131885475
 20
456.8838554908
 30
0.0
 11
-88.3482044852
 21
451.1369544555
 31
0.0
  0
LINE
  5
2E2
330
1F
100
AcDbEntity
  8
0
  6
Continuous
 62
     7
370
    15
100
AcDbLine
 10
-81.5096741831
 20
502.708085208
 30
0.0
 11
-101.5131885475
 21
456.8838554908
 31
0.0
  0
LINE
  5
2E3
330
1F
100
AcDbEntity
  8
0
  6
Continuous
 62
     7
370
    15
100
AcDbLine
 10
-67.2964586234
 20
496.5035993148
 30
0.0
 11
-81.5096741831
 21
502.708085208
 31
0.0
  0
ARC
  5
2E4
330
1F
100
AcDbEntity
  8
0
  6
Continuous
 62
     7
370
    15
100
AcDbCircle
 10
-64.7204070622
 20
498.0411316396
 30
0.0
 40
3.000000000000024
100
AcDbArc
 50
210.8309339283
 51
30.8309339283
  0
LINE
  5
2E5
330
1F
100
AcDbEntity
  8
0
  6
Continuous
 62
     7
370
    15
100
AcDbLine
 10
-52.06319525
 20
522.6726609755
 30
0.0
 11
-62.1443597889
 21
499.5786625434
 31
0.0
  0
ARC
  5
2E6
330
1F
100
AcDbEntity
  8
0
  6
Continuous
 62
     7
370
    15
100
AcDbCircle
 10
-85.8467071547
 20
428.5521308261
 30
0.0
 40
99.99999999999991
100
AcDbArc
 50
356.1624617095
 51
70.2549685849
  0
LINE
  5
2E7
330
1F
100
AcDbEntity
  8
0
  6
Continuous
 62
     7
370
    15
100
AcDbLine
 10
-12.3262984967
 20
421.8593913604
 30
0.0
 11
13.9290781403
 21
421.8593913604
 31
0.0
  0
ARC
  5
2E8
330
1F
100
AcDbEntity
  8
0
  6
Continuous
 62
     7
370
    15
100
AcDbCircle
 10
-14.237562199
 20
419.5469963667
 30
0.0
 40
3.000000000000071
100
AcDbArc
 50
50.424979503
 51
230.424979503
  0
LINE
  5
2E9
330
1F
100
AcDbEntity
  8
0
  6
Continuous
 62
     7
370
    15
100
AcDbLine
 10
-16.1488263225
 20
402.8593975593
 30
0.0
 11
-16.1488263225
 21
417.2346073676
 31
0.0
  0
LINE
  5
2EA
330
1F
100
AcDbEntity
  8
0
  6
Continuous
 62
     7
370
    15
100
AcDbLine
 10
-305.8948723888
 20
390.5670124579
 30
0.0
 11
-255.894875369
 21
390.5670124579
 31
0.0
  0
LINE
  5
2EB
330
1F
100
AcDbEntity
  8
0
  6
Continuous
 62
     7
370
    15
100
AcDbLine
 10
-305.8948723888
 20
405.3930717994
 30
0.0
 11
-305.8948723888
 21
390.5670124579
 31
0.0
  0
ARC
  5
2EC
330
1F
100
AcDbEntity
  8
0
  6
Continuous
 62
     7
370
    15
100
AcDbCircle
 10
-308.0500029846
 20
407.4800497207
 30
0.0
 40
3.000000000000018
100
AcDbArc
 50
315.9204763227
 51
135.9204763227
  0
LINE
  5
2ED
330
1F
100
AcDbEntity
  8
0
  6
Continuous
 62
     7
370
    15
100
AcDbLine
 10
-335.8169703102
 20
409.5670062591
 30
0.0
 11
-310.2051226711
 21
409.5670062591
 31
0.0
  0
LINE
  5
2EE
330
1F
100
AcDbEntity
  8
0
  6
Continuous
 62
     7
370
    15
100
AcDbLine
 10
-323.5853521442
 20
432.6815682937
 30
0.0
 11
-335.8169703102
 21
409.5670062591
 31
0.0
  0
ARC
  5
2EF
330
1F
100
AcDbEntity
  8
0
  6
Continuous
 62
     7
370
    15
100
AcDbCircle
 10
-324.7660898625
 20
435.4394475293
 30
0.0
 40
2.999999999999899
100
AcDbArc
 50
293.1775084044
 51
113.1775084044
  0
LINE
  5
2F0
330
1F
100
AcDbEntity
  8
0
  6
Continuous
 62
     7
370
    15
100
AcDbLine
 10
-338.6153189754
 20
444.9011761237
 30
0.0
 11
-325.9468285656
 21
438.1973225165
 31
0.0
  0
LINE
  5
2F1
330
1F
100
AcDbEntity
  8
0
  6
Continuous
 62
     7
370
    15
100
AcDbLine
 10
-319.9063746547
 20
480.2561480094
 30
0.0
 11
-338.6153189754
 21
444.9011761237
 31
0.0
  0
LINE
  5
2F2
330
1F
100
AcDbEntity
  8
0
  6
Continuous
 62
     7
370
    15
100
AcDbLine
 10
-307.0397733068
 20
473.4474498321
 30
0.0
 11
-319.9063746547
 21
480.2561480094
 31
0.0
  0
ARC
  5
2F3
330
1F
100
AcDbEntity
  8
0
  6
Continuous
 62
     7
370
    15
100
AcDbCircle
 10
-304.1332439952
 20
474.1904912922
 30
0.0
 40
3.000000000000037
100
AcDbArc
 50
194.3398662879
 51
14.3398662879
  0
LINE
  5
2F4
330
1F
100
AcDbEntity
  8
0
  6
Continuous
 62
     7
370
    15
100
AcDbLine
 10
-284.3673734283
 20
506.793208747
 30
0.0
 11
-301.2267111158
 21
474.9335128356
 31
0.0
  0
ARC
  5
2F5
330
1F
100
AcDbEntity
  8
0
  6
Continuous
 62
     7
370
    15
100
AcDbCircle
 10
-325.6285742502
 20
415.7025532424
 30
0.0
 40
100.0000000000002
100
AcDbArc
 50
356.4823879276
 51
65.6309730155
  0
LINE
  5
2F6
330
1F
100
AcDbEntity
  8
0
  6
Continuous
 62
     7
370
    15
100
AcDbLine
 10
-250.8963851547
 20
409.5670062591
 30
0.0
 11
-225.8169783568
 21
409.5670062591
 31
0.0
  0
ARC
  5
2F7
330
1F
100
AcDbEntity
  8
0
  6
Continuous
 62
     7
370
    15
100
AcDbCircle
 10
-253.3956328374
 20
407.9075684257
 30
0.0
 40
3.000000000000096
100
AcDbArc
 50
33.5833769956
 51
213.5833769957
  0
LINE
  5
2F8
330
1F
100
AcDbEntity
  8
0
  6
Continuous
 62
     7
370
    15
100
AcDbLine
 10
-255.894875369
 20
390.5670124579
 30
0.0
 11
-255.894875369
 21
406.2481004287
 31
0.0
  0
LINE
  5
2F9
330
1F
100
AcDbEntity
  8
0
  6
Continuous
 62
     7
370
    15
100
AcDbLine
 10
-489.2241714811
 20
487.6315671493
 30
0.0
 11
-470.5152271604
 21
452.2765356589
 31
0.0
  0
LINE
  5
2FA
330
1F
100
AcDbEntity
  8
0
  6
Continuous
 62
     7
370
    15
100
AcDbLine
 10
-470.5152271604
 20
452.2765356589
 30
0.0
 11
-483.4817109918
 21
445.4150277663
 31
0.0
  0
ARC
  5
2FB
330
1F
100
AcDbEntity
  8
0
  6
Continuous
 62
     7
370
    15
100
AcDbCircle
 10
-486.366627044
 20
446.2380111704
 30
0.0
 40
2.999999999999919
100
AcDbArc
 50
344.0781406459
 51
251.6951374679
  0
LINE
  5
2FC
330
1F
100
AcDbEntity
  8
0
  6
Continuous
 62
     7
370
    15
100
AcDbLine
 10
-487.3088358259
 20
443.3898407508
 30
0.0
 11
-473.3135758257
 21
416.9424253989
 31
0.0
  0
LINE
  5
2FD
330
1F
100
AcDbEntity
  8
0
  6
Continuous
 62
     7
370
    15
100
AcDbLine
 10
-473.3135758257
 20
416.9424253989
 30
0.0
 11
-498.68795856
 21
416.9424253989
 31
0.0
  0
ARC
  5
2FE
330
1F
100
AcDbEntity
  8
0
  6
Continuous
 62
     7
370
    15
100
AcDbCircle
 10
-500.9618138867
 20
414.9854970592
 30
0.0
 40
3.000000000000107
100
AcDbArc
 50
40.7160412625
 51
220.7160412625
  0
LINE
  5
2FF
330
1F
100
AcDbEntity
  8
0
  6
Continuous
 62
     7
370
    15
100
AcDbLine
 10
-503.235673747
 20
413.0285460044
 30
0.0
 11
-503.235673747
 21
397.9424315978
 31
0.0
  0
LINE
  5
300
330
1F
100
AcDbEntity
  8
0
  6
Continuous
 62
     7
370
    15
100
AcDbLine
 10
-503.235673747
 20
397.9424315978
 30
0.0
 11
-553.2356558656
 21
397.9424315978
 31
0.0
  0
LINE
  5
301
330
1F
100
AcDbEntity
  8
0
  6
Continuous
 62
     7
370
    15
100
AcDbLine
 10
-553.2356558656
 20
397.9424315978
 30
0.0
 11
-553.2356558656
 21
413.5828692008
 31
0.0
  0
ARC
  5
302
330
1F
100
AcDbEntity
  8
0
  6
Continuous
 62
     7
370
    15
100
AcDbCircle
 10
-555.7212869367
 20
415.2626361348
 30
0.0
 40
3.000000000000058
100
AcDbArc
 50
325.9489778447
 51
145.9489778447
  0
LINE
  5
303
330
1F
100
AcDbEntity
  8
0
  6
Continuous
 62
     7
370
    15
100
AcDbLine
 10
-558.2068918562
 20
416.9424253989
 30
0.0
 11
-583.3135603285
 21
416.9424253989
 31
0.0
  0
ARC
  5
304
330
1F
100
AcDbEntity
  8
0
  6
Continuous
 62
     7
370
    15
100
AcDbCircle
 10
-483.5019729608
 20
423.0779641606
 30
0.0
 40
100.0000000000002
100
AcDbArc
 50
114.3690269845
 51
183.5176120724
  0
LINE
  5
305
330
1F
100
AcDbEntity
  8
0
  6
Continuous
 62
     7
370
    15
100
AcDbLine
 10
-524.7631727075
 20
514.1686278869
 30
0.0
 11
-508.0871342039
 21
482.6552945662
 31
0.0
  0
ARC
  5
306
330
1F
100
AcDbEntity
  8
0
  6
Continuous
 62
     7
370
    15
100
AcDbCircle
 10
-505.2613526712
 20
481.6478702029
 30
0.0
 40
3.000000000000068
100
AcDbArc
 50
160.3778953816
 51
340.3778953815
  0
LINE
  5
307
330
1F
100
AcDbEntity
  8
0
  6
Continuous
 62
     7
370
    15
100
AcDbLine
 10
-502.4355707979
 20
480.6404191543
 30
0.0
 11
-489.2241714811
 21
487.6315671493
 31
0.0
  0
LINE
  5
308
330
1F
100
AcDbEntity
  8
0
  6
Continuous
 62
     7
370
    15
100
AcDbLine
 10
-712.8700373983
 20
517.4588638831
 30
0.0
 11
-692.8665397978
 21
471.6346937705
 31
0.0
  0
LINE
  5
309
330
1F
100
AcDbEntity
  8
0
  6
Continuous
 62
     7
370
    15
100
AcDbLine
 10
-692.8665397978
 20
471.6346937705
 30
0.0
 11
-706.410682044
 21
465.7222706367
 31
0.0
  0
ARC
  5
30A
330
1F
100
AcDbEntity
  8
0
  6
Continuous
 62
     7
370
    15
100
AcDbCircle
 10
-707.4923602223
 20
462.9240501255
 30
0.0
 40
3.000000000000114
100
AcDbArc
 50
68.8659419423
 51
248.8659419423
  0
LINE
  5
30B
330
1F
100
AcDbEntity
  8
0
  6
Continuous
 62
     7
370
    15
100
AcDbLine
 10
-708.5740326261
 20
460.1258117248
 30
0.0
 11
-698.3088014936
 21
436.6101700355
 31
0.0
  0
LINE
  5
30C
330
1F
100
AcDbEntity
  8
0
  6
Continuous
 62
     7
370
    15
100
AcDbLine
 10
-698.3088014936
 20
436.6101700355
 30
0.0
 11
-723.7947343206
 21
436.6101700355
 31
0.0
  0
ARC
  5
30D
330
1F
100
AcDbEntity
  8
0
  6
Continuous
 62
     7
370
    15
100
AcDbCircle
 10
-726.012830078
 20
434.5902484578
 30
0.0
 40
3.000000000000137
100
AcDbArc
 50
42.323383778
 51
222.3233837781
  0
LINE
  5
30E
330
1F
100
AcDbEntity
  8
0
  6
Continuous
 62
     7
370
    15
100
AcDbLine
 10
-728.2308696127
 20
432.5702864219
 30
0.0
 11
-728.2308696127
 21
417.6101762343
 31
0.0
  0
LINE
  5
30F
330
1F
100
AcDbEntity
  8
0
  6
Continuous
 62
     7
370
    15
100
AcDbLine
 10
-728.2308696127
 20
417.6101762343
 30
0.0
 11
-778.2308815336
 21
417.6101762343
 31
0.0
  0
LINE
  5
310
330
1F
100
AcDbEntity
  8
0
  6
Continuous
 62
     7
370
    15
100
AcDbLine
 10
-778.2308815336
 20
417.6101762343
 30
0.0
 11
-778.2308815336
 21
433.8480311919
 31
0.0
  0
ARC
  5
311
330
1F
100
AcDbEntity
  8
0
  6
Continuous
 62
     7
370
    15
100
AcDbCircle
 10
-780.8941034913
 20
435.229125632
 30
0.0
 40
3.000000000000076
100
AcDbArc
 50
332.589965808
 51
152.589965808
  0
LINE
  5
312
330
1F
100
AcDbEntity
  8
0
  6
Continuous
 62
     7
370
    15
100
AcDbLine
 10
-783.5573314047
 20
436.6101700355
 30
0.0
 11
-808.3088157987
 21
436.6101700355
 31
0.0
  0
ARC
  5
313
330
1F
100
AcDbEntity
  8
0
  6
Continuous
 62
     7
370
    15
100
AcDbCircle
 10
-708.53301822
 20
443.3029526625
 30
0.0
 40
100.0000000000002
100
AcDbArc
 50
109.7450314151
 51
183.8375382905
  0
LINE
  5
314
330
1F
100
AcDbEntity
  8
0
  6
Continuous
 62
     7
370
    15
100
AcDbLine
 10
-742.3165200567
 20
537.4234992553
 30
0.0
 11
-732.2938202238
 21
514.4633728553
 31
0.0
  0
ARC
  5
315
330
1F
100
AcDbEntity
  8
0
  6
Continuous
 62
     7
370
    15
100
AcDbCircle
 10
-729.7864756511
 20
512.8161359908
 30
0.0
 40
3.000000000000093
100
AcDbArc
 50
146.6968210601
 51
326.6968210601
  0
LINE
  5
316
330
1F
100
AcDbEntity
  8
0
  6
Continuous
 62
     7
370
    15
100
AcDbLine
 10
-727.2791622495
 20
511.1689049293
 30
0.0
 11
-712.8700373983
 21
517.4588638831
 31
0.0
  0
LINE
  5
317
330
1F
100
AcDbEntity
  8
0
  6
Continuous
 62
     7
370
    15
100
AcDbLine
 10
-747.264718852
 20
328.5437900115
 30
0.0
 11
-747.264718852
 21
362.5953275252
 31
0.0
  0
LINE
  5
318
330
1F
100
AcDbEntity
  8
0
  6
Continuous
 62
     7
370
    15
100
AcDbLine
 10
-807.2647212362
 20
328.5437900115
 30
0.0
 11
-747.264718852
 21
328.5437900115
 31
0.0
  0
LINE
  5
319
330
1F
100
AcDbEntity
  8
0
  6
Continuous
 62
     7
370
    15
100
AcDbLine
 10
-807.2647212362
 20
361.515947013
 30
0.0
 11
-807.2647212362
 21
328.5437900115
 31
0.0
  0
ARC
  5
31A
330
1F
100
AcDbEntity
  8
0
  6
Continuous
 62
     7
370
    15
100
AcDbCircle
 10
-808.901845865
 20
364.0298548396
 30
0.0
 40
2.999999999999993
100
AcDbArc
 50
303.0728268705
 51
123.0728268705
  0
LINE
  5
31B
330
1F
100
AcDbEntity
  8
0
  6
Continuous
 62
     7
370
    15
100
AcDbLine
 10
-831.7702768659
 20
366.5437776137
 30
0.0
 11
-810.5389831877
 21
366.5437776137
 31
0.0
  0
ARC
  5
31C
330
1F
100
AcDbEntity
  8
0
  6
Continuous
 62
     7
370
    15
100
AcDbCircle
 10
-777.264732057
 20
323.1427177079
 30
0.0
 40
69.67428152998245
100
AcDbArc
 50
38.5292276467
 51
141.4707723533
  0
LINE
  5
31D
330
1F
100
AcDbEntity
  8
0
  6
Continuous
 62
     7
370
    15
100
AcDbLine
 10
-742.7470444059
 20
366.5437776137
 30
0.0
 11
-722.7592228269
 21
366.5437776137
 31
0.0
  0
ARC
  5
31E
330
1F
100
AcDbEntity
  8
0
  6
Continuous
 62
     7
370
    15
100
AcDbCircle
 10
-745.0058861458
 20
364.5695498252
 30
0.0
 40
3.000000000000131
100
AcDbArc
 50
41.1535524068
 51
221.1535524068
  0
LINE
  5
31F
330
1F
100
AcDbEntity
  8
0
  6
Continuous
 62
     7
370
    15
100
AcDbLine
 10
-945.1977966642
 20
572.534330516
 30
0.0
 11
-945.1977966642
 21
557.1985322524
 31
0.0
  0
ARC
  5
320
330
1F
100
AcDbEntity
  8
0
  6
Continuous
 62
     7
370
    15
100
AcDbCircle
 10
-911.1203690663
 20
606.3842707359
 30
0.0
 40
59.83737043960394
100
AcDbArc
 50
124.7154013942
 51
235.2845986058
  0
LINE
  5
321
330
1F
100
AcDbEntity
  8
0
  6
Continuous
 62
     7
370
    15
100
AcDbLine
 10
-945.1977966642
 20
655.5700379897
 30
0.0
 11
-945.1977966642
 21
640.5211764861
 31
0.0
  0
ARC
  5
322
330
1F
100
AcDbEntity
  8
0
  6
Continuous
 62
     7
370
    15
100
AcDbCircle
 10
-943.0248997857
 20
638.4527449193
 30
0.0
 40
3.000000000000054
100
AcDbArc
 50
136.4101381906
 51
316.4101381906
  0
LINE
  5
323
330
1F
100
AcDbEntity
  8
0
  6
Continuous
 62
     7
370
    15
100
AcDbLine
 10
-907.197809062
 20
636.3842565108
 30
0.0
 11
-907.197809062
 21
576.3843137313
 31
0.0
  0
LINE
  5
324
330
1F
100
AcDbEntity
  8
0
  6
Continuous
 62
     7
370
    15
100
AcDbLine
 10
-907.197809062
 20
576.3843137313
 30
0.0
 11
-940.595900855
 21
576.3843137313
 31
0.0
  0
LINE
  5
325
330
1F
100
AcDbEntity
  8
0
  6
Continuous
 62
     7
370
    15
100
AcDbLine
 10
-940.8520220136
 20
636.3842565108
 30
0.0
 11
-907.197809062
 21
636.3842565108
 31
0.0
  0
ARC
  5
326
330
1F
100
AcDbEntity
  8
0
  6
Continuous
 62
     7
370
    15
100
AcDbCircle
 10
-942.8968272674
 20
574.4592746229
 30
0.0
 40
3.0
100
AcDbArc
 50
39.9161144072
 51
219.9161144072
  0
LINE
  5
327
330
1F
100
AcDbEntity
  8
0
  6
Continuous
 62
     7
370
    15
100
AcDbLine
 10
-812.0634911871
 20
604.8191863585
 30
0.0
 11
-771.6905830717
 21
598.7435657073
 31
0.0
  0
ARC
  5
328
330
1F
100
AcDbEntity
  8
0
  6
Continuous
 62
     7
370
    15
100
AcDbCircle
 10
-814.5028910292
 20
603.0729751623
 30
0.0
 40
3.000000000000275
100
AcDbArc
 50
35.5975928023
 51
215.5975928023
  0
LINE
  5
329
330
1F
100
AcDbEntity
  8
0
  6
Continuous
 62
     7
370
    15
100
AcDbLine
 10
-819.1476820326
 20
586.6713601638
 30
0.0
 11
-816.9422505712
 21
601.3267118026
 31
0.0
  0
LINE
  5
32A
330
1F
100
AcDbEntity
  8
0
  6
Continuous
 62
     7
370
    15
100
AcDbLine
 10
-819.1476820326
 20
586.6713601638
 30
0.0
 11
-845.4739807462
 21
590.6331616927
 31
0.0
  0
LINE
  5
32B
330
1F
100
AcDbEntity
  8
0
  6
Continuous
 62
     7
370
    15
100
AcDbLine
 10
-845.4739807462
 20
590.6331616927
 30
0.0
 11
-813.1002543783
 21
957.8144628097
 31
0.0
  0
LINE
  5
32C
330
1F
100
AcDbEntity
  8
0
  6
Continuous
 62
     7
370
    15
100
AcDbLine
 10
-813.1002543783
 20
957.8144628097
 30
0.0
 11
-766.7466162061
 21
1265.8379155684
 31
0.0
  0
ARC
  5
32D
330
1F
100
AcDbEntity
  8
0
  6
Continuous
 62
     7
370
    15
100
AcDbCircle
 10
-608.8332947895
 20
1210.9836690792
 30
0.0
 40
167.1693747237566
100
AcDbArc
 50
86.7960035709
 51
160.8443440667
  0
LINE
  5
32E
330
1F
100
AcDbEntity
  8
0
  6
Continuous
 62
     7
370
    15
100
AcDbLine
 10
-599.4899926996
 20
1377.8917867232
 30
0.0
 11
-720.7861898756
 21
571.8692618896
 31
0.0
  0
LINE
  5
32F
330
1F
100
AcDbEntity
  8
0
  6
Continuous
 62
     7
370
    15
100
AcDbLine
 10
-720.7861898756
 20
571.8692618896
 30
0.0
 11
-769.7044370985
 21
579.2307931472
 31
0.0
  0
LINE
  5
330
330
1F
100
AcDbEntity
  8
0
  6
Continuous
 62
     7
370
    15
100
AcDbLine
 10
-769.7044370985
 20
579.2307931472
 30
0.0
 11
-767.3989890432
 21
594.5504981566
 31
0.0
  0
ARC
  5
331
330
1F
100
AcDbEntity
  8
0
  6
Continuous
 62
     7
370
    15
100
AcDbCircle
 10
-769.5447943925
 20
596.647051612
 30
0.0
 40
3.000000000000153
100
AcDbArc
 50
315.6645731313
 51
135.6645731313
  0
LINE
  5
332
330
1F
100
AcDbEntity
  8
0
  6
Continuous
 62
     7
370
    15
100
AcDbLine
 10
-740.8576963758
 20
1058.2149106551
 30
0.0
 11
-729.3255685186
 21
1059.8021823455
 31
0.0
  0
ARC
  5
333
330
1F
100
AcDbEntity
  8
0
  6
Continuous
 62
     7
370
    15
100
AcDbCircle
 10
-727.8465508225
 20
1062.4122086325
 30
0.0
 40
3.000000000003563
100
AcDbArc
 50
240.4618011467
 51
60.4618011468
  0
LINE
  5
334
330
1F
100
AcDbEntity
  8
0
  6
Continuous
 62
     7
370
    15
100
AcDbLine
 10
-732.06458076
 20
1106.4142066527
 30
0.0
 11
-726.3675688123
 21
1065.0222379256
 31
0.0
  0
ARC
  5
335
330
1F
100
AcDbEntity
  8
0
  6
Continuous
 62
     7
370
    15
100
AcDbCircle
 10
-734.7313970493
 20
1107.7882814863
 30
0.0
 40
3.000000000000499
100
AcDbArc
 50
332.7390845695
 51
152.7390845697
  0
LINE
  5
336
330
1F
100
AcDbEntity
  8
0
  6
Continuous
 62
     7
370
    15
100
AcDbLine
 10
-746.7502115583
 20
1107.8752357055
 30
0.0
 11
-737.3981831884
 21
1109.162457614
 31
0.0
  0
ARC
  5
337
330
1F
100
AcDbEntity
  8
0
  6
Continuous
 62
     7
370
    15
100
AcDbCircle
 10
-748.7954309362
 20
1105.6804543263
 30
0.0
 40
3.000000000000026
100
AcDbArc
 50
47.0198753201
 51
227.01987532
  0
LINE
  5
338
330
1F
100
AcDbEntity
  8
0
  6
Continuous
 62
     7
370
    15
100
AcDbLine
 10
-750.8406399107
 20
1103.4857112456
 30
0.0
 11
-745.1821921682
 21
1062.3741227675
 31
0.0
  0
ARC
  5
339
330
1F
100
AcDbEntity
  8
0
  6
Continuous
 62
     7
370
    15
100
AcDbCircle
 10
-743.0199428608
 20
1060.2944788456
 30
0.0
 40
3.00000000000017
100
AcDbArc
 50
136.1158586728
 51
316.1158586726
  0
LINE
  5
33A
330
1F
100
AcDbEntity
  8
0
  6
Continuous
 62
     7
370
    15
100
AcDbLine
 10
-901.8555043554
 20
706.080921321
 30
0.0
 11
-901.8555043554
 21
730.1950532485
 31
0.0
  0
ARC
  5
33B
330
1F
100
AcDbEntity
  8
0
  6
Continuous
 62
     7
370
    15
100
AcDbCircle
 10
-966.8357472565
 20
806.2433561998
 30
0.0
 40
3.000000000000209
100
AcDbArc
 50
228.6966003816
 51
48.6966003816
  0
LINE
  5
33C
330
1F
100
AcDbEntity
  8
0
  6
Continuous
 62
     7
370
    15
100
AcDbLine
 10
-964.8555873251
 20
808.4970790435
 30
0.0
 11
-964.8555873251
 21
822.989710002
 31
0.0
  0
LINE
  5
33D
330
1F
100
AcDbEntity
  8
0
  6
Continuous
 62
     7
370
    15
100
AcDbLine
 10
-924.855625472
 20
807.7654916335
 30
0.0
 11
-924.855625472
 21
822.989710002
 31
0.0
  0
ARC
  5
33E
330
1F
100
AcDbEntity
  8
0
  6
Continuous
 62
     7
370
    15
100
AcDbCircle
 10
-922.5241492716
 20
805.877616066
 30
0.0
 40
3.000000000000155
100
AcDbArc
 50
141.0006486142
 51
321.0006486142
  0
LINE
  5
33F
330
1F
100
AcDbEntity
  8
0
  6
Continuous
 62
     7
370
    15
100
AcDbLine
 10
-901.8555043554
 20
778.8457948256
 30
0.0
 11
-901.8555043554
 21
803.9896565963
 31
0.0
  0
ARC
  5
340
330
1F
100
AcDbEntity
  8
0
  6
Continuous
 62
     7
370
    15
100
AcDbCircle
 10
-899.7469079333
 20
776.7118521527
 30
0.0
 40
3.000000000000164
100
AcDbArc
 50
134.6565808103
 51
314.6565808103
  0
LINE
  5
341
330
1F
100
AcDbEntity
  8
0
  6
Continuous
 62
     7
370
    15
100
AcDbLine
 10
-882.8554509496
 20
774.5778638411
 30
0.0
 11
-897.6383565283
 21
774.5778638411
 31
0.0
  0
LINE
  5
342
330
1F
100
AcDbEntity
  8
0
  6
Continuous
 62
     7
370
    15
100
AcDbLine
 10
-882.8554509496
 20
774.5778638411
 30
0.0
 11
-882.8554509496
 21
734.5779019881
 31
0.0
  0
LINE
  5
343
330
1F
100
AcDbEntity
  8
0
  6
Continuous
 62
     7
370
    15
100
AcDbLine
 10
-882.8554509496
 20
734.5779019881
 30
0.0
 11
-897.7578042364
 21
734.5779019881
 31
0.0
  0
ARC
  5
344
330
1F
100
AcDbEntity
  8
0
  6
Continuous
 62
     7
370
    15
100
AcDbCircle
 10
-899.8066252215
 20
732.3864601062
 30
0.0
 40
3.00000000000022
100
AcDbArc
 50
46.9253942657
 51
226.9253942657
  0
LINE
  5
345
330
1F
100
AcDbEntity
  8
0
  6
Continuous
 62
     7
370
    15
100
AcDbLine
 10
-924.855625472
 20
822.989710002
 30
0.0
 11
-964.8555873251
 21
822.989710002
 31
0.0
  0
SPLINE
  5
346
330
1F
100
AcDbEntity
  8
0
  6
Continuous
 62
     7
370
    15
100
AcDbSpline
210
0.0
220
0.0
230
1.0
 70
     8
 71
     3
 72
    34
 73
    30
 74
     0
 42
0.00000001
 43
0.00000001
 40
0.0
 40
0.0
 40
0.0
 40
0.0
 40
0.0397142234350446
 40
0.0744945083763083
 40
0.1053348461121382
 40
0.1332536415242528
 40
0.1675891899870997
 40
0.2004307068259203
 40
0.2330889938061167
 40
0.2728643222148461
 40
0.3133389208826223
 40
0.354015148393919
 40
0.3942919572869005
 40
0.4339267787972524
 40
0.4668926014485693
 40
0.5008739693849675
 40
0.5375100455620404
 40
0.5776372731683083
 40
0.6207169257200196
 40
0.6657943996235679
 40
0.7004332730633747
 40
0.7356485525696245
 40
0.7716626011163277
 40
0.8091101912459677
 40
0.8408306522090236
 40
0.8748995988440841
 40
0.9121717695935826
 40
0.9535624568133345
 40
1.0
 40
1.0
 40
1.0
 40
1.0
 10
-992.0322059011236
 20
803.9896565962767
 30
0.0
 10
-992.065936625039
 20
802.0835299129645
 30
0.0
 10
-992.1292075007585
 20
798.5080862080521
 30
0.0
 10
-991.512690996433
 20
793.4768912627587
 30
0.0
 10
-990.3890209088198
 20
789.1192384244453
 30
0.0
 10
-988.615559801736
 20
785.0022658969789
 30
0.0
 10
-986.0420544883383
 20
781.1936665172714
 30
0.0
 10
-982.5842824853831
 20
777.8412355851805
 30
0.0
 10
-978.4096901671803
 20
774.9718350706223
 30
0.0
 10
-973.5754731819396
 20
772.5085426961002
 30
0.0
 10
-968.2255022851641
 20
770.2686554459741
 30
0.0
 10
-962.8248596866332
 20
768.0911358207228
 30
0.0
 10
-957.5631989209471
 20
765.6808910334571
 30
0.0
 10
-952.9030909704774
 20
762.8870893479134
 30
0.0
 10
-948.9922664217711
 20
759.5591360303508
 30
0.0
 10
-945.8658911649728
 20
755.6487357255099
 30
0.0
 10
-943.522047208244
 20
750.8490190313875
 30
0.0
 10
-941.6657605385965
 20
745.4063577059222
 30
0.0
 10
-939.9033481714757
 20
739.5128037055064
 30
0.0
 10
-938.0820029491448
 20
733.9097172238971
 30
0.0
 10
-936.0074499724919
 20
728.7975278647157
 30
0.0
 10
-933.6636807361643
 20
724.2826178028495
 30
0.0
 10
-930.6965410545026
 20
719.9778304230007
 30
0.0
 10
-927.2215386292659
 20
716.2900946828565
 30
0.0
 10
-923.3109250542365
 20
713.2300125141327
 30
0.0
 10
-919.0254888080398
 20
710.7359430023554
 30
0.0
 10
-914.0198735319192
 20
708.6600516447095
 30
0.0
 10
-908.2322597113335
 20
707.013791496518
 30
0.0
 10
-904.0609871400907
 20
706.4035664591064
 30
0.0
 10
-901.8555043554084
 20
706.0809213210084
 30
0.0
  0
LINE
  5
347
330
1F
100
AcDbEntity
  8
0
  6
Continuous
 62
     7
370
    15
100
AcDbLine
 10
-968.8158987379
 20
803.9896565963
 30
0.0
 11
-992.0322059011
 21
803.9896565963
 31
0.0
  0
LINE
  5
348
330
1F
100
AcDbEntity
  8
0
  6
Continuous
 62
     7
370
    15
100
AcDbLine
 10
-901.8555043554
 20
803.9896565963
 30
0.0
 11
-920.1926945066
 21
803.9896565963
 31
0.0
  0
SPLINE
  5
349
330
1F
100
AcDbEntity
  8
0
  6
Continuous
 62
     7
370
    15
100
AcDbSpline
210
0.0
220
0.0
230
1.0
 70
     8
 71
     3
 72
    34
 73
    30
 74
     0
 42
0.00000001
 43
0.00000001
 40
0.0
 40
0.0
 40
0.0
 40
0.0
 40
0.0464375288899897
 40
0.0878286018971123
 40
0.1251007611716682
 40
0.1591693397295796
 40
0.1908901169243806
 40
0.2283376955250718
 40
0.264351732984169
 40
0.2995668089748981
 40
0.3342058295037135
 40
0.379283289529309
 40
0.422362014637606
 40
0.4624893698181281
 40
0.4991261725710834
 40
0.5331075300456748
 40
0.5660733425478397
 40
0.6057081518558621
 40
0.6459845735938065
 40
0.6866611712624364
 40
0.7271357574693419
 40
0.7669110736324841
 40
0.7995690110823738
 40
0.8324102334657947
 40
0.8667464575703617
 40
0.8946652443871472
 40
0.9255054665503997
 40
0.960285791741499
 40
1.0
 40
1.0
 40
1.0
 40
1.0
 10
-1008.4053037977
 20
642.8734141875243
 30
0.0
 10
-1010.610786219008
 20
643.1960612420236
 30
0.0
 10
-1014.782077030608
 20
643.8062926729438
 30
0.0
 10
-1020.569713166035
 20
645.4525374612521
 30
0.0
 10
-1025.575341118504
 20
647.5284154562435
 30
0.0
 10
-1029.860737420751
 20
650.0225436169802
 30
0.0
 10
-1033.77139911717
 20
653.0825610217041
 30
0.0
 10
-1037.246390703275
 20
656.7703304696015
 30
0.0
 10
-1040.213557978632
 20
661.075090630098
 30
0.0
 10
-1042.557222147015
 20
665.590052226115
 30
0.0
 10
-1044.631886794142
 20
670.7021907803214
 30
0.0
 10
-1046.453201268976
 20
676.3052529169835
 30
0.0
 10
-1048.215543469454
 20
682.1987914419227
 30
0.0
 10
-1050.071954810908
 20
687.6414027047653
 30
0.0
 10
-1052.415709160529
 20
692.4412096127484
 30
0.0
 10
-1055.542130384408
 20
696.3516261779554
 30
0.0
 10
-1059.452947505067
 20
699.6795850685371
 30
0.0
 10
-1064.113047557418
 20
702.4733644880596
 30
0.0
 10
-1069.374684649355
 20
704.8836599754567
 30
0.0
 10
-1074.775350468687
 20
707.0611291276721
 30
0.0
 10
-1080.125324728454
 20
709.3010456367292
 30
0.0
 10
-1084.959556429899
 20
711.7642948764462
 30
0.0
 10
-1089.134039122259
 20
714.6337768971498
 30
0.0
 10
-1092.592002082444
 20
717.9860236937126
 30
0.0
 10
-1095.165372705146
 20
721.7947502522481
 30
0.0
 10
-1096.938907786737
 20
725.91171582298
 30
0.0
 10
-1098.062445050338
 20
730.269401701976
 30
0.0
 10
-1098.679111574441
 20
735.3005710806275
 30
0.0
 10
-1098.61577243536
 20
738.8760208933089
 30
0.0
 10
-1098.582005343415
 20
740.7821494627929
 30
0.0
  0
LINE
  5
34A
330
1F
100
AcDbEntity
  8
0
  6
Continuous
 62
     7
370
    15
100
AcDbLine
 10
-1098.5820053434
 20
740.7821494628
 30
0.0
 11
-1075.7585523939
 21
740.7821494628
 31
0.0
  0
ARC
  5
34B
330
1F
100
AcDbEntity
  8
0
  6
Continuous
 62
     7
370
    15
100
AcDbCircle
 10
-1073.5819991097
 20
742.8467601341
 30
0.0
 40
3.000000000000206
100
AcDbArc
 50
223.4880105848
 51
43.4880105848
  0
LINE
  5
34C
330
1F
100
AcDbEntity
  8
0
  6
Continuous
 62
     7
370
    15
100
AcDbLine
 10
-1071.405446372
 20
744.9113208343
 30
0.0
 11
-1071.405446372
 21
759.7822028686
 31
0.0
  0
LINE
  5
34D
330
1F
100
AcDbEntity
  8
0
  6
Continuous
 62
     7
370
    15
100
AcDbLine
 10
-1031.4054249143
 20
759.7822028686
 30
0.0
 11
-1071.405446372
 21
759.7822028686
 31
0.0
  0
LINE
  5
34E
330
1F
100
AcDbEntity
  8
0
  6
Continuous
 62
     7
370
    15
100
AcDbLine
 10
-1031.4054249143
 20
745.6529218245
 30
0.0
 11
-1031.4054249143
 21
759.7822028686
 31
0.0
  0
ARC
  5
34F
330
1F
100
AcDbEntity
  8
0
  6
Continuous
 62
     7
370
    15
100
AcDbCircle
 10
-1029.6536360058
 20
743.2175509689
 30
0.0
 40
3.000000000000171
100
AcDbArc
 50
125.7278567835
 51
305.7278567835
  0
LINE
  5
350
330
1F
100
AcDbEntity
  8
0
  6
Continuous
 62
     7
370
    15
100
AcDbLine
 10
-1027.9018042898
 20
740.7821494628
 30
0.0
 11
-1008.4053037977
 21
740.7821494628
 31
0.0
  0
LINE
  5
351
330
1F
100
AcDbEntity
  8
0
  6
Continuous
 62
     7
370
    15
100
AcDbLine
 10
-1008.4053037977
 20
740.7821494628
 30
0.0
 11
-1008.4053037977
 21
715.7677489806
 31
0.0
  0
ARC
  5
352
330
1F
100
AcDbEntity
  8
0
  6
Continuous
 62
     7
370
    15
100
AcDbCircle
 10
-1006.3642932073
 20
713.56901784
 30
0.0
 40
3.000000000000205
100
AcDbArc
 50
132.8701568928
 51
312.8701568928
  0
LINE
  5
353
330
1F
100
AcDbEntity
  8
0
  6
Continuous
 62
     7
370
    15
100
AcDbLine
 10
-989.4053099966
 20
711.3703567077
 30
0.0
 11
-1004.3232797003
 21
711.3703567077
 31
0.0
  0
LINE
  5
354
330
1F
100
AcDbEntity
  8
0
  6
Continuous
 62
     7
370
    15
100
AcDbLine
 10
-989.4053099966
 20
711.3703567077
 30
0.0
 11
-989.4053099966
 21
671.3702756453
 31
0.0
  0
LINE
  5
355
330
1F
100
AcDbEntity
  8
0
  6
Continuous
 62
     7
370
    15
100
AcDbLine
 10
-989.4053099966
 20
671.3702756453
 30
0.0
 11
-1003.2894371366
 21
671.3702756453
 31
0.0
  0
ARC
  5
356
330
1F
100
AcDbEntity
  8
0
  6
Continuous
 62
     7
370
    15
100
AcDbCircle
 10
-1005.847380079
 20
669.8028468858
 30
0.0
 40
3.000000000000163
100
AcDbArc
 50
31.4996232434
 51
211.4996232434
  0
LINE
  5
357
330
1F
100
AcDbEntity
  8
0
  6
Continuous
 62
     7
370
    15
100
AcDbLine
 10
-1008.4053037977
 20
668.2353097487
 30
0.0
 11
-1008.4053037977
 21
642.8734141875
 31
0.0
  0
LINE
  5
358
330
1F
100
AcDbEntity
  8
0
  6
Continuous
 62
     7
370
    15
100
AcDbLine
 10
-569.1188929891
 20
553.7183362533
 30
0.0
 11
-528.6215899801
 21
551.7468530227
 31
0.0
  0
ARC
  5
359
330
1F
100
AcDbEntity
  8
0
  6
Continuous
 62
     7
370
    15
100
AcDbCircle
 10
-571.4749233432
 20
551.861135111
 30
0.0
 40
3.000000000000493
100
AcDbArc
 50
38.2477179
 51
218.2477179
  0
LINE
  5
35A
330
1F
100
AcDbEntity
  8
0
  6
Continuous
 62
     7
370
    15
100
AcDbLine
 10
-574.5632706499
 20
534.9608737517
 30
0.0
 11
-573.8309381819
 21
550.0038940001
 31
0.0
  0
LINE
  5
35B
330
1F
100
AcDbEntity
  8
0
  6
Continuous
 62
     7
370
    15
100
AcDbLine
 10
-574.5632706499
 20
534.9608737517
 30
0.0
 11
-613.5229526377
 21
536.8574935485
 31
0.0
  0
LINE
  5
35C
330
1F
100
AcDbEntity
  8
0
  6
Continuous
 62
     7
370
    15
100
AcDbLine
 10
-613.5229526377
 20
536.8574935485
 30
0.0
 11
-573.628133378
 21
1356.3575822402
 31
0.0
  0
ARC
  5
35D
330
1F
100
AcDbEntity
  8
0
  6
Continuous
 62
     7
370
    15
100
AcDbCircle
 10
-461.2721157416
 20
1310.5269884471
 30
0.0
 40
121.3437976843495
100
AcDbArc
 50
91.1217278149
 51
157.8092136296
  0
LINE
  5
35E
330
1F
100
AcDbEntity
  8
0
  6
Continuous
 62
     7
370
    15
100
AcDbLine
 10
-463.6476097917
 20
1431.847580104
 30
0.0
 11
-428.7374971723
 21
1427.4278956939
 31
0.0
  0
LINE
  5
35F
330
1F
100
AcDbEntity
  8
0
  6
Continuous
 62
     7
370
    15
100
AcDbLine
 10
-428.7374971723
 20
1427.4278956939
 30
0.0
 11
-472.4265693044
 21
529.9886542846
 31
0.0
  0
LINE
  5
360
330
1F
100
AcDbEntity
  8
0
  6
Continuous
 62
     7
370
    15
100
AcDbLine
 10
-472.4265693044
 20
529.9886542846
 30
0.0
 11
-524.6224163389
 21
532.5296002913
 31
0.0
  0
LINE
  5
361
330
1F
100
AcDbEntity
  8
0
  6
Continuous
 62
     7
370
    15
100
AcDbLine
 10
-524.6224163389
 20
532.5296002913
 30
0.0
 11
-523.8649307108
 21
548.0897504378
 31
0.0
  0
ARC
  5
362
330
1F
100
AcDbEntity
  8
0
  6
Continuous
 62
     7
370
    15
100
AcDbCircle
 10
-526.2432574324
 20
549.9183101329
 30
0.0
 40
3.000000000000288
100
AcDbArc
 50
322.4459864161
 51
142.4459864161
  0
LINE
  5
363
330
1F
100
AcDbEntity
  8
0
  6
Continuous
 62
     7
370
    15
100
AcDbLine
 10
-533.7626098013
 20
1081.7585069228
 30
0.0
 11
-532.0430157995
 21
1049.9659854461
 31
0.0
  0
ARC
  5
364
330
1F
100
AcDbEntity
  8
0
  6
Continuous
 62
     7
370
    15
100
AcDbCircle
 10
-529.8970836237
 20
1047.8696033195
 30
0.0
 40
3.000000000000231
100
AcDbArc
 50
135.6689669249
 51
315.6689669249
  0
LINE
  5
365
330
1F
100
AcDbEntity
  8
0
  6
Continuous
 62
     7
370
    15
100
AcDbLine
 10
-527.7511535501
 20
1045.773156314
 30
0.0
 11
-517.6259039259
 21
1046.3208037902
 31
0.0
  0
ARC
  5
366
330
1F
100
AcDbEntity
  8
0
  6
Continuous
 62
     7
370
    15
100
AcDbCircle
 10
-515.326199031
 20
1048.2473361329
 30
0.0
 40
3.000000000002383
100
AcDbArc
 50
219.9533079211
 51
39.9533079212
  0
LINE
  5
367
330
1F
100
AcDbEntity
  8
0
  6
Continuous
 62
     7
370
    15
100
AcDbLine
 10
-514.7602616167
 20
1082.2285491515
 30
0.0
 11
-513.0264817095
 21
1050.1737672378
 31
0.0
  0
ARC
  5
368
330
1F
100
AcDbEntity
  8
0
  6
Continuous
 62
     7
370
    15
100
AcDbCircle
 10
-516.965817308
 20
1084.2621222669
 30
0.0
 40
3.000000000000593
100
AcDbArc
 50
317.3228236001
 51
137.3228236002
  0
LINE
  5
369
330
1F
100
AcDbEntity
  8
0
  6
Continuous
 62
     7
370
    15
100
AcDbLine
 10
-529.2818902349
 20
1085.7489186812
 30
0.0
 11
-519.1713629579
 21
1086.2957316924
 31
0.0
  0
ARC
  5
36A
330
1F
100
AcDbEntity
  8
0
  6
Continuous
 62
     7
370
    15
100
AcDbCircle
 10
-531.5222557279
 20
1083.7536705806
 30
0.0
 40
2.999999999999713
100
AcDbArc
 50
41.6873360211
 51
221.687336021
  0
LINE
  5
36B
330
1F
100
AcDbEntity
  8
0
  6
Continuous
 62
     7
370
    15
100
AcDbLine
 10
-241.9603077984
 20
571.2001401473
 30
0.0
 11
-282.7723233318
 21
569.2132789184
 31
0.0
  0
ARC
  5
36C
330
1F
100
AcDbEntity
  8
0
  6
Continuous
 62
     7
370
    15
100
AcDbCircle
 10
-285.0410523099
 20
567.2504147759
 30
0.0
 40
2.99999999999996
100
AcDbArc
 50
40.8657366276
 51
220.8657366276
  0
LINE
  5
36D
330
1F
100
AcDbEntity
  8
0
  6
Continuous
 62
     7
370
    15
100
AcDbLine
 10
-286.5658609485
 20
550.0061589766
 30
0.0
 11
-287.30978652
 21
565.2875978042
 31
0.0
  0
LINE
  5
36E
330
1F
100
AcDbEntity
  8
0
  6
Continuous
 62
     7
370
    15
100
AcDbLine
 10
-338.7617228842
 20
547.4650937606
 30
0.0
 11
-286.5658609485
 21
550.0061589766
 31
0.0
  0
LINE
  5
36F
330
1F
100
AcDbEntity
  8
0
  6
Continuous
 62
     7
370
    15
100
AcDbLine
 10
-382.4507652139
 20
1444.9043351699
 30
0.0
 11
-338.7617228842
 21
547.4650937606
 31
0.0
  0
LINE
  5
370
330
1F
100
AcDbEntity
  8
0
  6
Continuous
 62
     7
370
    15
100
AcDbLine
 10
-347.5406674957
 20
1449.32401958
 30
0.0
 11
-382.4507652139
 21
1444.9043351699
 31
0.0
  0
ARC
  5
371
330
1F
100
AcDbEntity
  8
0
  6
Continuous
 62
     7
370
    15
100
AcDbCircle
 10
-349.9161584183
 20
1328.0034428276
 30
0.0
 40
121.3437976843499
100
AcDbArc
 50
22.1907863704
 51
88.8782721851
  0
LINE
  5
372
330
1F
100
AcDbEntity
  8
0
  6
Continuous
 62
     7
370
    15
100
AcDbLine
 10
-197.6653097486
 20
554.3339330245
 30
0.0
 11
-237.5601364589
 21
1373.8340217162
 31
0.0
  0
LINE
  5
373
330
1F
100
AcDbEntity
  8
0
  6
Continuous
 62
     7
370
    15
100
AcDbLine
 10
-236.624999187
 20
552.4373132277
 30
0.0
 11
-197.6653097486
 21
554.3339330245
 31
0.0
  0
LINE
  5
374
330
1F
100
AcDbEntity
  8
0
  6
Continuous
 62
     7
370
    15
100
AcDbLine
 10
-236.624999187
 20
552.4373132277
 30
0.0
 11
-237.3513935423
 21
567.3585015822
 31
0.0
  0
ARC
  5
375
330
1F
100
AcDbEntity
  8
0
  6
Continuous
 62
     7
370
    15
100
AcDbCircle
 10
-239.6558494087
 20
569.2792873786
 30
0.0
 40
3.000000000000031
100
AcDbArc
 50
320.1882991699
 51
140.1882991698
  0
LINE
  5
376
330
1F
100
AcDbEntity
  8
0
  6
Continuous
 62
     7
370
    15
100
AcDbLine
 10
-296.4226512527
 20
1099.8041707564
 30
0.0
 11
-298.1718836641
 21
1067.4635249663
 31
0.0
  0
ARC
  5
377
330
1F
100
AcDbEntity
  8
0
  6
Continuous
 62
     7
370
    15
100
AcDbCircle
 10
-295.7998794326
 20
1065.6267645076
 30
0.0
 40
3.000000000000128
100
AcDbArc
 50
142.2479227454
 51
322.2479227456
  0
LINE
  5
378
330
1F
100
AcDbEntity
  8
0
  6
Continuous
 62
     7
370
    15
100
AcDbLine
 10
-284.1767875767
 20
1063.2896501113
 30
0.0
 11
-293.4278754806
 21
1063.7899714995
 31
0.0
  0
ARC
  5
379
330
1F
100
AcDbEntity
  8
0
  6
Continuous
 62
     7
370
    15
100
AcDbCircle
 10
-281.6831183615
 20
1064.9574696457
 30
0.0
 40
3.000000000000298
100
AcDbArc
 50
213.7753471473
 51
33.7753471473
  0
LINE
  5
37A
330
1F
100
AcDbEntity
  8
0
  6
Continuous
 62
     7
370
    15
100
AcDbLine
 10
-277.4238346433
 20
1099.2688018371
 30
0.0
 11
-279.1894434309
 21
1066.6252452422
 31
0.0
  0
ARC
  5
37B
330
1F
100
AcDbEntity
  8
0
  6
Continuous
 62
     7
370
    15
100
AcDbCircle
 10
-279.6785282925
 20
1101.2478007433
 30
0.0
 40
2.999999999999925
100
AcDbArc
 50
318.7262408804
 51
138.7262408803
  0
LINE
  5
37C
330
1F
100
AcDbEntity
  8
0
  6
Continuous
 62
     7
370
    15
100
AcDbLine
 10
-281.9332240438
 20
1103.2267886687
 30
0.0
 11
-291.9173447704
 21
1103.7668067504
 31
0.0
  0
ARC
  5
37D
330
1F
100
AcDbEntity
  8
0
  6
Continuous
 62
     7
370
    15
100
AcDbCircle
 10
-294.169998804
 20
1101.7854842776
 30
0.0
 40
3.000000000002206
100
AcDbArc
 50
41.3331456031
 51
221.3331456032
  0
ARC
  5
37E
330
1F
100
AcDbEntity
  8
0
  6
Continuous
 62
     7
370
    15
100
AcDbCircle
 10
19.5411857065
 20
561.7278604963
 30
0.0
 40
3.000000000000082
100
AcDbArc
 50
43.6135963093
 51
223.6135963093
  0
LINE
  5
37F
330
1F
100
AcDbEntity
  8
0
  6
Continuous
 62
     7
370
    15
100
AcDbLine
 10
19.6837426806
 20
544.2779141952
 30
0.0
 11
17.3691602135
 21
559.6585351516
 31
0.0
  0
LINE
  5
380
330
1F
100
AcDbEntity
  8
0
  6
Continuous
 62
     7
370
    15
100
AcDbLine
 10
-29.23447474
 20
536.9162637282
 30
0.0
 11
19.6837426806
 21
544.2779141952
 31
0.0
  0
LINE
  5
381
330
1F
100
AcDbEntity
  8
0
  6
Continuous
 62
     7
370
    15
100
AcDbLine
 10
-150.5306775039
 20
1342.9387885619
 30
0.0
 11
-29.23447474
 21
536.9162637282
 31
0.0
  0
ARC
  5
382
330
1F
100
AcDbEntity
  8
0
  6
Continuous
 62
     7
370
    15
100
AcDbCircle
 10
-141.1873890386
 20
1176.0307603181
 30
0.0
 40
167.1693747237576
100
AcDbArc
 50
19.1556559333
 51
93.2039964291
  0
LINE
  5
383
330
1F
100
AcDbEntity
  8
0
  6
Continuous
 62
     7
370
    15
100
AcDbLine
 10
63.0795599604
 20
922.8615838576
 30
0.0
 11
16.7259217882
 21
1230.8850366164
 31
0.0
  0
LINE
  5
384
330
1F
100
AcDbEntity
  8
0
  6
Continuous
 62
     7
370
    15
100
AcDbLine
 10
95.4533012295
 20
555.6802827407
 30
0.0
 11
63.0795599604
 21
922.8615838576
 31
0.0
  0
LINE
  5
385
330
1F
100
AcDbEntity
  8
0
  6
Continuous
 62
     7
370
    15
100
AcDbLine
 10
69.127017417
 20
551.7184812118
 30
0.0
 11
95.4533012295
 21
555.6802827407
 31
0.0
  0
LINE
  5
386
330
1F
100
AcDbEntity
  8
0
  6
Continuous
 62
     7
370
    15
100
AcDbLine
 10
69.127017417
 20
551.7184812118
 30
0.0
 11
66.8746920014
 21
566.6853267241
 31
0.0
  0
ARC
  5
387
330
1F
100
AcDbEntity
  8
0
  6
Continuous
 62
     7
370
    15
100
AcDbCircle
 10
64.3178708351
 20
568.2546462852
 30
0.0
 40
3.000000000000069
100
AcDbArc
 50
328.4599952399
 51
148.4599952399
  0
LINE
  5
388
330
1F
100
AcDbEntity
  8
0
  6
Continuous
 62
     7
370
    15
100
AcDbLine
 10
61.7610456133
 20
569.8238688994
 30
0.0
 11
21.7132063294
 21
563.7972432662
 31
0.0
  0
LINE
  5
389
330
1F
100
AcDbEntity
  8
0
  6
Continuous
 62
     7
370
    15
100
AcDbLine
 10
-9.694537363
 20
1023.3351069976
 30
0.0
 11
-18.8540576315
 21
1024.5958644439
 31
0.0
  0
ARC
  5
38A
330
1F
100
AcDbEntity
  8
0
  6
Continuous
 62
     7
370
    15
100
AcDbCircle
 10
-7.2991342133
 20
1025.141236683
 30
0.0
 40
2.999999999999903
100
AcDbArc
 50
217.0158986787
 51
37.0158986786
  0
LINE
  5
38B
330
1F
100
AcDbEntity
  8
0
  6
Continuous
 62
     7
370
    15
100
AcDbLine
 10
0.7882805252
 20
1068.3024007369
 30
0.0
 11
-4.9037320828
 21
1026.9473868896
 31
0.0
  0
ARC
  5
38C
330
1F
100
AcDbEntity
  8
0
  6
Continuous
 62
     7
370
    15
100
AcDbCircle
 10
-1.1422281
 20
1070.5987637978
 30
0.0
 40
3.000000000000761
100
AcDbArc
 50
310.0534271219
 51
130.0534271217
  0
LINE
  5
38D
330
1F
100
AcDbEntity
  8
0
  6
Continuous
 62
     7
370
    15
100
AcDbLine
 10
-3.0727295494
 20
1072.8950578261
 30
0.0
 11
-13.6569572902
 21
1074.3519145537
 31
0.0
  0
ARC
  5
38E
330
1F
100
AcDbEntity
  8
0
  6
Continuous
 62
     7
370
    15
100
AcDbCircle
 10
-15.8842138701
 20
1072.3420714257
 30
0.0
 40
3.000000000003695
100
AcDbArc
 50
42.0622288951
 51
222.0622288951
  0
LINE
  5
38F
330
1F
100
AcDbEntity
  8
0
  6
Continuous
 62
     7
370
    15
100
AcDbLine
 10
-18.111465714
 20
1070.3322965194
 30
0.0
 11
-23.9765031552
 21
1027.7199822951
 31
0.0
  0
ARC
  5
390
330
1F
100
AcDbEntity
  8
0
  6
Continuous
 62
     7
370
    15
100
AcDbCircle
 10
-21.4152829837
 20
1026.1579131197
 30
0.0
 40
2.99999999999998
100
AcDbArc
 50
148.6209207385
 51
328.6209207388
  0
LINE
  5
391
330
1F
100
AcDbEntity
  8
0
  6
Continuous
 62
     7
370
    15
100
AcDbLine
 10
-1369.3025468206
 20
746.7994767714
 30
0.0
 11
-1323.2339976644
 21
168.4526878882
 31
0.0
  0
ARC
  5
392
330
1F
100
AcDbEntity
  8
0
  6
Continuous
 62
     7
370
    15
100
AcDbCircle
 10
-1287.4395778424
 20
753.3202743937
 30
0.0
 40
82.12226166502892
100
AcDbArc
 50
359.3836248937
 51
184.5543131205
  0
LINE
  5
393
330
1F
100
AcDbEntity
  8
0
  6
Continuous
 62
     7
370
    15
100
AcDbLine
 10
-1213.1097672796
 20
28.5547453452
 30
0.0
 11
-1205.3220628118
 21
752.4368840743
 31
0.0
  0
ARC
  5
394
330
1F
100
AcDbEntity
  8
0
  6
Continuous
 62
     7
370
    15
100
AcDbCircle
 10
-931.2248662135
 20
363.7401983039
 30
0.0
 40
437.9593267828761
100
AcDbArc
 50
206.481150594
 51
229.9367765568
  0
LINE
  5
395
330
1F
100
AcDbEntity
  8
0
  6
Continuous
 62
     7
370
    15
100
AcDbLine
 10
-1246.2426780081
 20
89.251168399
 30
0.0
 11
-1235.8098386144
 21
91.6184264708
 31
0.0
  0
ARC
  5
396
330
1F
100
AcDbEntity
  8
0
  6
Continuous
 62
     7
370
    15
100
AcDbCircle
 10
-1234.1146057968
 20
94.0935391575
 30
0.0
 40
2.999999999999928
100
AcDbArc
 50
235.5921461963
 51
55.5921461963
  0
LINE
  5
397
330
1F
100
AcDbEntity
  8
0
  6
Continuous
 62
     7
370
    15
100
AcDbLine
 10
-1232.4194072103
 20
96.5686518241
 30
0.0
 11
-1243.9147590017
 21
147.2297388602
 31
0.0
  0
ARC
  5
398
330
1F
100
AcDbEntity
  8
0
  6
Continuous
 62
     7
370
    15
100
AcDbCircle
 10
-1246.54641034
 20
148.6700295484
 30
0.0
 40
2.999999999999905
100
AcDbArc
 50
331.3085675736
 51
151.3085675735
  0
LINE
  5
399
330
1F
100
AcDbEntity
  8
0
  6
Continuous
 62
     7
370
    15
100
AcDbLine
 10
-1249.178087554
 20
150.1103121329
 30
0.0
 11
-1259.1930983877
 21
147.8378254462
 31
0.0
  0
ARC
  5
39A
330
1F
100
AcDbEntity
  8
0
  6
Continuous
 62
     7
370
    15
100
AcDbCircle
 10
-1260.7878112811
 20
145.2968190926
 30
0.0
 40
3.000000000000033
100
AcDbArc
 50
57.8872467428
 51
237.8872467428
  0
LINE
  5
39B
330
1F
100
AcDbEntity
  8
0
  6
Continuous
 62
     7
370
    15
100
AcDbLine
 10
-1262.3825429296
 20
142.7558142234
 30
0.0
 11
-1251.0550378179
 21
92.8345400382
 31
0.0
  0
ARC
  5
39C
330
1F
100
AcDbEntity
  8
0
  6
Continuous
 62
     7
370
    15
100
AcDbCircle
 10
-1248.6488361411
 20
91.0428374744
 30
0.0
 40
2.999999999999937
100
AcDbArc
 50
143.3284112518
 51
323.3284112518
  0
LINE
  5
39D
330
1F
100
AcDbEntity
  8
0
  6
Continuous
 62
     7
370
    15
100
AcDbLine
 10
-1282.0644734716
 20
664.9632531692
 30
0.0
 11
-1282.0644734716
 21
652.8272706557
 31
0.0
  0
ARC
  5
39E
330
1F
100
AcDbEntity
  8
0
  6
Continuous
 62
     7
370
    15
100
AcDbCircle
 10
-1284.7182387035
 20
666.3622891369
 30
0.0
 40
2.999999999999932
100
AcDbArc
 50
332.2022227702
 51
152.2022227702
  0
LINE
  5
39F
330
1F
100
AcDbEntity
  8
0
  6
Continuous
 62
     7
370
    15
100
AcDbLine
 10
-1322.0644353246
 20
652.9902297545
 30
0.0
 11
-1322.0644353246
 21
663.8614017058
 31
0.0
  0
ARC
  5
3A0
330
1F
100
AcDbEntity
  8
0
  6
Continuous
 62
     7
370
    15
100
AcDbCircle
 10
-1319.9362842642
 20
650.875807451
 30
0.0
 40
3.000000000000032
100
AcDbArc
 50
135.1849598261
 51
315.1849598261
  0
LINE
  5
3A1
330
1F
100
AcDbEntity
  8
0
  6
Continuous
 62
     7
370
    15
100
AcDbLine
 10
-1317.4702285146
 20
789.351828723
 30
0.0
 11
-1286.7975591039
 21
789.351828723
 31
0.0
  0
ARC
  5
3A2
330
1F
100
AcDbEntity
  8
0
  6
Continuous
 62
     7
370
    15
100
AcDbCircle
 10
-1319.7673493488
 20
787.4221716932
 30
0.0
 40
2.999999999999974
100
AcDbArc
 50
40.0309256868
 51
220.0309256868
  0
LINE
  5
3A3
330
1F
100
AcDbEntity
  8
0
  6
Continuous
 62
     7
370
    15
100
AcDbLine
 10
-1322.0644353246
 20
775.039323001
 30
0.0
 11
-1322.0644353246
 21
785.4925471831
 31
0.0
  0
ARC
  5
3A4
330
1F
100
AcDbEntity
  8
0
  6
Continuous
 62
     7
370
    15
100
AcDbCircle
 10
-1320.1918085707
 20
772.6955421316
 30
0.0
 40
3.000000000000034
100
AcDbArc
 50
128.6242986242
 51
308.6242986242
  0
LINE
  5
3A5
330
1F
100
AcDbEntity
  8
0
  6
Continuous
 62
     7
370
    15
100
AcDbLine
 10
-1286.8150828695
 20
770.3517753173
 30
0.0
 11
-1318.3191178655
 21
770.3517753173
 31
0.0
  0
ARC
  5
3A6
330
1F
100
AcDbEntity
  8
0
  6
Continuous
 62
     7
370
    15
100
AcDbCircle
 10
-1284.4397615622
 20
772.1842196496
 30
0.0
 40
3.00000000000004
100
AcDbArc
 50
217.648455626
 51
37.648455626
  0
LINE
  5
3A7
330
1F
100
AcDbEntity
  8
0
  6
Continuous
 62
     7
370
    15
100
AcDbLine
 10
-1282.0644734716
 20
785.6642085601
 30
0.0
 11
-1282.0644734716
 21
774.0166265059
 31
0.0
  0
ARC
  5
3A8
330
1F
100
AcDbEntity
  8
0
  6
Continuous
 62
     7
370
    15
100
AcDbCircle
 10
-1284.4309795915
 20
787.508002054
 30
0.0
 40
2.999999999999922
100
AcDbArc
 50
322.077801657
 51
142.077801657
  0
LINE
  5
3A9
330
1F
100
AcDbEntity
  8
0
  6
Continuous
 62
     7
370
    15
100
AcDbLine
 10
-1317.5047992086
 20
667.7613336135
 30
0.0
 11
-1287.3720286703
 21
667.7613336135
 31
0.0
  0
ARC
  5
3AA
330
1F
100
AcDbEntity
  8
0
  6
Continuous
 62
     7
370
    15
100
AcDbCircle
 10
-1319.7846019778
 20
665.8113892464
 30
0.0
 40
2.999999999999877
100
AcDbArc
 50
40.5405176774
 51
220.5405176774
  0
LINE
  5
3AB
330
1F
100
AcDbEntity
  8
0
  6
Continuous
 62
     7
370
    15
100
AcDbLine
 10
-1286.4766476965
 20
648.761399417
 30
0.0
 11
-1317.8080676412
 21
648.761399417
 31
0.0
  0
ARC
  5
3AC
330
1F
100
AcDbEntity
  8
0
  6
Continuous
 62
     7
370
    15
100
AcDbCircle
 10
-1284.2705732314
 20
650.7943199826
 30
0.0
 40
3.000000000000053
100
AcDbArc
 50
222.6608976687
 51
42.6608976687
  0
LINE
  5
3AD
330
1F
100
AcDbEntity
  8
0
  6
Continuous
 62
     7
370
    15
100
AcDbLine
 10
-1318.7656758642
 20
-48.9708703469
 30
0.0
 11
-1137.1752379751
 21
-48.9708703469
 31
0.0
  0
LINE
  5
3AE
330
1F
100
AcDbEntity
  8
0
  6
Continuous
 62
     7
370
    15
100
AcDbLine
 10
-1137.1752379751
 20
-48.9708703469
 30
0.0
 11
-1137.1752379751
 21
-633.1280541133
 31
0.0
  0
LINE
  5
3AF
330
1F
100
AcDbEntity
  8
0
  6
Continuous
 62
     7
370
    15
100
AcDbLine
 10
-1137.1752379751
 20
-633.1280541133
 30
0.0
 11
-1318.7656758642
 21
-633.1280541133
 31
0.0
  0
LINE
  5
3B0
330
1F
100
AcDbEntity
  8
0
  6
Continuous
 62
     7
370
    15
100
AcDbLine
 10
-1318.7656758642
 20
-633.1280541133
 30
0.0
 11
-1318.7656758642
 21
-48.9708703469
 31
0.0
  0
ARC
  5
3B1
330
1F
100
AcDbEntity
  8
0
  6
Continuous
 62
     7
370
    15
100
AcDbCircle
 10
-1271.6568020478
 20
-80.711591221
 30
0.0
 40
3.00000000000006
100
AcDbArc
 50
309.0774399878
 51
129.0774399878
  0
LINE
  5
3B2
330
1F
100
AcDbEntity
  8
0
  6
Continuous
 62
     7
370
    15
100
AcDbLine
 10
-1273.5479234075
 20
-78.3826929044
 30
0.0
 11
-1284.4555734014
 21
-78.3826929044
 31
0.0
  0
ARC
  5
3B3
330
1F
100
AcDbEntity
  8
0
  6
Continuous
 62
     7
370
    15
100
AcDbCircle
 10
-1286.6106589271
 20
-80.4697708668
 30
0.0
 40
2.999999999999939
100
AcDbArc
 50
44.0820584107
 51
224.0820584107
  0
LINE
  5
3B4
330
1F
100
AcDbEntity
  8
0
  6
Continuous
 62
     7
370
    15
100
AcDbLine
 10
-1288.7657044744
 20
-82.5568359803
 30
0.0
 11
-1288.7657044744
 21
-113.9354031991
 31
0.0
  0
ARC
  5
3B5
330
1F
100
AcDbEntity
  8
0
  6
Continuous
 62
     7
370
    15
100
AcDbCircle
 10
-1286.7518961804
 20
-116.1590551294
 30
0.0
 40
3.000000000000005
100
AcDbArc
 50
132.1647807694
 51
312.1647807694
  0
LINE
  5
3B6
330
1F
100
AcDbEntity
  8
0
  6
Continuous
 62
     7
370
    15
100
AcDbLine
 10
-1284.7380994177
 20
-118.3827143621
 30
0.0
 11
-1274.1912959432
 21
-118.3827143621
 31
0.0
  0
ARC
  5
3B7
330
1F
100
AcDbEntity
  8
0
  6
Continuous
 62
     7
370
    15
100
AcDbCircle
 10
-1271.9784757412
 20
-116.3569762803
 30
0.0
 40
2.999999999999896
100
AcDbArc
 50
222.4730731288
 51
42.4730731288
  0
LINE
  5
3B8
330
1F
100
AcDbEntity
  8
0
  6
Continuous
 62
     7
370
    15
100
AcDbLine
 10
-1269.7656510687
 20
-114.3312376451
 30
0.0
 11
-1269.7656510687
 21
-83.040468068
 31
0.0
  0
LINE
  5
3B9
330
1F
100
AcDbEntity
  8
0
  6
Continuous
 62
     7
370
    15
100
AcDbLine
 10
-1163.400328002
 20
-118.3827143621
 30
0.0
 11
-1152.7762769079
 21
-118.3827143621
 31
0.0
  0
ARC
  5
3BA
330
1F
100
AcDbEntity
  8
0
  6
Continuous
 62
     7
370
    15
100
AcDbCircle
 10
-1150.4757699314
 20
-116.457176776
 30
0.0
 40
2.999999999999972
100
AcDbArc
 50
219.9294205423
 51
39.9294205423
  0
LINE
  5
3BB
330
1F
100
AcDbEntity
  8
0
  6
Continuous
 62
     7
370
    15
100
AcDbLine
 10
-1148.1752751684
 20
-114.5316582631
 30
0.0
 11
-1148.1752751684
 21
-82.8688066911
 31
0.0
  0
ARC
  5
3BC
330
1F
100
AcDbEntity
  8
0
  6
Continuous
 62
     7
370
    15
100
AcDbCircle
 10
-1150.1674248306
 20
-80.6257611147
 30
0.0
 40
2.99999999999992
100
AcDbArc
 50
311.6097898411
 51
131.6097898411
  0
LINE
  5
3BD
330
1F
100
AcDbEntity
  8
0
  6
Continuous
 62
     7
370
    15
100
AcDbLine
 10
-1152.1596072531
 20
-78.3826929044
 30
0.0
 11
-1163.341080985
 21
-78.3826929044
 31
0.0
  0
ARC
  5
3BE
330
1F
100
AcDbEntity
  8
0
  6
Continuous
 62
     7
370
    15
100
AcDbCircle
 10
-1165.2581540379
 20
-80.6902369614
 30
0.0
 40
3.000000000000034
100
AcDbArc
 50
50.2800045369
 51
230.2800045369
  0
LINE
  5
3BF
330
1F
100
AcDbEntity
  8
0
  6
Continuous
 62
     7
370
    15
100
AcDbLine
 10
-1167.1752093649
 20
-82.99776134
 30
0.0
 11
-1167.1752093649
 21
-113.7190383386
 31
0.0
  0
ARC
  5
3C0
330
1F
100
AcDbEntity
  8
0
  6
Continuous
 62
     7
370
    15
100
AcDbCircle
 10
-1165.2877930461
 20
-116.0508715435
 30
0.0
 40
2.999999999999995
100
AcDbArc
 50
128.9879268185
 51
308.9879268185
  0
ARC
  5
3C1
330
1F
100
AcDbEntity
  8
0
  6
Continuous
 62
     7
370
    15
100
AcDbCircle
 10
-1226.5931294514
 20
-359.276257448
 30
0.0
 40
2.999999999999938
100
AcDbArc
 50
322.2301988331
 51
142.2301988331
  0
LINE
  5
3C2
330
1F
100
AcDbEntity
  8
0
  6
Continuous
 62
     7
370
    15
100
AcDbLine
 10
-1228.9646027899
 20
-357.4387874912
 30
0.0
 11
-1239.7992966985
 21
-357.4387874912
 31
0.0
  0
ARC
  5
3C3
330
1F
100
AcDbEntity
  8
0
  6
Continuous
 62
     7
370
    15
100
AcDbCircle
 10
-1241.5104796755
 20
-359.9028760417
 30
0.0
 40
2.999999999999978
100
AcDbArc
 50
55.2215057945
 51
235.2215057945
  0
LINE
  5
3C4
330
1F
100
AcDbEntity
  8
0
  6
Continuous
 62
     7
370
    15
100
AcDbLine
 10
-1243.2216761923
 20
-362.3669665765
 30
0.0
 11
-1243.2216761923
 21
-413.2530238937
 31
0.0
  0
ARC
  5
3C5
330
1F
100
AcDbEntity
  8
0
  6
Continuous
 62
     7
370
    15
100
AcDbCircle
 10
-1241.072313071
 20
-415.3459040289
 30
0.0
 40
3.000000000000272
100
AcDbArc
 50
135.7630491058
 51
315.7630491057
  0
LINE
  5
3C6
330
1F
100
AcDbEntity
  8
0
  6
Continuous
 62
     7
370
    15
100
AcDbLine
 10
-1238.9229892111
 20
-417.4387861501
 30
0.0
 11
-1229.5363305425
 21
-417.4387861501
 31
0.0
  0
ARC
  5
3C7
330
1F
100
AcDbEntity
  8
0
  6
Continuous
 62
     7
370
    15
100
AcDbCircle
 10
-1226.8790380888
 20
-416.0464745703
 30
0.0
 40
2.999999999999999
100
AcDbArc
 50
207.6522363042
 51
27.6522363042
  0
LINE
  5
3C8
330
1F
100
AcDbEntity
  8
0
  6
Continuous
 62
     7
370
    15
100
AcDbLine
 10
-1224.2217419958
 20
-414.6541614543
 30
0.0
 11
-1224.2217419958
 21
-361.113726766
 31
0.0
  0
LINE
  5
3C9
330
1F
100
AcDbEntity
  8
0
  6
Continuous
 62
     7
370
    15
100
AcDbLine
 10
-1224.0074036932
 20
-553.2999258946
 30
0.0
 11
-1213.5229466772
 21
-550.248987646
 31
0.0
  0
ARC
  5
3CA
330
1F
100
AcDbEntity
  8
0
  6
Continuous
 62
     7
370
    15
100
AcDbCircle
 10
-1212.1162064855
 20
-547.5992622074
 30
0.0
 40
3.000000000000332
100
AcDbArc
 50
242.0358913243
 51
62.0358913242
  0
LINE
  5
3CB
330
1F
100
AcDbEntity
  8
0
  6
Continuous
 62
     7
370
    15
100
AcDbLine
 10
-1222.5039361334
 20
-504.4179965269
 30
0.0
 11
-1210.7094882345
 21
-544.949538679
 31
0.0
  0
ARC
  5
3CC
330
1F
100
AcDbEntity
  8
0
  6
Continuous
 62
     7
370
    15
100
AcDbCircle
 10
-1225.3356471227
 20
-503.4272396751
 30
0.0
 40
3.000000000000122
100
AcDbArc
 50
340.7159381529
 51
160.715938153
  0
LINE
  5
3CD
330
1F
100
AcDbEntity
  8
0
  6
Continuous
 62
     7
370
    15
100
AcDbLine
 10
-1237.611687026
 20
-505.184746952
 30
0.0
 11
-1228.1673310613
 21
-502.4364848148
 31
0.0
  0
ARC
  5
3CE
330
1F
100
AcDbEntity
  8
0
  6
Continuous
 62
     7
370
    15
100
AcDbCircle
 10
-1239.0788405887
 20
-507.8014974226
 30
0.0
 40
2.999999999999867
100
AcDbArc
 50
60.7211586719
 51
240.7211586719
  0
LINE
  5
3CF
330
1F
100
AcDbEntity
  8
0
  6
Continuous
 62
     7
370
    15
100
AcDbLine
 10
-1240.5460236883
 20
-510.4182471048
 30
0.0
 11
-1229.0250418997
 21
-550.0099357676
 31
0.0
  0
ARC
  5
3D0
330
1F
100
AcDbEntity
  8
0
  6
Continuous
 62
     7
370
    15
100
AcDbCircle
 10
-1226.5162145077
 20
-551.6549313205
 30
0.0
 40
3.000000000000153
100
AcDbArc
 50
146.7473843838
 51
326.7473843838
  0
CIRCLE
  5
3D1
330
1F
100
AcDbEntity
  8
0
  6
Continuous
 62
     7
370
    15
100
AcDbCircle
 10
-2348.2312486617
 20
135.371515882
 30
0.0
 40
2.500000000000057
  0
CIRCLE
  5
3D2
330
1F
100
AcDbEntity
  8
0
  6
Continuous
 62
     7
370
    15
100
AcDbCircle
 10
-2270.1037969287
 20
77.5174802693
 30
0.0
 40
2.500000000000057
  0
CIRCLE
  5
3D3
330
1F
100
AcDbEntity
  8
0
  6
Continuous
 62
     7
370
    15
100
AcDbCircle
 10
-1874.5530610461
 20
77.5174802693
 30
0.0
 40
2.500000000000057
  0
CIRCLE
  5
3D4
330
1F
100
AcDbEntity
  8
0
  6
Continuous
 62
     7
370
    15
100
AcDbCircle
 10
-1796.4256093131
 20
135.371515882
 30
0.0
 40
2.500000000000057
  0
LINE
  5
3D5
330
1F
100
AcDbEntity
  8
0
  6
Continuous
 62
     7
370
    15
100
AcDbLine
 10
-1792.3283933019
 20
184.4010430861
 30
0.0
 11
-1763.4843943929
 21
184.4010430861
 31
0.0
  0
LINE
  5
3D6
330
1F
100
AcDbEntity
  8
0
  6
Continuous
 62
     7
370
    15
100
AcDbLine
 10
-1763.4843943929
 20
98.8709408332
 30
0.0
 11
-1763.4843943929
 21
184.4010430861
 31
0.0
  0
ARC
  5
3D7
330
1F
100
AcDbEntity
  8
0
  6
Continuous
 62
     7
370
    15
100
AcDbCircle
 10
-2072.3284289874
 20
495.4876269094
 30
0.0
 40
502.6822601657113
100
AcDbArc
 50
232.0922290695
 51
307.9077709305
  0
LINE
  5
3D8
330
1F
100
AcDbEntity
  8
0
  6
Continuous
 62
     7
370
    15
100
AcDbLine
 10
-2381.1724541998
 20
184.4010430861
 30
0.0
 11
-2381.1724541998
 21
98.8709408332
 31
0.0
  0
LINE
  5
3D9
330
1F
100
AcDbEntity
  8
0
  6
Continuous
 62
     7
370
    15
100
AcDbLine
 10
-2381.1724541998
 20
184.4010430861
 30
0.0
 11
-2352.3283360815
 21
184.4010430861
 31
0.0
  0
LINE
  5
3DA
330
1F
100
AcDbEntity
  8
0
  6
Continuous
 62
     7
370
    15
100
AcDbLine
 10
-2352.3283360815
 20
184.4010430861
 30
0.0
 11
-2314.9128316259
 21
160.2084118415
 31
0.0
  0
ARC
  5
3DB
330
1F
100
AcDbEntity
  8
0
  6
Continuous
 62
     7
370
    15
100
AcDbCircle
 10
-2311.9273723545
 20
160.5026204024
 30
0.0
 40
3.000000000000095
100
AcDbArc
 50
185.6283737731
 51
5.6283737731
  0
LINE
  5
3DC
330
1F
100
AcDbEntity
  8
0
  6
Continuous
 62
     7
370
    15
100
AcDbLine
 10
-2308.9418767309
 20
160.7968288947
 30
0.0
 11
-2300.6539700842
 21
173.6145097304
 31
0.0
  0
LINE
  5
3DD
330
1F
100
AcDbEntity
  8
0
  6
Continuous
 62
     7
370
    15
100
AcDbLine
 10
-2300.6539700842
 20
173.6145097304
 30
0.0
 11
-2258.6665509558
 21
146.4657265235
 31
0.0
  0
LINE
  5
3DE
330
1F
100
AcDbEntity
  8
0
  6
Continuous
 62
     7
370
    15
100
AcDbLine
 10
-2258.6665509558
 20
146.4657265235
 30
0.0
 11
-2266.6349767065
 21
134.142168193
 31
0.0
  0
ARC
  5
3DF
330
1F
100
AcDbEntity
  8
0
  6
Continuous
 62
     7
370
    15
100
AcDbCircle
 10
-2266.0628008647
 20
131.1972140789
 30
0.0
 40
3.000000000000226
100
AcDbArc
 50
100.9944053242
 51
280.9944053243
  0
LINE
  5
3E0
330
1F
100
AcDbEntity
  8
0
  6
Continuous
 62
     7
370
    15
100
AcDbLine
 10
-2265.4905675268
 20
128.2522756148
 30
0.0
 11
-2223.24279531
 21
100.9351092864
 31
0.0
  0
LINE
  5
3E1
330
1F
100
AcDbEntity
  8
0
  6
Continuous
 62
     7
370
    15
100
AcDbLine
 10
-2223.24279531
 20
100.9351092864
 30
0.0
 11
-2181.8960069036
 21
92.9264504004
 31
0.0
  0
ARC
  5
3E2
330
1F
100
AcDbEntity
  8
0
  6
Continuous
 62
     7
370
    15
100
AcDbCircle
 10
-2179.369176883
 20
94.5436462372
 30
0.0
 40
3.000000000000106
100
AcDbArc
 50
212.6203959534
 51
32.6203959534
  0
LINE
  5
3E3
330
1F
100
AcDbEntity
  8
0
  6
Continuous
 62
     7
370
    15
100
AcDbLine
 10
-2176.842486701
 20
96.1608368445
 30
0.0
 11
-2174.0160344457
 21
110.7532459784
 31
0.0
  0
LINE
  5
3E4
330
1F
100
AcDbEntity
  8
0
  6
Continuous
 62
     7
370
    15
100
AcDbLine
 10
-2174.0160344457
 20
110.7532459784
 30
0.0
 11
-2124.9282716131
 21
101.2452322532
 31
0.0
  0
LINE
  5
3E5
330
1F
100
AcDbEntity
  8
0
  6
Continuous
 62
     7
370
    15
100
AcDbLine
 10
-2124.9282716131
 20
101.2452322532
 30
0.0
 11
-2127.7455447531
 21
86.7006260444
 31
0.0
  0
ARC
  5
3E6
330
1F
100
AcDbEntity
  8
0
  6
Continuous
 62
     7
370
    15
100
AcDbCircle
 10
-2126.032913133
 20
84.2374784692
 30
0.0
 40
3.000000000000371
100
AcDbArc
 50
124.8100859788
 51
304.8100859788
  0
LINE
  5
3E7
330
1F
100
AcDbEntity
  8
0
  6
Continuous
 62
     7
370
    15
100
AcDbLine
 10
-2124.3203042364
 20
81.7743617583
 30
0.0
 11
-2072.328483901
 21
71.703739791
 31
0.0
  0
LINE
  5
3E8
330
1F
100
AcDbEntity
  8
0
  6
Continuous
 62
     7
370
    15
100
AcDbLine
 10
-2072.328483901
 20
71.703739791
 30
0.0
 11
-2021.1075900411
 21
81.6249925185
 31
0.0
  0
ARC
  5
3E9
330
1F
100
AcDbEntity
  8
0
  6
Continuous
 62
     7
370
    15
100
AcDbCircle
 10
-2018.9143877557
 20
83.6719250582
 30
0.0
 40
3.000000000000031
100
AcDbArc
 50
223.024699544
 51
43.024699544
  0
LINE
  5
3EA
330
1F
100
AcDbEntity
  8
0
  6
Continuous
 62
     7
370
    15
100
AcDbLine
 10
-2016.7211650228
 20
85.7188779403
 30
0.0
 11
-2019.7285769796
 21
101.2452322532
 31
0.0
  0
LINE
  5
3EB
330
1F
100
AcDbEntity
  8
0
  6
Continuous
 62
     7
370
    15
100
AcDbLine
 10
-2019.7285769796
 20
101.2452322532
 30
0.0
 11
-1970.6409333563
 21
110.7532459784
 31
0.0
  0
LINE
  5
3EC
330
1F
100
AcDbEntity
  8
0
  6
Continuous
 62
     7
370
    15
100
AcDbLine
 10
-1970.6409333563
 20
110.7532459784
 30
0.0
 11
-1967.8537009573
 21
96.3633138228
 31
0.0
  0
ARC
  5
3ED
330
1F
100
AcDbEntity
  8
0
  6
Continuous
 62
     7
370
    15
100
AcDbCircle
 10
-1965.4084332532
 20
94.6252886543
 30
0.0
 40
3.000000000000171
100
AcDbArc
 50
144.5954804739
 51
324.5954804739
  0
LINE
  5
3EE
330
1F
100
AcDbEntity
  8
0
  6
Continuous
 62
     7
370
    15
100
AcDbLine
 10
-1962.9631398535
 20
92.8872305442
 30
0.0
 11
-1921.4139340734
 21
100.9351092864
 31
0.0
  0
LINE
  5
3EF
330
1F
100
AcDbEntity
  8
0
  6
Continuous
 62
     7
370
    15
100
AcDbLine
 10
-1921.4139340734
 20
100.9351092864
 30
0.0
 11
-1879.3552277899
 21
128.130086093
 31
0.0
  0
ARC
  5
3F0
330
1F
100
AcDbEntity
  8
0
  6
Continuous
 62
     7
370
    15
100
AcDbCircle
 10
-1878.6265680285
 20
131.0402494069
 30
0.0
 40
2.999999999999994
100
AcDbArc
 50
255.9437986855
 51
75.9437986855
  0
LINE
  5
3F1
330
1F
100
AcDbEntity
  8
0
  6
Continuous
 62
     7
370
    15
100
AcDbLine
 10
-1877.8978942251
 20
133.9504200507
 30
0.0
 11
-1885.990297637
 21
146.4657265235
 31
0.0
  0
LINE
  5
3F2
330
1F
100
AcDbEntity
  8
0
  6
Continuous
 62
     7
370
    15
100
AcDbLine
 10
-1885.990297637
 20
146.4657265235
 30
0.0
 11
-1844.0028785085
 21
173.6145097304
 31
0.0
  0
LINE
  5
3F3
330
1F
100
AcDbEntity
  8
0
  6
Continuous
 62
     7
370
    15
100
AcDbLine
 10
-1844.0028785085
 20
173.6145097304
 30
0.0
 11
-1835.9296677923
 21
161.1288863708
 31
0.0
  0
ARC
  5
3F4
330
1F
100
AcDbEntity
  8
0
  6
Continuous
 62
     7
370
    15
100
AcDbCircle
 10
-1832.9812366586
 20
160.5752645563
 30
0.0
 40
3.000000000000074
100
AcDbArc
 50
169.3657742934
 51
349.3657742934
  0
LINE
  5
3F5
330
1F
100
AcDbEntity
  8
0
  6
Continuous
 62
     7
370
    15
100
AcDbLine
 10
-1830.0327418661
 20
160.0216704894
 30
0.0
 11
-1792.3283933019
 21
184.4010430861
 31
0.0
  0
LINE
  5
3F6
330
1F
100
AcDbEntity
  8
0
  6
Continuous
 62
     7
370
    15
100
AcDbLine
 10
-1902.2398351049
 20
-148.1116038274
 30
0.0
 11
-1893.8674090719
 21
-154.3663364362
 31
0.0
  0
LINE
  5
3F7
330
1F
100
AcDbEntity
  8
0
  6
Continuous
 62
     7
370
    15
100
AcDbLine
 10
-1950.3385184622
 20
-205.5344503831
 30
0.0
 11
-1908.1615565634
 21
-149.0776163053
 31
0.0
  0
LINE
  5
3F8
330
1F
100
AcDbEntity
  8
0
  6
Continuous
 62
     7
370
    15
100
AcDbLine
 10
-1950.3385184622
 20
-205.5344503831
 30
0.0
 11
-2307.165419898
 21
-240.6120371532
 31
0.0
  0
LINE
  5
3F9
330
1F
100
AcDbEntity
  8
0
  6
Continuous
 62
     7
370
    15
100
AcDbLine
 10
-2316.1614297247
 20
-224.0100127172
 30
0.0
 11
-2307.165419898
 21
-240.6120371532
 31
0.0
  0
ARC
  5
3FA
330
1F
100
AcDbEntity
  8
0
  6
Continuous
 62
     7
370
    15
100
AcDbCircle
 10
-2319.0521569685
 20
-223.2077770096
 30
0.0
 40
3.000000000000199
100
AcDbArc
 50
344.4898107013
 51
164.4898107013
  0
LINE
  5
3FB
330
1F
100
AcDbEntity
  8
0
  6
Continuous
 62
     7
370
    15
100
AcDbLine
 10
-2330.9169171667
 20
-227.2681814145
 30
0.0
 11
-2321.9428418493
 21
-222.4055450868
 31
0.0
  0
ARC
  5
3FC
330
1F
100
AcDbEntity
  8
0
  6
Continuous
 62
     7
370
    15
100
AcDbCircle
 10
-2331.9316503796
 20
-230.0913142938
 30
0.0
 40
3.000000000000425
100
AcDbArc
 50
70.2278686187
 51
250.2278686187
  0
LINE
  5
3FD
330
1F
100
AcDbEntity
  8
0
  6
Continuous
 62
     7
370
    15
100
AcDbLine
 10
-2327.6825307226
 20
-242.6289689254
 30
0.0
 11
-2332.9465745306
 21
-232.9144549083
 31
0.0
  0
LINE
  5
3FE
330
1F
100
AcDbEntity
  8
0
  6
Continuous
 62
     7
370
    15
100
AcDbLine
 10
-2327.6825307226
 20
-242.6289689254
 30
0.0
 11
-2418.1266187048
 21
-251.5200000714
 31
0.0
  0
LINE
  5
3FF
330
1F
100
AcDbEntity
  8
0
  6
Continuous
 62
     7
370
    15
100
AcDbLine
 10
-2418.1266187048
 20
-251.5200000714
 30
0.0
 11
-2309.6382974005
 21
-192.7341443013
 31
0.0
  0
LINE
  5
400
330
1F
100
AcDbEntity
  8
0
  6
Continuous
 62
     7
370
    15
100
AcDbLine
 10
-2309.6382974005
 20
-192.7341443013
 30
0.0
 11
-2249.9127744055
 21
-177.2668581914
 31
0.0
  0
LINE
  5
401
330
1F
100
AcDbEntity
  8
0
  6
Continuous
 62
     7
370
    15
100
AcDbLine
 10
-2249.9127744055
 20
-177.2668581914
 30
0.0
 11
-2189.2605183935
 21
-165.9668308209
 31
0.0
  0
LINE
  5
402
330
1F
100
AcDbEntity
  8
0
  6
Continuous
 62
     7
370
    15
100
AcDbLine
 10
-2189.2605183935
 20
-165.9668308209
 30
0.0
 11
-2129.8368333196
 21
-149.3780833196
 31
0.0
  0
LINE
  5
403
330
1F
100
AcDbEntity
  8
0
  6
Continuous
 62
     7
370
    15
100
AcDbLine
 10
-2129.8368333196
 20
-149.3780833196
 30
0.0
 11
-2075.3488896703
 21
-120.4394918393
 31
0.0
  0
LINE
  5
404
330
1F
100
AcDbEntity
  8
0
  6
Continuous
 62
     7
370
    15
100
AcDbLine
 10
-2075.3488896703
 20
-120.4394918393
 30
0.0
 11
-2019.4250701284
 21
-94.3838876199
 31
0.0
  0
LINE
  5
405
330
1F
100
AcDbEntity
  8
0
  6
Continuous
 62
     7
370
    15
100
AcDbLine
 10
-2019.4250701284
 20
-94.3838876199
 30
0.0
 11
-1958.1718800878
 21
-87.0070379685
 31
0.0
  0
LINE
  5
406
330
1F
100
AcDbEntity
  8
0
  6
Continuous
 62
     7
370
    15
100
AcDbLine
 10
-1958.1718800878
 20
-87.0070379685
 30
0.0
 11
-1898.1122134542
 21
-101.1216264676
 31
0.0
  0
LINE
  5
407
330
1F
100
AcDbEntity
  8
0
  6
Continuous
 62
     7
370
    15
100
AcDbLine
 10
-1898.1122134542
 20
-101.1216264676
 30
0.0
 11
-1848.6861346578
 21
-138.0462866735
 31
0.0
  0
LINE
  5
408
330
1F
100
AcDbEntity
  8
0
  6
Continuous
 62
     7
370
    15
100
AcDbLine
 10
-1848.6861346578
 20
-138.0462866735
 30
0.0
 11
-1820.1271651602
 21
-192.7341443013
 31
0.0
  0
LINE
  5
409
330
1F
100
AcDbEntity
  8
0
  6
Continuous
 62
     7
370
    15
100
AcDbLine
 10
-1820.1271651602
 20
-192.7341443013
 30
0.0
 11
-1924.7421382284
 21
-203.0182403039
 31
0.0
  0
LINE
  5
40A
330
1F
100
AcDbEntity
  8
0
  6
Continuous
 62
     7
370
    15
100
AcDbLine
 10
-1892.8078769064
 20
-160.2720242452
 30
0.0
 11
-1924.7421382284
 21
-203.0182403039
 31
0.0
  0
ARC
  5
40B
330
1F
100
AcDbEntity
  8
0
  6
Continuous
 62
     7
370
    15
100
AcDbCircle
 10
-1893.3376550611
 20
-157.3191836646
 30
0.0
 40
2.999999999999992
100
AcDbArc
 50
280.1709923682
 51
100.1709923682
  0
ARC
  5
40C
330
1F
100
AcDbEntity
  8
0
  6
Continuous
 62
     7
370
    15
100
AcDbCircle
 10
-1905.2006454608
 20
-148.5946072565
 30
0.0
 40
3.000000000000099
100
AcDbArc
 50
9.2648988217
 51
189.2648988217
  0
LINE
  5
40D
330
1F
100
AcDbEntity
  8
0
  6
Continuous
 62
     7
370
    15
100
AcDbLine
 10
-2415.1461480474
 20
-492.4932305228
 30
0.0
 11
-1835.4579566335
 21
-492.4932305228
 31
0.0
  0
LINE
  5
40E
330
1F
100
AcDbEntity
  8
0
  6
Continuous
 62
     7
370
    15
100
AcDbLine
 10
-2415.1461480474
 20
-492.4932305228
 30
0.0
 11
-2415.1461480474
 21
-461.2082533065
 31
0.0
  0
ARC
  5
40F
330
1F
100
AcDbEntity
  8
0
  6
Continuous
 62
     7
370
    15
100
AcDbCircle
 10
-2417.3649458857
 20
-459.1892269759
 30
0.0
 40
3.000000000000246
100
AcDbArc
 50
317.7002848873
 51
137.7002848873
  0
LINE
  5
410
330
1F
100
AcDbEntity
  8
0
  6
Continuous
 62
     7
370
    15
100
AcDbLine
 10
-2434.1459630346
 20
-457.1702002074
 30
0.0
 11
-2419.5838330602
 21
-457.1702002074
 31
0.0
  0
LINE
  5
411
330
1F
100
AcDbEntity
  8
0
  6
Continuous
 62
     7
370
    15
100
AcDbLine
 10
-2434.1459630346
 20
-407.1702022563
 30
0.0
 11
-2434.1459630346
 21
-457.1702002074
 31
0.0
  0
LINE
  5
412
330
1F
100
AcDbEntity
  8
0
  6
Continuous
 62
     7
370
    15
100
AcDbLine
 10
-2419.7333215093
 20
-407.1702022563
 30
0.0
 11
-2434.1459630346
 21
-407.1702022563
 31
0.0
  0
ARC
  5
413
330
1F
100
AcDbEntity
  8
0
  6
Continuous
 62
     7
370
    15
100
AcDbCircle
 10
-2417.4396394977
 20
-405.2364442542
 30
0.0
 40
3.000000000000285
100
AcDbArc
 50
220.1345976514
 51
40.1345976514
  0
LINE
  5
414
330
1F
100
AcDbEntity
  8
0
  6
Continuous
 62
     7
370
    15
100
AcDbLine
 10
-2415.1461480474
 20
-403.3026915502
 30
0.0
 11
-2415.1461480474
 21
-378.2017153214
 31
0.0
  0
LINE
  5
415
330
1F
100
AcDbEntity
  8
0
  6
Continuous
 62
     7
370
    15
100
AcDbLine
 10
-2415.1461480474
 20
-378.2017153214
 30
0.0
 11
-2134.8019002294
 21
-378.2017153214
 31
0.0
  0
LINE
  5
416
330
1F
100
AcDbEntity
  8
0
  6
Continuous
 62
     7
370
    15
100
AcDbLine
 10
-2134.8019002294
 20
-378.2017153214
 30
0.0
 11
-2134.8019002294
 21
-418.3169451069
 31
0.0
  0
ARC
  5
417
330
1F
100
AcDbEntity
  8
0
  6
Continuous
 62
     7
370
    15
100
AcDbCircle
 10
-2131.801974493
 20
-418.3169459455
 30
0.0
 40
3.0
100
AcDbArc
 50
180.0
 51
0.0
  0
LINE
  5
418
330
1F
100
AcDbEntity
  8
0
  6
Continuous
 62
     7
370
    15
100
AcDbLine
 10
-2128.8019774771
 20
-418.3169451069
 30
0.0
 11
-2121.8020079946
 21
-418.3169451069
 31
0.0
  0
ARC
  5
419
330
1F
100
AcDbEntity
  8
0
  6
Continuous
 62
     7
370
    15
100
AcDbCircle
 10
-2118.801974493
 20
-418.3169459455
 30
0.0
 40
3.0
100
AcDbArc
 50
180.0
 51
0.0
  0
LINE
  5
41A
330
1F
100
AcDbEntity
  8
0
  6
Continuous
 62
     7
370
    15
100
AcDbLine
 10
-2115.801966033
 20
-418.3169451069
 30
0.0
 11
-2115.801966033
 21
-378.2017153214
 31
0.0
  0
LINE
  5
41B
330
1F
100
AcDbEntity
  8
0
  6
Continuous
 62
     7
370
    15
100
AcDbLine
 10
-2115.801966033
 20
-378.2017153214
 30
0.0
 11
-1835.4579566335
 21
-378.2017153214
 31
0.0
  0
LINE
  5
41C
330
1F
100
AcDbEntity
  8
0
  6
Continuous
 62
     7
370
    15
100
AcDbLine
 10
-1835.4579566335
 20
-402.5851335835
 30
0.0
 11
-1835.4579566335
 21
-378.2017153214
 31
0.0
  0
ARC
  5
41D
330
1F
100
AcDbEntity
  8
0
  6
Continuous
 62
     7
370
    15
100
AcDbCircle
 10
-1833.5228902261
 20
-404.8776664308
 30
0.0
 40
3.00000000000005
100
AcDbArc
 50
130.166080298
 51
310.166080298
  0
LINE
  5
41E
330
1F
100
AcDbEntity
  8
0
  6
Continuous
 62
     7
370
    15
100
AcDbLine
 10
-1816.4579032278
 20
-407.1702022563
 30
0.0
 11
-1831.5878270483
 21
-407.1702022563
 31
0.0
  0
LINE
  5
41F
330
1F
100
AcDbEntity
  8
0
  6
Continuous
 62
     7
370
    15
100
AcDbLine
 10
-1816.4579032278
 20
-457.1702002074
 30
0.0
 11
-1816.4579032278
 21
-407.1702022563
 31
0.0
  0
LINE
  5
420
330
1F
100
AcDbEntity
  8
0
  6
Continuous
 62
     7
370
    15
100
AcDbLine
 10
-1832.3349116659
 20
-457.1702002074
 30
0.0
 11
-1816.4579032278
 21
-457.1702002074
 31
0.0
  0
ARC
  5
421
330
1F
100
AcDbEntity
  8
0
  6
Continuous
 62
     7
370
    15
100
AcDbCircle
 10
-1833.8963819081
 20
-459.7317705308
 30
0.0
 40
3.000000000000086
100
AcDbArc
 50
58.6336551515
 51
238.6336551515
  0
LINE
  5
422
330
1F
100
AcDbEntity
  8
0
  6
Continuous
 62
     7
370
    15
100
AcDbLine
 10
-1835.4579566335
 20
-492.4932305228
 30
0.0
 11
-1835.4579566335
 21
-462.2933404978
 31
0.0
  0
ENDSEC
  0
SECTION
  2
OBJECTS
  0
DICTIONARY
  5
C
330
0
100
AcDbDictionary
281
     1
  3
ACAD_GROUP
350
D
  3
ACAD_LAYOUT
350
1A
  3
ACAD_MLINESTYLE
350
17
  3
ACAD_PLOTSETTINGS
350
19
  3
ACAD_PLOTSTYLENAME
350
E
  0
DICTIONARY
  5
D
102
{ACAD_REACTORS
330
C
102
}
330
C
100
AcDbDictionary
281
     1
  0
DICTIONARY
  5
1A
102
{ACAD_REACTORS
330
C
102
}
330
C
100
AcDbDictionary
281
     1
  3
Layout1
350
1E
  3
Layout2
350
26
  3
Model
350
22
  0
DICTIONARY
  5
17
102
{ACAD_REACTORS
330
C
102
}
330
C
100
AcDbDictionary
281
     1
  3
Standard
350
18
  0
DICTIONARY
  5
19
102
{ACAD_REACTORS
330
C
102
}
330
C
100
AcDbDictionary
281
     1
  0
ACDBDICTIONARYWDFLT
  5
E
102
{ACAD_REACTORS
330
C
102
}
330
C
100
AcDbDictionary
281
     1
  3
Normal
350
F
100
AcDbDictionaryWithDefault
340
F
  0
LAYOUT
  5
1E
102
{ACAD_REACTORS
330
1A
102
}
330
1A
100
AcDbPlotSettings
  1

  2
none_device
  4

  6

 40
0.0
 41
0.0
 42
0.0
 43
0.0
 44
0.0
 45
0.0
 46
0.0
 47
0.0
 48
0.0
 49
0.0
140
0.0
141
0.0
142
1.0
143
1.0
 70
   688
 72
     0
 73
     0
 74
     5
  7

 75
    16
147
1.0
148
0.0
149
0.0
100
AcDbLayout
  1
Layout1
 70
     1
 71
     1
 10
0.0
 20
0.0
 11
420.0
 21
297.0
 12
0.0
 22
0.0
 32
0.0
 14
1.0000000000E+20
 24
1.0000000000E+20
 34
1.0000000000E+20
 15
-1.0000000000E+20
 25
-1.0000000000E+20
 35
-1.0000000000E+20
146
0.0
 13
0.0
 23
0.0
 33
0.0
 16
1.0
 26
0.0
 36
0.0
 17
0.0
 27
1.0
 37
0.0
 76
     0
330
1B
  0
LAYOUT
  5
26
102
{ACAD_REACTORS
330
1A
102
}
330
1A
100
AcDbPlotSettings
  1

  2
none_device
  4

  6

 40
0.0
 41
0.0
 42
0.0
 43
0.0
 44
0.0
 45
0.0
 46
0.0
 47
0.0
 48
0.0
 49
0.0
140
0.0
141
0.0
142
1.0
143
1.0
 70
   688
 72
     0
 73
     0
 74
     5
  7

 75
    16
147
1.0
148
0.0
149
0.0
100
AcDbLayout
  1
Layout2
 70
     1
 71
     2
 10
0.0
 20
0.0
 11
0.0
 21
0.0
 12
0.0
 22
0.0
 32
0.0
 14
0.0
 24
0.0
 34
0.0
 15
0.0
 25
0.0
 35
0.0
146
0.0
 13
0.0
 23
0.0
 33
0.0
 16
1.0
 26
0.0
 36
0.0
 17
0.0
 27
1.0
 37
0.0
 76
     0
330
23
  0
LAYOUT
  5
22
102
{ACAD_REACTORS
330
1A
102
}
330
1A
100
AcDbPlotSettings
  1

  2
none_device
  4

  6

 40
0.0
 41
0.0
 42
0.0
 43
0.0
 44
0.0
 45
0.0
 46
0.0
 47
0.0
 48
0.0
 49
0.0
140
0.0
141
0.0
142
1.0
143
1.0
 70
  1712
 72
     0
 73
     0
 74
     0
  7

 75
     0
147
1.0
148
0.0
149
0.0
100
AcDbLayout
  1
Model
 70
     1
 71
     0
 10
0.0
 20
0.0
 11
210.0
 21
297.0
 12
0.0
 22
0.0
 32
0.0
 14
0.0
 24
0.0
 34
0.0
 15
210.0
 25
297.0
 35
0.0
146
0.0
 13
0.0
 23
0.0
 33
0.0
 16
1.0
 26
0.0
 36
0.0
 17
0.0
 27
1.0
 37
0.0
 76
     0
330
1F
331
29
  0
MLINESTYLE
  5
18
102
{ACAD_REACTORS
330
17
102
}
330
17
100
AcDbMlineStyle
  2
Standard
 70
     0
  3

 62
   256
 51
90.0
 52
90.0
 71
     2
 49
0.5
 62
   256
  6
BYLAYER
 49
-0.5
 62
   256
  6
BYLAYER
  0
ACDBPLACEHOLDER
  5
F
102
{ACAD_REACTORS
330
E
102
}
330
E
  0
ENDSEC
  0
EOF
