  0
SECTION
  2
HEADER
  9
$ACADVER
  1
AC1015
  9
$ACADMAINTVER
 70
     6
  9
$DWGCODEPAGE
  3
ANSI_1251
  9
$INSBASE
 10
0.0
 20
0.0
 30
0.0
  9
$EXTMIN
 10
-221.80393
 20
-207.17203
 30
0.0
  9
$EXTMAX
 10
578.90241
 20
227.13765
 30
0.0
  9
$LIMMIN
 10
0.0
 20
0.0
  9
$LIMMAX
 10
12.0
 20
9.0
  9
$ORTHOMODE
 70
     0
  9
$REGENMODE
 70
     1
  9
$FILLMODE
 70
     1
  9
$QTEXTMODE
 70
     0
  9
$MIRRTEXT
 70
     1
  9
$LTSCALE
 40
1.0
  9
$ATTMODE
 70
     1
  9
$TEXTSIZE
 40
0.2
  9
$TRACEWID
 40
0.05
  9
$TEXTSTYLE
  7
Standard
  9
$CLAYER
  8
0
  9
$CELTYPE
  6
ByLayer
  9
$CECOLOR
 62
   256
  9
$CELTSCALE
 40
1.0
  9
$DISPSILH
 70
     0
  9
$DIMSCALE
 40
1.0
  9
$DIMASZ
 40
0.18
  9
$DIMEXO
 40
0.0625
  9
$DIMDLI
 40
0.38
  9
$DIMRND
 40
0.0
  9
$DIMDLE
 40
0.0
  9
$DIMEXE
 40
0.18
  9
$DIMTP
 40
0.0
  9
$DIMTM
 40
0.0
  9
$DIMTXT
 40
0.18
  9
$DIMCEN
 40
0.09
  9
$DIMTSZ
 40
0.0
  9
$DIMTOL
 70
     0
  9
$DIMLIM
 70
     0
  9
$DIMTIH
 70
     1
  9
$DIMTOH
 70
     1
  9
$DIMSE1
 70
     0
  9
$DIMSE2
 70
     0
  9
$DIMTAD
 70
     0
  9
$DIMZIN
 70
     0
  9
$DIMBLK
  1

  9
$DIMASO
 70
     1
  9
$DIMSHO
 70
     1
  9
$DIMPOST
  1

  9
$DIMAPOST
  1

  9
$DIMALT
 70
     0
  9
$DIMALTD
 70
     2
  9
$DIMALTF
 40
25.4
  9
$DIMLFAC
 40
1.0
  9
$DIMTOFL
 70
     0
  9
$DIMTVP
 40
0.0
  9
$DIMTIX
 70
     0
  9
$DIMSOXD
 70
     0
  9
$DIMSAH
 70
     0
  9
$DIMBLK1
  1

  9
$DIMBLK2
  1

  9
$DIMSTYLE
  2
Standard
  9
$DIMCLRD
 70
     0
  9
$DIMCLRE
 70
     0
  9
$DIMCLRT
 70
     0
  9
$DIMTFAC
 40
1.0
  9
$DIMGAP
 40
0.09
  9
$DIMJUST
 70
     0
  9
$DIMSD1
 70
     0
  9
$DIMSD2
 70
     0
  9
$DIMTOLJ
 70
     1
  9
$DIMTZIN
 70
     0
  9
$DIMALTZ
 70
     0
  9
$DIMALTTZ
 70
     0
  9
$DIMUPT
 70
     0
  9
$DIMDEC
 70
     4
  9
$DIMTDEC
 70
     4
  9
$DIMALTU
 70
     2
  9
$DIMALTTD
 70
     2
  9
$DIMTXSTY
  7
Standard
  9
$DIMAUNIT
 70
     0
  9
$DIMADEC
 70
     0
  9
$DIMALTRND
 40
0.0
  9
$DIMAZIN
 70
     0
  9
$DIMDSEP
 70
    46
  9
$DIMATFIT
 70
     3
  9
$DIMFRAC
 70
     0
  9
$DIMLDRBLK
  1

  9
$DIMLUNIT
 70
     2
  9
$DIMLWD
 70
    -2
  9
$DIMLWE
 70
    -2
  9
$DIMTMOVE
 70
     0
  9
$LUNITS
 70
     2
  9
$LUPREC
 70
     4
  9
$SKETCHINC
 40
0.1
  9
$FILLETRAD
 40
0.5
  9
$AUNITS
 70
     0
  9
$AUPREC
 70
     0
  9
$MENU
  1
.
  9
$ELEVATION
 40
0.0
  9
$PELEVATION
 40
0.0
  9
$THICKNESS
 40
0.0
  9
$LIMCHECK
 70
     0
  9
$CHAMFERA
 40
0.0
  9
$CHAMFERB
 40
0.0
  9
$CHAMFERC
 40
0.0
  9
$CHAMFERD
 40
0.0
  9
$SKPOLY
 70
     0
  9
$TDCREATE
 40
2457877.561852118
  9
$TDUCREATE
 40
2457877.395185451
  9
$TDUPDATE
 40
2457877.561852292
  9
$TDUUPDATE
 40
2457877.395185625
  9
$TDINDWG
 40
0.0000000116
  9
$TDUSRTIMER
 40
0.0000000116
  9
$USRTIMER
 70
     1
  9
$ANGBASE
 50
0.0
  9
$ANGDIR
 70
     0
  9
$PDMODE
 70
     0
  9
$PDSIZE
 40
0.0
  9
$PLINEWID
 40
0.0
  9
$SPLFRAME
 70
     0
  9
$SPLINETYPE
 70
     6
  9
$SPLINESEGS
 70
     8
  9
$HANDSEED
  5
C3
  9
$SURFTAB1
 70
     6
  9
$SURFTAB2
 70
     6
  9
$SURFTYPE
 70
     6
  9
$SURFU
 70
     6
  9
$SURFV
 70
     6
  9
$UCSBASE
  2

  9
$UCSNAME
  2

  9
$UCSORG
 10
0.0
 20
0.0
 30
0.0
  9
$UCSXDIR
 10
1.0
 20
0.0
 30
0.0
  9
$UCSYDIR
 10
0.0
 20
1.0
 30
0.0
  9
$UCSORTHOREF
  2

  9
$UCSORTHOVIEW
 70
     0
  9
$UCSORGTOP
 10
0.0
 20
0.0
 30
0.0
  9
$UCSORGBOTTOM
 10
0.0
 20
0.0
 30
0.0
  9
$UCSORGLEFT
 10
0.0
 20
0.0
 30
0.0
  9
$UCSORGRIGHT
 10
0.0
 20
0.0
 30
0.0
  9
$UCSORGFRONT
 10
0.0
 20
0.0
 30
0.0
  9
$UCSORGBACK
 10
0.0
 20
0.0
 30
0.0
  9
$PUCSBASE
  2

  9
$PUCSNAME
  2

  9
$PUCSORG
 10
0.0
 20
0.0
 30
0.0
  9
$PUCSXDIR
 10
1.0
 20
0.0
 30
0.0
  9
$PUCSYDIR
 10
0.0
 20
1.0
 30
0.0
  9
$PUCSORTHOREF
  2

  9
$PUCSORTHOVIEW
 70
     0
  9
$PUCSORGTOP
 10
0.0
 20
0.0
 30
0.0
  9
$PUCSORGBOTTOM
 10
0.0
 20
0.0
 30
0.0
  9
$PUCSORGLEFT
 10
0.0
 20
0.0
 30
0.0
  9
$PUCSORGRIGHT
 10
0.0
 20
0.0
 30
0.0
  9
$PUCSORGFRONT
 10
0.0
 20
0.0
 30
0.0
  9
$PUCSORGBACK
 10
0.0
 20
0.0
 30
0.0
  9
$USERI1
 70
     0
  9
$USERI2
 70
     0
  9
$USERI3
 70
     0
  9
$USERI4
 70
     0
  9
$USERI5
 70
     0
  9
$USERR1
 40
0.0
  9
$USERR2
 40
0.0
  9
$USERR3
 40
0.0
  9
$USERR4
 40
0.0
  9
$USERR5
 40
0.0
  9
$WORLDVIEW
 70
     1
  9
$SHADEDGE
 70
     3
  9
$SHADEDIF
 70
    70
  9
$TILEMODE
 70
     1
  9
$MAXACTVP
 70
    64
  9
$PINSBASE
 10
0.0
 20
0.0
 30
0.0
  9
$PLIMCHECK
 70
     0
  9
$PEXTMIN
 10
1.000000000000000E+20
 20
1.000000000000000E+20
 30
1.000000000000000E+20
  9
$PEXTMAX
 10
-1.000000000000000E+20
 20
-1.000000000000000E+20
 30
-1.000000000000000E+20
  9
$PLIMMIN
 10
0.0
 20
0.0
  9
$PLIMMAX
 10
12.0
 20
9.0
  9
$UNITMODE
 70
     0
  9
$VISRETAIN
 70
     1
  9
$PLINEGEN
 70
     0
  9
$PSLTSCALE
 70
     1
  9
$TREEDEPTH
 70
  3020
  9
$CMLSTYLE
  2
Standard
  9
$CMLJUST
 70
     0
  9
$CMLSCALE
 40
1.0
  9
$PROXYGRAPHICS
 70
     1
  9
$MEASUREMENT
 70
     0
  9
$CELWEIGHT
370
    -1
  9
$ENDCAPS
280
     0
  9
$JOINSTYLE
280
     0
  9
$LWDISPLAY
290
     0
  9
$INSUNITS
 70
     5
  9
$HYPERLINKBASE
  1

  9
$STYLESHEET
  1

  9
$XEDIT
290
     1
  9
$CEPSNTYPE
380
     0
  9
$PSTYLEMODE
290
     1
  9
$FINGERPRINTGUID
  2
{90F06FFB-09E2-470A-A395-77B243758762}
  9
$VERSIONGUID
  2
{FAEB1C32-E019-11D5-929B-00C0DF256EC4}
  9
$EXTNAMES
290
     1
  9
$PSVPSCALE
 40
0.0
  9
$OLESTARTUP
290
     0
  0
ENDSEC
  0
SECTION
  2
CLASSES
  0
CLASS
  1
ACDBDICTIONARYWDFLT
  2
AcDbDictionaryWithDefault
  3
ObjectDBX Classes
 90
        0
280
     0
281
     0
  0
CLASS
  1
VISUALSTYLE
  2
AcDbVisualStyle
  3
ObjectDBX Classes
 90
     4095
280
     0
281
     0
  0
CLASS
  1
MATERIAL
  2
AcDbMaterial
  3
ObjectDBX Classes
 90
     1153
280
     0
281
     0
  0
CLASS
  1
SCALE
  2
AcDbScale
  3
ObjectDBX Classes
 90
     1153
280
     0
281
     0
  0
CLASS
  1
TABLESTYLE
  2
AcDbTableStyle
  3
ObjectDBX Classes
 90
     4095
280
     0
281
     0
  0
CLASS
  1
MLEADERSTYLE
  2
AcDbMLeaderStyle
  3
ACDB_MLEADERSTYLE_CLASS
 90
     4095
280
     0
281
     0
  0
CLASS
  1
SUN
  2
AcDbSun
  3
SCENEOE
 90
     1153
280
     0
281
     0
  0
CLASS
  1
DICTIONARYVAR
  2
AcDbDictionaryVar
  3
ObjectDBX Classes
 90
        0
280
     0
281
     0
  0
CLASS
  1
ACDBPLACEHOLDER
  2
AcDbPlaceHolder
  3
ObjectDBX Classes
 90
        0
280
     0
281
     0
  0
CLASS
  1
LAYOUT
  2
AcDbLayout
  3
ObjectDBX Classes
 90
        0
280
     0
281
     0
  0
ENDSEC
  0
SECTION
  2
TABLES
  0
TABLE
  2
VPORT
  5
8
102
{ACAD_XDICTIONARY
360
86
102
}
330
0
100
AcDbSymbolTable
 70
     1
  0
VPORT
  5
29
330
8
100
AcDbSymbolTableRecord
100
AcDbViewportTableRecord
  2
*Active
 70
     0
 10
0.0
 20
0.0
 11
1.0
 21
1.0
 12
10.42990654205607
 22
4.5
 13
0.0
 23
0.0
 14
0.5
 24
0.5
 15
0.5
 25
0.5
 16
0.0
 26
0.0
 36
1.0
 17
0.0
 27
0.0
 37
0.0
 40
9.0
 41
1.972972972850329
 42
50.0
 43
0.0
 44
0.0
 50
0.0
 51
0.0
 71
     0
 72
   100
 73
     1
 74
     3
 75
     0
 76
     0
 77
     0
 78
     0
281
     0
 65
     1
110
0.0
120
0.0
130
0.0
111
1.0
121
0.0
131
0.0
112
0.0
122
1.0
132
0.0
 79
     0
146
0.0
  0
ENDTAB
  0
TABLE
  2
LTYPE
  5
5
330
0
100
AcDbSymbolTable
 70
     1
  0
LTYPE
  5
14
330
5
100
AcDbSymbolTableRecord
100
AcDbLinetypeTableRecord
  2
ByBlock
 70
     0
  3

 72
    65
 73
     0
 40
0.0
  0
LTYPE
  5
15
330
5
100
AcDbSymbolTableRecord
100
AcDbLinetypeTableRecord
  2
ByLayer
 70
     0
  3

 72
    65
 73
     0
 40
0.0
  0
LTYPE
  5
16
330
5
100
AcDbSymbolTableRecord
100
AcDbLinetypeTableRecord
  2
Continuous
 70
     0
  3
Solid line
 72
    65
 73
     0
 40
0.0
  0
ENDTAB
  0
TABLE
  2
LAYER
  5
2
330
0
100
AcDbSymbolTable
 70
     1
  0
LAYER
  5
10
330
2
100
AcDbSymbolTableRecord
100
AcDbLayerTableRecord
  2
0
 70
     0
 62
     7
  6
Continuous
370
    -3
390
F
  0
ENDTAB
  0
TABLE
  2
STYLE
  5
3
330
0
100
AcDbSymbolTable
 70
     1
  0
STYLE
  5
11
330
3
100
AcDbSymbolTableRecord
100
AcDbTextStyleTableRecord
  2
Standard
 70
     0
 40
0.0
 41
1.0
 50
0.0
 71
     0
 42
0.2
  3
txt
  4

  0
ENDTAB
  0
TABLE
  2
VIEW
  5
6
330
0
100
AcDbSymbolTable
 70
     0
  0
ENDTAB
  0
TABLE
  2
UCS
  5
7
330
0
100
AcDbSymbolTable
 70
     0
  0
ENDTAB
  0
TABLE
  2
APPID
  5
9
330
0
100
AcDbSymbolTable
 70
     3
  0
APPID
  5
12
330
9
100
AcDbSymbolTableRecord
100
AcDbRegAppTableRecord
  2
ACAD
 70
     0
  0
APPID
  5
6E
330
9
100
AcDbSymbolTableRecord
100
AcDbRegAppTableRecord
  2
ODA
 70
     0
  0
APPID
  5
C0
330
9
100
AcDbSymbolTableRecord
100
AcDbRegAppTableRecord
  2
ACAD_MLEADERVER
 70
     0
  0
ENDTAB
  0
TABLE
  2
DIMSTYLE
  5
A
330
0
100
AcDbSymbolTable
 70
     1
100
AcDbDimStyleTable
  0
DIMSTYLE
105
27
330
A
100
AcDbSymbolTableRecord
100
AcDbDimStyleTableRecord
  2
Standard
 70
     0
178
     0
340
11
  0
ENDTAB
  0
TABLE
  2
BLOCK_RECORD
  5
1
330
0
100
AcDbSymbolTable
 70
     1
  0
BLOCK_RECORD
  5
1F
330
1
100
AcDbSymbolTableRecord
100
AcDbBlockTableRecord
  2
*Model_Space
340
22
  0
BLOCK_RECORD
  5
1B
330
1
100
AcDbSymbolTableRecord
100
AcDbBlockTableRecord
  2
*Paper_Space
340
1E
  0
BLOCK_RECORD
  5
23
330
1
100
AcDbSymbolTableRecord
100
AcDbBlockTableRecord
  2
*Paper_Space0
340
26
  0
ENDTAB
  0
ENDSEC
  0
SECTION
  2
BLOCKS
  0
BLOCK
  5
20
330
1F
100
AcDbEntity
  8
0
100
AcDbBlockBegin
  2
*Model_Space
 70
     0
 10
0.0
 20
0.0
 30
0.0
  3
*Model_Space
  1

  0
ENDBLK
  5
21
330
1F
100
AcDbEntity
  8
0
100
AcDbBlockEnd
  0
BLOCK
  5
1C
330
1B
100
AcDbEntity
 67
     1
  8
0
100
AcDbBlockBegin
  2
*Paper_Space
 70
     0
 10
0.0
 20
0.0
 30
0.0
  3
*Paper_Space
  1

  0
ENDBLK
  5
1D
330
1B
100
AcDbEntity
 67
     1
  8
0
100
AcDbBlockEnd
  0
BLOCK
  5
24
330
23
100
AcDbEntity
  8
0
100
AcDbBlockBegin
  2
*Paper_Space0
 70
     0
 10
0.0
 20
0.0
 30
0.0
  3
*Paper_Space0
  1

  0
ENDBLK
  5
25
330
23
100
AcDbEntity
  8
0
100
AcDbBlockEnd
  0
ENDSEC
  0
SECTION
  2
ENTITIES
  0
SPLINE
  5
6F
330
1F
100
AcDbEntity
  8
0
 62
   230
370
     9
100
AcDbSpline
210
0.0
220
0.0
230
1.0
 70
    11
 71
     3
 72
    84
 73
    80
 74
     0
 42
0.000000001
 43
0.0000000001
 40
0.0
 40
0.0
 40
0.0
 40
0.0
 40
0.0476190476190476
 40
0.0476190476190476
 40
0.0476190476190476
 40
0.0476190476190476
 40
0.0952380952380952
 40
0.0952380952380952
 40
0.0952380952380952
 40
0.0952380952380952
 40
0.1428571428571428
 40
0.1428571428571428
 40
0.1428571428571428
 40
0.1428571428571428
 40
0.1904761904761905
 40
0.1904761904761905
 40
0.1904761904761905
 40
0.1904761904761905
 40
0.2380952380952381
 40
0.2380952380952381
 40
0.2380952380952381
 40
0.2380952380952381
 40
0.2857142857142857
 40
0.2857142857142857
 40
0.2857142857142857
 40
0.2857142857142857
 40
0.3333333333333333
 40
0.3333333333333333
 40
0.3333333333333333
 40
0.3333333333333333
 40
0.3809523809523809
 40
0.3809523809523809
 40
0.3809523809523809
 40
0.3809523809523809
 40
0.4285714285714285
 40
0.4285714285714285
 40
0.4285714285714285
 40
0.4285714285714285
 40
0.4761904761904762
 40
0.4761904761904762
 40
0.4761904761904762
 40
0.4761904761904762
 40
0.5238095238095238
 40
0.5238095238095238
 40
0.5238095238095238
 40
0.5238095238095238
 40
0.5714285714285714
 40
0.5714285714285714
 40
0.5714285714285714
 40
0.5714285714285714
 40
0.6190476190476191
 40
0.6190476190476191
 40
0.6190476190476191
 40
0.6190476190476191
 40
0.6666666666666666
 40
0.6666666666666666
 40
0.6666666666666666
 40
0.6666666666666666
 40
0.7142857142857143
 40
0.7142857142857143
 40
0.7142857142857143
 40
0.7142857142857143
 40
0.7619047619047619
 40
0.7619047619047619
 40
0.7619047619047619
 40
0.7619047619047619
 40
0.8095238095238095
 40
0.8095238095238095
 40
0.8095238095238095
 40
0.8095238095238095
 40
0.8571428571428571
 40
0.8571428571428571
 40
0.8571428571428571
 40
0.8571428571428571
 40
0.9047619047619048
 40
0.9047619047619048
 40
0.9047619047619048
 40
0.9047619047619048
 40
1.0
 40
1.0
 40
1.0
 40
1.0
 10
317.35695
 20
-197.37989
 30
0.0
 10
325.10463
 20
-196.29375
 30
0.0
 10
332.54109
 20
-193.60445
 30
0.0
 10
339.1915
 20
-189.48382
 30
0.0
 10
339.1915
 20
-189.48382
 30
0.0
 10
341.1623
 20
-188.17276
 30
0.0
 10
342.45872
 20
-186.06315
 30
0.0
 10
342.73812
 20
-183.7128
 30
0.0
 10
342.73812
 20
-183.7128
 30
0.0
 10
342.73812
 20
-183.7128
 30
0.0
 10
324.85938
 20
-183.7128
 30
0.0
 10
324.85938
 20
-183.7128
 30
0.0
 10
324.85938
 20
-183.7128
 30
0.0
 10
324.85938
 20
-183.7128
 30
0.0
 10
324.85938
 20
-189.78509
 30
0.0
 10
324.85938
 20
-189.78509
 30
0.0
 10
324.85938
 20
-189.78509
 30
0.0
 10
324.85938
 20
-189.78509
 30
0.0
 10
324.74187
 20
-189.78509
 30
0.0
 10
324.74187
 20
-189.78509
 30
0.0
 10
324.74187
 20
-189.78509
 30
0.0
 10
324.74187
 20
-189.78509
 30
0.0
 10
323.9769
 20
-189.78509
 30
0.0
 10
323.9769
 20
-189.78509
 30
0.0
 10
323.9769
 20
-189.78509
 30
0.0
 10
323.9769
 20
-189.78509
 30
0.0
 10
323.85938
 20
-189.78509
 30
0.0
 10
323.85938
 20
-189.78509
 30
0.0
 10
323.85938
 20
-189.78509
 30
0.0
 10
323.85938
 20
-189.78509
 30
0.0
 10
323.85938
 20
-183.7128
 30
0.0
 10
323.85938
 20
-183.7128
 30
0.0
 10
323.85938
 20
-183.7128
 30
0.0
 10
323.85938
 20
-183.7128
 30
0.0
 10
292.58709
 20
-183.7128
 30
0.0
 10
292.58709
 20
-183.7128
 30
0.0
 10
292.58709
 20
-183.7128
 30
0.0
 10
292.58709
 20
-183.7128
 30
0.0
 10
261.3148
 20
-183.7128
 30
0.0
 10
261.3148
 20
-183.7128
 30
0.0
 10
261.3148
 20
-183.7128
 30
0.0
 10
261.3148
 20
-183.7128
 30
0.0
 10
261.3148
 20
-189.78509
 30
0.0
 10
261.3148
 20
-189.78509
 30
0.0
 10
261.3148
 20
-189.78509
 30
0.0
 10
261.3148
 20
-189.78509
 30
0.0
 10
261.19728
 20
-189.78509
 30
0.0
 10
261.19728
 20
-189.78509
 30
0.0
 10
261.19728
 20
-189.78509
 30
0.0
 10
261.19728
 20
-189.78509
 30
0.0
 10
260.43232
 20
-189.78509
 30
0.0
 10
260.43232
 20
-189.78509
 30
0.0
 10
260.43232
 20
-189.78509
 30
0.0
 10
260.43232
 20
-189.78509
 30
0.0
 10
260.3148
 20
-189.78509
 30
0.0
 10
260.3148
 20
-189.78509
 30
0.0
 10
260.3148
 20
-189.78509
 30
0.0
 10
260.3148
 20
-189.78509
 30
0.0
 10
260.3148
 20
-183.7128
 30
0.0
 10
260.3148
 20
-183.7128
 30
0.0
 10
260.3148
 20
-183.7128
 30
0.0
 10
260.3148
 20
-183.7128
 30
0.0
 10
242.43607
 20
-183.7128
 30
0.0
 10
242.43607
 20
-183.7128
 30
0.0
 10
242.43607
 20
-183.7128
 30
0.0
 10
242.71546
 20
-186.06315
 30
0.0
 10
244.01188
 20
-188.17276
 30
0.0
 10
245.98268
 20
-189.48382
 30
0.0
 10
245.98268
 20
-189.48382
 30
0.0
 10
252.63309
 20
-193.60445
 30
0.0
 10
260.06955
 20
-196.29375
 30
0.0
 10
267.81723
 20
-197.37989
 30
0.0
 10
267.81723
 20
-197.37989
 30
0.0
 10
275.99113
 20
-198.83915
 30
0.0
 10
284.28452
 20
-199.52289
 30
0.0
 10
292.58709
 20
-199.42215
 30
0.0
 10
292.58709
 20
-199.42215
 30
0.0
 10
300.88966
 20
-199.52289
 30
0.0
 10
309.18305
 20
-198.83915
 30
0.0
 10
317.35695
 20
-197.37989
 30
0.0
  0
SPLINE
  5
70
330
1F
100
AcDbEntity
  8
0
 62
   230
370
     9
100
AcDbSpline
210
0.0
220
0.0
230
1.0
 70
    11
 71
     3
 72
    72
 73
    68
 74
     0
 42
0.000000001
 43
0.0000000001
 40
0.0
 40
0.0
 40
0.0
 40
0.0
 40
0.0555555555555556
 40
0.0555555555555556
 40
0.0555555555555556
 40
0.0555555555555556
 40
0.1111111111111111
 40
0.1111111111111111
 40
0.1111111111111111
 40
0.1111111111111111
 40
0.1666666666666667
 40
0.1666666666666667
 40
0.1666666666666667
 40
0.1666666666666667
 40
0.2222222222222222
 40
0.2222222222222222
 40
0.2222222222222222
 40
0.2222222222222222
 40
0.2777777777777778
 40
0.2777777777777778
 40
0.2777777777777778
 40
0.2777777777777778
 40
0.3333333333333333
 40
0.3333333333333333
 40
0.3333333333333333
 40
0.3333333333333333
 40
0.3888888888888889
 40
0.3888888888888889
 40
0.3888888888888889
 40
0.3888888888888889
 40
0.4444444444444444
 40
0.4444444444444444
 40
0.4444444444444444
 40
0.4444444444444444
 40
0.5
 40
0.5
 40
0.5
 40
0.5
 40
0.5555555555555556
 40
0.5555555555555556
 40
0.5555555555555556
 40
0.5555555555555556
 40
0.6111111111111112
 40
0.6111111111111112
 40
0.6111111111111112
 40
0.6111111111111112
 40
0.6666666666666666
 40
0.6666666666666666
 40
0.6666666666666666
 40
0.6666666666666666
 40
0.7222222222222222
 40
0.7222222222222222
 40
0.7222222222222222
 40
0.7222222222222222
 40
0.7777777777777778
 40
0.7777777777777778
 40
0.7777777777777778
 40
0.7777777777777778
 40
0.8333333333333334
 40
0.8333333333333334
 40
0.8333333333333334
 40
0.8333333333333334
 40
0.8888888888888888
 40
0.8888888888888888
 40
0.8888888888888888
 40
0.8888888888888888
 40
1.0
 40
1.0
 40
1.0
 40
1.0
 10
203.96448
 20
-162.47915
 30
0.0
 10
203.96448
 20
-162.47915
 30
0.0
 10
203.96448
 20
-161.70813
 30
0.0
 10
203.96448
 20
-161.70813
 30
0.0
 10
203.96448
 20
-161.70813
 30
0.0
 10
203.96448
 20
-161.70813
 30
0.0
 10
203.96448
 20
-161.59364
 30
0.0
 10
203.96448
 20
-161.59364
 30
0.0
 10
203.96448
 20
-161.59364
 30
0.0
 10
203.96448
 20
-161.59364
 30
0.0
 10
197.78906
 20
-161.59364
 30
0.0
 10
197.78906
 20
-161.59364
 30
0.0
 10
197.78906
 20
-161.59364
 30
0.0
 10
195.79396
 20
-151.77807
 30
0.0
 10
195.79396
 20
-141.66137
 30
0.0
 10
197.78906
 20
-131.84579
 30
0.0
 10
197.78906
 20
-131.84579
 30
0.0
 10
197.78906
 20
-131.84579
 30
0.0
 10
203.96448
 20
-131.84579
 30
0.0
 10
203.96448
 20
-131.84579
 30
0.0
 10
203.96448
 20
-131.84579
 30
0.0
 10
203.96448
 20
-131.84579
 30
0.0
 10
203.96448
 20
-131.7313
 30
0.0
 10
203.96448
 20
-131.7313
 30
0.0
 10
203.96448
 20
-131.7313
 30
0.0
 10
203.96448
 20
-131.7313
 30
0.0
 10
203.96448
 20
-130.96028
 30
0.0
 10
203.96448
 20
-130.96028
 30
0.0
 10
203.96448
 20
-130.96028
 30
0.0
 10
203.96448
 20
-130.96028
 30
0.0
 10
203.96448
 20
-130.84579
 30
0.0
 10
203.96448
 20
-130.84579
 30
0.0
 10
203.96448
 20
-130.84579
 30
0.0
 10
203.96448
 20
-130.84579
 30
0.0
 10
198.07436
 20
-130.84579
 30
0.0
 10
198.07436
 20
-130.84579
 30
0.0
 10
198.07436
 20
-130.84579
 30
0.0
 10
200.43163
 20
-124.62983
 30
0.0
 10
204.59748
 20
-119.26176
 30
0.0
 10
210.03618
 20
-115.43563
 30
0.0
 10
210.03618
 20
-115.43563
 30
0.0
 10
210.03618
 20
-115.43563
 30
0.0
 10
210.03618
 20
-199.43186
 30
0.0
 10
210.03618
 20
-199.43186
 30
0.0
 10
210.03618
 20
-199.43186
 30
0.0
 10
210.03618
 20
-199.43186
 30
0.0
 10
198.05853
 20
-199.43186
 30
0.0
 10
198.05853
 20
-199.43186
 30
0.0
 10
198.05853
 20
-199.43186
 30
0.0
 10
198.05853
 20
-199.43186
 30
0.0
 10
201.72717
 20
-192.33629
 30
0.0
 10
201.72717
 20
-192.33629
 30
0.0
 10
201.72717
 20
-192.33629
 30
0.0
 10
202.22446
 20
-191.25112
 30
0.0
 10
202.43435
 20
-190.05642
 30
0.0
 10
202.33634
 20
-188.8668
 30
0.0
 10
202.33634
 20
-188.8668
 30
0.0
 10
202.70699
 20
-179.91135
 30
0.0
 10
201.26015
 20
-170.97417
 30
0.0
 10
198.08364
 20
-162.59364
 30
0.0
 10
198.08364
 20
-162.59364
 30
0.0
 10
198.08364
 20
-162.59364
 30
0.0
 10
203.96448
 20
-162.59364
 30
0.0
 10
203.96448
 20
-162.59364
 30
0.0
 10
203.96448
 20
-162.59364
 30
0.0
 10
203.96448
 20
-162.59364
 30
0.0
 10
203.96448
 20
-162.47915
 30
0.0
 10
203.96448
 20
-162.47915
 30
0.0
  0
SPLINE
  5
71
330
1F
100
AcDbEntity
  8
0
 62
   230
370
     9
100
AcDbSpline
210
0.0
220
0.0
230
1.0
 70
    11
 71
     3
 72
    72
 73
    68
 74
     0
 42
0.000000001
 43
0.0000000001
 40
0.0
 40
0.0
 40
0.0
 40
0.0
 40
0.0555555555555556
 40
0.0555555555555556
 40
0.0555555555555556
 40
0.0555555555555556
 40
0.1111111111111111
 40
0.1111111111111111
 40
0.1111111111111111
 40
0.1111111111111111
 40
0.1666666666666667
 40
0.1666666666666667
 40
0.1666666666666667
 40
0.1666666666666667
 40
0.2222222222222222
 40
0.2222222222222222
 40
0.2222222222222222
 40
0.2222222222222222
 40
0.2777777777777778
 40
0.2777777777777778
 40
0.2777777777777778
 40
0.2777777777777778
 40
0.3333333333333333
 40
0.3333333333333333
 40
0.3333333333333333
 40
0.3333333333333333
 40
0.3888888888888889
 40
0.3888888888888889
 40
0.3888888888888889
 40
0.3888888888888889
 40
0.4444444444444444
 40
0.4444444444444444
 40
0.4444444444444444
 40
0.4444444444444444
 40
0.5
 40
0.5
 40
0.5
 40
0.5
 40
0.5555555555555556
 40
0.5555555555555556
 40
0.5555555555555556
 40
0.5555555555555556
 40
0.6111111111111112
 40
0.6111111111111112
 40
0.6111111111111112
 40
0.6111111111111112
 40
0.6666666666666666
 40
0.6666666666666666
 40
0.6666666666666666
 40
0.6666666666666666
 40
0.7222222222222222
 40
0.7222222222222222
 40
0.7222222222222222
 40
0.7222222222222222
 40
0.7777777777777778
 40
0.7777777777777778
 40
0.7777777777777778
 40
0.7777777777777778
 40
0.8333333333333334
 40
0.8333333333333334
 40
0.8333333333333334
 40
0.8333333333333334
 40
0.8888888888888888
 40
0.8888888888888888
 40
0.8888888888888888
 40
0.8888888888888888
 40
1.0
 40
1.0
 40
1.0
 40
1.0
 10
227.03614
 20
-162.47915
 30
0.0
 10
227.03614
 20
-162.47915
 30
0.0
 10
227.03614
 20
-161.70813
 30
0.0
 10
227.03614
 20
-161.70813
 30
0.0
 10
227.03614
 20
-161.70813
 30
0.0
 10
227.03614
 20
-161.70813
 30
0.0
 10
227.03614
 20
-161.59364
 30
0.0
 10
227.03614
 20
-161.59364
 30
0.0
 10
227.03614
 20
-161.59364
 30
0.0
 10
227.03614
 20
-161.59364
 30
0.0
 10
220.86072
 20
-161.59364
 30
0.0
 10
220.86072
 20
-161.59364
 30
0.0
 10
220.86072
 20
-161.59364
 30
0.0
 10
218.86563
 20
-151.77807
 30
0.0
 10
218.86563
 20
-141.66136
 30
0.0
 10
220.86072
 20
-131.8456
 30
0.0
 10
220.86072
 20
-131.8456
 30
0.0
 10
220.86072
 20
-131.8456
 30
0.0
 10
227.03614
 20
-131.8456
 30
0.0
 10
227.03614
 20
-131.8456
 30
0.0
 10
227.03614
 20
-131.8456
 30
0.0
 10
227.03614
 20
-131.8456
 30
0.0
 10
227.03614
 20
-131.73111
 30
0.0
 10
227.03614
 20
-131.73111
 30
0.0
 10
227.03614
 20
-131.73111
 30
0.0
 10
227.03614
 20
-131.73111
 30
0.0
 10
227.03614
 20
-130.96009
 30
0.0
 10
227.03614
 20
-130.96009
 30
0.0
 10
227.03614
 20
-130.96009
 30
0.0
 10
227.03614
 20
-130.96009
 30
0.0
 10
227.03614
 20
-130.8456
 30
0.0
 10
227.03614
 20
-130.8456
 30
0.0
 10
227.03614
 20
-130.8456
 30
0.0
 10
227.03614
 20
-130.8456
 30
0.0
 10
221.04209
 20
-130.8456
 30
0.0
 10
221.04209
 20
-130.8456
 30
0.0
 10
221.04209
 20
-130.8456
 30
0.0
 10
222.31352
 20
-123.26044
 30
0.0
 10
226.68346
 20
-116.5438
 30
0.0
 10
233.10785
 20
-112.30919
 30
0.0
 10
233.10785
 20
-112.30919
 30
0.0
 10
233.10785
 20
-112.30919
 30
0.0
 10
233.10785
 20
-199.43186
 30
0.0
 10
233.10785
 20
-199.43186
 30
0.0
 10
233.10785
 20
-199.43186
 30
0.0
 10
233.10785
 20
-199.43186
 30
0.0
 10
221.1302
 20
-199.43186
 30
0.0
 10
221.1302
 20
-199.43186
 30
0.0
 10
221.1302
 20
-199.43186
 30
0.0
 10
221.1302
 20
-199.43186
 30
0.0
 10
224.79884
 20
-192.3361
 30
0.0
 10
224.79884
 20
-192.3361
 30
0.0
 10
224.79884
 20
-192.3361
 30
0.0
 10
225.29613
 20
-191.25113
 30
0.0
 10
225.50601
 20
-190.05643
 30
0.0
 10
225.408
 20
-188.8668
 30
0.0
 10
225.408
 20
-188.8668
 30
0.0
 10
225.77865
 20
-179.91136
 30
0.0
 10
224.33182
 20
-170.97398
 30
0.0
 10
221.15531
 20
-162.59364
 30
0.0
 10
221.15531
 20
-162.59364
 30
0.0
 10
221.15531
 20
-162.59364
 30
0.0
 10
227.03614
 20
-162.59364
 30
0.0
 10
227.03614
 20
-162.59364
 30
0.0
 10
227.03614
 20
-162.59364
 30
0.0
 10
227.03614
 20
-162.59364
 30
0.0
 10
227.03614
 20
-162.47915
 30
0.0
 10
227.03614
 20
-162.47915
 30
0.0
  0
SPLINE
  5
72
330
1F
100
AcDbEntity
  8
0
 62
   230
370
     9
100
AcDbSpline
210
0.0
220
0.0
230
1.0
 70
    11
 71
     3
 72
   480
 73
   476
 74
     0
 42
0.000000001
 43
0.0000000001
 40
0.0
 40
0.0
 40
0.0
 40
0.0
 40
0.0083333333333333
 40
0.0083333333333333
 40
0.0083333333333333
 40
0.0083333333333333
 40
0.0166666666666667
 40
0.0166666666666667
 40
0.0166666666666667
 40
0.0166666666666667
 40
0.025
 40
0.025
 40
0.025
 40
0.025
 40
0.0333333333333333
 40
0.0333333333333333
 40
0.0333333333333333
 40
0.0333333333333333
 40
0.0416666666666667
 40
0.0416666666666667
 40
0.0416666666666667
 40
0.0416666666666667
 40
0.05
 40
0.05
 40
0.05
 40
0.05
 40
0.0583333333333333
 40
0.0583333333333333
 40
0.0583333333333333
 40
0.0583333333333333
 40
0.0666666666666667
 40
0.0666666666666667
 40
0.0666666666666667
 40
0.0666666666666667
 40
0.075
 40
0.075
 40
0.075
 40
0.075
 40
0.0833333333333333
 40
0.0833333333333333
 40
0.0833333333333333
 40
0.0833333333333333
 40
0.0916666666666667
 40
0.0916666666666667
 40
0.0916666666666667
 40
0.0916666666666667
 40
0.1
 40
0.1
 40
0.1
 40
0.1
 40
0.1083333333333333
 40
0.1083333333333333
 40
0.1083333333333333
 40
0.1083333333333333
 40
0.1166666666666667
 40
0.1166666666666667
 40
0.1166666666666667
 40
0.1166666666666667
 40
0.125
 40
0.125
 40
0.125
 40
0.125
 40
0.1333333333333333
 40
0.1333333333333333
 40
0.1333333333333333
 40
0.1333333333333333
 40
0.1416666666666667
 40
0.1416666666666667
 40
0.1416666666666667
 40
0.1416666666666667
 40
0.15
 40
0.15
 40
0.15
 40
0.15
 40
0.1583333333333333
 40
0.1583333333333333
 40
0.1583333333333333
 40
0.1583333333333333
 40
0.1666666666666667
 40
0.1666666666666667
 40
0.1666666666666667
 40
0.1666666666666667
 40
0.175
 40
0.175
 40
0.175
 40
0.175
 40
0.1833333333333333
 40
0.1833333333333333
 40
0.1833333333333333
 40
0.1833333333333333
 40
0.1916666666666667
 40
0.1916666666666667
 40
0.1916666666666667
 40
0.1916666666666667
 40
0.2
 40
0.2
 40
0.2
 40
0.2
 40
0.2083333333333333
 40
0.2083333333333333
 40
0.2083333333333333
 40
0.2083333333333333
 40
0.2166666666666667
 40
0.2166666666666667
 40
0.2166666666666667
 40
0.2166666666666667
 40
0.225
 40
0.225
 40
0.225
 40
0.225
 40
0.2333333333333333
 40
0.2333333333333333
 40
0.2333333333333333
 40
0.2333333333333333
 40
0.2416666666666667
 40
0.2416666666666667
 40
0.2416666666666667
 40
0.2416666666666667
 40
0.25
 40
0.25
 40
0.25
 40
0.25
 40
0.2583333333333334
 40
0.2583333333333334
 40
0.2583333333333334
 40
0.2583333333333334
 40
0.2666666666666667
 40
0.2666666666666667
 40
0.2666666666666667
 40
0.2666666666666667
 40
0.275
 40
0.275
 40
0.275
 40
0.275
 40
0.2833333333333333
 40
0.2833333333333333
 40
0.2833333333333333
 40
0.2833333333333333
 40
0.2916666666666667
 40
0.2916666666666667
 40
0.2916666666666667
 40
0.2916666666666667
 40
0.3
 40
0.3
 40
0.3
 40
0.3
 40
0.3083333333333333
 40
0.3083333333333333
 40
0.3083333333333333
 40
0.3083333333333333
 40
0.3166666666666667
 40
0.3166666666666667
 40
0.3166666666666667
 40
0.3166666666666667
 40
0.325
 40
0.325
 40
0.325
 40
0.325
 40
0.3333333333333333
 40
0.3333333333333333
 40
0.3333333333333333
 40
0.3333333333333333
 40
0.3416666666666667
 40
0.3416666666666667
 40
0.3416666666666667
 40
0.3416666666666667
 40
0.35
 40
0.35
 40
0.35
 40
0.35
 40
0.3583333333333333
 40
0.3583333333333333
 40
0.3583333333333333
 40
0.3583333333333333
 40
0.3666666666666666
 40
0.3666666666666666
 40
0.3666666666666666
 40
0.3666666666666666
 40
0.375
 40
0.375
 40
0.375
 40
0.375
 40
0.3833333333333334
 40
0.3833333333333334
 40
0.3833333333333334
 40
0.3833333333333334
 40
0.3916666666666667
 40
0.3916666666666667
 40
0.3916666666666667
 40
0.3916666666666667
 40
0.4
 40
0.4
 40
0.4
 40
0.4
 40
0.4083333333333333
 40
0.4083333333333333
 40
0.4083333333333333
 40
0.4083333333333333
 40
0.4166666666666667
 40
0.4166666666666667
 40
0.4166666666666667
 40
0.4166666666666667
 40
0.425
 40
0.425
 40
0.425
 40
0.425
 40
0.4333333333333333
 40
0.4333333333333333
 40
0.4333333333333333
 40
0.4333333333333333
 40
0.4416666666666667
 40
0.4416666666666667
 40
0.4416666666666667
 40
0.4416666666666667
 40
0.45
 40
0.45
 40
0.45
 40
0.45
 40
0.4583333333333333
 40
0.4583333333333333
 40
0.4583333333333333
 40
0.4583333333333333
 40
0.4666666666666667
 40
0.4666666666666667
 40
0.4666666666666667
 40
0.4666666666666667
 40
0.475
 40
0.475
 40
0.475
 40
0.475
 40
0.4833333333333333
 40
0.4833333333333333
 40
0.4833333333333333
 40
0.4833333333333333
 40
0.4916666666666666
 40
0.4916666666666666
 40
0.4916666666666666
 40
0.4916666666666666
 40
0.5
 40
0.5
 40
0.5
 40
0.5
 40
0.5083333333333333
 40
0.5083333333333333
 40
0.5083333333333333
 40
0.5083333333333333
 40
0.5166666666666667
 40
0.5166666666666667
 40
0.5166666666666667
 40
0.5166666666666667
 40
0.525
 40
0.525
 40
0.525
 40
0.525
 40
0.5333333333333333
 40
0.5333333333333333
 40
0.5333333333333333
 40
0.5333333333333333
 40
0.5416666666666666
 40
0.5416666666666666
 40
0.5416666666666666
 40
0.5416666666666666
 40
0.55
 40
0.55
 40
0.55
 40
0.55
 40
0.5583333333333333
 40
0.5583333333333333
 40
0.5583333333333333
 40
0.5583333333333333
 40
0.5666666666666667
 40
0.5666666666666667
 40
0.5666666666666667
 40
0.5666666666666667
 40
0.575
 40
0.575
 40
0.575
 40
0.575
 40
0.5833333333333334
 40
0.5833333333333334
 40
0.5833333333333334
 40
0.5833333333333334
 40
0.5916666666666667
 40
0.5916666666666667
 40
0.5916666666666667
 40
0.5916666666666667
 40
0.6
 40
0.6
 40
0.6
 40
0.6
 40
0.6083333333333333
 40
0.6083333333333333
 40
0.6083333333333333
 40
0.6083333333333333
 40
0.6166666666666667
 40
0.6166666666666667
 40
0.6166666666666667
 40
0.6166666666666667
 40
0.625
 40
0.625
 40
0.625
 40
0.625
 40
0.6333333333333333
 40
0.6333333333333333
 40
0.6333333333333333
 40
0.6333333333333333
 40
0.6416666666666667
 40
0.6416666666666667
 40
0.6416666666666667
 40
0.6416666666666667
 40
0.65
 40
0.65
 40
0.65
 40
0.65
 40
0.6583333333333333
 40
0.6583333333333333
 40
0.6583333333333333
 40
0.6583333333333333
 40
0.6666666666666666
 40
0.6666666666666666
 40
0.6666666666666666
 40
0.6666666666666666
 40
0.675
 40
0.675
 40
0.675
 40
0.675
 40
0.6833333333333333
 40
0.6833333333333333
 40
0.6833333333333333
 40
0.6833333333333333
 40
0.6916666666666667
 40
0.6916666666666667
 40
0.6916666666666667
 40
0.6916666666666667
 40
0.7
 40
0.7
 40
0.7
 40
0.7
 40
0.7083333333333334
 40
0.7083333333333334
 40
0.7083333333333334
 40
0.7083333333333334
 40
0.7166666666666667
 40
0.7166666666666667
 40
0.7166666666666667
 40
0.7166666666666667
 40
0.725
 40
0.725
 40
0.725
 40
0.725
 40
0.7333333333333333
 40
0.7333333333333333
 40
0.7333333333333333
 40
0.7333333333333333
 40
0.7416666666666667
 40
0.7416666666666667
 40
0.7416666666666667
 40
0.7416666666666667
 40
0.75
 40
0.75
 40
0.75
 40
0.75
 40
0.7583333333333333
 40
0.7583333333333333
 40
0.7583333333333333
 40
0.7583333333333333
 40
0.7666666666666667
 40
0.7666666666666667
 40
0.7666666666666667
 40
0.7666666666666667
 40
0.775
 40
0.775
 40
0.775
 40
0.775
 40
0.7833333333333333
 40
0.7833333333333333
 40
0.7833333333333333
 40
0.7833333333333333
 40
0.7916666666666666
 40
0.7916666666666666
 40
0.7916666666666666
 40
0.7916666666666666
 40
0.8
 40
0.8
 40
0.8
 40
0.8
 40
0.8083333333333333
 40
0.8083333333333333
 40
0.8083333333333333
 40
0.8083333333333333
 40
0.8166666666666667
 40
0.8166666666666667
 40
0.8166666666666667
 40
0.8166666666666667
 40
0.825
 40
0.825
 40
0.825
 40
0.825
 40
0.8333333333333334
 40
0.8333333333333334
 40
0.8333333333333334
 40
0.8333333333333334
 40
0.8416666666666667
 40
0.8416666666666667
 40
0.8416666666666667
 40
0.8416666666666667
 40
0.85
 40
0.85
 40
0.85
 40
0.85
 40
0.8583333333333333
 40
0.8583333333333333
 40
0.8583333333333333
 40
0.8583333333333333
 40
0.8666666666666667
 40
0.8666666666666667
 40
0.8666666666666667
 40
0.8666666666666667
 40
0.875
 40
0.875
 40
0.875
 40
0.875
 40
0.8833333333333333
 40
0.8833333333333333
 40
0.8833333333333333
 40
0.8833333333333333
 40
0.8916666666666667
 40
0.8916666666666667
 40
0.8916666666666667
 40
0.8916666666666667
 40
0.9
 40
0.9
 40
0.9
 40
0.9
 40
0.9083333333333333
 40
0.9083333333333333
 40
0.9083333333333333
 40
0.9083333333333333
 40
0.9166666666666666
 40
0.9166666666666666
 40
0.9166666666666666
 40
0.9166666666666666
 40
0.925
 40
0.925
 40
0.925
 40
0.925
 40
0.9333333333333333
 40
0.9333333333333333
 40
0.9333333333333333
 40
0.9333333333333333
 40
0.9416666666666667
 40
0.9416666666666667
 40
0.9416666666666667
 40
0.9416666666666667
 40
0.95
 40
0.95
 40
0.95
 40
0.95
 40
0.9583333333333334
 40
0.9583333333333334
 40
0.9583333333333334
 40
0.9583333333333334
 40
0.9666666666666667
 40
0.9666666666666667
 40
0.9666666666666667
 40
0.9666666666666667
 40
0.975
 40
0.975
 40
0.975
 40
0.975
 40
0.9833333333333333
 40
0.9833333333333333
 40
0.9833333333333333
 40
0.9833333333333333
 40
1.0
 40
1.0
 40
1.0
 40
1.0
 10
311.14358
 20
-73.41382
 30
0.0
 10
312.48588
 20
-66.68473
 30
0.0
 10
314.28662
 20
-60.05541
 30
0.0
 10
316.53349
 20
-53.57213
 30
0.0
 10
316.53349
 20
-53.57213
 30
0.0
 10
316.53349
 20
-53.57213
 30
0.0
 10
316.53349
 20
-53.57213
 30
0.0
 10
316.53349
 20
-53.57213
 30
0.0
 10
316.53349
 20
-53.57213
 30
0.0
 10
316.61335
 20
-53.02232
 30
0.0
 10
316.90172
 20
-52.52406
 30
0.0
 10
317.33887
 20
-52.18101
 30
0.0
 10
317.33887
 20
-52.18101
 30
0.0
 10
317.33887
 20
-52.18101
 30
0.0
 10
317.33887
 20
-52.18101
 30
0.0
 10
317.33887
 20
-52.18101
 30
0.0
 10
317.33887
 20
-52.18101
 30
0.0
 10
320.57192
 20
-51.32819
 30
0.0
 10
323.31198
 20
-49.18362
 30
0.0
 10
324.91669
 20
-46.25047
 30
0.0
 10
324.91669
 20
-46.25047
 30
0.0
 10
324.91669
 20
-46.25047
 30
0.0
 10
324.91669
 20
-46.25047
 30
0.0
 10
324.91669
 20
-46.25047
 30
0.0
 10
324.91669
 20
-46.25047
 30
0.0
 10
328.40063
 20
-40.41637
 30
0.0
 10
330.77148
 20
-33.98659
 30
0.0
 10
331.90898
 20
-27.28737
 30
0.0
 10
331.90898
 20
-27.28737
 30
0.0
 10
331.90898
 20
-27.28737
 30
0.0
 10
331.90898
 20
-27.28737
 30
0.0
 10
331.90898
 20
-27.28737
 30
0.0
 10
331.90898
 20
-27.28737
 30
0.0
 10
333.72553
 20
-16.03896
 30
0.0
 10
335.3609
 20
-4.76224
 30
0.0
 10
336.81449
 20
6.5387
 30
0.0
 10
336.81449
 20
6.5387
 30
0.0
 10
336.81449
 20
6.5387
 30
0.0
 10
336.81449
 20
6.5387
 30
0.0
 10
336.81449
 20
6.5387
 30
0.0
 10
336.81449
 20
6.5387
 30
0.0
 10
339.13575
 20
19.92601
 30
0.0
 10
341.23501
 20
33.351
 30
0.0
 10
343.11112
 20
46.80782
 30
0.0
 10
343.11112
 20
46.80782
 30
0.0
 10
343.11112
 20
46.80782
 30
0.0
 10
343.11112
 20
46.80782
 30
0.0
 10
343.11112
 20
46.80782
 30
0.0
 10
343.11112
 20
46.80782
 30
0.0
 10
343.28645
 20
47.77955
 30
0.0
 10
343.43288
 20
48.75617
 30
0.0
 10
343.55042
 20
49.73649
 30
0.0
 10
343.55042
 20
49.73649
 30
0.0
 10
343.55042
 20
49.73649
 30
0.0
 10
343.55042
 20
49.73649
 30
0.0
 10
343.55042
 20
49.73649
 30
0.0
 10
343.55042
 20
49.73649
 30
0.0
 10
343.61953
 20
50.93802
 30
0.0
 10
344.30874
 20
52.01694
 30
0.0
 10
345.3697
 20
52.58471
 30
0.0
 10
345.3697
 20
52.58471
 30
0.0
 10
345.3697
 20
52.58471
 30
0.0
 10
345.3697
 20
52.58471
 30
0.0
 10
345.3697
 20
52.58471
 30
0.0
 10
345.3697
 20
52.58471
 30
0.0
 10
346.43085
 20
53.15268
 30
0.0
 10
347.71088
 20
53.12768
 30
0.0
 10
348.74879
 20
52.51872
 30
0.0
 10
348.74879
 20
52.51872
 30
0.0
 10
348.74879
 20
52.51872
 30
0.0
 10
348.74879
 20
52.51872
 30
0.0
 10
348.74879
 20
52.51872
 30
0.0
 10
348.74879
 20
52.51872
 30
0.0
 10
352.18353
 20
51.46049
 30
0.0
 10
355.7155
 20
50.74902
 30
0.0
 10
359.29198
 20
50.39544
 30
0.0
 10
359.29198
 20
50.39544
 30
0.0
 10
359.29198
 20
50.39544
 30
0.0
 10
359.29198
 20
50.39544
 30
0.0
 10
359.29198
 20
50.39544
 30
0.0
 10
359.29198
 20
50.39544
 30
0.0
 10
361.25555
 20
49.67694
 30
0.0
 10
363.45791
 20
50.33159
 30
0.0
 10
364.71001
 20
52.0062
 30
0.0
 10
364.71001
 20
52.0062
 30
0.0
 10
364.71001
 20
52.0062
 30
0.0
 10
364.71001
 20
52.0062
 30
0.0
 10
364.71001
 20
52.0062
 30
0.0
 10
364.71001
 20
52.0062
 30
0.0
 10
365.6095
 20
53.44691
 30
0.0
 10
366.25342
 20
55.03229
 30
0.0
 10
366.61364
 20
56.69206
 30
0.0
 10
366.61364
 20
56.69206
 30
0.0
 10
366.61364
 20
56.69206
 30
0.0
 10
366.61364
 20
56.69206
 30
0.0
 10
366.61364
 20
56.69206
 30
0.0
 10
366.61364
 20
56.69206
 30
0.0
 10
367.03537
 20
57.34516
 30
0.0
 10
367.13983
 20
58.15347
 30
0.0
 10
366.89831
 20
58.89227
 30
0.0
 10
366.89831
 20
58.89227
 30
0.0
 10
366.89831
 20
58.89227
 30
0.0
 10
366.89831
 20
58.89227
 30
0.0
 10
366.89831
 20
58.89227
 30
0.0
 10
366.89831
 20
58.89227
 30
0.0
 10
366.65679
 20
59.63108
 30
0.0
 10
366.09488
 20
60.22149
 30
0.0
 10
365.36896
 20
60.49933
 30
0.0
 10
365.36896
 20
60.49933
 30
0.0
 10
365.36896
 20
60.49933
 30
0.0
 10
365.36896
 20
60.49933
 30
0.0
 10
365.36896
 20
60.49933
 30
0.0
 10
365.36896
 20
60.49933
 30
0.0
 10
362.72125
 20
61.7401
 30
0.0
 10
361.01501
 20
64.38469
 30
0.0
 10
360.97597
 20
67.30847
 30
0.0
 10
360.97597
 20
67.30847
 30
0.0
 10
360.97597
 20
67.30847
 30
0.0
 10
360.97597
 20
67.30847
 30
0.0
 10
360.97597
 20
67.30847
 30
0.0
 10
360.97597
 20
67.30847
 30
0.0
 10
360.77779
 20
69.72501
 30
0.0
 10
360.13231
 20
72.08356
 30
0.0
 10
359.07233
 20
74.26405
 30
0.0
 10
359.07233
 20
74.26405
 30
0.0
 10
359.07233
 20
74.26405
 30
0.0
 10
359.07233
 20
74.26405
 30
0.0
 10
359.07233
 20
74.26405
 30
0.0
 10
359.07233
 20
74.26405
 30
0.0
 10
356.38577
 20
77.67828
 30
0.0
 10
351.89906
 20
79.12563
 30
0.0
 10
347.72376
 20
77.92488
 30
0.0
 10
347.72376
 20
77.92488
 30
0.0
 10
347.72376
 20
77.92488
 30
0.0
 10
347.72376
 20
77.92488
 30
0.0
 10
347.72376
 20
77.92488
 30
0.0
 10
347.72376
 20
77.92488
 30
0.0
 10
340.73656
 20
76.73935
 30
0.0
 10
334.3878
 20
73.13729
 30
0.0
 10
329.7857
 20
67.74777
 30
0.0
 10
329.7857
 20
67.74777
 30
0.0
 10
329.7857
 20
67.74777
 30
0.0
 10
329.7857
 20
67.74777
 30
0.0
 10
329.7857
 20
67.74777
 30
0.0
 10
329.7857
 20
67.74777
 30
0.0
 10
327.70361
 20
64.11798
 30
0.0
 10
326.0454
 20
60.26113
 30
0.0
 10
324.84367
 20
56.25276
 30
0.0
 10
324.84367
 20
56.25276
 30
0.0
 10
324.84367
 20
56.25276
 30
0.0
 10
324.84367
 20
56.25276
 30
0.0
 10
324.84367
 20
56.25276
 30
0.0
 10
324.84367
 20
56.25276
 30
0.0
 10
318.38109
 20
37.6989
 30
0.0
 10
311.63208
 20
19.24617
 30
0.0
 10
304.59919
 20
0.90102
 30
0.0
 10
304.59919
 20
0.90102
 30
0.0
 10
304.59919
 20
0.90102
 30
0.0
 10
304.59919
 20
0.90102
 30
0.0
 10
304.59919
 20
0.90102
 30
0.0
 10
304.59919
 20
0.90102
 30
0.0
 10
304.59919
 20
0.90102
 30
0.0
 10
304.05016
 20
-0.38017
 30
0.0
 10
304.05016
 20
-0.38017
 30
0.0
 10
304.05016
 20
-0.38017
 30
0.0
 10
304.05016
 20
-0.38017
 30
0.0
 10
304.05016
 20
-0.38017
 30
0.0
 10
304.05016
 20
-0.38017
 30
0.0
 10
304.05016
 20
-0.38017
 30
0.0
 10
303.53393
 20
-1.07544
 30
0.0
 10
302.59657
 20
-1.30602
 30
0.0
 10
301.81696
 20
-0.9294
 30
0.0
 10
301.81696
 20
-0.9294
 30
0.0
 10
301.81696
 20
-0.9294
 30
0.0
 10
301.81696
 20
-0.9294
 30
0.0
 10
301.81696
 20
-0.9294
 30
0.0
 10
301.81696
 20
-0.9294
 30
0.0
 10
293.61435
 20
3.30779
 30
0.0
 10
284.605
 20
5.75362
 30
0.0
 10
275.38577
 20
6.24583
 30
0.0
 10
275.38577
 20
6.24583
 30
0.0
 10
275.38577
 20
6.24583
 30
0.0
 10
275.38577
 20
6.24583
 30
0.0
 10
275.38577
 20
6.24583
 30
0.0
 10
275.38577
 20
6.24583
 30
0.0
 10
258.6178
 20
7.41827
 30
0.0
 10
242.17335
 20
1.21478
 30
0.0
 10
230.35756
 20
-10.74042
 30
0.0
 10
230.35756
 20
-10.74042
 30
0.0
 10
230.35756
 20
-10.74042
 30
0.0
 10
230.35756
 20
-10.74042
 30
0.0
 10
230.35756
 20
-10.74042
 30
0.0
 10
230.35756
 20
-10.74042
 30
0.0
 10
223.19014
 20
-17.30668
 30
0.0
 10
217.45699
 20
-25.28319
 30
0.0
 10
213.51774
 20
-34.16973
 30
0.0
 10
213.51774
 20
-34.16973
 30
0.0
 10
213.51774
 20
-34.16973
 30
0.0
 10
213.51774
 20
-34.16973
 30
0.0
 10
213.51774
 20
-34.16973
 30
0.0
 10
213.51774
 20
-34.16973
 30
0.0
 10
206.92474
 20
-49.57802
 30
0.0
 10
193.83868
 20
-61.26963
 30
0.0
 10
177.78804
 20
-66.09217
 30
0.0
 10
177.78804
 20
-66.09217
 30
0.0
 10
177.78804
 20
-66.09217
 30
0.0
 10
177.78804
 20
-66.09217
 30
0.0
 10
177.78804
 20
-66.09217
 30
0.0
 10
177.78804
 20
-66.09217
 30
0.0
 10
177.50065
 20
-66.16128
 30
0.0
 10
177.20426
 20
-66.18588
 30
0.0
 10
176.90945
 20
-66.16538
 30
0.0
 10
176.90945
 20
-66.16538
 30
0.0
 10
176.90945
 20
-66.16538
 30
0.0
 10
176.90945
 20
-66.16538
 30
0.0
 10
176.90945
 20
-66.16538
 30
0.0
 10
176.90945
 20
-66.16538
 30
0.0
 10
176.34363
 20
-66.1935
 30
0.0
 10
175.89906
 20
-66.66052
 30
0.0
 10
175.89906
 20
-67.22692
 30
0.0
 10
175.89906
 20
-67.22692
 30
0.0
 10
175.89906
 20
-67.22692
 30
0.0
 10
175.89906
 20
-67.22692
 30
0.0
 10
175.89906
 20
-67.22692
 30
0.0
 10
175.89906
 20
-67.22692
 30
0.0
 10
175.89906
 20
-67.79372
 30
0.0
 10
176.34363
 20
-68.26055
 30
0.0
 10
176.90945
 20
-68.28866
 30
0.0
 10
176.90945
 20
-68.28866
 30
0.0
 10
176.90945
 20
-68.28866
 30
0.0
 10
176.90945
 20
-68.28866
 30
0.0
 10
176.90945
 20
-68.28866
 30
0.0
 10
176.90945
 20
-68.28866
 30
0.0
 10
194.63958
 20
-72.21991
 30
0.0
 10
213.17216
 20
-67.24489
 30
0.0
 10
226.5503
 20
-54.96324
 30
0.0
 10
226.5503
 20
-54.96324
 30
0.0
 10
226.5503
 20
-54.96324
 30
0.0
 10
226.5503
 20
-54.96324
 30
0.0
 10
226.5503
 20
-54.96324
 30
0.0
 10
226.5503
 20
-54.96324
 30
0.0
 10
226.68306
 20
-54.82521
 30
0.0
 10
226.87479
 20
-54.76019
 30
0.0
 10
227.06418
 20
-54.78948
 30
0.0
 10
227.06418
 20
-54.78948
 30
0.0
 10
227.06418
 20
-54.78948
 30
0.0
 10
227.06418
 20
-54.78948
 30
0.0
 10
227.06418
 20
-54.78948
 30
0.0
 10
227.06418
 20
-54.78948
 30
0.0
 10
227.25357
 20
-54.81857
 30
0.0
 10
227.41699
 20
-54.93806
 30
0.0
 10
227.50211
 20
-55.10968
 30
0.0
 10
227.50211
 20
-55.10968
 30
0.0
 10
227.50211
 20
-55.10968
 30
0.0
 10
227.50211
 20
-55.10968
 30
0.0
 10
227.50211
 20
-55.10968
 30
0.0
 10
227.50211
 20
-55.10968
 30
0.0
 10
228.4346
 20
-62.3917
 30
0.0
 10
229.43523
 20
-69.66494
 30
0.0
 10
230.50399
 20
-76.92822
 30
0.0
 10
230.50399
 20
-76.92822
 30
0.0
 10
230.50399
 20
-76.92822
 30
0.0
 10
230.50399
 20
-76.92822
 30
0.0
 10
230.50399
 20
-76.92822
 30
0.0
 10
230.50399
 20
-76.92822
 30
0.0
 10
230.44601
 20
-78.14459
 30
0.0
 10
230.08578
 20
-79.32719
 30
0.0
 10
229.45573
 20
-80.36921
 30
0.0
 10
229.45573
 20
-80.36921
 30
0.0
 10
229.45573
 20
-80.36921
 30
0.0
 10
229.45573
 20
-80.36921
 30
0.0
 10
229.45573
 20
-80.36921
 30
0.0
 10
229.45573
 20
-80.36921
 30
0.0
 10
229.45573
 20
-80.36921
 30
0.0
 10
226.16098
 20
-88.13973
 30
0.0
 10
226.16098
 20
-88.13973
 30
0.0
 10
226.16098
 20
-88.13973
 30
0.0
 10
226.16098
 20
-88.13973
 30
0.0
 10
226.16098
 20
-88.13973
 30
0.0
 10
226.16098
 20
-88.13973
 30
0.0
 10
226.16098
 20
-88.13973
 30
0.0
 10
226.16098
 20
-88.13973
 30
0.0
 10
230.25193
 20
-88.12919
 30
0.0
 10
230.25193
 20
-88.12919
 30
0.0
 10
230.25193
 20
-88.12919
 30
0.0
 10
230.25193
 20
-88.12919
 30
0.0
 10
230.25193
 20
-88.12919
 30
0.0
 10
230.25193
 20
-88.12919
 30
0.0
 10
230.25193
 20
-88.12919
 30
0.0
 10
230.25193
 20
-88.12919
 30
0.0
 10
250.13463
 20
-88.13973
 30
0.0
 10
250.13463
 20
-88.13973
 30
0.0
 10
250.13463
 20
-88.13973
 30
0.0
 10
250.13463
 20
-88.13973
 30
0.0
 10
250.13463
 20
-88.13973
 30
0.0
 10
250.13463
 20
-88.13973
 30
0.0
 10
250.13463
 20
-88.13973
 30
0.0
 10
250.13463
 20
-88.13973
 30
0.0
 10
246.40683
 20
-80.94928
 30
0.0
 10
246.40683
 20
-80.94928
 30
0.0
 10
246.40683
 20
-80.94928
 30
0.0
 10
246.40683
 20
-80.94928
 30
0.0
 10
246.40683
 20
-80.94928
 30
0.0
 10
246.40683
 20
-80.94928
 30
0.0
 10
246.40683
 20
-80.94928
 30
0.0
 10
246.37579
 20
-80.87528
 30
0.0
 10
246.34631
 20
-80.80089
 30
0.0
 10
246.31839
 20
-80.72592
 30
0.0
 10
246.31839
 20
-80.72592
 30
0.0
 10
246.31839
 20
-80.72592
 30
0.0
 10
246.31839
 20
-80.72592
 30
0.0
 10
246.31839
 20
-80.72592
 30
0.0
 10
246.31839
 20
-80.72592
 30
0.0
 10
246.30511
 20
-80.67886
 30
0.0
 10
246.29203
 20
-80.632
 30
0.0
 10
246.27934
 20
-80.58534
 30
0.0
 10
246.27934
 20
-80.58534
 30
0.0
 10
246.27934
 20
-80.58534
 30
0.0
 10
246.27934
 20
-80.58534
 30
0.0
 10
246.27934
 20
-80.58534
 30
0.0
 10
246.27934
 20
-80.58534
 30
0.0
 10
246.08117
 20
-79.94416
 30
0.0
 10
246.06945
 20
-79.25983
 30
0.0
 10
246.24556
 20
-78.6122
 30
0.0
 10
246.24556
 20
-78.6122
 30
0.0
 10
246.24556
 20
-78.6122
 30
0.0
 10
246.24556
 20
-78.6122
 30
0.0
 10
246.24556
 20
-78.6122
 30
0.0
 10
246.24556
 20
-78.6122
 30
0.0
 10
246.96972
 20
-71.62695
 30
0.0
 10
248.19312
 20
-64.70242
 30
0.0
 10
249.90639
 20
-57.89191
 30
0.0
 10
249.90639
 20
-57.89191
 30
0.0
 10
249.90639
 20
-57.89191
 30
0.0
 10
249.90639
 20
-57.89191
 30
0.0
 10
249.90639
 20
-57.89191
 30
0.0
 10
249.90639
 20
-57.89191
 30
0.0
 10
250.00655
 20
-57.66269
 30
0.0
 10
250.1975
 20
-57.48521
 30
0.0
 10
250.43336
 20
-57.40204
 30
0.0
 10
250.43336
 20
-57.40204
 30
0.0
 10
250.43336
 20
-57.40204
 30
0.0
 10
250.43336
 20
-57.40204
 30
0.0
 10
250.43336
 20
-57.40204
 30
0.0
 10
250.43336
 20
-57.40204
 30
0.0
 10
250.66921
 20
-57.31886
 30
0.0
 10
250.92908
 20
-57.33702
 30
0.0
 10
251.15107
 20
-57.45261
 30
0.0
 10
251.15107
 20
-57.45261
 30
0.0
 10
251.15107
 20
-57.45261
 30
0.0
 10
251.15107
 20
-57.45261
 30
0.0
 10
251.15107
 20
-57.45261
 30
0.0
 10
251.15107
 20
-57.45261
 30
0.0
 10
262.49789
 20
-62.6381
 30
0.0
 10
275.51365
 20
-62.75778
 30
0.0
 10
286.95399
 20
-57.78218
 30
0.0
 10
286.95399
 20
-57.78218
 30
0.0
 10
286.95399
 20
-57.78218
 30
0.0
 10
286.95399
 20
-57.78218
 30
0.0
 10
286.95399
 20
-57.78218
 30
0.0
 10
286.95399
 20
-57.78218
 30
0.0
 10
287.17208
 20
-57.66855
 30
0.0
 10
287.42667
 20
-57.64727
 30
0.0
 10
287.66058
 20
-57.72283
 30
0.0
 10
287.66058
 20
-57.72283
 30
0.0
 10
287.66058
 20
-57.72283
 30
0.0
 10
287.66058
 20
-57.72283
 30
0.0
 10
287.66058
 20
-57.72283
 30
0.0
 10
287.66058
 20
-57.72283
 30
0.0
 10
287.89467
 20
-57.79858
 30
0.0
 10
288.08836
 20
-57.96493
 30
0.0
 10
288.19867
 20
-58.18477
 30
0.0
 10
288.19867
 20
-58.18477
 30
0.0
 10
288.19867
 20
-58.18477
 30
0.0
 10
288.19867
 20
-58.18477
 30
0.0
 10
288.19867
 20
-58.18477
 30
0.0
 10
288.19867
 20
-58.18477
 30
0.0
 10
290.46448
 20
-63.04967
 30
0.0
 10
292.16135
 20
-68.1598
 30
0.0
 10
293.25569
 20
-73.41382
 30
0.0
 10
293.25569
 20
-73.41382
 30
0.0
 10
293.25569
 20
-73.41382
 30
0.0
 10
293.25569
 20
-73.41382
 30
0.0
 10
293.25569
 20
-73.41382
 30
0.0
 10
293.25569
 20
-73.41382
 30
0.0
 10
293.25569
 20
-73.41382
 30
0.0
 10
293.5716
 20
-75.02459
 30
0.0
 10
293.5716
 20
-75.02459
 30
0.0
 10
293.5716
 20
-75.02459
 30
0.0
 10
293.5716
 20
-75.02459
 30
0.0
 10
293.5716
 20
-75.02459
 30
0.0
 10
293.5716
 20
-75.02459
 30
0.0
 10
293.5716
 20
-75.02459
 30
0.0
 10
293.72369
 20
-75.85184
 30
0.0
 10
293.86075
 20
-76.68182
 30
0.0
 10
293.98278
 20
-77.51395
 30
0.0
 10
293.98278
 20
-77.51395
 30
0.0
 10
293.98278
 20
-77.51395
 30
0.0
 10
293.98278
 20
-77.51395
 30
0.0
 10
293.98278
 20
-77.51395
 30
0.0
 10
293.98278
 20
-77.51395
 30
0.0
 10
294.15011
 20
-78.55714
 30
0.0
 10
294.00289
 20
-79.6265
 30
0.0
 10
293.55969
 20
-80.58554
 30
0.0
 10
293.55969
 20
-80.58554
 30
0.0
 10
293.55969
 20
-80.58554
 30
0.0
 10
293.55969
 20
-80.58554
 30
0.0
 10
293.55969
 20
-80.58554
 30
0.0
 10
293.55969
 20
-80.58554
 30
0.0
 10
293.54719
 20
-80.632
 30
0.0
 10
293.53391
 20
-80.67906
 30
0.0
 10
293.52064
 20
-80.72611
 30
0.0
 10
293.52064
 20
-80.72611
 30
0.0
 10
293.52064
 20
-80.72611
 30
0.0
 10
293.52064
 20
-80.72611
 30
0.0
 10
293.52064
 20
-80.72611
 30
0.0
 10
293.52064
 20
-80.72611
 30
0.0
 10
293.49272
 20
-80.80109
 30
0.0
 10
293.46324
 20
-80.87547
 30
0.0
 10
293.43219
 20
-80.94947
 30
0.0
 10
293.43219
 20
-80.94947
 30
0.0
 10
293.43219
 20
-80.94947
 30
0.0
 10
293.43219
 20
-80.94947
 30
0.0
 10
293.43219
 20
-80.94947
 30
0.0
 10
293.43219
 20
-80.94947
 30
0.0
 10
293.43219
 20
-80.94947
 30
0.0
 10
289.70381
 20
-88.13973
 30
0.0
 10
289.70381
 20
-88.13973
 30
0.0
 10
289.70381
 20
-88.13973
 30
0.0
 10
289.70381
 20
-88.13973
 30
0.0
 10
289.70381
 20
-88.13973
 30
0.0
 10
289.70381
 20
-88.13973
 30
0.0
 10
289.70381
 20
-88.13973
 30
0.0
 10
289.70381
 20
-88.13973
 30
0.0
 10
309.58709
 20
-88.12938
 30
0.0
 10
309.58709
 20
-88.12938
 30
0.0
 10
309.58709
 20
-88.12938
 30
0.0
 10
309.58709
 20
-88.12938
 30
0.0
 10
309.58709
 20
-88.12938
 30
0.0
 10
309.58709
 20
-88.12938
 30
0.0
 10
309.58709
 20
-88.12938
 30
0.0
 10
309.58709
 20
-88.12938
 30
0.0
 10
313.68039
 20
-88.13973
 30
0.0
 10
313.68039
 20
-88.13973
 30
0.0
 10
313.68039
 20
-88.13973
 30
0.0
 10
313.68039
 20
-88.13973
 30
0.0
 10
313.68039
 20
-88.13973
 30
0.0
 10
313.68039
 20
-88.13973
 30
0.0
 10
313.68039
 20
-88.13973
 30
0.0
 10
313.68039
 20
-88.13973
 30
0.0
 10
310.3833
 20
-80.3694
 30
0.0
 10
310.3833
 20
-80.3694
 30
0.0
 10
310.3833
 20
-80.3694
 30
0.0
 10
310.3833
 20
-80.3694
 30
0.0
 10
310.3833
 20
-80.3694
 30
0.0
 10
310.3833
 20
-80.3694
 30
0.0
 10
310.3833
 20
-80.3694
 30
0.0
 10
310.15486
 20
-79.58315
 30
0.0
 10
310.12968
 20
-78.7518
 30
0.0
 10
310.31008
 20
-77.95325
 30
0.0
 10
310.31008
 20
-77.95325
 30
0.0
 10
310.31008
 20
-77.95325
 30
0.0
 10
310.31008
 20
-77.95325
 30
0.0
 10
310.31008
 20
-77.95325
 30
0.0
 10
310.31008
 20
-77.95325
 30
0.0
 10
310.47428
 20
-76.97528
 30
0.0
 10
310.64785
 20
-75.99905
 30
0.0
 10
310.83138
 20
-75.02459
 30
0.0
 10
310.83138
 20
-75.02459
 30
0.0
 10
310.83138
 20
-75.02459
 30
0.0
 10
310.83138
 20
-75.02459
 30
0.0
 10
310.83138
 20
-75.02459
 30
0.0
 10
310.83138
 20
-75.02459
 30
0.0
 10
310.83138
 20
-75.02459
 30
0.0
 10
311.14358
 20
-73.41382
 30
0.0
 10
311.14358
 20
-73.41382
 30
0.0
  0
SPLINE
  5
73
330
1F
100
AcDbEntity
  8
0
 62
   230
370
     9
100
AcDbSpline
210
0.0
220
0.0
230
1.0
 70
    11
 71
     3
 72
    84
 73
    80
 74
     0
 42
0.000000001
 43
0.0000000001
 40
0.0
 40
0.0
 40
0.0
 40
0.0
 40
0.0476190476190476
 40
0.0476190476190476
 40
0.0476190476190476
 40
0.0476190476190476
 40
0.0952380952380952
 40
0.0952380952380952
 40
0.0952380952380952
 40
0.0952380952380952
 40
0.1428571428571428
 40
0.1428571428571428
 40
0.1428571428571428
 40
0.1428571428571428
 40
0.1904761904761905
 40
0.1904761904761905
 40
0.1904761904761905
 40
0.1904761904761905
 40
0.2380952380952381
 40
0.2380952380952381
 40
0.2380952380952381
 40
0.2380952380952381
 40
0.2857142857142857
 40
0.2857142857142857
 40
0.2857142857142857
 40
0.2857142857142857
 40
0.3333333333333333
 40
0.3333333333333333
 40
0.3333333333333333
 40
0.3333333333333333
 40
0.3809523809523809
 40
0.3809523809523809
 40
0.3809523809523809
 40
0.3809523809523809
 40
0.4285714285714285
 40
0.4285714285714285
 40
0.4285714285714285
 40
0.4285714285714285
 40
0.4761904761904762
 40
0.4761904761904762
 40
0.4761904761904762
 40
0.4761904761904762
 40
0.5238095238095238
 40
0.5238095238095238
 40
0.5238095238095238
 40
0.5238095238095238
 40
0.5714285714285714
 40
0.5714285714285714
 40
0.5714285714285714
 40
0.5714285714285714
 40
0.6190476190476191
 40
0.6190476190476191
 40
0.6190476190476191
 40
0.6190476190476191
 40
0.6666666666666666
 40
0.6666666666666666
 40
0.6666666666666666
 40
0.6666666666666666
 40
0.7142857142857143
 40
0.7142857142857143
 40
0.7142857142857143
 40
0.7142857142857143
 40
0.7619047619047619
 40
0.7619047619047619
 40
0.7619047619047619
 40
0.7619047619047619
 40
0.8095238095238095
 40
0.8095238095238095
 40
0.8095238095238095
 40
0.8095238095238095
 40
0.8571428571428571
 40
0.8571428571428571
 40
0.8571428571428571
 40
0.8571428571428571
 40
0.9047619047619048
 40
0.9047619047619048
 40
0.9047619047619048
 40
0.9047619047619048
 40
1.0
 40
1.0
 40
1.0
 40
1.0
 10
315.26628
 20
-150.14574
 30
0.0
 10
323.01396
 20
-149.0596
 30
0.0
 10
330.45042
 20
-146.3703
 30
0.0
 10
337.10083
 20
-142.24967
 30
0.0
 10
337.10083
 20
-142.24967
 30
0.0
 10
339.07163
 20
-140.93861
 30
0.0
 10
340.36805
 20
-138.829
 30
0.0
 10
340.64745
 20
-136.47865
 30
0.0
 10
340.64745
 20
-136.47865
 30
0.0
 10
340.64745
 20
-136.47865
 30
0.0
 10
322.76871
 20
-136.47865
 30
0.0
 10
322.76871
 20
-136.47865
 30
0.0
 10
322.76871
 20
-136.47865
 30
0.0
 10
322.76871
 20
-136.47865
 30
0.0
 10
322.76871
 20
-142.55094
 30
0.0
 10
322.76871
 20
-142.55094
 30
0.0
 10
322.76871
 20
-142.55094
 30
0.0
 10
322.76871
 20
-142.55094
 30
0.0
 10
322.6512
 20
-142.55094
 30
0.0
 10
322.6512
 20
-142.55094
 30
0.0
 10
322.6512
 20
-142.55094
 30
0.0
 10
322.6512
 20
-142.55094
 30
0.0
 10
321.88623
 20
-142.55094
 30
0.0
 10
321.88623
 20
-142.55094
 30
0.0
 10
321.88623
 20
-142.55094
 30
0.0
 10
321.88623
 20
-142.55094
 30
0.0
 10
321.76871
 20
-142.55094
 30
0.0
 10
321.76871
 20
-142.55094
 30
0.0
 10
321.76871
 20
-142.55094
 30
0.0
 10
321.76871
 20
-142.55094
 30
0.0
 10
321.76871
 20
-136.47865
 30
0.0
 10
321.76871
 20
-136.47865
 30
0.0
 10
321.76871
 20
-136.47865
 30
0.0
 10
321.76871
 20
-136.47865
 30
0.0
 10
290.49642
 20
-136.47865
 30
0.0
 10
290.49642
 20
-136.47865
 30
0.0
 10
290.49642
 20
-136.47865
 30
0.0
 10
290.49642
 20
-136.47865
 30
0.0
 10
259.22413
 20
-136.47865
 30
0.0
 10
259.22413
 20
-136.47865
 30
0.0
 10
259.22413
 20
-136.47865
 30
0.0
 10
259.22413
 20
-136.47865
 30
0.0
 10
259.22413
 20
-142.55094
 30
0.0
 10
259.22413
 20
-142.55094
 30
0.0
 10
259.22413
 20
-142.55094
 30
0.0
 10
259.22413
 20
-142.55094
 30
0.0
 10
259.10661
 20
-142.55094
 30
0.0
 10
259.10661
 20
-142.55094
 30
0.0
 10
259.10661
 20
-142.55094
 30
0.0
 10
259.10661
 20
-142.55094
 30
0.0
 10
258.34165
 20
-142.55094
 30
0.0
 10
258.34165
 20
-142.55094
 30
0.0
 10
258.34165
 20
-142.55094
 30
0.0
 10
258.34165
 20
-142.55094
 30
0.0
 10
258.22413
 20
-142.55094
 30
0.0
 10
258.22413
 20
-142.55094
 30
0.0
 10
258.22413
 20
-142.55094
 30
0.0
 10
258.22413
 20
-142.55094
 30
0.0
 10
258.22413
 20
-136.47865
 30
0.0
 10
258.22413
 20
-136.47865
 30
0.0
 10
258.22413
 20
-136.47865
 30
0.0
 10
258.22413
 20
-136.47865
 30
0.0
 10
242.43607
 20
-136.48835
 30
0.0
 10
242.43607
 20
-136.48835
 30
0.0
 10
242.43607
 20
-136.48835
 30
0.0
 10
242.49829
 20
-138.87529
 30
0.0
 10
243.27432
 20
-141.23708
 30
0.0
 10
245.31411
 20
-142.53722
 30
0.0
 10
245.31411
 20
-142.53722
 30
0.0
 10
251.90574
 20
-146.86838
 30
0.0
 10
257.93308
 20
-149.22364
 30
0.0
 10
265.72656
 20
-150.14574
 30
0.0
 10
265.72656
 20
-150.14574
 30
0.0
 10
273.90046
 20
-151.605
 30
0.0
 10
282.19385
 20
-152.28874
 30
0.0
 10
290.49642
 20
-152.188
 30
0.0
 10
290.49642
 20
-152.188
 30
0.0
 10
298.79899
 20
-152.28874
 30
0.0
 10
307.09238
 20
-151.605
 30
0.0
 10
315.26628
 20
-150.14574
 30
0.0
  0
SPLINE
  5
74
330
1F
100
AcDbEntity
  8
0
 62
   114
370
     9
100
AcDbSpline
210
0.0
220
0.0
230
1.0
 70
    11
 71
     3
 72
   312
 73
   308
 74
     0
 42
0.000000001
 43
0.0000000001
 40
0.0
 40
0.0
 40
0.0
 40
0.0
 40
0.0128205128205128
 40
0.0128205128205128
 40
0.0128205128205128
 40
0.0128205128205128
 40
0.0256410256410256
 40
0.0256410256410256
 40
0.0256410256410256
 40
0.0256410256410256
 40
0.0384615384615385
 40
0.0384615384615385
 40
0.0384615384615385
 40
0.0384615384615385
 40
0.0512820512820513
 40
0.0512820512820513
 40
0.0512820512820513
 40
0.0512820512820513
 40
0.0641025641025641
 40
0.0641025641025641
 40
0.0641025641025641
 40
0.0641025641025641
 40
0.0769230769230769
 40
0.0769230769230769
 40
0.0769230769230769
 40
0.0769230769230769
 40
0.0897435897435897
 40
0.0897435897435897
 40
0.0897435897435897
 40
0.0897435897435897
 40
0.1025641025641026
 40
0.1025641025641026
 40
0.1025641025641026
 40
0.1025641025641026
 40
0.1153846153846154
 40
0.1153846153846154
 40
0.1153846153846154
 40
0.1153846153846154
 40
0.1282051282051282
 40
0.1282051282051282
 40
0.1282051282051282
 40
0.1282051282051282
 40
0.141025641025641
 40
0.141025641025641
 40
0.141025641025641
 40
0.141025641025641
 40
0.1538461538461539
 40
0.1538461538461539
 40
0.1538461538461539
 40
0.1538461538461539
 40
0.1666666666666667
 40
0.1666666666666667
 40
0.1666666666666667
 40
0.1666666666666667
 40
0.1794871794871795
 40
0.1794871794871795
 40
0.1794871794871795
 40
0.1794871794871795
 40
0.1923076923076923
 40
0.1923076923076923
 40
0.1923076923076923
 40
0.1923076923076923
 40
0.2051282051282051
 40
0.2051282051282051
 40
0.2051282051282051
 40
0.2051282051282051
 40
0.217948717948718
 40
0.217948717948718
 40
0.217948717948718
 40
0.217948717948718
 40
0.2307692307692308
 40
0.2307692307692308
 40
0.2307692307692308
 40
0.2307692307692308
 40
0.2435897435897436
 40
0.2435897435897436
 40
0.2435897435897436
 40
0.2435897435897436
 40
0.2564102564102564
 40
0.2564102564102564
 40
0.2564102564102564
 40
0.2564102564102564
 40
0.2692307692307692
 40
0.2692307692307692
 40
0.2692307692307692
 40
0.2692307692307692
 40
0.282051282051282
 40
0.282051282051282
 40
0.282051282051282
 40
0.282051282051282
 40
0.2948717948717949
 40
0.2948717948717949
 40
0.2948717948717949
 40
0.2948717948717949
 40
0.3076923076923077
 40
0.3076923076923077
 40
0.3076923076923077
 40
0.3076923076923077
 40
0.3205128205128205
 40
0.3205128205128205
 40
0.3205128205128205
 40
0.3205128205128205
 40
0.3333333333333333
 40
0.3333333333333333
 40
0.3333333333333333
 40
0.3333333333333333
 40
0.3461538461538461
 40
0.3461538461538461
 40
0.3461538461538461
 40
0.3461538461538461
 40
0.358974358974359
 40
0.358974358974359
 40
0.358974358974359
 40
0.358974358974359
 40
0.3717948717948718
 40
0.3717948717948718
 40
0.3717948717948718
 40
0.3717948717948718
 40
0.3846153846153846
 40
0.3846153846153846
 40
0.3846153846153846
 40
0.3846153846153846
 40
0.3974358974358974
 40
0.3974358974358974
 40
0.3974358974358974
 40
0.3974358974358974
 40
0.4102564102564102
 40
0.4102564102564102
 40
0.4102564102564102
 40
0.4102564102564102
 40
0.4230769230769231
 40
0.4230769230769231
 40
0.4230769230769231
 40
0.4230769230769231
 40
0.4358974358974359
 40
0.4358974358974359
 40
0.4358974358974359
 40
0.4358974358974359
 40
0.4487179487179487
 40
0.4487179487179487
 40
0.4487179487179487
 40
0.4487179487179487
 40
0.4615384615384616
 40
0.4615384615384616
 40
0.4615384615384616
 40
0.4615384615384616
 40
0.4743589743589743
 40
0.4743589743589743
 40
0.4743589743589743
 40
0.4743589743589743
 40
0.4871794871794872
 40
0.4871794871794872
 40
0.4871794871794872
 40
0.4871794871794872
 40
0.5
 40
0.5
 40
0.5
 40
0.5
 40
0.5128205128205128
 40
0.5128205128205128
 40
0.5128205128205128
 40
0.5128205128205128
 40
0.5256410256410257
 40
0.5256410256410257
 40
0.5256410256410257
 40
0.5256410256410257
 40
0.5384615384615384
 40
0.5384615384615384
 40
0.5384615384615384
 40
0.5384615384615384
 40
0.5512820512820513
 40
0.5512820512820513
 40
0.5512820512820513
 40
0.5512820512820513
 40
0.5641025641025641
 40
0.5641025641025641
 40
0.5641025641025641
 40
0.5641025641025641
 40
0.5769230769230769
 40
0.5769230769230769
 40
0.5769230769230769
 40
0.5769230769230769
 40
0.5897435897435898
 40
0.5897435897435898
 40
0.5897435897435898
 40
0.5897435897435898
 40
0.6025641025641025
 40
0.6025641025641025
 40
0.6025641025641025
 40
0.6025641025641025
 40
0.6153846153846154
 40
0.6153846153846154
 40
0.6153846153846154
 40
0.6153846153846154
 40
0.6282051282051282
 40
0.6282051282051282
 40
0.6282051282051282
 40
0.6282051282051282
 40
0.6410256410256411
 40
0.6410256410256411
 40
0.6410256410256411
 40
0.6410256410256411
 40
0.6538461538461539
 40
0.6538461538461539
 40
0.6538461538461539
 40
0.6538461538461539
 40
0.6666666666666666
 40
0.6666666666666666
 40
0.6666666666666666
 40
0.6666666666666666
 40
0.6794871794871795
 40
0.6794871794871795
 40
0.6794871794871795
 40
0.6794871794871795
 40
0.6923076923076923
 40
0.6923076923076923
 40
0.6923076923076923
 40
0.6923076923076923
 40
0.7051282051282052
 40
0.7051282051282052
 40
0.7051282051282052
 40
0.7051282051282052
 40
0.717948717948718
 40
0.717948717948718
 40
0.717948717948718
 40
0.717948717948718
 40
0.7307692307692307
 40
0.7307692307692307
 40
0.7307692307692307
 40
0.7307692307692307
 40
0.7435897435897436
 40
0.7435897435897436
 40
0.7435897435897436
 40
0.7435897435897436
 40
0.7564102564102564
 40
0.7564102564102564
 40
0.7564102564102564
 40
0.7564102564102564
 40
0.7692307692307693
 40
0.7692307692307693
 40
0.7692307692307693
 40
0.7692307692307693
 40
0.782051282051282
 40
0.782051282051282
 40
0.782051282051282
 40
0.782051282051282
 40
0.7948717948717948
 40
0.7948717948717948
 40
0.7948717948717948
 40
0.7948717948717948
 40
0.8076923076923077
 40
0.8076923076923077
 40
0.8076923076923077
 40
0.8076923076923077
 40
0.8205128205128205
 40
0.8205128205128205
 40
0.8205128205128205
 40
0.8205128205128205
 40
0.8333333333333334
 40
0.8333333333333334
 40
0.8333333333333334
 40
0.8333333333333334
 40
0.8461538461538461
 40
0.8461538461538461
 40
0.8461538461538461
 40
0.8461538461538461
 40
0.8589743589743589
 40
0.8589743589743589
 40
0.8589743589743589
 40
0.8589743589743589
 40
0.8717948717948718
 40
0.8717948717948718
 40
0.8717948717948718
 40
0.8717948717948718
 40
0.8846153846153846
 40
0.8846153846153846
 40
0.8846153846153846
 40
0.8846153846153846
 40
0.8974358974358975
 40
0.8974358974358975
 40
0.8974358974358975
 40
0.8974358974358975
 40
0.9102564102564102
 40
0.9102564102564102
 40
0.9102564102564102
 40
0.9102564102564102
 40
0.9230769230769231
 40
0.9230769230769231
 40
0.9230769230769231
 40
0.9230769230769231
 40
0.9358974358974359
 40
0.9358974358974359
 40
0.9358974358974359
 40
0.9358974358974359
 40
0.9487179487179487
 40
0.9487179487179487
 40
0.9487179487179487
 40
0.9487179487179487
 40
0.9615384615384616
 40
0.9615384615384616
 40
0.9615384615384616
 40
0.9615384615384616
 40
0.9743589743589743
 40
0.9743589743589743
 40
0.9743589743589743
 40
0.9743589743589743
 40
1.0
 40
1.0
 40
1.0
 40
1.0
 10
106.92362
 20
67.30847
 30
0.0
 10
106.96266
 20
64.38469
 30
0.0
 10
108.6689
 20
61.7401
 30
0.0
 10
111.31661
 20
60.49933
 30
0.0
 10
111.31661
 20
60.49933
 30
0.0
 10
112.04253
 20
60.22149
 30
0.0
 10
112.60444
 20
59.63108
 30
0.0
 10
112.84596
 20
58.89227
 30
0.0
 10
112.84596
 20
58.89227
 30
0.0
 10
113.08748
 20
58.15347
 30
0.0
 10
112.98302
 20
57.34516
 30
0.0
 10
112.56129
 20
56.69206
 30
0.0
 10
112.56129
 20
56.69206
 30
0.0
 10
112.20107
 20
55.03229
 30
0.0
 10
111.55715
 20
53.44691
 30
0.0
 10
110.65766
 20
52.0062
 30
0.0
 10
110.65766
 20
52.0062
 30
0.0
 10
109.40556
 20
50.33159
 30
0.0
 10
107.2032
 20
49.67694
 30
0.0
 10
105.23963
 20
50.39544
 30
0.0
 10
105.23963
 20
50.39544
 30
0.0
 10
101.66315
 20
50.74902
 30
0.0
 10
98.13118
 20
51.46049
 30
0.0
 10
94.69644
 20
52.51872
 30
0.0
 10
94.69644
 20
52.51872
 30
0.0
 10
93.65853
 20
53.12768
 30
0.0
 10
92.3785
 20
53.15268
 30
0.0
 10
91.31735
 20
52.58471
 30
0.0
 10
91.31735
 20
52.58471
 30
0.0
 10
90.25639
 20
52.01694
 30
0.0
 10
89.56718
 20
50.93802
 30
0.0
 10
89.49807
 20
49.73649
 30
0.0
 10
89.49807
 20
49.73649
 30
0.0
 10
89.38053
 20
48.75617
 30
0.0
 10
89.2341
 20
47.77955
 30
0.0
 10
89.05877
 20
46.80782
 30
0.0
 10
89.05877
 20
46.80782
 30
0.0
 10
87.18266
 20
33.351
 30
0.0
 10
85.0834
 20
19.92601
 30
0.0
 10
82.76214
 20
6.5387
 30
0.0
 10
82.76214
 20
6.5387
 30
0.0
 10
81.30855
 20
-4.76224
 30
0.0
 10
79.67318
 20
-16.03896
 30
0.0
 10
77.85663
 20
-27.28737
 30
0.0
 10
77.85663
 20
-27.28737
 30
0.0
 10
76.71913
 20
-33.98659
 30
0.0
 10
74.34828
 20
-40.41637
 30
0.0
 10
70.86434
 20
-46.25047
 30
0.0
 10
70.86434
 20
-46.25047
 30
0.0
 10
69.25963
 20
-49.18362
 30
0.0
 10
66.51957
 20
-51.32819
 30
0.0
 10
63.28652
 20
-52.18101
 30
0.0
 10
63.28652
 20
-52.18101
 30
0.0
 10
62.84937
 20
-52.52406
 30
0.0
 10
62.561
 20
-53.02232
 30
0.0
 10
62.48114
 20
-53.57213
 30
0.0
 10
62.48114
 20
-53.57213
 30
0.0
 10
60.23427
 20
-60.05541
 30
0.0
 10
58.43353
 20
-66.68473
 30
0.0
 10
57.09123
 20
-73.41382
 30
0.0
 10
57.09123
 20
-73.41382
 30
0.0
 10
57.09123
 20
-73.41382
 30
0.0
 10
56.77903
 20
-75.02459
 30
0.0
 10
56.77903
 20
-75.02459
 30
0.0
 10
56.77903
 20
-75.02459
 30
0.0
 10
56.5955
 20
-75.99905
 30
0.0
 10
56.42193
 20
-76.97528
 30
0.0
 10
56.25773
 20
-77.95325
 30
0.0
 10
56.25773
 20
-77.95325
 30
0.0
 10
56.07733
 20
-78.7518
 30
0.0
 10
56.10251
 20
-79.58315
 30
0.0
 10
56.33095
 20
-80.3694
 30
0.0
 10
56.33095
 20
-80.3694
 30
0.0
 10
56.33095
 20
-80.3694
 30
0.0
 10
59.62804
 20
-88.13973
 30
0.0
 10
59.62804
 20
-88.13973
 30
0.0
 10
59.62804
 20
-88.13973
 30
0.0
 10
59.62804
 20
-88.13973
 30
0.0
 10
46.94124
 20
-88.13973
 30
0.0
 10
46.94124
 20
-88.13973
 30
0.0
 10
46.94124
 20
-88.13973
 30
0.0
 10
46.94124
 20
-88.13973
 30
0.0
 10
46.94124
 20
-82.21709
 30
0.0
 10
46.94124
 20
-82.21709
 30
0.0
 10
46.94124
 20
-82.21709
 30
0.0
 10
46.94124
 20
-82.21709
 30
0.0
 10
45.94124
 20
-82.21709
 30
0.0
 10
45.94124
 20
-82.21709
 30
0.0
 10
45.94124
 20
-82.21709
 30
0.0
 10
45.94124
 20
-82.21709
 30
0.0
 10
45.94124
 20
-88.13973
 30
0.0
 10
45.94124
 20
-88.13973
 30
0.0
 10
45.94124
 20
-88.13973
 30
0.0
 10
45.94124
 20
-88.13973
 30
0.0
 10
35.65146
 20
-88.13973
 30
0.0
 10
35.65146
 20
-88.13973
 30
0.0
 10
35.65146
 20
-88.13973
 30
0.0
 10
35.65146
 20
-88.13973
 30
0.0
 10
39.37984
 20
-80.94947
 30
0.0
 10
39.37984
 20
-80.94947
 30
0.0
 10
39.37984
 20
-80.94947
 30
0.0
 10
39.41089
 20
-80.87547
 30
0.0
 10
39.44037
 20
-80.80109
 30
0.0
 10
39.46829
 20
-80.72611
 30
0.0
 10
39.46829
 20
-80.72611
 30
0.0
 10
39.48156
 20
-80.67906
 30
0.0
 10
39.49484
 20
-80.632
 30
0.0
 10
39.50734
 20
-80.58554
 30
0.0
 10
39.50734
 20
-80.58554
 30
0.0
 10
39.95054
 20
-79.6265
 30
0.0
 10
40.09776
 20
-78.55714
 30
0.0
 10
39.93043
 20
-77.51395
 30
0.0
 10
39.93043
 20
-77.51395
 30
0.0
 10
39.8084
 20
-76.68182
 30
0.0
 10
39.67134
 20
-75.85184
 30
0.0
 10
39.51925
 20
-75.02459
 30
0.0
 10
39.51925
 20
-75.02459
 30
0.0
 10
39.51925
 20
-75.02459
 30
0.0
 10
39.20334
 20
-73.41382
 30
0.0
 10
39.20334
 20
-73.41382
 30
0.0
 10
39.20334
 20
-73.41382
 30
0.0
 10
38.109
 20
-68.1598
 30
0.0
 10
36.41213
 20
-63.04967
 30
0.0
 10
34.14632
 20
-58.18477
 30
0.0
 10
34.14632
 20
-58.18477
 30
0.0
 10
34.03601
 20
-57.96493
 30
0.0
 10
33.84232
 20
-57.79858
 30
0.0
 10
33.60823
 20
-57.72283
 30
0.0
 10
33.60823
 20
-57.72283
 30
0.0
 10
33.37432
 20
-57.64727
 30
0.0
 10
33.11973
 20
-57.66855
 30
0.0
 10
32.90164
 20
-57.78218
 30
0.0
 10
32.90164
 20
-57.78218
 30
0.0
 10
21.4613
 20
-62.75778
 30
0.0
 10
8.44554
 20
-62.6381
 30
0.0
 10
-2.90128
 20
-57.45261
 30
0.0
 10
-2.90128
 20
-57.45261
 30
0.0
 10
-3.12327
 20
-57.33702
 30
0.0
 10
-3.38314
 20
-57.31886
 30
0.0
 10
-3.61899
 20
-57.40204
 30
0.0
 10
-3.61899
 20
-57.40204
 30
0.0
 10
-3.85485
 20
-57.48521
 30
0.0
 10
-4.0458
 20
-57.66269
 30
0.0
 10
-4.14596
 20
-57.89191
 30
0.0
 10
-4.14596
 20
-57.89191
 30
0.0
 10
-5.85923
 20
-64.70242
 30
0.0
 10
-7.08263
 20
-71.62695
 30
0.0
 10
-7.80679
 20
-78.6122
 30
0.0
 10
-7.80679
 20
-78.6122
 30
0.0
 10
-7.9829
 20
-79.25983
 30
0.0
 10
-7.97118
 20
-79.94416
 30
0.0
 10
-7.77301
 20
-80.58534
 30
0.0
 10
-7.77301
 20
-80.58534
 30
0.0
 10
-7.76032
 20
-80.632
 30
0.0
 10
-7.74724
 20
-80.67886
 30
0.0
 10
-7.73396
 20
-80.72592
 30
0.0
 10
-7.73396
 20
-80.72592
 30
0.0
 10
-7.70604
 20
-80.80089
 30
0.0
 10
-7.67656
 20
-80.87528
 30
0.0
 10
-7.64552
 20
-80.94928
 30
0.0
 10
-7.64552
 20
-80.94928
 30
0.0
 10
-7.64552
 20
-80.94928
 30
0.0
 10
-3.91772
 20
-88.13973
 30
0.0
 10
-3.91772
 20
-88.13973
 30
0.0
 10
-3.91772
 20
-88.13973
 30
0.0
 10
-3.91772
 20
-88.13973
 30
0.0
 10
-16.60334
 20
-88.13973
 30
0.0
 10
-16.60334
 20
-88.13973
 30
0.0
 10
-16.60334
 20
-88.13973
 30
0.0
 10
-16.60334
 20
-88.13973
 30
0.0
 10
-16.60334
 20
-82.21709
 30
0.0
 10
-16.60334
 20
-82.21709
 30
0.0
 10
-16.60334
 20
-82.21709
 30
0.0
 10
-16.60334
 20
-82.21709
 30
0.0
 10
-17.60334
 20
-82.21709
 30
0.0
 10
-17.60334
 20
-82.21709
 30
0.0
 10
-17.60334
 20
-82.21709
 30
0.0
 10
-17.60334
 20
-82.21709
 30
0.0
 10
-17.60334
 20
-88.13973
 30
0.0
 10
-17.60334
 20
-88.13973
 30
0.0
 10
-17.60334
 20
-88.13973
 30
0.0
 10
-17.60334
 20
-88.13973
 30
0.0
 10
-27.89137
 20
-88.13973
 30
0.0
 10
-27.89137
 20
-88.13973
 30
0.0
 10
-27.89137
 20
-88.13973
 30
0.0
 10
-27.89137
 20
-88.13973
 30
0.0
 10
-24.59662
 20
-80.36921
 30
0.0
 10
-24.59662
 20
-80.36921
 30
0.0
 10
-24.59662
 20
-80.36921
 30
0.0
 10
-23.96657
 20
-79.32719
 30
0.0
 10
-23.60634
 20
-78.14459
 30
0.0
 10
-23.54836
 20
-76.92822
 30
0.0
 10
-23.54836
 20
-76.92822
 30
0.0
 10
-24.61712
 20
-69.66494
 30
0.0
 10
-25.61775
 20
-62.3917
 30
0.0
 10
-26.55024
 20
-55.10968
 30
0.0
 10
-26.55024
 20
-55.10968
 30
0.0
 10
-26.63536
 20
-54.93806
 30
0.0
 10
-26.79878
 20
-54.81857
 30
0.0
 10
-26.98817
 20
-54.78948
 30
0.0
 10
-26.98817
 20
-54.78948
 30
0.0
 10
-27.17756
 20
-54.76019
 30
0.0
 10
-27.36929
 20
-54.82521
 30
0.0
 10
-27.50205
 20
-54.96324
 30
0.0
 10
-27.50205
 20
-54.96324
 30
0.0
 10
-40.88019
 20
-67.24489
 30
0.0
 10
-59.41277
 20
-72.21991
 30
0.0
 10
-77.1429
 20
-68.28866
 30
0.0
 10
-77.1429
 20
-68.28866
 30
0.0
 10
-77.70872
 20
-68.26055
 30
0.0
 10
-78.15329
 20
-67.79372
 30
0.0
 10
-78.15329
 20
-67.22692
 30
0.0
 10
-78.15329
 20
-67.22692
 30
0.0
 10
-78.15329
 20
-66.66052
 30
0.0
 10
-77.70872
 20
-66.1935
 30
0.0
 10
-77.1429
 20
-66.16538
 30
0.0
 10
-77.1429
 20
-66.16538
 30
0.0
 10
-76.84809
 20
-66.18588
 30
0.0
 10
-76.5517
 20
-66.16128
 30
0.0
 10
-76.26431
 20
-66.09217
 30
0.0
 10
-76.26431
 20
-66.09217
 30
0.0
 10
-60.21367
 20
-61.26963
 30
0.0
 10
-47.12761
 20
-49.57802
 30
0.0
 10
-40.53461
 20
-34.16973
 30
0.0
 10
-40.53461
 20
-34.16973
 30
0.0
 10
-36.59536
 20
-25.28319
 30
0.0
 10
-30.86221
 20
-17.30668
 30
0.0
 10
-23.69479
 20
-10.74042
 30
0.0
 10
-23.69479
 20
-10.74042
 30
0.0
 10
-21.42558
 20
-8.44444
 30
0.0
 10
-18.98509
 20
-6.36152
 30
0.0
 10
-16.40494
 20
-4.50132
 30
0.0
 10
-16.40494
 20
-4.50132
 30
0.0
 10
-16.40494
 20
-4.50132
 30
0.0
 10
-16.40494
 20
-35.42125
 30
0.0
 10
-16.40494
 20
-35.42125
 30
0.0
 10
-16.40494
 20
-35.42125
 30
0.0
 10
-16.40494
 20
-35.42125
 30
0.0
 10
-16.40493
 20
-35.42125
 30
0.0
 10
-16.40493
 20
-35.42125
 30
0.0
 10
-16.40493
 20
-35.42125
 30
0.0
 10
-16.40493
 20
-35.42125
 30
0.0
 10
-16.40493
 20
-35.42759
 30
0.0
 10
-16.40493
 20
-35.42759
 30
0.0
 10
-16.40493
 20
-35.42759
 30
0.0
 10
-16.40493
 20
-35.42759
 30
0.0
 10
-15.40493
 20
-35.42759
 30
0.0
 10
-15.40493
 20
-35.42759
 30
0.0
 10
-15.40493
 20
-35.42759
 30
0.0
 10
-15.40493
 20
-35.42759
 30
0.0
 10
-15.40493
 20
-3.79577
 30
0.0
 10
-15.40493
 20
-3.79577
 30
0.0
 10
-15.40493
 20
-3.79577
 30
0.0
 10
-4.73663
 20
3.55651
 30
0.0
 10
8.19901
 20
7.1642
 30
0.0
 10
21.33342
 20
6.24583
 30
0.0
 10
21.33342
 20
6.24583
 30
0.0
 10
30.31914
 20
5.76609
 30
0.0
 10
39.10534
 20
3.43012
 30
0.0
 10
47.13965
 20
-0.6112
 30
0.0
 10
47.13965
 20
-0.6112
 30
0.0
 10
47.13965
 20
-0.6112
 30
0.0
 10
47.13965
 20
-35.42125
 30
0.0
 10
47.13965
 20
-35.42125
 30
0.0
 10
47.13965
 20
-35.42125
 30
0.0
 10
47.13965
 20
-35.42125
 30
0.0
 10
47.13965
 20
-35.42759
 30
0.0
 10
47.13965
 20
-35.42759
 30
0.0
 10
47.13965
 20
-35.42759
 30
0.0
 10
47.13965
 20
-35.42759
 30
0.0
 10
48.13965
 20
-35.42759
 30
0.0
 10
48.13965
 20
-35.42759
 30
0.0
 10
48.13965
 20
-35.42759
 30
0.0
 10
48.13965
 20
-35.42759
 30
0.0
 10
48.13965
 20
-35.42125
 30
0.0
 10
48.13965
 20
-35.42125
 30
0.0
 10
48.13965
 20
-35.42125
 30
0.0
 10
48.13965
 20
-35.42125
 30
0.0
 10
48.13965
 20
-1.06207
 30
0.0
 10
48.13965
 20
-1.06207
 30
0.0
 10
48.13965
 20
-1.06207
 30
0.0
 10
48.82704
 20
-1.22256
 30
0.0
 10
49.56229
 20
-0.96673
 30
0.0
 10
49.99781
 20
-0.38017
 30
0.0
 10
49.99781
 20
-0.38017
 30
0.0
 10
49.99781
 20
-0.38017
 30
0.0
 10
50.54684
 20
0.90102
 30
0.0
 10
50.54684
 20
0.90102
 30
0.0
 10
50.54684
 20
0.90102
 30
0.0
 10
57.57973
 20
19.24617
 30
0.0
 10
64.32874
 20
37.6989
 30
0.0
 10
70.79132
 20
56.25276
 30
0.0
 10
70.79132
 20
56.25276
 30
0.0
 10
71.99305
 20
60.26113
 30
0.0
 10
73.65126
 20
64.11798
 30
0.0
 10
75.73335
 20
67.74777
 30
0.0
 10
75.73335
 20
67.74777
 30
0.0
 10
80.33545
 20
73.13729
 30
0.0
 10
86.68421
 20
76.73935
 30
0.0
 10
93.67141
 20
77.92488
 30
0.0
 10
93.67141
 20
77.92488
 30
0.0
 10
97.84671
 20
79.12563
 30
0.0
 10
102.33342
 20
77.67828
 30
0.0
 10
105.01998
 20
74.26405
 30
0.0
 10
105.01998
 20
74.26405
 30
0.0
 10
106.07996
 20
72.08356
 30
0.0
 10
106.72544
 20
69.72501
 30
0.0
 10
106.92362
 20
67.30847
 30
0.0
  0
SPLINE
  5
75
330
1F
100
AcDbEntity
  8
0
 62
   114
370
     9
100
AcDbSpline
210
0.0
220
0.0
230
1.0
 70
    11
 71
     3
 72
   148
 73
   144
 74
     0
 42
0.000000001
 43
0.0000000001
 40
0.0
 40
0.0
 40
0.0
 40
0.0
 40
0.027027027027027
 40
0.027027027027027
 40
0.027027027027027
 40
0.027027027027027
 40
0.0540540540540541
 40
0.0540540540540541
 40
0.0540540540540541
 40
0.0540540540540541
 40
0.0810810810810811
 40
0.0810810810810811
 40
0.0810810810810811
 40
0.0810810810810811
 40
0.1081081081081081
 40
0.1081081081081081
 40
0.1081081081081081
 40
0.1081081081081081
 40
0.1351351351351351
 40
0.1351351351351351
 40
0.1351351351351351
 40
0.1351351351351351
 40
0.1621621621621622
 40
0.1621621621621622
 40
0.1621621621621622
 40
0.1621621621621622
 40
0.1891891891891892
 40
0.1891891891891892
 40
0.1891891891891892
 40
0.1891891891891892
 40
0.2162162162162162
 40
0.2162162162162162
 40
0.2162162162162162
 40
0.2162162162162162
 40
0.2432432432432433
 40
0.2432432432432433
 40
0.2432432432432433
 40
0.2432432432432433
 40
0.2702702702702703
 40
0.2702702702702703
 40
0.2702702702702703
 40
0.2702702702702703
 40
0.2972972972972973
 40
0.2972972972972973
 40
0.2972972972972973
 40
0.2972972972972973
 40
0.3243243243243243
 40
0.3243243243243243
 40
0.3243243243243243
 40
0.3243243243243243
 40
0.3513513513513514
 40
0.3513513513513514
 40
0.3513513513513514
 40
0.3513513513513514
 40
0.3783783783783784
 40
0.3783783783783784
 40
0.3783783783783784
 40
0.3783783783783784
 40
0.4054054054054054
 40
0.4054054054054054
 40
0.4054054054054054
 40
0.4054054054054054
 40
0.4324324324324325
 40
0.4324324324324325
 40
0.4324324324324325
 40
0.4324324324324325
 40
0.4594594594594595
 40
0.4594594594594595
 40
0.4594594594594595
 40
0.4594594594594595
 40
0.4864864864864865
 40
0.4864864864864865
 40
0.4864864864864865
 40
0.4864864864864865
 40
0.5135135135135135
 40
0.5135135135135135
 40
0.5135135135135135
 40
0.5135135135135135
 40
0.5405405405405406
 40
0.5405405405405406
 40
0.5405405405405406
 40
0.5405405405405406
 40
0.5675675675675675
 40
0.5675675675675675
 40
0.5675675675675675
 40
0.5675675675675675
 40
0.5945945945945946
 40
0.5945945945945946
 40
0.5945945945945946
 40
0.5945945945945946
 40
0.6216216216216216
 40
0.6216216216216216
 40
0.6216216216216216
 40
0.6216216216216216
 40
0.6486486486486487
 40
0.6486486486486487
 40
0.6486486486486487
 40
0.6486486486486487
 40
0.6756756756756757
 40
0.6756756756756757
 40
0.6756756756756757
 40
0.6756756756756757
 40
0.7027027027027027
 40
0.7027027027027027
 40
0.7027027027027027
 40
0.7027027027027027
 40
0.7297297297297297
 40
0.7297297297297297
 40
0.7297297297297297
 40
0.7297297297297297
 40
0.7567567567567568
 40
0.7567567567567568
 40
0.7567567567567568
 40
0.7567567567567568
 40
0.7837837837837838
 40
0.7837837837837838
 40
0.7837837837837838
 40
0.7837837837837838
 40
0.8108108108108109
 40
0.8108108108108109
 40
0.8108108108108109
 40
0.8108108108108109
 40
0.8378378378378378
 40
0.8378378378378378
 40
0.8378378378378378
 40
0.8378378378378378
 40
0.8648648648648649
 40
0.8648648648648649
 40
0.8648648648648649
 40
0.8648648648648649
 40
0.8918918918918919
 40
0.8918918918918919
 40
0.8918918918918919
 40
0.8918918918918919
 40
0.918918918918919
 40
0.918918918918919
 40
0.918918918918919
 40
0.918918918918919
 40
0.9459459459459459
 40
0.9459459459459459
 40
0.9459459459459459
 40
0.9459459459459459
 40
1.0
 40
1.0
 40
1.0
 40
1.0
 10
-12.34056
 20
-139.58196
 30
0.0
 10
-10.34547
 20
-149.39772
 30
0.0
 10
-10.34547
 20
-159.51443
 30
0.0
 10
-12.34056
 20
-169.33
 30
0.0
 10
-12.34056
 20
-169.33
 30
0.0
 10
-12.34056
 20
-169.33
 30
0.0
 10
-18.51598
 20
-169.33
 30
0.0
 10
-18.51598
 20
-169.33
 30
0.0
 10
-18.51598
 20
-169.33
 30
0.0
 10
-18.51598
 20
-169.33
 30
0.0
 10
-18.51598
 20
-169.44449
 30
0.0
 10
-18.51598
 20
-169.44449
 30
0.0
 10
-18.51598
 20
-169.44449
 30
0.0
 10
-18.51598
 20
-169.44449
 30
0.0
 10
-18.51598
 20
-170.21551
 30
0.0
 10
-18.51598
 20
-170.21551
 30
0.0
 10
-18.51598
 20
-170.21551
 30
0.0
 10
-18.51598
 20
-170.21551
 30
0.0
 10
-18.51598
 20
-170.33
 30
0.0
 10
-18.51598
 20
-170.33
 30
0.0
 10
-18.51598
 20
-170.33
 30
0.0
 10
-18.51598
 20
-170.33
 30
0.0
 10
-12.63515
 20
-170.33
 30
0.0
 10
-12.63515
 20
-170.33
 30
0.0
 10
-12.63515
 20
-170.33
 30
0.0
 10
-15.81166
 20
-178.71034
 30
0.0
 10
-17.25849
 20
-187.64772
 30
0.0
 10
-16.88784
 20
-196.60316
 30
0.0
 10
-16.88784
 20
-196.60316
 30
0.0
 10
-16.98585
 20
-197.79279
 30
0.0
 10
-16.77597
 20
-198.98749
 30
0.0
 10
-16.27868
 20
-200.07246
 30
0.0
 10
-16.27868
 20
-200.07246
 30
0.0
 10
-16.27868
 20
-200.07246
 30
0.0
 10
-12.61004
 20
-207.16822
 30
0.0
 10
-12.61004
 20
-207.16822
 30
0.0
 10
-12.61004
 20
-207.16822
 30
0.0
 10
-12.61004
 20
-207.16822
 30
0.0
 10
-24.58769
 20
-207.16822
 30
0.0
 10
-24.58769
 20
-207.16822
 30
0.0
 10
-24.58769
 20
-207.16822
 30
0.0
 10
-24.58769
 20
-207.16822
 30
0.0
 10
-24.58769
 20
-154.45598
 30
0.0
 10
-24.58769
 20
-154.45598
 30
0.0
 10
-24.58769
 20
-154.45598
 30
0.0
 10
-24.58769
 20
-154.45598
 30
0.0
 10
-25.58768
 20
-154.45598
 30
0.0
 10
-25.58768
 20
-154.45598
 30
0.0
 10
-25.58768
 20
-154.45598
 30
0.0
 10
-25.58768
 20
-154.45598
 30
0.0
 10
-25.58768
 20
-207.16822
 30
0.0
 10
-25.58768
 20
-207.16822
 30
0.0
 10
-25.58768
 20
-207.16822
 30
0.0
 10
-25.58768
 20
-207.16822
 30
0.0
 10
-37.56533
 20
-207.16822
 30
0.0
 10
-37.56533
 20
-207.16822
 30
0.0
 10
-37.56533
 20
-207.16822
 30
0.0
 10
-37.56533
 20
-207.16822
 30
0.0
 10
-33.89669
 20
-200.07246
 30
0.0
 10
-33.89669
 20
-200.07246
 30
0.0
 10
-33.89669
 20
-200.07246
 30
0.0
 10
-33.3994
 20
-198.98749
 30
0.0
 10
-33.18952
 20
-197.79279
 30
0.0
 10
-33.28753
 20
-196.60316
 30
0.0
 10
-33.28753
 20
-196.60316
 30
0.0
 10
-32.91688
 20
-187.64772
 30
0.0
 10
-34.36371
 20
-178.71034
 30
0.0
 10
-37.54022
 20
-170.33
 30
0.0
 10
-37.54022
 20
-170.33
 30
0.0
 10
-37.54022
 20
-170.33
 30
0.0
 10
-31.65939
 20
-170.33
 30
0.0
 10
-31.65939
 20
-170.33
 30
0.0
 10
-31.65939
 20
-170.33
 30
0.0
 10
-31.65939
 20
-170.33
 30
0.0
 10
-31.65939
 20
-170.21551
 30
0.0
 10
-31.65939
 20
-170.21551
 30
0.0
 10
-31.65939
 20
-170.21551
 30
0.0
 10
-31.65939
 20
-170.21551
 30
0.0
 10
-31.65939
 20
-169.44449
 30
0.0
 10
-31.65939
 20
-169.44449
 30
0.0
 10
-31.65939
 20
-169.44449
 30
0.0
 10
-31.65939
 20
-169.44449
 30
0.0
 10
-31.65939
 20
-169.33
 30
0.0
 10
-31.65939
 20
-169.33
 30
0.0
 10
-31.65939
 20
-169.33
 30
0.0
 10
-31.65939
 20
-169.33
 30
0.0
 10
-37.83481
 20
-169.33
 30
0.0
 10
-37.83481
 20
-169.33
 30
0.0
 10
-37.83481
 20
-169.33
 30
0.0
 10
-39.8299
 20
-159.51443
 30
0.0
 10
-39.8299
 20
-149.39772
 30
0.0
 10
-37.83481
 20
-139.58196
 30
0.0
 10
-37.83481
 20
-139.58196
 30
0.0
 10
-37.83481
 20
-139.58196
 30
0.0
 10
-31.65939
 20
-139.58196
 30
0.0
 10
-31.65939
 20
-139.58196
 30
0.0
 10
-31.65939
 20
-139.58196
 30
0.0
 10
-31.65939
 20
-139.58196
 30
0.0
 10
-31.65939
 20
-139.46747
 30
0.0
 10
-31.65939
 20
-139.46747
 30
0.0
 10
-31.65939
 20
-139.46747
 30
0.0
 10
-31.65939
 20
-139.46747
 30
0.0
 10
-31.65939
 20
-138.69645
 30
0.0
 10
-31.65939
 20
-138.69645
 30
0.0
 10
-31.65939
 20
-138.69645
 30
0.0
 10
-31.65939
 20
-138.69645
 30
0.0
 10
-31.65939
 20
-138.58196
 30
0.0
 10
-31.65939
 20
-138.58196
 30
0.0
 10
-31.65939
 20
-138.58196
 30
0.0
 10
-31.65939
 20
-138.58196
 30
0.0
 10
-37.65344
 20
-138.58196
 30
0.0
 10
-37.65344
 20
-138.58196
 30
0.0
 10
-37.65344
 20
-138.58196
 30
0.0
 10
-36.38201
 20
-130.9968
 30
0.0
 10
-32.01207
 20
-124.28016
 30
0.0
 10
-25.58769
 20
-120.04555
 30
0.0
 10
-25.58769
 20
-120.04555
 30
0.0
 10
-25.58769
 20
-120.04555
 30
0.0
 10
-24.58769
 20
-120.04555
 30
0.0
 10
-24.58769
 20
-120.04555
 30
0.0
 10
-24.58769
 20
-120.04555
 30
0.0
 10
-18.1633
 20
-124.28016
 30
0.0
 10
-13.79336
 20
-130.9968
 30
0.0
 10
-12.52193
 20
-138.58196
 30
0.0
 10
-12.52193
 20
-138.58196
 30
0.0
 10
-12.52193
 20
-138.58196
 30
0.0
 10
-18.51598
 20
-138.58196
 30
0.0
 10
-18.51598
 20
-138.58196
 30
0.0
 10
-18.51598
 20
-138.58196
 30
0.0
 10
-18.51598
 20
-138.58196
 30
0.0
 10
-18.51598
 20
-138.69645
 30
0.0
 10
-18.51598
 20
-138.69645
 30
0.0
 10
-18.51598
 20
-138.69645
 30
0.0
 10
-18.51598
 20
-138.69645
 30
0.0
 10
-18.51598
 20
-139.46747
 30
0.0
 10
-18.51598
 20
-139.46747
 30
0.0
 10
-18.51598
 20
-139.46747
 30
0.0
 10
-18.51598
 20
-139.46747
 30
0.0
 10
-18.51598
 20
-139.58196
 30
0.0
 10
-18.51598
 20
-139.58196
 30
0.0
 10
-18.51598
 20
-139.58196
 30
0.0
 10
-18.51598
 20
-139.58196
 30
0.0
 10
-12.34056
 20
-139.58196
 30
0.0
 10
-12.34056
 20
-139.58196
 30
0.0
  0
SPLINE
  5
76
330
1F
100
AcDbEntity
  8
0
 62
   114
370
     9
100
AcDbSpline
210
0.0
220
0.0
230
1.0
 70
    11
 71
     3
 72
   148
 73
   144
 74
     0
 42
0.000000001
 43
0.0000000001
 40
0.0
 40
0.0
 40
0.0
 40
0.0
 40
0.027027027027027
 40
0.027027027027027
 40
0.027027027027027
 40
0.027027027027027
 40
0.0540540540540541
 40
0.0540540540540541
 40
0.0540540540540541
 40
0.0540540540540541
 40
0.0810810810810811
 40
0.0810810810810811
 40
0.0810810810810811
 40
0.0810810810810811
 40
0.1081081081081081
 40
0.1081081081081081
 40
0.1081081081081081
 40
0.1081081081081081
 40
0.1351351351351351
 40
0.1351351351351351
 40
0.1351351351351351
 40
0.1351351351351351
 40
0.1621621621621622
 40
0.1621621621621622
 40
0.1621621621621622
 40
0.1621621621621622
 40
0.1891891891891892
 40
0.1891891891891892
 40
0.1891891891891892
 40
0.1891891891891892
 40
0.2162162162162162
 40
0.2162162162162162
 40
0.2162162162162162
 40
0.2162162162162162
 40
0.2432432432432433
 40
0.2432432432432433
 40
0.2432432432432433
 40
0.2432432432432433
 40
0.2702702702702703
 40
0.2702702702702703
 40
0.2702702702702703
 40
0.2702702702702703
 40
0.2972972972972973
 40
0.2972972972972973
 40
0.2972972972972973
 40
0.2972972972972973
 40
0.3243243243243243
 40
0.3243243243243243
 40
0.3243243243243243
 40
0.3243243243243243
 40
0.3513513513513514
 40
0.3513513513513514
 40
0.3513513513513514
 40
0.3513513513513514
 40
0.3783783783783784
 40
0.3783783783783784
 40
0.3783783783783784
 40
0.3783783783783784
 40
0.4054054054054054
 40
0.4054054054054054
 40
0.4054054054054054
 40
0.4054054054054054
 40
0.4324324324324325
 40
0.4324324324324325
 40
0.4324324324324325
 40
0.4324324324324325
 40
0.4594594594594595
 40
0.4594594594594595
 40
0.4594594594594595
 40
0.4594594594594595
 40
0.4864864864864865
 40
0.4864864864864865
 40
0.4864864864864865
 40
0.4864864864864865
 40
0.5135135135135135
 40
0.5135135135135135
 40
0.5135135135135135
 40
0.5135135135135135
 40
0.5405405405405406
 40
0.5405405405405406
 40
0.5405405405405406
 40
0.5405405405405406
 40
0.5675675675675675
 40
0.5675675675675675
 40
0.5675675675675675
 40
0.5675675675675675
 40
0.5945945945945946
 40
0.5945945945945946
 40
0.5945945945945946
 40
0.5945945945945946
 40
0.6216216216216216
 40
0.6216216216216216
 40
0.6216216216216216
 40
0.6216216216216216
 40
0.6486486486486487
 40
0.6486486486486487
 40
0.6486486486486487
 40
0.6486486486486487
 40
0.6756756756756757
 40
0.6756756756756757
 40
0.6756756756756757
 40
0.6756756756756757
 40
0.7027027027027027
 40
0.7027027027027027
 40
0.7027027027027027
 40
0.7027027027027027
 40
0.7297297297297297
 40
0.7297297297297297
 40
0.7297297297297297
 40
0.7297297297297297
 40
0.7567567567567568
 40
0.7567567567567568
 40
0.7567567567567568
 40
0.7567567567567568
 40
0.7837837837837838
 40
0.7837837837837838
 40
0.7837837837837838
 40
0.7837837837837838
 40
0.8108108108108109
 40
0.8108108108108109
 40
0.8108108108108109
 40
0.8108108108108109
 40
0.8378378378378378
 40
0.8378378378378378
 40
0.8378378378378378
 40
0.8378378378378378
 40
0.8648648648648649
 40
0.8648648648648649
 40
0.8648648648648649
 40
0.8648648648648649
 40
0.8918918918918919
 40
0.8918918918918919
 40
0.8918918918918919
 40
0.8918918918918919
 40
0.918918918918919
 40
0.918918918918919
 40
0.918918918918919
 40
0.918918918918919
 40
0.9459459459459459
 40
0.9459459459459459
 40
0.9459459459459459
 40
0.9459459459459459
 40
1.0
 40
1.0
 40
1.0
 40
1.0
 10
-51.83518
 20
-139.58215
 30
0.0
 10
-49.84008
 20
-149.39773
 30
0.0
 10
-49.84008
 20
-159.51443
 30
0.0
 10
-51.83518
 20
-169.33
 30
0.0
 10
-51.83518
 20
-169.33
 30
0.0
 10
-51.83518
 20
-169.33
 30
0.0
 10
-58.0106
 20
-169.33
 30
0.0
 10
-58.0106
 20
-169.33
 30
0.0
 10
-58.0106
 20
-169.33
 30
0.0
 10
-58.0106
 20
-169.33
 30
0.0
 10
-58.0106
 20
-169.44449
 30
0.0
 10
-58.0106
 20
-169.44449
 30
0.0
 10
-58.0106
 20
-169.44449
 30
0.0
 10
-58.0106
 20
-169.44449
 30
0.0
 10
-58.0106
 20
-170.21551
 30
0.0
 10
-58.0106
 20
-170.21551
 30
0.0
 10
-58.0106
 20
-170.21551
 30
0.0
 10
-58.0106
 20
-170.21551
 30
0.0
 10
-58.0106
 20
-170.33
 30
0.0
 10
-58.0106
 20
-170.33
 30
0.0
 10
-58.0106
 20
-170.33
 30
0.0
 10
-58.0106
 20
-170.33
 30
0.0
 10
-52.12976
 20
-170.33
 30
0.0
 10
-52.12976
 20
-170.33
 30
0.0
 10
-52.12976
 20
-170.33
 30
0.0
 10
-55.30627
 20
-178.71053
 30
0.0
 10
-56.75311
 20
-187.64771
 30
0.0
 10
-56.38246
 20
-196.60316
 30
0.0
 10
-56.38246
 20
-196.60316
 30
0.0
 10
-56.48047
 20
-197.79278
 30
0.0
 10
-56.27058
 20
-198.98748
 30
0.0
 10
-55.77329
 20
-200.07265
 30
0.0
 10
-55.77329
 20
-200.07265
 30
0.0
 10
-55.77329
 20
-200.07265
 30
0.0
 10
-52.10465
 20
-207.16822
 30
0.0
 10
-52.10465
 20
-207.16822
 30
0.0
 10
-52.10465
 20
-207.16822
 30
0.0
 10
-52.10465
 20
-207.16822
 30
0.0
 10
-64.0823
 20
-207.16822
 30
0.0
 10
-64.0823
 20
-207.16822
 30
0.0
 10
-64.0823
 20
-207.16822
 30
0.0
 10
-64.0823
 20
-207.16822
 30
0.0
 10
-64.0823
 20
-154.45607
 30
0.0
 10
-64.0823
 20
-154.45607
 30
0.0
 10
-64.0823
 20
-154.45607
 30
0.0
 10
-64.0823
 20
-154.45607
 30
0.0
 10
-65.0823
 20
-154.45607
 30
0.0
 10
-65.0823
 20
-154.45607
 30
0.0
 10
-65.0823
 20
-154.45607
 30
0.0
 10
-65.0823
 20
-154.45607
 30
0.0
 10
-65.0823
 20
-207.16822
 30
0.0
 10
-65.0823
 20
-207.16822
 30
0.0
 10
-65.0823
 20
-207.16822
 30
0.0
 10
-65.0823
 20
-207.16822
 30
0.0
 10
-77.05995
 20
-207.16822
 30
0.0
 10
-77.05995
 20
-207.16822
 30
0.0
 10
-77.05995
 20
-207.16822
 30
0.0
 10
-77.05995
 20
-207.16822
 30
0.0
 10
-73.39131
 20
-200.07265
 30
0.0
 10
-73.39131
 20
-200.07265
 30
0.0
 10
-73.39131
 20
-200.07265
 30
0.0
 10
-72.89402
 20
-198.98748
 30
0.0
 10
-72.68413
 20
-197.79278
 30
0.0
 10
-72.78214
 20
-196.60316
 30
0.0
 10
-72.78214
 20
-196.60316
 30
0.0
 10
-72.41149
 20
-187.64771
 30
0.0
 10
-73.85833
 20
-178.71053
 30
0.0
 10
-77.03484
 20
-170.33
 30
0.0
 10
-77.03484
 20
-170.33
 30
0.0
 10
-77.03484
 20
-170.33
 30
0.0
 10
-71.154
 20
-170.33
 30
0.0
 10
-71.154
 20
-170.33
 30
0.0
 10
-71.154
 20
-170.33
 30
0.0
 10
-71.154
 20
-170.33
 30
0.0
 10
-71.154
 20
-170.21551
 30
0.0
 10
-71.154
 20
-170.21551
 30
0.0
 10
-71.154
 20
-170.21551
 30
0.0
 10
-71.154
 20
-170.21551
 30
0.0
 10
-71.154
 20
-169.44449
 30
0.0
 10
-71.154
 20
-169.44449
 30
0.0
 10
-71.154
 20
-169.44449
 30
0.0
 10
-71.154
 20
-169.44449
 30
0.0
 10
-71.154
 20
-169.33
 30
0.0
 10
-71.154
 20
-169.33
 30
0.0
 10
-71.154
 20
-169.33
 30
0.0
 10
-71.154
 20
-169.33
 30
0.0
 10
-77.32942
 20
-169.33
 30
0.0
 10
-77.32942
 20
-169.33
 30
0.0
 10
-77.32942
 20
-169.33
 30
0.0
 10
-79.32452
 20
-159.51443
 30
0.0
 10
-79.32452
 20
-149.39773
 30
0.0
 10
-77.32942
 20
-139.58215
 30
0.0
 10
-77.32942
 20
-139.58215
 30
0.0
 10
-77.32942
 20
-139.58215
 30
0.0
 10
-71.154
 20
-139.58215
 30
0.0
 10
-71.154
 20
-139.58215
 30
0.0
 10
-71.154
 20
-139.58215
 30
0.0
 10
-71.154
 20
-139.58215
 30
0.0
 10
-71.154
 20
-139.46766
 30
0.0
 10
-71.154
 20
-139.46766
 30
0.0
 10
-71.154
 20
-139.46766
 30
0.0
 10
-71.154
 20
-139.46766
 30
0.0
 10
-71.154
 20
-138.69664
 30
0.0
 10
-71.154
 20
-138.69664
 30
0.0
 10
-71.154
 20
-138.69664
 30
0.0
 10
-71.154
 20
-138.69664
 30
0.0
 10
-71.154
 20
-138.58215
 30
0.0
 10
-71.154
 20
-138.58215
 30
0.0
 10
-71.154
 20
-138.58215
 30
0.0
 10
-71.154
 20
-138.58215
 30
0.0
 10
-77.04412
 20
-138.58215
 30
0.0
 10
-77.04412
 20
-138.58215
 30
0.0
 10
-77.04412
 20
-138.58215
 30
0.0
 10
-74.68685
 20
-132.36619
 30
0.0
 10
-70.521
 20
-126.99812
 30
0.0
 10
-65.0823
 20
-123.17199
 30
0.0
 10
-65.0823
 20
-123.17199
 30
0.0
 10
-65.0823
 20
-123.17199
 30
0.0
 10
-64.0823
 20
-123.17199
 30
0.0
 10
-64.0823
 20
-123.17199
 30
0.0
 10
-64.0823
 20
-123.17199
 30
0.0
 10
-58.6436
 20
-126.99812
 30
0.0
 10
-54.47775
 20
-132.36619
 30
0.0
 10
-52.12048
 20
-138.58215
 30
0.0
 10
-52.12048
 20
-138.58215
 30
0.0
 10
-52.12048
 20
-138.58215
 30
0.0
 10
-58.0106
 20
-138.58215
 30
0.0
 10
-58.0106
 20
-138.58215
 30
0.0
 10
-58.0106
 20
-138.58215
 30
0.0
 10
-58.0106
 20
-138.58215
 30
0.0
 10
-58.0106
 20
-138.69664
 30
0.0
 10
-58.0106
 20
-138.69664
 30
0.0
 10
-58.0106
 20
-138.69664
 30
0.0
 10
-58.0106
 20
-138.69664
 30
0.0
 10
-58.0106
 20
-139.46766
 30
0.0
 10
-58.0106
 20
-139.46766
 30
0.0
 10
-58.0106
 20
-139.46766
 30
0.0
 10
-58.0106
 20
-139.46766
 30
0.0
 10
-58.0106
 20
-139.58215
 30
0.0
 10
-58.0106
 20
-139.58215
 30
0.0
 10
-58.0106
 20
-139.58215
 30
0.0
 10
-58.0106
 20
-139.58215
 30
0.0
 10
-51.83518
 20
-139.58215
 30
0.0
 10
-51.83518
 20
-139.58215
 30
0.0
  0
SPLINE
  5
77
330
1F
100
AcDbEntity
  8
0
 62
   114
370
     9
100
AcDbSpline
210
0.0
220
0.0
230
1.0
 70
    11
 71
     3
 72
    84
 73
    80
 74
     0
 42
0.000000001
 43
0.0000000001
 40
0.0
 40
0.0
 40
0.0
 40
0.0
 40
0.0476190476190476
 40
0.0476190476190476
 40
0.0476190476190476
 40
0.0476190476190476
 40
0.0952380952380952
 40
0.0952380952380952
 40
0.0952380952380952
 40
0.0952380952380952
 40
0.1428571428571428
 40
0.1428571428571428
 40
0.1428571428571428
 40
0.1428571428571428
 40
0.1904761904761905
 40
0.1904761904761905
 40
0.1904761904761905
 40
0.1904761904761905
 40
0.2380952380952381
 40
0.2380952380952381
 40
0.2380952380952381
 40
0.2380952380952381
 40
0.2857142857142857
 40
0.2857142857142857
 40
0.2857142857142857
 40
0.2857142857142857
 40
0.3333333333333333
 40
0.3333333333333333
 40
0.3333333333333333
 40
0.3333333333333333
 40
0.3809523809523809
 40
0.3809523809523809
 40
0.3809523809523809
 40
0.3809523809523809
 40
0.4285714285714285
 40
0.4285714285714285
 40
0.4285714285714285
 40
0.4285714285714285
 40
0.4761904761904762
 40
0.4761904761904762
 40
0.4761904761904762
 40
0.4761904761904762
 40
0.5238095238095238
 40
0.5238095238095238
 40
0.5238095238095238
 40
0.5238095238095238
 40
0.5714285714285714
 40
0.5714285714285714
 40
0.5714285714285714
 40
0.5714285714285714
 40
0.6190476190476191
 40
0.6190476190476191
 40
0.6190476190476191
 40
0.6190476190476191
 40
0.6666666666666666
 40
0.6666666666666666
 40
0.6666666666666666
 40
0.6666666666666666
 40
0.7142857142857143
 40
0.7142857142857143
 40
0.7142857142857143
 40
0.7142857142857143
 40
0.7619047619047619
 40
0.7619047619047619
 40
0.7619047619047619
 40
0.7619047619047619
 40
0.8095238095238095
 40
0.8095238095238095
 40
0.8095238095238095
 40
0.8095238095238095
 40
0.8571428571428571
 40
0.8571428571428571
 40
0.8571428571428571
 40
0.8571428571428571
 40
0.9047619047619048
 40
0.9047619047619048
 40
0.9047619047619048
 40
0.9047619047619048
 40
1.0
 40
1.0
 40
1.0
 40
1.0
 10
87.59249
 20
-201.46526
 30
0.0
 10
95.34017
 20
-200.37912
 30
0.0
 10
102.77663
 20
-197.68982
 30
0.0
 10
109.42704
 20
-193.56919
 30
0.0
 10
109.42704
 20
-193.56919
 30
0.0
 10
111.39784
 20
-192.25813
 30
0.0
 10
112.69426
 20
-190.14852
 30
0.0
 10
112.97366
 20
-187.79817
 30
0.0
 10
112.97366
 20
-187.79817
 30
0.0
 10
112.97366
 20
-187.79817
 30
0.0
 10
95.09492
 20
-187.79817
 30
0.0
 10
95.09492
 20
-187.79817
 30
0.0
 10
95.09492
 20
-187.79817
 30
0.0
 10
95.09492
 20
-187.79817
 30
0.0
 10
95.09492
 20
-193.87046
 30
0.0
 10
95.09492
 20
-193.87046
 30
0.0
 10
95.09492
 20
-193.87046
 30
0.0
 10
95.09492
 20
-193.87046
 30
0.0
 10
94.97741
 20
-193.87046
 30
0.0
 10
94.97741
 20
-193.87046
 30
0.0
 10
94.97741
 20
-193.87046
 30
0.0
 10
94.97741
 20
-193.87046
 30
0.0
 10
94.21244
 20
-193.87046
 30
0.0
 10
94.21244
 20
-193.87046
 30
0.0
 10
94.21244
 20
-193.87046
 30
0.0
 10
94.21244
 20
-193.87046
 30
0.0
 10
94.09492
 20
-193.87046
 30
0.0
 10
94.09492
 20
-193.87046
 30
0.0
 10
94.09492
 20
-193.87046
 30
0.0
 10
94.09492
 20
-193.87046
 30
0.0
 10
94.09492
 20
-187.79817
 30
0.0
 10
94.09492
 20
-187.79817
 30
0.0
 10
94.09492
 20
-187.79817
 30
0.0
 10
94.09492
 20
-187.79817
 30
0.0
 10
62.82263
 20
-187.79817
 30
0.0
 10
62.82263
 20
-187.79817
 30
0.0
 10
62.82263
 20
-187.79817
 30
0.0
 10
62.82263
 20
-187.79817
 30
0.0
 10
31.55034
 20
-187.79817
 30
0.0
 10
31.55034
 20
-187.79817
 30
0.0
 10
31.55034
 20
-187.79817
 30
0.0
 10
31.55034
 20
-187.79817
 30
0.0
 10
31.55034
 20
-193.87046
 30
0.0
 10
31.55034
 20
-193.87046
 30
0.0
 10
31.55034
 20
-193.87046
 30
0.0
 10
31.55034
 20
-193.87046
 30
0.0
 10
31.43282
 20
-193.87046
 30
0.0
 10
31.43282
 20
-193.87046
 30
0.0
 10
31.43282
 20
-193.87046
 30
0.0
 10
31.43282
 20
-193.87046
 30
0.0
 10
30.66786
 20
-193.87046
 30
0.0
 10
30.66786
 20
-193.87046
 30
0.0
 10
30.66786
 20
-193.87046
 30
0.0
 10
30.66786
 20
-193.87046
 30
0.0
 10
30.55034
 20
-193.87046
 30
0.0
 10
30.55034
 20
-193.87046
 30
0.0
 10
30.55034
 20
-193.87046
 30
0.0
 10
30.55034
 20
-193.87046
 30
0.0
 10
30.55034
 20
-187.79817
 30
0.0
 10
30.55034
 20
-187.79817
 30
0.0
 10
30.55034
 20
-187.79817
 30
0.0
 10
30.55034
 20
-187.79817
 30
0.0
 10
12.67161
 20
-187.79817
 30
0.0
 10
12.67161
 20
-187.79817
 30
0.0
 10
12.67161
 20
-187.79817
 30
0.0
 10
12.951
 20
-190.14852
 30
0.0
 10
14.24742
 20
-192.25813
 30
0.0
 10
16.21822
 20
-193.56919
 30
0.0
 10
16.21822
 20
-193.56919
 30
0.0
 10
22.86863
 20
-197.68982
 30
0.0
 10
30.30509
 20
-200.37912
 30
0.0
 10
38.05277
 20
-201.46526
 30
0.0
 10
38.05277
 20
-201.46526
 30
0.0
 10
46.22667
 20
-202.92452
 30
0.0
 10
54.52006
 20
-203.60826
 30
0.0
 10
62.82263
 20
-203.50752
 30
0.0
 10
62.82263
 20
-203.50752
 30
0.0
 10
71.1252
 20
-203.60826
 30
0.0
 10
79.41859
 20
-202.92452
 30
0.0
 10
87.59249
 20
-201.46526
 30
0.0
  0
SPLINE
  5
78
330
1F
100
AcDbEntity
  8
0
 62
   114
370
     9
100
AcDbSpline
210
0.0
220
0.0
230
1.0
 70
    11
 71
     3
 72
    84
 73
    80
 74
     0
 42
0.000000001
 43
0.0000000001
 40
0.0
 40
0.0
 40
0.0
 40
0.0
 40
0.0476190476190476
 40
0.0476190476190476
 40
0.0476190476190476
 40
0.0476190476190476
 40
0.0952380952380952
 40
0.0952380952380952
 40
0.0952380952380952
 40
0.0952380952380952
 40
0.1428571428571428
 40
0.1428571428571428
 40
0.1428571428571428
 40
0.1428571428571428
 40
0.1904761904761905
 40
0.1904761904761905
 40
0.1904761904761905
 40
0.1904761904761905
 40
0.2380952380952381
 40
0.2380952380952381
 40
0.2380952380952381
 40
0.2380952380952381
 40
0.2857142857142857
 40
0.2857142857142857
 40
0.2857142857142857
 40
0.2857142857142857
 40
0.3333333333333333
 40
0.3333333333333333
 40
0.3333333333333333
 40
0.3333333333333333
 40
0.3809523809523809
 40
0.3809523809523809
 40
0.3809523809523809
 40
0.3809523809523809
 40
0.4285714285714285
 40
0.4285714285714285
 40
0.4285714285714285
 40
0.4285714285714285
 40
0.4761904761904762
 40
0.4761904761904762
 40
0.4761904761904762
 40
0.4761904761904762
 40
0.5238095238095238
 40
0.5238095238095238
 40
0.5238095238095238
 40
0.5238095238095238
 40
0.5714285714285714
 40
0.5714285714285714
 40
0.5714285714285714
 40
0.5714285714285714
 40
0.6190476190476191
 40
0.6190476190476191
 40
0.6190476190476191
 40
0.6190476190476191
 40
0.6666666666666666
 40
0.6666666666666666
 40
0.6666666666666666
 40
0.6666666666666666
 40
0.7142857142857143
 40
0.7142857142857143
 40
0.7142857142857143
 40
0.7142857142857143
 40
0.7619047619047619
 40
0.7619047619047619
 40
0.7619047619047619
 40
0.7619047619047619
 40
0.8095238095238095
 40
0.8095238095238095
 40
0.8095238095238095
 40
0.8095238095238095
 40
0.8571428571428571
 40
0.8571428571428571
 40
0.8571428571428571
 40
0.8571428571428571
 40
0.9047619047619048
 40
0.9047619047619048
 40
0.9047619047619048
 40
0.9047619047619048
 40
1.0
 40
1.0
 40
1.0
 40
1.0
 10
87.59249
 20
-182.0233
 30
0.0
 10
95.34017
 20
-180.93716
 30
0.0
 10
102.77663
 20
-178.24786
 30
0.0
 10
109.42704
 20
-174.12723
 30
0.0
 10
109.42704
 20
-174.12723
 30
0.0
 10
111.39784
 20
-172.81617
 30
0.0
 10
112.69426
 20
-170.70656
 30
0.0
 10
112.97366
 20
-168.35621
 30
0.0
 10
112.97366
 20
-168.35621
 30
0.0
 10
112.97366
 20
-168.35621
 30
0.0
 10
95.09492
 20
-168.35621
 30
0.0
 10
95.09492
 20
-168.35621
 30
0.0
 10
95.09492
 20
-168.35621
 30
0.0
 10
95.09492
 20
-168.35621
 30
0.0
 10
95.09492
 20
-174.4285
 30
0.0
 10
95.09492
 20
-174.4285
 30
0.0
 10
95.09492
 20
-174.4285
 30
0.0
 10
95.09492
 20
-174.4285
 30
0.0
 10
94.97741
 20
-174.4285
 30
0.0
 10
94.97741
 20
-174.4285
 30
0.0
 10
94.97741
 20
-174.4285
 30
0.0
 10
94.97741
 20
-174.4285
 30
0.0
 10
94.21244
 20
-174.4285
 30
0.0
 10
94.21244
 20
-174.4285
 30
0.0
 10
94.21244
 20
-174.4285
 30
0.0
 10
94.21244
 20
-174.4285
 30
0.0
 10
94.09492
 20
-174.4285
 30
0.0
 10
94.09492
 20
-174.4285
 30
0.0
 10
94.09492
 20
-174.4285
 30
0.0
 10
94.09492
 20
-174.4285
 30
0.0
 10
94.09492
 20
-168.35621
 30
0.0
 10
94.09492
 20
-168.35621
 30
0.0
 10
94.09492
 20
-168.35621
 30
0.0
 10
94.09492
 20
-168.35621
 30
0.0
 10
62.82263
 20
-168.35621
 30
0.0
 10
62.82263
 20
-168.35621
 30
0.0
 10
62.82263
 20
-168.35621
 30
0.0
 10
62.82263
 20
-168.35621
 30
0.0
 10
31.55034
 20
-168.35621
 30
0.0
 10
31.55034
 20
-168.35621
 30
0.0
 10
31.55034
 20
-168.35621
 30
0.0
 10
31.55034
 20
-168.35621
 30
0.0
 10
31.55034
 20
-174.4285
 30
0.0
 10
31.55034
 20
-174.4285
 30
0.0
 10
31.55034
 20
-174.4285
 30
0.0
 10
31.55034
 20
-174.4285
 30
0.0
 10
31.43282
 20
-174.4285
 30
0.0
 10
31.43282
 20
-174.4285
 30
0.0
 10
31.43282
 20
-174.4285
 30
0.0
 10
31.43282
 20
-174.4285
 30
0.0
 10
30.66786
 20
-174.4285
 30
0.0
 10
30.66786
 20
-174.4285
 30
0.0
 10
30.66786
 20
-174.4285
 30
0.0
 10
30.66786
 20
-174.4285
 30
0.0
 10
30.55034
 20
-174.4285
 30
0.0
 10
30.55034
 20
-174.4285
 30
0.0
 10
30.55034
 20
-174.4285
 30
0.0
 10
30.55034
 20
-174.4285
 30
0.0
 10
30.55034
 20
-168.35621
 30
0.0
 10
30.55034
 20
-168.35621
 30
0.0
 10
30.55034
 20
-168.35621
 30
0.0
 10
30.55034
 20
-168.35621
 30
0.0
 10
14.76228
 20
-168.36591
 30
0.0
 10
14.76228
 20
-168.36591
 30
0.0
 10
14.76228
 20
-168.36591
 30
0.0
 10
14.8245
 20
-170.75285
 30
0.0
 10
15.60053
 20
-173.11464
 30
0.0
 10
17.64032
 20
-174.41478
 30
0.0
 10
17.64032
 20
-174.41478
 30
0.0
 10
24.23195
 20
-178.74594
 30
0.0
 10
30.25929
 20
-181.1012
 30
0.0
 10
38.05277
 20
-182.0233
 30
0.0
 10
38.05277
 20
-182.0233
 30
0.0
 10
46.22667
 20
-183.48256
 30
0.0
 10
54.52006
 20
-184.1663
 30
0.0
 10
62.82263
 20
-184.06556
 30
0.0
 10
62.82263
 20
-184.06556
 30
0.0
 10
71.1252
 20
-184.1663
 30
0.0
 10
79.41859
 20
-183.48256
 30
0.0
 10
87.59249
 20
-182.0233
 30
0.0
  0
SPLINE
  5
79
330
1F
100
AcDbEntity
  8
0
 62
   114
370
    35
100
AcDbSpline
210
0.0
220
0.0
230
1.0
 70
    11
 71
     3
 72
   728
 73
   724
 74
     0
 42
0.000000001
 43
0.0000000001
 40
0.0
 40
0.0
 40
0.0
 40
0.0
 40
0.0054945054945055
 40
0.0054945054945055
 40
0.0054945054945055
 40
0.0054945054945055
 40
0.010989010989011
 40
0.010989010989011
 40
0.010989010989011
 40
0.010989010989011
 40
0.0164835164835165
 40
0.0164835164835165
 40
0.0164835164835165
 40
0.0164835164835165
 40
0.021978021978022
 40
0.021978021978022
 40
0.021978021978022
 40
0.021978021978022
 40
0.0274725274725275
 40
0.0274725274725275
 40
0.0274725274725275
 40
0.0274725274725275
 40
0.032967032967033
 40
0.032967032967033
 40
0.032967032967033
 40
0.032967032967033
 40
0.0384615384615385
 40
0.0384615384615385
 40
0.0384615384615385
 40
0.0384615384615385
 40
0.043956043956044
 40
0.043956043956044
 40
0.043956043956044
 40
0.043956043956044
 40
0.0494505494505494
 40
0.0494505494505494
 40
0.0494505494505494
 40
0.0494505494505494
 40
0.0549450549450549
 40
0.0549450549450549
 40
0.0549450549450549
 40
0.0549450549450549
 40
0.0604395604395604
 40
0.0604395604395604
 40
0.0604395604395604
 40
0.0604395604395604
 40
0.0659340659340659
 40
0.0659340659340659
 40
0.0659340659340659
 40
0.0659340659340659
 40
0.0714285714285714
 40
0.0714285714285714
 40
0.0714285714285714
 40
0.0714285714285714
 40
0.0769230769230769
 40
0.0769230769230769
 40
0.0769230769230769
 40
0.0769230769230769
 40
0.0824175824175824
 40
0.0824175824175824
 40
0.0824175824175824
 40
0.0824175824175824
 40
0.0879120879120879
 40
0.0879120879120879
 40
0.0879120879120879
 40
0.0879120879120879
 40
0.0934065934065934
 40
0.0934065934065934
 40
0.0934065934065934
 40
0.0934065934065934
 40
0.0989010989010989
 40
0.0989010989010989
 40
0.0989010989010989
 40
0.0989010989010989
 40
0.1043956043956044
 40
0.1043956043956044
 40
0.1043956043956044
 40
0.1043956043956044
 40
0.1098901098901099
 40
0.1098901098901099
 40
0.1098901098901099
 40
0.1098901098901099
 40
0.1153846153846154
 40
0.1153846153846154
 40
0.1153846153846154
 40
0.1153846153846154
 40
0.1208791208791209
 40
0.1208791208791209
 40
0.1208791208791209
 40
0.1208791208791209
 40
0.1263736263736264
 40
0.1263736263736264
 40
0.1263736263736264
 40
0.1263736263736264
 40
0.1318681318681319
 40
0.1318681318681319
 40
0.1318681318681319
 40
0.1318681318681319
 40
0.1373626373626374
 40
0.1373626373626374
 40
0.1373626373626374
 40
0.1373626373626374
 40
0.1428571428571428
 40
0.1428571428571428
 40
0.1428571428571428
 40
0.1428571428571428
 40
0.1483516483516484
 40
0.1483516483516484
 40
0.1483516483516484
 40
0.1483516483516484
 40
0.1538461538461539
 40
0.1538461538461539
 40
0.1538461538461539
 40
0.1538461538461539
 40
0.1593406593406593
 40
0.1593406593406593
 40
0.1593406593406593
 40
0.1593406593406593
 40
0.1648351648351648
 40
0.1648351648351648
 40
0.1648351648351648
 40
0.1648351648351648
 40
0.1703296703296703
 40
0.1703296703296703
 40
0.1703296703296703
 40
0.1703296703296703
 40
0.1758241758241758
 40
0.1758241758241758
 40
0.1758241758241758
 40
0.1758241758241758
 40
0.1813186813186813
 40
0.1813186813186813
 40
0.1813186813186813
 40
0.1813186813186813
 40
0.1868131868131868
 40
0.1868131868131868
 40
0.1868131868131868
 40
0.1868131868131868
 40
0.1923076923076923
 40
0.1923076923076923
 40
0.1923076923076923
 40
0.1923076923076923
 40
0.1978021978021978
 40
0.1978021978021978
 40
0.1978021978021978
 40
0.1978021978021978
 40
0.2032967032967033
 40
0.2032967032967033
 40
0.2032967032967033
 40
0.2032967032967033
 40
0.2087912087912088
 40
0.2087912087912088
 40
0.2087912087912088
 40
0.2087912087912088
 40
0.2142857142857143
 40
0.2142857142857143
 40
0.2142857142857143
 40
0.2142857142857143
 40
0.2197802197802198
 40
0.2197802197802198
 40
0.2197802197802198
 40
0.2197802197802198
 40
0.2252747252747253
 40
0.2252747252747253
 40
0.2252747252747253
 40
0.2252747252747253
 40
0.2307692307692308
 40
0.2307692307692308
 40
0.2307692307692308
 40
0.2307692307692308
 40
0.2362637362637363
 40
0.2362637362637363
 40
0.2362637362637363
 40
0.2362637362637363
 40
0.2417582417582418
 40
0.2417582417582418
 40
0.2417582417582418
 40
0.2417582417582418
 40
0.2472527472527473
 40
0.2472527472527473
 40
0.2472527472527473
 40
0.2472527472527473
 40
0.2527472527472527
 40
0.2527472527472527
 40
0.2527472527472527
 40
0.2527472527472527
 40
0.2582417582417583
 40
0.2582417582417583
 40
0.2582417582417583
 40
0.2582417582417583
 40
0.2637362637362637
 40
0.2637362637362637
 40
0.2637362637362637
 40
0.2637362637362637
 40
0.2692307692307692
 40
0.2692307692307692
 40
0.2692307692307692
 40
0.2692307692307692
 40
0.2747252747252747
 40
0.2747252747252747
 40
0.2747252747252747
 40
0.2747252747252747
 40
0.2802197802197802
 40
0.2802197802197802
 40
0.2802197802197802
 40
0.2802197802197802
 40
0.2857142857142857
 40
0.2857142857142857
 40
0.2857142857142857
 40
0.2857142857142857
 40
0.2912087912087912
 40
0.2912087912087912
 40
0.2912087912087912
 40
0.2912087912087912
 40
0.2967032967032967
 40
0.2967032967032967
 40
0.2967032967032967
 40
0.2967032967032967
 40
0.3021978021978022
 40
0.3021978021978022
 40
0.3021978021978022
 40
0.3021978021978022
 40
0.3076923076923077
 40
0.3076923076923077
 40
0.3076923076923077
 40
0.3076923076923077
 40
0.3131868131868132
 40
0.3131868131868132
 40
0.3131868131868132
 40
0.3131868131868132
 40
0.3186813186813187
 40
0.3186813186813187
 40
0.3186813186813187
 40
0.3186813186813187
 40
0.3241758241758242
 40
0.3241758241758242
 40
0.3241758241758242
 40
0.3241758241758242
 40
0.3296703296703297
 40
0.3296703296703297
 40
0.3296703296703297
 40
0.3296703296703297
 40
0.3351648351648351
 40
0.3351648351648351
 40
0.3351648351648351
 40
0.3351648351648351
 40
0.3406593406593407
 40
0.3406593406593407
 40
0.3406593406593407
 40
0.3406593406593407
 40
0.3461538461538461
 40
0.3461538461538461
 40
0.3461538461538461
 40
0.3461538461538461
 40
0.3516483516483517
 40
0.3516483516483517
 40
0.3516483516483517
 40
0.3516483516483517
 40
0.3571428571428572
 40
0.3571428571428572
 40
0.3571428571428572
 40
0.3571428571428572
 40
0.3626373626373626
 40
0.3626373626373626
 40
0.3626373626373626
 40
0.3626373626373626
 40
0.3681318681318682
 40
0.3681318681318682
 40
0.3681318681318682
 40
0.3681318681318682
 40
0.3736263736263736
 40
0.3736263736263736
 40
0.3736263736263736
 40
0.3736263736263736
 40
0.3791208791208791
 40
0.3791208791208791
 40
0.3791208791208791
 40
0.3791208791208791
 40
0.3846153846153846
 40
0.3846153846153846
 40
0.3846153846153846
 40
0.3846153846153846
 40
0.3901098901098901
 40
0.3901098901098901
 40
0.3901098901098901
 40
0.3901098901098901
 40
0.3956043956043956
 40
0.3956043956043956
 40
0.3956043956043956
 40
0.3956043956043956
 40
0.4010989010989011
 40
0.4010989010989011
 40
0.4010989010989011
 40
0.4010989010989011
 40
0.4065934065934066
 40
0.4065934065934066
 40
0.4065934065934066
 40
0.4065934065934066
 40
0.4120879120879121
 40
0.4120879120879121
 40
0.4120879120879121
 40
0.4120879120879121
 40
0.4175824175824176
 40
0.4175824175824176
 40
0.4175824175824176
 40
0.4175824175824176
 40
0.4230769230769231
 40
0.4230769230769231
 40
0.4230769230769231
 40
0.4230769230769231
 40
0.4285714285714285
 40
0.4285714285714285
 40
0.4285714285714285
 40
0.4285714285714285
 40
0.4340659340659341
 40
0.4340659340659341
 40
0.4340659340659341
 40
0.4340659340659341
 40
0.4395604395604396
 40
0.4395604395604396
 40
0.4395604395604396
 40
0.4395604395604396
 40
0.445054945054945
 40
0.445054945054945
 40
0.445054945054945
 40
0.445054945054945
 40
0.4505494505494506
 40
0.4505494505494506
 40
0.4505494505494506
 40
0.4505494505494506
 40
0.456043956043956
 40
0.456043956043956
 40
0.456043956043956
 40
0.456043956043956
 40
0.4615384615384616
 40
0.4615384615384616
 40
0.4615384615384616
 40
0.4615384615384616
 40
0.467032967032967
 40
0.467032967032967
 40
0.467032967032967
 40
0.467032967032967
 40
0.4725274725274725
 40
0.4725274725274725
 40
0.4725274725274725
 40
0.4725274725274725
 40
0.478021978021978
 40
0.478021978021978
 40
0.478021978021978
 40
0.478021978021978
 40
0.4835164835164835
 40
0.4835164835164835
 40
0.4835164835164835
 40
0.4835164835164835
 40
0.489010989010989
 40
0.489010989010989
 40
0.489010989010989
 40
0.489010989010989
 40
0.4945054945054945
 40
0.4945054945054945
 40
0.4945054945054945
 40
0.4945054945054945
 40
0.5
 40
0.5
 40
0.5
 40
0.5
 40
0.5054945054945055
 40
0.5054945054945055
 40
0.5054945054945055
 40
0.5054945054945055
 40
0.510989010989011
 40
0.510989010989011
 40
0.510989010989011
 40
0.510989010989011
 40
0.5164835164835165
 40
0.5164835164835165
 40
0.5164835164835165
 40
0.5164835164835165
 40
0.521978021978022
 40
0.521978021978022
 40
0.521978021978022
 40
0.521978021978022
 40
0.5274725274725275
 40
0.5274725274725275
 40
0.5274725274725275
 40
0.5274725274725275
 40
0.532967032967033
 40
0.532967032967033
 40
0.532967032967033
 40
0.532967032967033
 40
0.5384615384615384
 40
0.5384615384615384
 40
0.5384615384615384
 40
0.5384615384615384
 40
0.5439560439560439
 40
0.5439560439560439
 40
0.5439560439560439
 40
0.5439560439560439
 40
0.5494505494505495
 40
0.5494505494505495
 40
0.5494505494505495
 40
0.5494505494505495
 40
0.554945054945055
 40
0.554945054945055
 40
0.554945054945055
 40
0.554945054945055
 40
0.5604395604395604
 40
0.5604395604395604
 40
0.5604395604395604
 40
0.5604395604395604
 40
0.5659340659340659
 40
0.5659340659340659
 40
0.5659340659340659
 40
0.5659340659340659
 40
0.5714285714285714
 40
0.5714285714285714
 40
0.5714285714285714
 40
0.5714285714285714
 40
0.5769230769230769
 40
0.5769230769230769
 40
0.5769230769230769
 40
0.5769230769230769
 40
0.5824175824175825
 40
0.5824175824175825
 40
0.5824175824175825
 40
0.5824175824175825
 40
0.5879120879120879
 40
0.5879120879120879
 40
0.5879120879120879
 40
0.5879120879120879
 40
0.5934065934065934
 40
0.5934065934065934
 40
0.5934065934065934
 40
0.5934065934065934
 40
0.5989010989010989
 40
0.5989010989010989
 40
0.5989010989010989
 40
0.5989010989010989
 40
0.6043956043956044
 40
0.6043956043956044
 40
0.6043956043956044
 40
0.6043956043956044
 40
0.6098901098901099
 40
0.6098901098901099
 40
0.6098901098901099
 40
0.6098901098901099
 40
0.6153846153846154
 40
0.6153846153846154
 40
0.6153846153846154
 40
0.6153846153846154
 40
0.6208791208791209
 40
0.6208791208791209
 40
0.6208791208791209
 40
0.6208791208791209
 40
0.6263736263736264
 40
0.6263736263736264
 40
0.6263736263736264
 40
0.6263736263736264
 40
0.6318681318681318
 40
0.6318681318681318
 40
0.6318681318681318
 40
0.6318681318681318
 40
0.6373626373626373
 40
0.6373626373626373
 40
0.6373626373626373
 40
0.6373626373626373
 40
0.6428571428571429
 40
0.6428571428571429
 40
0.6428571428571429
 40
0.6428571428571429
 40
0.6483516483516484
 40
0.6483516483516484
 40
0.6483516483516484
 40
0.6483516483516484
 40
0.6538461538461539
 40
0.6538461538461539
 40
0.6538461538461539
 40
0.6538461538461539
 40
0.6593406593406593
 40
0.6593406593406593
 40
0.6593406593406593
 40
0.6593406593406593
 40
0.6648351648351648
 40
0.6648351648351648
 40
0.6648351648351648
 40
0.6648351648351648
 40
0.6703296703296703
 40
0.6703296703296703
 40
0.6703296703296703
 40
0.6703296703296703
 40
0.6758241758241759
 40
0.6758241758241759
 40
0.6758241758241759
 40
0.6758241758241759
 40
0.6813186813186813
 40
0.6813186813186813
 40
0.6813186813186813
 40
0.6813186813186813
 40
0.6868131868131868
 40
0.6868131868131868
 40
0.6868131868131868
 40
0.6868131868131868
 40
0.6923076923076923
 40
0.6923076923076923
 40
0.6923076923076923
 40
0.6923076923076923
 40
0.6978021978021978
 40
0.6978021978021978
 40
0.6978021978021978
 40
0.6978021978021978
 40
0.7032967032967034
 40
0.7032967032967034
 40
0.7032967032967034
 40
0.7032967032967034
 40
0.7087912087912088
 40
0.7087912087912088
 40
0.7087912087912088
 40
0.7087912087912088
 40
0.7142857142857143
 40
0.7142857142857143
 40
0.7142857142857143
 40
0.7142857142857143
 40
0.7197802197802198
 40
0.7197802197802198
 40
0.7197802197802198
 40
0.7197802197802198
 40
0.7252747252747253
 40
0.7252747252747253
 40
0.7252747252747253
 40
0.7252747252747253
 40
0.7307692307692307
 40
0.7307692307692307
 40
0.7307692307692307
 40
0.7307692307692307
 40
0.7362637362637363
 40
0.7362637362637363
 40
0.7362637362637363
 40
0.7362637362637363
 40
0.7417582417582418
 40
0.7417582417582418
 40
0.7417582417582418
 40
0.7417582417582418
 40
0.7472527472527473
 40
0.7472527472527473
 40
0.7472527472527473
 40
0.7472527472527473
 40
0.7527472527472527
 40
0.7527472527472527
 40
0.7527472527472527
 40
0.7527472527472527
 40
0.7582417582417582
 40
0.7582417582417582
 40
0.7582417582417582
 40
0.7582417582417582
 40
0.7637362637362637
 40
0.7637362637362637
 40
0.7637362637362637
 40
0.7637362637362637
 40
0.7692307692307693
 40
0.7692307692307693
 40
0.7692307692307693
 40
0.7692307692307693
 40
0.7747252747252747
 40
0.7747252747252747
 40
0.7747252747252747
 40
0.7747252747252747
 40
0.7802197802197802
 40
0.7802197802197802
 40
0.7802197802197802
 40
0.7802197802197802
 40
0.7857142857142857
 40
0.7857142857142857
 40
0.7857142857142857
 40
0.7857142857142857
 40
0.7912087912087912
 40
0.7912087912087912
 40
0.7912087912087912
 40
0.7912087912087912
 40
0.7967032967032966
 40
0.7967032967032966
 40
0.7967032967032966
 40
0.7967032967032966
 40
0.8021978021978022
 40
0.8021978021978022
 40
0.8021978021978022
 40
0.8021978021978022
 40
0.8076923076923077
 40
0.8076923076923077
 40
0.8076923076923077
 40
0.8076923076923077
 40
0.8131868131868132
 40
0.8131868131868132
 40
0.8131868131868132
 40
0.8131868131868132
 40
0.8186813186813187
 40
0.8186813186813187
 40
0.8186813186813187
 40
0.8186813186813187
 40
0.8241758241758241
 40
0.8241758241758241
 40
0.8241758241758241
 40
0.8241758241758241
 40
0.8296703296703297
 40
0.8296703296703297
 40
0.8296703296703297
 40
0.8296703296703297
 40
0.8351648351648352
 40
0.8351648351648352
 40
0.8351648351648352
 40
0.8351648351648352
 40
0.8406593406593407
 40
0.8406593406593407
 40
0.8406593406593407
 40
0.8406593406593407
 40
0.8461538461538461
 40
0.8461538461538461
 40
0.8461538461538461
 40
0.8461538461538461
 40
0.8516483516483516
 40
0.8516483516483516
 40
0.8516483516483516
 40
0.8516483516483516
 40
0.8571428571428571
 40
0.8571428571428571
 40
0.8571428571428571
 40
0.8571428571428571
 40
0.8626373626373627
 40
0.8626373626373627
 40
0.8626373626373627
 40
0.8626373626373627
 40
0.8681318681318682
 40
0.8681318681318682
 40
0.8681318681318682
 40
0.8681318681318682
 40
0.8736263736263736
 40
0.8736263736263736
 40
0.8736263736263736
 40
0.8736263736263736
 40
0.8791208791208791
 40
0.8791208791208791
 40
0.8791208791208791
 40
0.8791208791208791
 40
0.8846153846153846
 40
0.8846153846153846
 40
0.8846153846153846
 40
0.8846153846153846
 40
0.8901098901098901
 40
0.8901098901098901
 40
0.8901098901098901
 40
0.8901098901098901
 40
0.8956043956043956
 40
0.8956043956043956
 40
0.8956043956043956
 40
0.8956043956043956
 40
0.9010989010989011
 40
0.9010989010989011
 40
0.9010989010989011
 40
0.9010989010989011
 40
0.9065934065934066
 40
0.9065934065934066
 40
0.9065934065934066
 40
0.9065934065934066
 40
0.9120879120879121
 40
0.9120879120879121
 40
0.9120879120879121
 40
0.9120879120879121
 40
0.9175824175824175
 40
0.9175824175824175
 40
0.9175824175824175
 40
0.9175824175824175
 40
0.9230769230769231
 40
0.9230769230769231
 40
0.9230769230769231
 40
0.9230769230769231
 40
0.9285714285714286
 40
0.9285714285714286
 40
0.9285714285714286
 40
0.9285714285714286
 40
0.9340659340659341
 40
0.9340659340659341
 40
0.9340659340659341
 40
0.9340659340659341
 40
0.9395604395604396
 40
0.9395604395604396
 40
0.9395604395604396
 40
0.9395604395604396
 40
0.945054945054945
 40
0.945054945054945
 40
0.945054945054945
 40
0.945054945054945
 40
0.9505494505494505
 40
0.9505494505494505
 40
0.9505494505494505
 40
0.9505494505494505
 40
0.9560439560439561
 40
0.9560439560439561
 40
0.9560439560439561
 40
0.9560439560439561
 40
0.9615384615384616
 40
0.9615384615384616
 40
0.9615384615384616
 40
0.9615384615384616
 40
0.967032967032967
 40
0.967032967032967
 40
0.967032967032967
 40
0.967032967032967
 40
0.9725274725274725
 40
0.9725274725274725
 40
0.9725274725274725
 40
0.9725274725274725
 40
0.978021978021978
 40
0.978021978021978
 40
0.978021978021978
 40
0.978021978021978
 40
0.9835164835164835
 40
0.9835164835164835
 40
0.9835164835164835
 40
0.9835164835164835
 40
0.989010989010989
 40
0.989010989010989
 40
0.989010989010989
 40
0.989010989010989
 40
1.0
 40
1.0
 40
1.0
 40
1.0
 10
60.39351
 20
-133.05789
 30
0.0
 10
60.39351
 20
-133.05789
 30
0.0
 10
59.39351
 20
-133.05789
 30
0.0
 10
59.39351
 20
-133.05789
 30
0.0
 10
59.39351
 20
-133.05789
 30
0.0
 10
59.39351
 20
-133.05789
 30
0.0
 10
59.39351
 20
-127.28581
 30
0.0
 10
59.39351
 20
-127.28581
 30
0.0
 10
59.39351
 20
-127.28581
 30
0.0
 10
59.39351
 20
-127.28581
 30
0.0
 10
59.2019
 20
-127.29478
 30
0.0
 10
59.2019
 20
-127.29478
 30
0.0
 10
59.2019
 20
-127.29478
 30
0.0
 10
59.2019
 20
-127.29478
 30
0.0
 10
58.89411
 20
-127.31281
 30
0.0
 10
58.89411
 20
-127.31281
 30
0.0
 10
58.89411
 20
-127.31281
 30
0.0
 10
58.89411
 20
-127.31281
 30
0.0
 10
58.58686
 20
-127.33444
 30
0.0
 10
58.58686
 20
-127.33444
 30
0.0
 10
58.58686
 20
-127.33444
 30
0.0
 10
58.58686
 20
-127.33444
 30
0.0
 10
58.28022
 20
-127.35965
 30
0.0
 10
58.28022
 20
-127.35965
 30
0.0
 10
58.28022
 20
-127.35965
 30
0.0
 10
58.28022
 20
-127.35965
 30
0.0
 10
57.9743
 20
-127.38845
 30
0.0
 10
57.9743
 20
-127.38845
 30
0.0
 10
57.9743
 20
-127.38845
 30
0.0
 10
57.9743
 20
-127.38845
 30
0.0
 10
57.66918
 20
-127.42081
 30
0.0
 10
57.66918
 20
-127.42081
 30
0.0
 10
57.66918
 20
-127.42081
 30
0.0
 10
57.66918
 20
-127.42081
 30
0.0
 10
57.36496
 20
-127.45673
 30
0.0
 10
57.36496
 20
-127.45673
 30
0.0
 10
57.36496
 20
-127.45673
 30
0.0
 10
57.36496
 20
-127.45673
 30
0.0
 10
57.06173
 20
-127.4962
 30
0.0
 10
57.06173
 20
-127.4962
 30
0.0
 10
57.06173
 20
-127.4962
 30
0.0
 10
57.06173
 20
-127.4962
 30
0.0
 10
56.75959
 20
-127.53921
 30
0.0
 10
56.75959
 20
-127.53921
 30
0.0
 10
56.75959
 20
-127.53921
 30
0.0
 10
56.75959
 20
-127.53921
 30
0.0
 10
56.45863
 20
-127.58575
 30
0.0
 10
56.45863
 20
-127.58575
 30
0.0
 10
56.45863
 20
-127.58575
 30
0.0
 10
56.45863
 20
-127.58575
 30
0.0
 10
56.15894
 20
-127.63578
 30
0.0
 10
56.15894
 20
-127.63578
 30
0.0
 10
56.15894
 20
-127.63578
 30
0.0
 10
56.15894
 20
-127.63578
 30
0.0
 10
55.86062
 20
-127.68932
 30
0.0
 10
55.86062
 20
-127.68932
 30
0.0
 10
55.86062
 20
-127.68932
 30
0.0
 10
55.86062
 20
-127.68932
 30
0.0
 10
55.56376
 20
-127.74634
 30
0.0
 10
55.56376
 20
-127.74634
 30
0.0
 10
55.56376
 20
-127.74634
 30
0.0
 10
55.56376
 20
-127.74634
 30
0.0
 10
55.26844
 20
-127.80682
 30
0.0
 10
55.26844
 20
-127.80682
 30
0.0
 10
55.26844
 20
-127.80682
 30
0.0
 10
55.26844
 20
-127.80682
 30
0.0
 10
54.97476
 20
-127.87074
 30
0.0
 10
54.97476
 20
-127.87074
 30
0.0
 10
54.97476
 20
-127.87074
 30
0.0
 10
54.97476
 20
-127.87074
 30
0.0
 10
54.68282
 20
-127.93808
 30
0.0
 10
54.68282
 20
-127.93808
 30
0.0
 10
54.68282
 20
-127.93808
 30
0.0
 10
54.68282
 20
-127.93808
 30
0.0
 10
54.39269
 20
-128.00882
 30
0.0
 10
54.39269
 20
-128.00882
 30
0.0
 10
54.39269
 20
-128.00882
 30
0.0
 10
54.39269
 20
-128.00882
 30
0.0
 10
54.10447
 20
-128.08295
 30
0.0
 10
54.10447
 20
-128.08295
 30
0.0
 10
54.10447
 20
-128.08295
 30
0.0
 10
54.10447
 20
-128.08295
 30
0.0
 10
53.81825
 20
-128.16043
 30
0.0
 10
53.81825
 20
-128.16043
 30
0.0
 10
53.81825
 20
-128.16043
 30
0.0
 10
53.81825
 20
-128.16043
 30
0.0
 10
53.53412
 20
-128.24124
 30
0.0
 10
53.53412
 20
-128.24124
 30
0.0
 10
53.53412
 20
-128.24124
 30
0.0
 10
53.53412
 20
-128.24124
 30
0.0
 10
53.25216
 20
-128.32536
 30
0.0
 10
53.25216
 20
-128.32536
 30
0.0
 10
53.25216
 20
-128.32536
 30
0.0
 10
53.25216
 20
-128.32536
 30
0.0
 10
52.97247
 20
-128.41276
 30
0.0
 10
52.97247
 20
-128.41276
 30
0.0
 10
52.97247
 20
-128.41276
 30
0.0
 10
52.97247
 20
-128.41276
 30
0.0
 10
52.69511
 20
-128.50341
 30
0.0
 10
52.69511
 20
-128.50341
 30
0.0
 10
52.69511
 20
-128.50341
 30
0.0
 10
52.69511
 20
-128.50341
 30
0.0
 10
52.4202
 20
-128.5973
 30
0.0
 10
52.4202
 20
-128.5973
 30
0.0
 10
52.4202
 20
-128.5973
 30
0.0
 10
52.4202
 20
-128.5973
 30
0.0
 10
52.14779
 20
-128.69438
 30
0.0
 10
52.14779
 20
-128.69438
 30
0.0
 10
52.14779
 20
-128.69438
 30
0.0
 10
52.14779
 20
-128.69438
 30
0.0
 10
51.87798
 20
-128.79462
 30
0.0
 10
51.87798
 20
-128.79462
 30
0.0
 10
51.87798
 20
-128.79462
 30
0.0
 10
51.87798
 20
-128.79462
 30
0.0
 10
51.61087
 20
-128.89802
 30
0.0
 10
51.61087
 20
-128.89802
 30
0.0
 10
51.61087
 20
-128.89802
 30
0.0
 10
51.61087
 20
-128.89802
 30
0.0
 10
51.34651
 20
-129.00451
 30
0.0
 10
51.34651
 20
-129.00451
 30
0.0
 10
51.34651
 20
-129.00451
 30
0.0
 10
51.34651
 20
-129.00451
 30
0.0
 10
51.08501
 20
-129.11407
 30
0.0
 10
51.08501
 20
-129.11407
 30
0.0
 10
51.08501
 20
-129.11407
 30
0.0
 10
51.08501
 20
-129.11407
 30
0.0
 10
50.82643
 20
-129.22668
 30
0.0
 10
50.82643
 20
-129.22668
 30
0.0
 10
50.82643
 20
-129.22668
 30
0.0
 10
50.82643
 20
-129.22668
 30
0.0
 10
50.57087
 20
-129.34229
 30
0.0
 10
50.57087
 20
-129.34229
 30
0.0
 10
50.57087
 20
-129.34229
 30
0.0
 10
50.57087
 20
-129.34229
 30
0.0
 10
50.31838
 20
-129.46087
 30
0.0
 10
50.31838
 20
-129.46087
 30
0.0
 10
50.31838
 20
-129.46087
 30
0.0
 10
50.31838
 20
-129.46087
 30
0.0
 10
50.06907
 20
-129.58238
 30
0.0
 10
50.06907
 20
-129.58238
 30
0.0
 10
50.06907
 20
-129.58238
 30
0.0
 10
50.06907
 20
-129.58238
 30
0.0
 10
49.82299
 20
-129.70678
 30
0.0
 10
49.82299
 20
-129.70678
 30
0.0
 10
49.82299
 20
-129.70678
 30
0.0
 10
49.82299
 20
-129.70678
 30
0.0
 10
49.58023
 20
-129.83404
 30
0.0
 10
49.58023
 20
-129.83404
 30
0.0
 10
49.58023
 20
-129.83404
 30
0.0
 10
49.58023
 20
-129.83404
 30
0.0
 10
49.34086
 20
-129.96412
 30
0.0
 10
49.34086
 20
-129.96412
 30
0.0
 10
49.34086
 20
-129.96412
 30
0.0
 10
49.34086
 20
-129.96412
 30
0.0
 10
49.10495
 20
-130.09698
 30
0.0
 10
49.10495
 20
-130.09698
 30
0.0
 10
49.10495
 20
-130.09698
 30
0.0
 10
49.10495
 20
-130.09698
 30
0.0
 10
48.87259
 20
-130.23257
 30
0.0
 10
48.87259
 20
-130.23257
 30
0.0
 10
48.87259
 20
-130.23257
 30
0.0
 10
48.87259
 20
-130.23257
 30
0.0
 10
48.64383
 20
-130.37085
 30
0.0
 10
48.64383
 20
-130.37085
 30
0.0
 10
48.64383
 20
-130.37085
 30
0.0
 10
48.64383
 20
-130.37085
 30
0.0
 10
48.41875
 20
-130.5118
 30
0.0
 10
48.41875
 20
-130.5118
 30
0.0
 10
48.41875
 20
-130.5118
 30
0.0
 10
48.41875
 20
-130.5118
 30
0.0
 10
48.19743
 20
-130.65534
 30
0.0
 10
48.19743
 20
-130.65534
 30
0.0
 10
48.19743
 20
-130.65534
 30
0.0
 10
48.19743
 20
-130.65534
 30
0.0
 10
47.97991
 20
-130.80146
 30
0.0
 10
47.97991
 20
-130.80146
 30
0.0
 10
47.97991
 20
-130.80146
 30
0.0
 10
47.97991
 20
-130.80146
 30
0.0
 10
47.76629
 20
-130.95008
 30
0.0
 10
47.76629
 20
-130.95008
 30
0.0
 10
47.76629
 20
-130.95008
 30
0.0
 10
47.76629
 20
-130.95008
 30
0.0
 10
47.55661
 20
-131.10119
 30
0.0
 10
47.55661
 20
-131.10119
 30
0.0
 10
47.55661
 20
-131.10119
 30
0.0
 10
47.55661
 20
-131.10119
 30
0.0
 10
47.35095
 20
-131.25472
 30
0.0
 10
47.35095
 20
-131.25472
 30
0.0
 10
47.35095
 20
-131.25472
 30
0.0
 10
47.35095
 20
-131.25472
 30
0.0
 10
47.14937
 20
-131.41063
 30
0.0
 10
47.14937
 20
-131.41063
 30
0.0
 10
47.14937
 20
-131.41063
 30
0.0
 10
47.14937
 20
-131.41063
 30
0.0
 10
46.95193
 20
-131.56888
 30
0.0
 10
46.95193
 20
-131.56888
 30
0.0
 10
46.95193
 20
-131.56888
 30
0.0
 10
46.95193
 20
-131.56888
 30
0.0
 10
46.75868
 20
-131.7294
 30
0.0
 10
46.75868
 20
-131.7294
 30
0.0
 10
46.75868
 20
-131.7294
 30
0.0
 10
46.75868
 20
-131.7294
 30
0.0
 10
46.56971
 20
-131.89216
 30
0.0
 10
46.56971
 20
-131.89216
 30
0.0
 10
46.56971
 20
-131.89216
 30
0.0
 10
46.56971
 20
-131.89216
 30
0.0
 10
46.38504
 20
-132.0571
 30
0.0
 10
46.38504
 20
-132.0571
 30
0.0
 10
46.38504
 20
-132.0571
 30
0.0
 10
46.38504
 20
-132.0571
 30
0.0
 10
46.20475
 20
-132.22418
 30
0.0
 10
46.20475
 20
-132.22418
 30
0.0
 10
46.20475
 20
-132.22418
 30
0.0
 10
46.20475
 20
-132.22418
 30
0.0
 10
46.0289
 20
-132.39333
 30
0.0
 10
46.0289
 20
-132.39333
 30
0.0
 10
46.0289
 20
-132.39333
 30
0.0
 10
46.0289
 20
-132.39333
 30
0.0
 10
45.85753
 20
-132.56452
 30
0.0
 10
45.85753
 20
-132.56452
 30
0.0
 10
45.85753
 20
-132.56452
 30
0.0
 10
45.85753
 20
-132.56452
 30
0.0
 10
45.6907
 20
-132.73768
 30
0.0
 10
45.6907
 20
-132.73768
 30
0.0
 10
45.6907
 20
-132.73768
 30
0.0
 10
45.6907
 20
-132.73768
 30
0.0
 10
45.52846
 20
-132.91276
 30
0.0
 10
45.52846
 20
-132.91276
 30
0.0
 10
45.52846
 20
-132.91276
 30
0.0
 10
45.52846
 20
-132.91276
 30
0.0
 10
45.37085
 20
-133.08971
 30
0.0
 10
45.37085
 20
-133.08971
 30
0.0
 10
45.37085
 20
-133.08971
 30
0.0
 10
45.37085
 20
-133.08971
 30
0.0
 10
45.21794
 20
-133.26849
 30
0.0
 10
45.21794
 20
-133.26849
 30
0.0
 10
45.21794
 20
-133.26849
 30
0.0
 10
45.21794
 20
-133.26849
 30
0.0
 10
45.06976
 20
-133.44902
 30
0.0
 10
45.06976
 20
-133.44902
 30
0.0
 10
45.06976
 20
-133.44902
 30
0.0
 10
45.06976
 20
-133.44902
 30
0.0
 10
44.92636
 20
-133.63124
 30
0.0
 10
44.92636
 20
-133.63124
 30
0.0
 10
44.92636
 20
-133.63124
 30
0.0
 10
44.92636
 20
-133.63124
 30
0.0
 10
44.78779
 20
-133.81513
 30
0.0
 10
44.78779
 20
-133.81513
 30
0.0
 10
44.78779
 20
-133.81513
 30
0.0
 10
44.78779
 20
-133.81513
 30
0.0
 10
44.65408
 20
-134.00059
 30
0.0
 10
44.65408
 20
-134.00059
 30
0.0
 10
44.65408
 20
-134.00059
 30
0.0
 10
44.65408
 20
-134.00059
 30
0.0
 10
44.52529
 20
-134.1876
 30
0.0
 10
44.52529
 20
-134.1876
 30
0.0
 10
44.52529
 20
-134.1876
 30
0.0
 10
44.52529
 20
-134.1876
 30
0.0
 10
44.40143
 20
-134.37608
 30
0.0
 10
44.40143
 20
-134.37608
 30
0.0
 10
44.40143
 20
-134.37608
 30
0.0
 10
44.40143
 20
-134.37608
 30
0.0
 10
44.28257
 20
-134.56597
 30
0.0
 10
44.28257
 20
-134.56597
 30
0.0
 10
44.28257
 20
-134.56597
 30
0.0
 10
44.28257
 20
-134.56597
 30
0.0
 10
44.16874
 20
-134.75723
 30
0.0
 10
44.16874
 20
-134.75723
 30
0.0
 10
44.16874
 20
-134.75723
 30
0.0
 10
44.16874
 20
-134.75723
 30
0.0
 10
44.05995
 20
-134.9498
 30
0.0
 10
44.05995
 20
-134.9498
 30
0.0
 10
44.05995
 20
-134.9498
 30
0.0
 10
44.05995
 20
-134.9498
 30
0.0
 10
43.95627
 20
-135.1436
 30
0.0
 10
43.95627
 20
-135.1436
 30
0.0
 10
43.95627
 20
-135.1436
 30
0.0
 10
43.95627
 20
-135.1436
 30
0.0
 10
43.8577
 20
-135.33858
 30
0.0
 10
43.8577
 20
-135.33858
 30
0.0
 10
43.8577
 20
-135.33858
 30
0.0
 10
43.8577
 20
-135.33858
 30
0.0
 10
43.76429
 20
-135.53469
 30
0.0
 10
43.76429
 20
-135.53469
 30
0.0
 10
43.76429
 20
-135.53469
 30
0.0
 10
43.76429
 20
-135.53469
 30
0.0
 10
43.67606
 20
-135.73185
 30
0.0
 10
43.67606
 20
-135.73185
 30
0.0
 10
43.67606
 20
-135.73185
 30
0.0
 10
43.67606
 20
-135.73185
 30
0.0
 10
43.59305
 20
-135.93001
 30
0.0
 10
43.59305
 20
-135.93001
 30
0.0
 10
43.59305
 20
-135.93001
 30
0.0
 10
43.59305
 20
-135.93001
 30
0.0
 10
43.51526
 20
-136.12912
 30
0.0
 10
43.51526
 20
-136.12912
 30
0.0
 10
43.51526
 20
-136.12912
 30
0.0
 10
43.51526
 20
-136.12912
 30
0.0
 10
43.44274
 20
-136.32911
 30
0.0
 10
43.44274
 20
-136.32911
 30
0.0
 10
43.44274
 20
-136.32911
 30
0.0
 10
43.44274
 20
-136.32911
 30
0.0
 10
43.3755
 20
-136.52991
 30
0.0
 10
43.3755
 20
-136.52991
 30
0.0
 10
43.3755
 20
-136.52991
 30
0.0
 10
43.3755
 20
-136.52991
 30
0.0
 10
43.31356
 20
-136.73146
 30
0.0
 10
43.31356
 20
-136.73146
 30
0.0
 10
43.31356
 20
-136.73146
 30
0.0
 10
43.31356
 20
-136.73146
 30
0.0
 10
43.25694
 20
-136.93371
 30
0.0
 10
43.25694
 20
-136.93371
 30
0.0
 10
43.25694
 20
-136.93371
 30
0.0
 10
43.25694
 20
-136.93371
 30
0.0
 10
43.20567
 20
-137.13659
 30
0.0
 10
43.20567
 20
-137.13659
 30
0.0
 10
43.20567
 20
-137.13659
 30
0.0
 10
43.20567
 20
-137.13659
 30
0.0
 10
43.15975
 20
-137.34004
 30
0.0
 10
43.15975
 20
-137.34004
 30
0.0
 10
43.15975
 20
-137.34004
 30
0.0
 10
43.15975
 20
-137.34004
 30
0.0
 10
43.11919
 20
-137.54399
 30
0.0
 10
43.11919
 20
-137.54399
 30
0.0
 10
43.11919
 20
-137.54399
 30
0.0
 10
43.11919
 20
-137.54399
 30
0.0
 10
43.08403
 20
-137.74838
 30
0.0
 10
43.08403
 20
-137.74838
 30
0.0
 10
43.08403
 20
-137.74838
 30
0.0
 10
43.08403
 20
-137.74838
 30
0.0
 10
43.05424
 20
-137.95315
 30
0.0
 10
43.05424
 20
-137.95315
 30
0.0
 10
43.05424
 20
-137.95315
 30
0.0
 10
43.05424
 20
-137.95315
 30
0.0
 10
43.02986
 20
-138.15826
 30
0.0
 10
43.02986
 20
-138.15826
 30
0.0
 10
43.02986
 20
-138.15826
 30
0.0
 10
43.02986
 20
-138.15826
 30
0.0
 10
43.0109
 20
-138.36359
 30
0.0
 10
43.0109
 20
-138.36359
 30
0.0
 10
43.0109
 20
-138.36359
 30
0.0
 10
43.0109
 20
-138.36359
 30
0.0
 10
42.99734
 20
-138.56913
 30
0.0
 10
42.99734
 20
-138.56913
 30
0.0
 10
42.99734
 20
-138.56913
 30
0.0
 10
42.99734
 20
-138.56913
 30
0.0
 10
42.98921
 20
-138.77479
 30
0.0
 10
42.98921
 20
-138.77479
 30
0.0
 10
42.98921
 20
-138.77479
 30
0.0
 10
42.98921
 20
-138.77479
 30
0.0
 10
42.9865
 20
-138.98051
 30
0.0
 10
42.9865
 20
-138.98051
 30
0.0
 10
42.9865
 20
-138.98051
 30
0.0
 10
42.9865
 20
-138.98051
 30
0.0
 10
78.1952
 20
-138.98056
 30
0.0
 10
78.1952
 20
-138.98056
 30
0.0
 10
78.1952
 20
-138.98056
 30
0.0
 10
78.1952
 20
-138.98056
 30
0.0
 10
78.19249
 20
-138.77483
 30
0.0
 10
78.19249
 20
-138.77483
 30
0.0
 10
78.19249
 20
-138.77483
 30
0.0
 10
78.19249
 20
-138.77483
 30
0.0
 10
78.18436
 20
-138.56917
 30
0.0
 10
78.18436
 20
-138.56917
 30
0.0
 10
78.18436
 20
-138.56917
 30
0.0
 10
78.18436
 20
-138.56917
 30
0.0
 10
78.17081
 20
-138.36363
 30
0.0
 10
78.17081
 20
-138.36363
 30
0.0
 10
78.17081
 20
-138.36363
 30
0.0
 10
78.17081
 20
-138.36363
 30
0.0
 10
78.15184
 20
-138.15829
 30
0.0
 10
78.15184
 20
-138.15829
 30
0.0
 10
78.15184
 20
-138.15829
 30
0.0
 10
78.15184
 20
-138.15829
 30
0.0
 10
78.12746
 20
-137.95319
 30
0.0
 10
78.12746
 20
-137.95319
 30
0.0
 10
78.12746
 20
-137.95319
 30
0.0
 10
78.12746
 20
-137.95319
 30
0.0
 10
78.09769
 20
-137.74842
 30
0.0
 10
78.09769
 20
-137.74842
 30
0.0
 10
78.09769
 20
-137.74842
 30
0.0
 10
78.09769
 20
-137.74842
 30
0.0
 10
78.06251
 20
-137.54402
 30
0.0
 10
78.06251
 20
-137.54402
 30
0.0
 10
78.06251
 20
-137.54402
 30
0.0
 10
78.06251
 20
-137.54402
 30
0.0
 10
78.02196
 20
-137.34007
 30
0.0
 10
78.02196
 20
-137.34007
 30
0.0
 10
78.02196
 20
-137.34007
 30
0.0
 10
78.02196
 20
-137.34007
 30
0.0
 10
77.97604
 20
-137.13663
 30
0.0
 10
77.97604
 20
-137.13663
 30
0.0
 10
77.97604
 20
-137.13663
 30
0.0
 10
77.97604
 20
-137.13663
 30
0.0
 10
77.92476
 20
-136.93375
 30
0.0
 10
77.92476
 20
-136.93375
 30
0.0
 10
77.92476
 20
-136.93375
 30
0.0
 10
77.92476
 20
-136.93375
 30
0.0
 10
77.86814
 20
-136.73149
 30
0.0
 10
77.86814
 20
-136.73149
 30
0.0
 10
77.86814
 20
-136.73149
 30
0.0
 10
77.86814
 20
-136.73149
 30
0.0
 10
77.80621
 20
-136.52994
 30
0.0
 10
77.80621
 20
-136.52994
 30
0.0
 10
77.80621
 20
-136.52994
 30
0.0
 10
77.80621
 20
-136.52994
 30
0.0
 10
77.73897
 20
-136.32913
 30
0.0
 10
77.73897
 20
-136.32913
 30
0.0
 10
77.73897
 20
-136.32913
 30
0.0
 10
77.73897
 20
-136.32913
 30
0.0
 10
77.66645
 20
-136.12914
 30
0.0
 10
77.66645
 20
-136.12914
 30
0.0
 10
77.66645
 20
-136.12914
 30
0.0
 10
77.66645
 20
-136.12914
 30
0.0
 10
77.58866
 20
-135.93003
 30
0.0
 10
77.58866
 20
-135.93003
 30
0.0
 10
77.58866
 20
-135.93003
 30
0.0
 10
77.58866
 20
-135.93003
 30
0.0
 10
77.50564
 20
-135.73188
 30
0.0
 10
77.50564
 20
-135.73188
 30
0.0
 10
77.50564
 20
-135.73188
 30
0.0
 10
77.50564
 20
-135.73188
 30
0.0
 10
77.41742
 20
-135.53471
 30
0.0
 10
77.41742
 20
-135.53471
 30
0.0
 10
77.41742
 20
-135.53471
 30
0.0
 10
77.41742
 20
-135.53471
 30
0.0
 10
77.32401
 20
-135.3386
 30
0.0
 10
77.32401
 20
-135.3386
 30
0.0
 10
77.32401
 20
-135.3386
 30
0.0
 10
77.32401
 20
-135.3386
 30
0.0
 10
77.22544
 20
-135.14362
 30
0.0
 10
77.22544
 20
-135.14362
 30
0.0
 10
77.22544
 20
-135.14362
 30
0.0
 10
77.22544
 20
-135.14362
 30
0.0
 10
77.12176
 20
-134.94981
 30
0.0
 10
77.12176
 20
-134.94981
 30
0.0
 10
77.12176
 20
-134.94981
 30
0.0
 10
77.12176
 20
-134.94981
 30
0.0
 10
77.01297
 20
-134.75726
 30
0.0
 10
77.01297
 20
-134.75726
 30
0.0
 10
77.01297
 20
-134.75726
 30
0.0
 10
77.01297
 20
-134.75726
 30
0.0
 10
76.89914
 20
-134.566
 30
0.0
 10
76.89914
 20
-134.566
 30
0.0
 10
76.89914
 20
-134.566
 30
0.0
 10
76.89914
 20
-134.566
 30
0.0
 10
76.78027
 20
-134.37609
 30
0.0
 10
76.78027
 20
-134.37609
 30
0.0
 10
76.78027
 20
-134.37609
 30
0.0
 10
76.78027
 20
-134.37609
 30
0.0
 10
76.65643
 20
-134.18762
 30
0.0
 10
76.65643
 20
-134.18762
 30
0.0
 10
76.65643
 20
-134.18762
 30
0.0
 10
76.65643
 20
-134.18762
 30
0.0
 10
76.52763
 20
-134.0006
 30
0.0
 10
76.52763
 20
-134.0006
 30
0.0
 10
76.52763
 20
-134.0006
 30
0.0
 10
76.52763
 20
-134.0006
 30
0.0
 10
76.39392
 20
-133.81514
 30
0.0
 10
76.39392
 20
-133.81514
 30
0.0
 10
76.39392
 20
-133.81514
 30
0.0
 10
76.39392
 20
-133.81514
 30
0.0
 10
76.25535
 20
-133.63126
 30
0.0
 10
76.25535
 20
-133.63126
 30
0.0
 10
76.25535
 20
-133.63126
 30
0.0
 10
76.25535
 20
-133.63126
 30
0.0
 10
76.11194
 20
-133.44903
 30
0.0
 10
76.11194
 20
-133.44903
 30
0.0
 10
76.11194
 20
-133.44903
 30
0.0
 10
76.11194
 20
-133.44903
 30
0.0
 10
75.96377
 20
-133.2685
 30
0.0
 10
75.96377
 20
-133.2685
 30
0.0
 10
75.96377
 20
-133.2685
 30
0.0
 10
75.96377
 20
-133.2685
 30
0.0
 10
75.81085
 20
-133.08973
 30
0.0
 10
75.81085
 20
-133.08973
 30
0.0
 10
75.81085
 20
-133.08973
 30
0.0
 10
75.81085
 20
-133.08973
 30
0.0
 10
75.65325
 20
-132.91277
 30
0.0
 10
75.65325
 20
-132.91277
 30
0.0
 10
75.65325
 20
-132.91277
 30
0.0
 10
75.65325
 20
-132.91277
 30
0.0
 10
75.491
 20
-132.73769
 30
0.0
 10
75.491
 20
-132.73769
 30
0.0
 10
75.491
 20
-132.73769
 30
0.0
 10
75.491
 20
-132.73769
 30
0.0
 10
75.32417
 20
-132.56452
 30
0.0
 10
75.32417
 20
-132.56452
 30
0.0
 10
75.32417
 20
-132.56452
 30
0.0
 10
75.32417
 20
-132.56452
 30
0.0
 10
75.1528
 20
-132.39334
 30
0.0
 10
75.1528
 20
-132.39334
 30
0.0
 10
75.1528
 20
-132.39334
 30
0.0
 10
75.1528
 20
-132.39334
 30
0.0
 10
74.97695
 20
-132.22418
 30
0.0
 10
74.97695
 20
-132.22418
 30
0.0
 10
74.97695
 20
-132.22418
 30
0.0
 10
74.97695
 20
-132.22418
 30
0.0
 10
74.79666
 20
-132.0571
 30
0.0
 10
74.79666
 20
-132.0571
 30
0.0
 10
74.79666
 20
-132.0571
 30
0.0
 10
74.79666
 20
-132.0571
 30
0.0
 10
74.61199
 20
-131.89216
 30
0.0
 10
74.61199
 20
-131.89216
 30
0.0
 10
74.61199
 20
-131.89216
 30
0.0
 10
74.61199
 20
-131.89216
 30
0.0
 10
74.42301
 20
-131.7294
 30
0.0
 10
74.42301
 20
-131.7294
 30
0.0
 10
74.42301
 20
-131.7294
 30
0.0
 10
74.42301
 20
-131.7294
 30
0.0
 10
74.22977
 20
-131.56887
 30
0.0
 10
74.22977
 20
-131.56887
 30
0.0
 10
74.22977
 20
-131.56887
 30
0.0
 10
74.22977
 20
-131.56887
 30
0.0
 10
74.03232
 20
-131.41063
 30
0.0
 10
74.03232
 20
-131.41063
 30
0.0
 10
74.03232
 20
-131.41063
 30
0.0
 10
74.03232
 20
-131.41063
 30
0.0
 10
73.83074
 20
-131.25472
 30
0.0
 10
73.83074
 20
-131.25472
 30
0.0
 10
73.83074
 20
-131.25472
 30
0.0
 10
73.83074
 20
-131.25472
 30
0.0
 10
73.62508
 20
-131.10118
 30
0.0
 10
73.62508
 20
-131.10118
 30
0.0
 10
73.62508
 20
-131.10118
 30
0.0
 10
73.62508
 20
-131.10118
 30
0.0
 10
73.4154
 20
-130.95008
 30
0.0
 10
73.4154
 20
-130.95008
 30
0.0
 10
73.4154
 20
-130.95008
 30
0.0
 10
73.4154
 20
-130.95008
 30
0.0
 10
73.20177
 20
-130.80145
 30
0.0
 10
73.20177
 20
-130.80145
 30
0.0
 10
73.20177
 20
-130.80145
 30
0.0
 10
73.20177
 20
-130.80145
 30
0.0
 10
72.98426
 20
-130.65533
 30
0.0
 10
72.98426
 20
-130.65533
 30
0.0
 10
72.98426
 20
-130.65533
 30
0.0
 10
72.98426
 20
-130.65533
 30
0.0
 10
72.76293
 20
-130.51178
 30
0.0
 10
72.76293
 20
-130.51178
 30
0.0
 10
72.76293
 20
-130.51178
 30
0.0
 10
72.76293
 20
-130.51178
 30
0.0
 10
72.53785
 20
-130.37084
 30
0.0
 10
72.53785
 20
-130.37084
 30
0.0
 10
72.53785
 20
-130.37084
 30
0.0
 10
72.53785
 20
-130.37084
 30
0.0
 10
72.30909
 20
-130.23256
 30
0.0
 10
72.30909
 20
-130.23256
 30
0.0
 10
72.30909
 20
-130.23256
 30
0.0
 10
72.30909
 20
-130.23256
 30
0.0
 10
72.07673
 20
-130.09697
 30
0.0
 10
72.07673
 20
-130.09697
 30
0.0
 10
72.07673
 20
-130.09697
 30
0.0
 10
72.07673
 20
-130.09697
 30
0.0
 10
71.84082
 20
-129.9641
 30
0.0
 10
71.84082
 20
-129.9641
 30
0.0
 10
71.84082
 20
-129.9641
 30
0.0
 10
71.84082
 20
-129.9641
 30
0.0
 10
71.60145
 20
-129.83403
 30
0.0
 10
71.60145
 20
-129.83403
 30
0.0
 10
71.60145
 20
-129.83403
 30
0.0
 10
71.60145
 20
-129.83403
 30
0.0
 10
71.35868
 20
-129.70677
 30
0.0
 10
71.35868
 20
-129.70677
 30
0.0
 10
71.35868
 20
-129.70677
 30
0.0
 10
71.35868
 20
-129.70677
 30
0.0
 10
71.1126
 20
-129.58235
 30
0.0
 10
71.1126
 20
-129.58235
 30
0.0
 10
71.1126
 20
-129.58235
 30
0.0
 10
71.1126
 20
-129.58235
 30
0.0
 10
70.86329
 20
-129.46085
 30
0.0
 10
70.86329
 20
-129.46085
 30
0.0
 10
70.86329
 20
-129.46085
 30
0.0
 10
70.86329
 20
-129.46085
 30
0.0
 10
70.6108
 20
-129.34227
 30
0.0
 10
70.6108
 20
-129.34227
 30
0.0
 10
70.6108
 20
-129.34227
 30
0.0
 10
70.6108
 20
-129.34227
 30
0.0
 10
70.35523
 20
-129.22667
 30
0.0
 10
70.35523
 20
-129.22667
 30
0.0
 10
70.35523
 20
-129.22667
 30
0.0
 10
70.35523
 20
-129.22667
 30
0.0
 10
70.09665
 20
-129.11406
 30
0.0
 10
70.09665
 20
-129.11406
 30
0.0
 10
70.09665
 20
-129.11406
 30
0.0
 10
70.09665
 20
-129.11406
 30
0.0
 10
69.83514
 20
-129.00449
 30
0.0
 10
69.83514
 20
-129.00449
 30
0.0
 10
69.83514
 20
-129.00449
 30
0.0
 10
69.83514
 20
-129.00449
 30
0.0
 10
69.57079
 20
-128.898
 30
0.0
 10
69.57079
 20
-128.898
 30
0.0
 10
69.57079
 20
-128.898
 30
0.0
 10
69.57079
 20
-128.898
 30
0.0
 10
69.30367
 20
-128.79461
 30
0.0
 10
69.30367
 20
-128.79461
 30
0.0
 10
69.30367
 20
-128.79461
 30
0.0
 10
69.30367
 20
-128.79461
 30
0.0
 10
69.03387
 20
-128.69437
 30
0.0
 10
69.03387
 20
-128.69437
 30
0.0
 10
69.03387
 20
-128.69437
 30
0.0
 10
69.03387
 20
-128.69437
 30
0.0
 10
68.76146
 20
-128.59728
 30
0.0
 10
68.76146
 20
-128.59728
 30
0.0
 10
68.76146
 20
-128.59728
 30
0.0
 10
68.76146
 20
-128.59728
 30
0.0
 10
68.48654
 20
-128.5034
 30
0.0
 10
68.48654
 20
-128.5034
 30
0.0
 10
68.48654
 20
-128.5034
 30
0.0
 10
68.48654
 20
-128.5034
 30
0.0
 10
68.20918
 20
-128.41274
 30
0.0
 10
68.20918
 20
-128.41274
 30
0.0
 10
68.20918
 20
-128.41274
 30
0.0
 10
68.20918
 20
-128.41274
 30
0.0
 10
67.92948
 20
-128.32533
 30
0.0
 10
67.92948
 20
-128.32533
 30
0.0
 10
67.92948
 20
-128.32533
 30
0.0
 10
67.92948
 20
-128.32533
 30
0.0
 10
67.64753
 20
-128.24122
 30
0.0
 10
67.64753
 20
-128.24122
 30
0.0
 10
67.64753
 20
-128.24122
 30
0.0
 10
67.64753
 20
-128.24122
 30
0.0
 10
67.36339
 20
-128.16041
 30
0.0
 10
67.36339
 20
-128.16041
 30
0.0
 10
67.36339
 20
-128.16041
 30
0.0
 10
67.36339
 20
-128.16041
 30
0.0
 10
67.07717
 20
-128.08293
 30
0.0
 10
67.07717
 20
-128.08293
 30
0.0
 10
67.07717
 20
-128.08293
 30
0.0
 10
67.07717
 20
-128.08293
 30
0.0
 10
66.78895
 20
-128.00881
 30
0.0
 10
66.78895
 20
-128.00881
 30
0.0
 10
66.78895
 20
-128.00881
 30
0.0
 10
66.78895
 20
-128.00881
 30
0.0
 10
66.49882
 20
-127.93807
 30
0.0
 10
66.49882
 20
-127.93807
 30
0.0
 10
66.49882
 20
-127.93807
 30
0.0
 10
66.49882
 20
-127.93807
 30
0.0
 10
66.20688
 20
-127.87073
 30
0.0
 10
66.20688
 20
-127.87073
 30
0.0
 10
66.20688
 20
-127.87073
 30
0.0
 10
66.20688
 20
-127.87073
 30
0.0
 10
65.9132
 20
-127.8068
 30
0.0
 10
65.9132
 20
-127.8068
 30
0.0
 10
65.9132
 20
-127.8068
 30
0.0
 10
65.9132
 20
-127.8068
 30
0.0
 10
65.61788
 20
-127.74633
 30
0.0
 10
65.61788
 20
-127.74633
 30
0.0
 10
65.61788
 20
-127.74633
 30
0.0
 10
65.61788
 20
-127.74633
 30
0.0
 10
65.32102
 20
-127.68931
 30
0.0
 10
65.32102
 20
-127.68931
 30
0.0
 10
65.32102
 20
-127.68931
 30
0.0
 10
65.32102
 20
-127.68931
 30
0.0
 10
65.0227
 20
-127.63578
 30
0.0
 10
65.0227
 20
-127.63578
 30
0.0
 10
65.0227
 20
-127.63578
 30
0.0
 10
65.0227
 20
-127.63578
 30
0.0
 10
64.72301
 20
-127.58574
 30
0.0
 10
64.72301
 20
-127.58574
 30
0.0
 10
64.72301
 20
-127.58574
 30
0.0
 10
64.72301
 20
-127.58574
 30
0.0
 10
64.42205
 20
-127.5392
 30
0.0
 10
64.42205
 20
-127.5392
 30
0.0
 10
64.42205
 20
-127.5392
 30
0.0
 10
64.42205
 20
-127.5392
 30
0.0
 10
64.11991
 20
-127.4962
 30
0.0
 10
64.11991
 20
-127.4962
 30
0.0
 10
64.11991
 20
-127.4962
 30
0.0
 10
64.11991
 20
-127.4962
 30
0.0
 10
63.81668
 20
-127.45672
 30
0.0
 10
63.81668
 20
-127.45672
 30
0.0
 10
63.81668
 20
-127.45672
 30
0.0
 10
63.81668
 20
-127.45672
 30
0.0
 10
63.51246
 20
-127.42079
 30
0.0
 10
63.51246
 20
-127.42079
 30
0.0
 10
63.51246
 20
-127.42079
 30
0.0
 10
63.51246
 20
-127.42079
 30
0.0
 10
63.20734
 20
-127.38843
 30
0.0
 10
63.20734
 20
-127.38843
 30
0.0
 10
63.20734
 20
-127.38843
 30
0.0
 10
63.20734
 20
-127.38843
 30
0.0
 10
62.90141
 20
-127.35965
 30
0.0
 10
62.90141
 20
-127.35965
 30
0.0
 10
62.90141
 20
-127.35965
 30
0.0
 10
62.90141
 20
-127.35965
 30
0.0
 10
62.59478
 20
-127.33443
 30
0.0
 10
62.59478
 20
-127.33443
 30
0.0
 10
62.59478
 20
-127.33443
 30
0.0
 10
62.59478
 20
-127.33443
 30
0.0
 10
62.28752
 20
-127.31281
 30
0.0
 10
62.28752
 20
-127.31281
 30
0.0
 10
62.28752
 20
-127.31281
 30
0.0
 10
62.28752
 20
-127.31281
 30
0.0
 10
61.97974
 20
-127.29478
 30
0.0
 10
61.97974
 20
-127.29478
 30
0.0
 10
61.97974
 20
-127.29478
 30
0.0
 10
61.97974
 20
-127.29478
 30
0.0
 10
61.67154
 20
-127.28035
 30
0.0
 10
61.67154
 20
-127.28035
 30
0.0
 10
61.67154
 20
-127.28035
 30
0.0
 10
61.67154
 20
-127.28035
 30
0.0
 10
61.363
 20
-127.26952
 30
0.0
 10
61.363
 20
-127.26952
 30
0.0
 10
61.363
 20
-127.26952
 30
0.0
 10
61.363
 20
-127.26952
 30
0.0
 10
61.05422
 20
-127.2623
 30
0.0
 10
61.05422
 20
-127.2623
 30
0.0
 10
61.05422
 20
-127.2623
 30
0.0
 10
61.05422
 20
-127.2623
 30
0.0
 10
60.74531
 20
-127.25868
 30
0.0
 10
60.74531
 20
-127.25868
 30
0.0
 10
60.74531
 20
-127.25868
 30
0.0
 10
60.74531
 20
-127.25868
 30
0.0
 10
60.43633
 20
-127.25868
 30
0.0
 10
60.43633
 20
-127.25868
 30
0.0
 10
60.43633
 20
-127.25868
 30
0.0
 10
60.43633
 20
-127.25868
 30
0.0
 10
60.39351
 20
-127.25918
 30
0.0
 10
60.39351
 20
-127.25918
 30
0.0
 10
60.39351
 20
-127.25918
 30
0.0
 10
60.39351
 20
-127.25918
 30
0.0
 10
60.39351
 20
-133.05789
 30
0.0
 10
60.39351
 20
-133.05789
 30
0.0
  0
SPLINE
  5
7A
330
1F
100
AcDbEntity
  8
0
 62
   114
370
    35
100
AcDbSpline
210
0.0
220
0.0
230
1.0
 70
    11
 71
     3
 72
   728
 73
   724
 74
     0
 42
0.000000001
 43
0.0000000001
 40
0.0
 40
0.0
 40
0.0
 40
0.0
 40
0.0054945054945055
 40
0.0054945054945055
 40
0.0054945054945055
 40
0.0054945054945055
 40
0.010989010989011
 40
0.010989010989011
 40
0.010989010989011
 40
0.010989010989011
 40
0.0164835164835165
 40
0.0164835164835165
 40
0.0164835164835165
 40
0.0164835164835165
 40
0.021978021978022
 40
0.021978021978022
 40
0.021978021978022
 40
0.021978021978022
 40
0.0274725274725275
 40
0.0274725274725275
 40
0.0274725274725275
 40
0.0274725274725275
 40
0.032967032967033
 40
0.032967032967033
 40
0.032967032967033
 40
0.032967032967033
 40
0.0384615384615385
 40
0.0384615384615385
 40
0.0384615384615385
 40
0.0384615384615385
 40
0.043956043956044
 40
0.043956043956044
 40
0.043956043956044
 40
0.043956043956044
 40
0.0494505494505494
 40
0.0494505494505494
 40
0.0494505494505494
 40
0.0494505494505494
 40
0.0549450549450549
 40
0.0549450549450549
 40
0.0549450549450549
 40
0.0549450549450549
 40
0.0604395604395604
 40
0.0604395604395604
 40
0.0604395604395604
 40
0.0604395604395604
 40
0.0659340659340659
 40
0.0659340659340659
 40
0.0659340659340659
 40
0.0659340659340659
 40
0.0714285714285714
 40
0.0714285714285714
 40
0.0714285714285714
 40
0.0714285714285714
 40
0.0769230769230769
 40
0.0769230769230769
 40
0.0769230769230769
 40
0.0769230769230769
 40
0.0824175824175824
 40
0.0824175824175824
 40
0.0824175824175824
 40
0.0824175824175824
 40
0.0879120879120879
 40
0.0879120879120879
 40
0.0879120879120879
 40
0.0879120879120879
 40
0.0934065934065934
 40
0.0934065934065934
 40
0.0934065934065934
 40
0.0934065934065934
 40
0.0989010989010989
 40
0.0989010989010989
 40
0.0989010989010989
 40
0.0989010989010989
 40
0.1043956043956044
 40
0.1043956043956044
 40
0.1043956043956044
 40
0.1043956043956044
 40
0.1098901098901099
 40
0.1098901098901099
 40
0.1098901098901099
 40
0.1098901098901099
 40
0.1153846153846154
 40
0.1153846153846154
 40
0.1153846153846154
 40
0.1153846153846154
 40
0.1208791208791209
 40
0.1208791208791209
 40
0.1208791208791209
 40
0.1208791208791209
 40
0.1263736263736264
 40
0.1263736263736264
 40
0.1263736263736264
 40
0.1263736263736264
 40
0.1318681318681319
 40
0.1318681318681319
 40
0.1318681318681319
 40
0.1318681318681319
 40
0.1373626373626374
 40
0.1373626373626374
 40
0.1373626373626374
 40
0.1373626373626374
 40
0.1428571428571428
 40
0.1428571428571428
 40
0.1428571428571428
 40
0.1428571428571428
 40
0.1483516483516484
 40
0.1483516483516484
 40
0.1483516483516484
 40
0.1483516483516484
 40
0.1538461538461539
 40
0.1538461538461539
 40
0.1538461538461539
 40
0.1538461538461539
 40
0.1593406593406593
 40
0.1593406593406593
 40
0.1593406593406593
 40
0.1593406593406593
 40
0.1648351648351648
 40
0.1648351648351648
 40
0.1648351648351648
 40
0.1648351648351648
 40
0.1703296703296703
 40
0.1703296703296703
 40
0.1703296703296703
 40
0.1703296703296703
 40
0.1758241758241758
 40
0.1758241758241758
 40
0.1758241758241758
 40
0.1758241758241758
 40
0.1813186813186813
 40
0.1813186813186813
 40
0.1813186813186813
 40
0.1813186813186813
 40
0.1868131868131868
 40
0.1868131868131868
 40
0.1868131868131868
 40
0.1868131868131868
 40
0.1923076923076923
 40
0.1923076923076923
 40
0.1923076923076923
 40
0.1923076923076923
 40
0.1978021978021978
 40
0.1978021978021978
 40
0.1978021978021978
 40
0.1978021978021978
 40
0.2032967032967033
 40
0.2032967032967033
 40
0.2032967032967033
 40
0.2032967032967033
 40
0.2087912087912088
 40
0.2087912087912088
 40
0.2087912087912088
 40
0.2087912087912088
 40
0.2142857142857143
 40
0.2142857142857143
 40
0.2142857142857143
 40
0.2142857142857143
 40
0.2197802197802198
 40
0.2197802197802198
 40
0.2197802197802198
 40
0.2197802197802198
 40
0.2252747252747253
 40
0.2252747252747253
 40
0.2252747252747253
 40
0.2252747252747253
 40
0.2307692307692308
 40
0.2307692307692308
 40
0.2307692307692308
 40
0.2307692307692308
 40
0.2362637362637363
 40
0.2362637362637363
 40
0.2362637362637363
 40
0.2362637362637363
 40
0.2417582417582418
 40
0.2417582417582418
 40
0.2417582417582418
 40
0.2417582417582418
 40
0.2472527472527473
 40
0.2472527472527473
 40
0.2472527472527473
 40
0.2472527472527473
 40
0.2527472527472527
 40
0.2527472527472527
 40
0.2527472527472527
 40
0.2527472527472527
 40
0.2582417582417583
 40
0.2582417582417583
 40
0.2582417582417583
 40
0.2582417582417583
 40
0.2637362637362637
 40
0.2637362637362637
 40
0.2637362637362637
 40
0.2637362637362637
 40
0.2692307692307692
 40
0.2692307692307692
 40
0.2692307692307692
 40
0.2692307692307692
 40
0.2747252747252747
 40
0.2747252747252747
 40
0.2747252747252747
 40
0.2747252747252747
 40
0.2802197802197802
 40
0.2802197802197802
 40
0.2802197802197802
 40
0.2802197802197802
 40
0.2857142857142857
 40
0.2857142857142857
 40
0.2857142857142857
 40
0.2857142857142857
 40
0.2912087912087912
 40
0.2912087912087912
 40
0.2912087912087912
 40
0.2912087912087912
 40
0.2967032967032967
 40
0.2967032967032967
 40
0.2967032967032967
 40
0.2967032967032967
 40
0.3021978021978022
 40
0.3021978021978022
 40
0.3021978021978022
 40
0.3021978021978022
 40
0.3076923076923077
 40
0.3076923076923077
 40
0.3076923076923077
 40
0.3076923076923077
 40
0.3131868131868132
 40
0.3131868131868132
 40
0.3131868131868132
 40
0.3131868131868132
 40
0.3186813186813187
 40
0.3186813186813187
 40
0.3186813186813187
 40
0.3186813186813187
 40
0.3241758241758242
 40
0.3241758241758242
 40
0.3241758241758242
 40
0.3241758241758242
 40
0.3296703296703297
 40
0.3296703296703297
 40
0.3296703296703297
 40
0.3296703296703297
 40
0.3351648351648351
 40
0.3351648351648351
 40
0.3351648351648351
 40
0.3351648351648351
 40
0.3406593406593407
 40
0.3406593406593407
 40
0.3406593406593407
 40
0.3406593406593407
 40
0.3461538461538461
 40
0.3461538461538461
 40
0.3461538461538461
 40
0.3461538461538461
 40
0.3516483516483517
 40
0.3516483516483517
 40
0.3516483516483517
 40
0.3516483516483517
 40
0.3571428571428572
 40
0.3571428571428572
 40
0.3571428571428572
 40
0.3571428571428572
 40
0.3626373626373626
 40
0.3626373626373626
 40
0.3626373626373626
 40
0.3626373626373626
 40
0.3681318681318682
 40
0.3681318681318682
 40
0.3681318681318682
 40
0.3681318681318682
 40
0.3736263736263736
 40
0.3736263736263736
 40
0.3736263736263736
 40
0.3736263736263736
 40
0.3791208791208791
 40
0.3791208791208791
 40
0.3791208791208791
 40
0.3791208791208791
 40
0.3846153846153846
 40
0.3846153846153846
 40
0.3846153846153846
 40
0.3846153846153846
 40
0.3901098901098901
 40
0.3901098901098901
 40
0.3901098901098901
 40
0.3901098901098901
 40
0.3956043956043956
 40
0.3956043956043956
 40
0.3956043956043956
 40
0.3956043956043956
 40
0.4010989010989011
 40
0.4010989010989011
 40
0.4010989010989011
 40
0.4010989010989011
 40
0.4065934065934066
 40
0.4065934065934066
 40
0.4065934065934066
 40
0.4065934065934066
 40
0.4120879120879121
 40
0.4120879120879121
 40
0.4120879120879121
 40
0.4120879120879121
 40
0.4175824175824176
 40
0.4175824175824176
 40
0.4175824175824176
 40
0.4175824175824176
 40
0.4230769230769231
 40
0.4230769230769231
 40
0.4230769230769231
 40
0.4230769230769231
 40
0.4285714285714285
 40
0.4285714285714285
 40
0.4285714285714285
 40
0.4285714285714285
 40
0.4340659340659341
 40
0.4340659340659341
 40
0.4340659340659341
 40
0.4340659340659341
 40
0.4395604395604396
 40
0.4395604395604396
 40
0.4395604395604396
 40
0.4395604395604396
 40
0.445054945054945
 40
0.445054945054945
 40
0.445054945054945
 40
0.445054945054945
 40
0.4505494505494506
 40
0.4505494505494506
 40
0.4505494505494506
 40
0.4505494505494506
 40
0.456043956043956
 40
0.456043956043956
 40
0.456043956043956
 40
0.456043956043956
 40
0.4615384615384616
 40
0.4615384615384616
 40
0.4615384615384616
 40
0.4615384615384616
 40
0.467032967032967
 40
0.467032967032967
 40
0.467032967032967
 40
0.467032967032967
 40
0.4725274725274725
 40
0.4725274725274725
 40
0.4725274725274725
 40
0.4725274725274725
 40
0.478021978021978
 40
0.478021978021978
 40
0.478021978021978
 40
0.478021978021978
 40
0.4835164835164835
 40
0.4835164835164835
 40
0.4835164835164835
 40
0.4835164835164835
 40
0.489010989010989
 40
0.489010989010989
 40
0.489010989010989
 40
0.489010989010989
 40
0.4945054945054945
 40
0.4945054945054945
 40
0.4945054945054945
 40
0.4945054945054945
 40
0.5
 40
0.5
 40
0.5
 40
0.5
 40
0.5054945054945055
 40
0.5054945054945055
 40
0.5054945054945055
 40
0.5054945054945055
 40
0.510989010989011
 40
0.510989010989011
 40
0.510989010989011
 40
0.510989010989011
 40
0.5164835164835165
 40
0.5164835164835165
 40
0.5164835164835165
 40
0.5164835164835165
 40
0.521978021978022
 40
0.521978021978022
 40
0.521978021978022
 40
0.521978021978022
 40
0.5274725274725275
 40
0.5274725274725275
 40
0.5274725274725275
 40
0.5274725274725275
 40
0.532967032967033
 40
0.532967032967033
 40
0.532967032967033
 40
0.532967032967033
 40
0.5384615384615384
 40
0.5384615384615384
 40
0.5384615384615384
 40
0.5384615384615384
 40
0.5439560439560439
 40
0.5439560439560439
 40
0.5439560439560439
 40
0.5439560439560439
 40
0.5494505494505495
 40
0.5494505494505495
 40
0.5494505494505495
 40
0.5494505494505495
 40
0.554945054945055
 40
0.554945054945055
 40
0.554945054945055
 40
0.554945054945055
 40
0.5604395604395604
 40
0.5604395604395604
 40
0.5604395604395604
 40
0.5604395604395604
 40
0.5659340659340659
 40
0.5659340659340659
 40
0.5659340659340659
 40
0.5659340659340659
 40
0.5714285714285714
 40
0.5714285714285714
 40
0.5714285714285714
 40
0.5714285714285714
 40
0.5769230769230769
 40
0.5769230769230769
 40
0.5769230769230769
 40
0.5769230769230769
 40
0.5824175824175825
 40
0.5824175824175825
 40
0.5824175824175825
 40
0.5824175824175825
 40
0.5879120879120879
 40
0.5879120879120879
 40
0.5879120879120879
 40
0.5879120879120879
 40
0.5934065934065934
 40
0.5934065934065934
 40
0.5934065934065934
 40
0.5934065934065934
 40
0.5989010989010989
 40
0.5989010989010989
 40
0.5989010989010989
 40
0.5989010989010989
 40
0.6043956043956044
 40
0.6043956043956044
 40
0.6043956043956044
 40
0.6043956043956044
 40
0.6098901098901099
 40
0.6098901098901099
 40
0.6098901098901099
 40
0.6098901098901099
 40
0.6153846153846154
 40
0.6153846153846154
 40
0.6153846153846154
 40
0.6153846153846154
 40
0.6208791208791209
 40
0.6208791208791209
 40
0.6208791208791209
 40
0.6208791208791209
 40
0.6263736263736264
 40
0.6263736263736264
 40
0.6263736263736264
 40
0.6263736263736264
 40
0.6318681318681318
 40
0.6318681318681318
 40
0.6318681318681318
 40
0.6318681318681318
 40
0.6373626373626373
 40
0.6373626373626373
 40
0.6373626373626373
 40
0.6373626373626373
 40
0.6428571428571429
 40
0.6428571428571429
 40
0.6428571428571429
 40
0.6428571428571429
 40
0.6483516483516484
 40
0.6483516483516484
 40
0.6483516483516484
 40
0.6483516483516484
 40
0.6538461538461539
 40
0.6538461538461539
 40
0.6538461538461539
 40
0.6538461538461539
 40
0.6593406593406593
 40
0.6593406593406593
 40
0.6593406593406593
 40
0.6593406593406593
 40
0.6648351648351648
 40
0.6648351648351648
 40
0.6648351648351648
 40
0.6648351648351648
 40
0.6703296703296703
 40
0.6703296703296703
 40
0.6703296703296703
 40
0.6703296703296703
 40
0.6758241758241759
 40
0.6758241758241759
 40
0.6758241758241759
 40
0.6758241758241759
 40
0.6813186813186813
 40
0.6813186813186813
 40
0.6813186813186813
 40
0.6813186813186813
 40
0.6868131868131868
 40
0.6868131868131868
 40
0.6868131868131868
 40
0.6868131868131868
 40
0.6923076923076923
 40
0.6923076923076923
 40
0.6923076923076923
 40
0.6923076923076923
 40
0.6978021978021978
 40
0.6978021978021978
 40
0.6978021978021978
 40
0.6978021978021978
 40
0.7032967032967034
 40
0.7032967032967034
 40
0.7032967032967034
 40
0.7032967032967034
 40
0.7087912087912088
 40
0.7087912087912088
 40
0.7087912087912088
 40
0.7087912087912088
 40
0.7142857142857143
 40
0.7142857142857143
 40
0.7142857142857143
 40
0.7142857142857143
 40
0.7197802197802198
 40
0.7197802197802198
 40
0.7197802197802198
 40
0.7197802197802198
 40
0.7252747252747253
 40
0.7252747252747253
 40
0.7252747252747253
 40
0.7252747252747253
 40
0.7307692307692307
 40
0.7307692307692307
 40
0.7307692307692307
 40
0.7307692307692307
 40
0.7362637362637363
 40
0.7362637362637363
 40
0.7362637362637363
 40
0.7362637362637363
 40
0.7417582417582418
 40
0.7417582417582418
 40
0.7417582417582418
 40
0.7417582417582418
 40
0.7472527472527473
 40
0.7472527472527473
 40
0.7472527472527473
 40
0.7472527472527473
 40
0.7527472527472527
 40
0.7527472527472527
 40
0.7527472527472527
 40
0.7527472527472527
 40
0.7582417582417582
 40
0.7582417582417582
 40
0.7582417582417582
 40
0.7582417582417582
 40
0.7637362637362637
 40
0.7637362637362637
 40
0.7637362637362637
 40
0.7637362637362637
 40
0.7692307692307693
 40
0.7692307692307693
 40
0.7692307692307693
 40
0.7692307692307693
 40
0.7747252747252747
 40
0.7747252747252747
 40
0.7747252747252747
 40
0.7747252747252747
 40
0.7802197802197802
 40
0.7802197802197802
 40
0.7802197802197802
 40
0.7802197802197802
 40
0.7857142857142857
 40
0.7857142857142857
 40
0.7857142857142857
 40
0.7857142857142857
 40
0.7912087912087912
 40
0.7912087912087912
 40
0.7912087912087912
 40
0.7912087912087912
 40
0.7967032967032966
 40
0.7967032967032966
 40
0.7967032967032966
 40
0.7967032967032966
 40
0.8021978021978022
 40
0.8021978021978022
 40
0.8021978021978022
 40
0.8021978021978022
 40
0.8076923076923077
 40
0.8076923076923077
 40
0.8076923076923077
 40
0.8076923076923077
 40
0.8131868131868132
 40
0.8131868131868132
 40
0.8131868131868132
 40
0.8131868131868132
 40
0.8186813186813187
 40
0.8186813186813187
 40
0.8186813186813187
 40
0.8186813186813187
 40
0.8241758241758241
 40
0.8241758241758241
 40
0.8241758241758241
 40
0.8241758241758241
 40
0.8296703296703297
 40
0.8296703296703297
 40
0.8296703296703297
 40
0.8296703296703297
 40
0.8351648351648352
 40
0.8351648351648352
 40
0.8351648351648352
 40
0.8351648351648352
 40
0.8406593406593407
 40
0.8406593406593407
 40
0.8406593406593407
 40
0.8406593406593407
 40
0.8461538461538461
 40
0.8461538461538461
 40
0.8461538461538461
 40
0.8461538461538461
 40
0.8516483516483516
 40
0.8516483516483516
 40
0.8516483516483516
 40
0.8516483516483516
 40
0.8571428571428571
 40
0.8571428571428571
 40
0.8571428571428571
 40
0.8571428571428571
 40
0.8626373626373627
 40
0.8626373626373627
 40
0.8626373626373627
 40
0.8626373626373627
 40
0.8681318681318682
 40
0.8681318681318682
 40
0.8681318681318682
 40
0.8681318681318682
 40
0.8736263736263736
 40
0.8736263736263736
 40
0.8736263736263736
 40
0.8736263736263736
 40
0.8791208791208791
 40
0.8791208791208791
 40
0.8791208791208791
 40
0.8791208791208791
 40
0.8846153846153846
 40
0.8846153846153846
 40
0.8846153846153846
 40
0.8846153846153846
 40
0.8901098901098901
 40
0.8901098901098901
 40
0.8901098901098901
 40
0.8901098901098901
 40
0.8956043956043956
 40
0.8956043956043956
 40
0.8956043956043956
 40
0.8956043956043956
 40
0.9010989010989011
 40
0.9010989010989011
 40
0.9010989010989011
 40
0.9010989010989011
 40
0.9065934065934066
 40
0.9065934065934066
 40
0.9065934065934066
 40
0.9065934065934066
 40
0.9120879120879121
 40
0.9120879120879121
 40
0.9120879120879121
 40
0.9120879120879121
 40
0.9175824175824175
 40
0.9175824175824175
 40
0.9175824175824175
 40
0.9175824175824175
 40
0.9230769230769231
 40
0.9230769230769231
 40
0.9230769230769231
 40
0.9230769230769231
 40
0.9285714285714286
 40
0.9285714285714286
 40
0.9285714285714286
 40
0.9285714285714286
 40
0.9340659340659341
 40
0.9340659340659341
 40
0.9340659340659341
 40
0.9340659340659341
 40
0.9395604395604396
 40
0.9395604395604396
 40
0.9395604395604396
 40
0.9395604395604396
 40
0.945054945054945
 40
0.945054945054945
 40
0.945054945054945
 40
0.945054945054945
 40
0.9505494505494505
 40
0.9505494505494505
 40
0.9505494505494505
 40
0.9505494505494505
 40
0.9560439560439561
 40
0.9560439560439561
 40
0.9560439560439561
 40
0.9560439560439561
 40
0.9615384615384616
 40
0.9615384615384616
 40
0.9615384615384616
 40
0.9615384615384616
 40
0.967032967032967
 40
0.967032967032967
 40
0.967032967032967
 40
0.967032967032967
 40
0.9725274725274725
 40
0.9725274725274725
 40
0.9725274725274725
 40
0.9725274725274725
 40
0.978021978021978
 40
0.978021978021978
 40
0.978021978021978
 40
0.978021978021978
 40
0.9835164835164835
 40
0.9835164835164835
 40
0.9835164835164835
 40
0.9835164835164835
 40
0.989010989010989
 40
0.989010989010989
 40
0.989010989010989
 40
0.989010989010989
 40
1.0
 40
1.0
 40
1.0
 40
1.0
 10
60.39351
 20
-148.88666
 30
0.0
 10
60.39351
 20
-148.88666
 30
0.0
 10
59.39351
 20
-148.88666
 30
0.0
 10
59.39351
 20
-148.88666
 30
0.0
 10
59.39351
 20
-148.88666
 30
0.0
 10
59.39351
 20
-148.88666
 30
0.0
 10
59.39351
 20
-143.11458
 30
0.0
 10
59.39351
 20
-143.11458
 30
0.0
 10
59.39351
 20
-143.11458
 30
0.0
 10
59.39351
 20
-143.11458
 30
0.0
 10
59.2019
 20
-143.12355
 30
0.0
 10
59.2019
 20
-143.12355
 30
0.0
 10
59.2019
 20
-143.12355
 30
0.0
 10
59.2019
 20
-143.12355
 30
0.0
 10
58.89411
 20
-143.14158
 30
0.0
 10
58.89411
 20
-143.14158
 30
0.0
 10
58.89411
 20
-143.14158
 30
0.0
 10
58.89411
 20
-143.14158
 30
0.0
 10
58.58686
 20
-143.16321
 30
0.0
 10
58.58686
 20
-143.16321
 30
0.0
 10
58.58686
 20
-143.16321
 30
0.0
 10
58.58686
 20
-143.16321
 30
0.0
 10
58.28022
 20
-143.18842
 30
0.0
 10
58.28022
 20
-143.18842
 30
0.0
 10
58.28022
 20
-143.18842
 30
0.0
 10
58.28022
 20
-143.18842
 30
0.0
 10
57.9743
 20
-143.21722
 30
0.0
 10
57.9743
 20
-143.21722
 30
0.0
 10
57.9743
 20
-143.21722
 30
0.0
 10
57.9743
 20
-143.21722
 30
0.0
 10
57.66918
 20
-143.24958
 30
0.0
 10
57.66918
 20
-143.24958
 30
0.0
 10
57.66918
 20
-143.24958
 30
0.0
 10
57.66918
 20
-143.24958
 30
0.0
 10
57.36496
 20
-143.2855
 30
0.0
 10
57.36496
 20
-143.2855
 30
0.0
 10
57.36496
 20
-143.2855
 30
0.0
 10
57.36496
 20
-143.2855
 30
0.0
 10
57.06173
 20
-143.32497
 30
0.0
 10
57.06173
 20
-143.32497
 30
0.0
 10
57.06173
 20
-143.32497
 30
0.0
 10
57.06173
 20
-143.32497
 30
0.0
 10
56.75959
 20
-143.36798
 30
0.0
 10
56.75959
 20
-143.36798
 30
0.0
 10
56.75959
 20
-143.36798
 30
0.0
 10
56.75959
 20
-143.36798
 30
0.0
 10
56.45863
 20
-143.41452
 30
0.0
 10
56.45863
 20
-143.41452
 30
0.0
 10
56.45863
 20
-143.41452
 30
0.0
 10
56.45863
 20
-143.41452
 30
0.0
 10
56.15894
 20
-143.46455
 30
0.0
 10
56.15894
 20
-143.46455
 30
0.0
 10
56.15894
 20
-143.46455
 30
0.0
 10
56.15894
 20
-143.46455
 30
0.0
 10
55.86062
 20
-143.51809
 30
0.0
 10
55.86062
 20
-143.51809
 30
0.0
 10
55.86062
 20
-143.51809
 30
0.0
 10
55.86062
 20
-143.51809
 30
0.0
 10
55.56376
 20
-143.57511
 30
0.0
 10
55.56376
 20
-143.57511
 30
0.0
 10
55.56376
 20
-143.57511
 30
0.0
 10
55.56376
 20
-143.57511
 30
0.0
 10
55.26844
 20
-143.63559
 30
0.0
 10
55.26844
 20
-143.63559
 30
0.0
 10
55.26844
 20
-143.63559
 30
0.0
 10
55.26844
 20
-143.63559
 30
0.0
 10
54.97476
 20
-143.69951
 30
0.0
 10
54.97476
 20
-143.69951
 30
0.0
 10
54.97476
 20
-143.69951
 30
0.0
 10
54.97476
 20
-143.69951
 30
0.0
 10
54.68282
 20
-143.76685
 30
0.0
 10
54.68282
 20
-143.76685
 30
0.0
 10
54.68282
 20
-143.76685
 30
0.0
 10
54.68282
 20
-143.76685
 30
0.0
 10
54.39269
 20
-143.83759
 30
0.0
 10
54.39269
 20
-143.83759
 30
0.0
 10
54.39269
 20
-143.83759
 30
0.0
 10
54.39269
 20
-143.83759
 30
0.0
 10
54.10447
 20
-143.91172
 30
0.0
 10
54.10447
 20
-143.91172
 30
0.0
 10
54.10447
 20
-143.91172
 30
0.0
 10
54.10447
 20
-143.91172
 30
0.0
 10
53.81825
 20
-143.9892
 30
0.0
 10
53.81825
 20
-143.9892
 30
0.0
 10
53.81825
 20
-143.9892
 30
0.0
 10
53.81825
 20
-143.9892
 30
0.0
 10
53.53412
 20
-144.07001
 30
0.0
 10
53.53412
 20
-144.07001
 30
0.0
 10
53.53412
 20
-144.07001
 30
0.0
 10
53.53412
 20
-144.07001
 30
0.0
 10
53.25216
 20
-144.15413
 30
0.0
 10
53.25216
 20
-144.15413
 30
0.0
 10
53.25216
 20
-144.15413
 30
0.0
 10
53.25216
 20
-144.15413
 30
0.0
 10
52.97247
 20
-144.24153
 30
0.0
 10
52.97247
 20
-144.24153
 30
0.0
 10
52.97247
 20
-144.24153
 30
0.0
 10
52.97247
 20
-144.24153
 30
0.0
 10
52.69511
 20
-144.33218
 30
0.0
 10
52.69511
 20
-144.33218
 30
0.0
 10
52.69511
 20
-144.33218
 30
0.0
 10
52.69511
 20
-144.33218
 30
0.0
 10
52.4202
 20
-144.42607
 30
0.0
 10
52.4202
 20
-144.42607
 30
0.0
 10
52.4202
 20
-144.42607
 30
0.0
 10
52.4202
 20
-144.42607
 30
0.0
 10
52.14779
 20
-144.52315
 30
0.0
 10
52.14779
 20
-144.52315
 30
0.0
 10
52.14779
 20
-144.52315
 30
0.0
 10
52.14779
 20
-144.52315
 30
0.0
 10
51.87798
 20
-144.62339
 30
0.0
 10
51.87798
 20
-144.62339
 30
0.0
 10
51.87798
 20
-144.62339
 30
0.0
 10
51.87798
 20
-144.62339
 30
0.0
 10
51.61087
 20
-144.72679
 30
0.0
 10
51.61087
 20
-144.72679
 30
0.0
 10
51.61087
 20
-144.72679
 30
0.0
 10
51.61087
 20
-144.72679
 30
0.0
 10
51.34651
 20
-144.83328
 30
0.0
 10
51.34651
 20
-144.83328
 30
0.0
 10
51.34651
 20
-144.83328
 30
0.0
 10
51.34651
 20
-144.83328
 30
0.0
 10
51.08501
 20
-144.94284
 30
0.0
 10
51.08501
 20
-144.94284
 30
0.0
 10
51.08501
 20
-144.94284
 30
0.0
 10
51.08501
 20
-144.94284
 30
0.0
 10
50.82643
 20
-145.05545
 30
0.0
 10
50.82643
 20
-145.05545
 30
0.0
 10
50.82643
 20
-145.05545
 30
0.0
 10
50.82643
 20
-145.05545
 30
0.0
 10
50.57087
 20
-145.17106
 30
0.0
 10
50.57087
 20
-145.17106
 30
0.0
 10
50.57087
 20
-145.17106
 30
0.0
 10
50.57087
 20
-145.17106
 30
0.0
 10
50.31838
 20
-145.28964
 30
0.0
 10
50.31838
 20
-145.28964
 30
0.0
 10
50.31838
 20
-145.28964
 30
0.0
 10
50.31838
 20
-145.28964
 30
0.0
 10
50.06907
 20
-145.41115
 30
0.0
 10
50.06907
 20
-145.41115
 30
0.0
 10
50.06907
 20
-145.41115
 30
0.0
 10
50.06907
 20
-145.41115
 30
0.0
 10
49.82299
 20
-145.53555
 30
0.0
 10
49.82299
 20
-145.53555
 30
0.0
 10
49.82299
 20
-145.53555
 30
0.0
 10
49.82299
 20
-145.53555
 30
0.0
 10
49.58023
 20
-145.66281
 30
0.0
 10
49.58023
 20
-145.66281
 30
0.0
 10
49.58023
 20
-145.66281
 30
0.0
 10
49.58023
 20
-145.66281
 30
0.0
 10
49.34086
 20
-145.79289
 30
0.0
 10
49.34086
 20
-145.79289
 30
0.0
 10
49.34086
 20
-145.79289
 30
0.0
 10
49.34086
 20
-145.79289
 30
0.0
 10
49.10495
 20
-145.92575
 30
0.0
 10
49.10495
 20
-145.92575
 30
0.0
 10
49.10495
 20
-145.92575
 30
0.0
 10
49.10495
 20
-145.92575
 30
0.0
 10
48.87259
 20
-146.06134
 30
0.0
 10
48.87259
 20
-146.06134
 30
0.0
 10
48.87259
 20
-146.06134
 30
0.0
 10
48.87259
 20
-146.06134
 30
0.0
 10
48.64383
 20
-146.19962
 30
0.0
 10
48.64383
 20
-146.19962
 30
0.0
 10
48.64383
 20
-146.19962
 30
0.0
 10
48.64383
 20
-146.19962
 30
0.0
 10
48.41875
 20
-146.34057
 30
0.0
 10
48.41875
 20
-146.34057
 30
0.0
 10
48.41875
 20
-146.34057
 30
0.0
 10
48.41875
 20
-146.34057
 30
0.0
 10
48.19743
 20
-146.48411
 30
0.0
 10
48.19743
 20
-146.48411
 30
0.0
 10
48.19743
 20
-146.48411
 30
0.0
 10
48.19743
 20
-146.48411
 30
0.0
 10
47.97991
 20
-146.63023
 30
0.0
 10
47.97991
 20
-146.63023
 30
0.0
 10
47.97991
 20
-146.63023
 30
0.0
 10
47.97991
 20
-146.63023
 30
0.0
 10
47.76629
 20
-146.77885
 30
0.0
 10
47.76629
 20
-146.77885
 30
0.0
 10
47.76629
 20
-146.77885
 30
0.0
 10
47.76629
 20
-146.77885
 30
0.0
 10
47.55661
 20
-146.92996
 30
0.0
 10
47.55661
 20
-146.92996
 30
0.0
 10
47.55661
 20
-146.92996
 30
0.0
 10
47.55661
 20
-146.92996
 30
0.0
 10
47.35095
 20
-147.08349
 30
0.0
 10
47.35095
 20
-147.08349
 30
0.0
 10
47.35095
 20
-147.08349
 30
0.0
 10
47.35095
 20
-147.08349
 30
0.0
 10
47.14937
 20
-147.2394
 30
0.0
 10
47.14937
 20
-147.2394
 30
0.0
 10
47.14937
 20
-147.2394
 30
0.0
 10
47.14937
 20
-147.2394
 30
0.0
 10
46.95193
 20
-147.39765
 30
0.0
 10
46.95193
 20
-147.39765
 30
0.0
 10
46.95193
 20
-147.39765
 30
0.0
 10
46.95193
 20
-147.39765
 30
0.0
 10
46.75868
 20
-147.55817
 30
0.0
 10
46.75868
 20
-147.55817
 30
0.0
 10
46.75868
 20
-147.55817
 30
0.0
 10
46.75868
 20
-147.55817
 30
0.0
 10
46.56971
 20
-147.72093
 30
0.0
 10
46.56971
 20
-147.72093
 30
0.0
 10
46.56971
 20
-147.72093
 30
0.0
 10
46.56971
 20
-147.72093
 30
0.0
 10
46.38504
 20
-147.88587
 30
0.0
 10
46.38504
 20
-147.88587
 30
0.0
 10
46.38504
 20
-147.88587
 30
0.0
 10
46.38504
 20
-147.88587
 30
0.0
 10
46.20475
 20
-148.05295
 30
0.0
 10
46.20475
 20
-148.05295
 30
0.0
 10
46.20475
 20
-148.05295
 30
0.0
 10
46.20475
 20
-148.05295
 30
0.0
 10
46.0289
 20
-148.2221
 30
0.0
 10
46.0289
 20
-148.2221
 30
0.0
 10
46.0289
 20
-148.2221
 30
0.0
 10
46.0289
 20
-148.2221
 30
0.0
 10
45.85753
 20
-148.39329
 30
0.0
 10
45.85753
 20
-148.39329
 30
0.0
 10
45.85753
 20
-148.39329
 30
0.0
 10
45.85753
 20
-148.39329
 30
0.0
 10
45.6907
 20
-148.56645
 30
0.0
 10
45.6907
 20
-148.56645
 30
0.0
 10
45.6907
 20
-148.56645
 30
0.0
 10
45.6907
 20
-148.56645
 30
0.0
 10
45.52846
 20
-148.74153
 30
0.0
 10
45.52846
 20
-148.74153
 30
0.0
 10
45.52846
 20
-148.74153
 30
0.0
 10
45.52846
 20
-148.74153
 30
0.0
 10
45.37085
 20
-148.91848
 30
0.0
 10
45.37085
 20
-148.91848
 30
0.0
 10
45.37085
 20
-148.91848
 30
0.0
 10
45.37085
 20
-148.91848
 30
0.0
 10
45.21794
 20
-149.09726
 30
0.0
 10
45.21794
 20
-149.09726
 30
0.0
 10
45.21794
 20
-149.09726
 30
0.0
 10
45.21794
 20
-149.09726
 30
0.0
 10
45.06976
 20
-149.27779
 30
0.0
 10
45.06976
 20
-149.27779
 30
0.0
 10
45.06976
 20
-149.27779
 30
0.0
 10
45.06976
 20
-149.27779
 30
0.0
 10
44.92636
 20
-149.46001
 30
0.0
 10
44.92636
 20
-149.46001
 30
0.0
 10
44.92636
 20
-149.46001
 30
0.0
 10
44.92636
 20
-149.46001
 30
0.0
 10
44.78779
 20
-149.6439
 30
0.0
 10
44.78779
 20
-149.6439
 30
0.0
 10
44.78779
 20
-149.6439
 30
0.0
 10
44.78779
 20
-149.6439
 30
0.0
 10
44.65408
 20
-149.82936
 30
0.0
 10
44.65408
 20
-149.82936
 30
0.0
 10
44.65408
 20
-149.82936
 30
0.0
 10
44.65408
 20
-149.82936
 30
0.0
 10
44.52529
 20
-150.01637
 30
0.0
 10
44.52529
 20
-150.01637
 30
0.0
 10
44.52529
 20
-150.01637
 30
0.0
 10
44.52529
 20
-150.01637
 30
0.0
 10
44.40143
 20
-150.20485
 30
0.0
 10
44.40143
 20
-150.20485
 30
0.0
 10
44.40143
 20
-150.20485
 30
0.0
 10
44.40143
 20
-150.20485
 30
0.0
 10
44.28257
 20
-150.39474
 30
0.0
 10
44.28257
 20
-150.39474
 30
0.0
 10
44.28257
 20
-150.39474
 30
0.0
 10
44.28257
 20
-150.39474
 30
0.0
 10
44.16874
 20
-150.586
 30
0.0
 10
44.16874
 20
-150.586
 30
0.0
 10
44.16874
 20
-150.586
 30
0.0
 10
44.16874
 20
-150.586
 30
0.0
 10
44.05995
 20
-150.77857
 30
0.0
 10
44.05995
 20
-150.77857
 30
0.0
 10
44.05995
 20
-150.77857
 30
0.0
 10
44.05995
 20
-150.77857
 30
0.0
 10
43.95627
 20
-150.97237
 30
0.0
 10
43.95627
 20
-150.97237
 30
0.0
 10
43.95627
 20
-150.97237
 30
0.0
 10
43.95627
 20
-150.97237
 30
0.0
 10
43.8577
 20
-151.16735
 30
0.0
 10
43.8577
 20
-151.16735
 30
0.0
 10
43.8577
 20
-151.16735
 30
0.0
 10
43.8577
 20
-151.16735
 30
0.0
 10
43.76429
 20
-151.36346
 30
0.0
 10
43.76429
 20
-151.36346
 30
0.0
 10
43.76429
 20
-151.36346
 30
0.0
 10
43.76429
 20
-151.36346
 30
0.0
 10
43.67606
 20
-151.56062
 30
0.0
 10
43.67606
 20
-151.56062
 30
0.0
 10
43.67606
 20
-151.56062
 30
0.0
 10
43.67606
 20
-151.56062
 30
0.0
 10
43.59305
 20
-151.75878
 30
0.0
 10
43.59305
 20
-151.75878
 30
0.0
 10
43.59305
 20
-151.75878
 30
0.0
 10
43.59305
 20
-151.75878
 30
0.0
 10
43.51526
 20
-151.95789
 30
0.0
 10
43.51526
 20
-151.95789
 30
0.0
 10
43.51526
 20
-151.95789
 30
0.0
 10
43.51526
 20
-151.95789
 30
0.0
 10
43.44274
 20
-152.15788
 30
0.0
 10
43.44274
 20
-152.15788
 30
0.0
 10
43.44274
 20
-152.15788
 30
0.0
 10
43.44274
 20
-152.15788
 30
0.0
 10
43.3755
 20
-152.35868
 30
0.0
 10
43.3755
 20
-152.35868
 30
0.0
 10
43.3755
 20
-152.35868
 30
0.0
 10
43.3755
 20
-152.35868
 30
0.0
 10
43.31356
 20
-152.56023
 30
0.0
 10
43.31356
 20
-152.56023
 30
0.0
 10
43.31356
 20
-152.56023
 30
0.0
 10
43.31356
 20
-152.56023
 30
0.0
 10
43.25694
 20
-152.76248
 30
0.0
 10
43.25694
 20
-152.76248
 30
0.0
 10
43.25694
 20
-152.76248
 30
0.0
 10
43.25694
 20
-152.76248
 30
0.0
 10
43.20567
 20
-152.96536
 30
0.0
 10
43.20567
 20
-152.96536
 30
0.0
 10
43.20567
 20
-152.96536
 30
0.0
 10
43.20567
 20
-152.96536
 30
0.0
 10
43.15975
 20
-153.16881
 30
0.0
 10
43.15975
 20
-153.16881
 30
0.0
 10
43.15975
 20
-153.16881
 30
0.0
 10
43.15975
 20
-153.16881
 30
0.0
 10
43.11919
 20
-153.37276
 30
0.0
 10
43.11919
 20
-153.37276
 30
0.0
 10
43.11919
 20
-153.37276
 30
0.0
 10
43.11919
 20
-153.37276
 30
0.0
 10
43.08403
 20
-153.57715
 30
0.0
 10
43.08403
 20
-153.57715
 30
0.0
 10
43.08403
 20
-153.57715
 30
0.0
 10
43.08403
 20
-153.57715
 30
0.0
 10
43.05424
 20
-153.78192
 30
0.0
 10
43.05424
 20
-153.78192
 30
0.0
 10
43.05424
 20
-153.78192
 30
0.0
 10
43.05424
 20
-153.78192
 30
0.0
 10
43.02986
 20
-153.98703
 30
0.0
 10
43.02986
 20
-153.98703
 30
0.0
 10
43.02986
 20
-153.98703
 30
0.0
 10
43.02986
 20
-153.98703
 30
0.0
 10
43.0109
 20
-154.19236
 30
0.0
 10
43.0109
 20
-154.19236
 30
0.0
 10
43.0109
 20
-154.19236
 30
0.0
 10
43.0109
 20
-154.19236
 30
0.0
 10
42.99734
 20
-154.3979
 30
0.0
 10
42.99734
 20
-154.3979
 30
0.0
 10
42.99734
 20
-154.3979
 30
0.0
 10
42.99734
 20
-154.3979
 30
0.0
 10
42.98921
 20
-154.60356
 30
0.0
 10
42.98921
 20
-154.60356
 30
0.0
 10
42.98921
 20
-154.60356
 30
0.0
 10
42.98921
 20
-154.60356
 30
0.0
 10
42.9865
 20
-154.80928
 30
0.0
 10
42.9865
 20
-154.80928
 30
0.0
 10
42.9865
 20
-154.80928
 30
0.0
 10
42.9865
 20
-154.80928
 30
0.0
 10
78.1952
 20
-154.80933
 30
0.0
 10
78.1952
 20
-154.80933
 30
0.0
 10
78.1952
 20
-154.80933
 30
0.0
 10
78.1952
 20
-154.80933
 30
0.0
 10
78.19249
 20
-154.6036
 30
0.0
 10
78.19249
 20
-154.6036
 30
0.0
 10
78.19249
 20
-154.6036
 30
0.0
 10
78.19249
 20
-154.6036
 30
0.0
 10
78.18436
 20
-154.39794
 30
0.0
 10
78.18436
 20
-154.39794
 30
0.0
 10
78.18436
 20
-154.39794
 30
0.0
 10
78.18436
 20
-154.39794
 30
0.0
 10
78.17081
 20
-154.1924
 30
0.0
 10
78.17081
 20
-154.1924
 30
0.0
 10
78.17081
 20
-154.1924
 30
0.0
 10
78.17081
 20
-154.1924
 30
0.0
 10
78.15184
 20
-153.98706
 30
0.0
 10
78.15184
 20
-153.98706
 30
0.0
 10
78.15184
 20
-153.98706
 30
0.0
 10
78.15184
 20
-153.98706
 30
0.0
 10
78.12746
 20
-153.78196
 30
0.0
 10
78.12746
 20
-153.78196
 30
0.0
 10
78.12746
 20
-153.78196
 30
0.0
 10
78.12746
 20
-153.78196
 30
0.0
 10
78.09769
 20
-153.57719
 30
0.0
 10
78.09769
 20
-153.57719
 30
0.0
 10
78.09769
 20
-153.57719
 30
0.0
 10
78.09769
 20
-153.57719
 30
0.0
 10
78.06251
 20
-153.37279
 30
0.0
 10
78.06251
 20
-153.37279
 30
0.0
 10
78.06251
 20
-153.37279
 30
0.0
 10
78.06251
 20
-153.37279
 30
0.0
 10
78.02196
 20
-153.16884
 30
0.0
 10
78.02196
 20
-153.16884
 30
0.0
 10
78.02196
 20
-153.16884
 30
0.0
 10
78.02196
 20
-153.16884
 30
0.0
 10
77.97604
 20
-152.9654
 30
0.0
 10
77.97604
 20
-152.9654
 30
0.0
 10
77.97604
 20
-152.9654
 30
0.0
 10
77.97604
 20
-152.9654
 30
0.0
 10
77.92476
 20
-152.76252
 30
0.0
 10
77.92476
 20
-152.76252
 30
0.0
 10
77.92476
 20
-152.76252
 30
0.0
 10
77.92476
 20
-152.76252
 30
0.0
 10
77.86814
 20
-152.56026
 30
0.0
 10
77.86814
 20
-152.56026
 30
0.0
 10
77.86814
 20
-152.56026
 30
0.0
 10
77.86814
 20
-152.56026
 30
0.0
 10
77.80621
 20
-152.35871
 30
0.0
 10
77.80621
 20
-152.35871
 30
0.0
 10
77.80621
 20
-152.35871
 30
0.0
 10
77.80621
 20
-152.35871
 30
0.0
 10
77.73897
 20
-152.1579
 30
0.0
 10
77.73897
 20
-152.1579
 30
0.0
 10
77.73897
 20
-152.1579
 30
0.0
 10
77.73897
 20
-152.1579
 30
0.0
 10
77.66645
 20
-151.95791
 30
0.0
 10
77.66645
 20
-151.95791
 30
0.0
 10
77.66645
 20
-151.95791
 30
0.0
 10
77.66645
 20
-151.95791
 30
0.0
 10
77.58866
 20
-151.7588
 30
0.0
 10
77.58866
 20
-151.7588
 30
0.0
 10
77.58866
 20
-151.7588
 30
0.0
 10
77.58866
 20
-151.7588
 30
0.0
 10
77.50564
 20
-151.56065
 30
0.0
 10
77.50564
 20
-151.56065
 30
0.0
 10
77.50564
 20
-151.56065
 30
0.0
 10
77.50564
 20
-151.56065
 30
0.0
 10
77.41742
 20
-151.36348
 30
0.0
 10
77.41742
 20
-151.36348
 30
0.0
 10
77.41742
 20
-151.36348
 30
0.0
 10
77.41742
 20
-151.36348
 30
0.0
 10
77.32401
 20
-151.16737
 30
0.0
 10
77.32401
 20
-151.16737
 30
0.0
 10
77.32401
 20
-151.16737
 30
0.0
 10
77.32401
 20
-151.16737
 30
0.0
 10
77.22544
 20
-150.97239
 30
0.0
 10
77.22544
 20
-150.97239
 30
0.0
 10
77.22544
 20
-150.97239
 30
0.0
 10
77.22544
 20
-150.97239
 30
0.0
 10
77.12176
 20
-150.77858
 30
0.0
 10
77.12176
 20
-150.77858
 30
0.0
 10
77.12176
 20
-150.77858
 30
0.0
 10
77.12176
 20
-150.77858
 30
0.0
 10
77.01297
 20
-150.58603
 30
0.0
 10
77.01297
 20
-150.58603
 30
0.0
 10
77.01297
 20
-150.58603
 30
0.0
 10
77.01297
 20
-150.58603
 30
0.0
 10
76.89914
 20
-150.39477
 30
0.0
 10
76.89914
 20
-150.39477
 30
0.0
 10
76.89914
 20
-150.39477
 30
0.0
 10
76.89914
 20
-150.39477
 30
0.0
 10
76.78027
 20
-150.20486
 30
0.0
 10
76.78027
 20
-150.20486
 30
0.0
 10
76.78027
 20
-150.20486
 30
0.0
 10
76.78027
 20
-150.20486
 30
0.0
 10
76.65643
 20
-150.01639
 30
0.0
 10
76.65643
 20
-150.01639
 30
0.0
 10
76.65643
 20
-150.01639
 30
0.0
 10
76.65643
 20
-150.01639
 30
0.0
 10
76.52763
 20
-149.82937
 30
0.0
 10
76.52763
 20
-149.82937
 30
0.0
 10
76.52763
 20
-149.82937
 30
0.0
 10
76.52763
 20
-149.82937
 30
0.0
 10
76.39392
 20
-149.64391
 30
0.0
 10
76.39392
 20
-149.64391
 30
0.0
 10
76.39392
 20
-149.64391
 30
0.0
 10
76.39392
 20
-149.64391
 30
0.0
 10
76.25535
 20
-149.46003
 30
0.0
 10
76.25535
 20
-149.46003
 30
0.0
 10
76.25535
 20
-149.46003
 30
0.0
 10
76.25535
 20
-149.46003
 30
0.0
 10
76.11194
 20
-149.2778
 30
0.0
 10
76.11194
 20
-149.2778
 30
0.0
 10
76.11194
 20
-149.2778
 30
0.0
 10
76.11194
 20
-149.2778
 30
0.0
 10
75.96377
 20
-149.09727
 30
0.0
 10
75.96377
 20
-149.09727
 30
0.0
 10
75.96377
 20
-149.09727
 30
0.0
 10
75.96377
 20
-149.09727
 30
0.0
 10
75.81085
 20
-148.9185
 30
0.0
 10
75.81085
 20
-148.9185
 30
0.0
 10
75.81085
 20
-148.9185
 30
0.0
 10
75.81085
 20
-148.9185
 30
0.0
 10
75.65325
 20
-148.74154
 30
0.0
 10
75.65325
 20
-148.74154
 30
0.0
 10
75.65325
 20
-148.74154
 30
0.0
 10
75.65325
 20
-148.74154
 30
0.0
 10
75.491
 20
-148.56646
 30
0.0
 10
75.491
 20
-148.56646
 30
0.0
 10
75.491
 20
-148.56646
 30
0.0
 10
75.491
 20
-148.56646
 30
0.0
 10
75.32417
 20
-148.39329
 30
0.0
 10
75.32417
 20
-148.39329
 30
0.0
 10
75.32417
 20
-148.39329
 30
0.0
 10
75.32417
 20
-148.39329
 30
0.0
 10
75.1528
 20
-148.22211
 30
0.0
 10
75.1528
 20
-148.22211
 30
0.0
 10
75.1528
 20
-148.22211
 30
0.0
 10
75.1528
 20
-148.22211
 30
0.0
 10
74.97695
 20
-148.05295
 30
0.0
 10
74.97695
 20
-148.05295
 30
0.0
 10
74.97695
 20
-148.05295
 30
0.0
 10
74.97695
 20
-148.05295
 30
0.0
 10
74.79666
 20
-147.88587
 30
0.0
 10
74.79666
 20
-147.88587
 30
0.0
 10
74.79666
 20
-147.88587
 30
0.0
 10
74.79666
 20
-147.88587
 30
0.0
 10
74.61199
 20
-147.72093
 30
0.0
 10
74.61199
 20
-147.72093
 30
0.0
 10
74.61199
 20
-147.72093
 30
0.0
 10
74.61199
 20
-147.72093
 30
0.0
 10
74.42301
 20
-147.55817
 30
0.0
 10
74.42301
 20
-147.55817
 30
0.0
 10
74.42301
 20
-147.55817
 30
0.0
 10
74.42301
 20
-147.55817
 30
0.0
 10
74.22977
 20
-147.39764
 30
0.0
 10
74.22977
 20
-147.39764
 30
0.0
 10
74.22977
 20
-147.39764
 30
0.0
 10
74.22977
 20
-147.39764
 30
0.0
 10
74.03232
 20
-147.2394
 30
0.0
 10
74.03232
 20
-147.2394
 30
0.0
 10
74.03232
 20
-147.2394
 30
0.0
 10
74.03232
 20
-147.2394
 30
0.0
 10
73.83074
 20
-147.08349
 30
0.0
 10
73.83074
 20
-147.08349
 30
0.0
 10
73.83074
 20
-147.08349
 30
0.0
 10
73.83074
 20
-147.08349
 30
0.0
 10
73.62508
 20
-146.92995
 30
0.0
 10
73.62508
 20
-146.92995
 30
0.0
 10
73.62508
 20
-146.92995
 30
0.0
 10
73.62508
 20
-146.92995
 30
0.0
 10
73.4154
 20
-146.77885
 30
0.0
 10
73.4154
 20
-146.77885
 30
0.0
 10
73.4154
 20
-146.77885
 30
0.0
 10
73.4154
 20
-146.77885
 30
0.0
 10
73.20177
 20
-146.63022
 30
0.0
 10
73.20177
 20
-146.63022
 30
0.0
 10
73.20177
 20
-146.63022
 30
0.0
 10
73.20177
 20
-146.63022
 30
0.0
 10
72.98426
 20
-146.4841
 30
0.0
 10
72.98426
 20
-146.4841
 30
0.0
 10
72.98426
 20
-146.4841
 30
0.0
 10
72.98426
 20
-146.4841
 30
0.0
 10
72.76293
 20
-146.34055
 30
0.0
 10
72.76293
 20
-146.34055
 30
0.0
 10
72.76293
 20
-146.34055
 30
0.0
 10
72.76293
 20
-146.34055
 30
0.0
 10
72.53785
 20
-146.19961
 30
0.0
 10
72.53785
 20
-146.19961
 30
0.0
 10
72.53785
 20
-146.19961
 30
0.0
 10
72.53785
 20
-146.19961
 30
0.0
 10
72.30909
 20
-146.06133
 30
0.0
 10
72.30909
 20
-146.06133
 30
0.0
 10
72.30909
 20
-146.06133
 30
0.0
 10
72.30909
 20
-146.06133
 30
0.0
 10
72.07673
 20
-145.92574
 30
0.0
 10
72.07673
 20
-145.92574
 30
0.0
 10
72.07673
 20
-145.92574
 30
0.0
 10
72.07673
 20
-145.92574
 30
0.0
 10
71.84082
 20
-145.79287
 30
0.0
 10
71.84082
 20
-145.79287
 30
0.0
 10
71.84082
 20
-145.79287
 30
0.0
 10
71.84082
 20
-145.79287
 30
0.0
 10
71.60145
 20
-145.6628
 30
0.0
 10
71.60145
 20
-145.6628
 30
0.0
 10
71.60145
 20
-145.6628
 30
0.0
 10
71.60145
 20
-145.6628
 30
0.0
 10
71.35868
 20
-145.53554
 30
0.0
 10
71.35868
 20
-145.53554
 30
0.0
 10
71.35868
 20
-145.53554
 30
0.0
 10
71.35868
 20
-145.53554
 30
0.0
 10
71.1126
 20
-145.41112
 30
0.0
 10
71.1126
 20
-145.41112
 30
0.0
 10
71.1126
 20
-145.41112
 30
0.0
 10
71.1126
 20
-145.41112
 30
0.0
 10
70.86329
 20
-145.28962
 30
0.0
 10
70.86329
 20
-145.28962
 30
0.0
 10
70.86329
 20
-145.28962
 30
0.0
 10
70.86329
 20
-145.28962
 30
0.0
 10
70.6108
 20
-145.17104
 30
0.0
 10
70.6108
 20
-145.17104
 30
0.0
 10
70.6108
 20
-145.17104
 30
0.0
 10
70.6108
 20
-145.17104
 30
0.0
 10
70.35523
 20
-145.05544
 30
0.0
 10
70.35523
 20
-145.05544
 30
0.0
 10
70.35523
 20
-145.05544
 30
0.0
 10
70.35523
 20
-145.05544
 30
0.0
 10
70.09665
 20
-144.94283
 30
0.0
 10
70.09665
 20
-144.94283
 30
0.0
 10
70.09665
 20
-144.94283
 30
0.0
 10
70.09665
 20
-144.94283
 30
0.0
 10
69.83514
 20
-144.83326
 30
0.0
 10
69.83514
 20
-144.83326
 30
0.0
 10
69.83514
 20
-144.83326
 30
0.0
 10
69.83514
 20
-144.83326
 30
0.0
 10
69.57079
 20
-144.72677
 30
0.0
 10
69.57079
 20
-144.72677
 30
0.0
 10
69.57079
 20
-144.72677
 30
0.0
 10
69.57079
 20
-144.72677
 30
0.0
 10
69.30367
 20
-144.62338
 30
0.0
 10
69.30367
 20
-144.62338
 30
0.0
 10
69.30367
 20
-144.62338
 30
0.0
 10
69.30367
 20
-144.62338
 30
0.0
 10
69.03387
 20
-144.52314
 30
0.0
 10
69.03387
 20
-144.52314
 30
0.0
 10
69.03387
 20
-144.52314
 30
0.0
 10
69.03387
 20
-144.52314
 30
0.0
 10
68.76146
 20
-144.42605
 30
0.0
 10
68.76146
 20
-144.42605
 30
0.0
 10
68.76146
 20
-144.42605
 30
0.0
 10
68.76146
 20
-144.42605
 30
0.0
 10
68.48654
 20
-144.33217
 30
0.0
 10
68.48654
 20
-144.33217
 30
0.0
 10
68.48654
 20
-144.33217
 30
0.0
 10
68.48654
 20
-144.33217
 30
0.0
 10
68.20918
 20
-144.24151
 30
0.0
 10
68.20918
 20
-144.24151
 30
0.0
 10
68.20918
 20
-144.24151
 30
0.0
 10
68.20918
 20
-144.24151
 30
0.0
 10
67.92948
 20
-144.1541
 30
0.0
 10
67.92948
 20
-144.1541
 30
0.0
 10
67.92948
 20
-144.1541
 30
0.0
 10
67.92948
 20
-144.1541
 30
0.0
 10
67.64753
 20
-144.06999
 30
0.0
 10
67.64753
 20
-144.06999
 30
0.0
 10
67.64753
 20
-144.06999
 30
0.0
 10
67.64753
 20
-144.06999
 30
0.0
 10
67.36339
 20
-143.98918
 30
0.0
 10
67.36339
 20
-143.98918
 30
0.0
 10
67.36339
 20
-143.98918
 30
0.0
 10
67.36339
 20
-143.98918
 30
0.0
 10
67.07717
 20
-143.9117
 30
0.0
 10
67.07717
 20
-143.9117
 30
0.0
 10
67.07717
 20
-143.9117
 30
0.0
 10
67.07717
 20
-143.9117
 30
0.0
 10
66.78895
 20
-143.83758
 30
0.0
 10
66.78895
 20
-143.83758
 30
0.0
 10
66.78895
 20
-143.83758
 30
0.0
 10
66.78895
 20
-143.83758
 30
0.0
 10
66.49882
 20
-143.76684
 30
0.0
 10
66.49882
 20
-143.76684
 30
0.0
 10
66.49882
 20
-143.76684
 30
0.0
 10
66.49882
 20
-143.76684
 30
0.0
 10
66.20688
 20
-143.6995
 30
0.0
 10
66.20688
 20
-143.6995
 30
0.0
 10
66.20688
 20
-143.6995
 30
0.0
 10
66.20688
 20
-143.6995
 30
0.0
 10
65.9132
 20
-143.63557
 30
0.0
 10
65.9132
 20
-143.63557
 30
0.0
 10
65.9132
 20
-143.63557
 30
0.0
 10
65.9132
 20
-143.63557
 30
0.0
 10
65.61788
 20
-143.5751
 30
0.0
 10
65.61788
 20
-143.5751
 30
0.0
 10
65.61788
 20
-143.5751
 30
0.0
 10
65.61788
 20
-143.5751
 30
0.0
 10
65.32102
 20
-143.51808
 30
0.0
 10
65.32102
 20
-143.51808
 30
0.0
 10
65.32102
 20
-143.51808
 30
0.0
 10
65.32102
 20
-143.51808
 30
0.0
 10
65.0227
 20
-143.46455
 30
0.0
 10
65.0227
 20
-143.46455
 30
0.0
 10
65.0227
 20
-143.46455
 30
0.0
 10
65.0227
 20
-143.46455
 30
0.0
 10
64.72301
 20
-143.41451
 30
0.0
 10
64.72301
 20
-143.41451
 30
0.0
 10
64.72301
 20
-143.41451
 30
0.0
 10
64.72301
 20
-143.41451
 30
0.0
 10
64.42205
 20
-143.36797
 30
0.0
 10
64.42205
 20
-143.36797
 30
0.0
 10
64.42205
 20
-143.36797
 30
0.0
 10
64.42205
 20
-143.36797
 30
0.0
 10
64.11991
 20
-143.32497
 30
0.0
 10
64.11991
 20
-143.32497
 30
0.0
 10
64.11991
 20
-143.32497
 30
0.0
 10
64.11991
 20
-143.32497
 30
0.0
 10
63.81668
 20
-143.28549
 30
0.0
 10
63.81668
 20
-143.28549
 30
0.0
 10
63.81668
 20
-143.28549
 30
0.0
 10
63.81668
 20
-143.28549
 30
0.0
 10
63.51246
 20
-143.24956
 30
0.0
 10
63.51246
 20
-143.24956
 30
0.0
 10
63.51246
 20
-143.24956
 30
0.0
 10
63.51246
 20
-143.24956
 30
0.0
 10
63.20734
 20
-143.2172
 30
0.0
 10
63.20734
 20
-143.2172
 30
0.0
 10
63.20734
 20
-143.2172
 30
0.0
 10
63.20734
 20
-143.2172
 30
0.0
 10
62.90141
 20
-143.18842
 30
0.0
 10
62.90141
 20
-143.18842
 30
0.0
 10
62.90141
 20
-143.18842
 30
0.0
 10
62.90141
 20
-143.18842
 30
0.0
 10
62.59478
 20
-143.1632
 30
0.0
 10
62.59478
 20
-143.1632
 30
0.0
 10
62.59478
 20
-143.1632
 30
0.0
 10
62.59478
 20
-143.1632
 30
0.0
 10
62.28752
 20
-143.14158
 30
0.0
 10
62.28752
 20
-143.14158
 30
0.0
 10
62.28752
 20
-143.14158
 30
0.0
 10
62.28752
 20
-143.14158
 30
0.0
 10
61.97974
 20
-143.12355
 30
0.0
 10
61.97974
 20
-143.12355
 30
0.0
 10
61.97974
 20
-143.12355
 30
0.0
 10
61.97974
 20
-143.12355
 30
0.0
 10
61.67154
 20
-143.10912
 30
0.0
 10
61.67154
 20
-143.10912
 30
0.0
 10
61.67154
 20
-143.10912
 30
0.0
 10
61.67154
 20
-143.10912
 30
0.0
 10
61.363
 20
-143.09829
 30
0.0
 10
61.363
 20
-143.09829
 30
0.0
 10
61.363
 20
-143.09829
 30
0.0
 10
61.363
 20
-143.09829
 30
0.0
 10
61.05422
 20
-143.09107
 30
0.0
 10
61.05422
 20
-143.09107
 30
0.0
 10
61.05422
 20
-143.09107
 30
0.0
 10
61.05422
 20
-143.09107
 30
0.0
 10
60.74531
 20
-143.08745
 30
0.0
 10
60.74531
 20
-143.08745
 30
0.0
 10
60.74531
 20
-143.08745
 30
0.0
 10
60.74531
 20
-143.08745
 30
0.0
 10
60.43633
 20
-143.08745
 30
0.0
 10
60.43633
 20
-143.08745
 30
0.0
 10
60.43633
 20
-143.08745
 30
0.0
 10
60.43633
 20
-143.08745
 30
0.0
 10
60.39351
 20
-143.08795
 30
0.0
 10
60.39351
 20
-143.08795
 30
0.0
 10
60.39351
 20
-143.08795
 30
0.0
 10
60.39351
 20
-143.08795
 30
0.0
 10
60.39351
 20
-148.88666
 30
0.0
 10
60.39351
 20
-148.88666
 30
0.0
  0
MTEXT
  5
7B
330
1F
100
AcDbEntity
  8
0
 62
   250
100
AcDbMText
 10
-221.8039336924299
 20
221.9071238189611
 30
0.0
 40
20.3199984
 41
371.62549
 71
     1
 72
     1
  1
\\fArial|p34;���������� �������������
 73
     1
 44
1.0
  0
MTEXT
  5
7C
330
1F
100
AcDbEntity
  8
0
 62
   250
100
AcDbMText
 10
-221.8039336924299
 20
190.3781938189611
 30
0.0
 40
20.3199984
 41
371.62549
 71
     1
 72
     1
  1
\\fArial|p34;������� ��������������
 73
     1
 44
1.0
  0
MTEXT
  5
7D
330
1F
100
AcDbEntity
  8
0
 62
   250
100
AcDbMText
 10
219.3644
 20
221.9071321012635
 30
0.0
 40
20.3199984
 41
359.53801
 71
     1
 72
     1
  1
\\fArial|p34;���������� �����������
 73
     1
 44
1.0
  0
MTEXT
  5
7E
330
1F
100
AcDbEntity
  8
0
 62
   250
100
AcDbMText
 10
219.3644
 20
190.3782021012635
 30
0.0
 40
20.3199984
 41
359.53801
 71
     1
 72
     1
  1
\\fArial|p34;��� �����
 73
     1
 44
1.0
  0
ENDSEC
  0
SECTION
  2
OBJECTS
  0
DICTIONARY
  5
C
330
0
100
AcDbDictionary
281
     1
  3
ACAD_GROUP
350
D
  3
ACAD_LAYOUT
350
1A
  3
ACAD_MATERIAL
350
43
  3
ACAD_MLEADERSTYLE
350
6B
  3
ACAD_MLINESTYLE
350
17
  3
ACAD_PLOTSETTINGS
350
19
  3
ACAD_PLOTSTYLENAME
350
E
  3
ACAD_SCALELIST
350
47
  3
ACAD_TABLESTYLE
350
69
  3
ACAD_VISUALSTYLE
350
2A
  3
AcDbVariableDictionary
350
7F
  0
DICTIONARY
  5
86
330
8
100
AcDbDictionary
280
     1
281
     1
  3
ACAD_XREC_ROUNDTRIP
360
87
  0
DICTIONARY
  5
D
102
{ACAD_REACTORS
330
C
102
}
330
C
100
AcDbDictionary
281
     1
  0
DICTIONARY
  5
1A
102
{ACAD_REACTORS
330
C
102
}
330
C
100
AcDbDictionary
281
     1
  3
Layout1
350
1E
  3
Layout2
350
26
  3
Model
350
22
  0
DICTIONARY
  5
43
102
{ACAD_REACTORS
330
C
102
}
330
C
100
AcDbDictionary
281
     1
  3
ByBlock
350
45
  3
ByLayer
350
44
  3
Global
350
46
  0
DICTIONARY
  5
6B
102
{ACAD_REACTORS
330
C
102
}
330
C
100
AcDbDictionary
281
     1
  3
Standard
350
6C
  0
DICTIONARY
  5
17
102
{ACAD_REACTORS
330
C
102
}
330
C
100
AcDbDictionary
281
     1
  3
Standard
350
18
  0
DICTIONARY
  5
19
102
{ACAD_REACTORS
330
C
102
}
330
C
100
AcDbDictionary
281
     1
  0
ACDBDICTIONARYWDFLT
  5
E
102
{ACAD_REACTORS
330
C
102
}
330
C
100
AcDbDictionary
281
     1
  3
Normal
350
F
100
AcDbDictionaryWithDefault
340
F
  0
DICTIONARY
  5
47
102
{ACAD_REACTORS
330
C
102
}
330
C
100
AcDbDictionary
281
     1
  3
A0
350
48
  3
A1
350
49
  3
A2
350
4A
  3
A3
350
4B
  3
A4
350
4C
  3
A5
350
4D
  3
A6
350
4E
  3
A7
350
4F
  3
A8
350
50
  3
A9
350
51
  3
B0
350
52
  3
B1
350
53
  3
B2
350
54
  3
B3
350
55
  3
B4
350
56
  3
B5
350
57
  3
B6
350
58
  3
B7
350
59
  3
B8
350
5A
  3
B9
350
5B
  3
C0
350
5C
  3
C1
350
5D
  3
C2
350
5E
  3
C3
350
5F
  3
C4
350
60
  3
C5
350
61
  3
C6
350
62
  3
C7
350
63
  3
C8
350
64
  3
C9
350
65
  3
D0
350
66
  3
D1
350
67
  3
D2
350
68
  0
DICTIONARY
  5
69
102
{ACAD_REACTORS
330
C
102
}
330
C
100
AcDbDictionary
281
     1
  3
Standard
350
6A
  0
DICTIONARY
  5
2A
102
{ACAD_REACTORS
330
C
102
}
330
C
100
AcDbDictionary
281
     1
  3
2dWireframe
350
2F
  3
Basic
350
32
  3
Brighten
350
36
  3
ColorChange
350
3A
  3
Conceptual
350
34
  3
Dim
350
35
  3
EdgeColorOff
350
3D
  3
Facepattern
350
39
  3
Flat
350
2B
  3
FlatWithEdges
350
2C
  3
Gouraud
350
2D
  3
GouraudWithEdges
350
2E
  3
Hidden
350
31
  3
JitterOff
350
3B
  3
Linepattern
350
38
  3
OverhangOff
350
3C
  3
Realistic
350
33
  3
Shaded
350
42
  3
Shaded with edges
350
41
  3
Shades of Gray
350
3E
  3
Sketchy
350
3F
  3
Thicken
350
37
  3
Wireframe
350
30
  3
X-Ray
350
40
  0
DICTIONARY
  5
7F
102
{ACAD_REACTORS
330
C
102
}
330
C
100
AcDbDictionary
281
     1
  3
CANNOSCALE
350
88
  3
CMLEADERSTYLE
350
81
  3
CTABLESTYLE
350
80
  3
DIMASSOC
350
84
  3
HIDETEXT
350
85
  3
MSLTSCALE
350
89
  0
XRECORD
  5
87
102
{ACAD_REACTORS
330
86
102
}
330
86
100
AcDbXrecord
280
     1
102
VTR_0.000_0.000_1.000_1.000_GRIDDISPLAY
 70
     3
102
VTR_0.000_0.000_1.000_1.000_GRIDMAJOR
 70
     5
102
VTR_0.000_0.000_1.000_1.000_DEFAULTLIGHTING
280
     1
102
VTR_0.000_0.000_1.000_1.000_DEFAULTLIGHTINGTYPE
 70
     1
102
VTR_0.000_0.000_1.000_1.000_BRIGHTNESS
141
0.0
102
VTR_0.000_0.000_1.000_1.000_CONTRAST
142
0.0
  0
LAYOUT
  5
1E
102
{ACAD_REACTORS
330
1A
102
}
330
1A
100
AcDbPlotSettings
  1

  2
none_device
  4

  6

 40
0.0
 41
0.0
 42
0.0
 43
0.0
 44
0.0
 45
0.0
 46
0.0
 47
0.0
 48
0.0
 49
0.0
140
0.0
141
0.0
142
1.0
143
1.0
 70
   688
 72
     0
 73
     0
 74
     5
  7

 75
    16
147
1.0
148
0.0
149
0.0
100
AcDbLayout
  1
Layout1
 70
     1
 71
     1
 10
0.0
 20
0.0
 11
12.0
 21
9.0
 12
0.0
 22
0.0
 32
0.0
 14
1.000000000000000E+20
 24
1.000000000000000E+20
 34
1.000000000000000E+20
 15
-1.000000000000000E+20
 25
-1.000000000000000E+20
 35
-1.000000000000000E+20
146
0.0
 13
0.0
 23
0.0
 33
0.0
 16
1.0
 26
0.0
 36
0.0
 17
0.0
 27
1.0
 37
0.0
 76
     0
330
1B
  0
LAYOUT
  5
26
102
{ACAD_REACTORS
330
1A
102
}
330
1A
100
AcDbPlotSettings
  1

  2
none_device
  4

  6

 40
0.0
 41
0.0
 42
0.0
 43
0.0
 44
0.0
 45
0.0
 46
0.0
 47
0.0
 48
0.0
 49
0.0
140
0.0
141
0.0
142
1.0
143
1.0
 70
   688
 72
     0
 73
     0
 74
     5
  7

 75
    16
147
1.0
148
0.0
149
0.0
100
AcDbLayout
  1
Layout2
 70
     1
 71
     2
 10
0.0
 20
0.0
 11
0.0
 21
0.0
 12
0.0
 22
0.0
 32
0.0
 14
0.0
 24
0.0
 34
0.0
 15
0.0
 25
0.0
 35
0.0
146
0.0
 13
0.0
 23
0.0
 33
0.0
 16
1.0
 26
0.0
 36
0.0
 17
0.0
 27
1.0
 37
0.0
 76
     0
330
23
  0
LAYOUT
  5
22
102
{ACAD_REACTORS
330
1A
102
}
330
1A
100
AcDbPlotSettings
  1

  2
none_device
  4
Letter_(8.50_x_11.00_Inches)
  6

 40
6.35
 41
6.35
 42
6.35000508
 43
6.35000508
 44
215.9
 45
279.4
 46
0.0
 47
0.0
 48
0.0
 49
0.0
140
0.0
141
0.0
142
1.0
143
1.0
 70
  1712
 72
     0
 73
     0
 74
     0
  7

 75
     0
147
1.0
148
0.0
149
0.0
100
AcDbLayout
  1
Model
 70
     1
 71
     0
 10
0.0
 20
0.0
 11
12.0
 21
9.0
 12
0.0
 22
0.0
 32
0.0
 14
-221.80393
 24
-207.17203
 34
0.0
 15
578.90241
 25
227.13765
 35
0.0
146
0.0
 13
0.0
 23
0.0
 33
0.0
 16
1.0
 26
0.0
 36
0.0
 17
0.0
 27
1.0
 37
0.0
 76
     0
330
1F
331
29
  0
MATERIAL
  5
45
102
{ACAD_REACTORS
330
43
102
}
102
{ACAD_XDICTIONARY
360
BC
102
}
330
43
100
AcDbMaterial
  1
ByBlock
  0
MATERIAL
  5
44
102
{ACAD_REACTORS
330
43
102
}
102
{ACAD_XDICTIONARY
360
BA
102
}
330
43
100
AcDbMaterial
  1
ByLayer
  0
MATERIAL
  5
46
102
{ACAD_REACTORS
330
43
102
}
102
{ACAD_XDICTIONARY
360
BE
102
}
330
43
100
AcDbMaterial
  1
Global
  0
MLEADERSTYLE
  5
6C
102
{ACAD_REACTORS
330
6B
102
}
102
{ACAD_XDICTIONARY
360
C1
102
}
330
6B
100
AcDbMLeaderStyle
170
     2
171
     1
172
     0
 90
        2
 40
0.0
 41
0.0
173
     1
 91
-1056964608
340
14
 92
       -2
290
     1
 42
0.09
291
     1
 43
0.36
  3
Standard
341
0
 44
0.18
300

342
11
174
     1
178
     6
175
     1
176
     0
 93
-1056964608
 45
0.18
292
     0
297
     0
 46
0.18
343
0
 94
-1056964608
 47
1.0
 49
1.0
140
1.0
293
     1
141
0.0
294
     1
177
     0
142
1.0
295
     0
296
     0
143
0.125
1001
ACAD_MLEADERVER
1070
     2
  0
MLINESTYLE
  5
18
102
{ACAD_REACTORS
330
17
102
}
330
17
100
AcDbMlineStyle
  2
Standard
 70
     0
  3

 62
   256
 51
90.0
 52
90.0
 71
     2
 49
0.5
 62
   256
  6
BYLAYER
 49
-0.5
 62
   256
  6
BYLAYER
  0
ACDBPLACEHOLDER
  5
F
102
{ACAD_REACTORS
330
E
102
}
330
E
  0
SCALE
  5
48
102
{ACAD_REACTORS
330
47
102
}
330
47
100
AcDbScale
 70
     0
300
1:1
140
1.0
141
1.0
290
     1
  0
SCALE
  5
49
102
{ACAD_REACTORS
330
47
102
}
330
47
100
AcDbScale
 70
     0
300
1:2
140
1.0
141
2.0
290
     0
  0
SCALE
  5
4A
102
{ACAD_REACTORS
330
47
102
}
330
47
100
AcDbScale
 70
     0
300
1:4
140
1.0
141
4.0
290
     0
  0
SCALE
  5
4B
102
{ACAD_REACTORS
330
47
102
}
330
47
100
AcDbScale
 70
     0
300
1:5
140
1.0
141
5.0
290
     0
  0
SCALE
  5
4C
102
{ACAD_REACTORS
330
47
102
}
330
47
100
AcDbScale
 70
     0
300
1:8
140
1.0
141
8.0
290
     0
  0
SCALE
  5
4D
102
{ACAD_REACTORS
330
47
102
}
330
47
100
AcDbScale
 70
     0
300
1:10
140
1.0
141
10.0
290
     0
  0
SCALE
  5
4E
102
{ACAD_REACTORS
330
47
102
}
330
47
100
AcDbScale
 70
     0
300
1:16
140
1.0
141
16.0
290
     0
  0
SCALE
  5
4F
102
{ACAD_REACTORS
330
47
102
}
330
47
100
AcDbScale
 70
     0
300
1:20
140
1.0
141
20.0
290
     0
  0
SCALE
  5
50
102
{ACAD_REACTORS
330
47
102
}
330
47
100
AcDbScale
 70
     0
300
1:30
140
1.0
141
30.0
290
     0
  0
SCALE
  5
51
102
{ACAD_REACTORS
330
47
102
}
330
47
100
AcDbScale
 70
     0
300
1:40
140
1.0
141
40.0
290
     0
  0
SCALE
  5
52
102
{ACAD_REACTORS
330
47
102
}
330
47
100
AcDbScale
 70
     0
300
1:50
140
1.0
141
50.0
290
     0
  0
SCALE
  5
53
102
{ACAD_REACTORS
330
47
102
}
330
47
100
AcDbScale
 70
     0
300
1:100
140
1.0
141
100.0
290
     0
  0
SCALE
  5
54
102
{ACAD_REACTORS
330
47
102
}
330
47
100
AcDbScale
 70
     0
300
2:1
140
2.0
141
1.0
290
     0
  0
SCALE
  5
55
102
{ACAD_REACTORS
330
47
102
}
330
47
100
AcDbScale
 70
     0
300
4:1
140
4.0
141
1.0
290
     0
  0
SCALE
  5
56
102
{ACAD_REACTORS
330
47
102
}
330
47
100
AcDbScale
 70
     0
300
8:1
140
8.0
141
1.0
290
     0
  0
SCALE
  5
57
102
{ACAD_REACTORS
330
47
102
}
330
47
100
AcDbScale
 70
     0
300
10:1
140
10.0
141
1.0
290
     0
  0
SCALE
  5
58
102
{ACAD_REACTORS
330
47
102
}
330
47
100
AcDbScale
 70
     0
300
100:1
140
100.0
141
1.0
290
     0
  0
SCALE
  5
59
102
{ACAD_REACTORS
330
47
102
}
330
47
100
AcDbScale
 70
     0
300
1/128\" = 1\'-0\"
140
0.0078125
141
12.0
290
     0
  0
SCALE
  5
5A
102
{ACAD_REACTORS
330
47
102
}
330
47
100
AcDbScale
 70
     0
300
1/64\" = 1\'-0\"
140
0.015625
141
12.0
290
     0
  0
SCALE
  5
5B
102
{ACAD_REACTORS
330
47
102
}
330
47
100
AcDbScale
 70
     0
300
1/32\" = 1\'-0\"
140
0.03125
141
12.0
290
     0
  0
SCALE
  5
5C
102
{ACAD_REACTORS
330
47
102
}
330
47
100
AcDbScale
 70
     0
300
1/16\" = 1\'-0\"
140
0.0625
141
12.0
290
     0
  0
SCALE
  5
5D
102
{ACAD_REACTORS
330
47
102
}
330
47
100
AcDbScale
 70
     0
300
3/32\" = 1\'-0\"
140
0.09375
141
12.0
290
     0
  0
SCALE
  5
5E
102
{ACAD_REACTORS
330
47
102
}
330
47
100
AcDbScale
 70
     0
300
1/8\" = 1\'-0\"
140
0.125
141
12.0
290
     0
  0
SCALE
  5
5F
102
{ACAD_REACTORS
330
47
102
}
330
47
100
AcDbScale
 70
     0
300
3/16\" = 1\'-0\"
140
0.1875
141
12.0
290
     0
  0
SCALE
  5
60
102
{ACAD_REACTORS
330
47
102
}
330
47
100
AcDbScale
 70
     0
300
1/4\" = 1\'-0\"
140
0.25
141
12.0
290
     0
  0
SCALE
  5
61
102
{ACAD_REACTORS
330
47
102
}
330
47
100
AcDbScale
 70
     0
300
3/8\" = 1\'-0\"
140
0.375
141
12.0
290
     0
  0
SCALE
  5
62
102
{ACAD_REACTORS
330
47
102
}
330
47
100
AcDbScale
 70
     0
300
1/2\" = 1\'-0\"
140
0.5
141
12.0
290
     0
  0
SCALE
  5
63
102
{ACAD_REACTORS
330
47
102
}
330
47
100
AcDbScale
 70
     0
300
3/4\" = 1\'-0\"
140
0.75
141
12.0
290
     0
  0
SCALE
  5
64
102
{ACAD_REACTORS
330
47
102
}
330
47
100
AcDbScale
 70
     0
300
1\" = 1\'-0\"
140
1.0
141
12.0
290
     0
  0
SCALE
  5
65
102
{ACAD_REACTORS
330
47
102
}
330
47
100
AcDbScale
 70
     0
300
1-1/2\" = 1\'-0\"
140
1.5
141
12.0
290
     0
  0
SCALE
  5
66
102
{ACAD_REACTORS
330
47
102
}
330
47
100
AcDbScale
 70
     0
300
3\" = 1\'-0\"
140
3.0
141
12.0
290
     0
  0
SCALE
  5
67
102
{ACAD_REACTORS
330
47
102
}
330
47
100
AcDbScale
 70
     0
300
6\" = 1\'-0\"
140
6.0
141
12.0
290
     0
  0
SCALE
  5
68
102
{ACAD_REACTORS
330
47
102
}
330
47
100
AcDbScale
 70
     0
300
1\'-0\" = 1\'-0\"
140
12.0
141
12.0
290
     0
  0
TABLESTYLE
  5
6A
102
{ACAD_REACTORS
330
69
102
}
330
69
100
AcDbTableStyle
  3
Standard
 70
     0
 71
     0
 40
0.06
 41
0.06
280
     0
281
     0
  7
Standard
140
0.18
170
     2
 62
     0
 63
   257
283
     0
274
    -2
284
     1
 64
     0
275
    -2
285
     1
 65
     0
276
    -2
286
     1
 66
     0
277
    -2
287
     1
 67
     0
278
    -2
288
     1
 68
     0
279
    -2
289
     1
 69
     0
  7
Standard
140
0.25
170
     5
 62
     0
 63
   257
283
     0
274
    -2
284
     1
 64
     0
275
    -2
285
     1
 65
     0
276
    -2
286
     1
 66
     0
277
    -2
287
     1
 67
     0
278
    -2
288
     1
 68
     0
279
    -2
289
     1
 69
     0
  7
Standard
140
0.18
170
     5
 62
     0
 63
   257
283
     0
274
    -2
284
     1
 64
     0
275
    -2
285
     1
 65
     0
276
    -2
286
     1
 66
     0
277
    -2
287
     1
 67
     0
278
    -2
288
     1
 68
     0
279
    -2
289
     1
 69
     0
  0
VISUALSTYLE
  5
2F
102
{ACAD_REACTORS
330
2A
102
}
102
{ACAD_XDICTIONARY
360
92
102
}
330
2A
100
AcDbVisualStyle
  2
2dWireframe
 70
     4
 71
     0
 72
     2
 73
     0
 90
        0
 40
0.6
 41
30.0
 62
     5
 63
     7
 74
     1
 91
        4
 64
     7
 65
   257
 75
     1
175
     1
 42
1.0
 92
        0
 66
   257
 43
1.0
 76
     1
 77
     6
 78
     2
 67
     7
 79
     5
170
     0
171
     0
290
     0
174
     0
 93
        1
 44
0.0
173
     0
291
     0
 45
0.0
1001
ACAD
1000
AcDbSavedByObjectVersion
1070
     0
  0
VISUALSTYLE
  5
32
102
{ACAD_REACTORS
330
2A
102
}
102
{ACAD_XDICTIONARY
360
98
102
}
330
2A
100
AcDbVisualStyle
  2
Basic
 70
     7
 71
     1
 72
     0
 73
     1
 90
        0
 40
0.6
 41
30.0
 62
     5
 63
     7
 74
     0
 91
        4
 64
     7
 65
   257
 75
     1
175
     1
 42
1.0
 92
        8
 66
     7
 43
1.0
 76
     1
 77
     6
 78
     2
 67
     7
 79
     5
170
     0
171
     0
290
     0
174
     0
 93
        1
 44
0.0
173
     0
291
     1
 45
0.0
1001
ACAD
1000
AcDbSavedByObjectVersion
1070
     0
  0
VISUALSTYLE
  5
36
102
{ACAD_REACTORS
330
2A
102
}
102
{ACAD_XDICTIONARY
360
A0
102
}
330
2A
100
AcDbVisualStyle
  2
Brighten
 70
    12
 71
     2
 72
     2
 73
     0
 90
        0
 40
0.6
 41
30.0
 62
     5
 63
     7
 74
     1
 91
        4
 64
     7
 65
   257
 75
     1
175
     1
 42
1.0
 92
        8
 66
     7
 43
1.0
 76
     1
 77
     6
 78
     2
 67
     7
 79
     5
170
     0
171
     0
290
     0
174
     0
 93
        1
 44
50.0
173
     0
291
     1
 45
0.0
1001
ACAD
1000
AcDbSavedByObjectVersion
1070
     0
  0
VISUALSTYLE
  5
3A
102
{ACAD_REACTORS
330
2A
102
}
102
{ACAD_XDICTIONARY
360
A8
102
}
330
2A
100
AcDbVisualStyle
  2
ColorChange
 70
    16
 71
     2
 72
     2
 73
     3
 90
        0
 40
0.6
 41
30.0
 62
     5
 63
     8
 74
     1
 91
        4
 64
     7
 65
   257
 75
     1
175
     1
 42
1.0
 92
        8
 66
     8
 43
1.0
 76
     1
 77
     6
 78
     2
 67
     7
 79
     5
170
     0
171
     0
290
     0
174
     0
 93
        1
 44
0.0
173
     0
291
     1
 45
0.0
1001
ACAD
1000
AcDbSavedByObjectVersion
1070
     0
  0
VISUALSTYLE
  5
34
102
{ACAD_REACTORS
330
2A
102
}
102
{ACAD_XDICTIONARY
360
9C
102
}
330
2A
100
AcDbVisualStyle
  2
Conceptual
 70
     9
 71
     3
 72
     2
 73
     0
 90
        0
 40
0.6
 41
30.0
 62
     5
 63
     7
 74
     2
 91
        2
 64
     7
 65
   257
 75
     1
175
     1
 42
179.0
 92
        8
 66
     7
 43
1.0
 76
     1
 77
     6
 78
     2
 67
     7
 79
     3
170
     0
171
     0
290
     0
174
     0
 93
        1
 44
0.0
173
     0
291
     0
 45
0.0
1001
ACAD
1000
AcDbSavedByObjectVersion
1070
     0
  0
VISUALSTYLE
  5
35
102
{ACAD_REACTORS
330
2A
102
}
102
{ACAD_XDICTIONARY
360
9E
102
}
330
2A
100
AcDbVisualStyle
  2
Dim
 70
    11
 71
     2
 72
     2
 73
     0
 90
        0
 40
0.6
 41
30.0
 62
     5
 63
     7
 74
     1
 91
        4
 64
     7
 65
   257
 75
     1
175
     1
 42
1.0
 92
        8
 66
     7
 43
1.0
 76
     1
 77
     6
 78
     2
 67
     7
 79
     5
170
     0
171
     0
290
     0
174
     0
 93
        1
 44
-50.0
173
     0
291
     1
 45
0.0
1001
ACAD
1000
AcDbSavedByObjectVersion
1070
     0
  0
VISUALSTYLE
  5
3D
102
{ACAD_REACTORS
330
2A
102
}
102
{ACAD_XDICTIONARY
360
AE
102
}
330
2A
100
AcDbVisualStyle
  2
EdgeColorOff
 70
    22
 71
     2
 72
     2
 73
     0
 90
        0
 40
0.6
 41
30.0
 62
     5
 63
     7
 74
     1
 91
        4
 64
     7
 65
   257
 75
     1
175
     1
 42
1.0
 92
        8
 66
     7
 43
1.0
 76
     1
 77
     6
 78
     2
 67
     7
 79
     5
170
     0
171
     0
290
     0
174
     0
 93
        1
 44
0.0
173
     0
291
     1
 45
0.0
1001
ACAD
1000
AcDbSavedByObjectVersion
1070
     0
  0
VISUALSTYLE
  5
39
102
{ACAD_REACTORS
330
2A
102
}
102
{ACAD_XDICTIONARY
360
A6
102
}
330
2A
100
AcDbVisualStyle
  2
Facepattern
 70
    15
 71
     2
 72
     2
 73
     0
 90
        0
 40
0.6
 41
30.0
 62
     5
 63
     7
 74
     1
 91
        4
 64
     7
 65
   257
 75
     1
175
     1
 42
1.0
 92
        8
 66
     7
 43
1.0
 76
     1
 77
     6
 78
     2
 67
     7
 79
     5
170
     0
171
     0
290
     0
174
     0
 93
        1
 44
0.0
173
     0
291
     1
 45
0.0
1001
ACAD
1000
AcDbSavedByObjectVersion
1070
     0
  0
VISUALSTYLE
  5
2B
102
{ACAD_REACTORS
330
2A
102
}
102
{ACAD_XDICTIONARY
360
8A
102
}
330
2A
100
AcDbVisualStyle
  2
Flat
 70
     0
 71
     2
 72
     1
 73
     1
 90
        2
 40
0.6
 41
30.0
 62
     5
 63
     7
 74
     0
 91
        0
 64
     7
 65
   257
 75
     1
175
     1
 42
1.0
 92
        8
 66
     7
 43
1.0
 76
     1
 77
     6
 78
     2
 67
     7
 79
     5
170
     0
171
     0
290
     0
174
     0
 93
       13
 44
0.0
173
     0
291
     1
 45
0.0
1001
ACAD
1000
AcDbSavedByObjectVersion
1070
     0
  0
VISUALSTYLE
  5
2C
102
{ACAD_REACTORS
330
2A
102
}
102
{ACAD_XDICTIONARY
360
8C
102
}
330
2A
100
AcDbVisualStyle
  2
FlatWithEdges
 70
     1
 71
     2
 72
     1
 73
     1
 90
        2
 40
0.6
 41
30.0
 62
     5
 63
     7
 74
     1
 91
        0
 64
     7
 65
   257
 75
     1
175
     1
 42
1.0
 92
        0
 66
   257
 43
1.0
 76
     1
 77
     6
 78
     2
 67
     7
 79
     5
170
     0
171
     0
290
     0
174
     0
 93
       13
 44
0.0
173
     0
291
     1
 45
0.0
1001
ACAD
1000
AcDbSavedByObjectVersion
1070
     0
  0
VISUALSTYLE
  5
2D
102
{ACAD_REACTORS
330
2A
102
}
102
{ACAD_XDICTIONARY
360
8E
102
}
330
2A
100
AcDbVisualStyle
  2
Gouraud
 70
     2
 71
     2
 72
     2
 73
     1
 90
        2
 40
0.6
 41
30.0
 62
     5
 63
     7
 74
     0
 91
        0
 64
     7
 65
   257
 75
     1
175
     1
 42
1.0
 92
        0
 66
     7
 43
1.0
 76
     1
 77
     6
 78
     2
 67
     7
 79
     5
170
     0
171
     0
290
     0
174
     0
 93
       13
 44
0.0
173
     0
291
     1
 45
0.0
1001
ACAD
1000
AcDbSavedByObjectVersion
1070
     0
  0
VISUALSTYLE
  5
2E
102
{ACAD_REACTORS
330
2A
102
}
102
{ACAD_XDICTIONARY
360
90
102
}
330
2A
100
AcDbVisualStyle
  2
GouraudWithEdges
 70
     3
 71
     2
 72
     2
 73
     1
 90
        2
 40
0.6
 41
30.0
 62
     5
 63
     7
 74
     1
 91
        0
 64
     7
 65
   257
 75
     1
175
     1
 42
1.0
 92
        0
 66
   257
 43
1.0
 76
     1
 77
     6
 78
     2
 67
     7
 79
     5
170
     0
171
     0
290
     0
174
     0
 93
       13
 44
0.0
173
     0
291
     1
 45
0.0
1001
ACAD
1000
AcDbSavedByObjectVersion
1070
     0
  0
VISUALSTYLE
  5
31
102
{ACAD_REACTORS
330
2A
102
}
102
{ACAD_XDICTIONARY
360
96
102
}
330
2A
100
AcDbVisualStyle
  2
Hidden
 70
     6
 71
     1
 72
     2
 73
     2
 90
        0
 40
0.6
 41
30.0
 62
     5
 63
     7
 74
     2
 91
        2
 64
     7
 65
   257
 75
     2
175
     1
 42
40.0
 92
        0
 66
   257
 43
1.0
 76
     1
 77
     6
 78
     2
 67
     7
 79
     3
170
     0
171
     0
290
     0
174
     0
 93
        1
 44
0.0
173
     0
291
     0
 45
0.0
1001
ACAD
1000
AcDbSavedByObjectVersion
1070
     0
  0
VISUALSTYLE
  5
3B
102
{ACAD_REACTORS
330
2A
102
}
102
{ACAD_XDICTIONARY
360
AA
102
}
330
2A
100
AcDbVisualStyle
  2
JitterOff
 70
    20
 71
     2
 72
     2
 73
     0
 90
        0
 40
0.6
 41
30.0
 62
     5
 63
     7
 74
     1
 91
        4
 64
     7
 65
   257
 75
     1
175
     1
 42
1.0
 92
       10
 66
     7
 43
1.0
 76
     1
 77
     6
 78
     2
 67
     7
 79
     5
170
     0
171
     0
290
     0
174
     0
 93
        1
 44
0.0
173
     0
291
     1
 45
0.0
1001
ACAD
1000
AcDbSavedByObjectVersion
1070
     0
  0
VISUALSTYLE
  5
38
102
{ACAD_REACTORS
330
2A
102
}
102
{ACAD_XDICTIONARY
360
A4
102
}
330
2A
100
AcDbVisualStyle
  2
Linepattern
 70
    14
 71
     2
 72
     2
 73
     0
 90
        0
 40
0.6
 41
30.0
 62
     5
 63
     7
 74
     1
 91
        4
 64
     7
 65
   257
 75
     7
175
     7
 42
1.0
 92
        8
 66
     7
 43
1.0
 76
     1
 77
     6
 78
     2
 67
     7
 79
     5
170
     0
171
     0
290
     0
174
     0
 93
        1
 44
0.0
173
     0
291
     1
 45
0.0
1001
ACAD
1000
AcDbSavedByObjectVersion
1070
     0
  0
VISUALSTYLE
  5
3C
102
{ACAD_REACTORS
330
2A
102
}
102
{ACAD_XDICTIONARY
360
AC
102
}
330
2A
100
AcDbVisualStyle
  2
OverhangOff
 70
    21
 71
     2
 72
     2
 73
     0
 90
        0
 40
0.6
 41
30.0
 62
     5
 63
     7
 74
     1
 91
        4
 64
     7
 65
   257
 75
     1
175
     1
 42
1.0
 92
        9
 66
     7
 43
1.0
 76
     1
 77
     6
 78
     2
 67
     7
 79
     5
170
     0
171
     0
290
     0
174
     0
 93
        1
 44
0.0
173
     0
291
     1
 45
0.0
1001
ACAD
1000
AcDbSavedByObjectVersion
1070
     0
  0
VISUALSTYLE
  5
33
102
{ACAD_REACTORS
330
2A
102
}
102
{ACAD_XDICTIONARY
360
9A
102
}
330
2A
100
AcDbVisualStyle
  2
Realistic
 70
     8
 71
     2
 72
     3
 73
     0
 90
        2
 40
0.6
 41
30.0
 62
     5
 63
     7
 74
     0
 91
        0
 64
     7
 65
   257
 75
     1
175
     1
 42
1.0
 92
        8
 66
   257
 43
1.0
 76
     1
 77
     6
 78
     2
 67
     7
 79
     3
170
     0
171
     0
290
     0
174
     0
 93
       13
 44
0.0
173
     0
291
     0
 45
0.0
1001
ACAD
1000
AcDbSavedByObjectVersion
1070
     0
  0
VISUALSTYLE
  5
42
102
{ACAD_REACTORS
330
2A
102
}
102
{ACAD_XDICTIONARY
360
B8
102
}
330
2A
100
AcDbVisualStyle
  2
Shaded
 70
    27
 71
     2
 72
     2
 73
     1
 90
        2
 40
0.6
 41
30.0
 62
     5
 63
     7
 74
     0
 91
        4
 64
     7
 65
   257
 75
     1
175
     1
 42
1.0
 92
        8
 66
   257
 43
1.0
 76
     1
 77
     6
 78
     2
 67
     8
 79
     3
170
     0
171
     0
290
     0
174
     0
 93
        5
 44
0.0
173
     0
291
     0
 45
0.0
1001
ACAD
1000
AcDbSavedByObjectVersion
1070
     0
  0
VISUALSTYLE
  5
41
102
{ACAD_REACTORS
330
2A
102
}
102
{ACAD_XDICTIONARY
360
B6
102
}
330
2A
100
AcDbVisualStyle
  2
Shaded with edges
 70
    26
 71
     2
 72
     2
 73
     1
 90
        2
 40
0.6
 41
30.0
 62
     5
 63
     7
 74
     1
 91
       10
 64
     7
 65
   257
 75
     2
175
     1
 42
1.0
 92
        8
 66
   257
 43
1.0
 76
     1
 77
     6
 78
     2
 67
     7
 79
     3
170
     0
171
     0
290
     0
174
     0
 93
        5
 44
0.0
173
     0
291
     0
 45
0.0
1001
ACAD
1000
AcDbSavedByObjectVersion
1070
     0
  0
VISUALSTYLE
  5
3E
102
{ACAD_REACTORS
330
2A
102
}
102
{ACAD_XDICTIONARY
360
B0
102
}
330
2A
100
AcDbVisualStyle
  2
Shades of Gray
 70
    23
 71
     2
 72
     2
 73
     3
 90
        0
 40
0.6
 41
30.0
 62
     5
 63
     7
 74
     2
 91
        2
 64
     7
 65
     7
 75
     1
175
     1
 42
40.0
 92
        8
 66
     7
 43
1.0
 76
     1
 77
     6
 78
     2
 67
     7
 79
     3
170
     0
171
     0
290
     0
174
     0
 93
        1
 44
0.0
173
     0
291
     0
 45
0.0
1001
ACAD
1000
AcDbSavedByObjectVersion
1070
     0
  0
VISUALSTYLE
  5
3F
102
{ACAD_REACTORS
330
2A
102
}
102
{ACAD_XDICTIONARY
360
B2
102
}
330
2A
100
AcDbVisualStyle
  2
Sketchy
 70
    24
 71
     1
 72
     2
 73
     2
 90
        0
 40
0.6
 41
30.0
 62
     5
 63
     7
 74
     2
 91
        2
 64
     7
 65
     7
 75
     1
175
     1
 42
40.0
 92
       11
 66
     7
 43
1.0
 76
     1
 77
     6
 78
     2
 67
     7
 79
     6
170
     0
171
     0
290
     0
174
     0
 93
        1
 44
0.0
173
     0
291
     0
 45
0.0
1001
ACAD
1000
AcDbSavedByObjectVersion
1070
     0
  0
VISUALSTYLE
  5
37
102
{ACAD_REACTORS
330
2A
102
}
102
{ACAD_XDICTIONARY
360
A2
102
}
330
2A
100
AcDbVisualStyle
  2
Thicken
 70
    13
 71
     2
 72
     2
 73
     0
 90
        0
 40
0.6
 41
30.0
 62
     5
 63
     7
 74
     1
 91
        4
 64
     7
 65
   257
 75
     1
175
     1
 42
1.0
 92
       12
 66
     7
 43
1.0
 76
     1
 77
     6
 78
     2
 67
     7
 79
     5
170
     0
171
     0
290
     0
174
     0
 93
        1
 44
0.0
173
     0
291
     1
 45
0.0
1001
ACAD
1000
AcDbSavedByObjectVersion
1070
     0
  0
VISUALSTYLE
  5
30
102
{ACAD_REACTORS
330
2A
102
}
102
{ACAD_XDICTIONARY
360
94
102
}
330
2A
100
AcDbVisualStyle
  2
Wireframe
 70
     5
 71
     0
 72
     2
 73
     0
 90
        0
 40
0.6
 41
30.0
 62
     5
 63
     7
 74
     1
 91
        4
 64
     7
 65
   257
 75
     1
175
     1
 42
1.0
 92
        0
 66
   257
 43
1.0
 76
     1
 77
     6
 78
     2
 67
     7
 79
     3
170
     0
171
     0
290
     0
174
     0
 93
        1
 44
0.0
173
     0
291
     0
 45
0.0
1001
ACAD
1000
AcDbSavedByObjectVersion
1070
     0
  0
VISUALSTYLE
  5
40
102
{ACAD_REACTORS
330
2A
102
}
102
{ACAD_XDICTIONARY
360
B4
102
}
330
2A
100
AcDbVisualStyle
  2
X-Ray
 70
    25
 71
     2
 72
     2
 73
     1
 90
        1
 40
0.5
 41
30.0
 62
     5
 63
     7
 74
     1
 91
        0
 64
     7
 65
   257
 75
     1
175
     1
 42
1.0
 92
        8
 66
     7
 43
1.0
 76
     1
 77
     6
 78
     2
 67
     7
 79
     3
170
     0
171
     0
290
     0
174
     0
 93
       13
 44
0.0
173
     0
291
     0
 45
0.0
1001
ACAD
1000
AcDbSavedByObjectVersion
1070
     0
  0
DICTIONARYVAR
  5
88
102
{ACAD_REACTORS
330
7F
102
}
330
7F
100
DictionaryVariables
280
     0
  1
1:1
  0
DICTIONARYVAR
  5
81
102
{ACAD_REACTORS
330
7F
102
}
330
7F
100
DictionaryVariables
280
     0
  1
Standard
  0
DICTIONARYVAR
  5
80
102
{ACAD_REACTORS
330
7F
102
}
330
7F
100
DictionaryVariables
280
     0
  1
Standard
  0
DICTIONARYVAR
  5
84
102
{ACAD_REACTORS
330
7F
102
}
330
7F
100
DictionaryVariables
280
     0
  1
2
  0
DICTIONARYVAR
  5
85
102
{ACAD_REACTORS
330
7F
102
}
330
7F
100
DictionaryVariables
280
     0
  1
1
  0
DICTIONARYVAR
  5
89
102
{ACAD_REACTORS
330
7F
102
}
330
7F
100
DictionaryVariables
280
     0
  1
1
  0
DICTIONARY
  5
BC
330
45
100
AcDbDictionary
280
     1
281
     1
  3
ACAD_XREC_ROUNDTRIP
360
BD
  0
DICTIONARY
  5
BA
330
44
100
AcDbDictionary
280
     1
281
     1
  3
ACAD_XREC_ROUNDTRIP
360
BB
  0
DICTIONARY
  5
BE
330
46
100
AcDbDictionary
280
     1
281
     1
  3
ACAD_XREC_ROUNDTRIP
360
BF
  0
DICTIONARY
  5
C1
330
6C
100
AcDbDictionary
280
     1
281
     1
  3
ACAD_XREC_ROUNDTRIP
360
C2
  0
DICTIONARY
  5
92
330
2F
100
AcDbDictionary
280
     1
281
     1
  3
ACAD_XREC_ROUNDTRIP
360
93
  0
DICTIONARY
  5
98
330
32
100
AcDbDictionary
280
     1
281
     1
  3
ACAD_XREC_ROUNDTRIP
360
99
  0
DICTIONARY
  5
A0
330
36
100
AcDbDictionary
280
     1
281
     1
  3
ACAD_XREC_ROUNDTRIP
360
A1
  0
DICTIONARY
  5
A8
330
3A
100
AcDbDictionary
280
     1
281
     1
  3
ACAD_XREC_ROUNDTRIP
360
A9
  0
DICTIONARY
  5
9C
330
34
100
AcDbDictionary
280
     1
281
     1
  3
ACAD_XREC_ROUNDTRIP
360
9D
  0
DICTIONARY
  5
9E
330
35
100
AcDbDictionary
280
     1
281
     1
  3
ACAD_XREC_ROUNDTRIP
360
9F
  0
DICTIONARY
  5
AE
330
3D
100
AcDbDictionary
280
     1
281
     1
  3
ACAD_XREC_ROUNDTRIP
360
AF
  0
DICTIONARY
  5
A6
330
39
100
AcDbDictionary
280
     1
281
     1
  3
ACAD_XREC_ROUNDTRIP
360
A7
  0
DICTIONARY
  5
8A
330
2B
100
AcDbDictionary
280
     1
281
     1
  3
ACAD_XREC_ROUNDTRIP
360
8B
  0
DICTIONARY
  5
8C
330
2C
100
AcDbDictionary
280
     1
281
     1
  3
ACAD_XREC_ROUNDTRIP
360
8D
  0
DICTIONARY
  5
8E
330
2D
100
AcDbDictionary
280
     1
281
     1
  3
ACAD_XREC_ROUNDTRIP
360
8F
  0
DICTIONARY
  5
90
330
2E
100
AcDbDictionary
280
     1
281
     1
  3
ACAD_XREC_ROUNDTRIP
360
91
  0
DICTIONARY
  5
96
330
31
100
AcDbDictionary
280
     1
281
     1
  3
ACAD_XREC_ROUNDTRIP
360
97
  0
DICTIONARY
  5
AA
330
3B
100
AcDbDictionary
280
     1
281
     1
  3
ACAD_XREC_ROUNDTRIP
360
AB
  0
DICTIONARY
  5
A4
330
38
100
AcDbDictionary
280
     1
281
     1
  3
ACAD_XREC_ROUNDTRIP
360
A5
  0
DICTIONARY
  5
AC
330
3C
100
AcDbDictionary
280
     1
281
     1
  3
ACAD_XREC_ROUNDTRIP
360
AD
  0
DICTIONARY
  5
9A
330
33
100
AcDbDictionary
280
     1
281
     1
  3
ACAD_XREC_ROUNDTRIP
360
9B
  0
DICTIONARY
  5
B8
330
42
100
AcDbDictionary
280
     1
281
     1
  3
ACAD_XREC_ROUNDTRIP
360
B9
  0
DICTIONARY
  5
B6
330
41
100
AcDbDictionary
280
     1
281
     1
  3
ACAD_XREC_ROUNDTRIP
360
B7
  0
DICTIONARY
  5
B0
330
3E
100
AcDbDictionary
280
     1
281
     1
  3
ACAD_XREC_ROUNDTRIP
360
B1
  0
DICTIONARY
  5
B2
330
3F
100
AcDbDictionary
280
     1
281
     1
  3
ACAD_XREC_ROUNDTRIP
360
B3
  0
DICTIONARY
  5
A2
330
37
100
AcDbDictionary
280
     1
281
     1
  3
ACAD_XREC_ROUNDTRIP
360
A3
  0
DICTIONARY
  5
94
330
30
100
AcDbDictionary
280
     1
281
     1
  3
ACAD_XREC_ROUNDTRIP
360
95
  0
DICTIONARY
  5
B4
330
40
100
AcDbDictionary
280
     1
281
     1
  3
ACAD_XREC_ROUNDTRIP
360
B5
  0
XRECORD
  5
BD
102
{ACAD_REACTORS
330
BC
102
}
330
BC
100
AcDbXrecord
280
     1
102
MATERIAL
148
0.0
149
0.0
149
0.0
 93
        0
 94
      127
282
     0
 72
     1
 77
     1
171
     1
175
     1
179
     1
273
     0
  0
XRECORD
  5
BB
102
{ACAD_REACTORS
330
BA
102
}
330
BA
100
AcDbXrecord
280
     1
102
MATERIAL
148
0.0
149
0.0
149
0.0
 93
        0
 94
      127
282
     0
 72
     1
 77
     1
171
     1
175
     1
179
     1
273
     0
  0
XRECORD
  5
BF
102
{ACAD_REACTORS
330
BE
102
}
330
BE
100
AcDbXrecord
280
     1
102
MATERIAL
148
0.0
149
0.0
149
0.0
 93
        0
 94
      127
282
     0
 72
     1
 77
     1
171
     1
175
     1
179
     1
273
     0
  0
XRECORD
  5
C2
102
{ACAD_REACTORS
330
C1
102
}
330
C1
100
AcDbXrecord
280
     1
102
ACAD_ROUNDTRIP_2010_MLEADER_STYLE
  0
XRECORD
  5
93
102
{ACAD_REACTORS
330
92
102
}
330
92
100
AcDbXrecord
280
     1
102
RTVSPropertyOp0
 70
     1
102
RTVSPropertyOp1
 70
     1
102
RTVSPropertyOp2
 70
     1
102
RTVSPropertyOp3
 70
     1
102
RTVSPropertyOp4
 70
     1
102
RTVSPropertyOp5
 70
     1
102
RTVSPropertyOp6
 70
     1
102
RTVSPropertyOp7
 70
     1
102
RTVSPropertyOp8
 70
     1
102
RTVSPropertyOp9
 70
     1
102
RTVSPropertyOp10
 70
     1
102
RTVSPropertyOp11
 70
     1
102
RTVSPropertyOp12
 70
     1
102
RTVSPropertyOp13
 70
     1
102
RTVSPropertyOp14
 70
     1
102
RTVSPropertyOp15
 70
     1
102
RTVSPropertyOp16
 70
     1
102
RTVSPropertyOp17
 70
     1
102
RTVSPropertyOp18
 70
     1
102
RTVSPropertyOp19
 70
     1
102
RTVSPropertyOp20
 70
     1
102
RTVSPropertyOp21
 70
     1
102
RTVSPropertyOp22
 70
     1
102
RTVSPropertyOp23
 70
     1
102
RTVSPropertyOp24
 70
     1
102
RTVSPropertyOp25
 70
     1
102
RTVSPropertyOp26
 70
     1
102
RTVSPropertyOp27
 70
     1
102
RTVSPropertyOp28
 70
     1
102
RTVSPropertyOp29
 70
     1
102
RTVSPropertyOp30
 70
     1
102
RTVSPropertyOp31
 70
     1
102
RTVSPropertyOp32
 70
     1
102
RTVSPropertyOp33
 70
     1
102
RTVSPropertyOp34
 70
     1
102
RTVSPropertyOp35
 70
     1
102
RTVSPropertyOp36
 70
     1
102
RTVSPropertyOp37
 70
     1
102
RTVSPropertyOp38
 70
     1
102
RTVSPropertyOp39
 70
     1
102
RTVSPropertyOp40
 70
     1
102
RTVSPropertyOp41
 70
     1
102
RTVSPropertyOp42
 70
     1
102
RTVSPropertyOp43
 70
     1
102
RTVSPropertyOp44
 70
     1
102
RTVSPropertyOp45
 70
     1
102
RTVSPropertyOp46
 70
     1
102
RTVSPropertyOp47
 70
     1
102
RTVSPropertyOp48
 70
     1
102
RTVSPropertyOp49
 70
     1
102
RTVSPropertyOp50
 70
     1
102
RTVSPropertyOp51
 70
     0
102
RTVSPropertyOp52
 70
     0
102
RTVSPropertyOp53
 70
     1
102
RTVSPropertyOp54
 70
     1
102
RTVSPropertyOp55
 70
     1
102
RTVSPropertyOp56
 70
     1
102
RTVSPropertyOp57
 70
     1
102
RTVSPost2010Prop28
280
     1
102
RTVSPost2010PropOp28
 70
     1
102
RTVSPost2010Prop29
280
     1
102
RTVSPost2010PropOp29
 70
     1
102
RTVSPost2010Prop30
280
     0
102
RTVSPost2010PropOp30
 70
     1
102
RTVSPost2010Prop31
280
     0
102
RTVSPost2010PropOp31
 70
     1
102
RTVSPost2010Prop32
280
     0
102
RTVSPost2010PropOp32
 70
     1
102
RTVSPost2010Prop33
280
     0
102
RTVSPost2010PropOp33
 70
     1
102
RTVSPost2010Prop34
280
     0
102
RTVSPost2010PropOp34
 70
     1
102
RTVSPost2010Prop35
280
     0
102
RTVSPost2010PropOp35
 70
     1
102
RTVSPost2010Prop36
280
     0
102
RTVSPost2010PropOp36
 70
     1
102
RTVSPost2010Prop37
 90
       50
102
RTVSPost2010PropOp37
 70
     1
102
RTVSPost2010Prop38
140
0.0
102
RTVSPost2010PropOp38
 70
     1
102
RTVSPost2010Prop39
140
1.0
102
RTVSPost2010PropOp39
 70
     1
102
RTVSPost2010Prop40
 90
        0
102
RTVSPost2010PropOp40
 70
     1
102
RTVSPost2010Prop41ColorIndex
 90
       18
102
RTVSPost2010Prop41ColorRGB
 90
        0
102
RTVSPost2010PropOp41
 70
     1
102
RTVSPost2010Prop42
 90
       50
102
RTVSPost2010PropOp42
 70
     1
102
RTVSPost2010Prop43
 90
        3
102
RTVSPost2010PropOp43
 70
     1
102
RTVSPost2010Prop44ColorIndex
 90
        5
102
RTVSPost2010Prop44ColorRGB
 90
      255
102
RTVSPost2010PropOp44
 70
     1
102
RTVSPost2010Prop45
280
     0
102
RTVSPost2010PropOp45
 70
     1
102
RTVSPost2010Prop46
 90
       50
102
RTVSPost2010PropOp46
 70
     1
102
RTVSPost2010Prop47
 90
       50
102
RTVSPost2010PropOp47
 70
     1
102
RTVSPost2010Prop48
 90
       50
102
RTVSPost2010PropOp48
 70
     1
102
RTVSPost2010Prop49
280
     0
102
RTVSPost2010PropOp49
 70
     1
102
RTVSPost2010Prop50
 90
       50
102
RTVSPost2010PropOp50
 70
     1
102
RTVSPost2010Prop51ColorIndex
 90
      256
102
RTVSPost2010Prop51ColorRGB
 90
-16777216
102
RTVSPost2010PropOp51
 70
     0
102
RTVSPost2010Prop52
140
1.0
102
RTVSPost2010PropOp52
 70
     0
102
RTVSPost2010Prop53
 90
        2
102
RTVSPost2010PropOp53
 70
     1
102
RTVSPost2010Prop54
  1
strokes_ogs.tif
102
RTVSPost2010PropOp54
 70
     1
102
RTVSPost2010Prop55
280
     0
102
RTVSPost2010PropOp55
 70
     1
102
RTVSPost2010Prop56
140
1.0
102
RTVSPost2010PropOp56
 70
     1
102
RTVSPost2010Prop57
140
1.0
102
RTVSPost2010PropOp57
 70
     1
  0
XRECORD
  5
99
102
{ACAD_REACTORS
330
98
102
}
330
98
100
AcDbXrecord
280
     1
102
RTVSPropertyOp0
 70
     1
102
RTVSPropertyOp1
 70
     1
102
RTVSPropertyOp2
 70
     1
102
RTVSPropertyOp3
 70
     1
102
RTVSPropertyOp4
 70
     1
102
RTVSPropertyOp5
 70
     1
102
RTVSPropertyOp6
 70
     1
102
RTVSPropertyOp7
 70
     1
102
RTVSPropertyOp8
 70
     1
102
RTVSPropertyOp9
 70
     1
102
RTVSPropertyOp10
 70
     1
102
RTVSPropertyOp11
 70
     1
102
RTVSPropertyOp12
 70
     1
102
RTVSPropertyOp13
 70
     1
102
RTVSPropertyOp14
 70
     1
102
RTVSPropertyOp15
 70
     1
102
RTVSPropertyOp16
 70
     1
102
RTVSPropertyOp17
 70
     1
102
RTVSPropertyOp18
 70
     1
102
RTVSPropertyOp19
 70
     1
102
RTVSPropertyOp20
 70
     1
102
RTVSPropertyOp21
 70
     1
102
RTVSPropertyOp22
 70
     1
102
RTVSPropertyOp23
 70
     1
102
RTVSPropertyOp24
 70
     1
102
RTVSPropertyOp25
 70
     1
102
RTVSPropertyOp26
 70
     1
102
RTVSPropertyOp27
 70
     1
102
RTVSPropertyOp28
 70
     1
102
RTVSPropertyOp29
 70
     1
102
RTVSPropertyOp30
 70
     1
102
RTVSPropertyOp31
 70
     1
102
RTVSPropertyOp32
 70
     1
102
RTVSPropertyOp33
 70
     1
102
RTVSPropertyOp34
 70
     1
102
RTVSPropertyOp35
 70
     1
102
RTVSPropertyOp36
 70
     1
102
RTVSPropertyOp37
 70
     1
102
RTVSPropertyOp38
 70
     1
102
RTVSPropertyOp39
 70
     1
102
RTVSPropertyOp40
 70
     1
102
RTVSPropertyOp41
 70
     1
102
RTVSPropertyOp42
 70
     1
102
RTVSPropertyOp43
 70
     1
102
RTVSPropertyOp44
 70
     1
102
RTVSPropertyOp45
 70
     1
102
RTVSPropertyOp46
 70
     1
102
RTVSPropertyOp47
 70
     1
102
RTVSPropertyOp48
 70
     1
102
RTVSPropertyOp49
 70
     1
102
RTVSPropertyOp50
 70
     1
102
RTVSPropertyOp51
 70
     0
102
RTVSPropertyOp52
 70
     0
102
RTVSPropertyOp53
 70
     1
102
RTVSPropertyOp54
 70
     1
102
RTVSPropertyOp55
 70
     1
102
RTVSPropertyOp56
 70
     1
102
RTVSPropertyOp57
 70
     1
102
RTVSPost2010Prop28
280
     0
102
RTVSPost2010PropOp28
 70
     1
102
RTVSPost2010Prop29
280
     1
102
RTVSPost2010PropOp29
 70
     1
102
RTVSPost2010Prop30
280
     1
102
RTVSPost2010PropOp30
 70
     1
102
RTVSPost2010Prop31
280
     0
102
RTVSPost2010PropOp31
 70
     1
102
RTVSPost2010Prop32
280
     0
102
RTVSPost2010PropOp32
 70
     1
102
RTVSPost2010Prop33
280
     0
102
RTVSPost2010PropOp33
 70
     1
102
RTVSPost2010Prop34
280
     0
102
RTVSPost2010PropOp34
 70
     1
102
RTVSPost2010Prop35
280
     0
102
RTVSPost2010PropOp35
 70
     1
102
RTVSPost2010Prop36
280
     0
102
RTVSPost2010PropOp36
 70
     1
102
RTVSPost2010Prop37
 90
       50
102
RTVSPost2010PropOp37
 70
     1
102
RTVSPost2010Prop38
140
0.0
102
RTVSPost2010PropOp38
 70
     1
102
RTVSPost2010Prop39
140
1.0
102
RTVSPost2010PropOp39
 70
     1
102
RTVSPost2010Prop40
 90
        0
102
RTVSPost2010PropOp40
 70
     1
102
RTVSPost2010Prop41ColorIndex
 90
       18
102
RTVSPost2010Prop41ColorRGB
 90
        0
102
RTVSPost2010PropOp41
 70
     1
102
RTVSPost2010Prop42
 90
       50
102
RTVSPost2010PropOp42
 70
     1
102
RTVSPost2010Prop43
 90
        3
102
RTVSPost2010PropOp43
 70
     1
102
RTVSPost2010Prop44ColorIndex
 90
        5
102
RTVSPost2010Prop44ColorRGB
 90
      255
102
RTVSPost2010PropOp44
 70
     1
102
RTVSPost2010Prop45
280
     0
102
RTVSPost2010PropOp45
 70
     1
102
RTVSPost2010Prop46
 90
       50
102
RTVSPost2010PropOp46
 70
     1
102
RTVSPost2010Prop47
 90
       50
102
RTVSPost2010PropOp47
 70
     1
102
RTVSPost2010Prop48
 90
       50
102
RTVSPost2010PropOp48
 70
     1
102
RTVSPost2010Prop49
280
     0
102
RTVSPost2010PropOp49
 70
     1
102
RTVSPost2010Prop50
 90
       50
102
RTVSPost2010PropOp50
 70
     1
102
RTVSPost2010Prop51ColorIndex
 90
      256
102
RTVSPost2010Prop51ColorRGB
 90
-16777216
102
RTVSPost2010PropOp51
 70
     0
102
RTVSPost2010Prop52
140
1.0
102
RTVSPost2010PropOp52
 70
     0
102
RTVSPost2010Prop53
 90
        2
102
RTVSPost2010PropOp53
 70
     1
102
RTVSPost2010Prop54
  1
strokes_ogs.tif
102
RTVSPost2010PropOp54
 70
     1
102
RTVSPost2010Prop55
280
     0
102
RTVSPost2010PropOp55
 70
     1
102
RTVSPost2010Prop56
140
1.0
102
RTVSPost2010PropOp56
 70
     1
102
RTVSPost2010Prop57
140
1.0
102
RTVSPost2010PropOp57
 70
     1
  0
XRECORD
  5
A1
102
{ACAD_REACTORS
330
A0
102
}
330
A0
100
AcDbXrecord
280
     1
102
RTVSPropertyOp0
 70
     1
102
RTVSPropertyOp1
 70
     1
102
RTVSPropertyOp2
 70
     1
102
RTVSPropertyOp3
 70
     1
102
RTVSPropertyOp4
 70
     1
102
RTVSPropertyOp5
 70
     1
102
RTVSPropertyOp6
 70
     1
102
RTVSPropertyOp7
 70
     1
102
RTVSPropertyOp8
 70
     1
102
RTVSPropertyOp9
 70
     1
102
RTVSPropertyOp10
 70
     1
102
RTVSPropertyOp11
 70
     1
102
RTVSPropertyOp12
 70
     1
102
RTVSPropertyOp13
 70
     1
102
RTVSPropertyOp14
 70
     1
102
RTVSPropertyOp15
 70
     1
102
RTVSPropertyOp16
 70
     1
102
RTVSPropertyOp17
 70
     1
102
RTVSPropertyOp18
 70
     1
102
RTVSPropertyOp19
 70
     1
102
RTVSPropertyOp20
 70
     1
102
RTVSPropertyOp21
 70
     1
102
RTVSPropertyOp22
 70
     1
102
RTVSPropertyOp23
 70
     1
102
RTVSPropertyOp24
 70
     1
102
RTVSPropertyOp25
 70
     1
102
RTVSPropertyOp26
 70
     1
102
RTVSPropertyOp27
 70
     1
102
RTVSPropertyOp28
 70
     1
102
RTVSPropertyOp29
 70
     1
102
RTVSPropertyOp30
 70
     1
102
RTVSPropertyOp31
 70
     1
102
RTVSPropertyOp32
 70
     1
102
RTVSPropertyOp33
 70
     1
102
RTVSPropertyOp34
 70
     1
102
RTVSPropertyOp35
 70
     1
102
RTVSPropertyOp36
 70
     1
102
RTVSPropertyOp37
 70
     1
102
RTVSPropertyOp38
 70
     1
102
RTVSPropertyOp39
 70
     1
102
RTVSPropertyOp40
 70
     1
102
RTVSPropertyOp41
 70
     1
102
RTVSPropertyOp42
 70
     1
102
RTVSPropertyOp43
 70
     1
102
RTVSPropertyOp44
 70
     1
102
RTVSPropertyOp45
 70
     1
102
RTVSPropertyOp46
 70
     1
102
RTVSPropertyOp47
 70
     1
102
RTVSPropertyOp48
 70
     1
102
RTVSPropertyOp49
 70
     1
102
RTVSPropertyOp50
 70
     1
102
RTVSPropertyOp51
 70
     0
102
RTVSPropertyOp52
 70
     0
102
RTVSPropertyOp53
 70
     1
102
RTVSPropertyOp54
 70
     1
102
RTVSPropertyOp55
 70
     1
102
RTVSPropertyOp56
 70
     1
102
RTVSPropertyOp57
 70
     1
102
RTVSPost2010Prop28
280
     0
102
RTVSPost2010PropOp28
 70
     1
102
RTVSPost2010Prop29
280
     1
102
RTVSPost2010PropOp29
 70
     1
102
RTVSPost2010Prop30
280
     1
102
RTVSPost2010PropOp30
 70
     1
102
RTVSPost2010Prop31
280
     0
102
RTVSPost2010PropOp31
 70
     1
102
RTVSPost2010Prop32
280
     0
102
RTVSPost2010PropOp32
 70
     1
102
RTVSPost2010Prop33
280
     0
102
RTVSPost2010PropOp33
 70
     1
102
RTVSPost2010Prop34
280
     0
102
RTVSPost2010PropOp34
 70
     1
102
RTVSPost2010Prop35
280
     0
102
RTVSPost2010PropOp35
 70
     1
102
RTVSPost2010Prop36
280
     0
102
RTVSPost2010PropOp36
 70
     1
102
RTVSPost2010Prop37
 90
       50
102
RTVSPost2010PropOp37
 70
     1
102
RTVSPost2010Prop38
140
0.0
102
RTVSPost2010PropOp38
 70
     1
102
RTVSPost2010Prop39
140
1.0
102
RTVSPost2010PropOp39
 70
     1
102
RTVSPost2010Prop40
 90
        0
102
RTVSPost2010PropOp40
 70
     1
102
RTVSPost2010Prop41ColorIndex
 90
       18
102
RTVSPost2010Prop41ColorRGB
 90
        0
102
RTVSPost2010PropOp41
 70
     1
102
RTVSPost2010Prop42
 90
       50
102
RTVSPost2010PropOp42
 70
     1
102
RTVSPost2010Prop43
 90
        3
102
RTVSPost2010PropOp43
 70
     1
102
RTVSPost2010Prop44ColorIndex
 90
        5
102
RTVSPost2010Prop44ColorRGB
 90
      255
102
RTVSPost2010PropOp44
 70
     1
102
RTVSPost2010Prop45
280
     0
102
RTVSPost2010PropOp45
 70
     1
102
RTVSPost2010Prop46
 90
       50
102
RTVSPost2010PropOp46
 70
     1
102
RTVSPost2010Prop47
 90
       50
102
RTVSPost2010PropOp47
 70
     1
102
RTVSPost2010Prop48
 90
       50
102
RTVSPost2010PropOp48
 70
     1
102
RTVSPost2010Prop49
280
     0
102
RTVSPost2010PropOp49
 70
     1
102
RTVSPost2010Prop50
 90
       50
102
RTVSPost2010PropOp50
 70
     1
102
RTVSPost2010Prop51ColorIndex
 90
      256
102
RTVSPost2010Prop51ColorRGB
 90
-16777216
102
RTVSPost2010PropOp51
 70
     0
102
RTVSPost2010Prop52
140
1.0
102
RTVSPost2010PropOp52
 70
     0
102
RTVSPost2010Prop53
 90
        2
102
RTVSPost2010PropOp53
 70
     1
102
RTVSPost2010Prop54
  1
strokes_ogs.tif
102
RTVSPost2010PropOp54
 70
     1
102
RTVSPost2010Prop55
280
     0
102
RTVSPost2010PropOp55
 70
     1
102
RTVSPost2010Prop56
140
1.0
102
RTVSPost2010PropOp56
 70
     1
102
RTVSPost2010Prop57
140
1.0
102
RTVSPost2010PropOp57
 70
     1
  0
XRECORD
  5
A9
102
{ACAD_REACTORS
330
A8
102
}
330
A8
100
AcDbXrecord
280
     1
102
RTVSPropertyOp0
 70
     1
102
RTVSPropertyOp1
 70
     1
102
RTVSPropertyOp2
 70
     1
102
RTVSPropertyOp3
 70
     1
102
RTVSPropertyOp4
 70
     1
102
RTVSPropertyOp5
 70
     1
102
RTVSPropertyOp6
 70
     1
102
RTVSPropertyOp7
 70
     1
102
RTVSPropertyOp8
 70
     1
102
RTVSPropertyOp9
 70
     1
102
RTVSPropertyOp10
 70
     1
102
RTVSPropertyOp11
 70
     1
102
RTVSPropertyOp12
 70
     1
102
RTVSPropertyOp13
 70
     1
102
RTVSPropertyOp14
 70
     1
102
RTVSPropertyOp15
 70
     1
102
RTVSPropertyOp16
 70
     1
102
RTVSPropertyOp17
 70
     1
102
RTVSPropertyOp18
 70
     1
102
RTVSPropertyOp19
 70
     1
102
RTVSPropertyOp20
 70
     1
102
RTVSPropertyOp21
 70
     1
102
RTVSPropertyOp22
 70
     1
102
RTVSPropertyOp23
 70
     1
102
RTVSPropertyOp24
 70
     1
102
RTVSPropertyOp25
 70
     1
102
RTVSPropertyOp26
 70
     1
102
RTVSPropertyOp27
 70
     1
102
RTVSPropertyOp28
 70
     1
102
RTVSPropertyOp29
 70
     1
102
RTVSPropertyOp30
 70
     1
102
RTVSPropertyOp31
 70
     1
102
RTVSPropertyOp32
 70
     1
102
RTVSPropertyOp33
 70
     1
102
RTVSPropertyOp34
 70
     1
102
RTVSPropertyOp35
 70
     1
102
RTVSPropertyOp36
 70
     1
102
RTVSPropertyOp37
 70
     1
102
RTVSPropertyOp38
 70
     1
102
RTVSPropertyOp39
 70
     1
102
RTVSPropertyOp40
 70
     1
102
RTVSPropertyOp41
 70
     1
102
RTVSPropertyOp42
 70
     1
102
RTVSPropertyOp43
 70
     1
102
RTVSPropertyOp44
 70
     1
102
RTVSPropertyOp45
 70
     1
102
RTVSPropertyOp46
 70
     1
102
RTVSPropertyOp47
 70
     1
102
RTVSPropertyOp48
 70
     1
102
RTVSPropertyOp49
 70
     1
102
RTVSPropertyOp50
 70
     1
102
RTVSPropertyOp51
 70
     0
102
RTVSPropertyOp52
 70
     0
102
RTVSPropertyOp53
 70
     1
102
RTVSPropertyOp54
 70
     1
102
RTVSPropertyOp55
 70
     1
102
RTVSPropertyOp56
 70
     1
102
RTVSPropertyOp57
 70
     1
102
RTVSPost2010Prop28
280
     0
102
RTVSPost2010PropOp28
 70
     1
102
RTVSPost2010Prop29
280
     1
102
RTVSPost2010PropOp29
 70
     1
102
RTVSPost2010Prop30
280
     1
102
RTVSPost2010PropOp30
 70
     1
102
RTVSPost2010Prop31
280
     0
102
RTVSPost2010PropOp31
 70
     1
102
RTVSPost2010Prop32
280
     0
102
RTVSPost2010PropOp32
 70
     1
102
RTVSPost2010Prop33
280
     0
102
RTVSPost2010PropOp33
 70
     1
102
RTVSPost2010Prop34
280
     0
102
RTVSPost2010PropOp34
 70
     1
102
RTVSPost2010Prop35
280
     0
102
RTVSPost2010PropOp35
 70
     1
102
RTVSPost2010Prop36
280
     0
102
RTVSPost2010PropOp36
 70
     1
102
RTVSPost2010Prop37
 90
       50
102
RTVSPost2010PropOp37
 70
     1
102
RTVSPost2010Prop38
140
0.0
102
RTVSPost2010PropOp38
 70
     1
102
RTVSPost2010Prop39
140
1.0
102
RTVSPost2010PropOp39
 70
     1
102
RTVSPost2010Prop40
 90
        0
102
RTVSPost2010PropOp40
 70
     1
102
RTVSPost2010Prop41ColorIndex
 90
       18
102
RTVSPost2010Prop41ColorRGB
 90
        0
102
RTVSPost2010PropOp41
 70
     1
102
RTVSPost2010Prop42
 90
       50
102
RTVSPost2010PropOp42
 70
     1
102
RTVSPost2010Prop43
 90
        3
102
RTVSPost2010PropOp43
 70
     1
102
RTVSPost2010Prop44ColorIndex
 90
        5
102
RTVSPost2010Prop44ColorRGB
 90
      255
102
RTVSPost2010PropOp44
 70
     1
102
RTVSPost2010Prop45
280
     0
102
RTVSPost2010PropOp45
 70
     1
102
RTVSPost2010Prop46
 90
       50
102
RTVSPost2010PropOp46
 70
     1
102
RTVSPost2010Prop47
 90
       50
102
RTVSPost2010PropOp47
 70
     1
102
RTVSPost2010Prop48
 90
       50
102
RTVSPost2010PropOp48
 70
     1
102
RTVSPost2010Prop49
280
     0
102
RTVSPost2010PropOp49
 70
     1
102
RTVSPost2010Prop50
 90
       50
102
RTVSPost2010PropOp50
 70
     1
102
RTVSPost2010Prop51ColorIndex
 90
      256
102
RTVSPost2010Prop51ColorRGB
 90
-16777216
102
RTVSPost2010PropOp51
 70
     0
102
RTVSPost2010Prop52
140
1.0
102
RTVSPost2010PropOp52
 70
     0
102
RTVSPost2010Prop53
 90
        2
102
RTVSPost2010PropOp53
 70
     1
102
RTVSPost2010Prop54
  1
strokes_ogs.tif
102
RTVSPost2010PropOp54
 70
     1
102
RTVSPost2010Prop55
280
     0
102
RTVSPost2010PropOp55
 70
     1
102
RTVSPost2010Prop56
140
1.0
102
RTVSPost2010PropOp56
 70
     1
102
RTVSPost2010Prop57
140
1.0
102
RTVSPost2010PropOp57
 70
     1
  0
XRECORD
  5
9D
102
{ACAD_REACTORS
330
9C
102
}
330
9C
100
AcDbXrecord
280
     1
102
RTVSPropertyOp0
 70
     1
102
RTVSPropertyOp1
 70
     1
102
RTVSPropertyOp2
 70
     1
102
RTVSPropertyOp3
 70
     1
102
RTVSPropertyOp4
 70
     1
102
RTVSPropertyOp5
 70
     1
102
RTVSPropertyOp6
 70
     1
102
RTVSPropertyOp7
 70
     1
102
RTVSPropertyOp8
 70
     1
102
RTVSPropertyOp9
 70
     1
102
RTVSPropertyOp10
 70
     1
102
RTVSPropertyOp11
 70
     1
102
RTVSPropertyOp12
 70
     1
102
RTVSPropertyOp13
 70
     1
102
RTVSPropertyOp14
 70
     1
102
RTVSPropertyOp15
 70
     1
102
RTVSPropertyOp16
 70
     1
102
RTVSPropertyOp17
 70
     1
102
RTVSPropertyOp18
 70
     1
102
RTVSPropertyOp19
 70
     1
102
RTVSPropertyOp20
 70
     1
102
RTVSPropertyOp21
 70
     1
102
RTVSPropertyOp22
 70
     1
102
RTVSPropertyOp23
 70
     1
102
RTVSPropertyOp24
 70
     1
102
RTVSPropertyOp25
 70
     1
102
RTVSPropertyOp26
 70
     1
102
RTVSPropertyOp27
 70
     1
102
RTVSPropertyOp28
 70
     1
102
RTVSPropertyOp29
 70
     1
102
RTVSPropertyOp30
 70
     1
102
RTVSPropertyOp31
 70
     1
102
RTVSPropertyOp32
 70
     1
102
RTVSPropertyOp33
 70
     1
102
RTVSPropertyOp34
 70
     1
102
RTVSPropertyOp35
 70
     1
102
RTVSPropertyOp36
 70
     1
102
RTVSPropertyOp37
 70
     1
102
RTVSPropertyOp38
 70
     1
102
RTVSPropertyOp39
 70
     1
102
RTVSPropertyOp40
 70
     1
102
RTVSPropertyOp41
 70
     1
102
RTVSPropertyOp42
 70
     1
102
RTVSPropertyOp43
 70
     1
102
RTVSPropertyOp44
 70
     1
102
RTVSPropertyOp45
 70
     1
102
RTVSPropertyOp46
 70
     1
102
RTVSPropertyOp47
 70
     1
102
RTVSPropertyOp48
 70
     1
102
RTVSPropertyOp49
 70
     1
102
RTVSPropertyOp50
 70
     1
102
RTVSPropertyOp51
 70
     0
102
RTVSPropertyOp52
 70
     0
102
RTVSPropertyOp53
 70
     1
102
RTVSPropertyOp54
 70
     1
102
RTVSPropertyOp55
 70
     1
102
RTVSPropertyOp56
 70
     1
102
RTVSPropertyOp57
 70
     1
102
RTVSPost2010Prop28
280
     0
102
RTVSPost2010PropOp28
 70
     1
102
RTVSPost2010Prop29
280
     1
102
RTVSPost2010PropOp29
 70
     1
102
RTVSPost2010Prop30
280
     1
102
RTVSPost2010PropOp30
 70
     1
102
RTVSPost2010Prop31
280
     0
102
RTVSPost2010PropOp31
 70
     1
102
RTVSPost2010Prop32
280
     0
102
RTVSPost2010PropOp32
 70
     1
102
RTVSPost2010Prop33
280
     0
102
RTVSPost2010PropOp33
 70
     1
102
RTVSPost2010Prop34
280
     0
102
RTVSPost2010PropOp34
 70
     1
102
RTVSPost2010Prop35
280
     0
102
RTVSPost2010PropOp35
 70
     1
102
RTVSPost2010Prop36
280
     0
102
RTVSPost2010PropOp36
 70
     1
102
RTVSPost2010Prop37
 90
       50
102
RTVSPost2010PropOp37
 70
     1
102
RTVSPost2010Prop38
140
0.0
102
RTVSPost2010PropOp38
 70
     1
102
RTVSPost2010Prop39
140
1.0
102
RTVSPost2010PropOp39
 70
     1
102
RTVSPost2010Prop40
 90
        0
102
RTVSPost2010PropOp40
 70
     1
102
RTVSPost2010Prop41ColorIndex
 90
       18
102
RTVSPost2010Prop41ColorRGB
 90
        0
102
RTVSPost2010PropOp41
 70
     1
102
RTVSPost2010Prop42
 90
       50
102
RTVSPost2010PropOp42
 70
     1
102
RTVSPost2010Prop43
 90
        3
102
RTVSPost2010PropOp43
 70
     1
102
RTVSPost2010Prop44ColorIndex
 90
        5
102
RTVSPost2010Prop44ColorRGB
 90
      255
102
RTVSPost2010PropOp44
 70
     1
102
RTVSPost2010Prop45
280
     0
102
RTVSPost2010PropOp45
 70
     1
102
RTVSPost2010Prop46
 90
       50
102
RTVSPost2010PropOp46
 70
     1
102
RTVSPost2010Prop47
 90
       50
102
RTVSPost2010PropOp47
 70
     1
102
RTVSPost2010Prop48
 90
       50
102
RTVSPost2010PropOp48
 70
     1
102
RTVSPost2010Prop49
280
     0
102
RTVSPost2010PropOp49
 70
     1
102
RTVSPost2010Prop50
 90
       50
102
RTVSPost2010PropOp50
 70
     1
102
RTVSPost2010Prop51ColorIndex
 90
      256
102
RTVSPost2010Prop51ColorRGB
 90
-16777216
102
RTVSPost2010PropOp51
 70
     0
102
RTVSPost2010Prop52
140
1.0
102
RTVSPost2010PropOp52
 70
     0
102
RTVSPost2010Prop53
 90
        2
102
RTVSPost2010PropOp53
 70
     1
102
RTVSPost2010Prop54
  1
strokes_ogs.tif
102
RTVSPost2010PropOp54
 70
     1
102
RTVSPost2010Prop55
280
     0
102
RTVSPost2010PropOp55
 70
     1
102
RTVSPost2010Prop56
140
1.0
102
RTVSPost2010PropOp56
 70
     1
102
RTVSPost2010Prop57
140
1.0
102
RTVSPost2010PropOp57
 70
     1
  0
XRECORD
  5
9F
102
{ACAD_REACTORS
330
9E
102
}
330
9E
100
AcDbXrecord
280
     1
102
RTVSPropertyOp0
 70
     1
102
RTVSPropertyOp1
 70
     1
102
RTVSPropertyOp2
 70
     1
102
RTVSPropertyOp3
 70
     1
102
RTVSPropertyOp4
 70
     1
102
RTVSPropertyOp5
 70
     1
102
RTVSPropertyOp6
 70
     1
102
RTVSPropertyOp7
 70
     1
102
RTVSPropertyOp8
 70
     1
102
RTVSPropertyOp9
 70
     1
102
RTVSPropertyOp10
 70
     1
102
RTVSPropertyOp11
 70
     1
102
RTVSPropertyOp12
 70
     1
102
RTVSPropertyOp13
 70
     1
102
RTVSPropertyOp14
 70
     1
102
RTVSPropertyOp15
 70
     1
102
RTVSPropertyOp16
 70
     1
102
RTVSPropertyOp17
 70
     1
102
RTVSPropertyOp18
 70
     1
102
RTVSPropertyOp19
 70
     1
102
RTVSPropertyOp20
 70
     1
102
RTVSPropertyOp21
 70
     1
102
RTVSPropertyOp22
 70
     1
102
RTVSPropertyOp23
 70
     1
102
RTVSPropertyOp24
 70
     1
102
RTVSPropertyOp25
 70
     1
102
RTVSPropertyOp26
 70
     1
102
RTVSPropertyOp27
 70
     1
102
RTVSPropertyOp28
 70
     1
102
RTVSPropertyOp29
 70
     1
102
RTVSPropertyOp30
 70
     1
102
RTVSPropertyOp31
 70
     1
102
RTVSPropertyOp32
 70
     1
102
RTVSPropertyOp33
 70
     1
102
RTVSPropertyOp34
 70
     1
102
RTVSPropertyOp35
 70
     1
102
RTVSPropertyOp36
 70
     1
102
RTVSPropertyOp37
 70
     1
102
RTVSPropertyOp38
 70
     1
102
RTVSPropertyOp39
 70
     1
102
RTVSPropertyOp40
 70
     1
102
RTVSPropertyOp41
 70
     1
102
RTVSPropertyOp42
 70
     1
102
RTVSPropertyOp43
 70
     1
102
RTVSPropertyOp44
 70
     1
102
RTVSPropertyOp45
 70
     1
102
RTVSPropertyOp46
 70
     1
102
RTVSPropertyOp47
 70
     1
102
RTVSPropertyOp48
 70
     1
102
RTVSPropertyOp49
 70
     1
102
RTVSPropertyOp50
 70
     1
102
RTVSPropertyOp51
 70
     0
102
RTVSPropertyOp52
 70
     0
102
RTVSPropertyOp53
 70
     1
102
RTVSPropertyOp54
 70
     1
102
RTVSPropertyOp55
 70
     1
102
RTVSPropertyOp56
 70
     1
102
RTVSPropertyOp57
 70
     1
102
RTVSPost2010Prop28
280
     0
102
RTVSPost2010PropOp28
 70
     1
102
RTVSPost2010Prop29
280
     1
102
RTVSPost2010PropOp29
 70
     1
102
RTVSPost2010Prop30
280
     1
102
RTVSPost2010PropOp30
 70
     1
102
RTVSPost2010Prop31
280
     0
102
RTVSPost2010PropOp31
 70
     1
102
RTVSPost2010Prop32
280
     0
102
RTVSPost2010PropOp32
 70
     1
102
RTVSPost2010Prop33
280
     0
102
RTVSPost2010PropOp33
 70
     1
102
RTVSPost2010Prop34
280
     0
102
RTVSPost2010PropOp34
 70
     1
102
RTVSPost2010Prop35
280
     0
102
RTVSPost2010PropOp35
 70
     1
102
RTVSPost2010Prop36
280
     0
102
RTVSPost2010PropOp36
 70
     1
102
RTVSPost2010Prop37
 90
       50
102
RTVSPost2010PropOp37
 70
     1
102
RTVSPost2010Prop38
140
0.0
102
RTVSPost2010PropOp38
 70
     1
102
RTVSPost2010Prop39
140
1.0
102
RTVSPost2010PropOp39
 70
     1
102
RTVSPost2010Prop40
 90
        0
102
RTVSPost2010PropOp40
 70
     1
102
RTVSPost2010Prop41ColorIndex
 90
       18
102
RTVSPost2010Prop41ColorRGB
 90
        0
102
RTVSPost2010PropOp41
 70
     1
102
RTVSPost2010Prop42
 90
       50
102
RTVSPost2010PropOp42
 70
     1
102
RTVSPost2010Prop43
 90
        3
102
RTVSPost2010PropOp43
 70
     1
102
RTVSPost2010Prop44ColorIndex
 90
        5
102
RTVSPost2010Prop44ColorRGB
 90
      255
102
RTVSPost2010PropOp44
 70
     1
102
RTVSPost2010Prop45
280
     0
102
RTVSPost2010PropOp45
 70
     1
102
RTVSPost2010Prop46
 90
       50
102
RTVSPost2010PropOp46
 70
     1
102
RTVSPost2010Prop47
 90
       50
102
RTVSPost2010PropOp47
 70
     1
102
RTVSPost2010Prop48
 90
       50
102
RTVSPost2010PropOp48
 70
     1
102
RTVSPost2010Prop49
280
     0
102
RTVSPost2010PropOp49
 70
     1
102
RTVSPost2010Prop50
 90
       50
102
RTVSPost2010PropOp50
 70
     1
102
RTVSPost2010Prop51ColorIndex
 90
      256
102
RTVSPost2010Prop51ColorRGB
 90
-16777216
102
RTVSPost2010PropOp51
 70
     0
102
RTVSPost2010Prop52
140
1.0
102
RTVSPost2010PropOp52
 70
     0
102
RTVSPost2010Prop53
 90
        2
102
RTVSPost2010PropOp53
 70
     1
102
RTVSPost2010Prop54
  1
strokes_ogs.tif
102
RTVSPost2010PropOp54
 70
     1
102
RTVSPost2010Prop55
280
     0
102
RTVSPost2010PropOp55
 70
     1
102
RTVSPost2010Prop56
140
1.0
102
RTVSPost2010PropOp56
 70
     1
102
RTVSPost2010Prop57
140
1.0
102
RTVSPost2010PropOp57
 70
     1
  0
XRECORD
  5
AF
102
{ACAD_REACTORS
330
AE
102
}
330
AE
100
AcDbXrecord
280
     1
102
RTVSPropertyOp0
 70
     0
102
RTVSPropertyOp1
 70
     0
102
RTVSPropertyOp2
 70
     0
102
RTVSPropertyOp3
 70
     0
102
RTVSPropertyOp4
 70
     0
102
RTVSPropertyOp5
 70
     0
102
RTVSPropertyOp6
 70
     0
102
RTVSPropertyOp7
 70
     0
102
RTVSPropertyOp8
 70
     0
102
RTVSPropertyOp9
 70
     0
102
RTVSPropertyOp10
 70
     0
102
RTVSPropertyOp11
 70
     0
102
RTVSPropertyOp12
 70
     0
102
RTVSPropertyOp13
 70
     0
102
RTVSPropertyOp14
 70
     2
102
RTVSPropertyOp15
 70
     0
102
RTVSPropertyOp16
 70
     0
102
RTVSPropertyOp17
 70
     0
102
RTVSPropertyOp18
 70
     0
102
RTVSPropertyOp19
 70
     0
102
RTVSPropertyOp20
 70
     0
102
RTVSPropertyOp21
 70
     0
102
RTVSPropertyOp22
 70
     0
102
RTVSPropertyOp23
 70
     0
102
RTVSPropertyOp24
 70
     0
102
RTVSPropertyOp25
 70
     0
102
RTVSPropertyOp26
 70
     0
102
RTVSPropertyOp27
 70
     0
102
RTVSPropertyOp28
 70
     0
102
RTVSPropertyOp29
 70
     0
102
RTVSPropertyOp30
 70
     0
102
RTVSPropertyOp31
 70
     0
102
RTVSPropertyOp32
 70
     0
102
RTVSPropertyOp33
 70
     0
102
RTVSPropertyOp34
 70
     0
102
RTVSPropertyOp35
 70
     0
102
RTVSPropertyOp36
 70
     0
102
RTVSPropertyOp37
 70
     0
102
RTVSPropertyOp38
 70
     0
102
RTVSPropertyOp39
 70
     0
102
RTVSPropertyOp40
 70
     0
102
RTVSPropertyOp41
 70
     0
102
RTVSPropertyOp42
 70
     0
102
RTVSPropertyOp43
 70
     0
102
RTVSPropertyOp44
 70
     0
102
RTVSPropertyOp45
 70
     0
102
RTVSPropertyOp46
 70
     0
102
RTVSPropertyOp47
 70
     0
102
RTVSPropertyOp48
 70
     0
102
RTVSPropertyOp49
 70
     0
102
RTVSPropertyOp50
 70
     0
102
RTVSPropertyOp51
 70
     0
102
RTVSPropertyOp52
 70
     0
102
RTVSPropertyOp53
 70
     0
102
RTVSPropertyOp54
 70
     0
102
RTVSPropertyOp55
 70
     0
102
RTVSPropertyOp56
 70
     0
102
RTVSPropertyOp57
 70
     0
102
RTVSPost2010Prop28
280
     0
102
RTVSPost2010PropOp28
 70
     0
102
RTVSPost2010Prop29
280
     1
102
RTVSPost2010PropOp29
 70
     0
102
RTVSPost2010Prop30
280
     1
102
RTVSPost2010PropOp30
 70
     0
102
RTVSPost2010Prop31
280
     0
102
RTVSPost2010PropOp31
 70
     0
102
RTVSPost2010Prop32
280
     0
102
RTVSPost2010PropOp32
 70
     0
102
RTVSPost2010Prop33
280
     0
102
RTVSPost2010PropOp33
 70
     0
102
RTVSPost2010Prop34
280
     0
102
RTVSPost2010PropOp34
 70
     0
102
RTVSPost2010Prop35
280
     0
102
RTVSPost2010PropOp35
 70
     0
102
RTVSPost2010Prop36
280
     0
102
RTVSPost2010PropOp36
 70
     0
102
RTVSPost2010Prop37
 90
       50
102
RTVSPost2010PropOp37
 70
     0
102
RTVSPost2010Prop38
140
0.0
102
RTVSPost2010PropOp38
 70
     0
102
RTVSPost2010Prop39
140
1.0
102
RTVSPost2010PropOp39
 70
     0
102
RTVSPost2010Prop40
 90
        0
102
RTVSPost2010PropOp40
 70
     0
102
RTVSPost2010Prop41ColorIndex
 90
       18
102
RTVSPost2010Prop41ColorRGB
 90
        0
102
RTVSPost2010PropOp41
 70
     0
102
RTVSPost2010Prop42
 90
       50
102
RTVSPost2010PropOp42
 70
     0
102
RTVSPost2010Prop43
 90
        3
102
RTVSPost2010PropOp43
 70
     0
102
RTVSPost2010Prop44ColorIndex
 90
        5
102
RTVSPost2010Prop44ColorRGB
 90
      255
102
RTVSPost2010PropOp44
 70
     0
102
RTVSPost2010Prop45
280
     0
102
RTVSPost2010PropOp45
 70
     0
102
RTVSPost2010Prop46
 90
       50
102
RTVSPost2010PropOp46
 70
     0
102
RTVSPost2010Prop47
 90
       50
102
RTVSPost2010PropOp47
 70
     0
102
RTVSPost2010Prop48
 90
       50
102
RTVSPost2010PropOp48
 70
     0
102
RTVSPost2010Prop49
280
     0
102
RTVSPost2010PropOp49
 70
     0
102
RTVSPost2010Prop50
 90
       50
102
RTVSPost2010PropOp50
 70
     0
102
RTVSPost2010Prop51ColorIndex
 90
      256
102
RTVSPost2010Prop51ColorRGB
 90
-16777216
102
RTVSPost2010PropOp51
 70
     0
102
RTVSPost2010Prop52
140
1.0
102
RTVSPost2010PropOp52
 70
     0
102
RTVSPost2010Prop53
 90
        2
102
RTVSPost2010PropOp53
 70
     0
102
RTVSPost2010Prop54
  1
strokes_ogs.tif
102
RTVSPost2010PropOp54
 70
     0
102
RTVSPost2010Prop55
280
     0
102
RTVSPost2010PropOp55
 70
     0
102
RTVSPost2010Prop56
140
1.0
102
RTVSPost2010PropOp56
 70
     0
102
RTVSPost2010Prop57
140
1.0
102
RTVSPost2010PropOp57
 70
     0
  0
XRECORD
  5
A7
102
{ACAD_REACTORS
330
A6
102
}
330
A6
100
AcDbXrecord
280
     1
102
RTVSPropertyOp0
 70
     1
102
RTVSPropertyOp1
 70
     1
102
RTVSPropertyOp2
 70
     1
102
RTVSPropertyOp3
 70
     1
102
RTVSPropertyOp4
 70
     1
102
RTVSPropertyOp5
 70
     1
102
RTVSPropertyOp6
 70
     1
102
RTVSPropertyOp7
 70
     1
102
RTVSPropertyOp8
 70
     1
102
RTVSPropertyOp9
 70
     1
102
RTVSPropertyOp10
 70
     1
102
RTVSPropertyOp11
 70
     1
102
RTVSPropertyOp12
 70
     1
102
RTVSPropertyOp13
 70
     1
102
RTVSPropertyOp14
 70
     1
102
RTVSPropertyOp15
 70
     1
102
RTVSPropertyOp16
 70
     1
102
RTVSPropertyOp17
 70
     1
102
RTVSPropertyOp18
 70
     1
102
RTVSPropertyOp19
 70
     1
102
RTVSPropertyOp20
 70
     1
102
RTVSPropertyOp21
 70
     1
102
RTVSPropertyOp22
 70
     1
102
RTVSPropertyOp23
 70
     1
102
RTVSPropertyOp24
 70
     1
102
RTVSPropertyOp25
 70
     1
102
RTVSPropertyOp26
 70
     1
102
RTVSPropertyOp27
 70
     1
102
RTVSPropertyOp28
 70
     1
102
RTVSPropertyOp29
 70
     1
102
RTVSPropertyOp30
 70
     1
102
RTVSPropertyOp31
 70
     1
102
RTVSPropertyOp32
 70
     1
102
RTVSPropertyOp33
 70
     1
102
RTVSPropertyOp34
 70
     1
102
RTVSPropertyOp35
 70
     1
102
RTVSPropertyOp36
 70
     1
102
RTVSPropertyOp37
 70
     1
102
RTVSPropertyOp38
 70
     1
102
RTVSPropertyOp39
 70
     1
102
RTVSPropertyOp40
 70
     1
102
RTVSPropertyOp41
 70
     1
102
RTVSPropertyOp42
 70
     1
102
RTVSPropertyOp43
 70
     1
102
RTVSPropertyOp44
 70
     1
102
RTVSPropertyOp45
 70
     1
102
RTVSPropertyOp46
 70
     1
102
RTVSPropertyOp47
 70
     1
102
RTVSPropertyOp48
 70
     1
102
RTVSPropertyOp49
 70
     1
102
RTVSPropertyOp50
 70
     1
102
RTVSPropertyOp51
 70
     0
102
RTVSPropertyOp52
 70
     0
102
RTVSPropertyOp53
 70
     1
102
RTVSPropertyOp54
 70
     1
102
RTVSPropertyOp55
 70
     1
102
RTVSPropertyOp56
 70
     1
102
RTVSPropertyOp57
 70
     1
102
RTVSPost2010Prop28
280
     0
102
RTVSPost2010PropOp28
 70
     1
102
RTVSPost2010Prop29
280
     1
102
RTVSPost2010PropOp29
 70
     1
102
RTVSPost2010Prop30
280
     1
102
RTVSPost2010PropOp30
 70
     1
102
RTVSPost2010Prop31
280
     0
102
RTVSPost2010PropOp31
 70
     1
102
RTVSPost2010Prop32
280
     0
102
RTVSPost2010PropOp32
 70
     1
102
RTVSPost2010Prop33
280
     0
102
RTVSPost2010PropOp33
 70
     1
102
RTVSPost2010Prop34
280
     0
102
RTVSPost2010PropOp34
 70
     1
102
RTVSPost2010Prop35
280
     0
102
RTVSPost2010PropOp35
 70
     1
102
RTVSPost2010Prop36
280
     0
102
RTVSPost2010PropOp36
 70
     1
102
RTVSPost2010Prop37
 90
       50
102
RTVSPost2010PropOp37
 70
     1
102
RTVSPost2010Prop38
140
0.0
102
RTVSPost2010PropOp38
 70
     1
102
RTVSPost2010Prop39
140
1.0
102
RTVSPost2010PropOp39
 70
     1
102
RTVSPost2010Prop40
 90
        0
102
RTVSPost2010PropOp40
 70
     1
102
RTVSPost2010Prop41ColorIndex
 90
       18
102
RTVSPost2010Prop41ColorRGB
 90
        0
102
RTVSPost2010PropOp41
 70
     1
102
RTVSPost2010Prop42
 90
       50
102
RTVSPost2010PropOp42
 70
     1
102
RTVSPost2010Prop43
 90
        3
102
RTVSPost2010PropOp43
 70
     1
102
RTVSPost2010Prop44ColorIndex
 90
        5
102
RTVSPost2010Prop44ColorRGB
 90
      255
102
RTVSPost2010PropOp44
 70
     1
102
RTVSPost2010Prop45
280
     0
102
RTVSPost2010PropOp45
 70
     1
102
RTVSPost2010Prop46
 90
       50
102
RTVSPost2010PropOp46
 70
     1
102
RTVSPost2010Prop47
 90
       50
102
RTVSPost2010PropOp47
 70
     1
102
RTVSPost2010Prop48
 90
       50
102
RTVSPost2010PropOp48
 70
     1
102
RTVSPost2010Prop49
280
     0
102
RTVSPost2010PropOp49
 70
     1
102
RTVSPost2010Prop50
 90
       50
102
RTVSPost2010PropOp50
 70
     1
102
RTVSPost2010Prop51ColorIndex
 90
      256
102
RTVSPost2010Prop51ColorRGB
 90
-16777216
102
RTVSPost2010PropOp51
 70
     0
102
RTVSPost2010Prop52
140
1.0
102
RTVSPost2010PropOp52
 70
     0
102
RTVSPost2010Prop53
 90
        2
102
RTVSPost2010PropOp53
 70
     1
102
RTVSPost2010Prop54
  1
strokes_ogs.tif
102
RTVSPost2010PropOp54
 70
     1
102
RTVSPost2010Prop55
280
     0
102
RTVSPost2010PropOp55
 70
     1
102
RTVSPost2010Prop56
140
1.0
102
RTVSPost2010PropOp56
 70
     1
102
RTVSPost2010Prop57
140
1.0
102
RTVSPost2010PropOp57
 70
     1
  0
XRECORD
  5
8B
102
{ACAD_REACTORS
330
8A
102
}
330
8A
100
AcDbXrecord
280
     1
102
RTVSPropertyOp0
 70
     1
102
RTVSPropertyOp1
 70
     1
102
RTVSPropertyOp2
 70
     1
102
RTVSPropertyOp3
 70
     1
102
RTVSPropertyOp4
 70
     1
102
RTVSPropertyOp5
 70
     1
102
RTVSPropertyOp6
 70
     1
102
RTVSPropertyOp7
 70
     1
102
RTVSPropertyOp8
 70
     1
102
RTVSPropertyOp9
 70
     1
102
RTVSPropertyOp10
 70
     1
102
RTVSPropertyOp11
 70
     1
102
RTVSPropertyOp12
 70
     1
102
RTVSPropertyOp13
 70
     1
102
RTVSPropertyOp14
 70
     1
102
RTVSPropertyOp15
 70
     1
102
RTVSPropertyOp16
 70
     1
102
RTVSPropertyOp17
 70
     1
102
RTVSPropertyOp18
 70
     1
102
RTVSPropertyOp19
 70
     1
102
RTVSPropertyOp20
 70
     1
102
RTVSPropertyOp21
 70
     1
102
RTVSPropertyOp22
 70
     1
102
RTVSPropertyOp23
 70
     1
102
RTVSPropertyOp24
 70
     1
102
RTVSPropertyOp25
 70
     1
102
RTVSPropertyOp26
 70
     1
102
RTVSPropertyOp27
 70
     1
102
RTVSPropertyOp28
 70
     1
102
RTVSPropertyOp29
 70
     1
102
RTVSPropertyOp30
 70
     1
102
RTVSPropertyOp31
 70
     1
102
RTVSPropertyOp32
 70
     1
102
RTVSPropertyOp33
 70
     1
102
RTVSPropertyOp34
 70
     1
102
RTVSPropertyOp35
 70
     1
102
RTVSPropertyOp36
 70
     1
102
RTVSPropertyOp37
 70
     1
102
RTVSPropertyOp38
 70
     1
102
RTVSPropertyOp39
 70
     1
102
RTVSPropertyOp40
 70
     1
102
RTVSPropertyOp41
 70
     1
102
RTVSPropertyOp42
 70
     1
102
RTVSPropertyOp43
 70
     1
102
RTVSPropertyOp44
 70
     1
102
RTVSPropertyOp45
 70
     1
102
RTVSPropertyOp46
 70
     1
102
RTVSPropertyOp47
 70
     1
102
RTVSPropertyOp48
 70
     1
102
RTVSPropertyOp49
 70
     1
102
RTVSPropertyOp50
 70
     1
102
RTVSPropertyOp51
 70
     0
102
RTVSPropertyOp52
 70
     0
102
RTVSPropertyOp53
 70
     1
102
RTVSPropertyOp54
 70
     1
102
RTVSPropertyOp55
 70
     1
102
RTVSPropertyOp56
 70
     1
102
RTVSPropertyOp57
 70
     1
102
RTVSPost2010Prop28
280
     0
102
RTVSPost2010PropOp28
 70
     1
102
RTVSPost2010Prop29
280
     1
102
RTVSPost2010PropOp29
 70
     1
102
RTVSPost2010Prop30
280
     1
102
RTVSPost2010PropOp30
 70
     1
102
RTVSPost2010Prop31
280
     0
102
RTVSPost2010PropOp31
 70
     1
102
RTVSPost2010Prop32
280
     0
102
RTVSPost2010PropOp32
 70
     1
102
RTVSPost2010Prop33
280
     0
102
RTVSPost2010PropOp33
 70
     1
102
RTVSPost2010Prop34
280
     0
102
RTVSPost2010PropOp34
 70
     1
102
RTVSPost2010Prop35
280
     0
102
RTVSPost2010PropOp35
 70
     1
102
RTVSPost2010Prop36
280
     0
102
RTVSPost2010PropOp36
 70
     1
102
RTVSPost2010Prop37
 90
       50
102
RTVSPost2010PropOp37
 70
     1
102
RTVSPost2010Prop38
140
0.0
102
RTVSPost2010PropOp38
 70
     1
102
RTVSPost2010Prop39
140
1.0
102
RTVSPost2010PropOp39
 70
     1
102
RTVSPost2010Prop40
 90
        0
102
RTVSPost2010PropOp40
 70
     1
102
RTVSPost2010Prop41ColorIndex
 90
       18
102
RTVSPost2010Prop41ColorRGB
 90
        0
102
RTVSPost2010PropOp41
 70
     1
102
RTVSPost2010Prop42
 90
       50
102
RTVSPost2010PropOp42
 70
     1
102
RTVSPost2010Prop43
 90
        3
102
RTVSPost2010PropOp43
 70
     1
102
RTVSPost2010Prop44ColorIndex
 90
        5
102
RTVSPost2010Prop44ColorRGB
 90
      255
102
RTVSPost2010PropOp44
 70
     1
102
RTVSPost2010Prop45
280
     0
102
RTVSPost2010PropOp45
 70
     1
102
RTVSPost2010Prop46
 90
       50
102
RTVSPost2010PropOp46
 70
     1
102
RTVSPost2010Prop47
 90
       50
102
RTVSPost2010PropOp47
 70
     1
102
RTVSPost2010Prop48
 90
       50
102
RTVSPost2010PropOp48
 70
     1
102
RTVSPost2010Prop49
280
     0
102
RTVSPost2010PropOp49
 70
     1
102
RTVSPost2010Prop50
 90
       50
102
RTVSPost2010PropOp50
 70
     1
102
RTVSPost2010Prop51ColorIndex
 90
      256
102
RTVSPost2010Prop51ColorRGB
 90
-16777216
102
RTVSPost2010PropOp51
 70
     0
102
RTVSPost2010Prop52
140
1.0
102
RTVSPost2010PropOp52
 70
     0
102
RTVSPost2010Prop53
 90
        2
102
RTVSPost2010PropOp53
 70
     1
102
RTVSPost2010Prop54
  1
strokes_ogs.tif
102
RTVSPost2010PropOp54
 70
     1
102
RTVSPost2010Prop55
280
     0
102
RTVSPost2010PropOp55
 70
     1
102
RTVSPost2010Prop56
140
1.0
102
RTVSPost2010PropOp56
 70
     1
102
RTVSPost2010Prop57
140
1.0
102
RTVSPost2010PropOp57
 70
     1
  0
XRECORD
  5
8D
102
{ACAD_REACTORS
330
8C
102
}
330
8C
100
AcDbXrecord
280
     1
102
RTVSPropertyOp0
 70
     1
102
RTVSPropertyOp1
 70
     1
102
RTVSPropertyOp2
 70
     1
102
RTVSPropertyOp3
 70
     1
102
RTVSPropertyOp4
 70
     1
102
RTVSPropertyOp5
 70
     1
102
RTVSPropertyOp6
 70
     1
102
RTVSPropertyOp7
 70
     1
102
RTVSPropertyOp8
 70
     1
102
RTVSPropertyOp9
 70
     1
102
RTVSPropertyOp10
 70
     1
102
RTVSPropertyOp11
 70
     1
102
RTVSPropertyOp12
 70
     1
102
RTVSPropertyOp13
 70
     1
102
RTVSPropertyOp14
 70
     1
102
RTVSPropertyOp15
 70
     1
102
RTVSPropertyOp16
 70
     1
102
RTVSPropertyOp17
 70
     1
102
RTVSPropertyOp18
 70
     1
102
RTVSPropertyOp19
 70
     1
102
RTVSPropertyOp20
 70
     1
102
RTVSPropertyOp21
 70
     1
102
RTVSPropertyOp22
 70
     1
102
RTVSPropertyOp23
 70
     1
102
RTVSPropertyOp24
 70
     1
102
RTVSPropertyOp25
 70
     1
102
RTVSPropertyOp26
 70
     1
102
RTVSPropertyOp27
 70
     1
102
RTVSPropertyOp28
 70
     1
102
RTVSPropertyOp29
 70
     1
102
RTVSPropertyOp30
 70
     1
102
RTVSPropertyOp31
 70
     1
102
RTVSPropertyOp32
 70
     1
102
RTVSPropertyOp33
 70
     1
102
RTVSPropertyOp34
 70
     1
102
RTVSPropertyOp35
 70
     1
102
RTVSPropertyOp36
 70
     1
102
RTVSPropertyOp37
 70
     1
102
RTVSPropertyOp38
 70
     1
102
RTVSPropertyOp39
 70
     1
102
RTVSPropertyOp40
 70
     1
102
RTVSPropertyOp41
 70
     1
102
RTVSPropertyOp42
 70
     1
102
RTVSPropertyOp43
 70
     1
102
RTVSPropertyOp44
 70
     1
102
RTVSPropertyOp45
 70
     1
102
RTVSPropertyOp46
 70
     1
102
RTVSPropertyOp47
 70
     1
102
RTVSPropertyOp48
 70
     1
102
RTVSPropertyOp49
 70
     1
102
RTVSPropertyOp50
 70
     1
102
RTVSPropertyOp51
 70
     0
102
RTVSPropertyOp52
 70
     0
102
RTVSPropertyOp53
 70
     1
102
RTVSPropertyOp54
 70
     1
102
RTVSPropertyOp55
 70
     1
102
RTVSPropertyOp56
 70
     1
102
RTVSPropertyOp57
 70
     1
102
RTVSPost2010Prop28
280
     0
102
RTVSPost2010PropOp28
 70
     1
102
RTVSPost2010Prop29
280
     1
102
RTVSPost2010PropOp29
 70
     1
102
RTVSPost2010Prop30
280
     1
102
RTVSPost2010PropOp30
 70
     1
102
RTVSPost2010Prop31
280
     0
102
RTVSPost2010PropOp31
 70
     1
102
RTVSPost2010Prop32
280
     0
102
RTVSPost2010PropOp32
 70
     1
102
RTVSPost2010Prop33
280
     0
102
RTVSPost2010PropOp33
 70
     1
102
RTVSPost2010Prop34
280
     0
102
RTVSPost2010PropOp34
 70
     1
102
RTVSPost2010Prop35
280
     0
102
RTVSPost2010PropOp35
 70
     1
102
RTVSPost2010Prop36
280
     0
102
RTVSPost2010PropOp36
 70
     1
102
RTVSPost2010Prop37
 90
       50
102
RTVSPost2010PropOp37
 70
     1
102
RTVSPost2010Prop38
140
0.0
102
RTVSPost2010PropOp38
 70
     1
102
RTVSPost2010Prop39
140
1.0
102
RTVSPost2010PropOp39
 70
     1
102
RTVSPost2010Prop40
 90
        0
102
RTVSPost2010PropOp40
 70
     1
102
RTVSPost2010Prop41ColorIndex
 90
       18
102
RTVSPost2010Prop41ColorRGB
 90
        0
102
RTVSPost2010PropOp41
 70
     1
102
RTVSPost2010Prop42
 90
       50
102
RTVSPost2010PropOp42
 70
     1
102
RTVSPost2010Prop43
 90
        3
102
RTVSPost2010PropOp43
 70
     1
102
RTVSPost2010Prop44ColorIndex
 90
        5
102
RTVSPost2010Prop44ColorRGB
 90
      255
102
RTVSPost2010PropOp44
 70
     1
102
RTVSPost2010Prop45
280
     0
102
RTVSPost2010PropOp45
 70
     1
102
RTVSPost2010Prop46
 90
       50
102
RTVSPost2010PropOp46
 70
     1
102
RTVSPost2010Prop47
 90
       50
102
RTVSPost2010PropOp47
 70
     1
102
RTVSPost2010Prop48
 90
       50
102
RTVSPost2010PropOp48
 70
     1
102
RTVSPost2010Prop49
280
     0
102
RTVSPost2010PropOp49
 70
     1
102
RTVSPost2010Prop50
 90
       50
102
RTVSPost2010PropOp50
 70
     1
102
RTVSPost2010Prop51ColorIndex
 90
      256
102
RTVSPost2010Prop51ColorRGB
 90
-16777216
102
RTVSPost2010PropOp51
 70
     0
102
RTVSPost2010Prop52
140
1.0
102
RTVSPost2010PropOp52
 70
     0
102
RTVSPost2010Prop53
 90
        2
102
RTVSPost2010PropOp53
 70
     1
102
RTVSPost2010Prop54
  1
strokes_ogs.tif
102
RTVSPost2010PropOp54
 70
     1
102
RTVSPost2010Prop55
280
     0
102
RTVSPost2010PropOp55
 70
     1
102
RTVSPost2010Prop56
140
1.0
102
RTVSPost2010PropOp56
 70
     1
102
RTVSPost2010Prop57
140
1.0
102
RTVSPost2010PropOp57
 70
     1
  0
XRECORD
  5
8F
102
{ACAD_REACTORS
330
8E
102
}
330
8E
100
AcDbXrecord
280
     1
102
RTVSPropertyOp0
 70
     1
102
RTVSPropertyOp1
 70
     1
102
RTVSPropertyOp2
 70
     1
102
RTVSPropertyOp3
 70
     1
102
RTVSPropertyOp4
 70
     1
102
RTVSPropertyOp5
 70
     1
102
RTVSPropertyOp6
 70
     1
102
RTVSPropertyOp7
 70
     1
102
RTVSPropertyOp8
 70
     1
102
RTVSPropertyOp9
 70
     1
102
RTVSPropertyOp10
 70
     1
102
RTVSPropertyOp11
 70
     1
102
RTVSPropertyOp12
 70
     1
102
RTVSPropertyOp13
 70
     1
102
RTVSPropertyOp14
 70
     1
102
RTVSPropertyOp15
 70
     1
102
RTVSPropertyOp16
 70
     1
102
RTVSPropertyOp17
 70
     1
102
RTVSPropertyOp18
 70
     1
102
RTVSPropertyOp19
 70
     1
102
RTVSPropertyOp20
 70
     1
102
RTVSPropertyOp21
 70
     1
102
RTVSPropertyOp22
 70
     1
102
RTVSPropertyOp23
 70
     1
102
RTVSPropertyOp24
 70
     1
102
RTVSPropertyOp25
 70
     1
102
RTVSPropertyOp26
 70
     1
102
RTVSPropertyOp27
 70
     1
102
RTVSPropertyOp28
 70
     1
102
RTVSPropertyOp29
 70
     1
102
RTVSPropertyOp30
 70
     1
102
RTVSPropertyOp31
 70
     1
102
RTVSPropertyOp32
 70
     1
102
RTVSPropertyOp33
 70
     1
102
RTVSPropertyOp34
 70
     1
102
RTVSPropertyOp35
 70
     1
102
RTVSPropertyOp36
 70
     1
102
RTVSPropertyOp37
 70
     1
102
RTVSPropertyOp38
 70
     1
102
RTVSPropertyOp39
 70
     1
102
RTVSPropertyOp40
 70
     1
102
RTVSPropertyOp41
 70
     1
102
RTVSPropertyOp42
 70
     1
102
RTVSPropertyOp43
 70
     1
102
RTVSPropertyOp44
 70
     1
102
RTVSPropertyOp45
 70
     1
102
RTVSPropertyOp46
 70
     1
102
RTVSPropertyOp47
 70
     1
102
RTVSPropertyOp48
 70
     1
102
RTVSPropertyOp49
 70
     1
102
RTVSPropertyOp50
 70
     1
102
RTVSPropertyOp51
 70
     0
102
RTVSPropertyOp52
 70
     0
102
RTVSPropertyOp53
 70
     1
102
RTVSPropertyOp54
 70
     1
102
RTVSPropertyOp55
 70
     1
102
RTVSPropertyOp56
 70
     1
102
RTVSPropertyOp57
 70
     1
102
RTVSPost2010Prop28
280
     0
102
RTVSPost2010PropOp28
 70
     1
102
RTVSPost2010Prop29
280
     1
102
RTVSPost2010PropOp29
 70
     1
102
RTVSPost2010Prop30
280
     1
102
RTVSPost2010PropOp30
 70
     1
102
RTVSPost2010Prop31
280
     0
102
RTVSPost2010PropOp31
 70
     1
102
RTVSPost2010Prop32
280
     0
102
RTVSPost2010PropOp32
 70
     1
102
RTVSPost2010Prop33
280
     0
102
RTVSPost2010PropOp33
 70
     1
102
RTVSPost2010Prop34
280
     0
102
RTVSPost2010PropOp34
 70
     1
102
RTVSPost2010Prop35
280
     0
102
RTVSPost2010PropOp35
 70
     1
102
RTVSPost2010Prop36
280
     0
102
RTVSPost2010PropOp36
 70
     1
102
RTVSPost2010Prop37
 90
       50
102
RTVSPost2010PropOp37
 70
     1
102
RTVSPost2010Prop38
140
0.0
102
RTVSPost2010PropOp38
 70
     1
102
RTVSPost2010Prop39
140
1.0
102
RTVSPost2010PropOp39
 70
     1
102
RTVSPost2010Prop40
 90
        0
102
RTVSPost2010PropOp40
 70
     1
102
RTVSPost2010Prop41ColorIndex
 90
       18
102
RTVSPost2010Prop41ColorRGB
 90
        0
102
RTVSPost2010PropOp41
 70
     1
102
RTVSPost2010Prop42
 90
       50
102
RTVSPost2010PropOp42
 70
     1
102
RTVSPost2010Prop43
 90
        3
102
RTVSPost2010PropOp43
 70
     1
102
RTVSPost2010Prop44ColorIndex
 90
        5
102
RTVSPost2010Prop44ColorRGB
 90
      255
102
RTVSPost2010PropOp44
 70
     1
102
RTVSPost2010Prop45
280
     0
102
RTVSPost2010PropOp45
 70
     1
102
RTVSPost2010Prop46
 90
       50
102
RTVSPost2010PropOp46
 70
     1
102
RTVSPost2010Prop47
 90
       50
102
RTVSPost2010PropOp47
 70
     1
102
RTVSPost2010Prop48
 90
       50
102
RTVSPost2010PropOp48
 70
     1
102
RTVSPost2010Prop49
280
     0
102
RTVSPost2010PropOp49
 70
     1
102
RTVSPost2010Prop50
 90
       50
102
RTVSPost2010PropOp50
 70
     1
102
RTVSPost2010Prop51ColorIndex
 90
      256
102
RTVSPost2010Prop51ColorRGB
 90
-16777216
102
RTVSPost2010PropOp51
 70
     0
102
RTVSPost2010Prop52
140
1.0
102
RTVSPost2010PropOp52
 70
     0
102
RTVSPost2010Prop53
 90
        2
102
RTVSPost2010PropOp53
 70
     1
102
RTVSPost2010Prop54
  1
strokes_ogs.tif
102
RTVSPost2010PropOp54
 70
     1
102
RTVSPost2010Prop55
280
     0
102
RTVSPost2010PropOp55
 70
     1
102
RTVSPost2010Prop56
140
1.0
102
RTVSPost2010PropOp56
 70
     1
102
RTVSPost2010Prop57
140
1.0
102
RTVSPost2010PropOp57
 70
     1
  0
XRECORD
  5
91
102
{ACAD_REACTORS
330
90
102
}
330
90
100
AcDbXrecord
280
     1
102
RTVSPropertyOp0
 70
     1
102
RTVSPropertyOp1
 70
     1
102
RTVSPropertyOp2
 70
     1
102
RTVSPropertyOp3
 70
     1
102
RTVSPropertyOp4
 70
     1
102
RTVSPropertyOp5
 70
     1
102
RTVSPropertyOp6
 70
     1
102
RTVSPropertyOp7
 70
     1
102
RTVSPropertyOp8
 70
     1
102
RTVSPropertyOp9
 70
     1
102
RTVSPropertyOp10
 70
     1
102
RTVSPropertyOp11
 70
     1
102
RTVSPropertyOp12
 70
     1
102
RTVSPropertyOp13
 70
     1
102
RTVSPropertyOp14
 70
     1
102
RTVSPropertyOp15
 70
     1
102
RTVSPropertyOp16
 70
     1
102
RTVSPropertyOp17
 70
     1
102
RTVSPropertyOp18
 70
     1
102
RTVSPropertyOp19
 70
     1
102
RTVSPropertyOp20
 70
     1
102
RTVSPropertyOp21
 70
     1
102
RTVSPropertyOp22
 70
     1
102
RTVSPropertyOp23
 70
     1
102
RTVSPropertyOp24
 70
     1
102
RTVSPropertyOp25
 70
     1
102
RTVSPropertyOp26
 70
     1
102
RTVSPropertyOp27
 70
     1
102
RTVSPropertyOp28
 70
     1
102
RTVSPropertyOp29
 70
     1
102
RTVSPropertyOp30
 70
     1
102
RTVSPropertyOp31
 70
     1
102
RTVSPropertyOp32
 70
     1
102
RTVSPropertyOp33
 70
     1
102
RTVSPropertyOp34
 70
     1
102
RTVSPropertyOp35
 70
     1
102
RTVSPropertyOp36
 70
     1
102
RTVSPropertyOp37
 70
     1
102
RTVSPropertyOp38
 70
     1
102
RTVSPropertyOp39
 70
     1
102
RTVSPropertyOp40
 70
     1
102
RTVSPropertyOp41
 70
     1
102
RTVSPropertyOp42
 70
     1
102
RTVSPropertyOp43
 70
     1
102
RTVSPropertyOp44
 70
     1
102
RTVSPropertyOp45
 70
     1
102
RTVSPropertyOp46
 70
     1
102
RTVSPropertyOp47
 70
     1
102
RTVSPropertyOp48
 70
     1
102
RTVSPropertyOp49
 70
     1
102
RTVSPropertyOp50
 70
     1
102
RTVSPropertyOp51
 70
     0
102
RTVSPropertyOp52
 70
     0
102
RTVSPropertyOp53
 70
     1
102
RTVSPropertyOp54
 70
     1
102
RTVSPropertyOp55
 70
     1
102
RTVSPropertyOp56
 70
     1
102
RTVSPropertyOp57
 70
     1
102
RTVSPost2010Prop28
280
     0
102
RTVSPost2010PropOp28
 70
     1
102
RTVSPost2010Prop29
280
     1
102
RTVSPost2010PropOp29
 70
     1
102
RTVSPost2010Prop30
280
     1
102
RTVSPost2010PropOp30
 70
     1
102
RTVSPost2010Prop31
280
     0
102
RTVSPost2010PropOp31
 70
     1
102
RTVSPost2010Prop32
280
     0
102
RTVSPost2010PropOp32
 70
     1
102
RTVSPost2010Prop33
280
     0
102
RTVSPost2010PropOp33
 70
     1
102
RTVSPost2010Prop34
280
     0
102
RTVSPost2010PropOp34
 70
     1
102
RTVSPost2010Prop35
280
     0
102
RTVSPost2010PropOp35
 70
     1
102
RTVSPost2010Prop36
280
     0
102
RTVSPost2010PropOp36
 70
     1
102
RTVSPost2010Prop37
 90
       50
102
RTVSPost2010PropOp37
 70
     1
102
RTVSPost2010Prop38
140
0.0
102
RTVSPost2010PropOp38
 70
     1
102
RTVSPost2010Prop39
140
1.0
102
RTVSPost2010PropOp39
 70
     1
102
RTVSPost2010Prop40
 90
        0
102
RTVSPost2010PropOp40
 70
     1
102
RTVSPost2010Prop41ColorIndex
 90
       18
102
RTVSPost2010Prop41ColorRGB
 90
        0
102
RTVSPost2010PropOp41
 70
     1
102
RTVSPost2010Prop42
 90
       50
102
RTVSPost2010PropOp42
 70
     1
102
RTVSPost2010Prop43
 90
        3
102
RTVSPost2010PropOp43
 70
     1
102
RTVSPost2010Prop44ColorIndex
 90
        5
102
RTVSPost2010Prop44ColorRGB
 90
      255
102
RTVSPost2010PropOp44
 70
     1
102
RTVSPost2010Prop45
280
     0
102
RTVSPost2010PropOp45
 70
     1
102
RTVSPost2010Prop46
 90
       50
102
RTVSPost2010PropOp46
 70
     1
102
RTVSPost2010Prop47
 90
       50
102
RTVSPost2010PropOp47
 70
     1
102
RTVSPost2010Prop48
 90
       50
102
RTVSPost2010PropOp48
 70
     1
102
RTVSPost2010Prop49
280
     0
102
RTVSPost2010PropOp49
 70
     1
102
RTVSPost2010Prop50
 90
       50
102
RTVSPost2010PropOp50
 70
     1
102
RTVSPost2010Prop51ColorIndex
 90
      256
102
RTVSPost2010Prop51ColorRGB
 90
-16777216
102
RTVSPost2010PropOp51
 70
     0
102
RTVSPost2010Prop52
140
1.0
102
RTVSPost2010PropOp52
 70
     0
102
RTVSPost2010Prop53
 90
        2
102
RTVSPost2010PropOp53
 70
     1
102
RTVSPost2010Prop54
  1
strokes_ogs.tif
102
RTVSPost2010PropOp54
 70
     1
102
RTVSPost2010Prop55
280
     0
102
RTVSPost2010PropOp55
 70
     1
102
RTVSPost2010Prop56
140
1.0
102
RTVSPost2010PropOp56
 70
     1
102
RTVSPost2010Prop57
140
1.0
102
RTVSPost2010PropOp57
 70
     1
  0
XRECORD
  5
97
102
{ACAD_REACTORS
330
96
102
}
330
96
100
AcDbXrecord
280
     1
102
RTVSPropertyOp0
 70
     1
102
RTVSPropertyOp1
 70
     1
102
RTVSPropertyOp2
 70
     1
102
RTVSPropertyOp3
 70
     1
102
RTVSPropertyOp4
 70
     1
102
RTVSPropertyOp5
 70
     1
102
RTVSPropertyOp6
 70
     1
102
RTVSPropertyOp7
 70
     1
102
RTVSPropertyOp8
 70
     1
102
RTVSPropertyOp9
 70
     1
102
RTVSPropertyOp10
 70
     1
102
RTVSPropertyOp11
 70
     1
102
RTVSPropertyOp12
 70
     1
102
RTVSPropertyOp13
 70
     1
102
RTVSPropertyOp14
 70
     1
102
RTVSPropertyOp15
 70
     1
102
RTVSPropertyOp16
 70
     1
102
RTVSPropertyOp17
 70
     1
102
RTVSPropertyOp18
 70
     1
102
RTVSPropertyOp19
 70
     1
102
RTVSPropertyOp20
 70
     1
102
RTVSPropertyOp21
 70
     1
102
RTVSPropertyOp22
 70
     1
102
RTVSPropertyOp23
 70
     1
102
RTVSPropertyOp24
 70
     1
102
RTVSPropertyOp25
 70
     1
102
RTVSPropertyOp26
 70
     1
102
RTVSPropertyOp27
 70
     1
102
RTVSPropertyOp28
 70
     1
102
RTVSPropertyOp29
 70
     1
102
RTVSPropertyOp30
 70
     1
102
RTVSPropertyOp31
 70
     1
102
RTVSPropertyOp32
 70
     1
102
RTVSPropertyOp33
 70
     1
102
RTVSPropertyOp34
 70
     1
102
RTVSPropertyOp35
 70
     1
102
RTVSPropertyOp36
 70
     1
102
RTVSPropertyOp37
 70
     1
102
RTVSPropertyOp38
 70
     1
102
RTVSPropertyOp39
 70
     1
102
RTVSPropertyOp40
 70
     1
102
RTVSPropertyOp41
 70
     1
102
RTVSPropertyOp42
 70
     1
102
RTVSPropertyOp43
 70
     1
102
RTVSPropertyOp44
 70
     1
102
RTVSPropertyOp45
 70
     1
102
RTVSPropertyOp46
 70
     1
102
RTVSPropertyOp47
 70
     1
102
RTVSPropertyOp48
 70
     1
102
RTVSPropertyOp49
 70
     1
102
RTVSPropertyOp50
 70
     1
102
RTVSPropertyOp51
 70
     0
102
RTVSPropertyOp52
 70
     0
102
RTVSPropertyOp53
 70
     1
102
RTVSPropertyOp54
 70
     1
102
RTVSPropertyOp55
 70
     1
102
RTVSPropertyOp56
 70
     1
102
RTVSPropertyOp57
 70
     1
102
RTVSPost2010Prop28
280
     0
102
RTVSPost2010PropOp28
 70
     1
102
RTVSPost2010Prop29
280
     1
102
RTVSPost2010PropOp29
 70
     1
102
RTVSPost2010Prop30
280
     1
102
RTVSPost2010PropOp30
 70
     1
102
RTVSPost2010Prop31
280
     0
102
RTVSPost2010PropOp31
 70
     1
102
RTVSPost2010Prop32
280
     0
102
RTVSPost2010PropOp32
 70
     1
102
RTVSPost2010Prop33
280
     0
102
RTVSPost2010PropOp33
 70
     1
102
RTVSPost2010Prop34
280
     0
102
RTVSPost2010PropOp34
 70
     1
102
RTVSPost2010Prop35
280
     0
102
RTVSPost2010PropOp35
 70
     1
102
RTVSPost2010Prop36
280
     0
102
RTVSPost2010PropOp36
 70
     1
102
RTVSPost2010Prop37
 90
       50
102
RTVSPost2010PropOp37
 70
     1
102
RTVSPost2010Prop38
140
0.0
102
RTVSPost2010PropOp38
 70
     1
102
RTVSPost2010Prop39
140
1.0
102
RTVSPost2010PropOp39
 70
     1
102
RTVSPost2010Prop40
 90
        0
102
RTVSPost2010PropOp40
 70
     1
102
RTVSPost2010Prop41ColorIndex
 90
       18
102
RTVSPost2010Prop41ColorRGB
 90
        0
102
RTVSPost2010PropOp41
 70
     1
102
RTVSPost2010Prop42
 90
       50
102
RTVSPost2010PropOp42
 70
     1
102
RTVSPost2010Prop43
 90
        3
102
RTVSPost2010PropOp43
 70
     1
102
RTVSPost2010Prop44ColorIndex
 90
        5
102
RTVSPost2010Prop44ColorRGB
 90
      255
102
RTVSPost2010PropOp44
 70
     1
102
RTVSPost2010Prop45
280
     0
102
RTVSPost2010PropOp45
 70
     1
102
RTVSPost2010Prop46
 90
       50
102
RTVSPost2010PropOp46
 70
     1
102
RTVSPost2010Prop47
 90
       50
102
RTVSPost2010PropOp47
 70
     1
102
RTVSPost2010Prop48
 90
       50
102
RTVSPost2010PropOp48
 70
     1
102
RTVSPost2010Prop49
280
     0
102
RTVSPost2010PropOp49
 70
     1
102
RTVSPost2010Prop50
 90
       50
102
RTVSPost2010PropOp50
 70
     1
102
RTVSPost2010Prop51ColorIndex
 90
      256
102
RTVSPost2010Prop51ColorRGB
 90
-16777216
102
RTVSPost2010PropOp51
 70
     0
102
RTVSPost2010Prop52
140
1.0
102
RTVSPost2010PropOp52
 70
     0
102
RTVSPost2010Prop53
 90
        2
102
RTVSPost2010PropOp53
 70
     1
102
RTVSPost2010Prop54
  1
strokes_ogs.tif
102
RTVSPost2010PropOp54
 70
     1
102
RTVSPost2010Prop55
280
     0
102
RTVSPost2010PropOp55
 70
     1
102
RTVSPost2010Prop56
140
1.0
102
RTVSPost2010PropOp56
 70
     1
102
RTVSPost2010Prop57
140
1.0
102
RTVSPost2010PropOp57
 70
     1
  0
XRECORD
  5
AB
102
{ACAD_REACTORS
330
AA
102
}
330
AA
100
AcDbXrecord
280
     1
102
RTVSPropertyOp0
 70
     0
102
RTVSPropertyOp1
 70
     0
102
RTVSPropertyOp2
 70
     0
102
RTVSPropertyOp3
 70
     0
102
RTVSPropertyOp4
 70
     0
102
RTVSPropertyOp5
 70
     0
102
RTVSPropertyOp6
 70
     0
102
RTVSPropertyOp7
 70
     0
102
RTVSPropertyOp8
 70
     0
102
RTVSPropertyOp9
 70
     0
102
RTVSPropertyOp10
 70
     0
102
RTVSPropertyOp11
 70
     0
102
RTVSPropertyOp12
 70
     0
102
RTVSPropertyOp13
 70
     0
102
RTVSPropertyOp14
 70
     2
102
RTVSPropertyOp15
 70
     0
102
RTVSPropertyOp16
 70
     0
102
RTVSPropertyOp17
 70
     0
102
RTVSPropertyOp18
 70
     0
102
RTVSPropertyOp19
 70
     0
102
RTVSPropertyOp20
 70
     0
102
RTVSPropertyOp21
 70
     0
102
RTVSPropertyOp22
 70
     0
102
RTVSPropertyOp23
 70
     0
102
RTVSPropertyOp24
 70
     0
102
RTVSPropertyOp25
 70
     0
102
RTVSPropertyOp26
 70
     0
102
RTVSPropertyOp27
 70
     0
102
RTVSPropertyOp28
 70
     0
102
RTVSPropertyOp29
 70
     0
102
RTVSPropertyOp30
 70
     0
102
RTVSPropertyOp31
 70
     0
102
RTVSPropertyOp32
 70
     0
102
RTVSPropertyOp33
 70
     0
102
RTVSPropertyOp34
 70
     0
102
RTVSPropertyOp35
 70
     0
102
RTVSPropertyOp36
 70
     0
102
RTVSPropertyOp37
 70
     0
102
RTVSPropertyOp38
 70
     0
102
RTVSPropertyOp39
 70
     0
102
RTVSPropertyOp40
 70
     0
102
RTVSPropertyOp41
 70
     0
102
RTVSPropertyOp42
 70
     0
102
RTVSPropertyOp43
 70
     0
102
RTVSPropertyOp44
 70
     0
102
RTVSPropertyOp45
 70
     0
102
RTVSPropertyOp46
 70
     0
102
RTVSPropertyOp47
 70
     0
102
RTVSPropertyOp48
 70
     0
102
RTVSPropertyOp49
 70
     0
102
RTVSPropertyOp50
 70
     0
102
RTVSPropertyOp51
 70
     0
102
RTVSPropertyOp52
 70
     0
102
RTVSPropertyOp53
 70
     0
102
RTVSPropertyOp54
 70
     0
102
RTVSPropertyOp55
 70
     0
102
RTVSPropertyOp56
 70
     0
102
RTVSPropertyOp57
 70
     0
102
RTVSPost2010Prop28
280
     0
102
RTVSPost2010PropOp28
 70
     0
102
RTVSPost2010Prop29
280
     1
102
RTVSPost2010PropOp29
 70
     0
102
RTVSPost2010Prop30
280
     1
102
RTVSPost2010PropOp30
 70
     0
102
RTVSPost2010Prop31
280
     0
102
RTVSPost2010PropOp31
 70
     0
102
RTVSPost2010Prop32
280
     0
102
RTVSPost2010PropOp32
 70
     0
102
RTVSPost2010Prop33
280
     0
102
RTVSPost2010PropOp33
 70
     0
102
RTVSPost2010Prop34
280
     0
102
RTVSPost2010PropOp34
 70
     0
102
RTVSPost2010Prop35
280
     0
102
RTVSPost2010PropOp35
 70
     0
102
RTVSPost2010Prop36
280
     0
102
RTVSPost2010PropOp36
 70
     0
102
RTVSPost2010Prop37
 90
       50
102
RTVSPost2010PropOp37
 70
     0
102
RTVSPost2010Prop38
140
0.0
102
RTVSPost2010PropOp38
 70
     0
102
RTVSPost2010Prop39
140
1.0
102
RTVSPost2010PropOp39
 70
     0
102
RTVSPost2010Prop40
 90
        0
102
RTVSPost2010PropOp40
 70
     0
102
RTVSPost2010Prop41ColorIndex
 90
       18
102
RTVSPost2010Prop41ColorRGB
 90
        0
102
RTVSPost2010PropOp41
 70
     0
102
RTVSPost2010Prop42
 90
       50
102
RTVSPost2010PropOp42
 70
     0
102
RTVSPost2010Prop43
 90
        3
102
RTVSPost2010PropOp43
 70
     0
102
RTVSPost2010Prop44ColorIndex
 90
        5
102
RTVSPost2010Prop44ColorRGB
 90
      255
102
RTVSPost2010PropOp44
 70
     0
102
RTVSPost2010Prop45
280
     0
102
RTVSPost2010PropOp45
 70
     0
102
RTVSPost2010Prop46
 90
       50
102
RTVSPost2010PropOp46
 70
     0
102
RTVSPost2010Prop47
 90
       50
102
RTVSPost2010PropOp47
 70
     0
102
RTVSPost2010Prop48
 90
       50
102
RTVSPost2010PropOp48
 70
     0
102
RTVSPost2010Prop49
280
     0
102
RTVSPost2010PropOp49
 70
     0
102
RTVSPost2010Prop50
 90
       50
102
RTVSPost2010PropOp50
 70
     0
102
RTVSPost2010Prop51ColorIndex
 90
      256
102
RTVSPost2010Prop51ColorRGB
 90
-16777216
102
RTVSPost2010PropOp51
 70
     0
102
RTVSPost2010Prop52
140
1.0
102
RTVSPost2010PropOp52
 70
     0
102
RTVSPost2010Prop53
 90
        2
102
RTVSPost2010PropOp53
 70
     0
102
RTVSPost2010Prop54
  1
strokes_ogs.tif
102
RTVSPost2010PropOp54
 70
     0
102
RTVSPost2010Prop55
280
     0
102
RTVSPost2010PropOp55
 70
     0
102
RTVSPost2010Prop56
140
1.0
102
RTVSPost2010PropOp56
 70
     0
102
RTVSPost2010Prop57
140
1.0
102
RTVSPost2010PropOp57
 70
     0
  0
XRECORD
  5
A5
102
{ACAD_REACTORS
330
A4
102
}
330
A4
100
AcDbXrecord
280
     1
102
RTVSPropertyOp0
 70
     1
102
RTVSPropertyOp1
 70
     1
102
RTVSPropertyOp2
 70
     1
102
RTVSPropertyOp3
 70
     1
102
RTVSPropertyOp4
 70
     1
102
RTVSPropertyOp5
 70
     1
102
RTVSPropertyOp6
 70
     1
102
RTVSPropertyOp7
 70
     1
102
RTVSPropertyOp8
 70
     1
102
RTVSPropertyOp9
 70
     1
102
RTVSPropertyOp10
 70
     1
102
RTVSPropertyOp11
 70
     1
102
RTVSPropertyOp12
 70
     1
102
RTVSPropertyOp13
 70
     1
102
RTVSPropertyOp14
 70
     1
102
RTVSPropertyOp15
 70
     1
102
RTVSPropertyOp16
 70
     1
102
RTVSPropertyOp17
 70
     1
102
RTVSPropertyOp18
 70
     1
102
RTVSPropertyOp19
 70
     1
102
RTVSPropertyOp20
 70
     1
102
RTVSPropertyOp21
 70
     1
102
RTVSPropertyOp22
 70
     1
102
RTVSPropertyOp23
 70
     1
102
RTVSPropertyOp24
 70
     1
102
RTVSPropertyOp25
 70
     1
102
RTVSPropertyOp26
 70
     1
102
RTVSPropertyOp27
 70
     1
102
RTVSPropertyOp28
 70
     1
102
RTVSPropertyOp29
 70
     1
102
RTVSPropertyOp30
 70
     1
102
RTVSPropertyOp31
 70
     1
102
RTVSPropertyOp32
 70
     1
102
RTVSPropertyOp33
 70
     1
102
RTVSPropertyOp34
 70
     1
102
RTVSPropertyOp35
 70
     1
102
RTVSPropertyOp36
 70
     1
102
RTVSPropertyOp37
 70
     1
102
RTVSPropertyOp38
 70
     1
102
RTVSPropertyOp39
 70
     1
102
RTVSPropertyOp40
 70
     1
102
RTVSPropertyOp41
 70
     1
102
RTVSPropertyOp42
 70
     1
102
RTVSPropertyOp43
 70
     1
102
RTVSPropertyOp44
 70
     1
102
RTVSPropertyOp45
 70
     1
102
RTVSPropertyOp46
 70
     1
102
RTVSPropertyOp47
 70
     1
102
RTVSPropertyOp48
 70
     1
102
RTVSPropertyOp49
 70
     1
102
RTVSPropertyOp50
 70
     1
102
RTVSPropertyOp51
 70
     0
102
RTVSPropertyOp52
 70
     0
102
RTVSPropertyOp53
 70
     1
102
RTVSPropertyOp54
 70
     1
102
RTVSPropertyOp55
 70
     1
102
RTVSPropertyOp56
 70
     1
102
RTVSPropertyOp57
 70
     1
102
RTVSPost2010Prop28
280
     0
102
RTVSPost2010PropOp28
 70
     1
102
RTVSPost2010Prop29
280
     1
102
RTVSPost2010PropOp29
 70
     1
102
RTVSPost2010Prop30
280
     1
102
RTVSPost2010PropOp30
 70
     1
102
RTVSPost2010Prop31
280
     0
102
RTVSPost2010PropOp31
 70
     1
102
RTVSPost2010Prop32
280
     0
102
RTVSPost2010PropOp32
 70
     1
102
RTVSPost2010Prop33
280
     0
102
RTVSPost2010PropOp33
 70
     1
102
RTVSPost2010Prop34
280
     0
102
RTVSPost2010PropOp34
 70
     1
102
RTVSPost2010Prop35
280
     0
102
RTVSPost2010PropOp35
 70
     1
102
RTVSPost2010Prop36
280
     0
102
RTVSPost2010PropOp36
 70
     1
102
RTVSPost2010Prop37
 90
       50
102
RTVSPost2010PropOp37
 70
     1
102
RTVSPost2010Prop38
140
0.0
102
RTVSPost2010PropOp38
 70
     1
102
RTVSPost2010Prop39
140
1.0
102
RTVSPost2010PropOp39
 70
     1
102
RTVSPost2010Prop40
 90
        0
102
RTVSPost2010PropOp40
 70
     1
102
RTVSPost2010Prop41ColorIndex
 90
       18
102
RTVSPost2010Prop41ColorRGB
 90
        0
102
RTVSPost2010PropOp41
 70
     1
102
RTVSPost2010Prop42
 90
       50
102
RTVSPost2010PropOp42
 70
     1
102
RTVSPost2010Prop43
 90
        3
102
RTVSPost2010PropOp43
 70
     1
102
RTVSPost2010Prop44ColorIndex
 90
        5
102
RTVSPost2010Prop44ColorRGB
 90
      255
102
RTVSPost2010PropOp44
 70
     1
102
RTVSPost2010Prop45
280
     0
102
RTVSPost2010PropOp45
 70
     1
102
RTVSPost2010Prop46
 90
       50
102
RTVSPost2010PropOp46
 70
     1
102
RTVSPost2010Prop47
 90
       50
102
RTVSPost2010PropOp47
 70
     1
102
RTVSPost2010Prop48
 90
       50
102
RTVSPost2010PropOp48
 70
     1
102
RTVSPost2010Prop49
280
     0
102
RTVSPost2010PropOp49
 70
     1
102
RTVSPost2010Prop50
 90
       50
102
RTVSPost2010PropOp50
 70
     1
102
RTVSPost2010Prop51ColorIndex
 90
      256
102
RTVSPost2010Prop51ColorRGB
 90
-16777216
102
RTVSPost2010PropOp51
 70
     0
102
RTVSPost2010Prop52
140
1.0
102
RTVSPost2010PropOp52
 70
     0
102
RTVSPost2010Prop53
 90
        2
102
RTVSPost2010PropOp53
 70
     1
102
RTVSPost2010Prop54
  1
strokes_ogs.tif
102
RTVSPost2010PropOp54
 70
     1
102
RTVSPost2010Prop55
280
     0
102
RTVSPost2010PropOp55
 70
     1
102
RTVSPost2010Prop56
140
1.0
102
RTVSPost2010PropOp56
 70
     1
102
RTVSPost2010Prop57
140
1.0
102
RTVSPost2010PropOp57
 70
     1
  0
XRECORD
  5
AD
102
{ACAD_REACTORS
330
AC
102
}
330
AC
100
AcDbXrecord
280
     1
102
RTVSPropertyOp0
 70
     0
102
RTVSPropertyOp1
 70
     0
102
RTVSPropertyOp2
 70
     0
102
RTVSPropertyOp3
 70
     0
102
RTVSPropertyOp4
 70
     0
102
RTVSPropertyOp5
 70
     0
102
RTVSPropertyOp6
 70
     0
102
RTVSPropertyOp7
 70
     0
102
RTVSPropertyOp8
 70
     0
102
RTVSPropertyOp9
 70
     0
102
RTVSPropertyOp10
 70
     0
102
RTVSPropertyOp11
 70
     0
102
RTVSPropertyOp12
 70
     0
102
RTVSPropertyOp13
 70
     0
102
RTVSPropertyOp14
 70
     2
102
RTVSPropertyOp15
 70
     0
102
RTVSPropertyOp16
 70
     0
102
RTVSPropertyOp17
 70
     0
102
RTVSPropertyOp18
 70
     0
102
RTVSPropertyOp19
 70
     0
102
RTVSPropertyOp20
 70
     0
102
RTVSPropertyOp21
 70
     0
102
RTVSPropertyOp22
 70
     0
102
RTVSPropertyOp23
 70
     0
102
RTVSPropertyOp24
 70
     0
102
RTVSPropertyOp25
 70
     0
102
RTVSPropertyOp26
 70
     0
102
RTVSPropertyOp27
 70
     0
102
RTVSPropertyOp28
 70
     0
102
RTVSPropertyOp29
 70
     0
102
RTVSPropertyOp30
 70
     0
102
RTVSPropertyOp31
 70
     0
102
RTVSPropertyOp32
 70
     0
102
RTVSPropertyOp33
 70
     0
102
RTVSPropertyOp34
 70
     0
102
RTVSPropertyOp35
 70
     0
102
RTVSPropertyOp36
 70
     0
102
RTVSPropertyOp37
 70
     0
102
RTVSPropertyOp38
 70
     0
102
RTVSPropertyOp39
 70
     0
102
RTVSPropertyOp40
 70
     0
102
RTVSPropertyOp41
 70
     0
102
RTVSPropertyOp42
 70
     0
102
RTVSPropertyOp43
 70
     0
102
RTVSPropertyOp44
 70
     0
102
RTVSPropertyOp45
 70
     0
102
RTVSPropertyOp46
 70
     0
102
RTVSPropertyOp47
 70
     0
102
RTVSPropertyOp48
 70
     0
102
RTVSPropertyOp49
 70
     0
102
RTVSPropertyOp50
 70
     0
102
RTVSPropertyOp51
 70
     0
102
RTVSPropertyOp52
 70
     0
102
RTVSPropertyOp53
 70
     0
102
RTVSPropertyOp54
 70
     0
102
RTVSPropertyOp55
 70
     0
102
RTVSPropertyOp56
 70
     0
102
RTVSPropertyOp57
 70
     0
102
RTVSPost2010Prop28
280
     0
102
RTVSPost2010PropOp28
 70
     0
102
RTVSPost2010Prop29
280
     1
102
RTVSPost2010PropOp29
 70
     0
102
RTVSPost2010Prop30
280
     1
102
RTVSPost2010PropOp30
 70
     0
102
RTVSPost2010Prop31
280
     0
102
RTVSPost2010PropOp31
 70
     0
102
RTVSPost2010Prop32
280
     0
102
RTVSPost2010PropOp32
 70
     0
102
RTVSPost2010Prop33
280
     0
102
RTVSPost2010PropOp33
 70
     0
102
RTVSPost2010Prop34
280
     0
102
RTVSPost2010PropOp34
 70
     0
102
RTVSPost2010Prop35
280
     0
102
RTVSPost2010PropOp35
 70
     0
102
RTVSPost2010Prop36
280
     0
102
RTVSPost2010PropOp36
 70
     0
102
RTVSPost2010Prop37
 90
       50
102
RTVSPost2010PropOp37
 70
     0
102
RTVSPost2010Prop38
140
0.0
102
RTVSPost2010PropOp38
 70
     0
102
RTVSPost2010Prop39
140
1.0
102
RTVSPost2010PropOp39
 70
     0
102
RTVSPost2010Prop40
 90
        0
102
RTVSPost2010PropOp40
 70
     0
102
RTVSPost2010Prop41ColorIndex
 90
       18
102
RTVSPost2010Prop41ColorRGB
 90
        0
102
RTVSPost2010PropOp41
 70
     0
102
RTVSPost2010Prop42
 90
       50
102
RTVSPost2010PropOp42
 70
     0
102
RTVSPost2010Prop43
 90
        3
102
RTVSPost2010PropOp43
 70
     0
102
RTVSPost2010Prop44ColorIndex
 90
        5
102
RTVSPost2010Prop44ColorRGB
 90
      255
102
RTVSPost2010PropOp44
 70
     0
102
RTVSPost2010Prop45
280
     0
102
RTVSPost2010PropOp45
 70
     0
102
RTVSPost2010Prop46
 90
       50
102
RTVSPost2010PropOp46
 70
     0
102
RTVSPost2010Prop47
 90
       50
102
RTVSPost2010PropOp47
 70
     0
102
RTVSPost2010Prop48
 90
       50
102
RTVSPost2010PropOp48
 70
     0
102
RTVSPost2010Prop49
280
     0
102
RTVSPost2010PropOp49
 70
     0
102
RTVSPost2010Prop50
 90
       50
102
RTVSPost2010PropOp50
 70
     0
102
RTVSPost2010Prop51ColorIndex
 90
      256
102
RTVSPost2010Prop51ColorRGB
 90
-16777216
102
RTVSPost2010PropOp51
 70
     0
102
RTVSPost2010Prop52
140
1.0
102
RTVSPost2010PropOp52
 70
     0
102
RTVSPost2010Prop53
 90
        2
102
RTVSPost2010PropOp53
 70
     0
102
RTVSPost2010Prop54
  1
strokes_ogs.tif
102
RTVSPost2010PropOp54
 70
     0
102
RTVSPost2010Prop55
280
     0
102
RTVSPost2010PropOp55
 70
     0
102
RTVSPost2010Prop56
140
1.0
102
RTVSPost2010PropOp56
 70
     0
102
RTVSPost2010Prop57
140
1.0
102
RTVSPost2010PropOp57
 70
     0
  0
XRECORD
  5
9B
102
{ACAD_REACTORS
330
9A
102
}
330
9A
100
AcDbXrecord
280
     1
102
RTVSPropertyOp0
 70
     1
102
RTVSPropertyOp1
 70
     1
102
RTVSPropertyOp2
 70
     1
102
RTVSPropertyOp3
 70
     1
102
RTVSPropertyOp4
 70
     1
102
RTVSPropertyOp5
 70
     1
102
RTVSPropertyOp6
 70
     1
102
RTVSPropertyOp7
 70
     1
102
RTVSPropertyOp8
 70
     1
102
RTVSPropertyOp9
 70
     1
102
RTVSPropertyOp10
 70
     1
102
RTVSPropertyOp11
 70
     1
102
RTVSPropertyOp12
 70
     1
102
RTVSPropertyOp13
 70
     1
102
RTVSPropertyOp14
 70
     1
102
RTVSPropertyOp15
 70
     1
102
RTVSPropertyOp16
 70
     1
102
RTVSPropertyOp17
 70
     1
102
RTVSPropertyOp18
 70
     1
102
RTVSPropertyOp19
 70
     1
102
RTVSPropertyOp20
 70
     1
102
RTVSPropertyOp21
 70
     1
102
RTVSPropertyOp22
 70
     1
102
RTVSPropertyOp23
 70
     1
102
RTVSPropertyOp24
 70
     1
102
RTVSPropertyOp25
 70
     1
102
RTVSPropertyOp26
 70
     1
102
RTVSPropertyOp27
 70
     1
102
RTVSPropertyOp28
 70
     1
102
RTVSPropertyOp29
 70
     1
102
RTVSPropertyOp30
 70
     1
102
RTVSPropertyOp31
 70
     1
102
RTVSPropertyOp32
 70
     1
102
RTVSPropertyOp33
 70
     1
102
RTVSPropertyOp34
 70
     1
102
RTVSPropertyOp35
 70
     1
102
RTVSPropertyOp36
 70
     1
102
RTVSPropertyOp37
 70
     1
102
RTVSPropertyOp38
 70
     1
102
RTVSPropertyOp39
 70
     1
102
RTVSPropertyOp40
 70
     1
102
RTVSPropertyOp41
 70
     1
102
RTVSPropertyOp42
 70
     1
102
RTVSPropertyOp43
 70
     1
102
RTVSPropertyOp44
 70
     1
102
RTVSPropertyOp45
 70
     1
102
RTVSPropertyOp46
 70
     1
102
RTVSPropertyOp47
 70
     1
102
RTVSPropertyOp48
 70
     1
102
RTVSPropertyOp49
 70
     1
102
RTVSPropertyOp50
 70
     1
102
RTVSPropertyOp51
 70
     0
102
RTVSPropertyOp52
 70
     0
102
RTVSPropertyOp53
 70
     1
102
RTVSPropertyOp54
 70
     1
102
RTVSPropertyOp55
 70
     1
102
RTVSPropertyOp56
 70
     1
102
RTVSPropertyOp57
 70
     1
102
RTVSPost2010Prop28
280
     0
102
RTVSPost2010PropOp28
 70
     1
102
RTVSPost2010Prop29
280
     1
102
RTVSPost2010PropOp29
 70
     1
102
RTVSPost2010Prop30
280
     1
102
RTVSPost2010PropOp30
 70
     1
102
RTVSPost2010Prop31
280
     0
102
RTVSPost2010PropOp31
 70
     1
102
RTVSPost2010Prop32
280
     0
102
RTVSPost2010PropOp32
 70
     1
102
RTVSPost2010Prop33
280
     0
102
RTVSPost2010PropOp33
 70
     1
102
RTVSPost2010Prop34
280
     0
102
RTVSPost2010PropOp34
 70
     1
102
RTVSPost2010Prop35
280
     0
102
RTVSPost2010PropOp35
 70
     1
102
RTVSPost2010Prop36
280
     0
102
RTVSPost2010PropOp36
 70
     1
102
RTVSPost2010Prop37
 90
       50
102
RTVSPost2010PropOp37
 70
     1
102
RTVSPost2010Prop38
140
0.0
102
RTVSPost2010PropOp38
 70
     1
102
RTVSPost2010Prop39
140
1.0
102
RTVSPost2010PropOp39
 70
     1
102
RTVSPost2010Prop40
 90
        0
102
RTVSPost2010PropOp40
 70
     1
102
RTVSPost2010Prop41ColorIndex
 90
       18
102
RTVSPost2010Prop41ColorRGB
 90
        0
102
RTVSPost2010PropOp41
 70
     1
102
RTVSPost2010Prop42
 90
       50
102
RTVSPost2010PropOp42
 70
     1
102
RTVSPost2010Prop43
 90
        3
102
RTVSPost2010PropOp43
 70
     1
102
RTVSPost2010Prop44ColorIndex
 90
        5
102
RTVSPost2010Prop44ColorRGB
 90
      255
102
RTVSPost2010PropOp44
 70
     1
102
RTVSPost2010Prop45
280
     0
102
RTVSPost2010PropOp45
 70
     1
102
RTVSPost2010Prop46
 90
       50
102
RTVSPost2010PropOp46
 70
     1
102
RTVSPost2010Prop47
 90
       50
102
RTVSPost2010PropOp47
 70
     1
102
RTVSPost2010Prop48
 90
       50
102
RTVSPost2010PropOp48
 70
     1
102
RTVSPost2010Prop49
280
     0
102
RTVSPost2010PropOp49
 70
     1
102
RTVSPost2010Prop50
 90
       50
102
RTVSPost2010PropOp50
 70
     1
102
RTVSPost2010Prop51ColorIndex
 90
      256
102
RTVSPost2010Prop51ColorRGB
 90
-16777216
102
RTVSPost2010PropOp51
 70
     0
102
RTVSPost2010Prop52
140
1.0
102
RTVSPost2010PropOp52
 70
     0
102
RTVSPost2010Prop53
 90
        2
102
RTVSPost2010PropOp53
 70
     1
102
RTVSPost2010Prop54
  1
strokes_ogs.tif
102
RTVSPost2010PropOp54
 70
     1
102
RTVSPost2010Prop55
280
     0
102
RTVSPost2010PropOp55
 70
     1
102
RTVSPost2010Prop56
140
1.0
102
RTVSPost2010PropOp56
 70
     1
102
RTVSPost2010Prop57
140
1.0
102
RTVSPost2010PropOp57
 70
     1
  0
XRECORD
  5
B9
102
{ACAD_REACTORS
330
B8
102
}
330
B8
100
AcDbXrecord
280
     1
102
RTVSPropertyOp0
 70
     1
102
RTVSPropertyOp1
 70
     1
102
RTVSPropertyOp2
 70
     1
102
RTVSPropertyOp3
 70
     1
102
RTVSPropertyOp4
 70
     1
102
RTVSPropertyOp5
 70
     1
102
RTVSPropertyOp6
 70
     1
102
RTVSPropertyOp7
 70
     1
102
RTVSPropertyOp8
 70
     1
102
RTVSPropertyOp9
 70
     1
102
RTVSPropertyOp10
 70
     1
102
RTVSPropertyOp11
 70
     1
102
RTVSPropertyOp12
 70
     1
102
RTVSPropertyOp13
 70
     1
102
RTVSPropertyOp14
 70
     1
102
RTVSPropertyOp15
 70
     1
102
RTVSPropertyOp16
 70
     1
102
RTVSPropertyOp17
 70
     1
102
RTVSPropertyOp18
 70
     1
102
RTVSPropertyOp19
 70
     1
102
RTVSPropertyOp20
 70
     1
102
RTVSPropertyOp21
 70
     1
102
RTVSPropertyOp22
 70
     1
102
RTVSPropertyOp23
 70
     1
102
RTVSPropertyOp24
 70
     1
102
RTVSPropertyOp25
 70
     1
102
RTVSPropertyOp26
 70
     1
102
RTVSPropertyOp27
 70
     1
102
RTVSPropertyOp28
 70
     1
102
RTVSPropertyOp29
 70
     1
102
RTVSPropertyOp30
 70
     1
102
RTVSPropertyOp31
 70
     1
102
RTVSPropertyOp32
 70
     1
102
RTVSPropertyOp33
 70
     1
102
RTVSPropertyOp34
 70
     1
102
RTVSPropertyOp35
 70
     1
102
RTVSPropertyOp36
 70
     1
102
RTVSPropertyOp37
 70
     1
102
RTVSPropertyOp38
 70
     1
102
RTVSPropertyOp39
 70
     1
102
RTVSPropertyOp40
 70
     1
102
RTVSPropertyOp41
 70
     1
102
RTVSPropertyOp42
 70
     1
102
RTVSPropertyOp43
 70
     1
102
RTVSPropertyOp44
 70
     1
102
RTVSPropertyOp45
 70
     1
102
RTVSPropertyOp46
 70
     1
102
RTVSPropertyOp47
 70
     1
102
RTVSPropertyOp48
 70
     1
102
RTVSPropertyOp49
 70
     1
102
RTVSPropertyOp50
 70
     1
102
RTVSPropertyOp51
 70
     0
102
RTVSPropertyOp52
 70
     0
102
RTVSPropertyOp53
 70
     1
102
RTVSPropertyOp54
 70
     1
102
RTVSPropertyOp55
 70
     1
102
RTVSPropertyOp56
 70
     1
102
RTVSPropertyOp57
 70
     1
102
RTVSPost2010Prop28
280
     0
102
RTVSPost2010PropOp28
 70
     1
102
RTVSPost2010Prop29
280
     1
102
RTVSPost2010PropOp29
 70
     1
102
RTVSPost2010Prop30
280
     1
102
RTVSPost2010PropOp30
 70
     1
102
RTVSPost2010Prop31
280
     0
102
RTVSPost2010PropOp31
 70
     1
102
RTVSPost2010Prop32
280
     0
102
RTVSPost2010PropOp32
 70
     1
102
RTVSPost2010Prop33
280
     0
102
RTVSPost2010PropOp33
 70
     1
102
RTVSPost2010Prop34
280
     0
102
RTVSPost2010PropOp34
 70
     1
102
RTVSPost2010Prop35
280
     0
102
RTVSPost2010PropOp35
 70
     1
102
RTVSPost2010Prop36
280
     0
102
RTVSPost2010PropOp36
 70
     1
102
RTVSPost2010Prop37
 90
       50
102
RTVSPost2010PropOp37
 70
     1
102
RTVSPost2010Prop38
140
0.0
102
RTVSPost2010PropOp38
 70
     1
102
RTVSPost2010Prop39
140
1.0
102
RTVSPost2010PropOp39
 70
     1
102
RTVSPost2010Prop40
 90
        0
102
RTVSPost2010PropOp40
 70
     1
102
RTVSPost2010Prop41ColorIndex
 90
       18
102
RTVSPost2010Prop41ColorRGB
 90
        0
102
RTVSPost2010PropOp41
 70
     1
102
RTVSPost2010Prop42
 90
       50
102
RTVSPost2010PropOp42
 70
     1
102
RTVSPost2010Prop43
 90
        3
102
RTVSPost2010PropOp43
 70
     1
102
RTVSPost2010Prop44ColorIndex
 90
        5
102
RTVSPost2010Prop44ColorRGB
 90
      255
102
RTVSPost2010PropOp44
 70
     1
102
RTVSPost2010Prop45
280
     0
102
RTVSPost2010PropOp45
 70
     1
102
RTVSPost2010Prop46
 90
       50
102
RTVSPost2010PropOp46
 70
     1
102
RTVSPost2010Prop47
 90
       50
102
RTVSPost2010PropOp47
 70
     1
102
RTVSPost2010Prop48
 90
       50
102
RTVSPost2010PropOp48
 70
     1
102
RTVSPost2010Prop49
280
     0
102
RTVSPost2010PropOp49
 70
     1
102
RTVSPost2010Prop50
 90
       50
102
RTVSPost2010PropOp50
 70
     1
102
RTVSPost2010Prop51ColorIndex
 90
      256
102
RTVSPost2010Prop51ColorRGB
 90
-16777216
102
RTVSPost2010PropOp51
 70
     0
102
RTVSPost2010Prop52
140
1.0
102
RTVSPost2010PropOp52
 70
     0
102
RTVSPost2010Prop53
 90
        2
102
RTVSPost2010PropOp53
 70
     1
102
RTVSPost2010Prop54
  1
strokes_ogs.tif
102
RTVSPost2010PropOp54
 70
     1
102
RTVSPost2010Prop55
280
     0
102
RTVSPost2010PropOp55
 70
     1
102
RTVSPost2010Prop56
140
1.0
102
RTVSPost2010PropOp56
 70
     1
102
RTVSPost2010Prop57
140
1.0
102
RTVSPost2010PropOp57
 70
     1
  0
XRECORD
  5
B7
102
{ACAD_REACTORS
330
B6
102
}
330
B6
100
AcDbXrecord
280
     1
102
RTVSPropertyOp0
 70
     1
102
RTVSPropertyOp1
 70
     1
102
RTVSPropertyOp2
 70
     1
102
RTVSPropertyOp3
 70
     1
102
RTVSPropertyOp4
 70
     1
102
RTVSPropertyOp5
 70
     1
102
RTVSPropertyOp6
 70
     1
102
RTVSPropertyOp7
 70
     1
102
RTVSPropertyOp8
 70
     1
102
RTVSPropertyOp9
 70
     1
102
RTVSPropertyOp10
 70
     1
102
RTVSPropertyOp11
 70
     1
102
RTVSPropertyOp12
 70
     1
102
RTVSPropertyOp13
 70
     1
102
RTVSPropertyOp14
 70
     1
102
RTVSPropertyOp15
 70
     1
102
RTVSPropertyOp16
 70
     1
102
RTVSPropertyOp17
 70
     1
102
RTVSPropertyOp18
 70
     1
102
RTVSPropertyOp19
 70
     1
102
RTVSPropertyOp20
 70
     1
102
RTVSPropertyOp21
 70
     1
102
RTVSPropertyOp22
 70
     1
102
RTVSPropertyOp23
 70
     1
102
RTVSPropertyOp24
 70
     1
102
RTVSPropertyOp25
 70
     1
102
RTVSPropertyOp26
 70
     1
102
RTVSPropertyOp27
 70
     1
102
RTVSPropertyOp28
 70
     1
102
RTVSPropertyOp29
 70
     1
102
RTVSPropertyOp30
 70
     1
102
RTVSPropertyOp31
 70
     1
102
RTVSPropertyOp32
 70
     1
102
RTVSPropertyOp33
 70
     1
102
RTVSPropertyOp34
 70
     1
102
RTVSPropertyOp35
 70
     1
102
RTVSPropertyOp36
 70
     1
102
RTVSPropertyOp37
 70
     1
102
RTVSPropertyOp38
 70
     1
102
RTVSPropertyOp39
 70
     1
102
RTVSPropertyOp40
 70
     1
102
RTVSPropertyOp41
 70
     1
102
RTVSPropertyOp42
 70
     1
102
RTVSPropertyOp43
 70
     1
102
RTVSPropertyOp44
 70
     1
102
RTVSPropertyOp45
 70
     1
102
RTVSPropertyOp46
 70
     1
102
RTVSPropertyOp47
 70
     1
102
RTVSPropertyOp48
 70
     1
102
RTVSPropertyOp49
 70
     1
102
RTVSPropertyOp50
 70
     1
102
RTVSPropertyOp51
 70
     0
102
RTVSPropertyOp52
 70
     0
102
RTVSPropertyOp53
 70
     1
102
RTVSPropertyOp54
 70
     1
102
RTVSPropertyOp55
 70
     1
102
RTVSPropertyOp56
 70
     1
102
RTVSPropertyOp57
 70
     1
102
RTVSPost2010Prop28
280
     0
102
RTVSPost2010PropOp28
 70
     1
102
RTVSPost2010Prop29
280
     1
102
RTVSPost2010PropOp29
 70
     1
102
RTVSPost2010Prop30
280
     1
102
RTVSPost2010PropOp30
 70
     1
102
RTVSPost2010Prop31
280
     0
102
RTVSPost2010PropOp31
 70
     1
102
RTVSPost2010Prop32
280
     0
102
RTVSPost2010PropOp32
 70
     1
102
RTVSPost2010Prop33
280
     0
102
RTVSPost2010PropOp33
 70
     1
102
RTVSPost2010Prop34
280
     0
102
RTVSPost2010PropOp34
 70
     1
102
RTVSPost2010Prop35
280
     0
102
RTVSPost2010PropOp35
 70
     1
102
RTVSPost2010Prop36
280
     0
102
RTVSPost2010PropOp36
 70
     1
102
RTVSPost2010Prop37
 90
       50
102
RTVSPost2010PropOp37
 70
     1
102
RTVSPost2010Prop38
140
0.0
102
RTVSPost2010PropOp38
 70
     1
102
RTVSPost2010Prop39
140
1.0
102
RTVSPost2010PropOp39
 70
     1
102
RTVSPost2010Prop40
 90
        0
102
RTVSPost2010PropOp40
 70
     1
102
RTVSPost2010Prop41ColorIndex
 90
       18
102
RTVSPost2010Prop41ColorRGB
 90
        0
102
RTVSPost2010PropOp41
 70
     1
102
RTVSPost2010Prop42
 90
       50
102
RTVSPost2010PropOp42
 70
     1
102
RTVSPost2010Prop43
 90
        3
102
RTVSPost2010PropOp43
 70
     1
102
RTVSPost2010Prop44ColorIndex
 90
        5
102
RTVSPost2010Prop44ColorRGB
 90
      255
102
RTVSPost2010PropOp44
 70
     1
102
RTVSPost2010Prop45
280
     0
102
RTVSPost2010PropOp45
 70
     1
102
RTVSPost2010Prop46
 90
       50
102
RTVSPost2010PropOp46
 70
     1
102
RTVSPost2010Prop47
 90
       50
102
RTVSPost2010PropOp47
 70
     1
102
RTVSPost2010Prop48
 90
       50
102
RTVSPost2010PropOp48
 70
     1
102
RTVSPost2010Prop49
280
     0
102
RTVSPost2010PropOp49
 70
     1
102
RTVSPost2010Prop50
 90
       50
102
RTVSPost2010PropOp50
 70
     1
102
RTVSPost2010Prop51ColorIndex
 90
      256
102
RTVSPost2010Prop51ColorRGB
 90
-16777216
102
RTVSPost2010PropOp51
 70
     0
102
RTVSPost2010Prop52
140
1.0
102
RTVSPost2010PropOp52
 70
     0
102
RTVSPost2010Prop53
 90
        2
102
RTVSPost2010PropOp53
 70
     1
102
RTVSPost2010Prop54
  1
strokes_ogs.tif
102
RTVSPost2010PropOp54
 70
     1
102
RTVSPost2010Prop55
280
     0
102
RTVSPost2010PropOp55
 70
     1
102
RTVSPost2010Prop56
140
1.0
102
RTVSPost2010PropOp56
 70
     1
102
RTVSPost2010Prop57
140
1.0
102
RTVSPost2010PropOp57
 70
     1
  0
XRECORD
  5
B1
102
{ACAD_REACTORS
330
B0
102
}
330
B0
100
AcDbXrecord
280
     1
102
RTVSPropertyOp0
 70
     1
102
RTVSPropertyOp1
 70
     1
102
RTVSPropertyOp2
 70
     1
102
RTVSPropertyOp3
 70
     1
102
RTVSPropertyOp4
 70
     1
102
RTVSPropertyOp5
 70
     1
102
RTVSPropertyOp6
 70
     1
102
RTVSPropertyOp7
 70
     1
102
RTVSPropertyOp8
 70
     1
102
RTVSPropertyOp9
 70
     1
102
RTVSPropertyOp10
 70
     1
102
RTVSPropertyOp11
 70
     1
102
RTVSPropertyOp12
 70
     1
102
RTVSPropertyOp13
 70
     1
102
RTVSPropertyOp14
 70
     1
102
RTVSPropertyOp15
 70
     1
102
RTVSPropertyOp16
 70
     1
102
RTVSPropertyOp17
 70
     1
102
RTVSPropertyOp18
 70
     1
102
RTVSPropertyOp19
 70
     1
102
RTVSPropertyOp20
 70
     1
102
RTVSPropertyOp21
 70
     1
102
RTVSPropertyOp22
 70
     1
102
RTVSPropertyOp23
 70
     1
102
RTVSPropertyOp24
 70
     1
102
RTVSPropertyOp25
 70
     1
102
RTVSPropertyOp26
 70
     1
102
RTVSPropertyOp27
 70
     1
102
RTVSPropertyOp28
 70
     1
102
RTVSPropertyOp29
 70
     1
102
RTVSPropertyOp30
 70
     1
102
RTVSPropertyOp31
 70
     1
102
RTVSPropertyOp32
 70
     1
102
RTVSPropertyOp33
 70
     1
102
RTVSPropertyOp34
 70
     1
102
RTVSPropertyOp35
 70
     1
102
RTVSPropertyOp36
 70
     1
102
RTVSPropertyOp37
 70
     1
102
RTVSPropertyOp38
 70
     1
102
RTVSPropertyOp39
 70
     1
102
RTVSPropertyOp40
 70
     1
102
RTVSPropertyOp41
 70
     1
102
RTVSPropertyOp42
 70
     1
102
RTVSPropertyOp43
 70
     1
102
RTVSPropertyOp44
 70
     1
102
RTVSPropertyOp45
 70
     1
102
RTVSPropertyOp46
 70
     1
102
RTVSPropertyOp47
 70
     1
102
RTVSPropertyOp48
 70
     1
102
RTVSPropertyOp49
 70
     1
102
RTVSPropertyOp50
 70
     1
102
RTVSPropertyOp51
 70
     0
102
RTVSPropertyOp52
 70
     0
102
RTVSPropertyOp53
 70
     1
102
RTVSPropertyOp54
 70
     1
102
RTVSPropertyOp55
 70
     1
102
RTVSPropertyOp56
 70
     1
102
RTVSPropertyOp57
 70
     1
102
RTVSPost2010Prop28
280
     0
102
RTVSPost2010PropOp28
 70
     1
102
RTVSPost2010Prop29
280
     1
102
RTVSPost2010PropOp29
 70
     1
102
RTVSPost2010Prop30
280
     1
102
RTVSPost2010PropOp30
 70
     1
102
RTVSPost2010Prop31
280
     0
102
RTVSPost2010PropOp31
 70
     1
102
RTVSPost2010Prop32
280
     0
102
RTVSPost2010PropOp32
 70
     1
102
RTVSPost2010Prop33
280
     0
102
RTVSPost2010PropOp33
 70
     1
102
RTVSPost2010Prop34
280
     0
102
RTVSPost2010PropOp34
 70
     1
102
RTVSPost2010Prop35
280
     0
102
RTVSPost2010PropOp35
 70
     1
102
RTVSPost2010Prop36
280
     0
102
RTVSPost2010PropOp36
 70
     1
102
RTVSPost2010Prop37
 90
       50
102
RTVSPost2010PropOp37
 70
     1
102
RTVSPost2010Prop38
140
0.0
102
RTVSPost2010PropOp38
 70
     1
102
RTVSPost2010Prop39
140
1.0
102
RTVSPost2010PropOp39
 70
     1
102
RTVSPost2010Prop40
 90
        0
102
RTVSPost2010PropOp40
 70
     1
102
RTVSPost2010Prop41ColorIndex
 90
       18
102
RTVSPost2010Prop41ColorRGB
 90
        0
102
RTVSPost2010PropOp41
 70
     1
102
RTVSPost2010Prop42
 90
       50
102
RTVSPost2010PropOp42
 70
     1
102
RTVSPost2010Prop43
 90
        3
102
RTVSPost2010PropOp43
 70
     1
102
RTVSPost2010Prop44ColorIndex
 90
        5
102
RTVSPost2010Prop44ColorRGB
 90
      255
102
RTVSPost2010PropOp44
 70
     1
102
RTVSPost2010Prop45
280
     0
102
RTVSPost2010PropOp45
 70
     1
102
RTVSPost2010Prop46
 90
       50
102
RTVSPost2010PropOp46
 70
     1
102
RTVSPost2010Prop47
 90
       50
102
RTVSPost2010PropOp47
 70
     1
102
RTVSPost2010Prop48
 90
       50
102
RTVSPost2010PropOp48
 70
     1
102
RTVSPost2010Prop49
280
     0
102
RTVSPost2010PropOp49
 70
     1
102
RTVSPost2010Prop50
 90
       50
102
RTVSPost2010PropOp50
 70
     1
102
RTVSPost2010Prop51ColorIndex
 90
      256
102
RTVSPost2010Prop51ColorRGB
 90
-16777216
102
RTVSPost2010PropOp51
 70
     0
102
RTVSPost2010Prop52
140
1.0
102
RTVSPost2010PropOp52
 70
     0
102
RTVSPost2010Prop53
 90
        2
102
RTVSPost2010PropOp53
 70
     1
102
RTVSPost2010Prop54
  1
strokes_ogs.tif
102
RTVSPost2010PropOp54
 70
     1
102
RTVSPost2010Prop55
280
     0
102
RTVSPost2010PropOp55
 70
     1
102
RTVSPost2010Prop56
140
1.0
102
RTVSPost2010PropOp56
 70
     1
102
RTVSPost2010Prop57
140
1.0
102
RTVSPost2010PropOp57
 70
     1
  0
XRECORD
  5
B3
102
{ACAD_REACTORS
330
B2
102
}
330
B2
100
AcDbXrecord
280
     1
102
RTVSPropertyOp0
 70
     1
102
RTVSPropertyOp1
 70
     1
102
RTVSPropertyOp2
 70
     1
102
RTVSPropertyOp3
 70
     1
102
RTVSPropertyOp4
 70
     1
102
RTVSPropertyOp5
 70
     1
102
RTVSPropertyOp6
 70
     1
102
RTVSPropertyOp7
 70
     1
102
RTVSPropertyOp8
 70
     1
102
RTVSPropertyOp9
 70
     1
102
RTVSPropertyOp10
 70
     1
102
RTVSPropertyOp11
 70
     1
102
RTVSPropertyOp12
 70
     1
102
RTVSPropertyOp13
 70
     1
102
RTVSPropertyOp14
 70
     1
102
RTVSPropertyOp15
 70
     1
102
RTVSPropertyOp16
 70
     1
102
RTVSPropertyOp17
 70
     1
102
RTVSPropertyOp18
 70
     1
102
RTVSPropertyOp19
 70
     1
102
RTVSPropertyOp20
 70
     1
102
RTVSPropertyOp21
 70
     1
102
RTVSPropertyOp22
 70
     1
102
RTVSPropertyOp23
 70
     1
102
RTVSPropertyOp24
 70
     1
102
RTVSPropertyOp25
 70
     1
102
RTVSPropertyOp26
 70
     1
102
RTVSPropertyOp27
 70
     1
102
RTVSPropertyOp28
 70
     1
102
RTVSPropertyOp29
 70
     1
102
RTVSPropertyOp30
 70
     1
102
RTVSPropertyOp31
 70
     1
102
RTVSPropertyOp32
 70
     1
102
RTVSPropertyOp33
 70
     1
102
RTVSPropertyOp34
 70
     1
102
RTVSPropertyOp35
 70
     1
102
RTVSPropertyOp36
 70
     1
102
RTVSPropertyOp37
 70
     1
102
RTVSPropertyOp38
 70
     1
102
RTVSPropertyOp39
 70
     1
102
RTVSPropertyOp40
 70
     1
102
RTVSPropertyOp41
 70
     1
102
RTVSPropertyOp42
 70
     1
102
RTVSPropertyOp43
 70
     1
102
RTVSPropertyOp44
 70
     1
102
RTVSPropertyOp45
 70
     1
102
RTVSPropertyOp46
 70
     1
102
RTVSPropertyOp47
 70
     1
102
RTVSPropertyOp48
 70
     1
102
RTVSPropertyOp49
 70
     1
102
RTVSPropertyOp50
 70
     1
102
RTVSPropertyOp51
 70
     0
102
RTVSPropertyOp52
 70
     0
102
RTVSPropertyOp53
 70
     1
102
RTVSPropertyOp54
 70
     1
102
RTVSPropertyOp55
 70
     1
102
RTVSPropertyOp56
 70
     1
102
RTVSPropertyOp57
 70
     1
102
RTVSPost2010Prop28
280
     0
102
RTVSPost2010PropOp28
 70
     1
102
RTVSPost2010Prop29
280
     1
102
RTVSPost2010PropOp29
 70
     1
102
RTVSPost2010Prop30
280
     1
102
RTVSPost2010PropOp30
 70
     1
102
RTVSPost2010Prop31
280
     0
102
RTVSPost2010PropOp31
 70
     1
102
RTVSPost2010Prop32
280
     0
102
RTVSPost2010PropOp32
 70
     1
102
RTVSPost2010Prop33
280
     0
102
RTVSPost2010PropOp33
 70
     1
102
RTVSPost2010Prop34
280
     0
102
RTVSPost2010PropOp34
 70
     1
102
RTVSPost2010Prop35
280
     0
102
RTVSPost2010PropOp35
 70
     1
102
RTVSPost2010Prop36
280
     0
102
RTVSPost2010PropOp36
 70
     1
102
RTVSPost2010Prop37
 90
       50
102
RTVSPost2010PropOp37
 70
     1
102
RTVSPost2010Prop38
140
0.0
102
RTVSPost2010PropOp38
 70
     1
102
RTVSPost2010Prop39
140
1.0
102
RTVSPost2010PropOp39
 70
     1
102
RTVSPost2010Prop40
 90
        0
102
RTVSPost2010PropOp40
 70
     1
102
RTVSPost2010Prop41ColorIndex
 90
       18
102
RTVSPost2010Prop41ColorRGB
 90
        0
102
RTVSPost2010PropOp41
 70
     1
102
RTVSPost2010Prop42
 90
       50
102
RTVSPost2010PropOp42
 70
     1
102
RTVSPost2010Prop43
 90
        3
102
RTVSPost2010PropOp43
 70
     1
102
RTVSPost2010Prop44ColorIndex
 90
        5
102
RTVSPost2010Prop44ColorRGB
 90
      255
102
RTVSPost2010PropOp44
 70
     1
102
RTVSPost2010Prop45
280
     0
102
RTVSPost2010PropOp45
 70
     1
102
RTVSPost2010Prop46
 90
       50
102
RTVSPost2010PropOp46
 70
     1
102
RTVSPost2010Prop47
 90
       50
102
RTVSPost2010PropOp47
 70
     1
102
RTVSPost2010Prop48
 90
       50
102
RTVSPost2010PropOp48
 70
     1
102
RTVSPost2010Prop49
280
     0
102
RTVSPost2010PropOp49
 70
     1
102
RTVSPost2010Prop50
 90
       50
102
RTVSPost2010PropOp50
 70
     1
102
RTVSPost2010Prop51ColorIndex
 90
      256
102
RTVSPost2010Prop51ColorRGB
 90
-16777216
102
RTVSPost2010PropOp51
 70
     0
102
RTVSPost2010Prop52
140
1.0
102
RTVSPost2010PropOp52
 70
     0
102
RTVSPost2010Prop53
 90
        2
102
RTVSPost2010PropOp53
 70
     1
102
RTVSPost2010Prop54
  1
strokes_ogs.tif
102
RTVSPost2010PropOp54
 70
     1
102
RTVSPost2010Prop55
280
     0
102
RTVSPost2010PropOp55
 70
     1
102
RTVSPost2010Prop56
140
1.0
102
RTVSPost2010PropOp56
 70
     1
102
RTVSPost2010Prop57
140
1.0
102
RTVSPost2010PropOp57
 70
     1
  0
XRECORD
  5
A3
102
{ACAD_REACTORS
330
A2
102
}
330
A2
100
AcDbXrecord
280
     1
102
RTVSPropertyOp0
 70
     1
102
RTVSPropertyOp1
 70
     1
102
RTVSPropertyOp2
 70
     1
102
RTVSPropertyOp3
 70
     1
102
RTVSPropertyOp4
 70
     1
102
RTVSPropertyOp5
 70
     1
102
RTVSPropertyOp6
 70
     1
102
RTVSPropertyOp7
 70
     1
102
RTVSPropertyOp8
 70
     1
102
RTVSPropertyOp9
 70
     1
102
RTVSPropertyOp10
 70
     1
102
RTVSPropertyOp11
 70
     1
102
RTVSPropertyOp12
 70
     1
102
RTVSPropertyOp13
 70
     1
102
RTVSPropertyOp14
 70
     1
102
RTVSPropertyOp15
 70
     1
102
RTVSPropertyOp16
 70
     1
102
RTVSPropertyOp17
 70
     1
102
RTVSPropertyOp18
 70
     1
102
RTVSPropertyOp19
 70
     1
102
RTVSPropertyOp20
 70
     1
102
RTVSPropertyOp21
 70
     1
102
RTVSPropertyOp22
 70
     1
102
RTVSPropertyOp23
 70
     1
102
RTVSPropertyOp24
 70
     1
102
RTVSPropertyOp25
 70
     1
102
RTVSPropertyOp26
 70
     1
102
RTVSPropertyOp27
 70
     1
102
RTVSPropertyOp28
 70
     1
102
RTVSPropertyOp29
 70
     1
102
RTVSPropertyOp30
 70
     1
102
RTVSPropertyOp31
 70
     1
102
RTVSPropertyOp32
 70
     1
102
RTVSPropertyOp33
 70
     1
102
RTVSPropertyOp34
 70
     1
102
RTVSPropertyOp35
 70
     1
102
RTVSPropertyOp36
 70
     1
102
RTVSPropertyOp37
 70
     1
102
RTVSPropertyOp38
 70
     1
102
RTVSPropertyOp39
 70
     1
102
RTVSPropertyOp40
 70
     1
102
RTVSPropertyOp41
 70
     1
102
RTVSPropertyOp42
 70
     1
102
RTVSPropertyOp43
 70
     1
102
RTVSPropertyOp44
 70
     1
102
RTVSPropertyOp45
 70
     1
102
RTVSPropertyOp46
 70
     1
102
RTVSPropertyOp47
 70
     1
102
RTVSPropertyOp48
 70
     1
102
RTVSPropertyOp49
 70
     1
102
RTVSPropertyOp50
 70
     1
102
RTVSPropertyOp51
 70
     0
102
RTVSPropertyOp52
 70
     0
102
RTVSPropertyOp53
 70
     1
102
RTVSPropertyOp54
 70
     1
102
RTVSPropertyOp55
 70
     1
102
RTVSPropertyOp56
 70
     1
102
RTVSPropertyOp57
 70
     1
102
RTVSPost2010Prop28
280
     0
102
RTVSPost2010PropOp28
 70
     1
102
RTVSPost2010Prop29
280
     1
102
RTVSPost2010PropOp29
 70
     1
102
RTVSPost2010Prop30
280
     1
102
RTVSPost2010PropOp30
 70
     1
102
RTVSPost2010Prop31
280
     0
102
RTVSPost2010PropOp31
 70
     1
102
RTVSPost2010Prop32
280
     0
102
RTVSPost2010PropOp32
 70
     1
102
RTVSPost2010Prop33
280
     0
102
RTVSPost2010PropOp33
 70
     1
102
RTVSPost2010Prop34
280
     0
102
RTVSPost2010PropOp34
 70
     1
102
RTVSPost2010Prop35
280
     0
102
RTVSPost2010PropOp35
 70
     1
102
RTVSPost2010Prop36
280
     0
102
RTVSPost2010PropOp36
 70
     1
102
RTVSPost2010Prop37
 90
       50
102
RTVSPost2010PropOp37
 70
     1
102
RTVSPost2010Prop38
140
0.0
102
RTVSPost2010PropOp38
 70
     1
102
RTVSPost2010Prop39
140
1.0
102
RTVSPost2010PropOp39
 70
     1
102
RTVSPost2010Prop40
 90
        0
102
RTVSPost2010PropOp40
 70
     1
102
RTVSPost2010Prop41ColorIndex
 90
       18
102
RTVSPost2010Prop41ColorRGB
 90
        0
102
RTVSPost2010PropOp41
 70
     1
102
RTVSPost2010Prop42
 90
       50
102
RTVSPost2010PropOp42
 70
     1
102
RTVSPost2010Prop43
 90
        3
102
RTVSPost2010PropOp43
 70
     1
102
RTVSPost2010Prop44ColorIndex
 90
        5
102
RTVSPost2010Prop44ColorRGB
 90
      255
102
RTVSPost2010PropOp44
 70
     1
102
RTVSPost2010Prop45
280
     0
102
RTVSPost2010PropOp45
 70
     1
102
RTVSPost2010Prop46
 90
       50
102
RTVSPost2010PropOp46
 70
     1
102
RTVSPost2010Prop47
 90
       50
102
RTVSPost2010PropOp47
 70
     1
102
RTVSPost2010Prop48
 90
       50
102
RTVSPost2010PropOp48
 70
     1
102
RTVSPost2010Prop49
280
     0
102
RTVSPost2010PropOp49
 70
     1
102
RTVSPost2010Prop50
 90
       50
102
RTVSPost2010PropOp50
 70
     1
102
RTVSPost2010Prop51ColorIndex
 90
      256
102
RTVSPost2010Prop51ColorRGB
 90
-16777216
102
RTVSPost2010PropOp51
 70
     0
102
RTVSPost2010Prop52
140
1.0
102
RTVSPost2010PropOp52
 70
     0
102
RTVSPost2010Prop53
 90
        2
102
RTVSPost2010PropOp53
 70
     1
102
RTVSPost2010Prop54
  1
strokes_ogs.tif
102
RTVSPost2010PropOp54
 70
     1
102
RTVSPost2010Prop55
280
     0
102
RTVSPost2010PropOp55
 70
     1
102
RTVSPost2010Prop56
140
1.0
102
RTVSPost2010PropOp56
 70
     1
102
RTVSPost2010Prop57
140
1.0
102
RTVSPost2010PropOp57
 70
     1
  0
XRECORD
  5
95
102
{ACAD_REACTORS
330
94
102
}
330
94
100
AcDbXrecord
280
     1
102
RTVSPropertyOp0
 70
     1
102
RTVSPropertyOp1
 70
     1
102
RTVSPropertyOp2
 70
     1
102
RTVSPropertyOp3
 70
     1
102
RTVSPropertyOp4
 70
     1
102
RTVSPropertyOp5
 70
     1
102
RTVSPropertyOp6
 70
     1
102
RTVSPropertyOp7
 70
     1
102
RTVSPropertyOp8
 70
     1
102
RTVSPropertyOp9
 70
     1
102
RTVSPropertyOp10
 70
     1
102
RTVSPropertyOp11
 70
     1
102
RTVSPropertyOp12
 70
     1
102
RTVSPropertyOp13
 70
     1
102
RTVSPropertyOp14
 70
     1
102
RTVSPropertyOp15
 70
     1
102
RTVSPropertyOp16
 70
     1
102
RTVSPropertyOp17
 70
     1
102
RTVSPropertyOp18
 70
     1
102
RTVSPropertyOp19
 70
     1
102
RTVSPropertyOp20
 70
     1
102
RTVSPropertyOp21
 70
     1
102
RTVSPropertyOp22
 70
     1
102
RTVSPropertyOp23
 70
     1
102
RTVSPropertyOp24
 70
     1
102
RTVSPropertyOp25
 70
     1
102
RTVSPropertyOp26
 70
     1
102
RTVSPropertyOp27
 70
     1
102
RTVSPropertyOp28
 70
     1
102
RTVSPropertyOp29
 70
     1
102
RTVSPropertyOp30
 70
     1
102
RTVSPropertyOp31
 70
     1
102
RTVSPropertyOp32
 70
     1
102
RTVSPropertyOp33
 70
     1
102
RTVSPropertyOp34
 70
     1
102
RTVSPropertyOp35
 70
     1
102
RTVSPropertyOp36
 70
     1
102
RTVSPropertyOp37
 70
     1
102
RTVSPropertyOp38
 70
     1
102
RTVSPropertyOp39
 70
     1
102
RTVSPropertyOp40
 70
     1
102
RTVSPropertyOp41
 70
     1
102
RTVSPropertyOp42
 70
     1
102
RTVSPropertyOp43
 70
     1
102
RTVSPropertyOp44
 70
     1
102
RTVSPropertyOp45
 70
     1
102
RTVSPropertyOp46
 70
     1
102
RTVSPropertyOp47
 70
     1
102
RTVSPropertyOp48
 70
     1
102
RTVSPropertyOp49
 70
     1
102
RTVSPropertyOp50
 70
     1
102
RTVSPropertyOp51
 70
     0
102
RTVSPropertyOp52
 70
     0
102
RTVSPropertyOp53
 70
     1
102
RTVSPropertyOp54
 70
     1
102
RTVSPropertyOp55
 70
     1
102
RTVSPropertyOp56
 70
     1
102
RTVSPropertyOp57
 70
     1
102
RTVSPost2010Prop28
280
     0
102
RTVSPost2010PropOp28
 70
     1
102
RTVSPost2010Prop29
280
     1
102
RTVSPost2010PropOp29
 70
     1
102
RTVSPost2010Prop30
280
     1
102
RTVSPost2010PropOp30
 70
     1
102
RTVSPost2010Prop31
280
     0
102
RTVSPost2010PropOp31
 70
     1
102
RTVSPost2010Prop32
280
     0
102
RTVSPost2010PropOp32
 70
     1
102
RTVSPost2010Prop33
280
     0
102
RTVSPost2010PropOp33
 70
     1
102
RTVSPost2010Prop34
280
     0
102
RTVSPost2010PropOp34
 70
     1
102
RTVSPost2010Prop35
280
     0
102
RTVSPost2010PropOp35
 70
     1
102
RTVSPost2010Prop36
280
     0
102
RTVSPost2010PropOp36
 70
     1
102
RTVSPost2010Prop37
 90
       50
102
RTVSPost2010PropOp37
 70
     1
102
RTVSPost2010Prop38
140
0.0
102
RTVSPost2010PropOp38
 70
     1
102
RTVSPost2010Prop39
140
1.0
102
RTVSPost2010PropOp39
 70
     1
102
RTVSPost2010Prop40
 90
        0
102
RTVSPost2010PropOp40
 70
     1
102
RTVSPost2010Prop41ColorIndex
 90
       18
102
RTVSPost2010Prop41ColorRGB
 90
        0
102
RTVSPost2010PropOp41
 70
     1
102
RTVSPost2010Prop42
 90
       50
102
RTVSPost2010PropOp42
 70
     1
102
RTVSPost2010Prop43
 90
        3
102
RTVSPost2010PropOp43
 70
     1
102
RTVSPost2010Prop44ColorIndex
 90
        5
102
RTVSPost2010Prop44ColorRGB
 90
      255
102
RTVSPost2010PropOp44
 70
     1
102
RTVSPost2010Prop45
280
     0
102
RTVSPost2010PropOp45
 70
     1
102
RTVSPost2010Prop46
 90
       50
102
RTVSPost2010PropOp46
 70
     1
102
RTVSPost2010Prop47
 90
       50
102
RTVSPost2010PropOp47
 70
     1
102
RTVSPost2010Prop48
 90
       50
102
RTVSPost2010PropOp48
 70
     1
102
RTVSPost2010Prop49
280
     0
102
RTVSPost2010PropOp49
 70
     1
102
RTVSPost2010Prop50
 90
       50
102
RTVSPost2010PropOp50
 70
     1
102
RTVSPost2010Prop51ColorIndex
 90
      256
102
RTVSPost2010Prop51ColorRGB
 90
-16777216
102
RTVSPost2010PropOp51
 70
     0
102
RTVSPost2010Prop52
140
1.0
102
RTVSPost2010PropOp52
 70
     0
102
RTVSPost2010Prop53
 90
        2
102
RTVSPost2010PropOp53
 70
     1
102
RTVSPost2010Prop54
  1
strokes_ogs.tif
102
RTVSPost2010PropOp54
 70
     1
102
RTVSPost2010Prop55
280
     0
102
RTVSPost2010PropOp55
 70
     1
102
RTVSPost2010Prop56
140
1.0
102
RTVSPost2010PropOp56
 70
     1
102
RTVSPost2010Prop57
140
1.0
102
RTVSPost2010PropOp57
 70
     1
  0
XRECORD
  5
B5
102
{ACAD_REACTORS
330
B4
102
}
330
B4
100
AcDbXrecord
280
     1
102
RTVSPropertyOp0
 70
     1
102
RTVSPropertyOp1
 70
     1
102
RTVSPropertyOp2
 70
     1
102
RTVSPropertyOp3
 70
     1
102
RTVSPropertyOp4
 70
     1
102
RTVSPropertyOp5
 70
     1
102
RTVSPropertyOp6
 70
     1
102
RTVSPropertyOp7
 70
     1
102
RTVSPropertyOp8
 70
     1
102
RTVSPropertyOp9
 70
     1
102
RTVSPropertyOp10
 70
     1
102
RTVSPropertyOp11
 70
     1
102
RTVSPropertyOp12
 70
     1
102
RTVSPropertyOp13
 70
     1
102
RTVSPropertyOp14
 70
     1
102
RTVSPropertyOp15
 70
     1
102
RTVSPropertyOp16
 70
     1
102
RTVSPropertyOp17
 70
     1
102
RTVSPropertyOp18
 70
     1
102
RTVSPropertyOp19
 70
     1
102
RTVSPropertyOp20
 70
     1
102
RTVSPropertyOp21
 70
     1
102
RTVSPropertyOp22
 70
     1
102
RTVSPropertyOp23
 70
     1
102
RTVSPropertyOp24
 70
     1
102
RTVSPropertyOp25
 70
     1
102
RTVSPropertyOp26
 70
     1
102
RTVSPropertyOp27
 70
     1
102
RTVSPropertyOp28
 70
     1
102
RTVSPropertyOp29
 70
     1
102
RTVSPropertyOp30
 70
     1
102
RTVSPropertyOp31
 70
     1
102
RTVSPropertyOp32
 70
     1
102
RTVSPropertyOp33
 70
     1
102
RTVSPropertyOp34
 70
     1
102
RTVSPropertyOp35
 70
     1
102
RTVSPropertyOp36
 70
     1
102
RTVSPropertyOp37
 70
     1
102
RTVSPropertyOp38
 70
     1
102
RTVSPropertyOp39
 70
     1
102
RTVSPropertyOp40
 70
     1
102
RTVSPropertyOp41
 70
     1
102
RTVSPropertyOp42
 70
     1
102
RTVSPropertyOp43
 70
     1
102
RTVSPropertyOp44
 70
     1
102
RTVSPropertyOp45
 70
     1
102
RTVSPropertyOp46
 70
     1
102
RTVSPropertyOp47
 70
     1
102
RTVSPropertyOp48
 70
     1
102
RTVSPropertyOp49
 70
     1
102
RTVSPropertyOp50
 70
     1
102
RTVSPropertyOp51
 70
     0
102
RTVSPropertyOp52
 70
     0
102
RTVSPropertyOp53
 70
     1
102
RTVSPropertyOp54
 70
     1
102
RTVSPropertyOp55
 70
     1
102
RTVSPropertyOp56
 70
     1
102
RTVSPropertyOp57
 70
     1
102
RTVSPost2010Prop28
280
     0
102
RTVSPost2010PropOp28
 70
     1
102
RTVSPost2010Prop29
280
     1
102
RTVSPost2010PropOp29
 70
     1
102
RTVSPost2010Prop30
280
     1
102
RTVSPost2010PropOp30
 70
     1
102
RTVSPost2010Prop31
280
     0
102
RTVSPost2010PropOp31
 70
     1
102
RTVSPost2010Prop32
280
     0
102
RTVSPost2010PropOp32
 70
     1
102
RTVSPost2010Prop33
280
     0
102
RTVSPost2010PropOp33
 70
     1
102
RTVSPost2010Prop34
280
     0
102
RTVSPost2010PropOp34
 70
     1
102
RTVSPost2010Prop35
280
     0
102
RTVSPost2010PropOp35
 70
     1
102
RTVSPost2010Prop36
280
     0
102
RTVSPost2010PropOp36
 70
     1
102
RTVSPost2010Prop37
 90
       50
102
RTVSPost2010PropOp37
 70
     1
102
RTVSPost2010Prop38
140
0.0
102
RTVSPost2010PropOp38
 70
     1
102
RTVSPost2010Prop39
140
1.0
102
RTVSPost2010PropOp39
 70
     1
102
RTVSPost2010Prop40
 90
        0
102
RTVSPost2010PropOp40
 70
     1
102
RTVSPost2010Prop41ColorIndex
 90
       18
102
RTVSPost2010Prop41ColorRGB
 90
        0
102
RTVSPost2010PropOp41
 70
     1
102
RTVSPost2010Prop42
 90
       50
102
RTVSPost2010PropOp42
 70
     1
102
RTVSPost2010Prop43
 90
        3
102
RTVSPost2010PropOp43
 70
     1
102
RTVSPost2010Prop44ColorIndex
 90
        5
102
RTVSPost2010Prop44ColorRGB
 90
      255
102
RTVSPost2010PropOp44
 70
     1
102
RTVSPost2010Prop45
280
     0
102
RTVSPost2010PropOp45
 70
     1
102
RTVSPost2010Prop46
 90
       50
102
RTVSPost2010PropOp46
 70
     1
102
RTVSPost2010Prop47
 90
       50
102
RTVSPost2010PropOp47
 70
     1
102
RTVSPost2010Prop48
 90
       50
102
RTVSPost2010PropOp48
 70
     1
102
RTVSPost2010Prop49
280
     0
102
RTVSPost2010PropOp49
 70
     1
102
RTVSPost2010Prop50
 90
       50
102
RTVSPost2010PropOp50
 70
     1
102
RTVSPost2010Prop51ColorIndex
 90
      256
102
RTVSPost2010Prop51ColorRGB
 90
-16777216
102
RTVSPost2010PropOp51
 70
     0
102
RTVSPost2010Prop52
140
1.0
102
RTVSPost2010PropOp52
 70
     0
102
RTVSPost2010Prop53
 90
        2
102
RTVSPost2010PropOp53
 70
     1
102
RTVSPost2010Prop54
  1
strokes_ogs.tif
102
RTVSPost2010PropOp54
 70
     1
102
RTVSPost2010Prop55
280
     0
102
RTVSPost2010PropOp55
 70
     1
102
RTVSPost2010Prop56
140
1.0
102
RTVSPost2010PropOp56
 70
     1
102
RTVSPost2010Prop57
140
1.0
102
RTVSPost2010PropOp57
 70
     1
  0
ENDSEC
  0
EOF
