  0
SECTION
  2
HEADER
  9
$ACADVER
  1
AC1006
  9
$DWGCODEPAGE
  3
ansi_1252
  9
$INSBASE
 10
0.0
 20
0.0
 30
0.0
  9
$EXTMIN
 10
56.56367757369385
 20
26.11460058742123
  9
$EXTMAX
 10
226.0558171219889
 20
184.541537410064
  9
$LIMMIN
 10
0.0
 20
0.0
  9
$LIMMAX
 10
420.0
 20
297.0
  9
$ORTHOMODE
 70
     0
  9
$REGENMODE
 70
     1
  9
$FILLMODE
 70
     1
  9
$QTEXTMODE
 70
     0
  9
$MIRRTEXT
 70
     0
  9
$DRAGMODE
 70
     2
  9
$LTSCALE
 40
1.0
  9
$OSMODE
 70
    37
  9
$ATTMODE
 70
     1
  9
$TEXTSIZE
 40
2.5
  9
$TRACEWID
 40
1.0
  9
$TEXTSTYLE
  7
STANDARD
  9
$CLAYER
  8
0
  9
$CELTYPE
  6
BYLAYER
  9
$CECOLOR
 62
   256
  9
$DIMSCALE
 40
1.0
  9
$DIMASZ
 40
2.5
  9
$DIMEXO
 40
0.625
  9
$DIMDLI
 40
3.75
  9
$DIMRND
 40
0.0
  9
$DIMDLE
 40
0.0
  9
$DIMEXE
 40
1.25
  9
$DIMTP
 40
0.0
  9
$DIMTM
 40
0.0
  9
$DIMTXT
 40
2.5
  9
$DIMCEN
 40
2.5
  9
$DIMTSZ
 40
0.0
  9
$DIMTOL
 70
     0
  9
$DIMLIM
 70
     0
  9
$DIMTIH
 70
     0
  9
$DIMTOH
 70
     0
  9
$DIMSE1
 70
     0
  9
$DIMSE2
 70
     0
  9
$DIMTAD
 70
     1
  9
$DIMZIN
 70
     8
  9
$DIMBLK
  1

  9
$DIMASO
 70
     1
  9
$DIMSHO
 70
     1
  9
$DIMPOST
  1

  9
$DIMAPOST
  1

  9
$DIMALT
 70
     0
  9
$DIMALTD
 70
     3
  9
$DIMALTF
 40
0.03937007874016
  9
$DIMLFAC
 40
1.0
  9
$DIMTOFL
 70
     1
  9
$DIMTVP
 40
0.0
  9
$DIMTIX
 70
     0
  9
$DIMSOXD
 70
     0
  9
$DIMSAH
 70
     0
  9
$DIMBLK1
  1

  9
$DIMBLK2
  1

  9
$LUNITS
 70
     2
  9
$LUPREC
 70
     4
  9
$SKETCHINC
 40
1.0
  9
$FILLETRAD
 40
0.0
  9
$AUNITS
 70
     0
  9
$AUPREC
 70
     0
  9
$MENU
  1
.
  9
$ELEVATION
 40
0.0
  9
$THICKNESS
 40
0.0
  9
$LIMCHECK
 70
     0
  9
$CHAMFERA
 40
0.0
  9
$CHAMFERB
 40
0.0
  9
$SKPOLY
 70
     0
  9
$TDCREATE
 40
2454621.376233357
  9
$TDUPDATE
 40
2454621.417900023
  9
$TDINDWG
 40
0.0194724537
  9
$TDUSRTIMER
 40
0.0194585301
  9
$USRTIMER
 70
     1
  9
$ANGBASE
 50
0.0
  9
$ANGDIR
 70
     0
  9
$PDMODE
 70
     0
  9
$PDSIZE
 40
0.0
  9
$PLINEWID
 40
0.0
  9
$COORDS
 70
     1
  9
$SPLFRAME
 70
     0
  9
$SPLINETYPE
 70
     6
  9
$SPLINESEGS
 70
     8
  9
$ATTDIA
 70
     0
  9
$ATTREQ
 70
     1
  9
$HANDLING
 70
     1
  9
$HANDSEED
  5
A0
  9
$SURFTAB1
 70
     6
  9
$SURFTAB2
 70
     6
  9
$SURFTYPE
 70
     6
  9
$SURFU
 70
     6
  9
$SURFV
 70
     6
  9
$UCSNAME
  2

  9
$UCSORG
 10
0.0
 20
0.0
 30
0.0
  9
$UCSXDIR
 10
1.0
 20
0.0
 30
0.0
  9
$UCSYDIR
 10
0.0
 20
1.0
 30
0.0
  9
$USERI1
 70
     0
  9
$USERI2
 70
     0
  9
$USERI3
 70
     0
  9
$USERI4
 70
     0
  9
$USERI5
 70
     0
  9
$USERR1
 40
0.0
  9
$USERR2
 40
0.0
  9
$USERR3
 40
0.0
  9
$USERR4
 40
0.0
  9
$USERR5
 40
0.0
  9
$WORLDVIEW
 70
     1
  0
ENDSEC
  0
SECTION
  2
TABLES
  0
TABLE
  2
VPORT
 70
     1
  0
VPORT
  2
*ACTIVE
 70
     0
 10
0.0
 20
0.0
 11
1.0
 21
1.0
 12
142.8741480533912
 22
107.1077688487459
 13
0.0
 23
0.0
 14
10.0
 24
10.0
 15
10.0
 25
10.0
 16
0.0
 26
0.0
 36
1.0
 17
0.0
 27
0.0
 37
0.0
 40
191.7909977528441
 41
1.664827586206897
 42
50.0
 43
0.0
 44
0.0
 50
0.0
 51
0.0
 71
     0
 72
  1000
 73
     1
 74
     3
 75
     0
 76
     0
 77
     0
 78
     0
  0
ENDTAB
  0
TABLE
  2
LTYPE
 70
     1
  0
LTYPE
  2
CONTINUOUS
 70
     0
  3
Solid line
 72
    65
 73
     0
 40
0.0
  0
ENDTAB
  0
TABLE
  2
LAYER
 70
     1
  0
LAYER
  2
0
 70
     0
 62
     7
  6
CONTINUOUS
  0
ENDTAB
  0
TABLE
  2
STYLE
 70
     1
  0
STYLE
  2
STANDARD
 70
     0
 40
0.0
 41
1.0
 50
0.0
 71
     0
 42
2.5
  3
txt
  4

  0
ENDTAB
  0
TABLE
  2
VIEW
 70
     0
  0
ENDTAB
  0
TABLE
  2
UCS
 70
     0
  0
ENDTAB
  0
ENDSEC
  0
SECTION
  2
BLOCKS
  0
ENDSEC
  0
SECTION
  2
ENTITIES
  0
LINE
  5
35
  8
0
 62
     2
 10
74.73660179959099
 20
26.93750059578082
 30
0.0
 11
74.74694076503336
 21
121.3295810891766
 31
0.0
  0
LINE
  5
36
  8
0
 62
     2
 10
59.72970534288142
 20
112.1439117065913
 30
0.0
 11
143.1861633541681
 21
163.622199592668
 31
0.0
  0
LINE
  5
37
  8
0
 62
     2
 10
210.2033850319139
 20
26.93750059578082
 30
0.0
 11
210.2539443437842
 21
122.0092127599642
 31
0.0
  0
LINE
  5
38
  8
0
 62
     2
 10
226.0558171219889
 20
112.2067209775967
 30
0.0
 11
143.1861633541681
 21
163.622199592668
 31
0.0
  0
LINE
  5
39
  8
0
 62
     2
 10
74.73660179959099
 20
26.93750059578082
 30
0.0
 11
210.2033850319139
 21
26.93750059578082
 31
0.0
  0
ARC
  5
3A
  8
0
 62
     2
 10
143.3077953704995
 20
72.42293013465512
 30
0.0
 40
29.10830620647817
 50
17.87491743717974
 51
165.3906135996868
  0
LINE
  5
3C
  8
0
 62
     2
 10
115.1406229200879
 20
79.76485674548896
 30
0.0
 11
115.2778185092299
 21
26.9211645809423
 31
0.0
  0
LINE
  5
3D
  8
0
 62
     2
 10
171.0110106046773
 20
81.05498981670061
 30
0.0
 11
171.0110106046773
 21
27.21995926680243
 31
0.0
  0
LINE
  5
40
  8
0
 62
     2
 10
226.0336420024233
 20
121.6570177658132
 30
0.0
 11
143.7910513378748
 21
172.6955193482688
 31
0.0
  0
LINE
  5
41
  8
0
 62
     2
 10
59.72970534288142
 20
120.6435144962864
 30
0.0
 11
143.7910513378748
 21
172.6955193482688
 31
0.0
  0
LINE
  5
42
  8
0
 62
     2
 10
226.0336420024233
 20
121.6570177658132
 30
0.0
 11
226.0336420024233
 21
112.249839265641
 31
0.0
  0
LINE
  5
47
  8
0
 62
     2
 10
59.72970534288142
 20
120.6435144962864
 30
0.0
 11
59.72970534288142
 21
112.1439117065913
 31
0.0
  0
LINE
  5
52
  8
0
 62
     2
 10
86.75274436848193
 20
137.4636904687694
 30
0.0
 11
86.77493044981055
 21
183.8303283770333
 31
0.0
  0
LINE
  5
53
  8
0
 62
     2
 10
86.77493044981055
 20
183.8303283770333
 30
0.0
 11
107.3804539604129
 21
183.8303283770333
 31
0.0
  0
LINE
  5
54
  8
0
 62
     2
 10
107.3804539604129
 20
183.8303283770333
 30
0.0
 11
107.393819069647
 21
150.1923532011545
 31
0.0
  0
ARC
  5
5B
  8
0
 62
     4
 10
112.3226415538314
 20
126.2615574582237
 30
0.0
 40
8.382816425787208
 50
101.3299337909126
 51
269.2719192421388
  0
LINE
  5
9B
  8
0
 62
     4
 10
110.6757665751406
 20
134.4810108483836
 30
0.0
 11
170.2361208578582
 21
134.4810108483836
 31
0.0
  0
ARC
  5
61
  8
0
 62
     4
 10
169.8044397990341
 20
126.1217525490899
 30
0.0
 40
8.370397114286645
 50
280.0353078167395
 51
87.04381052036035
  0
LINE
  5
62
  8
0
 62
     4
 10
171.263023517905
 20
117.8794178442928
 30
0.0
 11
112.2161205652109
 21
117.8794178442928
 31
0.0
  0
TEXT
  5
6F
  8
0
 62
     1
 10
121.2015188406209
 20
118.7108338533484
 30
0.0
 40
15.0
  1
REX
  0
ENDSEC
  0
EOF
