  0
SECTION
  2
HEADER
  9
$EXTMIN
 10
9.703719
 20
4.845967
  9
$EXTMAX
 10
71.666141
 20
35.756773
  0
ENDSEC
  0
SECTION
  2
TABLES
  0
ENDSEC
  0
SECTION
  2
ENTITIES
  0
POLYLINE
  8
3
 66
1
 70
0
  0
VERTEX
  8
3
 10
42.723667
 20
19.889652
  0
VERTEX
  8
3
 10
54.400051
 20
11.549378
  0
VERTEX
  8
3
 10
55.141409
 20
11.549378
  0
VERTEX
  8
3
 10
53.102675
 20
18.036258
  0
SEQEND
  0
POLYLINE
  8
3
 66
1
 70
0
  0
VERTEX
  8
3
 10
33.642034
 20
13.958791
  0
VERTEX
  8
3
 10
30.120585
 20
11.549378
  0
VERTEX
  8
3
 10
29.379227
 20
11.549378
  0
VERTEX
  8
3
 10
30.305924
 20
14.514809
  0
SEQEND
  0
POLYLINE
  8
3
 66
1
 70
1
  0
VERTEX
  8
3
 10
44.947740
 20
21.187028
  0
VERTEX
  8
3
 10
40.499593
 20
21.187028
  0
VERTEX
  8
3
 10
42.723667
 20
29.897982
  0
VERTEX
  8
3
 10
44.947740
 20
21.187028
  0
SEQEND
  0
POLYLINE
  8
3
 66
1
 70
0
  0
VERTEX
  8
3
 10
41.982309
 20
4.877158
  0
VERTEX
  8
3
 10
61.628289
 20
4.877158
  0
SEQEND
  0
POLYLINE
  8
3
 66
1
 70
0
  0
VERTEX
  8
3
 10
48.098510
 20
35.643504
  0
VERTEX
  8
3
 10
49.395886
 20
31.566037
  0
SEQEND
  0
POLYLINE
  8
3
 66
1
 70
0
  0
VERTEX
  8
3
 10
35.866107
 20
32.863413
  0
VERTEX
  8
3
 10
36.792805
 20
35.643504
  0
SEQEND
  0
POLYLINE
  8
3
 66
1
 70
0
  0
VERTEX
  8
3
 10
64.593720
 20
4.877158
  0
VERTEX
  8
3
 10
65.335077
 20
4.877158
  0
SEQEND
  0
POLYLINE
  8
3
 66
1
 70
1
  0
VERTEX
  8
3
 10
17.517504
 20
30.083321
  0
VERTEX
  8
3
 10
17.509193
 20
20.752231
  0
VERTEX
  8
3
 10
17.517504
 20
11.549378
  0
VERTEX
  8
3
 10
17.528232
 20
11.501973
  0
VERTEX
  8
3
 10
17.546624
 20
11.441859
 42
0.025274
  0
VERTEX
  8
3
 10
17.593194
 20
11.331293
 42
0.063043
  0
VERTEX
  8
3
 10
17.757365
 20
11.088275
 42
0.030978
  0
VERTEX
  8
3
 10
17.872963
 20
10.968468
 42
0.022951
  0
VERTEX
  8
3
 10
18.022425
 20
10.844695
 42
0.039769
  0
VERTEX
  8
3
 10
18.221211
 20
10.716133
 42
0.037555
  0
VERTEX
  8
3
 10
18.567380
 20
10.558752
 42
0.051252
  0
VERTEX
  8
3
 10
18.977620
 20
10.457583
 42
0.052133
  0
VERTEX
  8
3
 10
19.426320
 20
10.439060
 42
0.049422
  0
VERTEX
  8
3
 10
19.856029
 20
10.512983
 42
0.046789
  0
VERTEX
  8
3
 10
20.190329
 20
10.639323
 42
0.036614
  0
VERTEX
  8
3
 10
20.482935
 20
10.808020
 42
0.016265
  0
VERTEX
  8
3
 10
20.687513
 20
10.951131
  0
VERTEX
  8
3
 10
20.759221
 20
11.009061
 42
0.020965
  0
VERTEX
  8
3
 10
20.833007
 20
11.076654
 42
0.028012
  0
VERTEX
  8
3
 10
20.921025
 20
11.174369
 42
0.036096
  0
VERTEX
  8
3
 10
20.999007
 20
11.288599
 42
0.031311
  0
VERTEX
  8
3
 10
21.058960
 20
11.408807
 42
0.053636
  0
VERTEX
  8
3
 10
21.156925
 20
11.748743
 42
0.021951
  0
VERTEX
  8
3
 10
21.201868
 20
12.095231
 42
0.010873
  0
VERTEX
  8
3
 10
21.227799
 20
12.580962
  0
VERTEX
  8
3
 10
21.234428
 20
12.927840
  0
VERTEX
  8
3
 10
21.224292
 20
14.885488
  0
VERTEX
  8
3
 10
21.224292
 20
18.221598
  0
VERTEX
  8
3
 10
29.008548
 20
18.221598
  0
VERTEX
  8
3
 10
29.008548
 20
15.256167
  0
VERTEX
  8
3
 10
28.976693
 20
14.711732
 42
-0.027065
  0
VERTEX
  8
3
 10
28.797042
 20
13.321686
 42
-0.040293
  0
VERTEX
  8
3
 10
28.420675
 20
11.931640
  0
VERTEX
  8
3
 10
28.346105
 20
11.737613
  0
VERTEX
  8
3
 10
28.267191
 20
11.549378
  0
VERTEX
  8
3
 10
28.183933
 20
11.366934
  0
VERTEX
  8
3
 10
28.096331
 20
11.190283
  0
VERTEX
  8
3
 10
28.004385
 20
11.019423
  0
VERTEX
  8
3
 10
27.908096
 20
10.854355
 42
-0.023497
  0
VERTEX
  8
3
 10
27.678788
 20
10.508347
 42
-0.028515
  0
VERTEX
  8
3
 10
27.393391
 20
10.152045
 42
-0.031540
  0
VERTEX
  8
3
 10
26.950247
 20
9.715391
 42
-0.023893
  0
VERTEX
  8
3
 10
26.687631
 20
9.513192
  0
VERTEX
  8
3
 10
26.413796
 20
9.325305
  0
VERTEX
  8
3
 10
19.926916
 20
4.877158
  0
VERTEX
  8
3
 10
14.737412
 20
4.877158
  0
VERTEX
  8
3
 10
14.524923
 20
4.914805
  0
VERTEX
  8
3
 10
14.316054
 20
4.958244
  0
VERTEX
  8
3
 10
14.110806
 20
5.007475
  0
VERTEX
  8
3
 10
13.909177
 20
5.062498
  0
VERTEX
  8
3
 10
13.711167
 20
5.123312
  0
VERTEX
  8
3
 10
13.516778
 20
5.189919
  0
VERTEX
  8
3
 10
13.326009
 20
5.262317
  0
VERTEX
  8
3
 10
13.138859
 20
5.340507
  0
VERTEX
  8
3
 10
12.955330
 20
5.424489
  0
VERTEX
  8
3
 10
12.775420
 20
5.514263
  0
VERTEX
  8
3
 10
12.599131
 20
5.609828
  0
VERTEX
  8
3
 10
12.426461
 20
5.711186
  0
VERTEX
  8
3
 10
12.257411
 20
5.818335
  0
VERTEX
  8
3
 10
12.091981
 20
5.931276
  0
VERTEX
  8
3
 10
11.930171
 20
6.050009
  0
VERTEX
  8
3
 10
11.771981
 20
6.174534
  0
VERTEX
  8
3
 10
11.617411
 20
6.304851
  0
VERTEX
  8
3
 10
11.466461
 20
6.440960
  0
VERTEX
  8
3
 10
11.319130
 20
6.582860
  0
VERTEX
  8
3
 10
11.175420
 20
6.730553
  0
VERTEX
  8
3
 10
11.035329
 20
6.884037
  0
VERTEX
  8
3
 10
10.898859
 20
7.043313
  0
VERTEX
  8
3
 10
10.766008
 20
7.208381
  0
VERTEX
  8
3
 10
10.636777
 20
7.379241
  0
VERTEX
  8
3
 10
10.511166
 20
7.555892
  0
VERTEX
  8
3
 10
10.389175
 20
7.738336
  0
VERTEX
  8
3
 10
10.270804
 20
7.926571
  0
VERTEX
  8
3
 10
10.156053
 20
8.120598
  0
VERTEX
  8
3
 10
10.044922
 20
8.320417
  0
VERTEX
  8
3
 10
9.937410
 20
8.526028
  0
VERTEX
  8
3
 10
9.833519
 20
8.737431
  0
VERTEX
  8
3
 10
9.733247
 20
8.954626
  0
VERTEX
  8
3
 10
9.733247
 20
31.936716
  0
VERTEX
  8
3
 10
9.764992
 20
32.055156
  0
VERTEX
  8
3
 10
9.802247
 20
32.171567
  0
VERTEX
  8
3
 10
9.844926
 20
32.285956
  0
VERTEX
  8
3
 10
9.892939
 20
32.398331
  0
VERTEX
  8
3
 10
9.946199
 20
32.508697
  0
VERTEX
  8
3
 10
10.004617
 20
32.617064
  0
VERTEX
  8
3
 10
10.068104
 20
32.723437
  0
VERTEX
  8
3
 10
10.136573
 20
32.827824
  0
VERTEX
  8
3
 10
10.209936
 20
32.930233
  0
VERTEX
  8
3
 10
10.288103
 20
33.030669
  0
VERTEX
  8
3
 10
10.370987
 20
33.129141
  0
VERTEX
  8
3
 10
10.458499
 20
33.225655
  0
VERTEX
  8
3
 10
10.550552
 20
33.320220
  0
VERTEX
  8
3
 10
10.647056
 20
33.412841
 42
-0.038160
  0
VERTEX
  8
3
 10
11.242290
 20
33.880534
 42
-0.025517
  0
VERTEX
  8
3
 10
11.837524
 20
34.233753
 42
-0.019091
  0
VERTEX
  8
3
 10
12.416113
 20
34.509513
  0
VERTEX
  8
3
 10
12.724526
 20
34.636351
  0
VERTEX
  8
3
 10
13.044742
 20
34.755902
  0
VERTEX
  8
3
 10
13.376055
 20
34.868225
  0
VERTEX
  8
3
 10
13.717760
 20
34.973377
  0
VERTEX
  8
3
 10
14.069149
 20
35.071414
  0
VERTEX
  8
3
 10
14.429516
 20
35.162395
  0
VERTEX
  8
3
 10
14.798156
 20
35.246377
  0
VERTEX
  8
3
 10
15.174361
 20
35.323416
  0
VERTEX
  8
3
 10
15.557425
 20
35.393571
  0
VERTEX
  8
3
 10
15.946643
 20
35.456898
  0
VERTEX
  8
3
 10
16.341308
 20
35.513454
  0
VERTEX
  8
3
 10
16.740713
 20
35.563298
  0
VERTEX
  8
3
 10
17.550920
 20
35.643074
  0
VERTEX
  8
3
 10
18.371613
 20
35.696686
  0
VERTEX
  8
3
 10
19.197142
 20
35.724590
  0
VERTEX
  8
3
 10
20.021857
 20
35.727246
  0
VERTEX
  8
3
 10
20.840107
 20
35.705111
  0
VERTEX
  8
3
 10
21.646241
 20
35.658643
  0
VERTEX
  8
3
 10
22.434609
 20
35.588301
  0
VERTEX
  8
3
 10
23.199562
 20
35.494542
  0
VERTEX
  8
3
 10
23.571491
 20
35.439025
  0
VERTEX
  8
3
 10
23.935447
 20
35.377825
  0
VERTEX
  8
3
 10
24.290724
 20
35.311001
  0
VERTEX
  8
3
 10
24.636615
 20
35.238609
  0
VERTEX
  8
3
 10
24.972415
 20
35.160706
  0
VERTEX
  8
3
 10
25.297416
 20
35.077350
  0
VERTEX
  8
3
 10
25.610913
 20
34.988598
  0
VERTEX
  8
3
 10
25.912198
 20
34.894508
  0
VERTEX
  8
3
 10
26.200567
 20
34.795136
 42
-0.008696
  0
VERTEX
  8
3
 10
26.607355
 20
34.636301
 42
-0.025072
  0
VERTEX
  8
3
 10
27.210744
 20
34.345980
 42
-0.023395
  0
VERTEX
  8
3
 10
27.584243
 20
34.116014
 42
-0.036774
  0
VERTEX
  8
3
 10
27.957742
 20
33.816903
  0
VERTEX
  8
3
 10
28.030361
 20
33.745332
  0
VERTEX
  8
3
 10
28.098073
 20
33.672576
  0
VERTEX
  8
3
 10
28.160790
 20
33.598643
  0
VERTEX
  8
3
 10
28.218423
 20
33.523540
  0
VERTEX
  8
3
 10
28.270885
 20
33.447274
  0
VERTEX
  8
3
 10
28.318087
 20
33.369852
  0
VERTEX
  8
3
 10
28.359941
 20
33.291282
  0
VERTEX
  8
3
 10
28.396358
 20
33.211571
  0
VERTEX
  8
3
 10
28.427251
 20
33.130725
  0
VERTEX
  8
3
 10
28.452530
 20
33.048752
 42
-0.017247
  0
VERTEX
  8
3
 10
28.575517
 20
32.872248
 42
-0.018634
  0
VERTEX
  8
3
 10
28.651201
 20
32.743044
 42
-0.021206
  0
VERTEX
  8
3
 10
28.718436
 20
32.604396
 42
-0.018809
  0
VERTEX
  8
3
 10
28.780405
 20
32.444407
 42
-0.040340
  0
VERTEX
  8
3
 10
28.901037
 20
31.958526
 42
-0.018812
  0
VERTEX
  8
3
 10
28.970539
 20
31.412462
  0
VERTEX
  8
3
 10
28.995517
 20
31.075901
  0
VERTEX
  8
3
 10
29.013978
 20
30.690471
  0
VERTEX
  8
3
 10
29.025924
 20
30.251285
  0
VERTEX
  8
3
 10
29.030268
 20
29.192099
  0
VERTEX
  8
3
 10
29.008548
 20
27.859248
  0
VERTEX
  8
3
 10
29.008548
 20
23.225762
  0
VERTEX
  8
3
 10
21.224292
 20
23.225762
  0
VERTEX
  8
3
 10
21.224292
 20
30.083321
 42
0.034159
  0
VERTEX
  8
3
 10
21.207937
 20
30.235453
 42
0.043816
  0
VERTEX
  8
3
 10
21.166453
 20
30.423744
 42
0.054120
  0
VERTEX
  8
3
 10
21.031825
 20
30.747095
 42
0.060982
  0
VERTEX
  8
3
 10
20.812143
 20
31.035287
 42
0.049606
  0
VERTEX
  8
3
 10
20.618363
 20
31.200692
 42
0.034980
  0
VERTEX
  8
3
 10
20.421066
 20
31.322013
 42
0.028571
  0
VERTEX
  8
3
 10
20.193299
 20
31.421489
 42
0.053945
  0
VERTEX
  8
3
 10
19.885861
 20
31.503681
 42
0.057678
  0
VERTEX
  8
3
 10
19.308936
 20
31.537188
 42
0.058671
  0
VERTEX
  8
3
 10
18.737846
 20
31.419998
 42
0.052778
  0
VERTEX
  8
3
 10
18.421962
 20
31.283514
 42
0.035167
  0
VERTEX
  8
3
 10
18.176881
 20
31.126489
 42
0.044302
  0
VERTEX
  8
3
 10
17.939337
 20
30.912416
 42
0.047433
  0
VERTEX
  8
3
 10
17.743210
 20
30.654971
 42
0.045958
  0
VERTEX
  8
3
 10
17.604624
 20
30.377501
 42
0.042689
  0
SEQEND
  0
POLYLINE
  8
3
 66
1
 70
0
  0
VERTEX
  8
3
 10
42.723667
 20
19.889652
  0
VERTEX
  8
3
 10
42.717113
 20
19.888370
  0
VERTEX
  8
3
 10
42.709044
 20
19.885977
  0
VERTEX
  8
3
 10
42.699472
 20
19.882484
  0
VERTEX
  8
3
 10
42.688409
 20
19.877899
  0
VERTEX
  8
3
 10
42.675866
 20
19.872232
  0
VERTEX
  8
3
 10
42.661856
 20
19.865494
  0
VERTEX
  8
3
 10
42.629481
 20
19.848838
  0
VERTEX
  8
3
 10
42.591379
 20
19.828008
  0
VERTEX
  8
3
 10
42.547646
 20
19.803080
  0
VERTEX
  8
3
 10
42.443666
 20
19.741236
  0
VERTEX
  8
3
 10
41.821585
 20
19.345218
  0
VERTEX
  8
3
 10
39.746652
 20
17.966756
  0
VERTEX
  8
3
 10
33.642034
 20
13.958791
  0
SEQEND
  0
POLYLINE
  8
3
 66
1
 70
0
  0
VERTEX
  8
3
 10
49.395886
 20
31.566037
  0
VERTEX
  8
3
 10
53.102675
 20
18.036258
  0
SEQEND
  0
POLYLINE
  8
3
 66
1
 70
0
  0
VERTEX
  8
3
 10
61.628289
 20
4.877158
  0
VERTEX
  8
3
 10
60.145573
 20
5.989195
  0
VERTEX
  8
3
 10
42.723667
 20
18.406937
  0
VERTEX
  8
3
 10
39.067715
 20
16.039379
  0
VERTEX
  8
3
 10
32.315918
 20
11.594182
  0
VERTEX
  8
3
 10
25.717496
 20
7.172918
  0
VERTEX
  8
3
 10
23.491182
 20
5.628002
  0
VERTEX
  8
3
 10
23.115113
 20
5.355585
  0
VERTEX
  8
3
 10
22.823940
 20
5.136903
  0
VERTEX
  8
3
 10
22.712173
 20
5.048994
  0
VERTEX
  8
3
 10
22.624010
 20
4.976059
  0
VERTEX
  8
3
 10
22.589028
 20
4.945366
  0
VERTEX
  8
3
 10
22.560244
 20
4.918609
  0
VERTEX
  8
3
 10
22.537758
 20
4.895852
  0
VERTEX
  8
3
 10
22.521668
 20
4.877158
  0
VERTEX
  8
3
 10
41.982309
 20
4.877158
  0
SEQEND
  0
POLYLINE
  8
3
 66
1
 70
0
  0
VERTEX
  8
3
 10
30.305924
 20
14.514809
  0
VERTEX
  8
3
 10
30.434365
 20
14.857106
  0
VERTEX
  8
3
 10
30.592301
 20
15.306801
  0
VERTEX
  8
3
 10
30.996659
 20
16.528385
  0
VERTEX
  8
3
 10
32.159319
 20
20.260331
  0
VERTEX
  8
3
 10
35.900411
 20
32.879330
  0
SEQEND
  0
POLYLINE
  8
3
 66
1
 70
0
  0
VERTEX
  8
3
 10
36.792805
 20
35.643504
  0
VERTEX
  8
3
 10
48.098510
 20
35.643504
  0
SEQEND
  0
POLYLINE
  8
3
 66
1
 70
0
  0
VERTEX
  8
3
 10
64.593720
 20
4.877158
  0
VERTEX
  8
3
 10
64.588042
 20
4.876542
  0
VERTEX
  8
3
 10
64.582218
 20
4.876068
  0
VERTEX
  8
3
 10
64.576247
 20
4.875735
  0
VERTEX
  8
3
 10
64.570129
 20
4.875544
  0
VERTEX
  8
3
 10
64.563864
 20
4.875495
  0
VERTEX
  8
3
 10
64.557452
 20
4.875586
  0
VERTEX
  8
3
 10
64.550894
 20
4.875820
  0
VERTEX
  8
3
 10
64.544188
 20
4.876195
  0
VERTEX
  8
3
 10
64.537336
 20
4.876711
  0
VERTEX
  8
3
 10
64.530336
 20
4.877369
  0
VERTEX
  8
3
 10
64.515897
 20
4.879110
  0
VERTEX
  8
3
 10
64.500870
 20
4.881417
  0
VERTEX
  8
3
 10
64.485256
 20
4.884290
  0
VERTEX
  8
3
 10
64.469054
 20
4.887729
  0
VERTEX
  8
3
 10
64.452264
 20
4.891734
  0
VERTEX
  8
3
 10
64.434887
 20
4.896306
  0
VERTEX
  8
3
 10
64.416922
 20
4.901444
  0
VERTEX
  8
3
 10
64.398370
 20
4.907147
  0
VERTEX
  8
3
 10
64.379230
 20
4.913417
  0
VERTEX
  8
3
 10
64.339187
 20
4.927656
  0
VERTEX
  8
3
 10
64.296794
 20
4.944159
  0
VERTEX
  8
3
 10
64.252051
 20
4.962926
  0
VERTEX
  8
3
 10
64.204957
 20
4.983959
  0
VERTEX
  8
3
 10
64.155514
 20
5.007256
  0
VERTEX
  8
3
 10
64.049575
 20
5.060644
  0
VERTEX
  8
3
 10
63.934235
 20
5.123090
  0
VERTEX
  8
3
 10
63.809495
 20
5.194595
  0
VERTEX
  8
3
 10
63.675352
 20
5.275158
  0
VERTEX
  8
3
 10
63.378865
 20
5.463461
  0
VERTEX
  8
3
 10
63.044772
 20
5.687998
  0
VERTEX
  8
3
 10
62.673075
 20
5.948769
  0
VERTEX
  8
3
 10
60.916916
 20
7.167192
  0
VERTEX
  8
3
 10
59.193011
 20
8.407193
  0
VERTEX
  8
3
 10
57.365482
 20
9.695984
  0
VERTEX
  8
3
 10
57.365482
 20
29.341963
  0
VERTEX
  8
3
 10
52.361317
 20
29.341963
  0
VERTEX
  8
3
 10
52.361317
 20
35.643504
  0
VERTEX
  8
3
 10
71.636618
 20
35.643504
  0
VERTEX
  8
3
 10
71.636618
 20
29.341963
  0
VERTEX
  8
3
 10
66.447114
 20
29.341963
  0
VERTEX
  8
3
 10
66.447114
 20
4.877158
  0
VERTEX
  8
3
 10
65.335077
 20
4.877158
  0
SEQEND
  0
ENDSEC
   0
EOF
