  0
SECTION
  2
HEADER
  9
$ACADVER
  1
AC1018
  9
$ACADMAINTVER
 70
     0
  9
$DWGCODEPAGE
  3
ANSI_1252
  9
$INSBASE
 10
0.0
 20
0.0
 30
0.0
  9
$EXTMIN
 10
-209.6428
 20
-101.1234
 30
0.0
  9
$EXTMAX
 10
143.6325
 20
332.8609
 30
0.0
  9
$LIMMIN
 10
0.0
 20
0.0
  9
$LIMMAX
 10
12.0
 20
9.0
  9
$ORTHOMODE
 70
     0
  9
$REGENMODE
 70
     1
  9
$FILLMODE
 70
     1
  9
$QTEXTMODE
 70
     0
  9
$MIRRTEXT
 70
     1
  9
$LTSCALE
 40
1.0
  9
$ATTMODE
 70
     1
  9
$TEXTSIZE
 40
0.2
  9
$TRACEWID
 40
0.05
  9
$TEXTSTYLE
  7
Standard
  9
$CLAYER
  8
0
  9
$CELTYPE
  6
ByLayer
  9
$CECOLOR
 62
   256
  9
$CELTSCALE
 40
1.0
  9
$DISPSILH
 70
     0
  9
$DIMSCALE
 40
1.0
  9
$DIMASZ
 40
0.18
  9
$DIMEXO
 40
0.0625
  9
$DIMDLI
 40
0.38
  9
$DIMRND
 40
0.0
  9
$DIMDLE
 40
0.0
  9
$DIMEXE
 40
0.18
  9
$DIMTP
 40
0.0
  9
$DIMTM
 40
0.0
  9
$DIMTXT
 40
0.18
  9
$DIMCEN
 40
0.09
  9
$DIMTSZ
 40
0.0
  9
$DIMTOL
 70
     0
  9
$DIMLIM
 70
     0
  9
$DIMTIH
 70
     1
  9
$DIMTOH
 70
     1
  9
$DIMSE1
 70
     0
  9
$DIMSE2
 70
     0
  9
$DIMTAD
 70
     0
  9
$DIMZIN
 70
     0
  9
$DIMBLK
  1

  9
$DIMASO
 70
     1
  9
$DIMSHO
 70
     1
  9
$DIMPOST
  1

  9
$DIMAPOST
  1

  9
$DIMALT
 70
     0
  9
$DIMALTD
 70
     2
  9
$DIMALTF
 40
25.4
  9
$DIMLFAC
 40
1.0
  9
$DIMTOFL
 70
     0
  9
$DIMTVP
 40
0.0
  9
$DIMTIX
 70
     0
  9
$DIMSOXD
 70
     0
  9
$DIMSAH
 70
     0
  9
$DIMBLK1
  1

  9
$DIMBLK2
  1

  9
$DIMSTYLE
  2
Standard
  9
$DIMCLRD
 70
     0
  9
$DIMCLRE
 70
     0
  9
$DIMCLRT
 70
     0
  9
$DIMTFAC
 40
1.0
  9
$DIMGAP
 40
0.09
  9
$DIMJUST
 70
     0
  9
$DIMSD1
 70
     0
  9
$DIMSD2
 70
     0
  9
$DIMTOLJ
 70
     1
  9
$DIMTZIN
 70
     0
  9
$DIMALTZ
 70
     0
  9
$DIMALTTZ
 70
     0
  9
$DIMUPT
 70
     0
  9
$DIMDEC
 70
     4
  9
$DIMTDEC
 70
     4
  9
$DIMALTU
 70
     2
  9
$DIMALTTD
 70
     2
  9
$DIMTXSTY
  7
Standard
  9
$DIMAUNIT
 70
     0
  9
$DIMADEC
 70
     0
  9
$DIMALTRND
 40
0.0
  9
$DIMAZIN
 70
     0
  9
$DIMDSEP
 70
    46
  9
$DIMATFIT
 70
     3
  9
$DIMFRAC
 70
     0
  9
$DIMLDRBLK
  1

  9
$DIMLUNIT
 70
     2
  9
$DIMLWD
 70
    -2
  9
$DIMLWE
 70
    -2
  9
$DIMTMOVE
 70
     0
  9
$LUNITS
 70
     2
  9
$LUPREC
 70
     4
  9
$SKETCHINC
 40
0.1
  9
$FILLETRAD
 40
0.5
  9
$AUNITS
 70
     0
  9
$AUPREC
 70
     0
  9
$MENU
  1
.
  9
$ELEVATION
 40
0.0
  9
$PELEVATION
 40
0.0
  9
$THICKNESS
 40
0.0
  9
$LIMCHECK
 70
     0
  9
$CHAMFERA
 40
0.5
  9
$CHAMFERB
 40
0.5
  9
$CHAMFERC
 40
1.0
  9
$CHAMFERD
 40
0.0
  9
$SKPOLY
 70
     0
  9
$TDCREATE
 40
2455738.9681825
  9
$TDUCREATE
 40
2455739.0931825
  9
$TDUPDATE
 40
2455738.968182512
  9
$TDUUPDATE
 40
2455739.093182512
  9
$TDINDWG
 40
0.0000000116
  9
$TDUSRTIMER
 40
0.0000000116
  9
$USRTIMER
 70
     1
  9
$ANGBASE
 50
0.0
  9
$ANGDIR
 70
     0
  9
$PDMODE
 70
     0
  9
$PDSIZE
 40
0.0
  9
$PLINEWID
 40
0.0
  9
$SPLFRAME
 70
     0
  9
$SPLINETYPE
 70
     6
  9
$SPLINESEGS
 70
     8
  9
$HANDSEED
  5
A1
  9
$SURFTAB1
 70
     6
  9
$SURFTAB2
 70
     6
  9
$SURFTYPE
 70
     6
  9
$SURFU
 70
     6
  9
$SURFV
 70
     6
  9
$UCSBASE
  2

  9
$UCSNAME
  2

  9
$UCSORG
 10
0.0
 20
0.0
 30
0.0
  9
$UCSXDIR
 10
1.0
 20
0.0
 30
0.0
  9
$UCSYDIR
 10
0.0
 20
1.0
 30
0.0
  9
$UCSORTHOREF
  2

  9
$UCSORTHOVIEW
 70
     0
  9
$UCSORGTOP
 10
0.0
 20
0.0
 30
0.0
  9
$UCSORGBOTTOM
 10
0.0
 20
0.0
 30
0.0
  9
$UCSORGLEFT
 10
0.0
 20
0.0
 30
0.0
  9
$UCSORGRIGHT
 10
0.0
 20
0.0
 30
0.0
  9
$UCSORGFRONT
 10
0.0
 20
0.0
 30
0.0
  9
$UCSORGBACK
 10
0.0
 20
0.0
 30
0.0
  9
$PUCSBASE
  2

  9
$PUCSNAME
  2

  9
$PUCSORG
 10
0.0
 20
0.0
 30
0.0
  9
$PUCSXDIR
 10
1.0
 20
0.0
 30
0.0
  9
$PUCSYDIR
 10
0.0
 20
1.0
 30
0.0
  9
$PUCSORTHOREF
  2

  9
$PUCSORTHOVIEW
 70
     0
  9
$PUCSORGTOP
 10
0.0
 20
0.0
 30
0.0
  9
$PUCSORGBOTTOM
 10
0.0
 20
0.0
 30
0.0
  9
$PUCSORGLEFT
 10
0.0
 20
0.0
 30
0.0
  9
$PUCSORGRIGHT
 10
0.0
 20
0.0
 30
0.0
  9
$PUCSORGFRONT
 10
0.0
 20
0.0
 30
0.0
  9
$PUCSORGBACK
 10
0.0
 20
0.0
 30
0.0
  9
$USERI1
 70
     0
  9
$USERI2
 70
     0
  9
$USERI3
 70
     0
  9
$USERI4
 70
     0
  9
$USERI5
 70
     0
  9
$USERR1
 40
0.0
  9
$USERR2
 40
0.0
  9
$USERR3
 40
0.0
  9
$USERR4
 40
0.0
  9
$USERR5
 40
0.0
  9
$WORLDVIEW
 70
     1
  9
$SHADEDGE
 70
     3
  9
$SHADEDIF
 70
    70
  9
$TILEMODE
 70
     1
  9
$MAXACTVP
 70
    64
  9
$PINSBASE
 10
0.0
 20
0.0
 30
0.0
  9
$PLIMCHECK
 70
     0
  9
$PEXTMIN
 10
1.000000000000000E+20
 20
1.000000000000000E+20
 30
1.000000000000000E+20
  9
$PEXTMAX
 10
-1.000000000000000E+20
 20
-1.000000000000000E+20
 30
-1.000000000000000E+20
  9
$PLIMMIN
 10
0.0
 20
0.0
  9
$PLIMMAX
 10
12.0
 20
9.0
  9
$UNITMODE
 70
     0
  9
$VISRETAIN
 70
     1
  9
$PLINEGEN
 70
     0
  9
$PSLTSCALE
 70
     1
  9
$TREEDEPTH
 70
  3020
  9
$CMLSTYLE
  2
Standard
  9
$CMLJUST
 70
     0
  9
$CMLSCALE
 40
1.0
  9
$PROXYGRAPHICS
 70
     1
  9
$MEASUREMENT
 70
     0
  9
$CELWEIGHT
370
    -1
  9
$ENDCAPS
280
     0
  9
$JOINSTYLE
280
     0
  9
$LWDISPLAY
290
     0
  9
$INSUNITS
 70
     4
  9
$HYPERLINKBASE
  1

  9
$STYLESHEET
  1

  9
$XEDIT
290
     1
  9
$CEPSNTYPE
380
     0
  9
$PSTYLEMODE
290
     0
  9
$FINGERPRINTGUID
  2
{FAEB1C30-E019-11D5-929B-00C0DF256EC4}
  9
$VERSIONGUID
  2
{FAEB1C32-E019-11D5-929B-00C0DF256EC4}
  9
$EXTNAMES
290
     1
  9
$PSVPSCALE
 40
0.0
  9
$OLESTARTUP
290
     0
  9
$SORTENTS
280
   127
  9
$INDEXCTL
280
     0
  9
$HIDETEXT
280
     1
  9
$XCLIPFRAME
290
     0
  9
$HALOGAP
280
     0
  9
$OBSCOLOR
 70
   257
  9
$OBSLTYPE
280
     0
  9
$INTERSECTIONDISPLAY
280
     0
  9
$INTERSECTIONCOLOR
 70
   257
  9
$DIMASSOC
280
     2
  9
$PROJECTNAME
  1

  0
ENDSEC
  0
SECTION
  2
CLASSES
  0
CLASS
  1
ACDBDICTIONARYWDFLT
  2
AcDbDictionaryWithDefault
  3
ObjectDBX Classes
 90
        0
 91
        1
280
     0
281
     0
  0
ENDSEC
  0
SECTION
  2
TABLES
  0
TABLE
  2
VPORT
  5
8
330
0
100
AcDbSymbolTable
 70
     2
  0
VPORT
  5
29
330
8
100
AcDbSymbolTableRecord
100
AcDbViewportTableRecord
  2
*Active
 70
     0
 10
0.0
 20
0.0
 11
1.0
 21
1.0
 12
10.42990654205607
 22
4.5
 13
0.0
 23
0.0
 14
0.5
 24
0.5
 15
0.5
 25
0.5
 16
0.0
 26
0.0
 36
1.0
 17
0.0
 27
0.0
 37
0.0
 40
9.0
 41
1.972972972850329
 42
50.0
 43
0.0
 44
0.0
 50
0.0
 51
0.0
 71
     0
 72
   100
 73
     1
 74
     3
 75
     0
 76
     0
 77
     0
 78
     0
281
     0
 65
     1
110
0.0
120
0.0
130
0.0
111
1.0
121
0.0
131
0.0
112
0.0
122
1.0
132
0.0
 79
     0
146
0.0
  0
ENDTAB
  0
TABLE
  2
LTYPE
  5
5
330
0
100
AcDbSymbolTable
 70
     1
  0
LTYPE
  5
14
330
5
100
AcDbSymbolTableRecord
100
AcDbLinetypeTableRecord
  2
ByBlock
 70
     0
  3

 72
    65
 73
     0
 40
0.0
  0
LTYPE
  5
15
330
5
100
AcDbSymbolTableRecord
100
AcDbLinetypeTableRecord
  2
ByLayer
 70
     0
  3

 72
    65
 73
     0
 40
0.0
  0
LTYPE
  5
16
330
5
100
AcDbSymbolTableRecord
100
AcDbLinetypeTableRecord
  2
Continuous
 70
     0
  3
Solid line
 72
    65
 73
     0
 40
0.0
  0
ENDTAB
  0
TABLE
  2
LAYER
  5
2
330
0
100
AcDbSymbolTable
 70
     2
  0
LAYER
  5
10
330
2
100
AcDbSymbolTableRecord
100
AcDbLayerTableRecord
  2
0
 70
     0
 62
     7
  6
Continuous
370
    -3
390
F
  0
LAYER
  5
2B
330
2
100
AcDbSymbolTableRecord
100
AcDbLayerTableRecord
  2
Capa 1
 70
     0
 62
     7
  6
Continuous
370
    -3
390
F
  0
ENDTAB
  0
TABLE
  2
STYLE
  5
3
330
0
100
AcDbSymbolTable
 70
     1
  0
STYLE
  5
11
330
3
100
AcDbSymbolTableRecord
100
AcDbTextStyleTableRecord
  2
Standard
 70
     0
 40
0.0
 41
1.0
 50
0.0
 71
     0
 42
0.2
  3
txt
  4

  0
ENDTAB
  0
TABLE
  2
VIEW
  5
6
330
0
100
AcDbSymbolTable
 70
     0
  0
ENDTAB
  0
TABLE
  2
UCS
  5
7
330
0
100
AcDbSymbolTable
 70
     0
  0
ENDTAB
  0
TABLE
  2
APPID
  5
9
330
0
100
AcDbSymbolTable
 70
     2
  0
APPID
  5
12
330
9
100
AcDbSymbolTableRecord
100
AcDbRegAppTableRecord
  2
ACAD
 70
     0
  0
APPID
  5
2A
330
9
100
AcDbSymbolTableRecord
100
AcDbRegAppTableRecord
  2
ODA
 70
     0
  0
ENDTAB
  0
TABLE
  2
DIMSTYLE
  5
A
330
0
100
AcDbSymbolTable
 70
     1
100
AcDbDimStyleTable
  0
DIMSTYLE
105
27
330
A
100
AcDbSymbolTableRecord
100
AcDbDimStyleTableRecord
  2
Standard
 70
     0
340
11
  0
ENDTAB
  0
TABLE
  2
BLOCK_RECORD
  5
1
330
0
100
AcDbSymbolTable
 70
     1
  0
BLOCK_RECORD
  5
1F
330
1
100
AcDbSymbolTableRecord
100
AcDbBlockTableRecord
  2
*Model_Space
340
22
  0
BLOCK_RECORD
  5
1B
330
1
100
AcDbSymbolTableRecord
100
AcDbBlockTableRecord
  2
*Paper_Space
340
1E
  0
BLOCK_RECORD
  5
23
330
1
100
AcDbSymbolTableRecord
100
AcDbBlockTableRecord
  2
*Paper_Space0
340
26
  0
ENDTAB
  0
ENDSEC
  0
SECTION
  2
BLOCKS
  0
BLOCK
  5
20
330
1F
100
AcDbEntity
  8
0
100
AcDbBlockBegin
  2
*Model_Space
 70
     0
 71
     0
 10
0.0
 20
0.0
 30
0.0
  3
*Model_Space
  1

  0
ENDBLK
  5
21
330
1F
100
AcDbEntity
  8
0
100
AcDbBlockEnd
  0
BLOCK
  5
1C
330
1B
100
AcDbEntity
 67
     1
  8
0
100
AcDbBlockBegin
  2
*Paper_Space
 70
     0
 71
     0
 10
0.0
 20
0.0
 30
0.0
  3
*Paper_Space
  1

  0
ENDBLK
  5
1D
330
1B
100
AcDbEntity
 67
     1
  8
0
100
AcDbBlockEnd
  0
BLOCK
  5
24
330
23
100
AcDbEntity
  8
0
100
AcDbBlockBegin
  2
*Paper_Space0
 70
     0
 71
     0
 10
0.0
 20
0.0
 30
0.0
  3
*Paper_Space0
  1

  0
ENDBLK
  5
25
330
23
100
AcDbEntity
  8
0
100
AcDbBlockEnd
  0
ENDSEC
  0
SECTION
  2
ENTITIES
  0
SPLINE
  5
2C
330
1F
100
AcDbEntity
  8
Capa 1
 62
     1
370
     0
100
AcDbSpline
210
0.0
220
0.0
230
1.0
 70
    11
 71
     3
 72
    24
 73
    20
 74
     0
 42
0.0000000001
 43
0.0000000001
 40
0.0
 40
0.0
 40
0.0
 40
0.0
 40
0.2
 40
0.2
 40
0.2
 40
0.2
 40
0.4
 40
0.4
 40
0.4
 40
0.4
 40
0.6000000000000001
 40
0.6000000000000001
 40
0.6000000000000001
 40
0.6000000000000001
 40
0.8
 40
0.8
 40
0.8
 40
0.8
 40
1.0
 40
1.0
 40
1.0
 40
1.0
 10
-208.7099
 20
331.8321
 30
0.0
 10
-208.7099
 20
331.8321
 30
0.0
 10
-177.4391
 20
327.2955
 30
0.0
 10
-177.4391
 20
327.2955
 30
0.0
 10
-177.4391
 20
327.2955
 30
0.0
 10
-177.4391
 20
327.2955
 30
0.0
 10
-195.9695
 20
258.3031
 30
0.0
 10
-195.9695
 20
258.3031
 30
0.0
 10
-195.9695
 20
258.3031
 30
0.0
 10
-195.9695
 20
258.3031
 30
0.0
 10
-198.8923
 20
254.462
 30
0.0
 10
-202.5016
 20
255.482
 30
0.0
 10
-202.5016
 20
255.482
 30
0.0
 10
-206.111
 20
256.502
 30
0.0
 10
-208.9661
 20
256.26
 30
0.0
 10
-208.6259
 20
264.0958
 30
0.0
 10
-208.6259
 20
264.0958
 30
0.0
 10
-208.2858
 20
271.9315
 30
0.0
 10
-208.7099
 20
331.8321
 30
0.0
 10
-208.7099
 20
331.8321
 30
0.0
  0
SPLINE
  5
2D
330
1F
100
AcDbEntity
  8
Capa 1
 62
     1
370
     0
100
AcDbSpline
210
0.0
220
0.0
230
1.0
 70
    11
 71
     3
 72
    20
 73
    16
 74
     0
 42
0.0000000001
 43
0.0000000001
 40
0.0
 40
0.0
 40
0.0
 40
0.0
 40
0.25
 40
0.25
 40
0.25
 40
0.25
 40
0.5
 40
0.5
 40
0.5
 40
0.5
 40
0.75
 40
0.75
 40
0.75
 40
0.75
 40
1.0
 40
1.0
 40
1.0
 40
1.0
 10
-189.7923
 20
311.3078
 30
0.0
 10
-189.7923
 20
311.3078
 30
0.0
 10
-187.854
 20
320.3249
 30
0.0
 10
-187.854
 20
320.3249
 30
0.0
 10
-187.854
 20
320.3249
 30
0.0
 10
-187.854
 20
320.3249
 30
0.0
 10
-184.921
 20
319.6944
 30
0.0
 10
-184.921
 20
319.6944
 30
0.0
 10
-184.921
 20
319.6944
 30
0.0
 10
-184.921
 20
319.6944
 30
0.0
 10
-186.8593
 20
310.6773
 30
0.0
 10
-186.8593
 20
310.6773
 30
0.0
 10
-186.8593
 20
310.6773
 30
0.0
 10
-186.8593
 20
310.6773
 30
0.0
 10
-189.7923
 20
311.3078
 30
0.0
 10
-189.7923
 20
311.3078
 30
0.0
  0
SPLINE
  5
2E
330
1F
100
AcDbEntity
  8
Capa 1
 62
     1
370
     0
100
AcDbSpline
210
0.0
220
0.0
230
1.0
 70
    11
 71
     3
 72
    20
 73
    16
 74
     0
 42
0.0000000001
 43
0.0000000001
 40
0.0
 40
0.0
 40
0.0
 40
0.0
 40
0.25
 40
0.25
 40
0.25
 40
0.25
 40
0.5
 40
0.5
 40
0.5
 40
0.5
 40
0.75
 40
0.75
 40
0.75
 40
0.75
 40
1.0
 40
1.0
 40
1.0
 40
1.0
 10
-200.7099
 20
322.3209
 30
0.0
 10
-200.7099
 20
322.3209
 30
0.0
 10
-200.9739
 20
313.1017
 30
0.0
 10
-200.9739
 20
313.1017
 30
0.0
 10
-200.9739
 20
313.1017
 30
0.0
 10
-200.9739
 20
313.1017
 30
0.0
 10
-203.9727
 20
313.1875
 30
0.0
 10
-203.9727
 20
313.1875
 30
0.0
 10
-203.9727
 20
313.1875
 30
0.0
 10
-203.9727
 20
313.1875
 30
0.0
 10
-203.7087
 20
322.4068
 30
0.0
 10
-203.7087
 20
322.4068
 30
0.0
 10
-203.7087
 20
322.4068
 30
0.0
 10
-203.7087
 20
322.4068
 30
0.0
 10
-200.7099
 20
322.3209
 30
0.0
 10
-200.7099
 20
322.3209
 30
0.0
  0
SPLINE
  5
2F
330
1F
100
AcDbEntity
  8
Capa 1
 62
     1
370
     0
100
AcDbSpline
210
0.0
220
0.0
230
1.0
 70
    11
 71
     3
 72
    68
 73
    64
 74
     0
 42
0.0000000001
 43
0.0000000001
 40
0.0
 40
0.0
 40
0.0
 40
0.0
 40
0.0625
 40
0.0625
 40
0.0625
 40
0.0625
 40
0.125
 40
0.125
 40
0.125
 40
0.125
 40
0.1875
 40
0.1875
 40
0.1875
 40
0.1875
 40
0.25
 40
0.25
 40
0.25
 40
0.25
 40
0.3125
 40
0.3125
 40
0.3125
 40
0.3125
 40
0.375
 40
0.375
 40
0.375
 40
0.375
 40
0.4375
 40
0.4375
 40
0.4375
 40
0.4375
 40
0.5
 40
0.5
 40
0.5
 40
0.5
 40
0.5625
 40
0.5625
 40
0.5625
 40
0.5625
 40
0.625
 40
0.625
 40
0.625
 40
0.625
 40
0.6875
 40
0.6875
 40
0.6875
 40
0.6875
 40
0.75
 40
0.75
 40
0.75
 40
0.75
 40
0.8125
 40
0.8125
 40
0.8125
 40
0.8125
 40
0.875
 40
0.875
 40
0.875
 40
0.875
 40
0.9375
 40
0.9375
 40
0.9375
 40
0.9375
 40
1.0
 40
1.0
 40
1.0
 40
1.0
 10
-194.7992
 20
262.6602
 30
0.0
 10
-194.7992
 20
262.6602
 30
0.0
 10
-184.07
 20
302.6072
 30
0.0
 10
-184.07
 20
302.6072
 30
0.0
 10
-184.07
 20
302.6072
 30
0.0
 10
-184.07
 20
302.6072
 30
0.0
 10
-167.5976
 20
297.8549
 30
0.0
 10
-167.5976
 20
297.8549
 30
0.0
 10
-167.5976
 20
297.8549
 30
0.0
 10
-167.5976
 20
297.8549
 30
0.0
 10
-168.9269
 20
292.8287
 30
0.0
 10
-168.9269
 20
292.8287
 30
0.0
 10
-168.9269
 20
292.8287
 30
0.0
 10
-168.9269
 20
292.8287
 30
0.0
 10
-166.0265
 20
292.0617
 30
0.0
 10
-166.0265
 20
292.0617
 30
0.0
 10
-166.0265
 20
292.0617
 30
0.0
 10
-166.0265
 20
292.0617
 30
0.0
 10
-164.7144
 20
297.0231
 30
0.0
 10
-164.7144
 20
297.0231
 30
0.0
 10
-164.7144
 20
297.0231
 30
0.0
 10
-164.7144
 20
297.0231
 30
0.0
 10
-148.7415
 20
292.4149
 30
0.0
 10
-148.7415
 20
292.4149
 30
0.0
 10
-148.7415
 20
292.4149
 30
0.0
 10
-148.7415
 20
292.4149
 30
0.0
 10
-159.4321
 20
252.6117
 30
0.0
 10
-159.4321
 20
252.6117
 30
0.0
 10
-159.4321
 20
252.6117
 30
0.0
 10
-159.4321
 20
252.6117
 30
0.0
 10
-172.6056
 20
256.3546
 30
0.0
 10
-172.6056
 20
256.3546
 30
0.0
 10
-172.6056
 20
256.3546
 30
0.0
 10
-172.6056
 20
256.3546
 30
0.0
 10
-171.4693
 20
260.2657
 30
0.0
 10
-171.4693
 20
260.2657
 30
0.0
 10
-171.4693
 20
260.2657
 30
0.0
 10
-171.4693
 20
260.2657
 30
0.0
 10
-174.4897
 20
261.1432
 30
0.0
 10
-174.4897
 20
261.1432
 30
0.0
 10
-174.4897
 20
261.1432
 30
0.0
 10
-174.4897
 20
261.1432
 30
0.0
 10
-173.8327
 20
263.6276
 30
0.0
 10
-173.8327
 20
263.6276
 30
0.0
 10
-173.8327
 20
263.6276
 30
0.0
 10
-173.8327
 20
263.6276
 30
0.0
 10
-176.733
 20
264.3945
 30
0.0
 10
-176.733
 20
264.3945
 30
0.0
 10
-176.733
 20
264.3945
 30
0.0
 10
-176.733
 20
264.3945
 30
0.0
 10
-177.3714
 20
261.9805
 30
0.0
 10
-177.3714
 20
261.9805
 30
0.0
 10
-177.3714
 20
261.9805
 30
0.0
 10
-177.3714
 20
261.9805
 30
0.0
 10
-180.1118
 20
262.7768
 30
0.0
 10
-180.1118
 20
262.7768
 30
0.0
 10
-180.1118
 20
262.7768
 30
0.0
 10
-180.1118
 20
262.7768
 30
0.0
 10
-181.2631
 20
258.8143
 30
0.0
 10
-181.2631
 20
258.8143
 30
0.0
 10
-181.2631
 20
258.8143
 30
0.0
 10
-181.2631
 20
258.8143
 30
0.0
 10
-194.7992
 20
262.6602
 30
0.0
 10
-194.7992
 20
262.6602
 30
0.0
  0
SPLINE
  5
30
330
1F
100
AcDbEntity
  8
Capa 1
 62
     1
370
    18
100
AcDbSpline
210
0.0
220
0.0
230
1.0
 70
    11
 71
     3
 72
    36
 73
    32
 74
     0
 42
0.0000000001
 43
0.0000000001
 40
0.0
 40
0.0
 40
0.0
 40
0.0
 40
0.125
 40
0.125
 40
0.125
 40
0.125
 40
0.25
 40
0.25
 40
0.25
 40
0.25
 40
0.375
 40
0.375
 40
0.375
 40
0.375
 40
0.5
 40
0.5
 40
0.5
 40
0.5
 40
0.625
 40
0.625
 40
0.625
 40
0.625
 40
0.75
 40
0.75
 40
0.75
 40
0.75
 40
0.875
 40
0.875
 40
0.875
 40
0.875
 40
1.0
 40
1.0
 40
1.0
 40
1.0
 10
-106.805
 20
325.1958
 30
0.0
 10
-106.805
 20
325.1958
 30
0.0
 10
-106.2118
 20
269.3147
 30
0.0
 10
-106.2118
 20
269.3147
 30
0.0
 10
-106.2118
 20
269.3147
 30
0.0
 10
-106.2118
 20
269.3147
 30
0.0
 10
-111.6802
 20
269.2567
 30
0.0
 10
-111.6802
 20
269.2567
 30
0.0
 10
-111.6802
 20
269.2567
 30
0.0
 10
-111.6802
 20
269.2567
 30
0.0
 10
-111.9055
 20
290.4791
 30
0.0
 10
-111.9055
 20
290.4791
 30
0.0
 10
-111.9055
 20
290.4791
 30
0.0
 10
-111.9055
 20
290.4791
 30
0.0
 10
-114.9053
 20
290.4472
 30
0.0
 10
-114.9053
 20
290.4472
 30
0.0
 10
-114.9053
 20
290.4472
 30
0.0
 10
-114.9053
 20
290.4472
 30
0.0
 10
-115.048
 20
303.8835
 30
0.0
 10
-115.048
 20
303.8835
 30
0.0
 10
-115.048
 20
303.8835
 30
0.0
 10
-115.048
 20
303.8835
 30
0.0
 10
-112.0481
 20
303.9153
 30
0.0
 10
-112.0481
 20
303.9153
 30
0.0
 10
-112.0481
 20
303.9153
 30
0.0
 10
-112.0481
 20
303.9153
 30
0.0
 10
-112.2734
 20
325.1377
 30
0.0
 10
-112.2734
 20
325.1377
 30
0.0
 10
-112.2734
 20
325.1377
 30
0.0
 10
-112.2734
 20
325.1377
 30
0.0
 10
-106.805
 20
325.1958
 30
0.0
 10
-106.805
 20
325.1958
 30
0.0
  0
SPLINE
  5
31
330
1F
100
AcDbEntity
  8
Capa 1
 62
     1
370
     0
100
AcDbSpline
210
0.0
220
0.0
230
1.0
 70
    11
 71
     3
 72
   108
 73
   104
 74
     0
 42
0.0000000001
 43
0.0000000001
 40
0.0
 40
0.0
 40
0.0
 40
0.0
 40
0.0384615384615385
 40
0.0384615384615385
 40
0.0384615384615385
 40
0.0384615384615385
 40
0.0769230769230769
 40
0.0769230769230769
 40
0.0769230769230769
 40
0.0769230769230769
 40
0.1153846153846154
 40
0.1153846153846154
 40
0.1153846153846154
 40
0.1153846153846154
 40
0.1538461538461539
 40
0.1538461538461539
 40
0.1538461538461539
 40
0.1538461538461539
 40
0.1923076923076923
 40
0.1923076923076923
 40
0.1923076923076923
 40
0.1923076923076923
 40
0.2307692307692308
 40
0.2307692307692308
 40
0.2307692307692308
 40
0.2307692307692308
 40
0.2692307692307693
 40
0.2692307692307693
 40
0.2692307692307693
 40
0.2692307692307693
 40
0.3076923076923077
 40
0.3076923076923077
 40
0.3076923076923077
 40
0.3076923076923077
 40
0.3461538461538462
 40
0.3461538461538462
 40
0.3461538461538462
 40
0.3461538461538462
 40
0.3846153846153846
 40
0.3846153846153846
 40
0.3846153846153846
 40
0.3846153846153846
 40
0.423076923076923
 40
0.423076923076923
 40
0.423076923076923
 40
0.423076923076923
 40
0.4615384615384615
 40
0.4615384615384615
 40
0.4615384615384615
 40
0.4615384615384615
 40
0.4999999999999999
 40
0.4999999999999999
 40
0.4999999999999999
 40
0.4999999999999999
 40
0.5384615384615383
 40
0.5384615384615383
 40
0.5384615384615383
 40
0.5384615384615383
 40
0.5769230769230768
 40
0.5769230769230768
 40
0.5769230769230768
 40
0.5769230769230768
 40
0.6153846153846152
 40
0.6153846153846152
 40
0.6153846153846152
 40
0.6153846153846152
 40
0.6538461538461536
 40
0.6538461538461536
 40
0.6538461538461536
 40
0.6538461538461536
 40
0.6923076923076921
 40
0.6923076923076921
 40
0.6923076923076921
 40
0.6923076923076921
 40
0.7307692307692305
 40
0.7307692307692305
 40
0.7307692307692305
 40
0.7307692307692305
 40
0.7692307692307689
 40
0.7692307692307689
 40
0.7692307692307689
 40
0.7692307692307689
 40
0.8076923076923074
 40
0.8076923076923074
 40
0.8076923076923074
 40
0.8076923076923074
 40
0.8461538461538458
 40
0.8461538461538458
 40
0.8461538461538458
 40
0.8461538461538458
 40
0.8846153846153843
 40
0.8846153846153843
 40
0.8846153846153843
 40
0.8846153846153843
 40
0.9230769230769227
 40
0.9230769230769227
 40
0.9230769230769227
 40
0.9230769230769227
 40
0.9615384615384611
 40
0.9615384615384611
 40
0.9615384615384611
 40
0.9615384615384611
 40
1.0
 40
1.0
 40
1.0
 40
1.0
 10
-128.9716
 20
331.972
 30
0.0
 10
-133.4692
 20
331.9242
 30
0.0
 10
-137.967
 20
331.8765
 30
0.0
 10
-142.4646
 20
331.8287
 30
0.0
 10
-142.4646
 20
331.8287
 30
0.0
 10
-143.3171
 20
330.4376
 30
0.0
 10
-144.0161
 20
329.1143
 30
0.0
 10
-145.6878
 20
328.0452
 30
0.0
 10
-145.6878
 20
328.0452
 30
0.0
 10
-145.6878
 20
328.0452
 30
0.0
 10
-154.1867
 20
324.7798
 30
0.0
 10
-154.1867
 20
324.7798
 30
0.0
 10
-154.1867
 20
324.7798
 30
0.0
 10
-154.1867
 20
324.7798
 30
0.0
 10
-165.2806
 20
320.8915
 30
0.0
 10
-165.2806
 20
320.8915
 30
0.0
 10
-165.2806
 20
320.8915
 30
0.0
 10
-168.2474
 20
319.1102
 30
0.0
 10
-169.7795
 20
317.7204
 30
0.0
 10
-170.0038
 20
314.6027
 30
0.0
 10
-170.0038
 20
314.6027
 30
0.0
 10
-170.0038
 20
314.6027
 30
0.0
 10
-165.3902
 20
314.6516
 30
0.0
 10
-165.3902
 20
314.6516
 30
0.0
 10
-165.3902
 20
314.6516
 30
0.0
 10
-165.3902
 20
314.6516
 30
0.0
 10
-165.3583
 20
311.6518
 30
0.0
 10
-165.3583
 20
311.6518
 30
0.0
 10
-165.3583
 20
311.6518
 30
0.0
 10
-165.3583
 20
311.6518
 30
0.0
 10
-169.9199
 20
311.6034
 30
0.0
 10
-169.9199
 20
311.6034
 30
0.0
 10
-169.9199
 20
311.6034
 30
0.0
 10
-169.6162
 20
309.1438
 30
0.0
 10
-168.5789
 20
307.8043
 30
0.0
 10
-165.3665
 20
306.1407
 30
0.0
 10
-165.3665
 20
306.1407
 30
0.0
 10
-165.3665
 20
306.1407
 30
0.0
 10
-153.1487
 20
301.7722
 30
0.0
 10
-153.1487
 20
301.7722
 30
0.0
 10
-153.1487
 20
301.7722
 30
0.0
 10
-150.1094
 20
300.7314
 30
0.0
 10
-148.1399
 20
300.3016
 30
0.0
 10
-145.2861
 20
298.5041
 30
0.0
 10
-145.2861
 20
298.5041
 30
0.0
 10
-143.5979
 20
297.3311
 30
0.0
 10
-143.1442
 20
296.1449
 30
0.0
 10
-142.0733
 20
294.9653
 30
0.0
 10
-142.0733
 20
294.9653
 30
0.0
 10
-142.0733
 20
294.9653
 30
0.0
 10
-128.5803
 20
295.1085
 30
0.0
 10
-128.5803
 20
295.1085
 30
0.0
 10
-128.5803
 20
295.1085
 30
0.0
 10
-128.5803
 20
295.1085
 30
0.0
 10
-128.6219
 20
299.0324
 30
0.0
 10
-128.6219
 20
299.0324
 30
0.0
 10
-128.6219
 20
299.0324
 30
0.0
 10
-128.6219
 20
299.0324
 30
0.0
 10
-136.7366
 20
298.9463
 30
0.0
 10
-136.7366
 20
298.9463
 30
0.0
 10
-136.7366
 20
298.9463
 30
0.0
 10
-136.7366
 20
298.9463
 30
0.0
 10
-136.7684
 20
301.9461
 30
0.0
 10
-136.7684
 20
301.9461
 30
0.0
 10
-136.7684
 20
301.9461
 30
0.0
 10
-136.7684
 20
301.9461
 30
0.0
 10
-128.6538
 20
302.0323
 30
0.0
 10
-128.6538
 20
302.0323
 30
0.0
 10
-128.6538
 20
302.0323
 30
0.0
 10
-128.6538
 20
302.0323
 30
0.0
 10
-124.1318
 20
302.0803
 30
0.0
 10
-124.1318
 20
302.0803
 30
0.0
 10
-124.1318
 20
302.0803
 30
0.0
 10
-124.1318
 20
302.0803
 30
0.0
 10
-119.924
 20
302.1249
 30
0.0
 10
-119.924
 20
302.1249
 30
0.0
 10
-119.924
 20
302.1249
 30
0.0
 10
-119.924
 20
302.1249
 30
0.0
 10
-120.1683
 20
325.1409
 30
0.0
 10
-120.1683
 20
325.1409
 30
0.0
 10
-120.1683
 20
325.1409
 30
0.0
 10
-120.1683
 20
325.1409
 30
0.0
 10
-124.3761
 20
325.0963
 30
0.0
 10
-124.3761
 20
325.0963
 30
0.0
 10
-124.3761
 20
325.0963
 30
0.0
 10
-124.3761
 20
325.0963
 30
0.0
 10
-128.8981
 20
325.0483
 30
0.0
 10
-128.8981
 20
325.0483
 30
0.0
 10
-128.8981
 20
325.0483
 30
0.0
 10
-128.8981
 20
325.0483
 30
0.0
 10
-137.0127
 20
324.9621
 30
0.0
 10
-137.0127
 20
324.9621
 30
0.0
 10
-137.0127
 20
324.9621
 30
0.0
 10
-137.0127
 20
324.9621
 30
0.0
 10
-137.0446
 20
327.962
 30
0.0
 10
-137.0446
 20
327.962
 30
0.0
 10
-137.0446
 20
327.962
 30
0.0
 10
-137.0446
 20
327.962
 30
0.0
 10
-128.9299
 20
328.0481
 30
0.0
 10
-128.9299
 20
328.0481
 30
0.0
 10
-128.9299
 20
328.0481
 30
0.0
 10
-128.9299
 20
328.0481
 30
0.0
 10
-128.9716
 20
331.972
 30
0.0
 10
-128.9716
 20
331.972
 30
0.0
  0
SPLINE
  5
32
330
1F
100
AcDbEntity
  8
Capa 1
 62
     1
370
     0
100
AcDbSpline
210
0.0
220
0.0
230
1.0
 70
    11
 71
     3
 72
    20
 73
    16
 74
     0
 42
0.0000000001
 43
0.0000000001
 40
0.0
 40
0.0
 40
0.0
 40
0.0
 40
0.25
 40
0.25
 40
0.25
 40
0.25
 40
0.5
 40
0.5
 40
0.5
 40
0.5
 40
0.75
 40
0.75
 40
0.75
 40
0.75
 40
1.0
 40
1.0
 40
1.0
 40
1.0
 10
-124.6517
 20
319.7928
 30
0.0
 10
-124.6517
 20
319.7928
 30
0.0
 10
-124.5175
 20
307.1562
 30
0.0
 10
-124.5175
 20
307.1562
 30
0.0
 10
-124.5175
 20
307.1562
 30
0.0
 10
-124.5175
 20
307.1562
 30
0.0
 10
-127.5174
 20
307.1244
 30
0.0
 10
-127.5174
 20
307.1244
 30
0.0
 10
-127.5174
 20
307.1244
 30
0.0
 10
-127.5174
 20
307.1244
 30
0.0
 10
-127.6515
 20
319.761
 30
0.0
 10
-127.6515
 20
319.761
 30
0.0
 10
-127.6515
 20
319.761
 30
0.0
 10
-127.6515
 20
319.761
 30
0.0
 10
-124.6517
 20
319.7928
 30
0.0
 10
-124.6517
 20
319.7928
 30
0.0
  0
SPLINE
  5
33
330
1F
100
AcDbEntity
  8
Capa 1
 62
     1
370
     0
100
AcDbSpline
210
0.0
220
0.0
230
1.0
 70
    11
 71
     3
 72
   216
 73
   212
 74
     0
 42
0.0000000001
 43
0.0000000001
 40
0.0
 40
0.0
 40
0.0
 40
0.0
 40
0.0188679245283019
 40
0.0188679245283019
 40
0.0188679245283019
 40
0.0188679245283019
 40
0.0377358490566038
 40
0.0377358490566038
 40
0.0377358490566038
 40
0.0377358490566038
 40
0.0566037735849057
 40
0.0566037735849057
 40
0.0566037735849057
 40
0.0566037735849057
 40
0.0754716981132075
 40
0.0754716981132075
 40
0.0754716981132075
 40
0.0754716981132075
 40
0.0943396226415094
 40
0.0943396226415094
 40
0.0943396226415094
 40
0.0943396226415094
 40
0.1132075471698113
 40
0.1132075471698113
 40
0.1132075471698113
 40
0.1132075471698113
 40
0.1320754716981132
 40
0.1320754716981132
 40
0.1320754716981132
 40
0.1320754716981132
 40
0.1509433962264151
 40
0.1509433962264151
 40
0.1509433962264151
 40
0.1509433962264151
 40
0.169811320754717
 40
0.169811320754717
 40
0.169811320754717
 40
0.169811320754717
 40
0.1886792452830189
 40
0.1886792452830189
 40
0.1886792452830189
 40
0.1886792452830189
 40
0.2075471698113207
 40
0.2075471698113207
 40
0.2075471698113207
 40
0.2075471698113207
 40
0.2264150943396226
 40
0.2264150943396226
 40
0.2264150943396226
 40
0.2264150943396226
 40
0.2452830188679245
 40
0.2452830188679245
 40
0.2452830188679245
 40
0.2452830188679245
 40
0.2641509433962264
 40
0.2641509433962264
 40
0.2641509433962264
 40
0.2641509433962264
 40
0.2830188679245283
 40
0.2830188679245283
 40
0.2830188679245283
 40
0.2830188679245283
 40
0.3018867924528302
 40
0.3018867924528302
 40
0.3018867924528302
 40
0.3018867924528302
 40
0.3207547169811321
 40
0.3207547169811321
 40
0.3207547169811321
 40
0.3207547169811321
 40
0.3396226415094339
 40
0.3396226415094339
 40
0.3396226415094339
 40
0.3396226415094339
 40
0.3584905660377358
 40
0.3584905660377358
 40
0.3584905660377358
 40
0.3584905660377358
 40
0.3773584905660377
 40
0.3773584905660377
 40
0.3773584905660377
 40
0.3773584905660377
 40
0.3962264150943396
 40
0.3962264150943396
 40
0.3962264150943396
 40
0.3962264150943396
 40
0.4150943396226415
 40
0.4150943396226415
 40
0.4150943396226415
 40
0.4150943396226415
 40
0.4339622641509434
 40
0.4339622641509434
 40
0.4339622641509434
 40
0.4339622641509434
 40
0.4528301886792452
 40
0.4528301886792452
 40
0.4528301886792452
 40
0.4528301886792452
 40
0.4716981132075471
 40
0.4716981132075471
 40
0.4716981132075471
 40
0.4716981132075471
 40
0.490566037735849
 40
0.490566037735849
 40
0.490566037735849
 40
0.490566037735849
 40
0.5094339622641509
 40
0.5094339622641509
 40
0.5094339622641509
 40
0.5094339622641509
 40
0.5283018867924528
 40
0.5283018867924528
 40
0.5283018867924528
 40
0.5283018867924528
 40
0.5471698113207547
 40
0.5471698113207547
 40
0.5471698113207547
 40
0.5471698113207547
 40
0.5660377358490566
 40
0.5660377358490566
 40
0.5660377358490566
 40
0.5660377358490566
 40
0.5849056603773585
 40
0.5849056603773585
 40
0.5849056603773585
 40
0.5849056603773585
 40
0.6037735849056604
 40
0.6037735849056604
 40
0.6037735849056604
 40
0.6037735849056604
 40
0.6226415094339622
 40
0.6226415094339622
 40
0.6226415094339622
 40
0.6226415094339622
 40
0.6415094339622641
 40
0.6415094339622641
 40
0.6415094339622641
 40
0.6415094339622641
 40
0.660377358490566
 40
0.660377358490566
 40
0.660377358490566
 40
0.660377358490566
 40
0.6792452830188679
 40
0.6792452830188679
 40
0.6792452830188679
 40
0.6792452830188679
 40
0.6981132075471698
 40
0.6981132075471698
 40
0.6981132075471698
 40
0.6981132075471698
 40
0.7169811320754717
 40
0.7169811320754717
 40
0.7169811320754717
 40
0.7169811320754717
 40
0.7358490566037735
 40
0.7358490566037735
 40
0.7358490566037735
 40
0.7358490566037735
 40
0.7547169811320754
 40
0.7547169811320754
 40
0.7547169811320754
 40
0.7547169811320754
 40
0.7735849056603773
 40
0.7735849056603773
 40
0.7735849056603773
 40
0.7735849056603773
 40
0.7924528301886792
 40
0.7924528301886792
 40
0.7924528301886792
 40
0.7924528301886792
 40
0.8113207547169811
 40
0.8113207547169811
 40
0.8113207547169811
 40
0.8113207547169811
 40
0.830188679245283
 40
0.830188679245283
 40
0.830188679245283
 40
0.830188679245283
 40
0.8490566037735848
 40
0.8490566037735848
 40
0.8490566037735848
 40
0.8490566037735848
 40
0.8679245283018867
 40
0.8679245283018867
 40
0.8679245283018867
 40
0.8679245283018867
 40
0.8867924528301886
 40
0.8867924528301886
 40
0.8867924528301886
 40
0.8867924528301886
 40
0.9056603773584905
 40
0.9056603773584905
 40
0.9056603773584905
 40
0.9056603773584905
 40
0.9245283018867924
 40
0.9245283018867924
 40
0.9245283018867924
 40
0.9245283018867924
 40
0.9433962264150942
 40
0.9433962264150942
 40
0.9433962264150942
 40
0.9433962264150942
 40
0.9622641509433961
 40
0.9622641509433961
 40
0.9622641509433961
 40
0.9622641509433961
 40
0.981132075471698
 40
0.981132075471698
 40
0.981132075471698
 40
0.981132075471698
 40
1.0
 40
1.0
 40
1.0
 40
1.0
 10
-106.805
 20
325.1958
 30
0.0
 10
-106.805
 20
325.1958
 30
0.0
 10
-107.0345
 20
332.3817
 30
0.0
 10
-107.0345
 20
332.3817
 30
0.0
 10
-107.0345
 20
332.3817
 30
0.0
 10
-107.0345
 20
332.3817
 30
0.0
 10
-78.81010000000001
 20
332.3285
 30
0.0
 10
-78.81010000000001
 20
332.3285
 30
0.0
 10
-78.81010000000001
 20
332.3285
 30
0.0
 10
-78.81010000000001
 20
332.3285
 30
0.0
 10
-78.2063
 20
325.1123
 30
0.0
 10
-78.2063
 20
325.1123
 30
0.0
 10
-78.2063
 20
325.1123
 30
0.0
 10
-78.2063
 20
325.1123
 30
0.0
 10
-82.63670000000001
 20
325.0653
 30
0.0
 10
-82.63670000000001
 20
325.0653
 30
0.0
 10
-82.63670000000001
 20
325.0653
 30
0.0
 10
-82.63670000000001
 20
325.0653
 30
0.0
 10
-82.6048
 20
322.0655
 30
0.0
 10
-82.6048
 20
322.0655
 30
0.0
 10
-82.6048
 20
322.0655
 30
0.0
 10
-82.6048
 20
322.0655
 30
0.0
 10
-77.9556
 20
322.1148
 30
0.0
 10
-77.9556
 20
322.1148
 30
0.0
 10
-77.9556
 20
322.1148
 30
0.0
 10
-77.9556
 20
322.1148
 30
0.0
 10
-75.9041
 20
297.5978
 30
0.0
 10
-75.9041
 20
297.5978
 30
0.0
 10
-75.9041
 20
297.5978
 30
0.0
 10
-75.9041
 20
297.5978
 30
0.0
 10
-81.2675
 20
297.5409
 30
0.0
 10
-81.2675
 20
297.5409
 30
0.0
 10
-81.2675
 20
297.5409
 30
0.0
 10
-81.2675
 20
297.5409
 30
0.0
 10
-81.23570000000001
 20
294.541
 30
0.0
 10
-81.23570000000001
 20
294.541
 30
0.0
 10
-81.23570000000001
 20
294.541
 30
0.0
 10
-81.23570000000001
 20
294.541
 30
0.0
 10
-75.6533
 20
294.6003
 30
0.0
 10
-75.6533
 20
294.6003
 30
0.0
 10
-75.6533
 20
294.6003
 30
0.0
 10
-75.6533
 20
294.6003
 30
0.0
 10
-75.2864
 20
290.216
 30
0.0
 10
-75.2864
 20
290.216
 30
0.0
 10
-75.2864
 20
290.216
 30
0.0
 10
-75.2864
 20
290.216
 30
0.0
 10
-81.18910000000001
 20
290.1534
 30
0.0
 10
-81.18910000000001
 20
290.1534
 30
0.0
 10
-81.18910000000001
 20
290.1534
 30
0.0
 10
-81.18910000000001
 20
290.1534
 30
0.0
 10
-81.15730000000001
 20
287.1536
 30
0.0
 10
-81.15730000000001
 20
287.1536
 30
0.0
 10
-81.15730000000001
 20
287.1536
 30
0.0
 10
-81.15730000000001
 20
287.1536
 30
0.0
 10
-75.0356
 20
287.2185
 30
0.0
 10
-75.0356
 20
287.2185
 30
0.0
 10
-75.0356
 20
287.2185
 30
0.0
 10
-75.0356
 20
287.2185
 30
0.0
 10
-74.76950000000001
 20
284.0381
 30
0.0
 10
-74.76950000000001
 20
284.0381
 30
0.0
 10
-74.76950000000001
 20
284.0381
 30
0.0
 10
-74.76950000000001
 20
284.0381
 30
0.0
 10
-84.27340000000001
 20
281.9969
 30
0.0
 10
-84.1349
 20
268.9448
 30
0.0
 10
-84.1349
 20
268.9448
 30
0.0
 10
-84.02930000000001
 20
258.9958
 30
0.0
 10
-82.9508
 20
253.9772
 30
0.0
 10
-80.9508
 20
251.3096
 30
0.0
 10
-80.9508
 20
251.3096
 30
0.0
 10
-80.9508
 20
251.3096
 30
0.0
 10
-84.01870000000001
 20
247.9809
 30
0.0
 10
-84.01870000000001
 20
247.9809
 30
0.0
 10
-84.01870000000001
 20
247.9809
 30
0.0
 10
-84.01870000000001
 20
247.9809
 30
0.0
 10
-81.81270000000001
 20
245.9478
 30
0.0
 10
-81.81270000000001
 20
245.9478
 30
0.0
 10
-81.81270000000001
 20
245.9478
 30
0.0
 10
-81.81270000000001
 20
245.9478
 30
0.0
 10
-78.6793
 20
249.3477
 30
0.0
 10
-78.6793
 20
249.3477
 30
0.0
 10
-78.6793
 20
249.3477
 30
0.0
 10
-75.3484
 20
247.5356
 30
0.0
 10
-71.91970000000001
 20
248.2225
 30
0.0
 10
-71.89020000000001
 20
245.4374
 30
0.0
 10
-71.89020000000001
 20
245.4374
 30
0.0
 10
-71.8612
 20
242.7037
 30
0.0
 10
-73.58840000000001
 20
241.6892
 30
0.0
 10
-74.50070000000001
 20
241.8603
 30
0.0
 10
-74.50070000000001
 20
241.8603
 30
0.0
 10
-74.50070000000001
 20
241.8603
 30
0.0
 10
-76.9165
 20
245.3603
 30
0.0
 10
-76.9165
 20
245.3603
 30
0.0
 10
-76.9165
 20
245.3603
 30
0.0
 10
-76.9165
 20
245.3603
 30
0.0
 10
-79.38550000000001
 20
243.6561
 30
0.0
 10
-79.38550000000001
 20
243.6561
 30
0.0
 10
-79.38550000000001
 20
243.6561
 30
0.0
 10
-79.38550000000001
 20
243.6561
 30
0.0
 10
-77.158
 20
240.429
 30
0.0
 10
-77.158
 20
240.429
 30
0.0
 10
-77.158
 20
240.429
 30
0.0
 10
-77.158
 20
240.429
 30
0.0
 10
-78.48780000000001
 20
239.6781
 30
0.0
 10
-78.48780000000001
 20
239.6781
 30
0.0
 10
-78.48780000000001
 20
239.6781
 30
0.0
 10
-78.48780000000001
 20
239.6781
 30
0.0
 10
-81.29690000000001
 20
230.1228
 30
0.0
 10
-81.29690000000001
 20
230.1228
 30
0.0
 10
-81.29690000000001
 20
230.1228
 30
0.0
 10
-81.29690000000001
 20
230.1228
 30
0.0
 10
-74.1293
 20
227.9056
 30
0.0
 10
-74.1293
 20
227.9056
 30
0.0
 10
-74.1293
 20
227.9056
 30
0.0
 10
-74.1293
 20
227.9056
 30
0.0
 10
-73.4979
 20
226.5893
 30
0.0
 10
-73.4979
 20
226.5893
 30
0.0
 10
-73.4979
 20
226.5893
 30
0.0
 10
-73.4979
 20
226.5893
 30
0.0
 10
-75.2628
 20
220.485
 30
0.0
 10
-75.2628
 20
220.485
 30
0.0
 10
-75.2628
 20
220.485
 30
0.0
 10
-75.2628
 20
220.485
 30
0.0
 10
-76.5988
 20
219.6328
 30
0.0
 10
-76.5988
 20
219.6328
 30
0.0
 10
-76.5988
 20
219.6328
 30
0.0
 10
-76.5988
 20
219.6328
 30
0.0
 10
-83.8079
 20
221.5849
 30
0.0
 10
-83.8079
 20
221.5849
 30
0.0
 10
-83.8079
 20
221.5849
 30
0.0
 10
-83.8079
 20
221.5849
 30
0.0
 10
-88.6383
 20
196.9907
 30
0.0
 10
-88.6383
 20
196.9907
 30
0.0
 10
-88.6383
 20
196.9907
 30
0.0
 10
-88.6383
 20
196.9907
 30
0.0
 10
-93.2342
 20
196.9419
 30
0.0
 10
-93.2342
 20
196.9419
 30
0.0
 10
-93.2342
 20
196.9419
 30
0.0
 10
-93.2342
 20
196.9419
 30
0.0
 10
-93.20240000000001
 20
193.9421
 30
0.0
 10
-93.20240000000001
 20
193.9421
 30
0.0
 10
-93.20240000000001
 20
193.9421
 30
0.0
 10
-93.20240000000001
 20
193.9421
 30
0.0
 10
-89.22880000000001
 20
193.9842
 30
0.0
 10
-89.22880000000001
 20
193.9842
 30
0.0
 10
-89.22880000000001
 20
193.9842
 30
0.0
 10
-89.22880000000001
 20
193.9842
 30
0.0
 10
-89.8665
 20
190.7375
 30
0.0
 10
-89.8665
 20
190.7375
 30
0.0
 10
-89.8665
 20
190.7375
 30
0.0
 10
-89.8665
 20
190.7375
 30
0.0
 10
-93.80750000000001
 20
190.6956
 30
0.0
 10
-93.80750000000001
 20
190.6956
 30
0.0
 10
-93.80750000000001
 20
190.6956
 30
0.0
 10
-93.80750000000001
 20
190.6956
 30
0.0
 10
-93.77560000000001
 20
187.6958
 30
0.0
 10
-93.77560000000001
 20
187.6958
 30
0.0
 10
-93.77560000000001
 20
187.6958
 30
0.0
 10
-93.77560000000001
 20
187.6958
 30
0.0
 10
-90.45690000000001
 20
187.731
 30
0.0
 10
-90.45690000000001
 20
187.731
 30
0.0
 10
-90.45690000000001
 20
187.731
 30
0.0
 10
-90.45690000000001
 20
187.731
 30
0.0
 10
-92.42670000000001
 20
177.7021
 30
0.0
 10
-92.42670000000001
 20
177.7021
 30
0.0
 10
-92.42670000000001
 20
177.7021
 30
0.0
 10
-92.42670000000001
 20
177.7021
 30
0.0
 10
-92.5839
 20
175.8923
 30
0.0
 10
-94.1661
 20
175.3904
 30
0.0
 10
-94.1661
 20
175.3904
 30
0.0
 10
-95.7484
 20
174.8885
 30
0.0
 10
-97.2514
 20
175.2253
 30
0.0
 10
-97.2514
 20
175.2253
 30
0.0
 10
-97.2514
 20
175.2253
 30
0.0
 10
-97.2514
 20
175.2253
 30
0.0
 10
-97.3057
 20
249.3856
 30
0.0
 10
-97.3057
 20
249.3856
 30
0.0
 10
-97.3057
 20
249.3856
 30
0.0
 10
-97.3057
 20
249.3856
 30
0.0
 10
-97.22760000000001
 20
249.3865
 30
0.0
 10
-97.22760000000001
 20
249.3865
 30
0.0
 10
-97.22760000000001
 20
249.3865
 30
0.0
 10
-97.22760000000001
 20
249.3865
 30
0.0
 10
-97.3116
 20
257.2948
 30
0.0
 10
-97.3116
 20
257.2948
 30
0.0
 10
-97.3116
 20
257.2948
 30
0.0
 10
-97.3116
 20
257.2948
 30
0.0
 10
-97.31190000000001
 20
257.8008
 30
0.0
 10
-97.31190000000001
 20
257.8008
 30
0.0
 10
-97.31190000000001
 20
257.8008
 30
0.0
 10
-97.31190000000001
 20
257.8008
 30
0.0
 10
-97.3169
 20
257.8008
 30
0.0
 10
-97.3169
 20
257.8008
 30
0.0
 10
-97.3169
 20
257.8008
 30
0.0
 10
-97.3169
 20
257.8008
 30
0.0
 10
-97.6991
 20
293.8036
 30
0.0
 10
-97.6991
 20
293.8036
 30
0.0
 10
-97.6991
 20
293.8036
 30
0.0
 10
-97.6991
 20
293.8036
 30
0.0
 10
-100.6989
 20
293.7718
 30
0.0
 10
-100.6989
 20
293.7718
 30
0.0
 10
-100.6989
 20
293.7718
 30
0.0
 10
-100.6989
 20
293.7718
 30
0.0
 10
-100.3168
 20
257.7689
 30
0.0
 10
-100.3168
 20
257.7689
 30
0.0
 10
-100.3168
 20
257.7689
 30
0.0
 10
-100.3168
 20
257.7689
 30
0.0
 10
-106.3955
 20
257.7044
 30
0.0
 10
-106.3955
 20
257.7044
 30
0.0
 10
-106.3955
 20
257.7044
 30
0.0
 10
-106.3955
 20
257.7044
 30
0.0
 10
-106.805
 20
325.1958
 30
0.0
 10
-106.805
 20
325.1958
 30
0.0
  0
SPLINE
  5
34
330
1F
100
AcDbEntity
  8
Capa 1
 62
     1
370
     0
100
AcDbSpline
210
0.0
220
0.0
230
1.0
 70
    11
 71
     3
 72
    20
 73
    16
 74
     0
 42
0.0000000001
 43
0.0000000001
 40
0.0
 40
0.0
 40
0.0
 40
0.0
 40
0.25
 40
0.25
 40
0.25
 40
0.25
 40
0.5
 40
0.5
 40
0.5
 40
0.5
 40
0.75
 40
0.75
 40
0.75
 40
0.75
 40
1.0
 40
1.0
 40
1.0
 40
1.0
 10
-88.92840000000001
 20
317.0782
 30
0.0
 10
-88.92840000000001
 20
317.0782
 30
0.0
 10
-88.79380000000001
 20
304.394
 30
0.0
 10
-88.79380000000001
 20
304.394
 30
0.0
 10
-88.79380000000001
 20
304.394
 30
0.0
 10
-88.79380000000001
 20
304.394
 30
0.0
 10
-91.7936
 20
304.3621
 30
0.0
 10
-91.7936
 20
304.3621
 30
0.0
 10
-91.7936
 20
304.3621
 30
0.0
 10
-91.7936
 20
304.3621
 30
0.0
 10
-91.92830000000001
 20
317.0463
 30
0.0
 10
-91.92830000000001
 20
317.0463
 30
0.0
 10
-91.92830000000001
 20
317.0463
 30
0.0
 10
-91.92830000000001
 20
317.0463
 30
0.0
 10
-88.92840000000001
 20
317.0782
 30
0.0
 10
-88.92840000000001
 20
317.0782
 30
0.0
  0
SPLINE
  5
35
330
1F
100
AcDbEntity
  8
Capa 1
 62
     1
370
    18
100
AcDbSpline
210
0.0
220
0.0
230
1.0
 70
    11
 71
     3
 72
    36
 73
    32
 74
     0
 42
0.0000000001
 43
0.0000000001
 40
0.0
 40
0.0
 40
0.0
 40
0.0
 40
0.125
 40
0.125
 40
0.125
 40
0.125
 40
0.25
 40
0.25
 40
0.25
 40
0.25
 40
0.375
 40
0.375
 40
0.375
 40
0.375
 40
0.5
 40
0.5
 40
0.5
 40
0.5
 40
0.625
 40
0.625
 40
0.625
 40
0.625
 40
0.75
 40
0.75
 40
0.75
 40
0.75
 40
0.875
 40
0.875
 40
0.875
 40
0.875
 40
1.0
 40
1.0
 40
1.0
 40
1.0
 10
-73.8515
 20
122.0319
 30
0.0
 10
-73.8515
 20
122.0319
 30
0.0
 10
-74.4447
 20
177.9129
 30
0.0
 10
-74.4447
 20
177.9129
 30
0.0
 10
-74.4447
 20
177.9129
 30
0.0
 10
-74.4447
 20
177.9129
 30
0.0
 10
-79.9131
 20
177.8549
 30
0.0
 10
-79.9131
 20
177.8549
 30
0.0
 10
-79.9131
 20
177.8549
 30
0.0
 10
-79.9131
 20
177.8549
 30
0.0
 10
-79.68780000000001
 20
156.6325
 30
0.0
 10
-79.68780000000001
 20
156.6325
 30
0.0
 10
-79.68780000000001
 20
156.6325
 30
0.0
 10
-79.68780000000001
 20
156.6325
 30
0.0
 10
-82.6876
 20
156.6007
 30
0.0
 10
-82.6876
 20
156.6007
 30
0.0
 10
-82.6876
 20
156.6007
 30
0.0
 10
-82.6876
 20
156.6007
 30
0.0
 10
-82.545
 20
143.1644
 30
0.0
 10
-82.545
 20
143.1644
 30
0.0
 10
-82.545
 20
143.1644
 30
0.0
 10
-82.545
 20
143.1644
 30
0.0
 10
-79.54520000000001
 20
143.1963
 30
0.0
 10
-79.54520000000001
 20
143.1963
 30
0.0
 10
-79.54520000000001
 20
143.1963
 30
0.0
 10
-79.54520000000001
 20
143.1963
 30
0.0
 10
-79.3199
 20
121.9738
 30
0.0
 10
-79.3199
 20
121.9738
 30
0.0
 10
-79.3199
 20
121.9738
 30
0.0
 10
-79.3199
 20
121.9738
 30
0.0
 10
-73.8515
 20
122.0319
 30
0.0
 10
-73.8515
 20
122.0319
 30
0.0
  0
SPLINE
  5
36
330
1F
100
AcDbEntity
  8
Capa 1
 62
     1
370
     0
100
AcDbSpline
210
0.0
220
0.0
230
1.0
 70
    11
 71
     3
 72
   216
 73
   212
 74
     0
 42
0.0000000001
 43
0.0000000001
 40
0.0
 40
0.0
 40
0.0
 40
0.0
 40
0.0188679245283019
 40
0.0188679245283019
 40
0.0188679245283019
 40
0.0188679245283019
 40
0.0377358490566038
 40
0.0377358490566038
 40
0.0377358490566038
 40
0.0377358490566038
 40
0.0566037735849057
 40
0.0566037735849057
 40
0.0566037735849057
 40
0.0566037735849057
 40
0.0754716981132075
 40
0.0754716981132075
 40
0.0754716981132075
 40
0.0754716981132075
 40
0.0943396226415094
 40
0.0943396226415094
 40
0.0943396226415094
 40
0.0943396226415094
 40
0.1132075471698113
 40
0.1132075471698113
 40
0.1132075471698113
 40
0.1132075471698113
 40
0.1320754716981132
 40
0.1320754716981132
 40
0.1320754716981132
 40
0.1320754716981132
 40
0.1509433962264151
 40
0.1509433962264151
 40
0.1509433962264151
 40
0.1509433962264151
 40
0.169811320754717
 40
0.169811320754717
 40
0.169811320754717
 40
0.169811320754717
 40
0.1886792452830189
 40
0.1886792452830189
 40
0.1886792452830189
 40
0.1886792452830189
 40
0.2075471698113207
 40
0.2075471698113207
 40
0.2075471698113207
 40
0.2075471698113207
 40
0.2264150943396226
 40
0.2264150943396226
 40
0.2264150943396226
 40
0.2264150943396226
 40
0.2452830188679245
 40
0.2452830188679245
 40
0.2452830188679245
 40
0.2452830188679245
 40
0.2641509433962264
 40
0.2641509433962264
 40
0.2641509433962264
 40
0.2641509433962264
 40
0.2830188679245283
 40
0.2830188679245283
 40
0.2830188679245283
 40
0.2830188679245283
 40
0.3018867924528302
 40
0.3018867924528302
 40
0.3018867924528302
 40
0.3018867924528302
 40
0.3207547169811321
 40
0.3207547169811321
 40
0.3207547169811321
 40
0.3207547169811321
 40
0.3396226415094339
 40
0.3396226415094339
 40
0.3396226415094339
 40
0.3396226415094339
 40
0.3584905660377358
 40
0.3584905660377358
 40
0.3584905660377358
 40
0.3584905660377358
 40
0.3773584905660377
 40
0.3773584905660377
 40
0.3773584905660377
 40
0.3773584905660377
 40
0.3962264150943396
 40
0.3962264150943396
 40
0.3962264150943396
 40
0.3962264150943396
 40
0.4150943396226415
 40
0.4150943396226415
 40
0.4150943396226415
 40
0.4150943396226415
 40
0.4339622641509434
 40
0.4339622641509434
 40
0.4339622641509434
 40
0.4339622641509434
 40
0.4528301886792452
 40
0.4528301886792452
 40
0.4528301886792452
 40
0.4528301886792452
 40
0.4716981132075471
 40
0.4716981132075471
 40
0.4716981132075471
 40
0.4716981132075471
 40
0.490566037735849
 40
0.490566037735849
 40
0.490566037735849
 40
0.490566037735849
 40
0.5094339622641509
 40
0.5094339622641509
 40
0.5094339622641509
 40
0.5094339622641509
 40
0.5283018867924528
 40
0.5283018867924528
 40
0.5283018867924528
 40
0.5283018867924528
 40
0.5471698113207547
 40
0.5471698113207547
 40
0.5471698113207547
 40
0.5471698113207547
 40
0.5660377358490566
 40
0.5660377358490566
 40
0.5660377358490566
 40
0.5660377358490566
 40
0.5849056603773585
 40
0.5849056603773585
 40
0.5849056603773585
 40
0.5849056603773585
 40
0.6037735849056604
 40
0.6037735849056604
 40
0.6037735849056604
 40
0.6037735849056604
 40
0.6226415094339622
 40
0.6226415094339622
 40
0.6226415094339622
 40
0.6226415094339622
 40
0.6415094339622641
 40
0.6415094339622641
 40
0.6415094339622641
 40
0.6415094339622641
 40
0.660377358490566
 40
0.660377358490566
 40
0.660377358490566
 40
0.660377358490566
 40
0.6792452830188679
 40
0.6792452830188679
 40
0.6792452830188679
 40
0.6792452830188679
 40
0.6981132075471698
 40
0.6981132075471698
 40
0.6981132075471698
 40
0.6981132075471698
 40
0.7169811320754717
 40
0.7169811320754717
 40
0.7169811320754717
 40
0.7169811320754717
 40
0.7358490566037735
 40
0.7358490566037735
 40
0.7358490566037735
 40
0.7358490566037735
 40
0.7547169811320754
 40
0.7547169811320754
 40
0.7547169811320754
 40
0.7547169811320754
 40
0.7735849056603773
 40
0.7735849056603773
 40
0.7735849056603773
 40
0.7735849056603773
 40
0.7924528301886792
 40
0.7924528301886792
 40
0.7924528301886792
 40
0.7924528301886792
 40
0.8113207547169811
 40
0.8113207547169811
 40
0.8113207547169811
 40
0.8113207547169811
 40
0.830188679245283
 40
0.830188679245283
 40
0.830188679245283
 40
0.830188679245283
 40
0.8490566037735848
 40
0.8490566037735848
 40
0.8490566037735848
 40
0.8490566037735848
 40
0.8679245283018867
 40
0.8679245283018867
 40
0.8679245283018867
 40
0.8679245283018867
 40
0.8867924528301886
 40
0.8867924528301886
 40
0.8867924528301886
 40
0.8867924528301886
 40
0.9056603773584905
 40
0.9056603773584905
 40
0.9056603773584905
 40
0.9056603773584905
 40
0.9245283018867924
 40
0.9245283018867924
 40
0.9245283018867924
 40
0.9245283018867924
 40
0.9433962264150942
 40
0.9433962264150942
 40
0.9433962264150942
 40
0.9433962264150942
 40
0.9622641509433961
 40
0.9622641509433961
 40
0.9622641509433961
 40
0.9622641509433961
 40
0.981132075471698
 40
0.981132075471698
 40
0.981132075471698
 40
0.981132075471698
 40
1.0
 40
1.0
 40
1.0
 40
1.0
 10
-73.8908
 20
125.7318
 30
0.0
 10
-73.8908
 20
125.7318
 30
0.0
 10
-73.96770000000001
 20
118.5426
 30
0.0
 10
-73.96770000000001
 20
118.5426
 30
0.0
 10
-73.96770000000001
 20
118.5426
 30
0.0
 10
-73.96770000000001
 20
118.5426
 30
0.0
 10
-45.75080000000001
 20
119.1949
 30
0.0
 10
-45.75080000000001
 20
119.1949
 30
0.0
 10
-45.75080000000001
 20
119.1949
 30
0.0
 10
-45.75080000000001
 20
119.1949
 30
0.0
 10
-45.3003
 20
126.4223
 30
0.0
 10
-45.3003
 20
126.4223
 30
0.0
 10
-45.3003
 20
126.4223
 30
0.0
 10
-45.3003
 20
126.4223
 30
0.0
 10
-49.73070000000001
 20
126.3753
 30
0.0
 10
-49.73070000000001
 20
126.3753
 30
0.0
 10
-49.73070000000001
 20
126.3753
 30
0.0
 10
-49.73070000000001
 20
126.3753
 30
0.0
 10
-49.7625
 20
129.3751
 30
0.0
 10
-49.7625
 20
129.3751
 30
0.0
 10
-49.7625
 20
129.3751
 30
0.0
 10
-49.7625
 20
129.3751
 30
0.0
 10
-45.1133
 20
129.4244
 30
0.0
 10
-45.1133
 20
129.4244
 30
0.0
 10
-45.1133
 20
129.4244
 30
0.0
 10
-45.1133
 20
129.4244
 30
0.0
 10
-43.5827
 20
153.9795
 30
0.0
 10
-43.5827
 20
153.9795
 30
0.0
 10
-43.5827
 20
153.9795
 30
0.0
 10
-43.5827
 20
153.9795
 30
0.0
 10
-48.9461
 20
153.9225
 30
0.0
 10
-48.9461
 20
153.9225
 30
0.0
 10
-48.9461
 20
153.9225
 30
0.0
 10
-48.9461
 20
153.9225
 30
0.0
 10
-48.978
 20
156.9224
 30
0.0
 10
-48.978
 20
156.9224
 30
0.0
 10
-48.978
 20
156.9224
 30
0.0
 10
-48.978
 20
156.9224
 30
0.0
 10
-43.3956
 20
156.9816
 30
0.0
 10
-43.3956
 20
156.9816
 30
0.0
 10
-43.3956
 20
156.9816
 30
0.0
 10
-43.3956
 20
156.9816
 30
0.0
 10
-43.1219
 20
161.3727
 30
0.0
 10
-43.1219
 20
161.3727
 30
0.0
 10
-43.1219
 20
161.3727
 30
0.0
 10
-43.1219
 20
161.3727
 30
0.0
 10
-49.0245
 20
161.31
 30
0.0
 10
-49.0245
 20
161.31
 30
0.0
 10
-49.0245
 20
161.31
 30
0.0
 10
-49.0245
 20
161.31
 30
0.0
 10
-49.0564
 20
164.3099
 30
0.0
 10
-49.0564
 20
164.3099
 30
0.0
 10
-49.0564
 20
164.3099
 30
0.0
 10
-49.0564
 20
164.3099
 30
0.0
 10
-42.9347
 20
164.3748
 30
0.0
 10
-42.9347
 20
164.3748
 30
0.0
 10
-42.9347
 20
164.3748
 30
0.0
 10
-42.9347
 20
164.3748
 30
0.0
 10
-42.7362
 20
167.5602
 30
0.0
 10
-42.7362
 20
167.5602
 30
0.0
 10
-42.7362
 20
167.5602
 30
0.0
 10
-42.7362
 20
167.5602
 30
0.0
 10
-52.2813
 20
169.3992
 30
0.0
 10
-52.4198
 20
182.4513
 30
0.0
 10
-52.4198
 20
182.4513
 30
0.0
 10
-52.52540000000001
 20
192.4003
 30
0.0
 10
-51.5538
 20
197.4406
 30
0.0
 10
-49.61080000000001
 20
200.1501
 30
0.0
 10
-49.61080000000001
 20
200.1501
 30
0.0
 10
-49.61080000000001
 20
200.1501
 30
0.0
 10
-52.7487
 20
203.413
 30
0.0
 10
-52.7487
 20
203.413
 30
0.0
 10
-52.7487
 20
203.413
 30
0.0
 10
-52.7487
 20
203.413
 30
0.0
 10
-50.58640000000001
 20
205.4924
 30
0.0
 10
-50.58640000000001
 20
205.4924
 30
0.0
 10
-50.58640000000001
 20
205.4924
 30
0.0
 10
-50.58640000000001
 20
205.4924
 30
0.0
 10
-47.3814
 20
202.1598
 30
0.0
 10
-47.3814
 20
202.1598
 30
0.0
 10
-47.3814
 20
202.1598
 30
0.0
 10
-44.0898
 20
204.0422
 30
0.0
 10
-40.6473
 20
203.4282
 30
0.0
 10
-40.6769
 20
206.2134
 30
0.0
 10
-40.6769
 20
206.2134
 30
0.0
 10
-40.7059
 20
208.947
 30
0.0
 10
-42.4543
 20
209.9246
 30
0.0
 10
-43.3628
 20
209.7342
 30
0.0
 10
-43.3628
 20
209.7342
 30
0.0
 10
-43.3628
 20
209.7342
 30
0.0
 10
-45.70370000000001
 20
206.1837
 30
0.0
 10
-45.70370000000001
 20
206.1837
 30
0.0
 10
-45.70370000000001
 20
206.1837
 30
0.0
 10
-45.70370000000001
 20
206.1837
 30
0.0
 10
-48.2083
 20
207.8351
 30
0.0
 10
-48.2083
 20
207.8351
 30
0.0
 10
-48.2083
 20
207.8351
 30
0.0
 10
-48.2083
 20
207.8351
 30
0.0
 10
-46.04980000000001
 20
211.1088
 30
0.0
 10
-46.04980000000001
 20
211.1088
 30
0.0
 10
-46.04980000000001
 20
211.1088
 30
0.0
 10
-46.04980000000001
 20
211.1088
 30
0.0
 10
-47.3953
 20
211.8313
 30
0.0
 10
-47.3953
 20
211.8313
 30
0.0
 10
-47.3953
 20
211.8313
 30
0.0
 10
-47.3953
 20
211.8313
 30
0.0
 10
-50.40660000000001
 20
221.3248
 30
0.0
 10
-50.40660000000001
 20
221.3248
 30
0.0
 10
-50.40660000000001
 20
221.3248
 30
0.0
 10
-50.40660000000001
 20
221.3248
 30
0.0
 10
-43.2877
 20
223.6936
 30
0.0
 10
-43.2877
 20
223.6936
 30
0.0
 10
-43.2877
 20
223.6936
 30
0.0
 10
-43.2877
 20
223.6936
 30
0.0
 10
-42.6843
 20
225.023
 30
0.0
 10
-42.6843
 20
225.023
 30
0.0
 10
-42.6843
 20
225.023
 30
0.0
 10
-42.6843
 20
225.023
 30
0.0
 10
-44.5784
 20
231.0885
 30
0.0
 10
-44.5784
 20
231.0885
 30
0.0
 10
-44.5784
 20
231.0885
 30
0.0
 10
-44.5784
 20
231.0885
 30
0.0
 10
-45.9322
 20
231.9121
 30
0.0
 10
-45.9322
 20
231.9121
 30
0.0
 10
-45.9322
 20
231.9121
 30
0.0
 10
-45.9322
 20
231.9121
 30
0.0
 10
-53.09820000000001
 20
229.8074
 30
0.0
 10
-53.09820000000001
 20
229.8074
 30
0.0
 10
-53.09820000000001
 20
229.8074
 30
0.0
 10
-53.09820000000001
 20
229.8074
 30
0.0
 10
-58.4496
 20
254.2936
 30
0.0
 10
-58.4496
 20
254.2936
 30
0.0
 10
-58.4496
 20
254.2936
 30
0.0
 10
-58.4496
 20
254.2936
 30
0.0
 10
-63.0456
 20
254.2448
 30
0.0
 10
-63.0456
 20
254.2448
 30
0.0
 10
-63.0456
 20
254.2448
 30
0.0
 10
-63.0456
 20
254.2448
 30
0.0
 10
-63.0774
 20
257.2447
 30
0.0
 10
-63.0774
 20
257.2447
 30
0.0
 10
-63.0774
 20
257.2447
 30
0.0
 10
-63.0774
 20
257.2447
 30
0.0
 10
-59.1038
 20
257.2868
 30
0.0
 10
-59.1038
 20
257.2868
 30
0.0
 10
-59.1038
 20
257.2868
 30
0.0
 10
-59.1038
 20
257.2868
 30
0.0
 10
-59.81030000000001
 20
260.5193
 30
0.0
 10
-59.81030000000001
 20
260.5193
 30
0.0
 10
-59.81030000000001
 20
260.5193
 30
0.0
 10
-59.81030000000001
 20
260.5193
 30
0.0
 10
-63.7512
 20
260.4775
 30
0.0
 10
-63.7512
 20
260.4775
 30
0.0
 10
-63.7512
 20
260.4775
 30
0.0
 10
-63.7512
 20
260.4775
 30
0.0
 10
-63.78310000000001
 20
263.4773
 30
0.0
 10
-63.78310000000001
 20
263.4773
 30
0.0
 10
-63.78310000000001
 20
263.4773
 30
0.0
 10
-63.78310000000001
 20
263.4773
 30
0.0
 10
-60.46440000000001
 20
263.5126
 30
0.0
 10
-60.46440000000001
 20
263.5126
 30
0.0
 10
-60.46440000000001
 20
263.5126
 30
0.0
 10
-60.46440000000001
 20
263.5126
 30
0.0
 10
-62.64660000000001
 20
273.4975
 30
0.0
 10
-62.64660000000001
 20
273.4975
 30
0.0
 10
-62.64660000000001
 20
273.4975
 30
0.0
 10
-62.64660000000001
 20
273.4975
 30
0.0
 10
-62.84220000000001
 20
275.3035
 30
0.0
 10
-64.43470000000001
 20
275.7717
 30
0.0
 10
-64.43470000000001
 20
275.7717
 30
0.0
 10
-66.0273
 20
276.2399
 30
0.0
 10
-67.5228
 20
275.8712
 30
0.0
 10
-67.5228
 20
275.8712
 30
0.0
 10
-67.5228
 20
275.8712
 30
0.0
 10
-67.5228
 20
275.8712
 30
0.0
 10
-66.0029
 20
201.7265
 30
0.0
 10
-66.0029
 20
201.7265
 30
0.0
 10
-66.0029
 20
201.7265
 30
0.0
 10
-66.0029
 20
201.7265
 30
0.0
 10
-65.92480000000001
 20
201.7273
 30
0.0
 10
-65.92480000000001
 20
201.7273
 30
0.0
 10
-65.92480000000001
 20
201.7273
 30
0.0
 10
-65.92480000000001
 20
201.7273
 30
0.0
 10
-65.8408
 20
193.819
 30
0.0
 10
-65.8408
 20
193.819
 30
0.0
 10
-65.8408
 20
193.819
 30
0.0
 10
-65.8408
 20
193.819
 30
0.0
 10
-65.8305
 20
193.313
 30
0.0
 10
-65.8305
 20
193.313
 30
0.0
 10
-65.8305
 20
193.313
 30
0.0
 10
-65.8305
 20
193.313
 30
0.0
 10
-65.8355
 20
193.313
 30
0.0
 10
-65.8355
 20
193.313
 30
0.0
 10
-65.8355
 20
193.313
 30
0.0
 10
-65.8355
 20
193.313
 30
0.0
 10
-65.4533
 20
157.3101
 30
0.0
 10
-65.4533
 20
157.3101
 30
0.0
 10
-65.4533
 20
157.3101
 30
0.0
 10
-65.4533
 20
157.3101
 30
0.0
 10
-68.45310000000001
 20
157.2783
 30
0.0
 10
-68.45310000000001
 20
157.2783
 30
0.0
 10
-68.45310000000001
 20
157.2783
 30
0.0
 10
-68.45310000000001
 20
157.2783
 30
0.0
 10
-68.8353
 20
193.2812
 30
0.0
 10
-68.8353
 20
193.2812
 30
0.0
 10
-68.8353
 20
193.2812
 30
0.0
 10
-68.8353
 20
193.2812
 30
0.0
 10
-74.91410000000001
 20
193.2166
 30
0.0
 10
-74.91410000000001
 20
193.2166
 30
0.0
 10
-74.91410000000001
 20
193.2166
 30
0.0
 10
-74.91410000000001
 20
193.2166
 30
0.0
 10
-73.8908
 20
125.7318
 30
0.0
 10
-73.8908
 20
125.7318
 30
0.0
  0
SPLINE
  5
37
330
1F
100
AcDbEntity
  8
Capa 1
 62
     1
370
     0
100
AcDbSpline
210
0.0
220
0.0
230
1.0
 70
    11
 71
     3
 72
    20
 73
    16
 74
     0
 42
0.0000000001
 43
0.0000000001
 40
0.0
 40
0.0
 40
0.0
 40
0.0
 40
0.25
 40
0.25
 40
0.25
 40
0.25
 40
0.5
 40
0.5
 40
0.5
 40
0.5
 40
0.75
 40
0.75
 40
0.75
 40
0.75
 40
1.0
 40
1.0
 40
1.0
 40
1.0
 10
-56.1906
 20
134.227
 30
0.0
 10
-56.1906
 20
134.227
 30
0.0
 10
-56.3252
 20
146.9112
 30
0.0
 10
-56.3252
 20
146.9112
 30
0.0
 10
-56.3252
 20
146.9112
 30
0.0
 10
-56.3252
 20
146.9112
 30
0.0
 10
-59.325
 20
146.8794
 30
0.0
 10
-59.325
 20
146.8794
 30
0.0
 10
-59.325
 20
146.8794
 30
0.0
 10
-59.325
 20
146.8794
 30
0.0
 10
-59.1904
 20
134.1952
 30
0.0
 10
-59.1904
 20
134.1952
 30
0.0
 10
-59.1904
 20
134.1952
 30
0.0
 10
-59.1904
 20
134.1952
 30
0.0
 10
-56.1906
 20
134.227
 30
0.0
 10
-56.1906
 20
134.227
 30
0.0
  0
SPLINE
  5
38
330
1F
100
AcDbEntity
  8
Capa 1
 62
     1
370
     0
100
AcDbSpline
210
0.0
220
0.0
230
1.0
 70
    11
 71
     3
 72
    68
 73
    64
 74
     0
 42
0.0000000001
 43
0.0000000001
 40
0.0
 40
0.0
 40
0.0
 40
0.0
 40
0.0625
 40
0.0625
 40
0.0625
 40
0.0625
 40
0.125
 40
0.125
 40
0.125
 40
0.125
 40
0.1875
 40
0.1875
 40
0.1875
 40
0.1875
 40
0.25
 40
0.25
 40
0.25
 40
0.25
 40
0.3125
 40
0.3125
 40
0.3125
 40
0.3125
 40
0.375
 40
0.375
 40
0.375
 40
0.375
 40
0.4375
 40
0.4375
 40
0.4375
 40
0.4375
 40
0.5
 40
0.5
 40
0.5
 40
0.5
 40
0.5625
 40
0.5625
 40
0.5625
 40
0.5625
 40
0.625
 40
0.625
 40
0.625
 40
0.625
 40
0.6875
 40
0.6875
 40
0.6875
 40
0.6875
 40
0.75
 40
0.75
 40
0.75
 40
0.75
 40
0.8125
 40
0.8125
 40
0.8125
 40
0.8125
 40
0.875
 40
0.875
 40
0.875
 40
0.875
 40
0.9375
 40
0.9375
 40
0.9375
 40
0.9375
 40
1.0
 40
1.0
 40
1.0
 40
1.0
 10
-144.5538
 20
284.1351
 30
0.0
 10
-144.5538
 20
284.1351
 30
0.0
 10
-122.8135
 20
285.0538
 30
0.0
 10
-122.8135
 20
285.0538
 30
0.0
 10
-122.8135
 20
285.0538
 30
0.0
 10
-122.8135
 20
285.0538
 30
0.0
 10
-122.6549
 20
281.5539
 30
0.0
 10
-122.6549
 20
281.5539
 30
0.0
 10
-122.6549
 20
281.5539
 30
0.0
 10
-122.6549
 20
281.5539
 30
0.0
 10
-133.7473
 20
281.2014
 30
0.0
 10
-133.7473
 20
281.2014
 30
0.0
 10
-133.7473
 20
281.2014
 30
0.0
 10
-133.7473
 20
281.2014
 30
0.0
 10
-133.652
 20
278.2029
 30
0.0
 10
-133.652
 20
278.2029
 30
0.0
 10
-133.652
 20
278.2029
 30
0.0
 10
-133.652
 20
278.2029
 30
0.0
 10
-122.519
 20
278.5565
 30
0.0
 10
-122.519
 20
278.5565
 30
0.0
 10
-122.519
 20
278.5565
 30
0.0
 10
-122.519
 20
278.5565
 30
0.0
 10
-121.276
 20
251.1404
 30
0.0
 10
-121.276
 20
251.1404
 30
0.0
 10
-121.276
 20
251.1404
 30
0.0
 10
-121.276
 20
251.1404
 30
0.0
 10
-132.5699
 20
250.7816
 30
0.0
 10
-132.5699
 20
250.7816
 30
0.0
 10
-132.5699
 20
250.7816
 30
0.0
 10
-132.5699
 20
250.7816
 30
0.0
 10
-132.4747
 20
247.783
 30
0.0
 10
-132.4747
 20
247.783
 30
0.0
 10
-132.4747
 20
247.783
 30
0.0
 10
-132.4747
 20
247.783
 30
0.0
 10
-121.1401
 20
248.1432
 30
0.0
 10
-121.1401
 20
248.1432
 30
0.0
 10
-121.1401
 20
248.1432
 30
0.0
 10
-121.1401
 20
248.1432
 30
0.0
 10
-120.6025
 20
236.2852
 30
0.0
 10
-120.6025
 20
236.2852
 30
0.0
 10
-120.6025
 20
236.2852
 30
0.0
 10
-120.6025
 20
236.2852
 30
0.0
 10
-139.1184
 20
235.7182
 30
0.0
 10
-139.1184
 20
235.7182
 30
0.0
 10
-139.1184
 20
235.7182
 30
0.0
 10
-139.1184
 20
235.7182
 30
0.0
 10
-139.5311
 20
239.3951
 30
0.0
 10
-139.5311
 20
239.3951
 30
0.0
 10
-139.5311
 20
239.3951
 30
0.0
 10
-139.5311
 20
239.3951
 30
0.0
 10
-131.9608
 20
239.6356
 30
0.0
 10
-131.9608
 20
239.6356
 30
0.0
 10
-131.9608
 20
239.6356
 30
0.0
 10
-131.9608
 20
239.6356
 30
0.0
 10
-132.056
 20
242.6342
 30
0.0
 10
-132.056
 20
242.6342
 30
0.0
 10
-132.056
 20
242.6342
 30
0.0
 10
-132.056
 20
242.6342
 30
0.0
 10
-139.8669
 20
242.386
 30
0.0
 10
-139.8669
 20
242.386
 30
0.0
 10
-139.8669
 20
242.386
 30
0.0
 10
-139.8669
 20
242.386
 30
0.0
 10
-144.5538
 20
284.1351
 30
0.0
 10
-144.5538
 20
284.1351
 30
0.0
  0
SPLINE
  5
39
330
1F
100
AcDbEntity
  8
Capa 1
 62
     1
370
     0
100
AcDbSpline
210
0.0
220
0.0
230
1.0
 70
    11
 71
     3
 72
    68
 73
    64
 74
     0
 42
0.0000000001
 43
0.0000000001
 40
0.0
 40
0.0
 40
0.0
 40
0.0
 40
0.0625
 40
0.0625
 40
0.0625
 40
0.0625
 40
0.125
 40
0.125
 40
0.125
 40
0.125
 40
0.1875
 40
0.1875
 40
0.1875
 40
0.1875
 40
0.25
 40
0.25
 40
0.25
 40
0.25
 40
0.3125
 40
0.3125
 40
0.3125
 40
0.3125
 40
0.375
 40
0.375
 40
0.375
 40
0.375
 40
0.4375
 40
0.4375
 40
0.4375
 40
0.4375
 40
0.5
 40
0.5
 40
0.5
 40
0.5
 40
0.5625
 40
0.5625
 40
0.5625
 40
0.5625
 40
0.625
 40
0.625
 40
0.625
 40
0.625
 40
0.6875
 40
0.6875
 40
0.6875
 40
0.6875
 40
0.75
 40
0.75
 40
0.75
 40
0.75
 40
0.8125
 40
0.8125
 40
0.8125
 40
0.8125
 40
0.875
 40
0.875
 40
0.875
 40
0.875
 40
0.9375
 40
0.9375
 40
0.9375
 40
0.9375
 40
1.0
 40
1.0
 40
1.0
 40
1.0
 10
-39.666
 20
332.0086
 30
0.0
 10
-39.666
 20
332.0086
 30
0.0
 10
-61.4209
 20
332.4656
 30
0.0
 10
-61.4209
 20
332.4656
 30
0.0
 10
-61.4209
 20
332.4656
 30
0.0
 10
-61.4209
 20
332.4656
 30
0.0
 10
-61.5052
 20
328.9631
 30
0.0
 10
-61.5052
 20
328.9631
 30
0.0
 10
-61.5052
 20
328.9631
 30
0.0
 10
-61.5052
 20
328.9631
 30
0.0
 10
-50.40790000000001
 20
328.8462
 30
0.0
 10
-50.40790000000001
 20
328.8462
 30
0.0
 10
-50.40790000000001
 20
328.8462
 30
0.0
 10
-50.40790000000001
 20
328.8462
 30
0.0
 10
-50.4394
 20
325.8463
 30
0.0
 10
-50.4394
 20
325.8463
 30
0.0
 10
-50.4394
 20
325.8463
 30
0.0
 10
-50.4394
 20
325.8463
 30
0.0
 10
-61.5775
 20
325.9636
 30
0.0
 10
-61.5775
 20
325.9636
 30
0.0
 10
-61.5775
 20
325.9636
 30
0.0
 10
-61.5775
 20
325.9636
 30
0.0
 10
-62.23820000000001
 20
298.5272
 30
0.0
 10
-62.23820000000001
 20
298.5272
 30
0.0
 10
-62.23820000000001
 20
298.5272
 30
0.0
 10
-62.23820000000001
 20
298.5272
 30
0.0
 10
-50.9392
 20
298.4082
 30
0.0
 10
-50.9392
 20
298.4082
 30
0.0
 10
-50.9392
 20
298.4082
 30
0.0
 10
-50.9392
 20
298.4082
 30
0.0
 10
-50.9708
 20
295.4083
 30
0.0
 10
-50.9708
 20
295.4083
 30
0.0
 10
-50.9708
 20
295.4083
 30
0.0
 10
-50.9708
 20
295.4083
 30
0.0
 10
-62.31050000000001
 20
295.5278
 30
0.0
 10
-62.31050000000001
 20
295.5278
 30
0.0
 10
-62.31050000000001
 20
295.5278
 30
0.0
 10
-62.31050000000001
 20
295.5278
 30
0.0
 10
-62.59630000000001
 20
283.6611
 30
0.0
 10
-62.59630000000001
 20
283.6611
 30
0.0
 10
-62.59630000000001
 20
283.6611
 30
0.0
 10
-62.59630000000001
 20
283.6611
 30
0.0
 10
-44.07250000000001
 20
283.4873
 30
0.0
 10
-44.07250000000001
 20
283.4873
 30
0.0
 10
-44.07250000000001
 20
283.4873
 30
0.0
 10
-44.07250000000001
 20
283.4873
 30
0.0
 10
-43.7379
 20
287.172
 30
0.0
 10
-43.7379
 20
287.172
 30
0.0
 10
-43.7379
 20
287.172
 30
0.0
 10
-43.7379
 20
287.172
 30
0.0
 10
-51.31160000000001
 20
287.2518
 30
0.0
 10
-51.31160000000001
 20
287.2518
 30
0.0
 10
-51.31160000000001
 20
287.2518
 30
0.0
 10
-51.31160000000001
 20
287.2518
 30
0.0
 10
-51.2801
 20
290.2517
 30
0.0
 10
-51.2801
 20
290.2517
 30
0.0
 10
-51.2801
 20
290.2517
 30
0.0
 10
-51.2801
 20
290.2517
 30
0.0
 10
-43.46570000000001
 20
290.1694
 30
0.0
 10
-43.46570000000001
 20
290.1694
 30
0.0
 10
-43.46570000000001
 20
290.1694
 30
0.0
 10
-43.46570000000001
 20
290.1694
 30
0.0
 10
-39.666
 20
332.0086
 30
0.0
 10
-39.666
 20
332.0086
 30
0.0
  0
SPLINE
  5
3A
330
1F
100
AcDbEntity
  8
Capa 1
 62
     1
370
     0
100
AcDbSpline
210
0.0
220
0.0
230
1.0
 70
    11
 71
     3
 72
    48
 73
    44
 74
     0
 42
0.0000000001
 43
0.0000000001
 40
0.0
 40
0.0
 40
0.0
 40
0.0
 40
0.0909090909090909
 40
0.0909090909090909
 40
0.0909090909090909
 40
0.0909090909090909
 40
0.1818181818181818
 40
0.1818181818181818
 40
0.1818181818181818
 40
0.1818181818181818
 40
0.2727272727272727
 40
0.2727272727272727
 40
0.2727272727272727
 40
0.2727272727272727
 40
0.3636363636363637
 40
0.3636363636363637
 40
0.3636363636363637
 40
0.3636363636363637
 40
0.4545454545454546
 40
0.4545454545454546
 40
0.4545454545454546
 40
0.4545454545454546
 40
0.5454545454545455
 40
0.5454545454545455
 40
0.5454545454545455
 40
0.5454545454545455
 40
0.6363636363636365
 40
0.6363636363636365
 40
0.6363636363636365
 40
0.6363636363636365
 40
0.7272727272727274
 40
0.7272727272727274
 40
0.7272727272727274
 40
0.7272727272727274
 40
0.8181818181818183
 40
0.8181818181818183
 40
0.8181818181818183
 40
0.8181818181818183
 40
0.9090909090909093
 40
0.9090909090909093
 40
0.9090909090909093
 40
0.9090909090909093
 40
1.0
 40
1.0
 40
1.0
 40
1.0
 10
-185.9316
 20
251.2823
 30
0.0
 10
-185.9316
 20
251.2823
 30
0.0
 10
-185.8398
 20
242.628
 30
0.0
 10
-185.8398
 20
242.628
 30
0.0
 10
-185.8398
 20
242.628
 30
0.0
 10
-185.8398
 20
242.628
 30
0.0
 10
-196.5937
 20
242.5139
 30
0.0
 10
-196.5937
 20
242.5139
 30
0.0
 10
-196.5937
 20
242.5139
 30
0.0
 10
-196.5937
 20
242.5139
 30
0.0
 10
-196.5618
 20
239.514
 30
0.0
 10
-196.5618
 20
239.514
 30
0.0
 10
-196.5618
 20
239.514
 30
0.0
 10
-196.5618
 20
239.514
 30
0.0
 10
-185.8079
 20
239.6282
 30
0.0
 10
-185.8079
 20
239.6282
 30
0.0
 10
-185.8079
 20
239.6282
 30
0.0
 10
-185.8079
 20
239.6282
 30
0.0
 10
-185.7637
 20
235.461
 30
0.0
 10
-185.7637
 20
235.461
 30
0.0
 10
-185.7637
 20
235.461
 30
0.0
 10
-185.7637
 20
235.461
 30
0.0
 10
-208.3606
 20
235.4858
 30
0.0
 10
-208.3606
 20
235.4858
 30
0.0
 10
-208.3606
 20
235.4858
 30
0.0
 10
-208.3606
 20
235.4858
 30
0.0
 10
-208.392
 20
243.4234
 30
0.0
 10
-208.392
 20
243.4234
 30
0.0
 10
-208.392
 20
243.4234
 30
0.0
 10
-208.392
 20
243.4234
 30
0.0
 10
-196.9806
 20
245.238
 30
0.0
 10
-196.9806
 20
245.238
 30
0.0
 10
-196.9806
 20
245.238
 30
0.0
 10
-196.9806
 20
245.238
 30
0.0
 10
-195.6561
 20
245.0934
 30
0.0
 10
-194.2037
 20
247.8605
 30
0.0
 10
-194.2037
 20
247.8605
 30
0.0
 10
-192.7513
 20
250.6277
 30
0.0
 10
-192.6778
 20
251.1843
 30
0.0
 10
-191.3285
 20
251.1986
 30
0.0
 10
-191.3285
 20
251.1986
 30
0.0
 10
-189.9793
 20
251.2128
 30
0.0
 10
-185.9316
 20
251.2823
 30
0.0
 10
-185.9316
 20
251.2823
 30
0.0
  0
SPLINE
  5
3B
330
1F
100
AcDbEntity
  8
Capa 1
 62
     1
370
     0
100
AcDbSpline
210
0.0
220
0.0
230
1.0
 70
    11
 71
     3
 72
    84
 73
    80
 74
     0
 42
0.0000000001
 43
0.0000000001
 40
0.0
 40
0.0
 40
0.0
 40
0.0
 40
0.05
 40
0.05
 40
0.05
 40
0.05
 40
0.1
 40
0.1
 40
0.1
 40
0.1
 40
0.15
 40
0.15
 40
0.15
 40
0.15
 40
0.2
 40
0.2
 40
0.2
 40
0.2
 40
0.25
 40
0.25
 40
0.25
 40
0.25
 40
0.3
 40
0.3
 40
0.3
 40
0.3
 40
0.35
 40
0.35
 40
0.35
 40
0.35
 40
0.4
 40
0.4
 40
0.4
 40
0.4
 40
0.45
 40
0.45
 40
0.45
 40
0.45
 40
0.4999999999999999
 40
0.4999999999999999
 40
0.4999999999999999
 40
0.4999999999999999
 40
0.5499999999999999
 40
0.5499999999999999
 40
0.5499999999999999
 40
0.5499999999999999
 40
0.6
 40
0.6
 40
0.6
 40
0.6
 40
0.65
 40
0.65
 40
0.65
 40
0.65
 40
0.7000000000000001
 40
0.7000000000000001
 40
0.7000000000000001
 40
0.7000000000000001
 40
0.7500000000000001
 40
0.7500000000000001
 40
0.7500000000000001
 40
0.7500000000000001
 40
0.8000000000000002
 40
0.8000000000000002
 40
0.8000000000000002
 40
0.8000000000000002
 40
0.8500000000000002
 40
0.8500000000000002
 40
0.8500000000000002
 40
0.8500000000000002
 40
0.9000000000000002
 40
0.9000000000000002
 40
0.9000000000000002
 40
0.9000000000000002
 40
0.9500000000000003
 40
0.9500000000000003
 40
0.9500000000000003
 40
0.9500000000000003
 40
1.0
 40
1.0
 40
1.0
 40
1.0
 10
-173.5039
 20
227.2296
 30
0.0
 10
-173.5039
 20
227.2296
 30
0.0
 10
-194.2462
 20
227.0094
 30
0.0
 10
-194.2462
 20
227.0094
 30
0.0
 10
-194.2462
 20
227.0094
 30
0.0
 10
-194.2462
 20
227.0094
 30
0.0
 10
-193.8813
 20
192.6339
 30
0.0
 10
-193.8813
 20
192.6339
 30
0.0
 10
-193.8813
 20
192.6339
 30
0.0
 10
-193.8813
 20
192.6339
 30
0.0
 10
-189.741
 20
192.6778
 30
0.0
 10
-189.741
 20
192.6778
 30
0.0
 10
-189.741
 20
192.6778
 30
0.0
 10
-189.741
 20
192.6778
 30
0.0
 10
-189.7092
 20
189.678
 30
0.0
 10
-189.7092
 20
189.678
 30
0.0
 10
-189.7092
 20
189.678
 30
0.0
 10
-189.7092
 20
189.678
 30
0.0
 10
-193.8494
 20
189.634
 30
0.0
 10
-193.8494
 20
189.634
 30
0.0
 10
-193.8494
 20
189.634
 30
0.0
 10
-193.8494
 20
189.634
 30
0.0
 10
-193.8161
 20
186.4958
 30
0.0
 10
-193.8161
 20
186.4958
 30
0.0
 10
-193.8161
 20
186.4958
 30
0.0
 10
-193.8161
 20
186.4958
 30
0.0
 10
-189.6759
 20
186.5398
 30
0.0
 10
-189.6759
 20
186.5398
 30
0.0
 10
-189.6759
 20
186.5398
 30
0.0
 10
-189.6759
 20
186.5398
 30
0.0
 10
-189.644
 20
183.5399
 30
0.0
 10
-189.644
 20
183.5399
 30
0.0
 10
-189.644
 20
183.5399
 30
0.0
 10
-189.644
 20
183.5399
 30
0.0
 10
-193.7843
 20
183.496
 30
0.0
 10
-193.7843
 20
183.496
 30
0.0
 10
-193.7843
 20
183.496
 30
0.0
 10
-193.7843
 20
183.496
 30
0.0
 10
-193.4194
 20
149.1204
 30
0.0
 10
-193.4194
 20
149.1204
 30
0.0
 10
-193.4194
 20
149.1204
 30
0.0
 10
-193.4194
 20
149.1204
 30
0.0
 10
-172.6772
 20
149.3406
 30
0.0
 10
-172.6772
 20
149.3406
 30
0.0
 10
-172.6772
 20
149.3406
 30
0.0
 10
-172.6772
 20
149.3406
 30
0.0
 10
-172.7087
 20
152.3161
 30
0.0
 10
-172.7087
 20
152.3161
 30
0.0
 10
-172.7087
 20
152.3161
 30
0.0
 10
-172.7087
 20
152.3161
 30
0.0
 10
-181.625
 20
152.2215
 30
0.0
 10
-181.625
 20
152.2215
 30
0.0
 10
-181.625
 20
152.2215
 30
0.0
 10
-181.625
 20
152.2215
 30
0.0
 10
-181.6569
 20
155.2213
 30
0.0
 10
-181.6569
 20
155.2213
 30
0.0
 10
-181.6569
 20
155.2213
 30
0.0
 10
-181.6569
 20
155.2213
 30
0.0
 10
-172.7406
 20
155.3159
 30
0.0
 10
-172.7406
 20
155.3159
 30
0.0
 10
-172.7406
 20
155.3159
 30
0.0
 10
-172.7406
 20
155.3159
 30
0.0
 10
-173.4405
 20
221.2543
 30
0.0
 10
-173.4405
 20
221.2543
 30
0.0
 10
-173.4405
 20
221.2543
 30
0.0
 10
-173.4405
 20
221.2543
 30
0.0
 10
-182.3568
 20
221.1597
 30
0.0
 10
-182.3568
 20
221.1597
 30
0.0
 10
-182.3568
 20
221.1597
 30
0.0
 10
-182.3568
 20
221.1597
 30
0.0
 10
-182.3886
 20
224.1595
 30
0.0
 10
-182.3886
 20
224.1595
 30
0.0
 10
-182.3886
 20
224.1595
 30
0.0
 10
-182.3886
 20
224.1595
 30
0.0
 10
-173.4723
 20
224.2542
 30
0.0
 10
-173.4723
 20
224.2542
 30
0.0
 10
-173.4723
 20
224.2542
 30
0.0
 10
-173.4723
 20
224.2542
 30
0.0
 10
-173.5039
 20
227.2296
 30
0.0
 10
-173.5039
 20
227.2296
 30
0.0
  0
SPLINE
  5
3C
330
1F
100
AcDbEntity
  8
Capa 1
 62
     1
370
     0
100
AcDbSpline
210
0.0
220
0.0
230
1.0
 70
    11
 71
     3
 72
    68
 73
    64
 74
     0
 42
0.0000000001
 43
0.0000000001
 40
0.0
 40
0.0
 40
0.0
 40
0.0
 40
0.0625
 40
0.0625
 40
0.0625
 40
0.0625
 40
0.125
 40
0.125
 40
0.125
 40
0.125
 40
0.1875
 40
0.1875
 40
0.1875
 40
0.1875
 40
0.25
 40
0.25
 40
0.25
 40
0.25
 40
0.3125
 40
0.3125
 40
0.3125
 40
0.3125
 40
0.375
 40
0.375
 40
0.375
 40
0.375
 40
0.4375
 40
0.4375
 40
0.4375
 40
0.4375
 40
0.5
 40
0.5
 40
0.5
 40
0.5
 40
0.5625
 40
0.5625
 40
0.5625
 40
0.5625
 40
0.625
 40
0.625
 40
0.625
 40
0.625
 40
0.6875
 40
0.6875
 40
0.6875
 40
0.6875
 40
0.75
 40
0.75
 40
0.75
 40
0.75
 40
0.8125
 40
0.8125
 40
0.8125
 40
0.8125
 40
0.875
 40
0.875
 40
0.875
 40
0.875
 40
0.9375
 40
0.9375
 40
0.9375
 40
0.9375
 40
1.0
 40
1.0
 40
1.0
 40
1.0
 10
-202.8179
 20
226.9184
 30
0.0
 10
-202.8179
 20
226.9184
 30
0.0
 10
-206.9195
 20
226.8749
 30
0.0
 10
-206.9195
 20
226.8749
 30
0.0
 10
-206.9195
 20
226.8749
 30
0.0
 10
-208.2945
 20
226.8603
 30
0.0
 10
-209.4074
 20
225.7235
 30
0.0
 10
-209.3928
 20
224.3486
 30
0.0
 10
-209.3928
 20
224.3486
 30
0.0
 10
-209.3928
 20
224.3486
 30
0.0
 10
-208.6191
 20
151.4591
 30
0.0
 10
-208.6191
 20
151.4591
 30
0.0
 10
-208.6191
 20
151.4591
 30
0.0
 10
-208.6045
 20
150.0842
 30
0.0
 10
-207.4677
 20
148.9713
 30
0.0
 10
-206.0928
 20
148.9859
 30
0.0
 10
-206.0928
 20
148.9859
 30
0.0
 10
-206.0928
 20
148.9859
 30
0.0
 10
-201.9911
 20
149.0294
 30
0.0
 10
-201.9911
 20
149.0294
 30
0.0
 10
-201.9911
 20
149.0294
 30
0.0
 10
-200.6162
 20
149.044
 30
0.0
 10
-199.5033
 20
150.1808
 30
0.0
 10
-199.5179
 20
151.5557
 30
0.0
 10
-199.5179
 20
151.5557
 30
0.0
 10
-199.5179
 20
151.5557
 30
0.0
 10
-199.5229
 20
152.0315
 30
0.0
 10
-199.5229
 20
152.0315
 30
0.0
 10
-199.5229
 20
152.0315
 30
0.0
 10
-199.5229
 20
152.0315
 30
0.0
 10
-203.5224
 20
151.989
 30
0.0
 10
-203.5224
 20
151.989
 30
0.0
 10
-203.5224
 20
151.989
 30
0.0
 10
-203.5224
 20
151.989
 30
0.0
 10
-203.5542
 20
154.9889
 30
0.0
 10
-203.5542
 20
154.9889
 30
0.0
 10
-203.5542
 20
154.9889
 30
0.0
 10
-203.5542
 20
154.9889
 30
0.0
 10
-199.5548
 20
155.0313
 30
0.0
 10
-199.5548
 20
155.0313
 30
0.0
 10
-199.5548
 20
155.0313
 30
0.0
 10
-199.5548
 20
155.0313
 30
0.0
 10
-200.2547
 20
220.9697
 30
0.0
 10
-200.2547
 20
220.9697
 30
0.0
 10
-200.2547
 20
220.9697
 30
0.0
 10
-200.2547
 20
220.9697
 30
0.0
 10
-204.2542
 20
220.9273
 30
0.0
 10
-204.2542
 20
220.9273
 30
0.0
 10
-204.2542
 20
220.9273
 30
0.0
 10
-204.2542
 20
220.9273
 30
0.0
 10
-204.286
 20
223.9271
 30
0.0
 10
-204.286
 20
223.9271
 30
0.0
 10
-204.286
 20
223.9271
 30
0.0
 10
-204.286
 20
223.9271
 30
0.0
 10
-200.2865
 20
223.9695
 30
0.0
 10
-200.2865
 20
223.9695
 30
0.0
 10
-200.2865
 20
223.9695
 30
0.0
 10
-200.2865
 20
223.9695
 30
0.0
 10
-200.2916
 20
224.4452
 30
0.0
 10
-200.2916
 20
224.4452
 30
0.0
 10
-200.2916
 20
224.4452
 30
0.0
 10
-200.3062
 20
225.8201
 30
0.0
 10
-201.443
 20
226.933
 30
0.0
 10
-202.8179
 20
226.9184
 30
0.0
  0
SPLINE
  5
3D
330
1F
100
AcDbEntity
  8
Capa 1
 62
     1
370
     0
100
AcDbSpline
210
0.0
220
0.0
230
1.0
 70
    11
 71
     3
 72
    60
 73
    56
 74
     0
 42
0.0000000001
 43
0.0000000001
 40
0.0
 40
0.0
 40
0.0
 40
0.0
 40
0.0714285714285714
 40
0.0714285714285714
 40
0.0714285714285714
 40
0.0714285714285714
 40
0.1428571428571429
 40
0.1428571428571429
 40
0.1428571428571429
 40
0.1428571428571429
 40
0.2142857142857143
 40
0.2142857142857143
 40
0.2142857142857143
 40
0.2142857142857143
 40
0.2857142857142857
 40
0.2857142857142857
 40
0.2857142857142857
 40
0.2857142857142857
 40
0.3571428571428571
 40
0.3571428571428571
 40
0.3571428571428571
 40
0.3571428571428571
 40
0.4285714285714285
 40
0.4285714285714285
 40
0.4285714285714285
 40
0.4285714285714285
 40
0.4999999999999999
 40
0.4999999999999999
 40
0.4999999999999999
 40
0.4999999999999999
 40
0.5714285714285713
 40
0.5714285714285713
 40
0.5714285714285713
 40
0.5714285714285713
 40
0.6428571428571427
 40
0.6428571428571427
 40
0.6428571428571427
 40
0.6428571428571427
 40
0.7142857142857141
 40
0.7142857142857141
 40
0.7142857142857141
 40
0.7142857142857141
 40
0.7857142857142855
 40
0.7857142857142855
 40
0.7857142857142855
 40
0.7857142857142855
 40
0.8571428571428569
 40
0.8571428571428569
 40
0.8571428571428569
 40
0.8571428571428569
 40
0.9285714285714283
 40
0.9285714285714283
 40
0.9285714285714283
 40
0.9285714285714283
 40
1.0
 40
1.0
 40
1.0
 40
1.0
 10
-179.8755
 20
236.874
 30
0.0
 10
-179.8755
 20
236.874
 30
0.0
 10
-177.8736
 20
240.9862
 30
0.0
 10
-177.8736
 20
240.9862
 30
0.0
 10
-177.8736
 20
240.9862
 30
0.0
 10
-177.8736
 20
240.9862
 30
0.0
 10
-167.7515
 20
236.3677
 30
0.0
 10
-167.7515
 20
236.3677
 30
0.0
 10
-167.7515
 20
236.3677
 30
0.0
 10
-167.7515
 20
236.3677
 30
0.0
 10
-166.5061
 20
239.097
 30
0.0
 10
-166.5061
 20
239.097
 30
0.0
 10
-166.5061
 20
239.097
 30
0.0
 10
-166.5061
 20
239.097
 30
0.0
 10
-176.5601
 20
243.6845
 30
0.0
 10
-176.5601
 20
243.6845
 30
0.0
 10
-176.5601
 20
243.6845
 30
0.0
 10
-176.5601
 20
243.6845
 30
0.0
 10
-174.5928
 20
247.7257
 30
0.0
 10
-174.5928
 20
247.7257
 30
0.0
 10
-174.5928
 20
247.7257
 30
0.0
 10
-174.5928
 20
247.7257
 30
0.0
 10
-150.8921
 20
236.47
 30
0.0
 10
-150.8921
 20
236.47
 30
0.0
 10
-150.8921
 20
236.47
 30
0.0
 10
-150.8921
 20
236.47
 30
0.0
 10
-154.5231
 20
231.5336
 30
0.0
 10
-154.5231
 20
231.5336
 30
0.0
 10
-154.5231
 20
231.5336
 30
0.0
 10
-154.5231
 20
231.5336
 30
0.0
 10
-152.1064
 20
229.756
 30
0.0
 10
-152.1064
 20
229.756
 30
0.0
 10
-152.1064
 20
229.756
 30
0.0
 10
-152.1064
 20
229.756
 30
0.0
 10
-148.1321
 20
235.1592
 30
0.0
 10
-148.1321
 20
235.1592
 30
0.0
 10
-148.1321
 20
235.1592
 30
0.0
 10
-148.1321
 20
235.1592
 30
0.0
 10
-145.8182
 20
234.0603
 30
0.0
 10
-145.8182
 20
234.0603
 30
0.0
 10
-145.8182
 20
234.0603
 30
0.0
 10
-145.8182
 20
234.0603
 30
0.0
 10
-145.1523
 20
231.1568
 30
0.0
 10
-145.1523
 20
231.1568
 30
0.0
 10
-145.1523
 20
231.1568
 30
0.0
 10
-145.1523
 20
231.1568
 30
0.0
 10
-150.065
 20
225.3364
 30
0.0
 10
-150.065
 20
225.3364
 30
0.0
 10
-150.065
 20
225.3364
 30
0.0
 10
-150.065
 20
225.3364
 30
0.0
 10
-152.5396
 20
224.1459
 30
0.0
 10
-152.5396
 20
224.1459
 30
0.0
 10
-152.5396
 20
224.1459
 30
0.0
 10
-152.5396
 20
224.1459
 30
0.0
 10
-179.8755
 20
236.874
 30
0.0
 10
-179.8755
 20
236.874
 30
0.0
  0
SPLINE
  5
3E
330
1F
100
AcDbEntity
  8
Capa 1
 62
     1
370
     0
100
AcDbSpline
210
0.0
220
0.0
230
1.0
 70
    11
 71
     3
 72
    72
 73
    68
 74
     0
 42
0.0000000001
 43
0.0000000001
 40
0.0
 40
0.0
 40
0.0
 40
0.0
 40
0.0588235294117647
 40
0.0588235294117647
 40
0.0588235294117647
 40
0.0588235294117647
 40
0.1176470588235294
 40
0.1176470588235294
 40
0.1176470588235294
 40
0.1176470588235294
 40
0.1764705882352941
 40
0.1764705882352941
 40
0.1764705882352941
 40
0.1764705882352941
 40
0.2352941176470588
 40
0.2352941176470588
 40
0.2352941176470588
 40
0.2352941176470588
 40
0.2941176470588235
 40
0.2941176470588235
 40
0.2941176470588235
 40
0.2941176470588235
 40
0.3529411764705883
 40
0.3529411764705883
 40
0.3529411764705883
 40
0.3529411764705883
 40
0.411764705882353
 40
0.411764705882353
 40
0.411764705882353
 40
0.411764705882353
 40
0.4705882352941177
 40
0.4705882352941177
 40
0.4705882352941177
 40
0.4705882352941177
 40
0.5294117647058824
 40
0.5294117647058824
 40
0.5294117647058824
 40
0.5294117647058824
 40
0.5882352941176471
 40
0.5882352941176471
 40
0.5882352941176471
 40
0.5882352941176471
 40
0.6470588235294118
 40
0.6470588235294118
 40
0.6470588235294118
 40
0.6470588235294118
 40
0.7058823529411765
 40
0.7058823529411765
 40
0.7058823529411765
 40
0.7058823529411765
 40
0.7647058823529412
 40
0.7647058823529412
 40
0.7647058823529412
 40
0.7647058823529412
 40
0.823529411764706
 40
0.823529411764706
 40
0.823529411764706
 40
0.823529411764706
 40
0.8823529411764707
 40
0.8823529411764707
 40
0.8823529411764707
 40
0.8823529411764707
 40
0.9411764705882354
 40
0.9411764705882354
 40
0.9411764705882354
 40
0.9411764705882354
 40
1.0
 40
1.0
 40
1.0
 40
1.0
 10
-161.5778
 20
206.9032
 30
0.0
 10
-161.5778
 20
206.9032
 30
0.0
 10
-162.8272
 20
213.6449
 30
0.0
 10
-162.8272
 20
213.6449
 30
0.0
 10
-162.8272
 20
213.6449
 30
0.0
 10
-162.8272
 20
213.6449
 30
0.0
 10
-159.9888
 20
214.0591
 30
0.0
 10
-159.9888
 20
214.0591
 30
0.0
 10
-159.9888
 20
214.0591
 30
0.0
 10
-159.9888
 20
214.0591
 30
0.0
 10
-160.422
 20
217.0278
 30
0.0
 10
-160.422
 20
217.0278
 30
0.0
 10
-160.422
 20
217.0278
 30
0.0
 10
-160.422
 20
217.0278
 30
0.0
 10
-163.3744
 20
216.5969
 30
0.0
 10
-163.3744
 20
216.5969
 30
0.0
 10
-163.3744
 20
216.5969
 30
0.0
 10
-163.3744
 20
216.5969
 30
0.0
 10
-163.9075
 20
219.4734
 30
0.0
 10
-163.9075
 20
219.4734
 30
0.0
 10
-163.9075
 20
219.4734
 30
0.0
 10
-163.9075
 20
219.4734
 30
0.0
 10
-158.5531
 20
221.0913
 30
0.0
 10
-157.8685
 20
218.9025
 30
0.0
 10
-157.8685
 20
218.9025
 30
0.0
 10
-157.1838
 20
216.7136
 30
0.0
 10
-155.8212
 20
207.9963
 30
0.0
 10
-155.8212
 20
207.9963
 30
0.0
 10
-155.8212
 20
207.9963
 30
0.0
 10
-155.8212
 20
207.9963
 30
0.0
 10
-150.0167
 20
209.5661
 30
0.0
 10
-149.3717
 20
206.1331
 30
0.0
 10
-149.3717
 20
206.1331
 30
0.0
 10
-148.7266
 20
202.7002
 30
0.0
 10
-146.9828
 20
192.9816
 30
0.0
 10
-146.9828
 20
192.9816
 30
0.0
 10
-146.9828
 20
192.9816
 30
0.0
 10
-146.9828
 20
192.9816
 30
0.0
 10
-146.0552
 20
190.3455
 30
0.0
 10
-150.4381
 20
189.4522
 30
0.0
 10
-150.4381
 20
189.4522
 30
0.0
 10
-150.4381
 20
189.4522
 30
0.0
 10
-150.9967
 20
189.3388
 30
0.0
 10
-150.9967
 20
189.3388
 30
0.0
 10
-150.9967
 20
189.3388
 30
0.0
 10
-150.9967
 20
189.3388
 30
0.0
 10
-152.2154
 20
197.3187
 30
0.0
 10
-152.2154
 20
197.3187
 30
0.0
 10
-152.2154
 20
197.3187
 30
0.0
 10
-152.2154
 20
197.3187
 30
0.0
 10
-155.1811
 20
196.8659
 30
0.0
 10
-155.1811
 20
196.8659
 30
0.0
 10
-155.1811
 20
196.8659
 30
0.0
 10
-155.1811
 20
196.8659
 30
0.0
 10
-153.9414
 20
188.7483
 30
0.0
 10
-153.9414
 20
188.7483
 30
0.0
 10
-153.9414
 20
188.7483
 30
0.0
 10
-158.788
 20
187.7829
 30
0.0
 10
-165.1188
 20
186.5445
 30
0.0
 10
-165.1188
 20
186.5445
 30
0.0
 10
-165.1188
 20
186.5445
 30
0.0
 10
-165.1188
 20
186.5445
 30
0.0
 10
-165.4854
 20
206.1209
 30
0.0
 10
-165.4854
 20
206.1209
 30
0.0
 10
-165.4854
 20
206.1209
 30
0.0
 10
-165.4854
 20
206.1209
 30
0.0
 10
-161.5778
 20
206.9032
 30
0.0
 10
-161.5778
 20
206.9032
 30
0.0
  0
SPLINE
  5
3F
330
1F
100
AcDbEntity
  8
Capa 1
 62
     1
370
     0
100
AcDbSpline
210
0.0
220
0.0
230
1.0
 70
    11
 71
     3
 72
    52
 73
    48
 74
     0
 42
0.0000000001
 43
0.0000000001
 40
0.0
 40
0.0
 40
0.0
 40
0.0
 40
0.0833333333333333
 40
0.0833333333333333
 40
0.0833333333333333
 40
0.0833333333333333
 40
0.1666666666666667
 40
0.1666666666666667
 40
0.1666666666666667
 40
0.1666666666666667
 40
0.25
 40
0.25
 40
0.25
 40
0.25
 40
0.3333333333333333
 40
0.3333333333333333
 40
0.3333333333333333
 40
0.3333333333333333
 40
0.4166666666666666
 40
0.4166666666666666
 40
0.4166666666666666
 40
0.4166666666666666
 40
0.4999999999999999
 40
0.4999999999999999
 40
0.4999999999999999
 40
0.4999999999999999
 40
0.5833333333333333
 40
0.5833333333333333
 40
0.5833333333333333
 40
0.5833333333333333
 40
0.6666666666666666
 40
0.6666666666666666
 40
0.6666666666666666
 40
0.6666666666666666
 40
0.75
 40
0.75
 40
0.75
 40
0.75
 40
0.8333333333333334
 40
0.8333333333333334
 40
0.8333333333333334
 40
0.8333333333333334
 40
0.9166666666666667
 40
0.9166666666666667
 40
0.9166666666666667
 40
0.9166666666666667
 40
1.0
 40
1.0
 40
1.0
 40
1.0
 10
-137.4441
 20
209.1701
 30
0.0
 10
-137.4441
 20
209.1701
 30
0.0
 10
-137.4709
 20
217.9905
 30
0.0
 10
-137.4709
 20
217.9905
 30
0.0
 10
-137.4709
 20
217.9905
 30
0.0
 10
-137.4709
 20
217.9905
 30
0.0
 10
-133.1476
 20
218.046
 30
0.0
 10
-133.1476
 20
218.046
 30
0.0
 10
-133.1476
 20
218.046
 30
0.0
 10
-133.1476
 20
218.046
 30
0.0
 10
-133.1861
 20
221.0458
 30
0.0
 10
-133.1861
 20
221.0458
 30
0.0
 10
-133.1861
 20
221.0458
 30
0.0
 10
-133.1861
 20
221.0458
 30
0.0
 10
-137.4801
 20
220.9907
 30
0.0
 10
-137.4801
 20
220.9907
 30
0.0
 10
-137.4801
 20
220.9907
 30
0.0
 10
-137.4801
 20
220.9907
 30
0.0
 10
-137.4866
 20
223.1405
 30
0.0
 10
-137.4866
 20
223.1405
 30
0.0
 10
-137.4866
 20
223.1405
 30
0.0
 10
-137.4866
 20
223.1405
 30
0.0
 10
-136.5927
 20
223.6792
 30
0.0
 10
-136.5927
 20
223.6792
 30
0.0
 10
-136.5927
 20
223.6792
 30
0.0
 10
-136.5927
 20
223.6792
 30
0.0
 10
-130.5599
 20
223.6902
 30
0.0
 10
-130.5599
 20
223.6902
 30
0.0
 10
-130.5599
 20
223.6902
 30
0.0
 10
-130.5599
 20
223.6902
 30
0.0
 10
-129.652
 20
222.9061
 30
0.0
 10
-129.652
 20
222.9061
 30
0.0
 10
-129.652
 20
222.9061
 30
0.0
 10
-129.652
 20
222.9061
 30
0.0
 10
-129.6664
 20
209.3056
 30
0.0
 10
-129.6664
 20
209.3056
 30
0.0
 10
-129.6664
 20
209.3056
 30
0.0
 10
-129.6664
 20
209.3056
 30
0.0
 10
-130.45
 20
208.3447
 30
0.0
 10
-130.45
 20
208.3447
 30
0.0
 10
-130.45
 20
208.3447
 30
0.0
 10
-130.45
 20
208.3447
 30
0.0
 10
-136.6403
 20
208.2261
 30
0.0
 10
-136.6403
 20
208.2261
 30
0.0
 10
-136.6403
 20
208.2261
 30
0.0
 10
-136.6403
 20
208.2261
 30
0.0
 10
-137.4441
 20
209.1701
 30
0.0
 10
-137.4441
 20
209.1701
 30
0.0
  0
SPLINE
  5
40
330
1F
100
AcDbEntity
  8
Capa 1
 62
     1
370
     0
100
AcDbSpline
210
0.0
220
0.0
230
1.0
 70
    11
 71
     3
 72
    36
 73
    32
 74
     0
 42
0.0000000001
 43
0.0000000001
 40
0.0
 40
0.0
 40
0.0
 40
0.0
 40
0.125
 40
0.125
 40
0.125
 40
0.125
 40
0.25
 40
0.25
 40
0.25
 40
0.25
 40
0.375
 40
0.375
 40
0.375
 40
0.375
 40
0.5
 40
0.5
 40
0.5
 40
0.5
 40
0.625
 40
0.625
 40
0.625
 40
0.625
 40
0.75
 40
0.75
 40
0.75
 40
0.75
 40
0.875
 40
0.875
 40
0.875
 40
0.875
 40
1.0
 40
1.0
 40
1.0
 40
1.0
 10
-97.30290000000001
 20
245.7129
 30
0.0
 10
-97.30290000000001
 20
245.7129
 30
0.0
 10
-102.4258
 20
246.5056
 30
0.0
 10
-102.4258
 20
246.5056
 30
0.0
 10
-102.4258
 20
246.5056
 30
0.0
 10
-102.4258
 20
246.5056
 30
0.0
 10
-103.6517
 20
238.3158
 30
0.0
 10
-103.6517
 20
238.3158
 30
0.0
 10
-103.6517
 20
238.3158
 30
0.0
 10
-103.6517
 20
238.3158
 30
0.0
 10
-106.6188
 20
238.7603
 30
0.0
 10
-106.6188
 20
238.7603
 30
0.0
 10
-106.6188
 20
238.7603
 30
0.0
 10
-106.6188
 20
238.7603
 30
0.0
 10
-105.3907
 20
246.9643
 30
0.0
 10
-105.3907
 20
246.9643
 30
0.0
 10
-105.3907
 20
246.9643
 30
0.0
 10
-105.3907
 20
246.9643
 30
0.0
 10
-110.4276
 20
247.7437
 30
0.0
 10
-110.4276
 20
247.7437
 30
0.0
 10
-110.4276
 20
247.7437
 30
0.0
 10
-110.4276
 20
247.7437
 30
0.0
 10
-123.9537
 20
203.3329
 30
0.0
 10
-123.9537
 20
203.3329
 30
0.0
 10
-123.9537
 20
203.3329
 30
0.0
 10
-123.9537
 20
203.3329
 30
0.0
 10
-97.2689
 20
199.2767
 30
0.0
 10
-97.2689
 20
199.2767
 30
0.0
 10
-97.2689
 20
199.2767
 30
0.0
 10
-97.2689
 20
199.2767
 30
0.0
 10
-97.30290000000001
 20
245.7129
 30
0.0
 10
-97.30290000000001
 20
245.7129
 30
0.0
  0
SPLINE
  5
41
330
1F
100
AcDbEntity
  8
Capa 1
 62
     1
370
     0
100
AcDbSpline
210
0.0
220
0.0
230
1.0
 70
    11
 71
     3
 72
    20
 73
    16
 74
     0
 42
0.0000000001
 43
0.0000000001
 40
0.0
 40
0.0
 40
0.0
 40
0.0
 40
0.25
 40
0.25
 40
0.25
 40
0.25
 40
0.5
 40
0.5
 40
0.5
 40
0.5
 40
0.75
 40
0.75
 40
0.75
 40
0.75
 40
1.0
 40
1.0
 40
1.0
 40
1.0
 10
-109.0859
 20
208.5972
 30
0.0
 10
-107.7419
 20
208.6115
 30
0.0
 10
-106.6635
 20
209.713
 30
0.0
 10
-106.6778
 20
211.057
 30
0.0
 10
-106.6778
 20
211.057
 30
0.0
 10
-106.6921
 20
212.401
 30
0.0
 10
-107.7936
 20
213.4794
 30
0.0
 10
-109.1376
 20
213.4651
 30
0.0
 10
-109.1376
 20
213.4651
 30
0.0
 10
-110.4816
 20
213.4508
 30
0.0
 10
-111.56
 20
212.3493
 30
0.0
 10
-111.5457
 20
211.0053
 30
0.0
 10
-111.5457
 20
211.0053
 30
0.0
 10
-111.5315
 20
209.6613
 30
0.0
 10
-110.43
 20
208.5829
 30
0.0
 10
-109.0859
 20
208.5972
 30
0.0
  0
SPLINE
  5
42
330
1F
100
AcDbEntity
  8
Capa 1
 62
     1
370
     0
100
AcDbSpline
210
0.0
220
0.0
230
1.0
 70
    11
 71
     3
 72
    36
 73
    32
 74
     0
 42
0.0000000001
 43
0.0000000001
 40
0.0
 40
0.0
 40
0.0
 40
0.0
 40
0.125
 40
0.125
 40
0.125
 40
0.125
 40
0.25
 40
0.25
 40
0.25
 40
0.25
 40
0.375
 40
0.375
 40
0.375
 40
0.375
 40
0.5
 40
0.5
 40
0.5
 40
0.5
 40
0.625
 40
0.625
 40
0.625
 40
0.625
 40
0.75
 40
0.75
 40
0.75
 40
0.75
 40
0.875
 40
0.875
 40
0.875
 40
0.875
 40
1.0
 40
1.0
 40
1.0
 40
1.0
 10
-130.8041
 20
190.6386
 30
0.0
 10
-130.8041
 20
190.6386
 30
0.0
 10
-112.6019
 20
190.8318
 30
0.0
 10
-112.6019
 20
190.8318
 30
0.0
 10
-112.6019
 20
190.8318
 30
0.0
 10
-112.6019
 20
190.8318
 30
0.0
 10
-112.4935
 20
180.6194
 30
0.0
 10
-112.4935
 20
180.6194
 30
0.0
 10
-112.4935
 20
180.6194
 30
0.0
 10
-112.4935
 20
180.6194
 30
0.0
 10
-116.0387
 20
180.5818
 30
0.0
 10
-116.0387
 20
180.5818
 30
0.0
 10
-116.0387
 20
180.5818
 30
0.0
 10
-116.0387
 20
180.5818
 30
0.0
 10
-115.9499
 20
172.2214
 30
0.0
 10
-115.9499
 20
172.2214
 30
0.0
 10
-115.9499
 20
172.2214
 30
0.0
 10
-115.9499
 20
172.2214
 30
0.0
 10
-127.0618
 20
172.1034
 30
0.0
 10
-127.0618
 20
172.1034
 30
0.0
 10
-127.0618
 20
172.1034
 30
0.0
 10
-127.0618
 20
172.1034
 30
0.0
 10
-127.1505
 20
180.4639
 30
0.0
 10
-127.1505
 20
180.4639
 30
0.0
 10
-127.1505
 20
180.4639
 30
0.0
 10
-127.1505
 20
180.4639
 30
0.0
 10
-130.6957
 20
180.4262
 30
0.0
 10
-130.6957
 20
180.4262
 30
0.0
 10
-130.6957
 20
180.4262
 30
0.0
 10
-130.6957
 20
180.4262
 30
0.0
 10
-130.8041
 20
190.6386
 30
0.0
 10
-130.8041
 20
190.6386
 30
0.0
  0
SPLINE
  5
43
330
1F
100
AcDbEntity
  8
Capa 1
 62
     1
370
     0
100
AcDbSpline
210
0.0
220
0.0
230
1.0
 70
    24
 71
     3
 72
     8
 73
     4
 74
     0
 42
0.0000000001
 43
0.0000000001
 40
0.0
 40
0.0
 40
0.0
 40
0.0
 40
1.0
 40
1.0
 40
1.0
 40
1.0
 10
-121.703
 20
190.7352
 30
0.0
 10
-121.703
 20
190.7352
 30
0.0
 10
-121.5058
 20
172.1624
 30
0.0
 10
-121.5058
 20
172.1624
 30
0.0
  0
SPLINE
  5
44
330
1F
100
AcDbEntity
  8
Capa 1
 62
     1
370
     0
100
AcDbSpline
210
0.0
220
0.0
230
1.0
 70
    11
 71
     3
 72
    36
 73
    32
 74
     0
 42
0.0000000001
 43
0.0000000001
 40
0.0
 40
0.0
 40
0.0
 40
0.0
 40
0.125
 40
0.125
 40
0.125
 40
0.125
 40
0.25
 40
0.25
 40
0.25
 40
0.25
 40
0.375
 40
0.375
 40
0.375
 40
0.375
 40
0.5
 40
0.5
 40
0.5
 40
0.5
 40
0.625
 40
0.625
 40
0.625
 40
0.625
 40
0.75
 40
0.75
 40
0.75
 40
0.75
 40
0.875
 40
0.875
 40
0.875
 40
0.875
 40
1.0
 40
1.0
 40
1.0
 40
1.0
 10
-138.7066
 20
162.3482
 30
0.0
 10
-138.7066
 20
162.3482
 30
0.0
 10
-116.0336
 20
160.1546
 30
0.0
 10
-116.0336
 20
160.1546
 30
0.0
 10
-116.0336
 20
160.1546
 30
0.0
 10
-116.0336
 20
160.1546
 30
0.0
 10
-115.5911
 20
118.4586
 30
0.0
 10
-115.5911
 20
118.4586
 30
0.0
 10
-115.5911
 20
118.4586
 30
0.0
 10
-115.5911
 20
118.4586
 30
0.0
 10
-120.995
 20
119.0362
 30
0.0
 10
-120.995
 20
119.0362
 30
0.0
 10
-120.995
 20
119.0362
 30
0.0
 10
-120.995
 20
119.0362
 30
0.0
 10
-123.5598
 20
125.3082
 30
0.0
 10
-123.5598
 20
125.3082
 30
0.0
 10
-123.5598
 20
125.3082
 30
0.0
 10
-123.5598
 20
125.3082
 30
0.0
 10
-119.9706
 20
125.3543
 30
0.0
 10
-119.9706
 20
125.3543
 30
0.0
 10
-119.9706
 20
125.3543
 30
0.0
 10
-119.9706
 20
125.3543
 30
0.0
 10
-120.0091
 20
128.354
 30
0.0
 10
-120.0091
 20
128.354
 30
0.0
 10
-120.0091
 20
128.354
 30
0.0
 10
-120.0091
 20
128.354
 30
0.0
 10
-124.7804
 20
128.2929
 30
0.0
 10
-124.7804
 20
128.2929
 30
0.0
 10
-124.7804
 20
128.2929
 30
0.0
 10
-124.7804
 20
128.2929
 30
0.0
 10
-138.7066
 20
162.3482
 30
0.0
 10
-138.7066
 20
162.3482
 30
0.0
  0
SPLINE
  5
45
330
1F
100
AcDbEntity
  8
Capa 1
 62
     1
370
     0
100
AcDbSpline
210
0.0
220
0.0
230
1.0
 70
    11
 71
     3
 72
    36
 73
    32
 74
     0
 42
0.0000000001
 43
0.0000000001
 40
0.0
 40
0.0
 40
0.0
 40
0.0
 40
0.125
 40
0.125
 40
0.125
 40
0.125
 40
0.25
 40
0.25
 40
0.25
 40
0.25
 40
0.375
 40
0.375
 40
0.375
 40
0.375
 40
0.5
 40
0.5
 40
0.5
 40
0.5
 40
0.625
 40
0.625
 40
0.625
 40
0.625
 40
0.75
 40
0.75
 40
0.75
 40
0.75
 40
0.875
 40
0.875
 40
0.875
 40
0.875
 40
1.0
 40
1.0
 40
1.0
 40
1.0
 10
-93.46080000000001
 20
162.8285
 30
0.0
 10
-93.46080000000001
 20
162.8285
 30
0.0
 10
-116.082
 20
160.1541
 30
0.0
 10
-116.082
 20
160.1541
 30
0.0
 10
-116.082
 20
160.1541
 30
0.0
 10
-116.082
 20
160.1541
 30
0.0
 10
-115.6395
 20
118.458
 30
0.0
 10
-115.6395
 20
118.458
 30
0.0
 10
-115.6395
 20
118.458
 30
0.0
 10
-115.6395
 20
118.458
 30
0.0
 10
-110.249
 20
119.1503
 30
0.0
 10
-110.249
 20
119.1503
 30
0.0
 10
-110.249
 20
119.1503
 30
0.0
 10
-110.249
 20
119.1503
 30
0.0
 10
-107.8179
 20
125.4753
 30
0.0
 10
-107.8179
 20
125.4753
 30
0.0
 10
-107.8179
 20
125.4753
 30
0.0
 10
-107.8179
 20
125.4753
 30
0.0
 10
-111.4073
 20
125.4452
 30
0.0
 10
-111.4073
 20
125.4452
 30
0.0
 10
-111.4073
 20
125.4452
 30
0.0
 10
-111.4073
 20
125.4452
 30
0.0
 10
-111.4324
 20
128.4451
 30
0.0
 10
-111.4324
 20
128.4451
 30
0.0
 10
-111.4324
 20
128.4451
 30
0.0
 10
-111.4324
 20
128.4451
 30
0.0
 10
-106.661
 20
128.4852
 30
0.0
 10
-106.661
 20
128.4852
 30
0.0
 10
-106.661
 20
128.4852
 30
0.0
 10
-106.661
 20
128.4852
 30
0.0
 10
-93.46080000000001
 20
162.8285
 30
0.0
 10
-93.46080000000001
 20
162.8285
 30
0.0
  0
SPLINE
  5
46
330
1F
100
AcDbEntity
  8
Capa 1
 62
     1
370
     0
100
AcDbSpline
210
0.0
220
0.0
230
1.0
 70
    11
 71
     3
 72
    20
 73
    16
 74
     0
 42
0.0000000001
 43
0.0000000001
 40
0.0
 40
0.0
 40
0.0
 40
0.0
 40
0.25
 40
0.25
 40
0.25
 40
0.25
 40
0.5
 40
0.5
 40
0.5
 40
0.5
 40
0.75
 40
0.75
 40
0.75
 40
0.75
 40
1.0
 40
1.0
 40
1.0
 40
1.0
 10
-126.106
 20
151.8452
 30
0.0
 10
-124.762
 20
151.8595
 30
0.0
 10
-123.6836
 20
152.961
 30
0.0
 10
-123.6979
 20
154.305
 30
0.0
 10
-123.6979
 20
154.305
 30
0.0
 10
-123.7122
 20
155.6491
 30
0.0
 10
-124.8137
 20
156.7274
 30
0.0
 10
-126.1577
 20
156.7132
 30
0.0
 10
-126.1577
 20
156.7132
 30
0.0
 10
-127.5017
 20
156.6989
 30
0.0
 10
-128.5801
 20
155.5974
 30
0.0
 10
-128.5658
 20
154.2534
 30
0.0
 10
-128.5658
 20
154.2534
 30
0.0
 10
-128.5516
 20
152.9093
 30
0.0
 10
-127.45
 20
151.831
 30
0.0
 10
-126.106
 20
151.8452
 30
0.0
  0
SPLINE
  5
47
330
1F
100
AcDbEntity
  8
Capa 1
 62
     1
370
     0
100
AcDbSpline
210
0.0
220
0.0
230
1.0
 70
    11
 71
     3
 72
    20
 73
    16
 74
     0
 42
0.0000000001
 43
0.0000000001
 40
0.0
 40
0.0
 40
0.0
 40
0.0
 40
0.25
 40
0.25
 40
0.25
 40
0.25
 40
0.5
 40
0.5
 40
0.5
 40
0.5
 40
0.75
 40
0.75
 40
0.75
 40
0.75
 40
1.0
 40
1.0
 40
1.0
 40
1.0
 10
-105.4169
 20
152.0648
 30
0.0
 10
-104.0729
 20
152.0791
 30
0.0
 10
-102.9945
 20
153.1806
 30
0.0
 10
-103.0088
 20
154.5246
 30
0.0
 10
-103.0088
 20
154.5246
 30
0.0
 10
-103.023
 20
155.8687
 30
0.0
 10
-104.1245
 20
156.947
 30
0.0
 10
-105.4686
 20
156.9328
 30
0.0
 10
-105.4686
 20
156.9328
 30
0.0
 10
-106.8126
 20
156.9185
 30
0.0
 10
-107.891
 20
155.817
 30
0.0
 10
-107.8767
 20
154.473
 30
0.0
 10
-107.8767
 20
154.473
 30
0.0
 10
-107.8624
 20
153.1289
 30
0.0
 10
-106.7609
 20
152.0506
 30
0.0
 10
-105.4169
 20
152.0648
 30
0.0
  0
SPLINE
  5
48
330
1F
100
AcDbEntity
  8
Capa 1
 62
     1
370
     0
100
AcDbSpline
210
0.0
220
0.0
230
1.0
 70
    11
 71
     3
 72
    52
 73
    48
 74
     0
 42
0.0000000001
 43
0.0000000001
 40
0.0
 40
0.0
 40
0.0
 40
0.0
 40
0.0833333333333333
 40
0.0833333333333333
 40
0.0833333333333333
 40
0.0833333333333333
 40
0.1666666666666667
 40
0.1666666666666667
 40
0.1666666666666667
 40
0.1666666666666667
 40
0.25
 40
0.25
 40
0.25
 40
0.25
 40
0.3333333333333333
 40
0.3333333333333333
 40
0.3333333333333333
 40
0.3333333333333333
 40
0.4166666666666666
 40
0.4166666666666666
 40
0.4166666666666666
 40
0.4166666666666666
 40
0.4999999999999999
 40
0.4999999999999999
 40
0.4999999999999999
 40
0.4999999999999999
 40
0.5833333333333333
 40
0.5833333333333333
 40
0.5833333333333333
 40
0.5833333333333333
 40
0.6666666666666666
 40
0.6666666666666666
 40
0.6666666666666666
 40
0.6666666666666666
 40
0.75
 40
0.75
 40
0.75
 40
0.75
 40
0.8333333333333334
 40
0.8333333333333334
 40
0.8333333333333334
 40
0.8333333333333334
 40
0.9166666666666667
 40
0.9166666666666667
 40
0.9166666666666667
 40
0.9166666666666667
 40
1.0
 40
1.0
 40
1.0
 40
1.0
 10
-96.9966
 20
134.2413
 30
0.0
 10
-96.9966
 20
134.2413
 30
0.0
 10
-96.83620000000001
 20
125.4223
 30
0.0
 10
-96.83620000000001
 20
125.4223
 30
0.0
 10
-96.83620000000001
 20
125.4223
 30
0.0
 10
-96.83620000000001
 20
125.4223
 30
0.0
 10
-92.51270000000001
 20
125.4586
 30
0.0
 10
-92.51270000000001
 20
125.4586
 30
0.0
 10
-92.51270000000001
 20
125.4586
 30
0.0
 10
-92.51270000000001
 20
125.4586
 30
0.0
 10
-92.48750000000001
 20
122.4587
 30
0.0
 10
-92.48750000000001
 20
122.4587
 30
0.0
 10
-92.48750000000001
 20
122.4587
 30
0.0
 10
-92.48750000000001
 20
122.4587
 30
0.0
 10
-96.7817
 20
122.4226
 30
0.0
 10
-96.7817
 20
122.4226
 30
0.0
 10
-96.7817
 20
122.4226
 30
0.0
 10
-96.7817
 20
122.4226
 30
0.0
 10
-96.74260000000001
 20
120.2732
 30
0.0
 10
-96.74260000000001
 20
120.2732
 30
0.0
 10
-96.74260000000001
 20
120.2732
 30
0.0
 10
-96.74260000000001
 20
120.2732
 30
0.0
 10
-95.8374
 20
119.7536
 30
0.0
 10
-95.8374
 20
119.7536
 30
0.0
 10
-95.8374
 20
119.7536
 30
0.0
 10
-95.8374
 20
119.7536
 30
0.0
 10
-89.80580000000001
 20
119.8706
 30
0.0
 10
-89.80580000000001
 20
119.8706
 30
0.0
 10
-89.80580000000001
 20
119.8706
 30
0.0
 10
-89.80580000000001
 20
119.8706
 30
0.0
 10
-88.91470000000001
 20
120.6738
 30
0.0
 10
-88.91470000000001
 20
120.6738
 30
0.0
 10
-88.91470000000001
 20
120.6738
 30
0.0
 10
-88.91470000000001
 20
120.6738
 30
0.0
 10
-89.21780000000001
 20
134.271
 30
0.0
 10
-89.21780000000001
 20
134.271
 30
0.0
 10
-89.21780000000001
 20
134.271
 30
0.0
 10
-89.21780000000001
 20
134.271
 30
0.0
 10
-90.02160000000001
 20
135.215
 30
0.0
 10
-90.02160000000001
 20
135.215
 30
0.0
 10
-90.02160000000001
 20
135.215
 30
0.0
 10
-90.02160000000001
 20
135.215
 30
0.0
 10
-96.21310000000001
 20
135.2022
 30
0.0
 10
-96.21310000000001
 20
135.2022
 30
0.0
 10
-96.21310000000001
 20
135.2022
 30
0.0
 10
-96.21310000000001
 20
135.2022
 30
0.0
 10
-96.9966
 20
134.2413
 30
0.0
 10
-96.9966
 20
134.2413
 30
0.0
  0
SPLINE
  5
49
330
1F
100
AcDbEntity
  8
Capa 1
 62
     1
370
     0
100
AcDbSpline
210
0.0
220
0.0
230
1.0
 70
    11
 71
     3
 72
    76
 73
    72
 74
     0
 42
0.0000000001
 43
0.0000000001
 40
0.0
 40
0.0
 40
0.0
 40
0.0
 40
0.0555555555555556
 40
0.0555555555555556
 40
0.0555555555555556
 40
0.0555555555555556
 40
0.1111111111111111
 40
0.1111111111111111
 40
0.1111111111111111
 40
0.1111111111111111
 40
0.1666666666666667
 40
0.1666666666666667
 40
0.1666666666666667
 40
0.1666666666666667
 40
0.2222222222222222
 40
0.2222222222222222
 40
0.2222222222222222
 40
0.2222222222222222
 40
0.2777777777777778
 40
0.2777777777777778
 40
0.2777777777777778
 40
0.2777777777777778
 40
0.3333333333333334
 40
0.3333333333333334
 40
0.3333333333333334
 40
0.3333333333333334
 40
0.388888888888889
 40
0.388888888888889
 40
0.388888888888889
 40
0.388888888888889
 40
0.4444444444444445
 40
0.4444444444444445
 40
0.4444444444444445
 40
0.4444444444444445
 40
0.5000000000000001
 40
0.5000000000000001
 40
0.5000000000000001
 40
0.5000000000000001
 40
0.5555555555555557
 40
0.5555555555555557
 40
0.5555555555555557
 40
0.5555555555555557
 40
0.6111111111111113
 40
0.6111111111111113
 40
0.6111111111111113
 40
0.6111111111111113
 40
0.6666666666666669
 40
0.6666666666666669
 40
0.6666666666666669
 40
0.6666666666666669
 40
0.7222222222222224
 40
0.7222222222222224
 40
0.7222222222222224
 40
0.7222222222222224
 40
0.777777777777778
 40
0.777777777777778
 40
0.777777777777778
 40
0.777777777777778
 40
0.8333333333333336
 40
0.8333333333333336
 40
0.8333333333333336
 40
0.8333333333333336
 40
0.8888888888888892
 40
0.8888888888888892
 40
0.8888888888888892
 40
0.8888888888888892
 40
0.9444444444444448
 40
0.9444444444444448
 40
0.9444444444444448
 40
0.9444444444444448
 40
1.0
 40
1.0
 40
1.0
 40
1.0
 10
-165.7361
 20
181.112
 30
0.0
 10
-165.7361
 20
181.112
 30
0.0
 10
-159.7568
 20
181.1755
 30
0.0
 10
-159.7568
 20
181.1755
 30
0.0
 10
-159.7568
 20
181.1755
 30
0.0
 10
-159.7568
 20
181.1755
 30
0.0
 10
-152.9374
 20
171.8812
 30
0.0
 10
-152.9374
 20
171.8812
 30
0.0
 10
-152.9374
 20
171.8812
 30
0.0
 10
-152.9374
 20
171.8812
 30
0.0
 10
-152.7892
 20
152.9375
 30
0.0
 10
-152.7892
 20
152.9375
 30
0.0
 10
-152.7892
 20
152.9375
 30
0.0
 10
-152.7892
 20
152.9375
 30
0.0
 10
-159.8421
 20
144.3425
 30
0.0
 10
-159.8421
 20
144.3425
 30
0.0
 10
-159.8421
 20
144.3425
 30
0.0
 10
-159.8421
 20
144.3425
 30
0.0
 10
-165.8213
 20
144.2791
 30
0.0
 10
-165.8213
 20
144.2791
 30
0.0
 10
-165.8213
 20
144.2791
 30
0.0
 10
-165.8213
 20
144.2791
 30
0.0
 10
-165.605
 20
153.8069
 30
0.0
 10
-165.605
 20
153.8069
 30
0.0
 10
-165.605
 20
153.8069
 30
0.0
 10
-165.605
 20
153.8069
 30
0.0
 10
-159.8374
 20
153.8681
 30
0.0
 10
-159.8374
 20
153.8681
 30
0.0
 10
-159.8374
 20
153.8681
 30
0.0
 10
-159.8374
 20
153.8681
 30
0.0
 10
-159.8253
 20
157.0028
 30
0.0
 10
-159.8253
 20
157.0028
 30
0.0
 10
-159.8253
 20
157.0028
 30
0.0
 10
-159.8253
 20
157.0028
 30
0.0
 10
-156.423
 20
157.0464
 30
0.0
 10
-156.423
 20
157.0464
 30
0.0
 10
-156.423
 20
157.0464
 30
0.0
 10
-156.423
 20
157.0464
 30
0.0
 10
-156.4616
 20
160.0462
 30
0.0
 10
-156.4616
 20
160.0462
 30
0.0
 10
-156.4616
 20
160.0462
 30
0.0
 10
-156.4616
 20
160.0462
 30
0.0
 10
-159.8136
 20
160.0032
 30
0.0
 10
-159.8136
 20
160.0032
 30
0.0
 10
-159.8136
 20
160.0032
 30
0.0
 10
-159.8136
 20
160.0032
 30
0.0
 10
-159.7919
 20
165.575
 30
0.0
 10
-159.7919
 20
165.575
 30
0.0
 10
-159.7919
 20
165.575
 30
0.0
 10
-159.7919
 20
165.575
 30
0.0
 10
-156.514
 20
165.617
 30
0.0
 10
-156.514
 20
165.617
 30
0.0
 10
-156.514
 20
165.617
 30
0.0
 10
-156.514
 20
165.617
 30
0.0
 10
-156.5525
 20
168.6168
 30
0.0
 10
-156.5525
 20
168.6168
 30
0.0
 10
-156.5525
 20
168.6168
 30
0.0
 10
-156.5525
 20
168.6168
 30
0.0
 10
-159.7804
 20
168.5754
 30
0.0
 10
-159.7804
 20
168.5754
 30
0.0
 10
-159.7804
 20
168.5754
 30
0.0
 10
-159.7804
 20
168.5754
 30
0.0
 10
-159.7666
 20
172.1262
 30
0.0
 10
-159.7666
 20
172.1262
 30
0.0
 10
-159.7666
 20
172.1262
 30
0.0
 10
-159.7666
 20
172.1262
 30
0.0
 10
-165.6395
 20
172.0109
 30
0.0
 10
-165.6395
 20
172.0109
 30
0.0
 10
-165.6395
 20
172.0109
 30
0.0
 10
-165.6395
 20
172.0109
 30
0.0
 10
-165.7361
 20
181.112
 30
0.0
 10
-165.7361
 20
181.112
 30
0.0
  0
SPLINE
  5
4A
330
1F
100
AcDbEntity
  8
Capa 1
 62
     1
370
     0
100
AcDbSpline
210
0.0
220
0.0
230
1.0
 70
    11
 71
     3
 72
    72
 73
    68
 74
     0
 42
0.0000000001
 43
0.0000000001
 40
0.0
 40
0.0
 40
0.0
 40
0.0
 40
0.0588235294117647
 40
0.0588235294117647
 40
0.0588235294117647
 40
0.0588235294117647
 40
0.1176470588235294
 40
0.1176470588235294
 40
0.1176470588235294
 40
0.1176470588235294
 40
0.1764705882352941
 40
0.1764705882352941
 40
0.1764705882352941
 40
0.1764705882352941
 40
0.2352941176470588
 40
0.2352941176470588
 40
0.2352941176470588
 40
0.2352941176470588
 40
0.2941176470588235
 40
0.2941176470588235
 40
0.2941176470588235
 40
0.2941176470588235
 40
0.3529411764705883
 40
0.3529411764705883
 40
0.3529411764705883
 40
0.3529411764705883
 40
0.411764705882353
 40
0.411764705882353
 40
0.411764705882353
 40
0.411764705882353
 40
0.4705882352941177
 40
0.4705882352941177
 40
0.4705882352941177
 40
0.4705882352941177
 40
0.5294117647058824
 40
0.5294117647058824
 40
0.5294117647058824
 40
0.5294117647058824
 40
0.5882352941176471
 40
0.5882352941176471
 40
0.5882352941176471
 40
0.5882352941176471
 40
0.6470588235294118
 40
0.6470588235294118
 40
0.6470588235294118
 40
0.6470588235294118
 40
0.7058823529411765
 40
0.7058823529411765
 40
0.7058823529411765
 40
0.7058823529411765
 40
0.7647058823529412
 40
0.7647058823529412
 40
0.7647058823529412
 40
0.7647058823529412
 40
0.823529411764706
 40
0.823529411764706
 40
0.823529411764706
 40
0.823529411764706
 40
0.8823529411764707
 40
0.8823529411764707
 40
0.8823529411764707
 40
0.8823529411764707
 40
0.9411764705882354
 40
0.9411764705882354
 40
0.9411764705882354
 40
0.9411764705882354
 40
1.0
 40
1.0
 40
1.0
 40
1.0
 10
-208.422
 20
141.128
 30
0.0
 10
-208.422
 20
141.128
 30
0.0
 10
-204.4916
 20
141.1697
 30
0.0
 10
-204.4916
 20
141.1697
 30
0.0
 10
-204.4916
 20
141.1697
 30
0.0
 10
-204.4916
 20
141.1697
 30
0.0
 10
-204.3627
 20
129.0256
 30
0.0
 10
-204.3627
 20
129.0256
 30
0.0
 10
-204.3627
 20
129.0256
 30
0.0
 10
-204.3627
 20
129.0256
 30
0.0
 10
-201.3629
 20
129.0575
 30
0.0
 10
-201.3629
 20
129.0575
 30
0.0
 10
-201.3629
 20
129.0575
 30
0.0
 10
-201.3629
 20
129.0575
 30
0.0
 10
-201.4918
 20
141.2016
 30
0.0
 10
-201.4918
 20
141.2016
 30
0.0
 10
-201.4918
 20
141.2016
 30
0.0
 10
-201.4918
 20
141.2016
 30
0.0
 10
-197.8939
 20
141.2398
 30
0.0
 10
-197.8939
 20
141.2398
 30
0.0
 10
-197.8939
 20
141.2398
 30
0.0
 10
-195.4023
 20
140.3766
 30
0.0
 10
-197.0826
 20
133.8606
 30
0.0
 10
-194.3857
 20
133.8231
 30
0.0
 10
-194.3857
 20
133.8231
 30
0.0
 10
-194.3857
 20
133.8231
 30
0.0
 10
-175.736
 20
133.5635
 30
0.0
 10
-175.736
 20
133.5635
 30
0.0
 10
-175.736
 20
133.5635
 30
0.0
 10
-175.736
 20
133.5635
 30
0.0
 10
-155.8379
 20
134.222
 30
0.0
 10
-155.8379
 20
134.222
 30
0.0
 10
-155.8379
 20
134.222
 30
0.0
 10
-153.2069
 20
134.309
 30
0.0
 10
-155.6893
 20
140.8392
 30
0.0
 10
-153.2807
 20
141.7133
 30
0.0
 10
-153.2807
 20
141.7133
 30
0.0
 10
-153.2807
 20
141.7133
 30
0.0
 10
-149.7711
 20
141.7506
 30
0.0
 10
-149.7711
 20
141.7506
 30
0.0
 10
-149.7711
 20
141.7506
 30
0.0
 10
-149.7711
 20
141.7506
 30
0.0
 10
-149.6422
 20
129.6065
 30
0.0
 10
-149.6422
 20
129.6065
 30
0.0
 10
-149.6422
 20
129.6065
 30
0.0
 10
-149.6422
 20
129.6065
 30
0.0
 10
-146.6424
 20
129.6383
 30
0.0
 10
-146.6424
 20
129.6383
 30
0.0
 10
-146.6424
 20
129.6383
 30
0.0
 10
-146.6424
 20
129.6383
 30
0.0
 10
-146.7713
 20
141.7824
 30
0.0
 10
-146.7713
 20
141.7824
 30
0.0
 10
-146.7713
 20
141.7824
 30
0.0
 10
-146.7713
 20
141.7824
 30
0.0
 10
-143.218
 20
141.8201
 30
0.0
 10
-143.218
 20
141.8201
 30
0.0
 10
-143.218
 20
141.8201
 30
0.0
 10
-143.218
 20
141.8201
 30
0.0
 10
-142.9673
 20
118.2048
 30
0.0
 10
-142.9673
 20
118.2048
 30
0.0
 10
-142.9673
 20
118.2048
 30
0.0
 10
-142.9673
 20
118.2048
 30
0.0
 10
-208.1713
 20
117.5126
 30
0.0
 10
-208.1713
 20
117.5126
 30
0.0
 10
-208.1713
 20
117.5126
 30
0.0
 10
-208.1713
 20
117.5126
 30
0.0
 10
-208.422
 20
141.128
 30
0.0
 10
-208.422
 20
141.128
 30
0.0
  0
SPLINE
  5
4B
330
1F
100
AcDbEntity
  8
Capa 1
 62
     1
370
     0
100
AcDbSpline
210
0.0
220
0.0
230
1.0
 70
    11
 71
     3
 72
    20
 73
    16
 74
     0
 42
0.0000000001
 43
0.0000000001
 40
0.0
 40
0.0
 40
0.0
 40
0.0
 40
0.25
 40
0.25
 40
0.25
 40
0.25
 40
0.5
 40
0.5
 40
0.5
 40
0.5
 40
0.75
 40
0.75
 40
0.75
 40
0.75
 40
1.0
 40
1.0
 40
1.0
 40
1.0
 10
-165.7925
 20
124.4826
 30
0.0
 10
-165.7925
 20
124.4826
 30
0.0
 10
-156.7209
 20
124.6093
 30
0.0
 10
-156.7209
 20
124.6093
 30
0.0
 10
-156.7209
 20
124.6093
 30
0.0
 10
-156.7209
 20
124.6093
 30
0.0
 10
-156.6846
 20
121.6094
 30
0.0
 10
-156.6846
 20
121.6094
 30
0.0
 10
-156.6846
 20
121.6094
 30
0.0
 10
-156.6846
 20
121.6094
 30
0.0
 10
-165.7564
 20
121.4828
 30
0.0
 10
-165.7564
 20
121.4828
 30
0.0
 10
-165.7564
 20
121.4828
 30
0.0
 10
-165.7564
 20
121.4828
 30
0.0
 10
-165.7925
 20
124.4826
 30
0.0
 10
-165.7925
 20
124.4826
 30
0.0
  0
SPLINE
  5
4C
330
1F
100
AcDbEntity
  8
Capa 1
 62
     1
370
     0
100
AcDbSpline
210
0.0
220
0.0
230
1.0
 70
    11
 71
     3
 72
    20
 73
    16
 74
     0
 42
0.0000000001
 43
0.0000000001
 40
0.0
 40
0.0
 40
0.0
 40
0.0
 40
0.25
 40
0.25
 40
0.25
 40
0.25
 40
0.5
 40
0.5
 40
0.5
 40
0.5
 40
0.75
 40
0.75
 40
0.75
 40
0.75
 40
1.0
 40
1.0
 40
1.0
 40
1.0
 10
-194.5661
 20
124.1771
 30
0.0
 10
-194.5661
 20
124.1771
 30
0.0
 10
-185.4944
 20
124.3038
 30
0.0
 10
-185.4944
 20
124.3038
 30
0.0
 10
-185.4944
 20
124.3038
 30
0.0
 10
-185.4944
 20
124.3038
 30
0.0
 10
-185.4582
 20
121.3039
 30
0.0
 10
-185.4582
 20
121.3039
 30
0.0
 10
-185.4582
 20
121.3039
 30
0.0
 10
-185.4582
 20
121.3039
 30
0.0
 10
-194.53
 20
121.1773
 30
0.0
 10
-194.53
 20
121.1773
 30
0.0
 10
-194.53
 20
121.1773
 30
0.0
 10
-194.53
 20
121.1773
 30
0.0
 10
-194.5661
 20
124.1771
 30
0.0
 10
-194.5661
 20
124.1771
 30
0.0
  0
SPLINE
  5
4D
330
1F
100
AcDbEntity
  8
Capa 1
 62
     1
370
     0
100
AcDbSpline
210
0.0
220
0.0
230
1.0
 70
    11
 71
     3
 72
    20
 73
    16
 74
     0
 42
0.0000000001
 43
0.0000000001
 40
0.0
 40
0.0
 40
0.0
 40
0.0
 40
0.25
 40
0.25
 40
0.25
 40
0.25
 40
0.5
 40
0.5
 40
0.5
 40
0.5
 40
0.75
 40
0.75
 40
0.75
 40
0.75
 40
1.0
 40
1.0
 40
1.0
 40
1.0
 10
-193.738
 20
130.9597
 30
0.0
 10
-193.738
 20
130.9597
 30
0.0
 10
-184.6664
 20
131.0864
 30
0.0
 10
-184.6664
 20
131.0864
 30
0.0
 10
-184.6664
 20
131.0864
 30
0.0
 10
-184.6664
 20
131.0864
 30
0.0
 10
-184.6301
 20
128.0865
 30
0.0
 10
-184.6301
 20
128.0865
 30
0.0
 10
-184.6301
 20
128.0865
 30
0.0
 10
-184.6301
 20
128.0865
 30
0.0
 10
-193.7018
 20
127.9599
 30
0.0
 10
-193.7018
 20
127.9599
 30
0.0
 10
-193.7018
 20
127.9599
 30
0.0
 10
-193.7018
 20
127.9599
 30
0.0
 10
-193.738
 20
130.9597
 30
0.0
 10
-193.738
 20
130.9597
 30
0.0
  0
SPLINE
  5
4E
330
1F
100
AcDbEntity
  8
Capa 1
 62
     1
370
     0
100
AcDbSpline
210
0.0
220
0.0
230
1.0
 70
    11
 71
     3
 72
    20
 73
    16
 74
     0
 42
0.0000000001
 43
0.0000000001
 40
0.0
 40
0.0
 40
0.0
 40
0.0
 40
0.25
 40
0.25
 40
0.25
 40
0.25
 40
0.5
 40
0.5
 40
0.5
 40
0.5
 40
0.75
 40
0.75
 40
0.75
 40
0.75
 40
1.0
 40
1.0
 40
1.0
 40
1.0
 10
-166.7644
 20
131.246
 30
0.0
 10
-166.7644
 20
131.246
 30
0.0
 10
-157.6927
 20
131.3727
 30
0.0
 10
-157.6927
 20
131.3727
 30
0.0
 10
-157.6927
 20
131.3727
 30
0.0
 10
-157.6927
 20
131.3727
 30
0.0
 10
-157.6565
 20
128.3728
 30
0.0
 10
-157.6565
 20
128.3728
 30
0.0
 10
-157.6565
 20
128.3728
 30
0.0
 10
-157.6565
 20
128.3728
 30
0.0
 10
-166.7282
 20
128.2462
 30
0.0
 10
-166.7282
 20
128.2462
 30
0.0
 10
-166.7282
 20
128.2462
 30
0.0
 10
-166.7282
 20
128.2462
 30
0.0
 10
-166.7644
 20
131.246
 30
0.0
 10
-166.7644
 20
131.246
 30
0.0
  0
SPLINE
  5
4F
330
1F
100
AcDbEntity
  8
Capa 1
 62
     1
370
     0
100
AcDbSpline
210
0.0
220
0.0
230
1.0
 70
    11
 71
     3
 72
   200
 73
   196
 74
     0
 42
0.0000000001
 43
0.0000000001
 40
0.0
 40
0.0
 40
0.0
 40
0.0
 40
0.0204081632653061
 40
0.0204081632653061
 40
0.0204081632653061
 40
0.0204081632653061
 40
0.0408163265306122
 40
0.0408163265306122
 40
0.0408163265306122
 40
0.0408163265306122
 40
0.0612244897959184
 40
0.0612244897959184
 40
0.0612244897959184
 40
0.0612244897959184
 40
0.0816326530612245
 40
0.0816326530612245
 40
0.0816326530612245
 40
0.0816326530612245
 40
0.1020408163265306
 40
0.1020408163265306
 40
0.1020408163265306
 40
0.1020408163265306
 40
0.1224489795918367
 40
0.1224489795918367
 40
0.1224489795918367
 40
0.1224489795918367
 40
0.1428571428571429
 40
0.1428571428571429
 40
0.1428571428571429
 40
0.1428571428571429
 40
0.163265306122449
 40
0.163265306122449
 40
0.163265306122449
 40
0.163265306122449
 40
0.1836734693877551
 40
0.1836734693877551
 40
0.1836734693877551
 40
0.1836734693877551
 40
0.2040816326530612
 40
0.2040816326530612
 40
0.2040816326530612
 40
0.2040816326530612
 40
0.2244897959183673
 40
0.2244897959183673
 40
0.2244897959183673
 40
0.2244897959183673
 40
0.2448979591836734
 40
0.2448979591836734
 40
0.2448979591836734
 40
0.2448979591836734
 40
0.2653061224489796
 40
0.2653061224489796
 40
0.2653061224489796
 40
0.2653061224489796
 40
0.2857142857142857
 40
0.2857142857142857
 40
0.2857142857142857
 40
0.2857142857142857
 40
0.3061224489795918
 40
0.3061224489795918
 40
0.3061224489795918
 40
0.3061224489795918
 40
0.326530612244898
 40
0.326530612244898
 40
0.326530612244898
 40
0.326530612244898
 40
0.3469387755102041
 40
0.3469387755102041
 40
0.3469387755102041
 40
0.3469387755102041
 40
0.3673469387755103
 40
0.3673469387755103
 40
0.3673469387755103
 40
0.3673469387755103
 40
0.3877551020408164
 40
0.3877551020408164
 40
0.3877551020408164
 40
0.3877551020408164
 40
0.4081632653061226
 40
0.4081632653061226
 40
0.4081632653061226
 40
0.4081632653061226
 40
0.4285714285714287
 40
0.4285714285714287
 40
0.4285714285714287
 40
0.4285714285714287
 40
0.4489795918367349
 40
0.4489795918367349
 40
0.4489795918367349
 40
0.4489795918367349
 40
0.469387755102041
 40
0.469387755102041
 40
0.469387755102041
 40
0.469387755102041
 40
0.4897959183673472
 40
0.4897959183673472
 40
0.4897959183673472
 40
0.4897959183673472
 40
0.5102040816326533
 40
0.5102040816326533
 40
0.5102040816326533
 40
0.5102040816326533
 40
0.5306122448979594
 40
0.5306122448979594
 40
0.5306122448979594
 40
0.5306122448979594
 40
0.5510204081632656
 40
0.5510204081632656
 40
0.5510204081632656
 40
0.5510204081632656
 40
0.5714285714285717
 40
0.5714285714285717
 40
0.5714285714285717
 40
0.5714285714285717
 40
0.5918367346938779
 40
0.5918367346938779
 40
0.5918367346938779
 40
0.5918367346938779
 40
0.612244897959184
 40
0.612244897959184
 40
0.612244897959184
 40
0.612244897959184
 40
0.6326530612244902
 40
0.6326530612244902
 40
0.6326530612244902
 40
0.6326530612244902
 40
0.6530612244897963
 40
0.6530612244897963
 40
0.6530612244897963
 40
0.6530612244897963
 40
0.6734693877551025
 40
0.6734693877551025
 40
0.6734693877551025
 40
0.6734693877551025
 40
0.6938775510204086
 40
0.6938775510204086
 40
0.6938775510204086
 40
0.6938775510204086
 40
0.7142857142857148
 40
0.7142857142857148
 40
0.7142857142857148
 40
0.7142857142857148
 40
0.7346938775510209
 40
0.7346938775510209
 40
0.7346938775510209
 40
0.7346938775510209
 40
0.755102040816327
 40
0.755102040816327
 40
0.755102040816327
 40
0.755102040816327
 40
0.7755102040816332
 40
0.7755102040816332
 40
0.7755102040816332
 40
0.7755102040816332
 40
0.7959183673469393
 40
0.7959183673469393
 40
0.7959183673469393
 40
0.7959183673469393
 40
0.8163265306122455
 40
0.8163265306122455
 40
0.8163265306122455
 40
0.8163265306122455
 40
0.8367346938775516
 40
0.8367346938775516
 40
0.8367346938775516
 40
0.8367346938775516
 40
0.8571428571428578
 40
0.8571428571428578
 40
0.8571428571428578
 40
0.8571428571428578
 40
0.8775510204081639
 40
0.8775510204081639
 40
0.8775510204081639
 40
0.8775510204081639
 40
0.8979591836734701
 40
0.8979591836734701
 40
0.8979591836734701
 40
0.8979591836734701
 40
0.9183673469387762
 40
0.9183673469387762
 40
0.9183673469387762
 40
0.9183673469387762
 40
0.9387755102040823
 40
0.9387755102040823
 40
0.9387755102040823
 40
0.9387755102040823
 40
0.9591836734693885
 40
0.9591836734693885
 40
0.9591836734693885
 40
0.9591836734693885
 40
0.9795918367346946
 40
0.9795918367346946
 40
0.9795918367346946
 40
0.9795918367346946
 40
1.0
 40
1.0
 40
1.0
 40
1.0
 10
-2.1102
 20
118.7572
 30
0.0
 10
-2.1102
 20
118.7572
 30
0.0
 10
12.7336
 20
118.7572
 30
0.0
 10
12.7336
 20
118.7572
 30
0.0
 10
12.7336
 20
118.7572
 30
0.0
 10
12.7336
 20
118.7572
 30
0.0
 10
13.7648
 20
118.7572
 30
0.0
 10
13.7648
 20
118.7572
 30
0.0
 10
13.7648
 20
118.7572
 30
0.0
 10
13.7648
 20
118.7572
 30
0.0
 10
28.6086
 20
118.7572
 30
0.0
 10
28.6086
 20
118.7572
 30
0.0
 10
28.6086
 20
118.7572
 30
0.0
 10
28.6086
 20
118.7572
 30
0.0
 10
28.3967
 20
168.8686
 30
0.0
 10
28.3967
 20
168.8686
 30
0.0
 10
28.3967
 20
168.8686
 30
0.0
 10
28.3967
 20
168.8686
 30
0.0
 10
28.4205
 20
168.8686
 30
0.0
 10
28.4205
 20
168.8686
 30
0.0
 10
28.4205
 20
168.8686
 30
0.0
 10
28.4205
 20
168.8686
 30
0.0
 10
25.1383
 20
206.6247
 30
0.0
 10
25.1383
 20
206.6247
 30
0.0
 10
25.1383
 20
206.6247
 30
0.0
 10
25.1383
 20
206.6247
 30
0.0
 10
28.1436
 20
206.6963
 30
0.0
 10
28.1436
 20
206.6963
 30
0.0
 10
28.1436
 20
206.6963
 30
0.0
 10
28.1436
 20
206.6963
 30
0.0
 10
31.4319
 20
168.8686
 30
0.0
 10
31.4319
 20
168.8686
 30
0.0
 10
31.4319
 20
168.8686
 30
0.0
 10
31.4319
 20
168.8686
 30
0.0
 10
44.6953
 20
168.8686
 30
0.0
 10
44.6953
 20
168.8686
 30
0.0
 10
44.6953
 20
168.8686
 30
0.0
 10
44.6953
 20
168.8686
 30
0.0
 10
50.0928
 20
187.1778
 30
0.0
 10
50.0928
 20
187.1778
 30
0.0
 10
50.0928
 20
187.1778
 30
0.0
 10
50.0928
 20
187.1778
 30
0.0
 10
53.1621
 20
221.0447
 30
0.0
 10
53.1621
 20
221.0447
 30
0.0
 10
53.1621
 20
221.0447
 30
0.0
 10
53.1092
 20
222.6322
 30
0.0
 10
49.8813
 20
223.7435
 30
0.0
 10
49.8813
 20
223.7435
 30
0.0
 10
49.8813
 20
223.7435
 30
0.0
 10
49.8813
 20
223.7435
 30
0.0
 10
41.6792
 20
226.4952
 30
0.0
 10
37.4988
 20
228.3473
 30
0.0
 10
37.4988
 20
228.3473
 30
0.0
 10
33.3184
 20
230.1994
 30
0.0
 10
33.1067
 20
234.9619
 30
0.0
 10
33.1067
 20
234.9619
 30
0.0
 10
33.1067
 20
234.9619
 30
0.0
 10
33.1067
 20
234.9619
 30
0.0
 10
29.4028
 20
259.9915
 30
0.0
 10
29.4028
 20
259.9915
 30
0.0
 10
29.4028
 20
259.9915
 30
0.0
 10
29.4028
 20
259.9915
 30
0.0
 10
50.7282
 20
264.5952
 30
0.0
 10
50.7282
 20
264.5952
 30
0.0
 10
50.7282
 20
264.5952
 30
0.0
 10
50.7282
 20
264.5952
 30
0.0
 10
50.7282
 20
268.3817
 30
0.0
 10
50.7282
 20
268.3817
 30
0.0
 10
50.7282
 20
268.3817
 30
0.0
 10
50.7282
 20
268.3817
 30
0.0
 10
38.2531
 20
268.3817
 30
0.0
 10
38.2531
 20
268.3817
 30
0.0
 10
38.2531
 20
268.3817
 30
0.0
 10
38.2531
 20
268.3817
 30
0.0
 10
38.2531
 20
271.3817
 30
0.0
 10
38.2531
 20
271.3817
 30
0.0
 10
38.2531
 20
271.3817
 30
0.0
 10
38.2531
 20
271.3817
 30
0.0
 10
50.7282
 20
271.3817
 30
0.0
 10
50.7282
 20
271.3817
 30
0.0
 10
50.7282
 20
271.3817
 30
0.0
 10
50.7282
 20
271.3817
 30
0.0
 10
50.7282
 20
276.7661
 30
0.0
 10
50.7282
 20
276.7661
 30
0.0
 10
50.7282
 20
276.7661
 30
0.0
 10
50.7282
 20
276.7661
 30
0.0
 10
26.069
 20
280.3644
 30
0.0
 10
26.069
 20
280.3644
 30
0.0
 10
26.069
 20
280.3644
 30
0.0
 10
26.069
 20
280.3644
 30
0.0
 10
19.4012
 20
329.2596
 30
0.0
 10
19.4012
 20
329.2596
 30
0.0
 10
19.4012
 20
329.2596
 30
0.0
 10
18.3719
 20
331.6992
 30
0.0
 10
15.3657
 20
332.3265
 30
0.0
 10
13.7648
 20
332.4865
 30
0.0
 10
13.7648
 20
332.4865
 30
0.0
 10
13.7648
 20
332.4865
 30
0.0
 10
13.7648
 20
332.5405
 30
0.0
 10
13.7648
 20
332.5405
 30
0.0
 10
13.7648
 20
332.5405
 30
0.0
 10
13.7648
 20
332.5405
 30
0.0
 10
13.5713
 20
332.5443
 30
0.0
 10
13.2492
 20
332.5266
 30
0.0
 10
13.2492
 20
332.5266
 30
0.0
 10
12.9271
 20
332.5443
 30
0.0
 10
12.7336
 20
332.5405
 30
0.0
 10
12.7336
 20
332.5405
 30
0.0
 10
12.7336
 20
332.5405
 30
0.0
 10
12.7336
 20
332.5405
 30
0.0
 10
12.7336
 20
332.4865
 30
0.0
 10
12.7336
 20
332.4865
 30
0.0
 10
12.7336
 20
332.4865
 30
0.0
 10
11.1327
 20
332.3265
 30
0.0
 10
8.1265
 20
331.6992
 30
0.0
 10
7.0972
 20
329.2596
 30
0.0
 10
7.0972
 20
329.2596
 30
0.0
 10
7.0972
 20
329.2596
 30
0.0
 10
0.4294
 20
280.3644
 30
0.0
 10
0.4294
 20
280.3644
 30
0.0
 10
0.4294
 20
280.3644
 30
0.0
 10
0.4294
 20
280.3644
 30
0.0
 10
-24.2298
 20
276.7661
 30
0.0
 10
-24.2298
 20
276.7661
 30
0.0
 10
-24.2298
 20
276.7661
 30
0.0
 10
-24.2298
 20
276.7661
 30
0.0
 10
-24.2298
 20
271.3818
 30
0.0
 10
-24.2298
 20
271.3818
 30
0.0
 10
-24.2298
 20
271.3818
 30
0.0
 10
-24.2298
 20
271.3818
 30
0.0
 10
-11.859
 20
271.3817
 30
0.0
 10
-11.859
 20
271.3817
 30
0.0
 10
-11.859
 20
271.3817
 30
0.0
 10
-11.859
 20
271.3817
 30
0.0
 10
-11.859
 20
268.3817
 30
0.0
 10
-11.859
 20
268.3817
 30
0.0
 10
-11.859
 20
268.3817
 30
0.0
 10
-11.859
 20
268.3817
 30
0.0
 10
-24.2298
 20
268.3817
 30
0.0
 10
-24.2298
 20
268.3817
 30
0.0
 10
-24.2298
 20
268.3817
 30
0.0
 10
-24.2298
 20
268.3817
 30
0.0
 10
-24.2298
 20
264.5952
 30
0.0
 10
-24.2298
 20
264.5952
 30
0.0
 10
-24.2298
 20
264.5952
 30
0.0
 10
-24.2298
 20
264.5952
 30
0.0
 10
-2.9044
 20
259.9915
 30
0.0
 10
-2.9044
 20
259.9915
 30
0.0
 10
-2.9044
 20
259.9915
 30
0.0
 10
-2.9044
 20
259.9915
 30
0.0
 10
-6.608300000000001
 20
234.9619
 30
0.0
 10
-6.608300000000001
 20
234.9619
 30
0.0
 10
-6.608300000000001
 20
234.9619
 30
0.0
 10
-6.608300000000001
 20
234.9619
 30
0.0
 10
-6.82
 20
230.1994
 30
0.0
 10
-11.0004
 20
228.3473
 30
0.0
 10
-11.0004
 20
228.3473
 30
0.0
 10
-15.1808
 20
226.4952
 30
0.0
 10
-23.3829
 20
223.7435
 30
0.0
 10
-23.3829
 20
223.7435
 30
0.0
 10
-23.3829
 20
223.7435
 30
0.0
 10
-23.3829
 20
223.7435
 30
0.0
 10
-26.6108
 20
222.6322
 30
0.0
 10
-26.6637
 20
221.0447
 30
0.0
 10
-26.6637
 20
221.0447
 30
0.0
 10
-26.6637
 20
221.0447
 30
0.0
 10
-23.5944
 20
187.1778
 30
0.0
 10
-23.5944
 20
187.1778
 30
0.0
 10
-23.5944
 20
187.1778
 30
0.0
 10
-23.5944
 20
187.1778
 30
0.0
 10
-18.1969
 20
168.8686
 30
0.0
 10
-18.1969
 20
168.8686
 30
0.0
 10
-18.1969
 20
168.8686
 30
0.0
 10
-18.1969
 20
168.8686
 30
0.0
 10
-4.91
 20
168.8686
 30
0.0
 10
-4.91
 20
168.8686
 30
0.0
 10
-4.91
 20
168.8686
 30
0.0
 10
-4.91
 20
168.8686
 30
0.0
 10
-1.6216
 20
206.6963
 30
0.0
 10
-1.6216
 20
206.6963
 30
0.0
 10
-1.6216
 20
206.6963
 30
0.0
 10
-1.6216
 20
206.6963
 30
0.0
 10
1.3837
 20
206.6247
 30
0.0
 10
1.3837
 20
206.6247
 30
0.0
 10
1.3837
 20
206.6247
 30
0.0
 10
1.3837
 20
206.6247
 30
0.0
 10
-1.8984
 20
168.8686
 30
0.0
 10
-1.8984
 20
168.8686
 30
0.0
 10
-1.8984
 20
168.8686
 30
0.0
 10
-1.8984
 20
168.8686
 30
0.0
 10
-1.8983
 20
168.8686
 30
0.0
 10
-1.8983
 20
168.8686
 30
0.0
 10
-1.8983
 20
168.8686
 30
0.0
 10
-1.8983
 20
168.8686
 30
0.0
 10
-2.1102
 20
118.7572
 30
0.0
 10
-2.1102
 20
118.7572
 30
0.0
  0
SPLINE
  5
50
330
1F
100
AcDbEntity
  8
Capa 1
 62
     1
370
     0
100
AcDbSpline
210
0.0
220
0.0
230
1.0
 70
    11
 71
     3
 72
    20
 73
    16
 74
     0
 42
0.0000000001
 43
0.0000000001
 40
0.0
 40
0.0
 40
0.0
 40
0.0
 40
0.25
 40
0.25
 40
0.25
 40
0.25
 40
0.5
 40
0.5
 40
0.5
 40
0.5
 40
0.75
 40
0.75
 40
0.75
 40
0.75
 40
1.0
 40
1.0
 40
1.0
 40
1.0
 10
12.4159
 20
133.6879
 30
0.0
 10
12.4159
 20
133.6879
 30
0.0
 10
23.2103
 20
133.6879
 30
0.0
 10
23.2103
 20
133.6879
 30
0.0
 10
23.2103
 20
133.6879
 30
0.0
 10
23.2103
 20
133.6879
 30
0.0
 10
23.2103
 20
130.6879
 30
0.0
 10
23.2103
 20
130.6879
 30
0.0
 10
23.2103
 20
130.6879
 30
0.0
 10
23.2103
 20
130.6879
 30
0.0
 10
12.4159
 20
130.6879
 30
0.0
 10
12.4159
 20
130.6879
 30
0.0
 10
12.4159
 20
130.6879
 30
0.0
 10
12.4159
 20
130.6879
 30
0.0
 10
12.4159
 20
133.6879
 30
0.0
 10
12.4159
 20
133.6879
 30
0.0
  0
SPLINE
  5
51
330
1F
100
AcDbEntity
  8
Capa 1
 62
     1
370
     0
100
AcDbSpline
210
0.0
220
0.0
230
1.0
 70
    11
 71
     3
 72
    20
 73
    16
 74
     0
 42
0.0000000001
 43
0.0000000001
 40
0.0
 40
0.0
 40
0.0
 40
0.0
 40
0.25
 40
0.25
 40
0.25
 40
0.25
 40
0.5
 40
0.5
 40
0.5
 40
0.5
 40
0.75
 40
0.75
 40
0.75
 40
0.75
 40
1.0
 40
1.0
 40
1.0
 40
1.0
 10
12.4159
 20
164.343
 30
0.0
 10
12.4159
 20
164.343
 30
0.0
 10
23.2103
 20
164.343
 30
0.0
 10
23.2103
 20
164.343
 30
0.0
 10
23.2103
 20
164.343
 30
0.0
 10
23.2103
 20
164.343
 30
0.0
 10
23.2103
 20
161.343
 30
0.0
 10
23.2103
 20
161.343
 30
0.0
 10
23.2103
 20
161.343
 30
0.0
 10
23.2103
 20
161.343
 30
0.0
 10
12.4159
 20
161.343
 30
0.0
 10
12.4159
 20
161.343
 30
0.0
 10
12.4159
 20
161.343
 30
0.0
 10
12.4159
 20
161.343
 30
0.0
 10
12.4159
 20
164.343
 30
0.0
 10
12.4159
 20
164.343
 30
0.0
  0
SPLINE
  5
52
330
1F
100
AcDbEntity
  8
Capa 1
 62
     1
370
     0
100
AcDbSpline
210
0.0
220
0.0
230
1.0
 70
    11
 71
     3
 72
    20
 73
    16
 74
     0
 42
0.0000000001
 43
0.0000000001
 40
0.0
 40
0.0
 40
0.0
 40
0.0
 40
0.25
 40
0.25
 40
0.25
 40
0.25
 40
0.5
 40
0.5
 40
0.5
 40
0.5
 40
0.75
 40
0.75
 40
0.75
 40
0.75
 40
1.0
 40
1.0
 40
1.0
 40
1.0
 10
14.6652
 20
148.6634
 30
0.0
 10
14.6652
 20
148.6634
 30
0.0
 10
24.3745
 20
148.6633
 30
0.0
 10
24.3745
 20
148.6633
 30
0.0
 10
24.3745
 20
148.6633
 30
0.0
 10
24.3745
 20
148.6633
 30
0.0
 10
24.3745
 20
145.6633
 30
0.0
 10
24.3745
 20
145.6633
 30
0.0
 10
24.3745
 20
145.6633
 30
0.0
 10
24.3745
 20
145.6633
 30
0.0
 10
14.6653
 20
145.6633
 30
0.0
 10
14.6653
 20
145.6633
 30
0.0
 10
14.6653
 20
145.6633
 30
0.0
 10
14.6653
 20
145.6633
 30
0.0
 10
14.6652
 20
148.6634
 30
0.0
 10
14.6652
 20
148.6634
 30
0.0
  0
SPLINE
  5
53
330
1F
100
AcDbEntity
  8
Capa 1
 62
     1
370
     0
100
AcDbSpline
210
0.0
220
0.0
230
1.0
 70
    11
 71
     3
 72
    20
 73
    16
 74
     0
 42
0.0000000001
 43
0.0000000001
 40
0.0
 40
0.0
 40
0.0
 40
0.0
 40
0.25
 40
0.25
 40
0.25
 40
0.25
 40
0.5
 40
0.5
 40
0.5
 40
0.5
 40
0.75
 40
0.75
 40
0.75
 40
0.75
 40
1.0
 40
1.0
 40
1.0
 40
1.0
 10
-18.4035
 20
190.2636
 30
0.0
 10
-18.4035
 20
190.2636
 30
0.0
 10
-19.8397
 20
203.2633
 30
0.0
 10
-19.8397
 20
203.2633
 30
0.0
 10
-19.8397
 20
203.2633
 30
0.0
 10
-19.8397
 20
203.2633
 30
0.0
 10
-16.8617
 20
203.6292
 30
0.0
 10
-16.8617
 20
203.6292
 30
0.0
 10
-16.8617
 20
203.6292
 30
0.0
 10
-16.8617
 20
203.6292
 30
0.0
 10
-15.4255
 20
190.6295
 30
0.0
 10
-15.4255
 20
190.6295
 30
0.0
 10
-15.4255
 20
190.6295
 30
0.0
 10
-15.4255
 20
190.6295
 30
0.0
 10
-18.4035
 20
190.2636
 30
0.0
 10
-18.4035
 20
190.2636
 30
0.0
  0
SPLINE
  5
54
330
1F
100
AcDbEntity
  8
Capa 1
 62
     1
370
     0
100
AcDbSpline
210
0.0
220
0.0
230
1.0
 70
    11
 71
     3
 72
    20
 73
    16
 74
     0
 42
0.0000000001
 43
0.0000000001
 40
0.0
 40
0.0
 40
0.0
 40
0.0
 40
0.25
 40
0.25
 40
0.25
 40
0.25
 40
0.5
 40
0.5
 40
0.5
 40
0.5
 40
0.75
 40
0.75
 40
0.75
 40
0.75
 40
1.0
 40
1.0
 40
1.0
 40
1.0
 10
45.7582
 20
190.2636
 30
0.0
 10
45.7582
 20
190.2636
 30
0.0
 10
47.1944
 20
203.2633
 30
0.0
 10
47.1944
 20
203.2633
 30
0.0
 10
47.1944
 20
203.2633
 30
0.0
 10
47.1944
 20
203.2633
 30
0.0
 10
44.2164
 20
203.6292
 30
0.0
 10
44.2164
 20
203.6292
 30
0.0
 10
44.2164
 20
203.6292
 30
0.0
 10
44.2164
 20
203.6292
 30
0.0
 10
42.7802
 20
190.6295
 30
0.0
 10
42.7802
 20
190.6295
 30
0.0
 10
42.7802
 20
190.6295
 30
0.0
 10
42.7802
 20
190.6295
 30
0.0
 10
45.7582
 20
190.2636
 30
0.0
 10
45.7582
 20
190.2636
 30
0.0
  0
SPLINE
  5
55
330
1F
100
AcDbEntity
  8
Capa 1
 62
     1
370
     0
100
AcDbSpline
210
0.0
220
0.0
230
1.0
 70
    11
 71
     3
 72
    20
 73
    16
 74
     0
 42
0.0000000001
 43
0.0000000001
 40
0.0
 40
0.0
 40
0.0
 40
0.0
 40
0.25
 40
0.25
 40
0.25
 40
0.25
 40
0.5
 40
0.5
 40
0.5
 40
0.5
 40
0.75
 40
0.75
 40
0.75
 40
0.75
 40
1.0
 40
1.0
 40
1.0
 40
1.0
 10
27.1797
 20
225.0267
 30
0.0
 10
27.1797
 20
225.0267
 30
0.0
 10
36.73130000000001
 20
225.0267
 30
0.0
 10
36.73130000000001
 20
225.0267
 30
0.0
 10
36.73130000000001
 20
225.0267
 30
0.0
 10
36.73130000000001
 20
225.0267
 30
0.0
 10
36.73130000000001
 20
222.0267
 30
0.0
 10
36.73130000000001
 20
222.0267
 30
0.0
 10
36.73130000000001
 20
222.0267
 30
0.0
 10
36.73130000000001
 20
222.0267
 30
0.0
 10
27.1797
 20
222.0267
 30
0.0
 10
27.1797
 20
222.0267
 30
0.0
 10
27.1797
 20
222.0267
 30
0.0
 10
27.1797
 20
222.0267
 30
0.0
 10
27.1797
 20
225.0267
 30
0.0
 10
27.1797
 20
225.0267
 30
0.0
  0
SPLINE
  5
56
330
1F
100
AcDbEntity
  8
Capa 1
 62
     1
370
     0
100
AcDbSpline
210
0.0
220
0.0
230
1.0
 70
    11
 71
     3
 72
    20
 73
    16
 74
     0
 42
0.0000000001
 43
0.0000000001
 40
0.0
 40
0.0
 40
0.0
 40
0.0
 40
0.25
 40
0.25
 40
0.25
 40
0.25
 40
0.5
 40
0.5
 40
0.5
 40
0.5
 40
0.75
 40
0.75
 40
0.75
 40
0.75
 40
1.0
 40
1.0
 40
1.0
 40
1.0
 10
-10.3373
 20
225.0268
 30
0.0
 10
-10.3373
 20
225.0268
 30
0.0
 10
-0.628
 20
225.0267
 30
0.0
 10
-0.628
 20
225.0267
 30
0.0
 10
-0.628
 20
225.0267
 30
0.0
 10
-0.628
 20
225.0267
 30
0.0
 10
-0.628
 20
222.0267
 30
0.0
 10
-0.628
 20
222.0267
 30
0.0
 10
-0.628
 20
222.0267
 30
0.0
 10
-0.628
 20
222.0267
 30
0.0
 10
-10.3372
 20
222.0267
 30
0.0
 10
-10.3372
 20
222.0267
 30
0.0
 10
-10.3372
 20
222.0267
 30
0.0
 10
-10.3372
 20
222.0267
 30
0.0
 10
-10.3373
 20
225.0268
 30
0.0
 10
-10.3373
 20
225.0268
 30
0.0
  0
SPLINE
  5
57
330
1F
100
AcDbEntity
  8
Capa 1
 62
     1
370
     0
100
AcDbSpline
210
0.0
220
0.0
230
1.0
 70
    11
 71
     3
 72
    84
 73
    80
 74
     0
 42
0.0000000001
 43
0.0000000001
 40
0.0
 40
0.0
 40
0.0
 40
0.0
 40
0.05
 40
0.05
 40
0.05
 40
0.05
 40
0.1
 40
0.1
 40
0.1
 40
0.1
 40
0.15
 40
0.15
 40
0.15
 40
0.15
 40
0.2
 40
0.2
 40
0.2
 40
0.2
 40
0.25
 40
0.25
 40
0.25
 40
0.25
 40
0.3
 40
0.3
 40
0.3
 40
0.3
 40
0.35
 40
0.35
 40
0.35
 40
0.35
 40
0.4
 40
0.4
 40
0.4
 40
0.4
 40
0.45
 40
0.45
 40
0.45
 40
0.45
 40
0.4999999999999999
 40
0.4999999999999999
 40
0.4999999999999999
 40
0.4999999999999999
 40
0.5499999999999999
 40
0.5499999999999999
 40
0.5499999999999999
 40
0.5499999999999999
 40
0.6
 40
0.6
 40
0.6
 40
0.6
 40
0.65
 40
0.65
 40
0.65
 40
0.65
 40
0.7000000000000001
 40
0.7000000000000001
 40
0.7000000000000001
 40
0.7000000000000001
 40
0.7500000000000001
 40
0.7500000000000001
 40
0.7500000000000001
 40
0.7500000000000001
 40
0.8000000000000002
 40
0.8000000000000002
 40
0.8000000000000002
 40
0.8000000000000002
 40
0.8500000000000002
 40
0.8500000000000002
 40
0.8500000000000002
 40
0.8500000000000002
 40
0.9000000000000002
 40
0.9000000000000002
 40
0.9000000000000002
 40
0.9000000000000002
 40
0.9500000000000003
 40
0.9500000000000003
 40
0.9500000000000003
 40
0.9500000000000003
 40
1.0
 40
1.0
 40
1.0
 40
1.0
 10
137.414
 20
259.0582
 30
0.0
 10
140.9477
 20
262.4809
 30
0.0
 10
142.8962
 20
266.9231
 30
0.0
 10
143.2477
 20
271.4704
 30
0.0
 10
143.2477
 20
271.4704
 30
0.0
 10
143.2477
 20
271.4704
 30
0.0
 10
137.5505
 20
271.4736
 30
0.0
 10
137.5505
 20
271.4736
 30
0.0
 10
137.5505
 20
271.4736
 30
0.0
 10
137.5505
 20
271.4736
 30
0.0
 10
137.5522
 20
274.4736
 30
0.0
 10
137.5522
 20
274.4736
 30
0.0
 10
137.5522
 20
274.4736
 30
0.0
 10
137.5522
 20
274.4736
 30
0.0
 10
143.2487
 20
274.4704
 30
0.0
 10
143.2487
 20
274.4704
 30
0.0
 10
143.2487
 20
274.4704
 30
0.0
 10
142.9139
 20
278.814
 30
0.0
 10
141.119
 20
283.0707
 30
0.0
 10
137.8512
 20
286.4446
 30
0.0
 10
137.8512
 20
286.4446
 30
0.0
 10
134.4459
 20
289.9604
 30
0.0
 10
130.0313
 20
291.9074
 30
0.0
 10
125.5081
 20
292.2729
 30
0.0
 10
125.5081
 20
292.2729
 30
0.0
 10
125.5081
 20
292.2729
 30
0.0
 10
125.5113
 20
286.5146
 30
0.0
 10
125.5113
 20
286.5146
 30
0.0
 10
125.5113
 20
286.5146
 30
0.0
 10
125.5113
 20
286.5146
 30
0.0
 10
122.5112
 20
286.5128
 30
0.0
 10
122.5112
 20
286.5128
 30
0.0
 10
122.5112
 20
286.5128
 30
0.0
 10
122.5112
 20
286.5128
 30
0.0
 10
122.508
 20
292.2839
 30
0.0
 10
122.508
 20
292.2839
 30
0.0
 10
122.508
 20
292.2839
 30
0.0
 10
118.1405
 20
291.9625
 30
0.0
 10
113.8566
 20
290.1669
 30
0.0
 10
110.4649
 20
286.8818
 30
0.0
 10
110.4649
 20
286.8818
 30
0.0
 10
106.9315
 20
283.4593
 30
0.0
 10
104.9829
 20
279.0174
 30
0.0
 10
104.6314
 20
274.4704
 30
0.0
 10
104.6314
 20
274.4704
 30
0.0
 10
104.6314
 20
274.4704
 30
0.0
 10
110.4631
 20
274.4736
 30
0.0
 10
110.4631
 20
274.4736
 30
0.0
 10
110.4631
 20
274.4736
 30
0.0
 10
110.4631
 20
274.4736
 30
0.0
 10
110.4649
 20
271.4735
 30
0.0
 10
110.4649
 20
271.4735
 30
0.0
 10
110.4649
 20
271.4735
 30
0.0
 10
110.4649
 20
271.4735
 30
0.0
 10
104.6302
 20
271.4703
 30
0.0
 10
104.6302
 20
271.4703
 30
0.0
 10
104.6302
 20
271.4703
 30
0.0
 10
104.9651
 20
267.1264
 30
0.0
 10
106.7597
 20
262.8696
 30
0.0
 10
110.0277
 20
259.4955
 30
0.0
 10
110.0277
 20
259.4955
 30
0.0
 10
113.4674
 20
255.9441
 30
0.0
 10
117.937
 20
253.9938
 30
0.0
 10
122.5081
 20
253.6566
 30
0.0
 10
122.5081
 20
253.6566
 30
0.0
 10
122.5081
 20
253.6566
 30
0.0
 10
122.5113
 20
259.4272
 30
0.0
 10
122.5113
 20
259.4272
 30
0.0
 10
122.5113
 20
259.4272
 30
0.0
 10
122.5113
 20
259.4272
 30
0.0
 10
125.5113
 20
259.4255
 30
0.0
 10
125.5113
 20
259.4255
 30
0.0
 10
125.5113
 20
259.4255
 30
0.0
 10
125.5113
 20
259.4255
 30
0.0
 10
125.5081
 20
253.6658
 30
0.0
 10
125.5081
 20
253.6658
 30
0.0
 10
125.5081
 20
253.6658
 30
0.0
 10
129.8281
 20
254.0141
 30
0.0
 10
134.0578
 20
255.8075
 30
0.0
 10
137.414
 20
259.0582
 30
0.0
  0
SPLINE
  5
58
330
1F
100
AcDbEntity
  8
Capa 1
 62
     1
370
     0
100
AcDbSpline
210
0.0
220
0.0
230
1.0
 70
    11
 71
     3
 72
    84
 73
    80
 74
     0
 42
0.0000000001
 43
0.0000000001
 40
0.0
 40
0.0
 40
0.0
 40
0.0
 40
0.05
 40
0.05
 40
0.05
 40
0.05
 40
0.1
 40
0.1
 40
0.1
 40
0.1
 40
0.15
 40
0.15
 40
0.15
 40
0.15
 40
0.2
 40
0.2
 40
0.2
 40
0.2
 40
0.25
 40
0.25
 40
0.25
 40
0.25
 40
0.3
 40
0.3
 40
0.3
 40
0.3
 40
0.35
 40
0.35
 40
0.35
 40
0.35
 40
0.4
 40
0.4
 40
0.4
 40
0.4
 40
0.45
 40
0.45
 40
0.45
 40
0.45
 40
0.4999999999999999
 40
0.4999999999999999
 40
0.4999999999999999
 40
0.4999999999999999
 40
0.5499999999999999
 40
0.5499999999999999
 40
0.5499999999999999
 40
0.5499999999999999
 40
0.6
 40
0.6
 40
0.6
 40
0.6
 40
0.65
 40
0.65
 40
0.65
 40
0.65
 40
0.7000000000000001
 40
0.7000000000000001
 40
0.7000000000000001
 40
0.7000000000000001
 40
0.7500000000000001
 40
0.7500000000000001
 40
0.7500000000000001
 40
0.7500000000000001
 40
0.8000000000000002
 40
0.8000000000000002
 40
0.8000000000000002
 40
0.8000000000000002
 40
0.8500000000000002
 40
0.8500000000000002
 40
0.8500000000000002
 40
0.8500000000000002
 40
0.9000000000000002
 40
0.9000000000000002
 40
0.9000000000000002
 40
0.9000000000000002
 40
0.9500000000000003
 40
0.9500000000000003
 40
0.9500000000000003
 40
0.9500000000000003
 40
1.0
 40
1.0
 40
1.0
 40
1.0
 10
137.414
 20
216.3311
 30
0.0
 10
140.9477
 20
219.7538
 30
0.0
 10
142.8962
 20
224.196
 30
0.0
 10
143.2477
 20
228.7433
 30
0.0
 10
143.2477
 20
228.7433
 30
0.0
 10
143.2477
 20
228.7433
 30
0.0
 10
137.5505
 20
228.7465
 30
0.0
 10
137.5505
 20
228.7465
 30
0.0
 10
137.5505
 20
228.7465
 30
0.0
 10
137.5505
 20
228.7465
 30
0.0
 10
137.5522
 20
231.7465
 30
0.0
 10
137.5522
 20
231.7465
 30
0.0
 10
137.5522
 20
231.7465
 30
0.0
 10
137.5522
 20
231.7465
 30
0.0
 10
143.2487
 20
231.7433
 30
0.0
 10
143.2487
 20
231.7433
 30
0.0
 10
143.2487
 20
231.7433
 30
0.0
 10
142.9139
 20
236.0869
 30
0.0
 10
141.119
 20
240.3436
 30
0.0
 10
137.8512
 20
243.7175
 30
0.0
 10
137.8512
 20
243.7175
 30
0.0
 10
134.4459
 20
247.2333
 30
0.0
 10
130.0313
 20
249.1803
 30
0.0
 10
125.5081
 20
249.5458
 30
0.0
 10
125.5081
 20
249.5458
 30
0.0
 10
125.5081
 20
249.5458
 30
0.0
 10
125.5113
 20
243.7875
 30
0.0
 10
125.5113
 20
243.7875
 30
0.0
 10
125.5113
 20
243.7875
 30
0.0
 10
125.5113
 20
243.7875
 30
0.0
 10
122.5112
 20
243.7857
 30
0.0
 10
122.5112
 20
243.7857
 30
0.0
 10
122.5112
 20
243.7857
 30
0.0
 10
122.5112
 20
243.7857
 30
0.0
 10
122.508
 20
249.5568
 30
0.0
 10
122.508
 20
249.5568
 30
0.0
 10
122.508
 20
249.5568
 30
0.0
 10
118.1405
 20
249.2354
 30
0.0
 10
113.8566
 20
247.4398
 30
0.0
 10
110.4649
 20
244.1547
 30
0.0
 10
110.4649
 20
244.1547
 30
0.0
 10
106.9315
 20
240.7322
 30
0.0
 10
104.9829
 20
236.2903
 30
0.0
 10
104.6314
 20
231.7433
 30
0.0
 10
104.6314
 20
231.7433
 30
0.0
 10
104.6314
 20
231.7433
 30
0.0
 10
110.4631
 20
231.7465
 30
0.0
 10
110.4631
 20
231.7465
 30
0.0
 10
110.4631
 20
231.7465
 30
0.0
 10
110.4631
 20
231.7465
 30
0.0
 10
110.4649
 20
228.7464
 30
0.0
 10
110.4649
 20
228.7464
 30
0.0
 10
110.4649
 20
228.7464
 30
0.0
 10
110.4649
 20
228.7464
 30
0.0
 10
104.6302
 20
228.7432
 30
0.0
 10
104.6302
 20
228.7432
 30
0.0
 10
104.6302
 20
228.7432
 30
0.0
 10
104.9651
 20
224.3993
 30
0.0
 10
106.7597
 20
220.1425
 30
0.0
 10
110.0277
 20
216.7684
 30
0.0
 10
110.0277
 20
216.7684
 30
0.0
 10
113.4674
 20
213.217
 30
0.0
 10
117.937
 20
211.2667
 30
0.0
 10
122.5081
 20
210.9295
 30
0.0
 10
122.5081
 20
210.9295
 30
0.0
 10
122.5081
 20
210.9295
 30
0.0
 10
122.5113
 20
216.7001
 30
0.0
 10
122.5113
 20
216.7001
 30
0.0
 10
122.5113
 20
216.7001
 30
0.0
 10
122.5113
 20
216.7001
 30
0.0
 10
125.5113
 20
216.6984
 30
0.0
 10
125.5113
 20
216.6984
 30
0.0
 10
125.5113
 20
216.6984
 30
0.0
 10
125.5113
 20
216.6984
 30
0.0
 10
125.5081
 20
210.9387
 30
0.0
 10
125.5081
 20
210.9387
 30
0.0
 10
125.5081
 20
210.9387
 30
0.0
 10
129.8281
 20
211.287
 30
0.0
 10
134.0578
 20
213.0804
 30
0.0
 10
137.414
 20
216.3311
 30
0.0
  0
SPLINE
  5
59
330
1F
100
AcDbEntity
  8
Capa 1
 62
     1
370
     0
100
AcDbSpline
210
0.0
220
0.0
230
1.0
 70
    11
 71
     3
 72
    84
 73
    80
 74
     0
 42
0.0000000001
 43
0.0000000001
 40
0.0
 40
0.0
 40
0.0
 40
0.0
 40
0.05
 40
0.05
 40
0.05
 40
0.05
 40
0.1
 40
0.1
 40
0.1
 40
0.1
 40
0.15
 40
0.15
 40
0.15
 40
0.15
 40
0.2
 40
0.2
 40
0.2
 40
0.2
 40
0.25
 40
0.25
 40
0.25
 40
0.25
 40
0.3
 40
0.3
 40
0.3
 40
0.3
 40
0.35
 40
0.35
 40
0.35
 40
0.35
 40
0.4
 40
0.4
 40
0.4
 40
0.4
 40
0.45
 40
0.45
 40
0.45
 40
0.45
 40
0.4999999999999999
 40
0.4999999999999999
 40
0.4999999999999999
 40
0.4999999999999999
 40
0.5499999999999999
 40
0.5499999999999999
 40
0.5499999999999999
 40
0.5499999999999999
 40
0.6
 40
0.6
 40
0.6
 40
0.6
 40
0.65
 40
0.65
 40
0.65
 40
0.65
 40
0.7000000000000001
 40
0.7000000000000001
 40
0.7000000000000001
 40
0.7000000000000001
 40
0.7500000000000001
 40
0.7500000000000001
 40
0.7500000000000001
 40
0.7500000000000001
 40
0.8000000000000002
 40
0.8000000000000002
 40
0.8000000000000002
 40
0.8000000000000002
 40
0.8500000000000002
 40
0.8500000000000002
 40
0.8500000000000002
 40
0.8500000000000002
 40
0.9000000000000002
 40
0.9000000000000002
 40
0.9000000000000002
 40
0.9000000000000002
 40
0.9500000000000003
 40
0.9500000000000003
 40
0.9500000000000003
 40
0.9500000000000003
 40
1.0
 40
1.0
 40
1.0
 40
1.0
 10
137.5277
 20
-8.1188
 30
0.0
 10
141.0614
 20
-4.6961
 30
0.0
 10
143.0099
 20
-0.2539
 30
0.0
 10
143.3614
 20
4.2934
 30
0.0
 10
143.3614
 20
4.2934
 30
0.0
 10
143.3614
 20
4.2934
 30
0.0
 10
137.6642
 20
4.296600000000001
 30
0.0
 10
137.6642
 20
4.296600000000001
 30
0.0
 10
137.6642
 20
4.296600000000001
 30
0.0
 10
137.6642
 20
4.296600000000001
 30
0.0
 10
137.6659
 20
7.296600000000001
 30
0.0
 10
137.6659
 20
7.296600000000001
 30
0.0
 10
137.6659
 20
7.296600000000001
 30
0.0
 10
137.6659
 20
7.296600000000001
 30
0.0
 10
143.3624
 20
7.2934
 30
0.0
 10
143.3624
 20
7.2934
 30
0.0
 10
143.3624
 20
7.2934
 30
0.0
 10
143.0276
 20
11.637
 30
0.0
 10
141.2327
 20
15.8937
 30
0.0
 10
137.9649
 20
19.2676
 30
0.0
 10
137.9649
 20
19.2676
 30
0.0
 10
134.5596
 20
22.7834
 30
0.0
 10
130.145
 20
24.7304
 30
0.0
 10
125.6218
 20
25.0959
 30
0.0
 10
125.6218
 20
25.0959
 30
0.0
 10
125.6218
 20
25.0959
 30
0.0
 10
125.625
 20
19.3376
 30
0.0
 10
125.625
 20
19.3376
 30
0.0
 10
125.625
 20
19.3376
 30
0.0
 10
125.625
 20
19.3376
 30
0.0
 10
122.6249
 20
19.3358
 30
0.0
 10
122.6249
 20
19.3358
 30
0.0
 10
122.6249
 20
19.3358
 30
0.0
 10
122.6249
 20
19.3358
 30
0.0
 10
122.6217
 20
25.1069
 30
0.0
 10
122.6217
 20
25.1069
 30
0.0
 10
122.6217
 20
25.1069
 30
0.0
 10
118.2542
 20
24.7855
 30
0.0
 10
113.9703
 20
22.9899
 30
0.0
 10
110.5786
 20
19.7048
 30
0.0
 10
110.5786
 20
19.7048
 30
0.0
 10
107.0452
 20
16.2823
 30
0.0
 10
105.0966
 20
11.8404
 30
0.0
 10
104.7451
 20
7.2934
 30
0.0
 10
104.7451
 20
7.2934
 30
0.0
 10
104.7451
 20
7.2934
 30
0.0
 10
110.5768
 20
7.296600000000001
 30
0.0
 10
110.5768
 20
7.296600000000001
 30
0.0
 10
110.5768
 20
7.296600000000001
 30
0.0
 10
110.5768
 20
7.296600000000001
 30
0.0
 10
110.5786
 20
4.2965
 30
0.0
 10
110.5786
 20
4.2965
 30
0.0
 10
110.5786
 20
4.2965
 30
0.0
 10
110.5786
 20
4.2965
 30
0.0
 10
104.7439
 20
4.2933
 30
0.0
 10
104.7439
 20
4.2933
 30
0.0
 10
104.7439
 20
4.2933
 30
0.0
 10
105.0788
 20
-0.0506
 30
0.0
 10
106.8734
 20
-4.3074
 30
0.0
 10
110.1414
 20
-7.681500000000001
 30
0.0
 10
110.1414
 20
-7.681500000000001
 30
0.0
 10
113.5811
 20
-11.2329
 30
0.0
 10
118.0507
 20
-13.1832
 30
0.0
 10
122.6218
 20
-13.5204
 30
0.0
 10
122.6218
 20
-13.5204
 30
0.0
 10
122.6218
 20
-13.5204
 30
0.0
 10
122.625
 20
-7.749800000000001
 30
0.0
 10
122.625
 20
-7.749800000000001
 30
0.0
 10
122.625
 20
-7.749800000000001
 30
0.0
 10
122.625
 20
-7.749800000000001
 30
0.0
 10
125.625
 20
-7.7515
 30
0.0
 10
125.625
 20
-7.7515
 30
0.0
 10
125.625
 20
-7.7515
 30
0.0
 10
125.625
 20
-7.7515
 30
0.0
 10
125.6218
 20
-13.5112
 30
0.0
 10
125.6218
 20
-13.5112
 30
0.0
 10
125.6218
 20
-13.5112
 30
0.0
 10
129.9418
 20
-13.1629
 30
0.0
 10
134.1715
 20
-11.3695
 30
0.0
 10
137.5277
 20
-8.1188
 30
0.0
  0
SPLINE
  5
5A
330
1F
100
AcDbEntity
  8
Capa 1
 62
     1
370
     0
100
AcDbSpline
210
0.0
220
0.0
230
1.0
 70
    11
 71
     3
 72
    84
 73
    80
 74
     0
 42
0.0000000001
 43
0.0000000001
 40
0.0
 40
0.0
 40
0.0
 40
0.0
 40
0.05
 40
0.05
 40
0.05
 40
0.05
 40
0.1
 40
0.1
 40
0.1
 40
0.1
 40
0.15
 40
0.15
 40
0.15
 40
0.15
 40
0.2
 40
0.2
 40
0.2
 40
0.2
 40
0.25
 40
0.25
 40
0.25
 40
0.25
 40
0.3
 40
0.3
 40
0.3
 40
0.3
 40
0.35
 40
0.35
 40
0.35
 40
0.35
 40
0.4
 40
0.4
 40
0.4
 40
0.4
 40
0.45
 40
0.45
 40
0.45
 40
0.45
 40
0.4999999999999999
 40
0.4999999999999999
 40
0.4999999999999999
 40
0.4999999999999999
 40
0.5499999999999999
 40
0.5499999999999999
 40
0.5499999999999999
 40
0.5499999999999999
 40
0.6
 40
0.6
 40
0.6
 40
0.6
 40
0.65
 40
0.65
 40
0.65
 40
0.65
 40
0.7000000000000001
 40
0.7000000000000001
 40
0.7000000000000001
 40
0.7000000000000001
 40
0.7500000000000001
 40
0.7500000000000001
 40
0.7500000000000001
 40
0.7500000000000001
 40
0.8000000000000002
 40
0.8000000000000002
 40
0.8000000000000002
 40
0.8000000000000002
 40
0.8500000000000002
 40
0.8500000000000002
 40
0.8500000000000002
 40
0.8500000000000002
 40
0.9000000000000002
 40
0.9000000000000002
 40
0.9000000000000002
 40
0.9000000000000002
 40
0.9500000000000003
 40
0.9500000000000003
 40
0.9500000000000003
 40
0.9500000000000003
 40
1.0
 40
1.0
 40
1.0
 40
1.0
 10
137.5277
 20
-51.64570000000001
 30
0.0
 10
141.0614
 20
-48.223
 30
0.0
 10
143.0099
 20
-43.7808
 30
0.0
 10
143.3614
 20
-39.2335
 30
0.0
 10
143.3614
 20
-39.2335
 30
0.0
 10
143.3614
 20
-39.2335
 30
0.0
 10
137.6642
 20
-39.2303
 30
0.0
 10
137.6642
 20
-39.2303
 30
0.0
 10
137.6642
 20
-39.2303
 30
0.0
 10
137.6642
 20
-39.2303
 30
0.0
 10
137.6659
 20
-36.2303
 30
0.0
 10
137.6659
 20
-36.2303
 30
0.0
 10
137.6659
 20
-36.2303
 30
0.0
 10
137.6659
 20
-36.2303
 30
0.0
 10
143.3624
 20
-36.2335
 30
0.0
 10
143.3624
 20
-36.2335
 30
0.0
 10
143.3624
 20
-36.2335
 30
0.0
 10
143.0276
 20
-31.8899
 30
0.0
 10
141.2327
 20
-27.6332
 30
0.0
 10
137.9649
 20
-24.2593
 30
0.0
 10
137.9649
 20
-24.2593
 30
0.0
 10
134.5596
 20
-20.7435
 30
0.0
 10
130.145
 20
-18.7965
 30
0.0
 10
125.6218
 20
-18.431
 30
0.0
 10
125.6218
 20
-18.431
 30
0.0
 10
125.6218
 20
-18.431
 30
0.0
 10
125.625
 20
-24.1893
 30
0.0
 10
125.625
 20
-24.1893
 30
0.0
 10
125.625
 20
-24.1893
 30
0.0
 10
125.625
 20
-24.1893
 30
0.0
 10
122.6249
 20
-24.1911
 30
0.0
 10
122.6249
 20
-24.1911
 30
0.0
 10
122.6249
 20
-24.1911
 30
0.0
 10
122.6249
 20
-24.1911
 30
0.0
 10
122.6217
 20
-18.42
 30
0.0
 10
122.6217
 20
-18.42
 30
0.0
 10
122.6217
 20
-18.42
 30
0.0
 10
118.2542
 20
-18.7414
 30
0.0
 10
113.9703
 20
-20.537
 30
0.0
 10
110.5786
 20
-23.8221
 30
0.0
 10
110.5786
 20
-23.8221
 30
0.0
 10
107.0452
 20
-27.2446
 30
0.0
 10
105.0966
 20
-31.6865
 30
0.0
 10
104.7451
 20
-36.2335
 30
0.0
 10
104.7451
 20
-36.2335
 30
0.0
 10
104.7451
 20
-36.2335
 30
0.0
 10
110.5768
 20
-36.2303
 30
0.0
 10
110.5768
 20
-36.2303
 30
0.0
 10
110.5768
 20
-36.2303
 30
0.0
 10
110.5768
 20
-36.2303
 30
0.0
 10
110.5786
 20
-39.2304
 30
0.0
 10
110.5786
 20
-39.2304
 30
0.0
 10
110.5786
 20
-39.2304
 30
0.0
 10
110.5786
 20
-39.2304
 30
0.0
 10
104.7439
 20
-39.2336
 30
0.0
 10
104.7439
 20
-39.2336
 30
0.0
 10
104.7439
 20
-39.2336
 30
0.0
 10
105.0788
 20
-43.5775
 30
0.0
 10
106.8734
 20
-47.8343
 30
0.0
 10
110.1414
 20
-51.20840000000001
 30
0.0
 10
110.1414
 20
-51.20840000000001
 30
0.0
 10
113.5811
 20
-54.75980000000001
 30
0.0
 10
118.0507
 20
-56.7101
 30
0.0
 10
122.6218
 20
-57.0473
 30
0.0
 10
122.6218
 20
-57.0473
 30
0.0
 10
122.6218
 20
-57.0473
 30
0.0
 10
122.625
 20
-51.27670000000001
 30
0.0
 10
122.625
 20
-51.27670000000001
 30
0.0
 10
122.625
 20
-51.27670000000001
 30
0.0
 10
122.625
 20
-51.27670000000001
 30
0.0
 10
125.625
 20
-51.27840000000001
 30
0.0
 10
125.625
 20
-51.27840000000001
 30
0.0
 10
125.625
 20
-51.27840000000001
 30
0.0
 10
125.625
 20
-51.27840000000001
 30
0.0
 10
125.6218
 20
-57.0381
 30
0.0
 10
125.6218
 20
-57.0381
 30
0.0
 10
125.6218
 20
-57.0381
 30
0.0
 10
129.9418
 20
-56.68980000000001
 30
0.0
 10
134.1715
 20
-54.8964
 30
0.0
 10
137.5277
 20
-51.64570000000001
 30
0.0
  0
SPLINE
  5
5B
330
1F
100
AcDbEntity
  8
Capa 1
 62
     1
370
     0
100
AcDbSpline
210
0.0
220
0.0
230
1.0
 70
    11
 71
     3
 72
    84
 73
    80
 74
     0
 42
0.0000000001
 43
0.0000000001
 40
0.0
 40
0.0
 40
0.0
 40
0.0
 40
0.05
 40
0.05
 40
0.05
 40
0.05
 40
0.1
 40
0.1
 40
0.1
 40
0.1
 40
0.15
 40
0.15
 40
0.15
 40
0.15
 40
0.2
 40
0.2
 40
0.2
 40
0.2
 40
0.25
 40
0.25
 40
0.25
 40
0.25
 40
0.3
 40
0.3
 40
0.3
 40
0.3
 40
0.35
 40
0.35
 40
0.35
 40
0.35
 40
0.4
 40
0.4
 40
0.4
 40
0.4
 40
0.45
 40
0.45
 40
0.45
 40
0.45
 40
0.4999999999999999
 40
0.4999999999999999
 40
0.4999999999999999
 40
0.4999999999999999
 40
0.5499999999999999
 40
0.5499999999999999
 40
0.5499999999999999
 40
0.5499999999999999
 40
0.6
 40
0.6
 40
0.6
 40
0.6
 40
0.65
 40
0.65
 40
0.65
 40
0.65
 40
0.7000000000000001
 40
0.7000000000000001
 40
0.7000000000000001
 40
0.7000000000000001
 40
0.7500000000000001
 40
0.7500000000000001
 40
0.7500000000000001
 40
0.7500000000000001
 40
0.8000000000000002
 40
0.8000000000000002
 40
0.8000000000000002
 40
0.8000000000000002
 40
0.8500000000000002
 40
0.8500000000000002
 40
0.8500000000000002
 40
0.8500000000000002
 40
0.9000000000000002
 40
0.9000000000000002
 40
0.9000000000000002
 40
0.9000000000000002
 40
0.9500000000000003
 40
0.9500000000000003
 40
0.9500000000000003
 40
0.9500000000000003
 40
1.0
 40
1.0
 40
1.0
 40
1.0
 10
137.5277
 20
-94.7367
 30
0.0
 10
141.0614
 20
-91.31400000000001
 30
0.0
 10
143.0099
 20
-86.87180000000001
 30
0.0
 10
143.3614
 20
-82.3245
 30
0.0
 10
143.3614
 20
-82.3245
 30
0.0
 10
143.3614
 20
-82.3245
 30
0.0
 10
137.6642
 20
-82.32130000000001
 30
0.0
 10
137.6642
 20
-82.32130000000001
 30
0.0
 10
137.6642
 20
-82.32130000000001
 30
0.0
 10
137.6642
 20
-82.32130000000001
 30
0.0
 10
137.6659
 20
-79.32130000000001
 30
0.0
 10
137.6659
 20
-79.32130000000001
 30
0.0
 10
137.6659
 20
-79.32130000000001
 30
0.0
 10
137.6659
 20
-79.32130000000001
 30
0.0
 10
143.3624
 20
-79.3245
 30
0.0
 10
143.3624
 20
-79.3245
 30
0.0
 10
143.3624
 20
-79.3245
 30
0.0
 10
143.0276
 20
-74.98090000000001
 30
0.0
 10
141.2327
 20
-70.72420000000001
 30
0.0
 10
137.9649
 20
-67.3503
 30
0.0
 10
137.9649
 20
-67.3503
 30
0.0
 10
134.5596
 20
-63.83450000000001
 30
0.0
 10
130.145
 20
-61.8875
 30
0.0
 10
125.6218
 20
-61.52200000000001
 30
0.0
 10
125.6218
 20
-61.52200000000001
 30
0.0
 10
125.6218
 20
-61.52200000000001
 30
0.0
 10
125.625
 20
-67.2803
 30
0.0
 10
125.625
 20
-67.2803
 30
0.0
 10
125.625
 20
-67.2803
 30
0.0
 10
125.625
 20
-67.2803
 30
0.0
 10
122.6249
 20
-67.2821
 30
0.0
 10
122.6249
 20
-67.2821
 30
0.0
 10
122.6249
 20
-67.2821
 30
0.0
 10
122.6249
 20
-67.2821
 30
0.0
 10
122.6217
 20
-61.511
 30
0.0
 10
122.6217
 20
-61.511
 30
0.0
 10
122.6217
 20
-61.511
 30
0.0
 10
118.2542
 20
-61.8324
 30
0.0
 10
113.9703
 20
-63.628
 30
0.0
 10
110.5786
 20
-66.9131
 30
0.0
 10
110.5786
 20
-66.9131
 30
0.0
 10
107.0452
 20
-70.3356
 30
0.0
 10
105.0966
 20
-74.7775
 30
0.0
 10
104.7451
 20
-79.3245
 30
0.0
 10
104.7451
 20
-79.3245
 30
0.0
 10
104.7451
 20
-79.3245
 30
0.0
 10
110.5768
 20
-79.32130000000001
 30
0.0
 10
110.5768
 20
-79.32130000000001
 30
0.0
 10
110.5768
 20
-79.32130000000001
 30
0.0
 10
110.5768
 20
-79.32130000000001
 30
0.0
 10
110.5786
 20
-82.3214
 30
0.0
 10
110.5786
 20
-82.3214
 30
0.0
 10
110.5786
 20
-82.3214
 30
0.0
 10
110.5786
 20
-82.3214
 30
0.0
 10
104.7439
 20
-82.3246
 30
0.0
 10
104.7439
 20
-82.3246
 30
0.0
 10
104.7439
 20
-82.3246
 30
0.0
 10
105.0788
 20
-86.66850000000001
 30
0.0
 10
106.8734
 20
-90.92530000000001
 30
0.0
 10
110.1414
 20
-94.29940000000001
 30
0.0
 10
110.1414
 20
-94.29940000000001
 30
0.0
 10
113.5811
 20
-97.85080000000001
 30
0.0
 10
118.0507
 20
-99.80110000000001
 30
0.0
 10
122.6218
 20
-100.1383
 30
0.0
 10
122.6218
 20
-100.1383
 30
0.0
 10
122.6218
 20
-100.1383
 30
0.0
 10
122.625
 20
-94.3677
 30
0.0
 10
122.625
 20
-94.3677
 30
0.0
 10
122.625
 20
-94.3677
 30
0.0
 10
122.625
 20
-94.3677
 30
0.0
 10
125.625
 20
-94.3694
 30
0.0
 10
125.625
 20
-94.3694
 30
0.0
 10
125.625
 20
-94.3694
 30
0.0
 10
125.625
 20
-94.3694
 30
0.0
 10
125.6218
 20
-100.1291
 30
0.0
 10
125.6218
 20
-100.1291
 30
0.0
 10
125.6218
 20
-100.1291
 30
0.0
 10
129.9418
 20
-99.7808
 30
0.0
 10
134.1715
 20
-97.98740000000001
 30
0.0
 10
137.5277
 20
-94.7367
 30
0.0
  0
SPLINE
  5
5C
330
1F
100
AcDbEntity
  8
Capa 1
 62
     1
370
     0
100
AcDbSpline
210
0.0
220
0.0
230
1.0
 70
    11
 71
     3
 72
    84
 73
    80
 74
     0
 42
0.0000000001
 43
0.0000000001
 40
0.0
 40
0.0
 40
0.0
 40
0.0
 40
0.05
 40
0.05
 40
0.05
 40
0.05
 40
0.1
 40
0.1
 40
0.1
 40
0.1
 40
0.15
 40
0.15
 40
0.15
 40
0.15
 40
0.2
 40
0.2
 40
0.2
 40
0.2
 40
0.25
 40
0.25
 40
0.25
 40
0.25
 40
0.3
 40
0.3
 40
0.3
 40
0.3
 40
0.35
 40
0.35
 40
0.35
 40
0.35
 40
0.4
 40
0.4
 40
0.4
 40
0.4
 40
0.45
 40
0.45
 40
0.45
 40
0.45
 40
0.4999999999999999
 40
0.4999999999999999
 40
0.4999999999999999
 40
0.4999999999999999
 40
0.5499999999999999
 40
0.5499999999999999
 40
0.5499999999999999
 40
0.5499999999999999
 40
0.6
 40
0.6
 40
0.6
 40
0.6
 40
0.65
 40
0.65
 40
0.65
 40
0.65
 40
0.7000000000000001
 40
0.7000000000000001
 40
0.7000000000000001
 40
0.7000000000000001
 40
0.7500000000000001
 40
0.7500000000000001
 40
0.7500000000000001
 40
0.7500000000000001
 40
0.8000000000000002
 40
0.8000000000000002
 40
0.8000000000000002
 40
0.8000000000000002
 40
0.8500000000000002
 40
0.8500000000000002
 40
0.8500000000000002
 40
0.8500000000000002
 40
0.9000000000000002
 40
0.9000000000000002
 40
0.9000000000000002
 40
0.9000000000000002
 40
0.9500000000000003
 40
0.9500000000000003
 40
0.9500000000000003
 40
0.9500000000000003
 40
1.0
 40
1.0
 40
1.0
 40
1.0
 10
4.497500000000001
 20
-61.9245
 30
0.0
 10
8.0312
 20
-58.5018
 30
0.0
 10
9.979700000000001
 20
-54.0596
 30
0.0
 10
10.3312
 20
-49.5123
 30
0.0
 10
10.3312
 20
-49.5123
 30
0.0
 10
10.3312
 20
-49.5123
 30
0.0
 10
4.634
 20
-49.5091
 30
0.0
 10
4.634
 20
-49.5091
 30
0.0
 10
4.634
 20
-49.5091
 30
0.0
 10
4.634
 20
-49.5091
 30
0.0
 10
4.6357
 20
-46.5091
 30
0.0
 10
4.6357
 20
-46.5091
 30
0.0
 10
4.6357
 20
-46.5091
 30
0.0
 10
4.6357
 20
-46.5091
 30
0.0
 10
10.3322
 20
-46.5123
 30
0.0
 10
10.3322
 20
-46.5123
 30
0.0
 10
10.3322
 20
-46.5123
 30
0.0
 10
9.997400000000001
 20
-42.1687
 30
0.0
 10
8.202500000000001
 20
-37.912
 30
0.0
 10
4.9347
 20
-34.5381
 30
0.0
 10
4.9347
 20
-34.5381
 30
0.0
 10
1.5294
 20
-31.0223
 30
0.0
 10
-2.8852
 20
-29.0753
 30
0.0
 10
-7.4084
 20
-28.7098
 30
0.0
 10
-7.4084
 20
-28.7098
 30
0.0
 10
-7.4084
 20
-28.7098
 30
0.0
 10
-7.405200000000001
 20
-34.4681
 30
0.0
 10
-7.405200000000001
 20
-34.4681
 30
0.0
 10
-7.405200000000001
 20
-34.4681
 30
0.0
 10
-7.405200000000001
 20
-34.4681
 30
0.0
 10
-10.4053
 20
-34.4699
 30
0.0
 10
-10.4053
 20
-34.4699
 30
0.0
 10
-10.4053
 20
-34.4699
 30
0.0
 10
-10.4053
 20
-34.4699
 30
0.0
 10
-10.4085
 20
-28.6988
 30
0.0
 10
-10.4085
 20
-28.6988
 30
0.0
 10
-10.4085
 20
-28.6988
 30
0.0
 10
-14.776
 20
-29.0202
 30
0.0
 10
-19.0599
 20
-30.8158
 30
0.0
 10
-22.4516
 20
-34.1009
 30
0.0
 10
-22.4516
 20
-34.1009
 30
0.0
 10
-25.985
 20
-37.5234
 30
0.0
 10
-27.9336
 20
-41.9653
 30
0.0
 10
-28.2851
 20
-46.5123
 30
0.0
 10
-28.2851
 20
-46.5123
 30
0.0
 10
-28.2851
 20
-46.5123
 30
0.0
 10
-22.4534
 20
-46.5091
 30
0.0
 10
-22.4534
 20
-46.5091
 30
0.0
 10
-22.4534
 20
-46.5091
 30
0.0
 10
-22.4534
 20
-46.5091
 30
0.0
 10
-22.4516
 20
-49.5092
 30
0.0
 10
-22.4516
 20
-49.5092
 30
0.0
 10
-22.4516
 20
-49.5092
 30
0.0
 10
-22.4516
 20
-49.5092
 30
0.0
 10
-28.2863
 20
-49.5124
 30
0.0
 10
-28.2863
 20
-49.5124
 30
0.0
 10
-28.2863
 20
-49.5124
 30
0.0
 10
-27.9514
 20
-53.85630000000001
 30
0.0
 10
-26.1568
 20
-58.1131
 30
0.0
 10
-22.8888
 20
-61.4872
 30
0.0
 10
-22.8888
 20
-61.4872
 30
0.0
 10
-19.4491
 20
-65.0386
 30
0.0
 10
-14.9795
 20
-66.9889
 30
0.0
 10
-10.4084
 20
-67.3261
 30
0.0
 10
-10.4084
 20
-67.3261
 30
0.0
 10
-10.4084
 20
-67.3261
 30
0.0
 10
-10.4052
 20
-61.5555
 30
0.0
 10
-10.4052
 20
-61.5555
 30
0.0
 10
-10.4052
 20
-61.5555
 30
0.0
 10
-10.4052
 20
-61.5555
 30
0.0
 10
-7.405200000000001
 20
-61.5572
 30
0.0
 10
-7.405200000000001
 20
-61.5572
 30
0.0
 10
-7.405200000000001
 20
-61.5572
 30
0.0
 10
-7.405200000000001
 20
-61.5572
 30
0.0
 10
-7.4084
 20
-67.3169
 30
0.0
 10
-7.4084
 20
-67.3169
 30
0.0
 10
-7.4084
 20
-67.3169
 30
0.0
 10
-3.0884
 20
-66.96860000000001
 30
0.0
 10
1.1413
 20
-65.1752
 30
0.0
 10
4.497500000000001
 20
-61.9245
 30
0.0
  0
SPLINE
  5
5D
330
1F
100
AcDbEntity
  8
Capa 1
 62
     1
370
     0
100
AcDbSpline
210
0.0
220
0.0
230
1.0
 70
    11
 71
     3
 72
    68
 73
    64
 74
     0
 42
0.0000000001
 43
0.0000000001
 40
0.0
 40
0.0
 40
0.0
 40
0.0
 40
0.0625
 40
0.0625
 40
0.0625
 40
0.0625
 40
0.125
 40
0.125
 40
0.125
 40
0.125
 40
0.1875
 40
0.1875
 40
0.1875
 40
0.1875
 40
0.25
 40
0.25
 40
0.25
 40
0.25
 40
0.3125
 40
0.3125
 40
0.3125
 40
0.3125
 40
0.375
 40
0.375
 40
0.375
 40
0.375
 40
0.4375
 40
0.4375
 40
0.4375
 40
0.4375
 40
0.5
 40
0.5
 40
0.5
 40
0.5
 40
0.5625
 40
0.5625
 40
0.5625
 40
0.5625
 40
0.625
 40
0.625
 40
0.625
 40
0.625
 40
0.6875
 40
0.6875
 40
0.6875
 40
0.6875
 40
0.75
 40
0.75
 40
0.75
 40
0.75
 40
0.8125
 40
0.8125
 40
0.8125
 40
0.8125
 40
0.875
 40
0.875
 40
0.875
 40
0.875
 40
0.9375
 40
0.9375
 40
0.9375
 40
0.9375
 40
1.0
 40
1.0
 40
1.0
 40
1.0
 10
123.6488
 20
165.0829
 30
0.0
 10
134.0273
 20
165.817
 30
0.0
 10
142.3174
 20
174.109
 30
0.0
 10
143.05
 20
184.4879
 30
0.0
 10
143.05
 20
184.4879
 30
0.0
 10
143.05
 20
184.4879
 30
0.0
 10
137.9789
 20
184.4879
 30
0.0
 10
137.9789
 20
184.4879
 30
0.0
 10
137.9789
 20
184.4879
 30
0.0
 10
137.9789
 20
184.4879
 30
0.0
 10
137.9789
 20
187.4878
 30
0.0
 10
137.9789
 20
187.4878
 30
0.0
 10
137.9789
 20
187.4878
 30
0.0
 10
137.9789
 20
187.4878
 30
0.0
 10
143.0496
 20
187.4878
 30
0.0
 10
143.0496
 20
187.4878
 30
0.0
 10
143.0496
 20
187.4878
 30
0.0
 10
142.3139
 20
197.8637
 30
0.0
 10
134.025
 20
206.1523
 30
0.0
 10
123.6488
 20
206.8863
 30
0.0
 10
123.6488
 20
206.8863
 30
0.0
 10
123.6488
 20
206.8863
 30
0.0
 10
123.6488
 20
201.818
 30
0.0
 10
123.6488
 20
201.818
 30
0.0
 10
123.6488
 20
201.818
 30
0.0
 10
123.6488
 20
201.818
 30
0.0
 10
120.6488
 20
201.818
 30
0.0
 10
120.6488
 20
201.818
 30
0.0
 10
120.6488
 20
201.818
 30
0.0
 10
120.6488
 20
201.818
 30
0.0
 10
120.6488
 20
206.8863
 30
0.0
 10
120.6488
 20
206.8863
 30
0.0
 10
120.6488
 20
206.8863
 30
0.0
 10
110.2726
 20
206.1523
 30
0.0
 10
101.9837
 20
197.8637
 30
0.0
 10
101.248
 20
187.4879
 30
0.0
 10
101.248
 20
187.4879
 30
0.0
 10
101.248
 20
187.4879
 30
0.0
 10
106.3186
 20
187.4879
 30
0.0
 10
106.3186
 20
187.4879
 30
0.0
 10
106.3186
 20
187.4879
 30
0.0
 10
106.3186
 20
187.4879
 30
0.0
 10
106.3186
 20
184.4879
 30
0.0
 10
106.3186
 20
184.4879
 30
0.0
 10
106.3186
 20
184.4879
 30
0.0
 10
106.3186
 20
184.4879
 30
0.0
 10
101.2476
 20
184.4879
 30
0.0
 10
101.2476
 20
184.4879
 30
0.0
 10
101.2476
 20
184.4879
 30
0.0
 10
101.9802
 20
174.109
 30
0.0
 10
110.2703
 20
165.817
 30
0.0
 10
120.6488
 20
165.0829
 30
0.0
 10
120.6488
 20
165.0829
 30
0.0
 10
120.6488
 20
165.0829
 30
0.0
 10
120.6488
 20
170.1577
 30
0.0
 10
120.6488
 20
170.1577
 30
0.0
 10
120.6488
 20
170.1577
 30
0.0
 10
120.6488
 20
170.1577
 30
0.0
 10
123.6488
 20
170.1577
 30
0.0
 10
123.6488
 20
170.1577
 30
0.0
 10
123.6488
 20
170.1577
 30
0.0
 10
123.6488
 20
170.1577
 30
0.0
 10
123.6488
 20
165.0829
 30
0.0
 10
123.6488
 20
165.0829
 30
0.0
  0
SPLINE
  5
5E
330
1F
100
AcDbEntity
  8
Capa 1
 62
     1
370
     0
100
AcDbSpline
210
0.0
220
0.0
230
1.0
 70
    11
 71
     3
 72
    68
 73
    64
 74
     0
 42
0.0000000001
 43
0.0000000001
 40
0.0
 40
0.0
 40
0.0
 40
0.0
 40
0.0625
 40
0.0625
 40
0.0625
 40
0.0625
 40
0.125
 40
0.125
 40
0.125
 40
0.125
 40
0.1875
 40
0.1875
 40
0.1875
 40
0.1875
 40
0.25
 40
0.25
 40
0.25
 40
0.25
 40
0.3125
 40
0.3125
 40
0.3125
 40
0.3125
 40
0.375
 40
0.375
 40
0.375
 40
0.375
 40
0.4375
 40
0.4375
 40
0.4375
 40
0.4375
 40
0.5
 40
0.5
 40
0.5
 40
0.5
 40
0.5625
 40
0.5625
 40
0.5625
 40
0.5625
 40
0.625
 40
0.625
 40
0.625
 40
0.625
 40
0.6875
 40
0.6875
 40
0.6875
 40
0.6875
 40
0.75
 40
0.75
 40
0.75
 40
0.75
 40
0.8125
 40
0.8125
 40
0.8125
 40
0.8125
 40
0.875
 40
0.875
 40
0.875
 40
0.875
 40
0.9375
 40
0.9375
 40
0.9375
 40
0.9375
 40
1.0
 40
1.0
 40
1.0
 40
1.0
 10
123.6488
 20
119.1511
 30
0.0
 10
134.0273
 20
119.8852
 30
0.0
 10
142.3174
 20
128.1772
 30
0.0
 10
143.05
 20
138.5561
 30
0.0
 10
143.05
 20
138.5561
 30
0.0
 10
143.05
 20
138.5561
 30
0.0
 10
137.9789
 20
138.5561
 30
0.0
 10
137.9789
 20
138.5561
 30
0.0
 10
137.9789
 20
138.5561
 30
0.0
 10
137.9789
 20
138.5561
 30
0.0
 10
137.9789
 20
141.556
 30
0.0
 10
137.9789
 20
141.556
 30
0.0
 10
137.9789
 20
141.556
 30
0.0
 10
137.9789
 20
141.556
 30
0.0
 10
143.0496
 20
141.556
 30
0.0
 10
143.0496
 20
141.556
 30
0.0
 10
143.0496
 20
141.556
 30
0.0
 10
142.3139
 20
151.9319
 30
0.0
 10
134.025
 20
160.2205
 30
0.0
 10
123.6488
 20
160.9545
 30
0.0
 10
123.6488
 20
160.9545
 30
0.0
 10
123.6488
 20
160.9545
 30
0.0
 10
123.6488
 20
155.8862
 30
0.0
 10
123.6488
 20
155.8862
 30
0.0
 10
123.6488
 20
155.8862
 30
0.0
 10
123.6488
 20
155.8862
 30
0.0
 10
120.6488
 20
155.8862
 30
0.0
 10
120.6488
 20
155.8862
 30
0.0
 10
120.6488
 20
155.8862
 30
0.0
 10
120.6488
 20
155.8862
 30
0.0
 10
120.6488
 20
160.9545
 30
0.0
 10
120.6488
 20
160.9545
 30
0.0
 10
120.6488
 20
160.9545
 30
0.0
 10
110.2726
 20
160.2205
 30
0.0
 10
101.9837
 20
151.9319
 30
0.0
 10
101.248
 20
141.5561
 30
0.0
 10
101.248
 20
141.5561
 30
0.0
 10
101.248
 20
141.5561
 30
0.0
 10
106.3186
 20
141.5561
 30
0.0
 10
106.3186
 20
141.5561
 30
0.0
 10
106.3186
 20
141.5561
 30
0.0
 10
106.3186
 20
141.5561
 30
0.0
 10
106.3186
 20
138.5561
 30
0.0
 10
106.3186
 20
138.5561
 30
0.0
 10
106.3186
 20
138.5561
 30
0.0
 10
106.3186
 20
138.5561
 30
0.0
 10
101.2476
 20
138.5561
 30
0.0
 10
101.2476
 20
138.5561
 30
0.0
 10
101.2476
 20
138.5561
 30
0.0
 10
101.9802
 20
128.1772
 30
0.0
 10
110.2703
 20
119.8852
 30
0.0
 10
120.6488
 20
119.1511
 30
0.0
 10
120.6488
 20
119.1511
 30
0.0
 10
120.6488
 20
119.1511
 30
0.0
 10
120.6488
 20
124.2259
 30
0.0
 10
120.6488
 20
124.2259
 30
0.0
 10
120.6488
 20
124.2259
 30
0.0
 10
120.6488
 20
124.2259
 30
0.0
 10
123.6488
 20
124.2259
 30
0.0
 10
123.6488
 20
124.2259
 30
0.0
 10
123.6488
 20
124.2259
 30
0.0
 10
123.6488
 20
124.2259
 30
0.0
 10
123.6488
 20
119.1511
 30
0.0
 10
123.6488
 20
119.1511
 30
0.0
  0
SPLINE
  5
5F
330
1F
100
AcDbEntity
  8
Capa 1
 62
     1
370
     0
100
AcDbSpline
210
0.0
220
0.0
230
1.0
 70
    11
 71
     3
 72
    68
 73
    64
 74
     0
 42
0.0000000001
 43
0.0000000001
 40
0.0
 40
0.0
 40
0.0
 40
0.0
 40
0.0625
 40
0.0625
 40
0.0625
 40
0.0625
 40
0.125
 40
0.125
 40
0.125
 40
0.125
 40
0.1875
 40
0.1875
 40
0.1875
 40
0.1875
 40
0.25
 40
0.25
 40
0.25
 40
0.25
 40
0.3125
 40
0.3125
 40
0.3125
 40
0.3125
 40
0.375
 40
0.375
 40
0.375
 40
0.375
 40
0.4375
 40
0.4375
 40
0.4375
 40
0.4375
 40
0.5
 40
0.5
 40
0.5
 40
0.5
 40
0.5625
 40
0.5625
 40
0.5625
 40
0.5625
 40
0.625
 40
0.625
 40
0.625
 40
0.625
 40
0.6875
 40
0.6875
 40
0.6875
 40
0.6875
 40
0.75
 40
0.75
 40
0.75
 40
0.75
 40
0.8125
 40
0.8125
 40
0.8125
 40
0.8125
 40
0.875
 40
0.875
 40
0.875
 40
0.875
 40
0.9375
 40
0.9375
 40
0.9375
 40
0.9375
 40
1.0
 40
1.0
 40
1.0
 40
1.0
 10
-6.2095
 20
70.25710000000001
 30
0.0
 10
4.169000000000001
 20
70.99120000000001
 30
0.0
 10
12.4591
 20
79.28320000000001
 30
0.0
 10
13.1917
 20
89.66210000000001
 30
0.0
 10
13.1917
 20
89.66210000000001
 30
0.0
 10
13.1917
 20
89.66210000000001
 30
0.0
 10
8.1206
 20
89.66210000000001
 30
0.0
 10
8.1206
 20
89.66210000000001
 30
0.0
 10
8.1206
 20
89.66210000000001
 30
0.0
 10
8.1206
 20
89.66210000000001
 30
0.0
 10
8.1206
 20
92.66200000000001
 30
0.0
 10
8.1206
 20
92.66200000000001
 30
0.0
 10
8.1206
 20
92.66200000000001
 30
0.0
 10
8.1206
 20
92.66200000000001
 30
0.0
 10
13.1913
 20
92.66200000000001
 30
0.0
 10
13.1913
 20
92.66200000000001
 30
0.0
 10
13.1913
 20
92.66200000000001
 30
0.0
 10
12.4556
 20
103.0379
 30
0.0
 10
4.166700000000001
 20
111.3265
 30
0.0
 10
-6.2095
 20
112.0605
 30
0.0
 10
-6.2095
 20
112.0605
 30
0.0
 10
-6.2095
 20
112.0605
 30
0.0
 10
-6.2095
 20
106.9922
 30
0.0
 10
-6.2095
 20
106.9922
 30
0.0
 10
-6.2095
 20
106.9922
 30
0.0
 10
-6.2095
 20
106.9922
 30
0.0
 10
-9.2095
 20
106.9922
 30
0.0
 10
-9.2095
 20
106.9922
 30
0.0
 10
-9.2095
 20
106.9922
 30
0.0
 10
-9.2095
 20
106.9922
 30
0.0
 10
-9.2095
 20
112.0605
 30
0.0
 10
-9.2095
 20
112.0605
 30
0.0
 10
-9.2095
 20
112.0605
 30
0.0
 10
-19.5857
 20
111.3265
 30
0.0
 10
-27.8746
 20
103.0379
 30
0.0
 10
-28.6103
 20
92.66210000000001
 30
0.0
 10
-28.6103
 20
92.66210000000001
 30
0.0
 10
-28.6103
 20
92.66210000000001
 30
0.0
 10
-23.5397
 20
92.66210000000001
 30
0.0
 10
-23.5397
 20
92.66210000000001
 30
0.0
 10
-23.5397
 20
92.66210000000001
 30
0.0
 10
-23.5397
 20
92.66210000000001
 30
0.0
 10
-23.5397
 20
89.66210000000001
 30
0.0
 10
-23.5397
 20
89.66210000000001
 30
0.0
 10
-23.5397
 20
89.66210000000001
 30
0.0
 10
-23.5397
 20
89.66210000000001
 30
0.0
 10
-28.6107
 20
89.66210000000001
 30
0.0
 10
-28.6107
 20
89.66210000000001
 30
0.0
 10
-28.6107
 20
89.66210000000001
 30
0.0
 10
-27.8781
 20
79.28320000000001
 30
0.0
 10
-19.588
 20
70.99120000000001
 30
0.0
 10
-9.2095
 20
70.25710000000001
 30
0.0
 10
-9.2095
 20
70.25710000000001
 30
0.0
 10
-9.2095
 20
70.25710000000001
 30
0.0
 10
-9.2095
 20
75.33190000000001
 30
0.0
 10
-9.2095
 20
75.33190000000001
 30
0.0
 10
-9.2095
 20
75.33190000000001
 30
0.0
 10
-9.2095
 20
75.33190000000001
 30
0.0
 10
-6.2095
 20
75.33190000000001
 30
0.0
 10
-6.2095
 20
75.33190000000001
 30
0.0
 10
-6.2095
 20
75.33190000000001
 30
0.0
 10
-6.2095
 20
75.33190000000001
 30
0.0
 10
-6.2095
 20
70.25710000000001
 30
0.0
 10
-6.2095
 20
70.25710000000001
 30
0.0
  0
SPLINE
  5
60
330
1F
100
AcDbEntity
  8
Capa 1
 62
     1
370
     0
100
AcDbSpline
210
0.0
220
0.0
230
1.0
 70
    11
 71
     3
 72
    68
 73
    64
 74
     0
 42
0.0000000001
 43
0.0000000001
 40
0.0
 40
0.0
 40
0.0
 40
0.0
 40
0.0625
 40
0.0625
 40
0.0625
 40
0.0625
 40
0.125
 40
0.125
 40
0.125
 40
0.125
 40
0.1875
 40
0.1875
 40
0.1875
 40
0.1875
 40
0.25
 40
0.25
 40
0.25
 40
0.25
 40
0.3125
 40
0.3125
 40
0.3125
 40
0.3125
 40
0.375
 40
0.375
 40
0.375
 40
0.375
 40
0.4375
 40
0.4375
 40
0.4375
 40
0.4375
 40
0.5
 40
0.5
 40
0.5
 40
0.5
 40
0.5625
 40
0.5625
 40
0.5625
 40
0.5625
 40
0.625
 40
0.625
 40
0.625
 40
0.625
 40
0.6875
 40
0.6875
 40
0.6875
 40
0.6875
 40
0.75
 40
0.75
 40
0.75
 40
0.75
 40
0.8125
 40
0.8125
 40
0.8125
 40
0.8125
 40
0.875
 40
0.875
 40
0.875
 40
0.875
 40
0.9375
 40
0.9375
 40
0.9375
 40
0.9375
 40
1.0
 40
1.0
 40
1.0
 40
1.0
 10
-5.3894
 20
23.5399
 30
0.0
 10
4.989100000000001
 20
24.274
 30
0.0
 10
13.2792
 20
32.566
 30
0.0
 10
14.0118
 20
42.9449
 30
0.0
 10
14.0118
 20
42.9449
 30
0.0
 10
14.0118
 20
42.9449
 30
0.0
 10
8.9407
 20
42.9449
 30
0.0
 10
8.9407
 20
42.9449
 30
0.0
 10
8.9407
 20
42.9449
 30
0.0
 10
8.9407
 20
42.9449
 30
0.0
 10
8.9407
 20
45.9448
 30
0.0
 10
8.9407
 20
45.9448
 30
0.0
 10
8.9407
 20
45.9448
 30
0.0
 10
8.9407
 20
45.9448
 30
0.0
 10
14.0114
 20
45.9448
 30
0.0
 10
14.0114
 20
45.9448
 30
0.0
 10
14.0114
 20
45.9448
 30
0.0
 10
13.2757
 20
56.3207
 30
0.0
 10
4.986800000000001
 20
64.60930000000001
 30
0.0
 10
-5.3894
 20
65.3433
 30
0.0
 10
-5.3894
 20
65.3433
 30
0.0
 10
-5.3894
 20
65.3433
 30
0.0
 10
-5.3894
 20
60.27500000000001
 30
0.0
 10
-5.3894
 20
60.27500000000001
 30
0.0
 10
-5.3894
 20
60.27500000000001
 30
0.0
 10
-5.3894
 20
60.27500000000001
 30
0.0
 10
-8.3894
 20
60.27500000000001
 30
0.0
 10
-8.3894
 20
60.27500000000001
 30
0.0
 10
-8.3894
 20
60.27500000000001
 30
0.0
 10
-8.3894
 20
60.27500000000001
 30
0.0
 10
-8.3894
 20
65.3433
 30
0.0
 10
-8.3894
 20
65.3433
 30
0.0
 10
-8.3894
 20
65.3433
 30
0.0
 10
-18.7656
 20
64.60930000000001
 30
0.0
 10
-27.0545
 20
56.3207
 30
0.0
 10
-27.7902
 20
45.9449
 30
0.0
 10
-27.7902
 20
45.9449
 30
0.0
 10
-27.7902
 20
45.9449
 30
0.0
 10
-22.7196
 20
45.9449
 30
0.0
 10
-22.7196
 20
45.9449
 30
0.0
 10
-22.7196
 20
45.9449
 30
0.0
 10
-22.7196
 20
45.9449
 30
0.0
 10
-22.7196
 20
42.9449
 30
0.0
 10
-22.7196
 20
42.9449
 30
0.0
 10
-22.7196
 20
42.9449
 30
0.0
 10
-22.7196
 20
42.9449
 30
0.0
 10
-27.7906
 20
42.9449
 30
0.0
 10
-27.7906
 20
42.9449
 30
0.0
 10
-27.7906
 20
42.9449
 30
0.0
 10
-27.058
 20
32.566
 30
0.0
 10
-18.7679
 20
24.274
 30
0.0
 10
-8.3894
 20
23.5399
 30
0.0
 10
-8.3894
 20
23.5399
 30
0.0
 10
-8.3894
 20
23.5399
 30
0.0
 10
-8.3894
 20
28.6147
 30
0.0
 10
-8.3894
 20
28.6147
 30
0.0
 10
-8.3894
 20
28.6147
 30
0.0
 10
-8.3894
 20
28.6147
 30
0.0
 10
-5.3894
 20
28.6147
 30
0.0
 10
-5.3894
 20
28.6147
 30
0.0
 10
-5.3894
 20
28.6147
 30
0.0
 10
-5.3894
 20
28.6147
 30
0.0
 10
-5.3894
 20
23.5399
 30
0.0
 10
-5.3894
 20
23.5399
 30
0.0
  0
SPLINE
  5
61
330
1F
100
AcDbEntity
  8
Capa 1
 62
     1
370
     0
100
AcDbSpline
210
0.0
220
0.0
230
1.0
 70
    11
 71
     3
 72
    68
 73
    64
 74
     0
 42
0.0000000001
 43
0.0000000001
 40
0.0
 40
0.0
 40
0.0
 40
0.0
 40
0.0625
 40
0.0625
 40
0.0625
 40
0.0625
 40
0.125
 40
0.125
 40
0.125
 40
0.125
 40
0.1875
 40
0.1875
 40
0.1875
 40
0.1875
 40
0.25
 40
0.25
 40
0.25
 40
0.25
 40
0.3125
 40
0.3125
 40
0.3125
 40
0.3125
 40
0.375
 40
0.375
 40
0.375
 40
0.375
 40
0.4375
 40
0.4375
 40
0.4375
 40
0.4375
 40
0.5
 40
0.5
 40
0.5
 40
0.5
 40
0.5625
 40
0.5625
 40
0.5625
 40
0.5625
 40
0.625
 40
0.625
 40
0.625
 40
0.625
 40
0.6875
 40
0.6875
 40
0.6875
 40
0.6875
 40
0.75
 40
0.75
 40
0.75
 40
0.75
 40
0.8125
 40
0.8125
 40
0.8125
 40
0.8125
 40
0.875
 40
0.875
 40
0.875
 40
0.875
 40
0.9375
 40
0.9375
 40
0.9375
 40
0.9375
 40
1.0
 40
1.0
 40
1.0
 40
1.0
 10
-5.5938
 20
-22.3964
 30
0.0
 10
4.7847
 20
-21.6623
 30
0.0
 10
13.0748
 20
-13.3703
 30
0.0
 10
13.8074
 20
-2.9914
 30
0.0
 10
13.8074
 20
-2.9914
 30
0.0
 10
13.8074
 20
-2.9914
 30
0.0
 10
8.7363
 20
-2.9914
 30
0.0
 10
8.7363
 20
-2.9914
 30
0.0
 10
8.7363
 20
-2.9914
 30
0.0
 10
8.7363
 20
-2.9914
 30
0.0
 10
8.7363
 20
0.0085
 30
0.0
 10
8.7363
 20
0.0085
 30
0.0
 10
8.7363
 20
0.0085
 30
0.0
 10
8.7363
 20
0.0085
 30
0.0
 10
13.807
 20
0.0085
 30
0.0
 10
13.807
 20
0.0085
 30
0.0
 10
13.807
 20
0.0085
 30
0.0
 10
13.0713
 20
10.3844
 30
0.0
 10
4.7824
 20
18.673
 30
0.0
 10
-5.5938
 20
19.407
 30
0.0
 10
-5.5938
 20
19.407
 30
0.0
 10
-5.5938
 20
19.407
 30
0.0
 10
-5.5938
 20
14.3387
 30
0.0
 10
-5.5938
 20
14.3387
 30
0.0
 10
-5.5938
 20
14.3387
 30
0.0
 10
-5.5938
 20
14.3387
 30
0.0
 10
-8.5938
 20
14.3387
 30
0.0
 10
-8.5938
 20
14.3387
 30
0.0
 10
-8.5938
 20
14.3387
 30
0.0
 10
-8.5938
 20
14.3387
 30
0.0
 10
-8.5938
 20
19.407
 30
0.0
 10
-8.5938
 20
19.407
 30
0.0
 10
-8.5938
 20
19.407
 30
0.0
 10
-18.97
 20
18.673
 30
0.0
 10
-27.2589
 20
10.3844
 30
0.0
 10
-27.9946
 20
0.0086
 30
0.0
 10
-27.9946
 20
0.0086
 30
0.0
 10
-27.9946
 20
0.0086
 30
0.0
 10
-22.924
 20
0.0086
 30
0.0
 10
-22.924
 20
0.0086
 30
0.0
 10
-22.924
 20
0.0086
 30
0.0
 10
-22.924
 20
0.0086
 30
0.0
 10
-22.924
 20
-2.9914
 30
0.0
 10
-22.924
 20
-2.9914
 30
0.0
 10
-22.924
 20
-2.9914
 30
0.0
 10
-22.924
 20
-2.9914
 30
0.0
 10
-27.995
 20
-2.9914
 30
0.0
 10
-27.995
 20
-2.9914
 30
0.0
 10
-27.995
 20
-2.9914
 30
0.0
 10
-27.2624
 20
-13.3703
 30
0.0
 10
-18.9723
 20
-21.6623
 30
0.0
 10
-8.5938
 20
-22.3964
 30
0.0
 10
-8.5938
 20
-22.3964
 30
0.0
 10
-8.5938
 20
-22.3964
 30
0.0
 10
-8.5938
 20
-17.3216
 30
0.0
 10
-8.5938
 20
-17.3216
 30
0.0
 10
-8.5938
 20
-17.3216
 30
0.0
 10
-8.5938
 20
-17.3216
 30
0.0
 10
-5.5938
 20
-17.3216
 30
0.0
 10
-5.5938
 20
-17.3216
 30
0.0
 10
-5.5938
 20
-17.3216
 30
0.0
 10
-5.5938
 20
-17.3216
 30
0.0
 10
-5.5938
 20
-22.3964
 30
0.0
 10
-5.5938
 20
-22.3964
 30
0.0
  0
SPLINE
  5
62
330
1F
100
AcDbEntity
  8
Capa 1
 62
     1
370
     0
100
AcDbSpline
210
0.0
220
0.0
230
1.0
 70
    11
 71
     3
 72
    68
 73
    64
 74
     0
 42
0.0000000001
 43
0.0000000001
 40
0.0
 40
0.0
 40
0.0
 40
0.0
 40
0.0625
 40
0.0625
 40
0.0625
 40
0.0625
 40
0.125
 40
0.125
 40
0.125
 40
0.125
 40
0.1875
 40
0.1875
 40
0.1875
 40
0.1875
 40
0.25
 40
0.25
 40
0.25
 40
0.25
 40
0.3125
 40
0.3125
 40
0.3125
 40
0.3125
 40
0.375
 40
0.375
 40
0.375
 40
0.375
 40
0.4375
 40
0.4375
 40
0.4375
 40
0.4375
 40
0.5
 40
0.5
 40
0.5
 40
0.5
 40
0.5625
 40
0.5625
 40
0.5625
 40
0.5625
 40
0.625
 40
0.625
 40
0.625
 40
0.625
 40
0.6875
 40
0.6875
 40
0.6875
 40
0.6875
 40
0.75
 40
0.75
 40
0.75
 40
0.75
 40
0.8125
 40
0.8125
 40
0.8125
 40
0.8125
 40
0.875
 40
0.875
 40
0.875
 40
0.875
 40
0.9375
 40
0.9375
 40
0.9375
 40
0.9375
 40
1.0
 40
1.0
 40
1.0
 40
1.0
 10
123.7539
 20
30.4636
 30
0.0
 10
134.1324
 20
31.1977
 30
0.0
 10
142.4225
 20
39.4897
 30
0.0
 10
143.1551
 20
49.8686
 30
0.0
 10
143.1551
 20
49.8686
 30
0.0
 10
143.1551
 20
49.8686
 30
0.0
 10
138.084
 20
49.8686
 30
0.0
 10
138.084
 20
49.8686
 30
0.0
 10
138.084
 20
49.8686
 30
0.0
 10
138.084
 20
49.8686
 30
0.0
 10
138.084
 20
52.8685
 30
0.0
 10
138.084
 20
52.8685
 30
0.0
 10
138.084
 20
52.8685
 30
0.0
 10
138.084
 20
52.8685
 30
0.0
 10
143.1547
 20
52.8685
 30
0.0
 10
143.1547
 20
52.8685
 30
0.0
 10
143.1547
 20
52.8685
 30
0.0
 10
142.419
 20
63.24440000000001
 30
0.0
 10
134.1301
 20
71.533
 30
0.0
 10
123.7539
 20
72.26700000000001
 30
0.0
 10
123.7539
 20
72.26700000000001
 30
0.0
 10
123.7539
 20
72.26700000000001
 30
0.0
 10
123.7539
 20
67.1987
 30
0.0
 10
123.7539
 20
67.1987
 30
0.0
 10
123.7539
 20
67.1987
 30
0.0
 10
123.7539
 20
67.1987
 30
0.0
 10
120.7539
 20
67.1987
 30
0.0
 10
120.7539
 20
67.1987
 30
0.0
 10
120.7539
 20
67.1987
 30
0.0
 10
120.7539
 20
67.1987
 30
0.0
 10
120.7539
 20
72.26700000000001
 30
0.0
 10
120.7539
 20
72.26700000000001
 30
0.0
 10
120.7539
 20
72.26700000000001
 30
0.0
 10
110.3777
 20
71.533
 30
0.0
 10
102.0888
 20
63.24440000000001
 30
0.0
 10
101.3531
 20
52.8686
 30
0.0
 10
101.3531
 20
52.8686
 30
0.0
 10
101.3531
 20
52.8686
 30
0.0
 10
106.4237
 20
52.8686
 30
0.0
 10
106.4237
 20
52.8686
 30
0.0
 10
106.4237
 20
52.8686
 30
0.0
 10
106.4237
 20
52.8686
 30
0.0
 10
106.4237
 20
49.8686
 30
0.0
 10
106.4237
 20
49.8686
 30
0.0
 10
106.4237
 20
49.8686
 30
0.0
 10
106.4237
 20
49.8686
 30
0.0
 10
101.3527
 20
49.8686
 30
0.0
 10
101.3527
 20
49.8686
 30
0.0
 10
101.3527
 20
49.8686
 30
0.0
 10
102.0853
 20
39.4897
 30
0.0
 10
110.3754
 20
31.1977
 30
0.0
 10
120.7539
 20
30.4636
 30
0.0
 10
120.7539
 20
30.4636
 30
0.0
 10
120.7539
 20
30.4636
 30
0.0
 10
120.7539
 20
35.5384
 30
0.0
 10
120.7539
 20
35.5384
 30
0.0
 10
120.7539
 20
35.5384
 30
0.0
 10
120.7539
 20
35.5384
 30
0.0
 10
123.7539
 20
35.5384
 30
0.0
 10
123.7539
 20
35.5384
 30
0.0
 10
123.7539
 20
35.5384
 30
0.0
 10
123.7539
 20
35.5384
 30
0.0
 10
123.7539
 20
30.4636
 30
0.0
 10
123.7539
 20
30.4636
 30
0.0
  0
ELLIPSE
  5
63
330
1F
100
AcDbEntity
  8
Capa 1
 62
     1
370
     0
100
AcDbEllipse
 10
-7.093800000000001
 20
-1.4947
 30
0.0
 11
0.0
 21
4.133500000000001
 31
0.0
210
0.0
220
0.0
230
1.0
 40
1.0
 41
0.0
 42
6.283185307179586
  0
ELLIPSE
  5
64
330
1F
100
AcDbEntity
  8
Capa 1
 62
     1
370
     0
100
AcDbEllipse
 10
-7.7095
 20
91.1588
 30
0.0
 11
0.0
 21
4.133500000000001
 31
0.0
210
0.0
220
0.0
230
1.0
 40
1.0
 41
0.0
 42
6.283185307179586
  0
ELLIPSE
  5
65
330
1F
100
AcDbEntity
  8
Capa 1
 62
     1
370
     0
100
AcDbEllipse
 10
-7.093800000000001
 20
-1.4947
 30
0.0
 11
0.0
 21
4.133500000000001
 31
0.0
210
0.0
220
0.0
230
1.0
 40
1.0
 41
0.0
 42
6.283185307179586
  0
ELLIPSE
  5
66
330
1F
100
AcDbEntity
  8
Capa 1
 62
     1
370
     0
100
AcDbEllipse
 10
124.0531
 20
-37.7336
 30
0.0
 11
0.0
 21
4.133500000000001
 31
0.0
210
0.0
220
0.0
230
1.0
 40
1.0
 41
0.0
 42
6.283185307179586
  0
ELLIPSE
  5
67
330
1F
100
AcDbEntity
  8
Capa 1
 62
     1
370
     0
100
AcDbEllipse
 10
124.0531
 20
-80.8246
 30
0.0
 11
0.0
 21
4.133500000000001
 31
0.0
210
0.0
220
0.0
230
1.0
 40
1.0
 41
0.0
 42
6.283185307179586
  0
SPLINE
  5
68
330
1F
100
AcDbEntity
  8
Capa 1
 62
     1
370
     0
100
AcDbSpline
210
0.0
220
0.0
230
1.0
 70
    11
 71
     3
 72
    60
 73
    56
 74
     0
 42
0.0000000001
 43
0.0000000001
 40
0.0
 40
0.0
 40
0.0
 40
0.0
 40
0.0714285714285714
 40
0.0714285714285714
 40
0.0714285714285714
 40
0.0714285714285714
 40
0.1428571428571429
 40
0.1428571428571429
 40
0.1428571428571429
 40
0.1428571428571429
 40
0.2142857142857143
 40
0.2142857142857143
 40
0.2142857142857143
 40
0.2142857142857143
 40
0.2857142857142857
 40
0.2857142857142857
 40
0.2857142857142857
 40
0.2857142857142857
 40
0.3571428571428571
 40
0.3571428571428571
 40
0.3571428571428571
 40
0.3571428571428571
 40
0.4285714285714285
 40
0.4285714285714285
 40
0.4285714285714285
 40
0.4285714285714285
 40
0.4999999999999999
 40
0.4999999999999999
 40
0.4999999999999999
 40
0.4999999999999999
 40
0.5714285714285713
 40
0.5714285714285713
 40
0.5714285714285713
 40
0.5714285714285713
 40
0.6428571428571427
 40
0.6428571428571427
 40
0.6428571428571427
 40
0.6428571428571427
 40
0.7142857142857141
 40
0.7142857142857141
 40
0.7142857142857141
 40
0.7142857142857141
 40
0.7857142857142855
 40
0.7857142857142855
 40
0.7857142857142855
 40
0.7857142857142855
 40
0.8571428571428569
 40
0.8571428571428569
 40
0.8571428571428569
 40
0.8571428571428569
 40
0.9285714285714283
 40
0.9285714285714283
 40
0.9285714285714283
 40
0.9285714285714283
 40
1.0
 40
1.0
 40
1.0
 40
1.0
 10
87.5775
 20
151.5066
 30
0.0
 10
87.5775
 20
151.5066
 30
0.0
 10
92.04700000000001
 20
152.477
 30
0.0
 10
92.04700000000001
 20
152.477
 30
0.0
 10
92.04700000000001
 20
152.477
 30
0.0
 10
92.04700000000001
 20
152.477
 30
0.0
 10
89.9585
 20
163.4052
 30
0.0
 10
89.9585
 20
163.4052
 30
0.0
 10
89.9585
 20
163.4052
 30
0.0
 10
89.9585
 20
163.4052
 30
0.0
 10
92.90520000000001
 20
163.9684
 30
0.0
 10
92.90520000000001
 20
163.9684
 30
0.0
 10
92.90520000000001
 20
163.9684
 30
0.0
 10
92.90520000000001
 20
163.9684
 30
0.0
 10
94.97970000000001
 20
153.1138
 30
0.0
 10
94.97970000000001
 20
153.1138
 30
0.0
 10
94.97970000000001
 20
153.1138
 30
0.0
 10
94.97970000000001
 20
153.1138
 30
0.0
 10
99.37190000000001
 20
154.0674
 30
0.0
 10
99.37190000000001
 20
154.0674
 30
0.0
 10
99.37190000000001
 20
154.0674
 30
0.0
 10
99.37190000000001
 20
154.0674
 30
0.0
 10
94.05290000000001
 20
179.7602
 30
0.0
 10
94.05290000000001
 20
179.7602
 30
0.0
 10
94.05290000000001
 20
179.7602
 30
0.0
 10
94.05290000000001
 20
179.7602
 30
0.0
 10
88.39660000000001
 20
177.4023
 30
0.0
 10
88.39660000000001
 20
177.4023
 30
0.0
 10
88.39660000000001
 20
177.4023
 30
0.0
 10
88.39660000000001
 20
177.4023
 30
0.0
 10
87.2423
 20
180.1714
 30
0.0
 10
87.2423
 20
180.1714
 30
0.0
 10
87.2423
 20
180.1714
 30
0.0
 10
87.2423
 20
180.1714
 30
0.0
 10
93.43340000000001
 20
182.7522
 30
0.0
 10
93.43340000000001
 20
182.7522
 30
0.0
 10
93.43340000000001
 20
182.7522
 30
0.0
 10
93.43340000000001
 20
182.7522
 30
0.0
 10
92.91410000000001
 20
185.2606
 30
0.0
 10
92.91410000000001
 20
185.2606
 30
0.0
 10
92.91410000000001
 20
185.2606
 30
0.0
 10
92.91410000000001
 20
185.2606
 30
0.0
 10
90.25110000000001
 20
186.5955
 30
0.0
 10
90.25110000000001
 20
186.5955
 30
0.0
 10
90.25110000000001
 20
186.5955
 30
0.0
 10
90.25110000000001
 20
186.5955
 30
0.0
 10
83.4323
 20
183.2019
 30
0.0
 10
83.4323
 20
183.2019
 30
0.0
 10
83.4323
 20
183.2019
 30
0.0
 10
83.4323
 20
183.2019
 30
0.0
 10
81.68940000000001
 20
181.0799
 30
0.0
 10
81.68940000000001
 20
181.0799
 30
0.0
 10
81.68940000000001
 20
181.0799
 30
0.0
 10
81.68940000000001
 20
181.0799
 30
0.0
 10
87.5775
 20
151.5066
 30
0.0
 10
87.5775
 20
151.5066
 30
0.0
  0
SPLINE
  5
69
330
1F
100
AcDbEntity
  8
Capa 1
 62
     1
370
     0
100
AcDbSpline
210
0.0
220
0.0
230
1.0
 70
    11
 71
     3
 72
    84
 73
    80
 74
     0
 42
0.0000000001
 43
0.0000000001
 40
0.0
 40
0.0
 40
0.0
 40
0.0
 40
0.05
 40
0.05
 40
0.05
 40
0.05
 40
0.1
 40
0.1
 40
0.1
 40
0.1
 40
0.15
 40
0.15
 40
0.15
 40
0.15
 40
0.2
 40
0.2
 40
0.2
 40
0.2
 40
0.25
 40
0.25
 40
0.25
 40
0.25
 40
0.3
 40
0.3
 40
0.3
 40
0.3
 40
0.35
 40
0.35
 40
0.35
 40
0.35
 40
0.4
 40
0.4
 40
0.4
 40
0.4
 40
0.45
 40
0.45
 40
0.45
 40
0.45
 40
0.4999999999999999
 40
0.4999999999999999
 40
0.4999999999999999
 40
0.4999999999999999
 40
0.5499999999999999
 40
0.5499999999999999
 40
0.5499999999999999
 40
0.5499999999999999
 40
0.6
 40
0.6
 40
0.6
 40
0.6
 40
0.65
 40
0.65
 40
0.65
 40
0.65
 40
0.7000000000000001
 40
0.7000000000000001
 40
0.7000000000000001
 40
0.7000000000000001
 40
0.7500000000000001
 40
0.7500000000000001
 40
0.7500000000000001
 40
0.7500000000000001
 40
0.8000000000000002
 40
0.8000000000000002
 40
0.8000000000000002
 40
0.8000000000000002
 40
0.8500000000000002
 40
0.8500000000000002
 40
0.8500000000000002
 40
0.8500000000000002
 40
0.9000000000000002
 40
0.9000000000000002
 40
0.9000000000000002
 40
0.9000000000000002
 40
0.9500000000000003
 40
0.9500000000000003
 40
0.9500000000000003
 40
0.9500000000000003
 40
1.0
 40
1.0
 40
1.0
 40
1.0
 10
58.37540000000001
 20
270.6899
 30
0.0
 10
58.37540000000001
 20
270.6899
 30
0.0
 10
77.5136
 20
270.6899
 30
0.0
 10
77.5136
 20
270.6899
 30
0.0
 10
77.5136
 20
270.6899
 30
0.0
 10
77.5136
 20
270.6899
 30
0.0
 10
77.5136
 20
252.7209
 30
0.0
 10
77.5136
 20
252.7209
 30
0.0
 10
77.5136
 20
252.7209
 30
0.0
 10
77.5136
 20
252.7209
 30
0.0
 10
69.6947
 20
252.721
 30
0.0
 10
69.6947
 20
252.721
 30
0.0
 10
69.6947
 20
252.721
 30
0.0
 10
69.6947
 20
252.721
 30
0.0
 10
69.6947
 20
249.721
 30
0.0
 10
69.6947
 20
249.721
 30
0.0
 10
69.6947
 20
249.721
 30
0.0
 10
69.6947
 20
249.721
 30
0.0
 10
77.5136
 20
249.7209
 30
0.0
 10
77.5136
 20
249.7209
 30
0.0
 10
77.5136
 20
249.7209
 30
0.0
 10
77.5136
 20
249.7209
 30
0.0
 10
77.5136
 20
246.4818
 30
0.0
 10
77.5136
 20
246.4818
 30
0.0
 10
77.5136
 20
246.4818
 30
0.0
 10
77.5136
 20
246.4818
 30
0.0
 10
69.6947
 20
246.4818
 30
0.0
 10
69.6947
 20
246.4818
 30
0.0
 10
69.6947
 20
246.4818
 30
0.0
 10
69.6947
 20
246.4818
 30
0.0
 10
69.6947
 20
243.4818
 30
0.0
 10
69.6947
 20
243.4818
 30
0.0
 10
69.6947
 20
243.4818
 30
0.0
 10
69.6947
 20
243.4818
 30
0.0
 10
77.5136
 20
243.4818
 30
0.0
 10
77.5136
 20
243.4818
 30
0.0
 10
77.5136
 20
243.4818
 30
0.0
 10
77.5136
 20
243.4818
 30
0.0
 10
77.5136
 20
226.0635
 30
0.0
 10
77.5136
 20
226.0635
 30
0.0
 10
77.5136
 20
226.0635
 30
0.0
 10
77.5136
 20
226.0635
 30
0.0
 10
58.37540000000001
 20
226.0635
 30
0.0
 10
58.37540000000001
 20
226.0635
 30
0.0
 10
58.37540000000001
 20
226.0635
 30
0.0
 10
58.37540000000001
 20
226.0635
 30
0.0
 10
58.37540000000001
 20
229.8764
 30
0.0
 10
58.37540000000001
 20
229.8764
 30
0.0
 10
58.37540000000001
 20
229.8764
 30
0.0
 10
58.37540000000001
 20
229.8764
 30
0.0
 10
69.6947
 20
229.8764
 30
0.0
 10
69.6947
 20
229.8764
 30
0.0
 10
69.6947
 20
229.8764
 30
0.0
 10
69.6947
 20
229.8764
 30
0.0
 10
69.6947
 20
232.8764
 30
0.0
 10
69.6947
 20
232.8764
 30
0.0
 10
69.6947
 20
232.8764
 30
0.0
 10
69.6947
 20
232.8764
 30
0.0
 10
58.37540000000001
 20
232.8764
 30
0.0
 10
58.37540000000001
 20
232.8764
 30
0.0
 10
58.37540000000001
 20
232.8764
 30
0.0
 10
58.37540000000001
 20
232.8764
 30
0.0
 10
58.37540000000001
 20
263.9195
 30
0.0
 10
58.37540000000001
 20
263.9195
 30
0.0
 10
58.37540000000001
 20
263.9195
 30
0.0
 10
58.37540000000001
 20
263.9195
 30
0.0
 10
69.6947
 20
263.9195
 30
0.0
 10
69.6947
 20
263.9195
 30
0.0
 10
69.6947
 20
263.9195
 30
0.0
 10
69.6947
 20
263.9195
 30
0.0
 10
69.6947
 20
266.9195
 30
0.0
 10
69.6947
 20
266.9195
 30
0.0
 10
69.6947
 20
266.9195
 30
0.0
 10
69.6947
 20
266.9195
 30
0.0
 10
58.37540000000001
 20
266.9195
 30
0.0
 10
58.37540000000001
 20
266.9195
 30
0.0
 10
58.37540000000001
 20
266.9195
 30
0.0
 10
58.37540000000001
 20
266.9195
 30
0.0
 10
58.37540000000001
 20
270.6899
 30
0.0
 10
58.37540000000001
 20
270.6899
 30
0.0
  0
SPLINE
  5
6A
330
1F
100
AcDbEntity
  8
Capa 1
 62
     1
370
     0
100
AcDbSpline
210
0.0
220
0.0
230
1.0
 70
    11
 71
     3
 72
    80
 73
    76
 74
     0
 42
0.0000000001
 43
0.0000000001
 40
0.0
 40
0.0
 40
0.0
 40
0.0
 40
0.0526315789473684
 40
0.0526315789473684
 40
0.0526315789473684
 40
0.0526315789473684
 40
0.1052631578947368
 40
0.1052631578947368
 40
0.1052631578947368
 40
0.1052631578947368
 40
0.1578947368421053
 40
0.1578947368421053
 40
0.1578947368421053
 40
0.1578947368421053
 40
0.2105263157894737
 40
0.2105263157894737
 40
0.2105263157894737
 40
0.2105263157894737
 40
0.2631578947368421
 40
0.2631578947368421
 40
0.2631578947368421
 40
0.2631578947368421
 40
0.3157894736842105
 40
0.3157894736842105
 40
0.3157894736842105
 40
0.3157894736842105
 40
0.3684210526315789
 40
0.3684210526315789
 40
0.3684210526315789
 40
0.3684210526315789
 40
0.4210526315789474
 40
0.4210526315789474
 40
0.4210526315789474
 40
0.4210526315789474
 40
0.4736842105263158
 40
0.4736842105263158
 40
0.4736842105263158
 40
0.4736842105263158
 40
0.5263157894736842
 40
0.5263157894736842
 40
0.5263157894736842
 40
0.5263157894736842
 40
0.5789473684210527
 40
0.5789473684210527
 40
0.5789473684210527
 40
0.5789473684210527
 40
0.631578947368421
 40
0.631578947368421
 40
0.631578947368421
 40
0.631578947368421
 40
0.6842105263157894
 40
0.6842105263157894
 40
0.6842105263157894
 40
0.6842105263157894
 40
0.7368421052631577
 40
0.7368421052631577
 40
0.7368421052631577
 40
0.7368421052631577
 40
0.7894736842105261
 40
0.7894736842105261
 40
0.7894736842105261
 40
0.7894736842105261
 40
0.8421052631578945
 40
0.8421052631578945
 40
0.8421052631578945
 40
0.8421052631578945
 40
0.8947368421052628
 40
0.8947368421052628
 40
0.8947368421052628
 40
0.8947368421052628
 40
0.9473684210526312
 40
0.9473684210526312
 40
0.9473684210526312
 40
0.9473684210526312
 40
1.0
 40
1.0
 40
1.0
 40
1.0
 10
-9.9565
 20
330.5952
 30
0.0
 10
-9.9565
 20
330.5952
 30
0.0
 10
-14.8949
 20
330.6855
 30
0.0
 10
-19.2994
 20
330.6022
 30
0.0
 10
-19.2994
 20
330.6022
 30
0.0
 10
-19.2994
 20
330.6022
 30
0.0
 10
-19.3049
 20
315.689
 30
0.0
 10
-19.3049
 20
315.689
 30
0.0
 10
-19.3049
 20
315.689
 30
0.0
 10
-19.3049
 20
315.689
 30
0.0
 10
-22.305
 20
315.6916
 30
0.0
 10
-22.305
 20
315.6916
 30
0.0
 10
-22.305
 20
315.6916
 30
0.0
 10
-22.305
 20
315.6916
 30
0.0
 10
-22.2995
 20
330.5087
 30
0.0
 10
-22.2995
 20
330.5087
 30
0.0
 10
-22.2995
 20
330.5087
 30
0.0
 10
-24.1078
 20
330.423
 30
0.0
 10
-25.5065
 20
330.2848
 30
0.0
 10
-25.9197
 20
330.066
 30
0.0
 10
-25.9197
 20
330.066
 30
0.0
 10
-25.9197
 20
330.066
 30
0.0
 10
-26.7686
 20
329.7461
 30
0.0
 10
-26.8899
 20
328.324
 30
0.0
 10
-26.8899
 20
328.324
 30
0.0
 10
-27.0112
 20
326.9019
 30
0.0
 10
-26.9997
 20
310.5966
 30
0.0
 10
-26.9997
 20
310.5966
 30
0.0
 10
-26.9997
 20
310.5966
 30
0.0
 10
-26.9997
 20
310.5966
 30
0.0
 10
-27.5731
 20
303.8496
 30
0.0
 10
-23.2515
 20
303.4528
 30
0.0
 10
-23.2515
 20
303.4528
 30
0.0
 10
-23.2515
 20
303.4528
 30
0.0
 10
-20.8482
 20
303.5409
 30
0.0
 10
-20.8482
 20
303.5409
 30
0.0
 10
-20.8482
 20
303.5409
 30
0.0
 10
-20.8482
 20
303.5409
 30
0.0
 10
-20.8482
 20
290.6644
 30
0.0
 10
-20.8482
 20
290.6644
 30
0.0
 10
-20.8482
 20
290.6644
 30
0.0
 10
-20.8482
 20
290.6644
 30
0.0
 10
-16.1736
 20
290.6644
 30
0.0
 10
-16.1736
 20
290.6644
 30
0.0
 10
-16.1736
 20
290.6644
 30
0.0
 10
-16.1736
 20
290.6644
 30
0.0
 10
-15.0712
 20
290.7967
 30
0.0
 10
-15.0712
 20
291.8991
 30
0.0
 10
-15.0712
 20
291.8991
 30
0.0
 10
-15.0712
 20
292.1456
 30
0.0
 10
-15.0734
 20
292.8669
 30
0.0
 10
-15.0768
 20
293.8371
 30
0.0
 10
-15.0768
 20
293.8371
 30
0.0
 10
-15.0768
 20
293.8371
 30
0.0
 10
-18.1157
 20
293.8388
 30
0.0
 10
-18.1157
 20
293.8388
 30
0.0
 10
-18.1157
 20
293.8388
 30
0.0
 10
-18.1157
 20
293.8388
 30
0.0
 10
-18.114
 20
296.8388
 30
0.0
 10
-18.114
 20
296.8388
 30
0.0
 10
-18.114
 20
296.8388
 30
0.0
 10
-18.114
 20
296.8388
 30
0.0
 10
-15.0881
 20
296.8371
 30
0.0
 10
-15.0881
 20
296.8371
 30
0.0
 10
-15.0881
 20
296.8371
 30
0.0
 10
-15.1005
 20
300.0378
 30
0.0
 10
-15.1153
 20
303.5849
 30
0.0
 10
-15.1153
 20
303.5849
 30
0.0
 10
-15.1153
 20
303.5849
 30
0.0
 10
-15.1153
 20
303.5849
 30
0.0
 10
-11.0797
 20
303.651
 30
0.0
 10
-11.0797
 20
303.651
 30
0.0
 10
-11.0797
 20
303.651
 30
0.0
 10
-11.0797
 20
303.651
 30
0.0
 10
-9.9565
 20
330.5952
 30
0.0
 10
-9.9565
 20
330.5952
 30
0.0
  0
SPLINE
  5
6B
330
1F
100
AcDbEntity
  8
Capa 1
 62
     1
370
     0
100
AcDbSpline
210
0.0
220
0.0
230
1.0
 70
    11
 71
     3
 72
    68
 73
    64
 74
     0
 42
0.0000000001
 43
0.0000000001
 40
0.0
 40
0.0
 40
0.0
 40
0.0
 40
0.0625
 40
0.0625
 40
0.0625
 40
0.0625
 40
0.125
 40
0.125
 40
0.125
 40
0.125
 40
0.1875
 40
0.1875
 40
0.1875
 40
0.1875
 40
0.25
 40
0.25
 40
0.25
 40
0.25
 40
0.3125
 40
0.3125
 40
0.3125
 40
0.3125
 40
0.375
 40
0.375
 40
0.375
 40
0.375
 40
0.4375
 40
0.4375
 40
0.4375
 40
0.4375
 40
0.5
 40
0.5
 40
0.5
 40
0.5
 40
0.5625
 40
0.5625
 40
0.5625
 40
0.5625
 40
0.625
 40
0.625
 40
0.625
 40
0.625
 40
0.6875
 40
0.6875
 40
0.6875
 40
0.6875
 40
0.75
 40
0.75
 40
0.75
 40
0.75
 40
0.8125
 40
0.8125
 40
0.8125
 40
0.8125
 40
0.875
 40
0.875
 40
0.875
 40
0.875
 40
0.9375
 40
0.9375
 40
0.9375
 40
0.9375
 40
1.0
 40
1.0
 40
1.0
 40
1.0
 10
-2.5685
 20
331.7631
 30
0.0
 10
-2.5685
 20
331.7631
 30
0.0
 10
-8.6539
 20
332.16
 30
0.0
 10
-8.6539
 20
332.16
 30
0.0
 10
-8.6539
 20
332.16
 30
0.0
 10
-8.6539
 20
332.16
 30
0.0
 10
-9.8949
 20
332.0751
 30
0.0
 10
-9.9565
 20
330.5952
 30
0.0
 10
-9.9565
 20
330.5952
 30
0.0
 10
-10.0181
 20
329.1153
 30
0.0
 10
-11.0797
 20
303.651
 30
0.0
 10
-11.0797
 20
303.651
 30
0.0
 10
-11.0797
 20
303.651
 30
0.0
 10
-11.0797
 20
303.651
 30
0.0
 10
-11.4321
 20
302.0856
 30
0.0
 10
-9.668200000000001
 20
301.821
 30
0.0
 10
-9.668200000000001
 20
301.821
 30
0.0
 10
-7.9043
 20
301.5564
 30
0.0
 10
-4.2883
 20
301.5564
 30
0.0
 10
-4.2883
 20
301.5564
 30
0.0
 10
-4.2883
 20
301.5564
 30
0.0
 10
-4.2883
 20
301.5564
 30
0.0
 10
-3.3181
 20
301.7328
 30
0.0
 10
-3.274
 20
303.188
 30
0.0
 10
-3.274
 20
303.188
 30
0.0
 10
-3.2672
 20
303.4125
 30
0.0
 10
-3.2299
 20
304.2235
 30
0.0
 10
-3.1718
 20
305.4329
 30
0.0
 10
-3.1718
 20
305.4329
 30
0.0
 10
-3.1718
 20
305.4329
 30
0.0
 10
-7.1738
 20
305.6251
 30
0.0
 10
-7.1738
 20
305.6251
 30
0.0
 10
-7.1738
 20
305.6251
 30
0.0
 10
-7.1738
 20
305.6251
 30
0.0
 10
-6.9611
 20
309.62
 30
0.0
 10
-6.9611
 20
309.62
 30
0.0
 10
-6.9611
 20
309.62
 30
0.0
 10
-6.9611
 20
309.62
 30
0.0
 10
-2.9763
 20
309.4286
 30
0.0
 10
-2.9763
 20
309.4286
 30
0.0
 10
-2.9763
 20
309.4286
 30
0.0
 10
-2.7535
 20
313.9341
 30
0.0
 10
-2.4498
 20
319.969
 30
0.0
 10
-2.223
 20
324.4605
 30
0.0
 10
-2.223
 20
324.4605
 30
0.0
 10
-2.223
 20
324.4605
 30
0.0
 10
-6.2179
 20
324.6625
 30
0.0
 10
-6.2179
 20
324.6625
 30
0.0
 10
-6.2179
 20
324.6625
 30
0.0
 10
-6.2179
 20
324.6625
 30
0.0
 10
-6.0159
 20
328.6574
 30
0.0
 10
-6.0159
 20
328.6574
 30
0.0
 10
-6.0159
 20
328.6574
 30
0.0
 10
-6.0159
 20
328.6574
 30
0.0
 10
-2.021
 20
328.4554
 30
0.0
 10
-2.021
 20
328.4554
 30
0.0
 10
-2.021
 20
328.4554
 30
0.0
 10
-2.021
 20
328.4554
 30
0.0
 10
-1.907
 20
330.7048
 30
0.0
 10
-1.907
 20
330.7048
 30
0.0
 10
-1.907
 20
330.7048
 30
0.0
 10
-1.907
 20
330.7048
 30
0.0
 10
-1.7747
 20
331.5867
 30
0.0
 10
-2.5685
 20
331.7631
 30
0.0
  0
SPLINE
  5
6C
330
1F
100
AcDbEntity
  8
Capa 1
 62
     1
370
     0
100
AcDbSpline
210
0.0
220
0.0
230
1.0
 70
    11
 71
     3
 72
    68
 73
    64
 74
     0
 42
0.0000000001
 43
0.0000000001
 40
0.0
 40
0.0
 40
0.0
 40
0.0
 40
0.0625
 40
0.0625
 40
0.0625
 40
0.0625
 40
0.125
 40
0.125
 40
0.125
 40
0.125
 40
0.1875
 40
0.1875
 40
0.1875
 40
0.1875
 40
0.25
 40
0.25
 40
0.25
 40
0.25
 40
0.3125
 40
0.3125
 40
0.3125
 40
0.3125
 40
0.375
 40
0.375
 40
0.375
 40
0.375
 40
0.4375
 40
0.4375
 40
0.4375
 40
0.4375
 40
0.5
 40
0.5
 40
0.5
 40
0.5
 40
0.5625
 40
0.5625
 40
0.5625
 40
0.5625
 40
0.625
 40
0.625
 40
0.625
 40
0.625
 40
0.6875
 40
0.6875
 40
0.6875
 40
0.6875
 40
0.75
 40
0.75
 40
0.75
 40
0.75
 40
0.8125
 40
0.8125
 40
0.8125
 40
0.8125
 40
0.875
 40
0.875
 40
0.875
 40
0.875
 40
0.9375
 40
0.9375
 40
0.9375
 40
0.9375
 40
1.0
 40
1.0
 40
1.0
 40
1.0
 10
43.5337
 20
327.4073
 30
0.0
 10
43.5337
 20
327.4073
 30
0.0
 10
43.5337
 20
321.9406
 30
0.0
 10
43.5337
 20
321.9406
 30
0.0
 10
43.5337
 20
321.9406
 30
0.0
 10
43.5337
 20
321.9406
 30
0.0
 10
54.73580000000001
 20
321.9407
 30
0.0
 10
54.73580000000001
 20
321.9407
 30
0.0
 10
54.73580000000001
 20
321.9407
 30
0.0
 10
54.73580000000001
 20
321.9407
 30
0.0
 10
54.73580000000001
 20
318.9406
 30
0.0
 10
54.73580000000001
 20
318.9406
 30
0.0
 10
54.73580000000001
 20
318.9406
 30
0.0
 10
54.73580000000001
 20
318.9406
 30
0.0
 10
43.5337
 20
318.9406
 30
0.0
 10
43.5337
 20
318.9406
 30
0.0
 10
43.5337
 20
318.9406
 30
0.0
 10
43.5337
 20
318.9406
 30
0.0
 10
43.5337
 20
312.4142
 30
0.0
 10
43.5337
 20
312.4142
 30
0.0
 10
43.5337
 20
312.4142
 30
0.0
 10
43.5337
 20
312.4142
 30
0.0
 10
65.67060000000001
 20
308.2691
 30
0.0
 10
65.67060000000001
 20
308.2691
 30
0.0
 10
65.67060000000001
 20
308.2691
 30
0.0
 10
65.67060000000001
 20
308.2691
 30
0.0
 10
96.97960000000001
 20
308.4455
 30
0.0
 10
96.97960000000001
 20
308.4455
 30
0.0
 10
96.97960000000001
 20
308.4455
 30
0.0
 10
96.97960000000001
 20
308.4455
 30
0.0
 10
119.0283
 20
312.767
 30
0.0
 10
119.0283
 20
312.767
 30
0.0
 10
119.0283
 20
312.767
 30
0.0
 10
119.0283
 20
312.767
 30
0.0
 10
119.0283
 20
318.9407
 30
0.0
 10
119.0283
 20
318.9407
 30
0.0
 10
119.0283
 20
318.9407
 30
0.0
 10
119.0283
 20
318.9407
 30
0.0
 10
108.2325
 20
318.9406
 30
0.0
 10
108.2325
 20
318.9406
 30
0.0
 10
108.2325
 20
318.9406
 30
0.0
 10
108.2325
 20
318.9406
 30
0.0
 10
108.2325
 20
321.9407
 30
0.0
 10
108.2325
 20
321.9407
 30
0.0
 10
108.2325
 20
321.9407
 30
0.0
 10
108.2325
 20
321.9407
 30
0.0
 10
119.0283
 20
321.9407
 30
0.0
 10
119.0283
 20
321.9407
 30
0.0
 10
119.0283
 20
321.9407
 30
0.0
 10
119.0283
 20
321.9407
 30
0.0
 10
119.0283
 20
327.4955
 30
0.0
 10
119.0283
 20
327.4955
 30
0.0
 10
119.0283
 20
327.4955
 30
0.0
 10
119.0283
 20
327.4955
 30
0.0
 10
97.33240000000001
 20
332.5226
 30
0.0
 10
97.33240000000001
 20
332.5226
 30
0.0
 10
97.33240000000001
 20
332.5226
 30
0.0
 10
97.33240000000001
 20
332.5226
 30
0.0
 10
65.75880000000001
 20
332.6108
 30
0.0
 10
65.75880000000001
 20
332.6108
 30
0.0
 10
65.75880000000001
 20
332.6108
 30
0.0
 10
65.75880000000001
 20
332.6108
 30
0.0
 10
43.5337
 20
327.4073
 30
0.0
 10
43.5337
 20
327.4073
 30
0.0
  0
SPLINE
  5
6D
330
1F
100
AcDbEntity
  8
Capa 1
 62
     1
370
     0
100
AcDbSpline
210
0.0
220
0.0
230
1.0
 70
    11
 71
     3
 72
    20
 73
    16
 74
     0
 42
0.0000000001
 43
0.0000000001
 40
0.0
 40
0.0
 40
0.0
 40
0.0
 40
0.25
 40
0.25
 40
0.25
 40
0.25
 40
0.5
 40
0.5
 40
0.5
 40
0.5
 40
0.75
 40
0.75
 40
0.75
 40
0.75
 40
1.0
 40
1.0
 40
1.0
 40
1.0
 10
71.0505
 20
321.9407
 30
0.0
 10
71.0505
 20
321.9407
 30
0.0
 10
80.8656
 20
321.9407
 30
0.0
 10
80.8656
 20
321.9407
 30
0.0
 10
80.8656
 20
321.9407
 30
0.0
 10
80.8656
 20
321.9407
 30
0.0
 10
80.8656
 20
318.9407
 30
0.0
 10
80.8656
 20
318.9407
 30
0.0
 10
80.8656
 20
318.9407
 30
0.0
 10
80.8656
 20
318.9407
 30
0.0
 10
71.0505
 20
318.9407
 30
0.0
 10
71.0505
 20
318.9407
 30
0.0
 10
71.0505
 20
318.9407
 30
0.0
 10
71.0505
 20
318.9407
 30
0.0
 10
71.0505
 20
321.9407
 30
0.0
 10
71.0505
 20
321.9407
 30
0.0
  0
SPLINE
  5
6E
330
1F
100
AcDbEntity
  8
Capa 1
 62
     1
370
     0
100
AcDbSpline
210
0.0
220
0.0
230
1.0
 70
    11
 71
     3
 72
    48
 73
    44
 74
     0
 42
0.0000000001
 43
0.0000000001
 40
0.0
 40
0.0
 40
0.0
 40
0.0
 40
0.0909090909090909
 40
0.0909090909090909
 40
0.0909090909090909
 40
0.0909090909090909
 40
0.1818181818181818
 40
0.1818181818181818
 40
0.1818181818181818
 40
0.1818181818181818
 40
0.2727272727272727
 40
0.2727272727272727
 40
0.2727272727272727
 40
0.2727272727272727
 40
0.3636363636363637
 40
0.3636363636363637
 40
0.3636363636363637
 40
0.3636363636363637
 40
0.4545454545454546
 40
0.4545454545454546
 40
0.4545454545454546
 40
0.4545454545454546
 40
0.5454545454545455
 40
0.5454545454545455
 40
0.5454545454545455
 40
0.5454545454545455
 40
0.6363636363636365
 40
0.6363636363636365
 40
0.6363636363636365
 40
0.6363636363636365
 40
0.7272727272727274
 40
0.7272727272727274
 40
0.7272727272727274
 40
0.7272727272727274
 40
0.8181818181818183
 40
0.8181818181818183
 40
0.8181818181818183
 40
0.8181818181818183
 40
0.9090909090909093
 40
0.9090909090909093
 40
0.9090909090909093
 40
0.9090909090909093
 40
1.0
 40
1.0
 40
1.0
 40
1.0
 10
45.2973
 20
299.67
 30
0.0
 10
45.2973
 20
299.67
 30
0.0
 10
60.0007
 20
299.7438
 30
0.0
 10
60.0007
 20
299.7438
 30
0.0
 10
60.0007
 20
299.7438
 30
0.0
 10
60.0007
 20
299.7438
 30
0.0
 10
60.0007
 20
302.5371
 30
0.0
 10
60.0007
 20
302.5371
 30
0.0
 10
60.0007
 20
302.5371
 30
0.0
 10
60.0007
 20
302.5371
 30
0.0
 10
72.63800000000001
 20
302.5371
 30
0.0
 10
72.63800000000001
 20
302.5371
 30
0.0
 10
72.63800000000001
 20
302.5371
 30
0.0
 10
72.63800000000001
 20
302.5371
 30
0.0
 10
72.63800000000001
 20
299.8072
 30
0.0
 10
72.63800000000001
 20
299.8072
 30
0.0
 10
72.63800000000001
 20
299.8072
 30
0.0
 10
72.63800000000001
 20
299.8072
 30
0.0
 10
115.5883
 20
300.0228
 30
0.0
 10
115.5883
 20
300.0228
 30
0.0
 10
115.5883
 20
300.0228
 30
0.0
 10
115.5883
 20
300.0228
 30
0.0
 10
116.2939
 20
298.259
 30
0.0
 10
114.8828
 20
297.5534
 30
0.0
 10
114.8828
 20
297.5534
 30
0.0
 10
113.4717
 20
296.8478
 30
0.0
 10
101.5653
 20
290.2333
 30
0.0
 10
99.3605
 20
278.1506
 30
0.0
 10
99.3605
 20
278.1506
 30
0.0
 10
99.3605
 20
278.1506
 30
0.0
 10
97.59660000000001
 20
273.6526
 30
0.0
 10
96.0091
 20
273.6526
 30
0.0
 10
96.0091
 20
273.6526
 30
0.0
 10
96.0091
 20
273.6526
 30
0.0
 10
62.3188
 20
279.5617
 30
0.0
 10
62.3188
 20
279.5617
 30
0.0
 10
62.3188
 20
279.5617
 30
0.0
 10
62.3188
 20
279.5617
 30
0.0
 10
44.4153
 20
286.2645
 30
0.0
 10
44.4153
 20
286.2645
 30
0.0
 10
44.4153
 20
286.2645
 30
0.0
 10
44.4153
 20
286.2645
 30
0.0
 10
45.2973
 20
299.67
 30
0.0
 10
45.2973
 20
299.67
 30
0.0
  0
SPLINE
  5
6F
330
1F
100
AcDbEntity
  8
Capa 1
 62
     1
370
     0
100
AcDbSpline
210
0.0
220
0.0
230
1.0
 70
    11
 71
     3
 72
    76
 73
    72
 74
     0
 42
0.0000000001
 43
0.0000000001
 40
0.0
 40
0.0
 40
0.0
 40
0.0
 40
0.0555555555555556
 40
0.0555555555555556
 40
0.0555555555555556
 40
0.0555555555555556
 40
0.1111111111111111
 40
0.1111111111111111
 40
0.1111111111111111
 40
0.1111111111111111
 40
0.1666666666666667
 40
0.1666666666666667
 40
0.1666666666666667
 40
0.1666666666666667
 40
0.2222222222222222
 40
0.2222222222222222
 40
0.2222222222222222
 40
0.2222222222222222
 40
0.2777777777777778
 40
0.2777777777777778
 40
0.2777777777777778
 40
0.2777777777777778
 40
0.3333333333333334
 40
0.3333333333333334
 40
0.3333333333333334
 40
0.3333333333333334
 40
0.388888888888889
 40
0.388888888888889
 40
0.388888888888889
 40
0.388888888888889
 40
0.4444444444444445
 40
0.4444444444444445
 40
0.4444444444444445
 40
0.4444444444444445
 40
0.5000000000000001
 40
0.5000000000000001
 40
0.5000000000000001
 40
0.5000000000000001
 40
0.5555555555555557
 40
0.5555555555555557
 40
0.5555555555555557
 40
0.5555555555555557
 40
0.6111111111111113
 40
0.6111111111111113
 40
0.6111111111111113
 40
0.6111111111111113
 40
0.6666666666666669
 40
0.6666666666666669
 40
0.6666666666666669
 40
0.6666666666666669
 40
0.7222222222222224
 40
0.7222222222222224
 40
0.7222222222222224
 40
0.7222222222222224
 40
0.777777777777778
 40
0.777777777777778
 40
0.777777777777778
 40
0.777777777777778
 40
0.8333333333333336
 40
0.8333333333333336
 40
0.8333333333333336
 40
0.8333333333333336
 40
0.8888888888888892
 40
0.8888888888888892
 40
0.8888888888888892
 40
0.8888888888888892
 40
0.9444444444444448
 40
0.9444444444444448
 40
0.9444444444444448
 40
0.9444444444444448
 40
1.0
 40
1.0
 40
1.0
 40
1.0
 10
-26.9456
 20
254.1508
 30
0.0
 10
-26.9456
 20
254.1508
 30
0.0
 10
-27.2984
 20
255.3414
 30
0.0
 10
-25.5345
 20
255.606
 30
0.0
 10
-25.5345
 20
255.606
 30
0.0
 10
-23.7706
 20
255.8706
 30
0.0
 10
-17.7293
 20
257.0171
 30
0.0
 10
-17.7293
 20
257.0171
 30
0.0
 10
-17.7293
 20
257.0171
 30
0.0
 10
-17.7293
 20
257.0171
 30
0.0
 10
-16.0223
 20
257.6962
 30
0.0
 10
-14.1116
 20
255.3835
 30
0.0
 10
-14.1116
 20
255.3835
 30
0.0
 10
-14.1116
 20
255.3835
 30
0.0
 10
-17.5429
 20
252.5488
 30
0.0
 10
-17.5429
 20
252.5488
 30
0.0
 10
-17.5429
 20
252.5488
 30
0.0
 10
-17.5429
 20
252.5488
 30
0.0
 10
-15.6322
 20
250.236
 30
0.0
 10
-15.6322
 20
250.236
 30
0.0
 10
-15.6322
 20
250.236
 30
0.0
 10
-15.6322
 20
250.236
 30
0.0
 10
-12.1014
 20
253.1529
 30
0.0
 10
-12.1014
 20
253.1529
 30
0.0
 10
-12.1014
 20
253.1529
 30
0.0
 10
-11.2995
 20
252.3439
 30
0.0
 10
-10.806
 20
251.9459
 30
0.0
 10
-10.806
 20
251.9459
 30
0.0
 10
-10.806
 20
251.9459
 30
0.0
 10
-10.806
 20
251.9459
 30
0.0
 10
-9.7476
 20
251.064
 30
0.0
 10
-10.365
 20
249.4765
 30
0.0
 10
-10.365
 20
249.4765
 30
0.0
 10
-10.9824
 20
247.889
 30
0.0
 10
-11.8202
 20
247.4479
 30
0.0
 10
-11.8643
 20
245.0667
 30
0.0
 10
-11.8643
 20
245.0667
 30
0.0
 10
-11.9084
 20
242.6855
 30
0.0
 10
-11.9084
 20
236.9528
 30
0.0
 10
-11.9084
 20
236.9528
 30
0.0
 10
-11.9084
 20
236.9528
 30
0.0
 10
-11.9084
 20
236.9528
 30
0.0
 10
-11.5998
 20
235.189
 30
0.0
 10
-13.8928
 20
234.9244
 30
0.0
 10
-13.8928
 20
234.9244
 30
0.0
 10
-15.0356
 20
234.7926
 30
0.0
 10
-17.8544
 20
234.7483
 30
0.0
 10
-20.3945
 20
234.7371
 30
0.0
 10
-20.3945
 20
234.7371
 30
0.0
 10
-20.3945
 20
234.7371
 30
0.0
 10
-20.3945
 20
246.4006
 30
0.0
 10
-20.3945
 20
246.4006
 30
0.0
 10
-20.3945
 20
246.4006
 30
0.0
 10
-20.3945
 20
246.4006
 30
0.0
 10
-23.3945
 20
246.4006
 30
0.0
 10
-23.3945
 20
246.4006
 30
0.0
 10
-23.3945
 20
246.4006
 30
0.0
 10
-23.3945
 20
246.4006
 30
0.0
 10
-23.3945
 20
234.7368
 30
0.0
 10
-23.3945
 20
234.7368
 30
0.0
 10
-23.3945
 20
234.7368
 30
0.0
 10
-24.4939
 20
234.741
 30
0.0
 10
-25.2258
 20
234.748
 30
0.0
 10
-25.2258
 20
234.748
 30
0.0
 10
-25.2258
 20
234.748
 30
0.0
 10
-25.2258
 20
234.748
 30
0.0
 10
-26.8133
 20
234.351
 30
0.0
 10
-26.8133
 20
236.9528
 30
0.0
 10
-26.8133
 20
236.9528
 30
0.0
 10
-26.8133
 20
239.5546
 30
0.0
 10
-26.9456
 20
254.1508
 30
0.0
 10
-26.9456
 20
254.1508
 30
0.0
  0
SPLINE
  5
70
330
1F
100
AcDbEntity
  8
Capa 1
 62
     1
370
     0
100
AcDbSpline
210
0.0
220
0.0
230
1.0
 70
    11
 71
     3
 72
    76
 73
    72
 74
     0
 42
0.0000000001
 43
0.0000000001
 40
0.0
 40
0.0
 40
0.0
 40
0.0
 40
0.0555555555555556
 40
0.0555555555555556
 40
0.0555555555555556
 40
0.0555555555555556
 40
0.1111111111111111
 40
0.1111111111111111
 40
0.1111111111111111
 40
0.1111111111111111
 40
0.1666666666666667
 40
0.1666666666666667
 40
0.1666666666666667
 40
0.1666666666666667
 40
0.2222222222222222
 40
0.2222222222222222
 40
0.2222222222222222
 40
0.2222222222222222
 40
0.2777777777777778
 40
0.2777777777777778
 40
0.2777777777777778
 40
0.2777777777777778
 40
0.3333333333333334
 40
0.3333333333333334
 40
0.3333333333333334
 40
0.3333333333333334
 40
0.388888888888889
 40
0.388888888888889
 40
0.388888888888889
 40
0.388888888888889
 40
0.4444444444444445
 40
0.4444444444444445
 40
0.4444444444444445
 40
0.4444444444444445
 40
0.5000000000000001
 40
0.5000000000000001
 40
0.5000000000000001
 40
0.5000000000000001
 40
0.5555555555555557
 40
0.5555555555555557
 40
0.5555555555555557
 40
0.5555555555555557
 40
0.6111111111111113
 40
0.6111111111111113
 40
0.6111111111111113
 40
0.6111111111111113
 40
0.6666666666666669
 40
0.6666666666666669
 40
0.6666666666666669
 40
0.6666666666666669
 40
0.7222222222222224
 40
0.7222222222222224
 40
0.7222222222222224
 40
0.7222222222222224
 40
0.777777777777778
 40
0.777777777777778
 40
0.777777777777778
 40
0.777777777777778
 40
0.8333333333333336
 40
0.8333333333333336
 40
0.8333333333333336
 40
0.8333333333333336
 40
0.8888888888888892
 40
0.8888888888888892
 40
0.8888888888888892
 40
0.8888888888888892
 40
0.9444444444444448
 40
0.9444444444444448
 40
0.9444444444444448
 40
0.9444444444444448
 40
1.0
 40
1.0
 40
1.0
 40
1.0
 10
52.2805
 20
253.7819
 30
0.0
 10
52.2805
 20
253.7819
 30
0.0
 10
52.63330000000001
 20
254.9725
 30
0.0
 10
50.86940000000001
 20
255.2371
 30
0.0
 10
50.86940000000001
 20
255.2371
 30
0.0
 10
49.1055
 20
255.5017
 30
0.0
 10
43.0642
 20
256.6482
 30
0.0
 10
43.0642
 20
256.6482
 30
0.0
 10
43.0642
 20
256.6482
 30
0.0
 10
43.0642
 20
256.6482
 30
0.0
 10
41.3572
 20
257.3273
 30
0.0
 10
39.4465
 20
255.0146
 30
0.0
 10
39.4465
 20
255.0146
 30
0.0
 10
39.4465
 20
255.0146
 30
0.0
 10
42.8778
 20
252.1799
 30
0.0
 10
42.8778
 20
252.1799
 30
0.0
 10
42.8778
 20
252.1799
 30
0.0
 10
42.8778
 20
252.1799
 30
0.0
 10
40.9671
 20
249.8671
 30
0.0
 10
40.9671
 20
249.8671
 30
0.0
 10
40.9671
 20
249.8671
 30
0.0
 10
40.9671
 20
249.8671
 30
0.0
 10
37.4363
 20
252.784
 30
0.0
 10
37.4363
 20
252.784
 30
0.0
 10
37.4363
 20
252.784
 30
0.0
 10
36.6344
 20
251.975
 30
0.0
 10
36.1409
 20
251.577
 30
0.0
 10
36.1409
 20
251.577
 30
0.0
 10
36.1409
 20
251.577
 30
0.0
 10
36.1409
 20
251.577
 30
0.0
 10
35.0825
 20
250.6951
 30
0.0
 10
35.6999
 20
249.1076
 30
0.0
 10
35.6999
 20
249.1076
 30
0.0
 10
36.3173
 20
247.5201
 30
0.0
 10
37.1551
 20
247.079
 30
0.0
 10
37.19920000000001
 20
244.6978
 30
0.0
 10
37.19920000000001
 20
244.6978
 30
0.0
 10
37.24330000000001
 20
242.3166
 30
0.0
 10
37.24330000000001
 20
236.5839
 30
0.0
 10
37.24330000000001
 20
236.5839
 30
0.0
 10
37.24330000000001
 20
236.5839
 30
0.0
 10
37.24330000000001
 20
236.5839
 30
0.0
 10
36.9347
 20
234.8201
 30
0.0
 10
39.2277
 20
234.5555
 30
0.0
 10
39.2277
 20
234.5555
 30
0.0
 10
40.3705
 20
234.4237
 30
0.0
 10
43.1893
 20
234.3794
 30
0.0
 10
45.72940000000001
 20
234.3682
 30
0.0
 10
45.72940000000001
 20
234.3682
 30
0.0
 10
45.72940000000001
 20
234.3682
 30
0.0
 10
45.72940000000001
 20
246.0317
 30
0.0
 10
45.72940000000001
 20
246.0317
 30
0.0
 10
45.72940000000001
 20
246.0317
 30
0.0
 10
45.72940000000001
 20
246.0317
 30
0.0
 10
48.72940000000001
 20
246.0317
 30
0.0
 10
48.72940000000001
 20
246.0317
 30
0.0
 10
48.72940000000001
 20
246.0317
 30
0.0
 10
48.72940000000001
 20
246.0317
 30
0.0
 10
48.72940000000001
 20
234.3679
 30
0.0
 10
48.72940000000001
 20
234.3679
 30
0.0
 10
48.72940000000001
 20
234.3679
 30
0.0
 10
49.8288
 20
234.3721
 30
0.0
 10
50.5607
 20
234.3791
 30
0.0
 10
50.5607
 20
234.3791
 30
0.0
 10
50.5607
 20
234.3791
 30
0.0
 10
50.5607
 20
234.3791
 30
0.0
 10
52.1482
 20
233.9821
 30
0.0
 10
52.1482
 20
236.5839
 30
0.0
 10
52.1482
 20
236.5839
 30
0.0
 10
52.1482
 20
239.1857
 30
0.0
 10
52.2805
 20
253.7819
 30
0.0
 10
52.2805
 20
253.7819
 30
0.0
  0
SPLINE
  5
71
330
1F
100
AcDbEntity
  8
Capa 1
 62
     1
370
     0
100
AcDbSpline
210
0.0
220
0.0
230
1.0
 70
    11
 71
     3
 72
    60
 73
    56
 74
     0
 42
0.0000000001
 43
0.0000000001
 40
0.0
 40
0.0
 40
0.0
 40
0.0
 40
0.0714285714285714
 40
0.0714285714285714
 40
0.0714285714285714
 40
0.0714285714285714
 40
0.1428571428571429
 40
0.1428571428571429
 40
0.1428571428571429
 40
0.1428571428571429
 40
0.2142857142857143
 40
0.2142857142857143
 40
0.2142857142857143
 40
0.2142857142857143
 40
0.2857142857142857
 40
0.2857142857142857
 40
0.2857142857142857
 40
0.2857142857142857
 40
0.3571428571428571
 40
0.3571428571428571
 40
0.3571428571428571
 40
0.3571428571428571
 40
0.4285714285714285
 40
0.4285714285714285
 40
0.4285714285714285
 40
0.4285714285714285
 40
0.4999999999999999
 40
0.4999999999999999
 40
0.4999999999999999
 40
0.4999999999999999
 40
0.5714285714285713
 40
0.5714285714285713
 40
0.5714285714285713
 40
0.5714285714285713
 40
0.6428571428571427
 40
0.6428571428571427
 40
0.6428571428571427
 40
0.6428571428571427
 40
0.7142857142857141
 40
0.7142857142857141
 40
0.7142857142857141
 40
0.7142857142857141
 40
0.7857142857142855
 40
0.7857142857142855
 40
0.7857142857142855
 40
0.7857142857142855
 40
0.8571428571428569
 40
0.8571428571428569
 40
0.8571428571428569
 40
0.8571428571428569
 40
0.9285714285714283
 40
0.9285714285714283
 40
0.9285714285714283
 40
0.9285714285714283
 40
1.0
 40
1.0
 40
1.0
 40
1.0
 10
140.3597
 20
331.4749
 30
0.0
 10
140.3597
 20
331.4749
 30
0.0
 10
136.1187
 20
331.8403
 30
0.0
 10
136.1187
 20
331.8403
 30
0.0
 10
136.1187
 20
331.8403
 30
0.0
 10
136.1187
 20
331.8403
 30
0.0
 10
135.8343
 20
327.8955
 30
0.0
 10
135.8343
 20
327.8955
 30
0.0
 10
135.8343
 20
327.8955
 30
0.0
 10
135.8343
 20
327.8955
 30
0.0
 10
132.8421
 20
328.1112
 30
0.0
 10
132.8421
 20
328.1112
 30
0.0
 10
132.8421
 20
328.1112
 30
0.0
 10
132.8421
 20
328.1112
 30
0.0
 10
133.1295
 20
332.0978
 30
0.0
 10
133.1295
 20
332.0978
 30
0.0
 10
133.1295
 20
332.0978
 30
0.0
 10
133.1295
 20
332.0978
 30
0.0
 10
128.5857
 20
332.4892
 30
0.0
 10
128.5857
 20
332.4892
 30
0.0
 10
128.5857
 20
332.4892
 30
0.0
 10
128.5857
 20
332.4892
 30
0.0
 10
126.491
 20
332.3568
 30
0.0
 10
126.1162
 20
330.5709
 30
0.0
 10
126.1162
 20
330.5709
 30
0.0
 10
125.7414
 20
328.785
 30
0.0
 10
120.7357
 20
301.6211
 30
0.0
 10
120.7357
 20
301.6211
 30
0.0
 10
120.7357
 20
301.6211
 30
0.0
 10
120.7357
 20
301.6211
 30
0.0
 10
126.1156
 20
301.1801
 30
0.0
 10
126.1156
 20
301.1801
 30
0.0
 10
126.1156
 20
301.1801
 30
0.0
 10
126.1156
 20
301.1801
 30
0.0
 10
125.7628
 20
297.4318
 30
0.0
 10
125.7628
 20
297.4318
 30
0.0
 10
125.7628
 20
297.4318
 30
0.0
 10
125.7628
 20
297.4318
 30
0.0
 10
137.3163
 20
296.2412
 30
0.0
 10
137.3163
 20
296.2412
 30
0.0
 10
137.3163
 20
296.2412
 30
0.0
 10
137.3163
 20
296.2412
 30
0.0
 10
137.625
 20
300.21
 30
0.0
 10
137.625
 20
300.21
 30
0.0
 10
137.625
 20
300.21
 30
0.0
 10
137.625
 20
300.21
 30
0.0
 10
142.9608
 20
299.6367
 30
0.0
 10
142.9608
 20
299.6367
 30
0.0
 10
142.9608
 20
299.6367
 30
0.0
 10
142.9608
 20
299.6367
 30
0.0
 10
142.7403
 20
328.4764
 30
0.0
 10
142.7403
 20
328.4764
 30
0.0
 10
142.7403
 20
328.4764
 30
0.0
 10
142.7403
 20
328.4764
 30
0.0
 10
142.9608
 20
330.8136
 30
0.0
 10
140.3597
 20
331.4749
 30
0.0
  0
SPLINE
  5
72
330
1F
100
AcDbEntity
  8
Capa 1
 62
     1
370
     0
100
AcDbSpline
210
0.0
220
0.0
230
1.0
 70
    11
 71
     3
 72
    76
 73
    72
 74
     0
 42
0.0000000001
 43
0.0000000001
 40
0.0
 40
0.0
 40
0.0
 40
0.0
 40
0.0555555555555556
 40
0.0555555555555556
 40
0.0555555555555556
 40
0.0555555555555556
 40
0.1111111111111111
 40
0.1111111111111111
 40
0.1111111111111111
 40
0.1111111111111111
 40
0.1666666666666667
 40
0.1666666666666667
 40
0.1666666666666667
 40
0.1666666666666667
 40
0.2222222222222222
 40
0.2222222222222222
 40
0.2222222222222222
 40
0.2222222222222222
 40
0.2777777777777778
 40
0.2777777777777778
 40
0.2777777777777778
 40
0.2777777777777778
 40
0.3333333333333334
 40
0.3333333333333334
 40
0.3333333333333334
 40
0.3333333333333334
 40
0.388888888888889
 40
0.388888888888889
 40
0.388888888888889
 40
0.388888888888889
 40
0.4444444444444445
 40
0.4444444444444445
 40
0.4444444444444445
 40
0.4444444444444445
 40
0.5000000000000001
 40
0.5000000000000001
 40
0.5000000000000001
 40
0.5000000000000001
 40
0.5555555555555557
 40
0.5555555555555557
 40
0.5555555555555557
 40
0.5555555555555557
 40
0.6111111111111113
 40
0.6111111111111113
 40
0.6111111111111113
 40
0.6111111111111113
 40
0.6666666666666669
 40
0.6666666666666669
 40
0.6666666666666669
 40
0.6666666666666669
 40
0.7222222222222224
 40
0.7222222222222224
 40
0.7222222222222224
 40
0.7222222222222224
 40
0.777777777777778
 40
0.777777777777778
 40
0.777777777777778
 40
0.777777777777778
 40
0.8333333333333336
 40
0.8333333333333336
 40
0.8333333333333336
 40
0.8333333333333336
 40
0.8888888888888892
 40
0.8888888888888892
 40
0.8888888888888892
 40
0.8888888888888892
 40
0.9444444444444448
 40
0.9444444444444448
 40
0.9444444444444448
 40
0.9444444444444448
 40
1.0
 40
1.0
 40
1.0
 40
1.0
 10
85.45740000000001
 20
266.7508
 30
0.0
 10
85.45740000000001
 20
266.7508
 30
0.0
 10
93.57130000000001
 20
266.7508
 30
0.0
 10
93.57130000000001
 20
266.7508
 30
0.0
 10
93.57130000000001
 20
266.7508
 30
0.0
 10
93.57130000000001
 20
266.7508
 30
0.0
 10
99.4804
 20
257.2258
 30
0.0
 10
99.4804
 20
257.2258
 30
0.0
 10
99.4804
 20
257.2258
 30
0.0
 10
99.4804
 20
257.2258
 30
0.0
 10
99.4804
 20
237.6466
 30
0.0
 10
99.4804
 20
237.6466
 30
0.0
 10
99.4804
 20
237.6466
 30
0.0
 10
99.4804
 20
237.6466
 30
0.0
 10
93.30680000000001
 20
228.9153
 30
0.0
 10
93.30680000000001
 20
228.9153
 30
0.0
 10
93.30680000000001
 20
228.9153
 30
0.0
 10
93.30680000000001
 20
228.9153
 30
0.0
 10
85.45740000000001
 20
228.9153
 30
0.0
 10
85.45740000000001
 20
228.9153
 30
0.0
 10
85.45740000000001
 20
228.9153
 30
0.0
 10
85.45740000000001
 20
228.9153
 30
0.0
 10
85.45740000000001
 20
237.4702
 30
0.0
 10
85.45740000000001
 20
237.4702
 30
0.0
 10
85.45740000000001
 20
237.4702
 30
0.0
 10
85.45740000000001
 20
237.4702
 30
0.0
 10
91.4547
 20
237.382
 30
0.0
 10
91.4547
 20
237.382
 30
0.0
 10
91.4547
 20
237.382
 30
0.0
 10
91.4547
 20
237.382
 30
0.0
 10
91.438
 20
241.3271
 30
0.0
 10
91.438
 20
241.3271
 30
0.0
 10
91.438
 20
241.3271
 30
0.0
 10
91.438
 20
241.3271
 30
0.0
 10
95.3584
 20
241.3271
 30
0.0
 10
95.3584
 20
241.3271
 30
0.0
 10
95.3584
 20
241.3271
 30
0.0
 10
95.3584
 20
241.3271
 30
0.0
 10
95.3584
 20
244.3271
 30
0.0
 10
95.3584
 20
244.3271
 30
0.0
 10
95.3584
 20
244.3271
 30
0.0
 10
95.3584
 20
244.3271
 30
0.0
 10
91.42530000000001
 20
244.3271
 30
0.0
 10
91.42530000000001
 20
244.3271
 30
0.0
 10
91.42530000000001
 20
244.3271
 30
0.0
 10
91.42530000000001
 20
244.3271
 30
0.0
 10
91.396
 20
251.2348
 30
0.0
 10
91.396
 20
251.2348
 30
0.0
 10
91.396
 20
251.2348
 30
0.0
 10
91.396
 20
251.2348
 30
0.0
 10
95.3584
 20
251.2348
 30
0.0
 10
95.3584
 20
251.2348
 30
0.0
 10
95.3584
 20
251.2348
 30
0.0
 10
95.3584
 20
251.2348
 30
0.0
 10
95.3584
 20
254.2348
 30
0.0
 10
95.3584
 20
254.2348
 30
0.0
 10
95.3584
 20
254.2348
 30
0.0
 10
95.3584
 20
254.2348
 30
0.0
 10
91.38330000000001
 20
254.2348
 30
0.0
 10
91.38330000000001
 20
254.2348
 30
0.0
 10
91.38330000000001
 20
254.2348
 30
0.0
 10
91.38330000000001
 20
254.2348
 30
0.0
 10
91.3665
 20
258.1959
 30
0.0
 10
91.3665
 20
258.1959
 30
0.0
 10
91.3665
 20
258.1959
 30
0.0
 10
91.3665
 20
258.1959
 30
0.0
 10
85.45740000000001
 20
258.2841
 30
0.0
 10
85.45740000000001
 20
258.2841
 30
0.0
 10
85.45740000000001
 20
258.2841
 30
0.0
 10
85.45740000000001
 20
258.2841
 30
0.0
 10
85.45740000000001
 20
266.7508
 30
0.0
 10
85.45740000000001
 20
266.7508
 30
0.0
  0
SPLINE
  5
73
330
1F
100
AcDbEntity
  8
Capa 1
 62
     1
370
     0
100
AcDbSpline
210
0.0
220
0.0
230
1.0
 70
    11
 71
     3
 72
    52
 73
    48
 74
     0
 42
0.0000000001
 43
0.0000000001
 40
0.0
 40
0.0
 40
0.0
 40
0.0
 40
0.0833333333333333
 40
0.0833333333333333
 40
0.0833333333333333
 40
0.0833333333333333
 40
0.1666666666666667
 40
0.1666666666666667
 40
0.1666666666666667
 40
0.1666666666666667
 40
0.25
 40
0.25
 40
0.25
 40
0.25
 40
0.3333333333333333
 40
0.3333333333333333
 40
0.3333333333333333
 40
0.3333333333333333
 40
0.4166666666666666
 40
0.4166666666666666
 40
0.4166666666666666
 40
0.4166666666666666
 40
0.4999999999999999
 40
0.4999999999999999
 40
0.4999999999999999
 40
0.4999999999999999
 40
0.5833333333333333
 40
0.5833333333333333
 40
0.5833333333333333
 40
0.5833333333333333
 40
0.6666666666666666
 40
0.6666666666666666
 40
0.6666666666666666
 40
0.6666666666666666
 40
0.75
 40
0.75
 40
0.75
 40
0.75
 40
0.8333333333333334
 40
0.8333333333333334
 40
0.8333333333333334
 40
0.8333333333333334
 40
0.9166666666666667
 40
0.9166666666666667
 40
0.9166666666666667
 40
0.9166666666666667
 40
1.0
 40
1.0
 40
1.0
 40
1.0
 10
76.96860000000001
 20
219.8527
 30
0.0
 10
76.96860000000001
 20
219.8527
 30
0.0
 10
68.43730000000001
 20
219.8527
 30
0.0
 10
68.43730000000001
 20
219.8527
 30
0.0
 10
68.43730000000001
 20
219.8527
 30
0.0
 10
68.43730000000001
 20
219.8527
 30
0.0
 10
68.4374
 20
209.0193
 30
0.0
 10
68.4374
 20
209.0193
 30
0.0
 10
68.4374
 20
209.0193
 30
0.0
 10
68.4374
 20
209.0193
 30
0.0
 10
65.43730000000001
 20
209.0193
 30
0.0
 10
65.43730000000001
 20
209.0193
 30
0.0
 10
65.43730000000001
 20
209.0193
 30
0.0
 10
65.43730000000001
 20
209.0193
 30
0.0
 10
65.43730000000001
 20
219.8527
 30
0.0
 10
65.43730000000001
 20
219.8527
 30
0.0
 10
65.43730000000001
 20
219.8527
 30
0.0
 10
65.43730000000001
 20
219.8527
 30
0.0
 10
63.2543
 20
219.8527
 30
0.0
 10
63.2543
 20
219.8527
 30
0.0
 10
63.2543
 20
219.8527
 30
0.0
 10
63.2543
 20
219.8527
 30
0.0
 10
61.755
 20
219.544
 30
0.0
 10
61.6668
 20
218.0888
 30
0.0
 10
61.6668
 20
218.0888
 30
0.0
 10
61.5786
 20
216.6336
 30
0.0
 10
61.6668
 20
196.8779
 30
0.0
 10
61.6668
 20
196.8779
 30
0.0
 10
61.6668
 20
196.8779
 30
0.0
 10
61.6668
 20
196.8779
 30
0.0
 10
69.60430000000001
 20
196.8779
 30
0.0
 10
69.60430000000001
 20
196.8779
 30
0.0
 10
69.60430000000001
 20
196.8779
 30
0.0
 10
69.60430000000001
 20
196.8779
 30
0.0
 10
71.3241
 20
209.1811
 30
0.0
 10
71.3241
 20
209.1811
 30
0.0
 10
71.3241
 20
209.1811
 30
0.0
 10
71.3241
 20
209.1811
 30
0.0
 10
71.89740000000001
 20
210.4158
 30
0.0
 10
74.9401
 20
211.871
 30
0.0
 10
74.9401
 20
211.871
 30
0.0
 10
77.3874
 20
213.0175
 30
0.0
 10
77.1781
 20
214.2964
 30
0.0
 10
77.1781
 20
214.2964
 30
0.0
 10
77.1781
 20
214.2964
 30
0.0
 10
77.1781
 20
214.2964
 30
0.0
 10
76.96860000000001
 20
219.8527
 30
0.0
 10
76.96860000000001
 20
219.8527
 30
0.0
  0
SPLINE
  5
74
330
1F
100
AcDbEntity
  8
Capa 1
 62
     1
370
     0
100
AcDbSpline
210
0.0
220
0.0
230
1.0
 70
    11
 71
     3
 72
    52
 73
    48
 74
     0
 42
0.0000000001
 43
0.0000000001
 40
0.0
 40
0.0
 40
0.0
 40
0.0
 40
0.0833333333333333
 40
0.0833333333333333
 40
0.0833333333333333
 40
0.0833333333333333
 40
0.1666666666666667
 40
0.1666666666666667
 40
0.1666666666666667
 40
0.1666666666666667
 40
0.25
 40
0.25
 40
0.25
 40
0.25
 40
0.3333333333333333
 40
0.3333333333333333
 40
0.3333333333333333
 40
0.3333333333333333
 40
0.4166666666666666
 40
0.4166666666666666
 40
0.4166666666666666
 40
0.4166666666666666
 40
0.4999999999999999
 40
0.4999999999999999
 40
0.4999999999999999
 40
0.4999999999999999
 40
0.5833333333333333
 40
0.5833333333333333
 40
0.5833333333333333
 40
0.5833333333333333
 40
0.6666666666666666
 40
0.6666666666666666
 40
0.6666666666666666
 40
0.6666666666666666
 40
0.75
 40
0.75
 40
0.75
 40
0.75
 40
0.8333333333333334
 40
0.8333333333333334
 40
0.8333333333333334
 40
0.8333333333333334
 40
0.9166666666666667
 40
0.9166666666666667
 40
0.9166666666666667
 40
0.9166666666666667
 40
1.0
 40
1.0
 40
1.0
 40
1.0
 10
80.15820000000001
 20
204.8943
 30
0.0
 10
80.15820000000001
 20
204.8943
 30
0.0
 10
83.4783
 20
209.3366
 30
0.0
 10
83.4783
 20
209.3366
 30
0.0
 10
83.4783
 20
209.3366
 30
0.0
 10
83.4783
 20
209.3366
 30
0.0
 10
88.116
 20
205.8703
 30
0.0
 10
88.116
 20
205.8703
 30
0.0
 10
88.116
 20
205.8703
 30
0.0
 10
88.116
 20
205.8703
 30
0.0
 10
89.91200000000001
 20
208.2734
 30
0.0
 10
89.91200000000001
 20
208.2734
 30
0.0
 10
89.91200000000001
 20
208.2734
 30
0.0
 10
89.91200000000001
 20
208.2734
 30
0.0
 10
85.27420000000001
 20
211.7396
 30
0.0
 10
85.27420000000001
 20
211.7396
 30
0.0
 10
85.27420000000001
 20
211.7396
 30
0.0
 10
85.27420000000001
 20
211.7396
 30
0.0
 10
88.5943
 20
216.182
 30
0.0
 10
88.5943
 20
216.182
 30
0.0
 10
88.5943
 20
216.182
 30
0.0
 10
90.47110000000001
 20
218.6931
 30
0.0
 10
95.14020000000001
 20
220.6529
 30
0.0
 10
97.65000000000001
 20
218.7772
 30
0.0
 10
97.65000000000001
 20
218.7772
 30
0.0
 10
97.65000000000001
 20
218.7772
 30
0.0
 10
102.7604
 20
214.9578
 30
0.0
 10
102.7604
 20
214.9578
 30
0.0
 10
102.7604
 20
214.9578
 30
0.0
 10
105.2701
 20
213.0821
 30
0.0
 10
104.7119
 20
208.0476
 30
0.0
 10
102.8362
 20
205.5379
 30
0.0
 10
102.8362
 20
205.5379
 30
0.0
 10
102.8362
 20
205.5379
 30
0.0
 10
94.40010000000001
 20
194.2502
 30
0.0
 10
94.40010000000001
 20
194.2502
 30
0.0
 10
94.40010000000001
 20
194.2502
 30
0.0
 10
92.5244
 20
191.7405
 30
0.0
 10
87.85560000000001
 20
189.7782
 30
0.0
 10
85.34440000000001
 20
191.655
 30
0.0
 10
85.34440000000001
 20
191.655
 30
0.0
 10
85.34440000000001
 20
191.655
 30
0.0
 10
80.23400000000001
 20
195.4744
 30
0.0
 10
80.23400000000001
 20
195.4744
 30
0.0
 10
80.23400000000001
 20
195.4744
 30
0.0
 10
77.72290000000001
 20
197.3512
 30
0.0
 10
78.28140000000001
 20
202.3832
 30
0.0
 10
80.15820000000001
 20
204.8943
 30
0.0
  0
SPLINE
  5
75
330
1F
100
AcDbEntity
  8
Capa 1
 62
     1
370
     0
100
AcDbSpline
210
0.0
220
0.0
230
1.0
 70
    11
 71
     3
 72
    52
 73
    48
 74
     0
 42
0.0000000001
 43
0.0000000001
 40
0.0
 40
0.0
 40
0.0
 40
0.0
 40
0.0833333333333333
 40
0.0833333333333333
 40
0.0833333333333333
 40
0.0833333333333333
 40
0.1666666666666667
 40
0.1666666666666667
 40
0.1666666666666667
 40
0.1666666666666667
 40
0.25
 40
0.25
 40
0.25
 40
0.25
 40
0.3333333333333333
 40
0.3333333333333333
 40
0.3333333333333333
 40
0.3333333333333333
 40
0.4166666666666666
 40
0.4166666666666666
 40
0.4166666666666666
 40
0.4166666666666666
 40
0.4999999999999999
 40
0.4999999999999999
 40
0.4999999999999999
 40
0.4999999999999999
 40
0.5833333333333333
 40
0.5833333333333333
 40
0.5833333333333333
 40
0.5833333333333333
 40
0.6666666666666666
 40
0.6666666666666666
 40
0.6666666666666666
 40
0.6666666666666666
 40
0.75
 40
0.75
 40
0.75
 40
0.75
 40
0.8333333333333334
 40
0.8333333333333334
 40
0.8333333333333334
 40
0.8333333333333334
 40
0.9166666666666667
 40
0.9166666666666667
 40
0.9166666666666667
 40
0.9166666666666667
 40
1.0
 40
1.0
 40
1.0
 40
1.0
 10
78.6974
 20
128.1506
 30
0.0
 10
78.6974
 20
128.1506
 30
0.0
 10
82.027
 20
128.1506
 30
0.0
 10
82.027
 20
128.1506
 30
0.0
 10
82.027
 20
128.1506
 30
0.0
 10
82.027
 20
128.1506
 30
0.0
 10
82.027
 20
123.9835
 30
0.0
 10
82.027
 20
123.9835
 30
0.0
 10
82.027
 20
123.9835
 30
0.0
 10
82.027
 20
123.9835
 30
0.0
 10
85.027
 20
123.9835
 30
0.0
 10
85.027
 20
123.9835
 30
0.0
 10
85.027
 20
123.9835
 30
0.0
 10
85.027
 20
123.9835
 30
0.0
 10
85.027
 20
128.1506
 30
0.0
 10
85.027
 20
128.1506
 30
0.0
 10
85.027
 20
128.1506
 30
0.0
 10
85.027
 20
128.1506
 30
0.0
 10
95.80720000000001
 20
128.1506
 30
0.0
 10
95.80720000000001
 20
128.1506
 30
0.0
 10
95.80720000000001
 20
128.1506
 30
0.0
 10
95.80720000000001
 20
128.1506
 30
0.0
 10
95.80720000000001
 20
120.0807
 30
0.0
 10
95.80720000000001
 20
120.0807
 30
0.0
 10
95.80720000000001
 20
120.0807
 30
0.0
 10
95.80720000000001
 20
120.0807
 30
0.0
 10
92.9854
 20
120.0807
 30
0.0
 10
92.9854
 20
120.0807
 30
0.0
 10
92.9854
 20
120.0807
 30
0.0
 10
92.9854
 20
120.0807
 30
0.0
 10
92.9854
 20
123.851
 30
0.0
 10
92.9854
 20
123.851
 30
0.0
 10
92.9854
 20
123.851
 30
0.0
 10
92.9854
 20
123.851
 30
0.0
 10
89.9854
 20
123.851
 30
0.0
 10
89.9854
 20
123.851
 30
0.0
 10
89.9854
 20
123.851
 30
0.0
 10
89.9854
 20
123.851
 30
0.0
 10
89.9854
 20
120.0807
 30
0.0
 10
89.9854
 20
120.0807
 30
0.0
 10
89.9854
 20
120.0807
 30
0.0
 10
89.9854
 20
120.0807
 30
0.0
 10
78.6974
 20
120.0807
 30
0.0
 10
78.6974
 20
120.0807
 30
0.0
 10
78.6974
 20
120.0807
 30
0.0
 10
78.6974
 20
120.0807
 30
0.0
 10
78.6974
 20
128.1506
 30
0.0
 10
78.6974
 20
128.1506
 30
0.0
  0
SPLINE
  5
76
330
1F
100
AcDbEntity
  8
Capa 1
 62
     1
370
     0
100
AcDbSpline
210
0.0
220
0.0
230
1.0
 70
    11
 71
     3
 72
    52
 73
    48
 74
     0
 42
0.0000000001
 43
0.0000000001
 40
0.0
 40
0.0
 40
0.0
 40
0.0
 40
0.0833333333333333
 40
0.0833333333333333
 40
0.0833333333333333
 40
0.0833333333333333
 40
0.1666666666666667
 40
0.1666666666666667
 40
0.1666666666666667
 40
0.1666666666666667
 40
0.25
 40
0.25
 40
0.25
 40
0.25
 40
0.3333333333333333
 40
0.3333333333333333
 40
0.3333333333333333
 40
0.3333333333333333
 40
0.4166666666666666
 40
0.4166666666666666
 40
0.4166666666666666
 40
0.4166666666666666
 40
0.4999999999999999
 40
0.4999999999999999
 40
0.4999999999999999
 40
0.4999999999999999
 40
0.5833333333333333
 40
0.5833333333333333
 40
0.5833333333333333
 40
0.5833333333333333
 40
0.6666666666666666
 40
0.6666666666666666
 40
0.6666666666666666
 40
0.6666666666666666
 40
0.75
 40
0.75
 40
0.75
 40
0.75
 40
0.8333333333333334
 40
0.8333333333333334
 40
0.8333333333333334
 40
0.8333333333333334
 40
0.9166666666666667
 40
0.9166666666666667
 40
0.9166666666666667
 40
0.9166666666666667
 40
1.0
 40
1.0
 40
1.0
 40
1.0
 10
26.6816
 20
318.3868
 30
0.0
 10
26.6816
 20
318.3868
 30
0.0
 10
27.0817
 20
315.0814
 30
0.0
 10
27.0817
 20
315.0814
 30
0.0
 10
27.0817
 20
315.0814
 30
0.0
 10
27.0817
 20
315.0814
 30
0.0
 10
31.2186
 20
315.5821
 30
0.0
 10
31.2186
 20
315.5821
 30
0.0
 10
31.2186
 20
315.5821
 30
0.0
 10
31.2186
 20
315.5821
 30
0.0
 10
31.5791
 20
312.6039
 30
0.0
 10
31.5791
 20
312.6039
 30
0.0
 10
31.5791
 20
312.6039
 30
0.0
 10
31.5791
 20
312.6039
 30
0.0
 10
27.4422
 20
312.1031
 30
0.0
 10
27.4422
 20
312.1031
 30
0.0
 10
27.4422
 20
312.1031
 30
0.0
 10
27.4422
 20
312.1031
 30
0.0
 10
28.7377
 20
301.401
 30
0.0
 10
28.7377
 20
301.401
 30
0.0
 10
28.7377
 20
301.401
 30
0.0
 10
28.7377
 20
301.401
 30
0.0
 10
36.7491
 20
302.3708
 30
0.0
 10
36.7491
 20
302.3708
 30
0.0
 10
36.7491
 20
302.3708
 30
0.0
 10
36.7491
 20
302.3708
 30
0.0
 10
36.41
 20
305.1722
 30
0.0
 10
36.41
 20
305.1722
 30
0.0
 10
36.41
 20
305.1722
 30
0.0
 10
36.41
 20
305.1722
 30
0.0
 10
32.667
 20
304.7191
 30
0.0
 10
32.667
 20
304.7191
 30
0.0
 10
32.667
 20
304.7191
 30
0.0
 10
32.667
 20
304.7191
 30
0.0
 10
32.3065
 20
307.6973
 30
0.0
 10
32.3065
 20
307.6973
 30
0.0
 10
32.3065
 20
307.6973
 30
0.0
 10
32.3065
 20
307.6973
 30
0.0
 10
36.0495
 20
308.1504
 30
0.0
 10
36.0495
 20
308.1504
 30
0.0
 10
36.0495
 20
308.1504
 30
0.0
 10
36.0495
 20
308.1504
 30
0.0
 10
34.69300000000001
 20
319.3566
 30
0.0
 10
34.69300000000001
 20
319.3566
 30
0.0
 10
34.69300000000001
 20
319.3566
 30
0.0
 10
34.69300000000001
 20
319.3566
 30
0.0
 10
26.6816
 20
318.3868
 30
0.0
 10
26.6816
 20
318.3868
 30
0.0
  0
SPLINE
  5
77
330
1F
100
AcDbEntity
  8
Capa 1
 62
     1
370
     0
100
AcDbSpline
210
0.0
220
0.0
230
1.0
 70
    11
 71
     3
 72
    48
 73
    44
 74
     0
 42
0.0000000001
 43
0.0000000001
 40
0.0
 40
0.0
 40
0.0
 40
0.0
 40
0.0909090909090909
 40
0.0909090909090909
 40
0.0909090909090909
 40
0.0909090909090909
 40
0.1818181818181818
 40
0.1818181818181818
 40
0.1818181818181818
 40
0.1818181818181818
 40
0.2727272727272727
 40
0.2727272727272727
 40
0.2727272727272727
 40
0.2727272727272727
 40
0.3636363636363637
 40
0.3636363636363637
 40
0.3636363636363637
 40
0.3636363636363637
 40
0.4545454545454546
 40
0.4545454545454546
 40
0.4545454545454546
 40
0.4545454545454546
 40
0.5454545454545455
 40
0.5454545454545455
 40
0.5454545454545455
 40
0.5454545454545455
 40
0.6363636363636365
 40
0.6363636363636365
 40
0.6363636363636365
 40
0.6363636363636365
 40
0.7272727272727274
 40
0.7272727272727274
 40
0.7272727272727274
 40
0.7272727272727274
 40
0.8181818181818183
 40
0.8181818181818183
 40
0.8181818181818183
 40
0.8181818181818183
 40
0.9090909090909093
 40
0.9090909090909093
 40
0.9090909090909093
 40
0.9090909090909093
 40
1.0
 40
1.0
 40
1.0
 40
1.0
 10
57.0445
 20
189.5551
 30
0.0
 10
57.0445
 20
189.5551
 30
0.0
 10
57.1386
 20
174.4741
 30
0.0
 10
57.1386
 20
174.4741
 30
0.0
 10
57.1386
 20
174.4741
 30
0.0
 10
57.1386
 20
174.4741
 30
0.0
 10
54.3094
 20
174.4741
 30
0.0
 10
54.3094
 20
174.4741
 30
0.0
 10
54.3094
 20
174.4741
 30
0.0
 10
54.3094
 20
174.4741
 30
0.0
 10
54.3094
 20
161.9503
 30
0.0
 10
54.3094
 20
161.9503
 30
0.0
 10
54.3094
 20
161.9503
 30
0.0
 10
54.3094
 20
161.9503
 30
0.0
 10
57.2167
 20
161.9503
 30
0.0
 10
57.2167
 20
161.9503
 30
0.0
 10
57.2167
 20
161.9503
 30
0.0
 10
57.2167
 20
161.9503
 30
0.0
 10
57.48520000000001
 20
118.9111
 30
0.0
 10
57.48520000000001
 20
118.9111
 30
0.0
 10
57.48520000000001
 20
118.9111
 30
0.0
 10
57.48520000000001
 20
118.9111
 30
0.0
 10
59.3814
 20
118.6024
 30
0.0
 10
59.8224
 20
119.1757
 30
0.0
 10
59.8224
 20
119.1757
 30
0.0
 10
60.2634
 20
119.749
 30
0.0
 10
64.93730000000001
 20
131.7214
 30
0.0
 10
76.22620000000001
 20
134.6319
 30
0.0
 10
76.22620000000001
 20
134.6319
 30
0.0
 10
76.22620000000001
 20
134.6319
 30
0.0
 10
82.973
 20
136.3077
 30
0.0
 10
83.6786
 20
139.0417
 30
0.0
 10
83.6786
 20
139.0417
 30
0.0
 10
83.6786
 20
139.0417
 30
0.0
 10
77.5052
 20
172.1144
 30
0.0
 10
77.5052
 20
172.1144
 30
0.0
 10
77.5052
 20
172.1144
 30
0.0
 10
77.5052
 20
172.1144
 30
0.0
 10
70.36160000000001
 20
190.459
 30
0.0
 10
70.36160000000001
 20
190.459
 30
0.0
 10
70.36160000000001
 20
190.459
 30
0.0
 10
70.36160000000001
 20
190.459
 30
0.0
 10
57.0445
 20
189.5551
 30
0.0
 10
57.0445
 20
189.5551
 30
0.0
  0
SPLINE
  5
78
330
1F
100
AcDbEntity
  8
Capa 1
 62
     1
370
     0
100
AcDbSpline
210
0.0
220
0.0
230
1.0
 70
    11
 71
     3
 72
    76
 73
    72
 74
     0
 42
0.0000000001
 43
0.0000000001
 40
0.0
 40
0.0
 40
0.0
 40
0.0
 40
0.0555555555555556
 40
0.0555555555555556
 40
0.0555555555555556
 40
0.0555555555555556
 40
0.1111111111111111
 40
0.1111111111111111
 40
0.1111111111111111
 40
0.1111111111111111
 40
0.1666666666666667
 40
0.1666666666666667
 40
0.1666666666666667
 40
0.1666666666666667
 40
0.2222222222222222
 40
0.2222222222222222
 40
0.2222222222222222
 40
0.2222222222222222
 40
0.2777777777777778
 40
0.2777777777777778
 40
0.2777777777777778
 40
0.2777777777777778
 40
0.3333333333333334
 40
0.3333333333333334
 40
0.3333333333333334
 40
0.3333333333333334
 40
0.388888888888889
 40
0.388888888888889
 40
0.388888888888889
 40
0.388888888888889
 40
0.4444444444444445
 40
0.4444444444444445
 40
0.4444444444444445
 40
0.4444444444444445
 40
0.5000000000000001
 40
0.5000000000000001
 40
0.5000000000000001
 40
0.5000000000000001
 40
0.5555555555555557
 40
0.5555555555555557
 40
0.5555555555555557
 40
0.5555555555555557
 40
0.6111111111111113
 40
0.6111111111111113
 40
0.6111111111111113
 40
0.6111111111111113
 40
0.6666666666666669
 40
0.6666666666666669
 40
0.6666666666666669
 40
0.6666666666666669
 40
0.7222222222222224
 40
0.7222222222222224
 40
0.7222222222222224
 40
0.7222222222222224
 40
0.777777777777778
 40
0.777777777777778
 40
0.777777777777778
 40
0.777777777777778
 40
0.8333333333333336
 40
0.8333333333333336
 40
0.8333333333333336
 40
0.8333333333333336
 40
0.8888888888888892
 40
0.8888888888888892
 40
0.8888888888888892
 40
0.8888888888888892
 40
0.9444444444444448
 40
0.9444444444444448
 40
0.9444444444444448
 40
0.9444444444444448
 40
1.0
 40
1.0
 40
1.0
 40
1.0
 10
51.3778
 20
120.4858
 30
0.0
 10
51.3778
 20
120.4858
 30
0.0
 10
51.3778
 20
147.9382
 30
0.0
 10
51.3778
 20
147.9382
 30
0.0
 10
51.3778
 20
147.9382
 30
0.0
 10
51.3778
 20
147.9382
 30
0.0
 10
47.3448
 20
148.2169
 30
0.0
 10
47.3448
 20
148.2169
 30
0.0
 10
47.3448
 20
148.2169
 30
0.0
 10
47.3448
 20
148.2169
 30
0.0
 10
47.6636
 20
154.9656
 30
0.0
 10
47.6636
 20
154.9656
 30
0.0
 10
47.6636
 20
154.9656
 30
0.0
 10
47.6636
 20
154.9656
 30
0.0
 10
44.65620000000001
 20
155.1092
 30
0.0
 10
44.65620000000001
 20
155.1092
 30
0.0
 10
44.65620000000001
 20
155.1092
 30
0.0
 10
44.65620000000001
 20
155.1092
 30
0.0
 10
44.7993
 20
158.1058
 30
0.0
 10
44.7993
 20
158.1058
 30
0.0
 10
44.7993
 20
158.1058
 30
0.0
 10
44.7993
 20
158.1058
 30
0.0
 10
47.8051
 20
157.9623
 30
0.0
 10
47.8051
 20
157.9623
 30
0.0
 10
47.8051
 20
157.9623
 30
0.0
 10
47.8051
 20
157.9623
 30
0.0
 10
47.89
 20
159.759
 30
0.0
 10
47.89
 20
159.759
 30
0.0
 10
47.89
 20
159.759
 30
0.0
 10
47.89
 20
159.759
 30
0.0
 10
47.8981
 20
160.9331
 30
0.0
 10
46.4099
 20
160.9331
 30
0.0
 10
46.4099
 20
160.9331
 30
0.0
 10
44.9217
 20
160.9331
 30
0.0
 10
42.1435
 20
161.1977
 30
0.0
 10
42.1435
 20
161.1977
 30
0.0
 10
42.1435
 20
161.1977
 30
0.0
 10
42.1435
 20
161.1977
 30
0.0
 10
41.5482
 20
148.4315
 30
0.0
 10
41.5482
 20
148.4315
 30
0.0
 10
41.5482
 20
148.4315
 30
0.0
 10
41.5482
 20
148.4315
 30
0.0
 10
36.8848
 20
149.4237
 30
0.0
 10
35.9919
 20
146.2156
 30
0.0
 10
35.9919
 20
146.2156
 30
0.0
 10
35.099
 20
143.0075
 30
0.0
 10
34.1066
 20
125.0816
 30
0.0
 10
34.1066
 20
125.0816
 30
0.0
 10
34.1066
 20
125.0816
 30
0.0
 10
34.1066
 20
125.0816
 30
0.0
 10
33.7522
 20
121.7847
 30
0.0
 10
36.3056
 20
121.6748
 30
0.0
 10
36.3056
 20
121.6748
 30
0.0
 10
36.8166
 20
121.6528
 30
0.0
 10
37.7275
 20
121.592
 30
0.0
 10
38.8567
 20
121.5087
 30
0.0
 10
38.8567
 20
121.5087
 30
0.0
 10
38.8567
 20
121.5087
 30
0.0
 10
39.4925
 20
136.2893
 30
0.0
 10
39.4925
 20
136.2893
 30
0.0
 10
39.4925
 20
136.2893
 30
0.0
 10
39.4925
 20
136.2893
 30
0.0
 10
42.4897
 20
136.1604
 30
0.0
 10
42.4897
 20
136.1604
 30
0.0
 10
42.4897
 20
136.1604
 30
0.0
 10
42.4897
 20
136.1604
 30
0.0
 10
41.8496
 20
121.278
 30
0.0
 10
41.8496
 20
121.278
 30
0.0
 10
41.8496
 20
121.278
 30
0.0
 10
46.2193
 20
120.9305
 30
0.0
 10
51.3778
 20
120.4858
 30
0.0
 10
51.3778
 20
120.4858
 30
0.0
  0
SPLINE
  5
79
330
1F
100
AcDbEntity
  8
Capa 1
 62
     1
370
     0
100
AcDbSpline
210
0.0
220
0.0
230
1.0
 70
    11
 71
     3
 72
    80
 73
    76
 74
     0
 42
0.0000000001
 43
0.0000000001
 40
0.0
 40
0.0
 40
0.0
 40
0.0
 40
0.0526315789473684
 40
0.0526315789473684
 40
0.0526315789473684
 40
0.0526315789473684
 40
0.1052631578947368
 40
0.1052631578947368
 40
0.1052631578947368
 40
0.1052631578947368
 40
0.1578947368421053
 40
0.1578947368421053
 40
0.1578947368421053
 40
0.1578947368421053
 40
0.2105263157894737
 40
0.2105263157894737
 40
0.2105263157894737
 40
0.2105263157894737
 40
0.2631578947368421
 40
0.2631578947368421
 40
0.2631578947368421
 40
0.2631578947368421
 40
0.3157894736842105
 40
0.3157894736842105
 40
0.3157894736842105
 40
0.3157894736842105
 40
0.3684210526315789
 40
0.3684210526315789
 40
0.3684210526315789
 40
0.3684210526315789
 40
0.4210526315789474
 40
0.4210526315789474
 40
0.4210526315789474
 40
0.4210526315789474
 40
0.4736842105263158
 40
0.4736842105263158
 40
0.4736842105263158
 40
0.4736842105263158
 40
0.5263157894736842
 40
0.5263157894736842
 40
0.5263157894736842
 40
0.5263157894736842
 40
0.5789473684210527
 40
0.5789473684210527
 40
0.5789473684210527
 40
0.5789473684210527
 40
0.631578947368421
 40
0.631578947368421
 40
0.631578947368421
 40
0.631578947368421
 40
0.6842105263157894
 40
0.6842105263157894
 40
0.6842105263157894
 40
0.6842105263157894
 40
0.7368421052631577
 40
0.7368421052631577
 40
0.7368421052631577
 40
0.7368421052631577
 40
0.7894736842105261
 40
0.7894736842105261
 40
0.7894736842105261
 40
0.7894736842105261
 40
0.8421052631578945
 40
0.8421052631578945
 40
0.8421052631578945
 40
0.8421052631578945
 40
0.8947368421052628
 40
0.8947368421052628
 40
0.8947368421052628
 40
0.8947368421052628
 40
0.9473684210526312
 40
0.9473684210526312
 40
0.9473684210526312
 40
0.9473684210526312
 40
1.0
 40
1.0
 40
1.0
 40
1.0
 10
-18.5445
 20
160.0543
 30
0.0
 10
-18.5445
 20
160.0543
 30
0.0
 10
-14.7033
 20
160.0543
 30
0.0
 10
-14.7033
 20
160.0543
 30
0.0
 10
-14.7033
 20
160.0543
 30
0.0
 10
-14.7033
 20
160.0543
 30
0.0
 10
-14.7033
 20
157.1305
 30
0.0
 10
-14.7033
 20
157.1305
 30
0.0
 10
-14.7033
 20
157.1305
 30
0.0
 10
-14.7033
 20
157.1305
 30
0.0
 10
-17.4134
 20
157.1858
 30
0.0
 10
-17.4134
 20
157.1858
 30
0.0
 10
-17.4134
 20
157.1858
 30
0.0
 10
-17.4134
 20
157.1858
 30
0.0
 10
-17.4746
 20
154.1864
 30
0.0
 10
-17.4746
 20
154.1864
 30
0.0
 10
-17.4746
 20
154.1864
 30
0.0
 10
-17.4746
 20
154.1864
 30
0.0
 10
-14.7033
 20
154.1299
 30
0.0
 10
-14.7033
 20
154.1299
 30
0.0
 10
-14.7033
 20
154.1299
 30
0.0
 10
-14.7033
 20
154.1299
 30
0.0
 10
-14.7033
 20
147.2061
 30
0.0
 10
-14.7033
 20
147.2061
 30
0.0
 10
-14.7033
 20
147.2061
 30
0.0
 10
-14.7033
 20
147.2061
 30
0.0
 10
-10.7738
 20
147.2061
 30
0.0
 10
-10.7738
 20
147.2061
 30
0.0
 10
-10.7738
 20
147.2061
 30
0.0
 10
-10.7738
 20
147.2061
 30
0.0
 10
-7.3741
 20
128.0884
 30
0.0
 10
-7.3741
 20
128.0884
 30
0.0
 10
-7.3741
 20
128.0884
 30
0.0
 10
-7.3741
 20
128.0884
 30
0.0
 10
-18.8272
 20
128.0884
 30
0.0
 10
-18.8272
 20
128.0884
 30
0.0
 10
-18.8272
 20
128.0884
 30
0.0
 10
-18.8272
 20
128.0884
 30
0.0
 10
-18.9648
 20
136.3492
 30
0.0
 10
-18.9648
 20
136.3492
 30
0.0
 10
-18.9648
 20
136.3492
 30
0.0
 10
-18.9648
 20
136.3492
 30
0.0
 10
-21.9644
 20
136.2992
 30
0.0
 10
-21.9644
 20
136.2992
 30
0.0
 10
-21.9644
 20
136.2992
 30
0.0
 10
-21.9644
 20
136.2992
 30
0.0
 10
-21.8277
 20
128.0884
 30
0.0
 10
-21.8277
 20
128.0884
 30
0.0
 10
-21.8277
 20
128.0884
 30
0.0
 10
-21.8277
 20
128.0884
 30
0.0
 10
-24.1076
 20
128.0884
 30
0.0
 10
-24.1076
 20
128.0884
 30
0.0
 10
-24.1076
 20
128.0884
 30
0.0
 10
-24.1076
 20
128.0884
 30
0.0
 10
-26.5801
 20
128.4858
 30
0.0
 10
-26.5801
 20
131.4881
 30
0.0
 10
-26.5801
 20
131.4881
 30
0.0
 10
-26.5801
 20
134.4904
 30
0.0
 10
-26.6243
 20
143.3649
 30
0.0
 10
-26.6243
 20
143.3649
 30
0.0
 10
-26.6243
 20
143.3649
 30
0.0
 10
-26.6243
 20
143.3649
 30
0.0
 10
-26.3152
 20
147.3386
 30
0.0
 10
-23.5778
 20
147.2503
 30
0.0
 10
-23.5778
 20
147.2503
 30
0.0
 10
-20.8404
 20
147.162
 30
0.0
 10
-20.3547
 20
147.2061
 30
0.0
 10
-20.3547
 20
147.2061
 30
0.0
 10
-20.3547
 20
147.2061
 30
0.0
 10
-20.3547
 20
147.2061
 30
0.0
 10
-20.4872
 20
158.1999
 30
0.0
 10
-20.4872
 20
158.1999
 30
0.0
 10
-20.4872
 20
158.1999
 30
0.0
 10
-20.4872
 20
158.1999
 30
0.0
 10
-20.0898
 20
160.0543
 30
0.0
 10
-18.5445
 20
160.0543
 30
0.0
  0
SPLINE
  5
7A
330
1F
100
AcDbEntity
  8
Capa 1
 62
     1
370
     0
100
AcDbSpline
210
0.0
220
0.0
230
1.0
 70
    11
 71
     3
 72
   100
 73
    96
 74
     0
 42
0.0000000001
 43
0.0000000001
 40
0.0
 40
0.0
 40
0.0
 40
0.0
 40
0.0416666666666667
 40
0.0416666666666667
 40
0.0416666666666667
 40
0.0416666666666667
 40
0.0833333333333333
 40
0.0833333333333333
 40
0.0833333333333333
 40
0.0833333333333333
 40
0.125
 40
0.125
 40
0.125
 40
0.125
 40
0.1666666666666667
 40
0.1666666666666667
 40
0.1666666666666667
 40
0.1666666666666667
 40
0.2083333333333333
 40
0.2083333333333333
 40
0.2083333333333333
 40
0.2083333333333333
 40
0.25
 40
0.25
 40
0.25
 40
0.25
 40
0.2916666666666666
 40
0.2916666666666666
 40
0.2916666666666666
 40
0.2916666666666666
 40
0.3333333333333333
 40
0.3333333333333333
 40
0.3333333333333333
 40
0.3333333333333333
 40
0.375
 40
0.375
 40
0.375
 40
0.375
 40
0.4166666666666667
 40
0.4166666666666667
 40
0.4166666666666667
 40
0.4166666666666667
 40
0.4583333333333334
 40
0.4583333333333334
 40
0.4583333333333334
 40
0.4583333333333334
 40
0.5
 40
0.5
 40
0.5
 40
0.5
 40
0.5416666666666666
 40
0.5416666666666666
 40
0.5416666666666666
 40
0.5416666666666666
 40
0.5833333333333333
 40
0.5833333333333333
 40
0.5833333333333333
 40
0.5833333333333333
 40
0.6249999999999999
 40
0.6249999999999999
 40
0.6249999999999999
 40
0.6249999999999999
 40
0.6666666666666665
 40
0.6666666666666665
 40
0.6666666666666665
 40
0.6666666666666665
 40
0.7083333333333332
 40
0.7083333333333332
 40
0.7083333333333332
 40
0.7083333333333332
 40
0.7499999999999998
 40
0.7499999999999998
 40
0.7499999999999998
 40
0.7499999999999998
 40
0.7916666666666664
 40
0.7916666666666664
 40
0.7916666666666664
 40
0.7916666666666664
 40
0.833333333333333
 40
0.833333333333333
 40
0.833333333333333
 40
0.833333333333333
 40
0.8749999999999997
 40
0.8749999999999997
 40
0.8749999999999997
 40
0.8749999999999997
 40
0.9166666666666663
 40
0.9166666666666663
 40
0.9166666666666663
 40
0.9166666666666663
 40
0.9583333333333329
 40
0.9583333333333329
 40
0.9583333333333329
 40
0.9583333333333329
 40
1.0
 40
1.0
 40
1.0
 40
1.0
 10
20.0516
 20
90.90830000000001
 30
0.0
 10
20.0516
 20
90.90830000000001
 30
0.0
 10
35.7502
 20
90.90830000000001
 30
0.0
 10
35.7502
 20
90.90830000000001
 30
0.0
 10
35.7502
 20
90.90830000000001
 30
0.0
 10
35.7502
 20
90.90830000000001
 30
0.0
 10
35.7502
 20
87.07260000000001
 30
0.0
 10
35.7502
 20
87.07260000000001
 30
0.0
 10
35.7502
 20
87.07260000000001
 30
0.0
 10
35.7502
 20
87.07260000000001
 30
0.0
 10
28.6947
 20
87.07260000000001
 30
0.0
 10
28.6947
 20
87.07260000000001
 30
0.0
 10
28.6947
 20
87.07260000000001
 30
0.0
 10
28.6947
 20
87.07260000000001
 30
0.0
 10
28.6947
 20
84.07260000000001
 30
0.0
 10
28.6947
 20
84.07260000000001
 30
0.0
 10
28.6947
 20
84.07260000000001
 30
0.0
 10
28.6947
 20
84.07260000000001
 30
0.0
 10
35.7502
 20
84.07260000000001
 30
0.0
 10
35.7502
 20
84.07260000000001
 30
0.0
 10
35.7502
 20
84.07260000000001
 30
0.0
 10
35.7502
 20
84.07260000000001
 30
0.0
 10
35.7502
 20
69.6541
 30
0.0
 10
35.7502
 20
69.6541
 30
0.0
 10
35.7502
 20
69.6541
 30
0.0
 10
35.7502
 20
69.6541
 30
0.0
 10
28.6947
 20
69.6541
 30
0.0
 10
28.6947
 20
69.6541
 30
0.0
 10
28.6947
 20
69.6541
 30
0.0
 10
28.6947
 20
69.6541
 30
0.0
 10
28.6947
 20
66.6541
 30
0.0
 10
28.6947
 20
66.6541
 30
0.0
 10
28.6947
 20
66.6541
 30
0.0
 10
28.6947
 20
66.6541
 30
0.0
 10
35.7502
 20
66.6541
 30
0.0
 10
35.7502
 20
66.6541
 30
0.0
 10
35.7502
 20
66.6541
 30
0.0
 10
35.7502
 20
66.6541
 30
0.0
 10
35.7502
 20
52.2357
 30
0.0
 10
35.7502
 20
52.2357
 30
0.0
 10
35.7502
 20
52.2357
 30
0.0
 10
35.7502
 20
52.2357
 30
0.0
 10
28.6947
 20
52.2357
 30
0.0
 10
28.6947
 20
52.2357
 30
0.0
 10
28.6947
 20
52.2357
 30
0.0
 10
28.6947
 20
52.2357
 30
0.0
 10
28.6947
 20
49.2357
 30
0.0
 10
28.6947
 20
49.2357
 30
0.0
 10
28.6947
 20
49.2357
 30
0.0
 10
28.6947
 20
49.2357
 30
0.0
 10
35.7502
 20
49.2357
 30
0.0
 10
35.7502
 20
49.2357
 30
0.0
 10
35.7502
 20
49.2357
 30
0.0
 10
35.7502
 20
49.2357
 30
0.0
 10
35.7502
 20
45.3999
 30
0.0
 10
35.7502
 20
45.3999
 30
0.0
 10
35.7502
 20
45.3999
 30
0.0
 10
35.7502
 20
45.3999
 30
0.0
 10
20.0516
 20
45.3999
 30
0.0
 10
20.0516
 20
45.3999
 30
0.0
 10
20.0516
 20
45.3999
 30
0.0
 10
20.0516
 20
45.3999
 30
0.0
 10
20.0516
 20
63.5018
 30
0.0
 10
20.0516
 20
63.5018
 30
0.0
 10
20.0516
 20
63.5018
 30
0.0
 10
20.0516
 20
63.5018
 30
0.0
 10
13.7234
 20
63.5018
 30
0.0
 10
13.7234
 20
63.5018
 30
0.0
 10
13.7234
 20
63.5018
 30
0.0
 10
13.7234
 20
63.5018
 30
0.0
 10
13.7234
 20
72.9607
 30
0.0
 10
13.7234
 20
72.9607
 30
0.0
 10
13.7234
 20
72.9607
 30
0.0
 10
13.7234
 20
72.9607
 30
0.0
 10
13.2801
 20
74.94500000000001
 30
0.0
 10
17.0516
 20
74.5702
 30
0.0
 10
17.0516
 20
74.5702
 30
0.0
 10
17.0516
 20
74.5702
 30
0.0
 10
17.0516
 20
69.3668
 30
0.0
 10
17.0516
 20
69.3668
 30
0.0
 10
17.0516
 20
69.3668
 30
0.0
 10
17.0516
 20
69.3668
 30
0.0
 10
20.0516
 20
69.3668
 30
0.0
 10
20.0516
 20
69.3668
 30
0.0
 10
20.0516
 20
69.3668
 30
0.0
 10
20.0516
 20
69.3668
 30
0.0
 10
20.0516
 20
74.4439
 30
0.0
 10
20.0516
 20
74.4439
 30
0.0
 10
20.0516
 20
74.4439
 30
0.0
 10
20.0516
 20
74.4439
 30
0.0
 10
20.0516
 20
85.06540000000001
 30
0.0
 10
20.0516
 20
85.06540000000001
 30
0.0
 10
20.0516
 20
85.06540000000001
 30
0.0
 10
20.0516
 20
85.06540000000001
 30
0.0
 10
20.0516
 20
90.90830000000001
 30
0.0
 10
20.0516
 20
90.90830000000001
 30
0.0
  0
SPLINE
  5
7B
330
1F
100
AcDbEntity
  8
Capa 1
 62
     1
370
     0
100
AcDbSpline
210
0.0
220
0.0
230
1.0
 70
    11
 71
     3
 72
    20
 73
    16
 74
     0
 42
0.0000000001
 43
0.0000000001
 40
0.0
 40
0.0
 40
0.0
 40
0.0
 40
0.25
 40
0.25
 40
0.25
 40
0.25
 40
0.5
 40
0.5
 40
0.5
 40
0.5
 40
0.75
 40
0.75
 40
0.75
 40
0.75
 40
1.0
 40
1.0
 40
1.0
 40
1.0
 10
26.236
 20
113.1667
 30
0.0
 10
30.2057
 20
113.1667
 30
0.0
 10
33.4238
 20
109.9486
 30
0.0
 10
33.4238
 20
105.9789
 30
0.0
 10
33.4238
 20
105.9789
 30
0.0
 10
33.4238
 20
102.0092
 30
0.0
 10
30.2057
 20
98.7911
 30
0.0
 10
26.236
 20
98.7911
 30
0.0
 10
26.236
 20
98.7911
 30
0.0
 10
22.2663
 20
98.7911
 30
0.0
 10
19.0482
 20
102.0092
 30
0.0
 10
19.0482
 20
105.9789
 30
0.0
 10
19.0482
 20
105.9789
 30
0.0
 10
19.0482
 20
109.9486
 30
0.0
 10
22.2663
 20
113.1667
 30
0.0
 10
26.236
 20
113.1667
 30
0.0
  0
SPLINE
  5
7C
330
1F
100
AcDbEntity
  8
Capa 1
 62
     1
370
     0
100
AcDbSpline
210
0.0
220
0.0
230
1.0
 70
    11
 71
     3
 72
    20
 73
    16
 74
     0
 42
0.0000000001
 43
0.0000000001
 40
0.0
 40
0.0
 40
0.0
 40
0.0
 40
0.25
 40
0.25
 40
0.25
 40
0.25
 40
0.5
 40
0.5
 40
0.5
 40
0.5
 40
0.75
 40
0.75
 40
0.75
 40
0.75
 40
1.0
 40
1.0
 40
1.0
 40
1.0
 10
29.2346
 20
104.4789
 30
0.0
 10
29.2346
 20
104.4789
 30
0.0
 10
23.2374
 20
104.4789
 30
0.0
 10
23.2374
 20
104.4789
 30
0.0
 10
23.2374
 20
104.4789
 30
0.0
 10
23.2374
 20
104.4789
 30
0.0
 10
23.2374
 20
107.4789
 30
0.0
 10
23.2374
 20
107.4789
 30
0.0
 10
23.2374
 20
107.4789
 30
0.0
 10
23.2374
 20
107.4789
 30
0.0
 10
29.2346
 20
107.4789
 30
0.0
 10
29.2346
 20
107.4789
 30
0.0
 10
29.2346
 20
107.4789
 30
0.0
 10
29.2346
 20
107.4789
 30
0.0
 10
29.2346
 20
104.4789
 30
0.0
 10
29.2346
 20
104.4789
 30
0.0
  0
SPLINE
  5
7D
330
1F
100
AcDbEntity
  8
Capa 1
 62
     1
370
     0
100
AcDbSpline
210
0.0
220
0.0
230
1.0
 70
    11
 71
     3
 72
    20
 73
    16
 74
     0
 42
0.0000000001
 43
0.0000000001
 40
0.0
 40
0.0
 40
0.0
 40
0.0
 40
0.25
 40
0.25
 40
0.25
 40
0.25
 40
0.5
 40
0.5
 40
0.5
 40
0.5
 40
0.75
 40
0.75
 40
0.75
 40
0.75
 40
1.0
 40
1.0
 40
1.0
 40
1.0
 10
66.20990000000001
 20
61.2192
 30
0.0
 10
70.17960000000001
 20
61.2192
 30
0.0
 10
73.3977
 20
58.0011
 30
0.0
 10
73.3977
 20
54.03140000000001
 30
0.0
 10
73.3977
 20
54.03140000000001
 30
0.0
 10
73.3977
 20
50.0617
 30
0.0
 10
70.17960000000001
 20
46.8436
 30
0.0
 10
66.20990000000001
 20
46.8436
 30
0.0
 10
66.20990000000001
 20
46.8436
 30
0.0
 10
62.2402
 20
46.8436
 30
0.0
 10
59.0221
 20
50.0617
 30
0.0
 10
59.0221
 20
54.03140000000001
 30
0.0
 10
59.0221
 20
54.03140000000001
 30
0.0
 10
59.0221
 20
58.0011
 30
0.0
 10
62.2402
 20
61.2192
 30
0.0
 10
66.20990000000001
 20
61.2192
 30
0.0
  0
SPLINE
  5
7E
330
1F
100
AcDbEntity
  8
Capa 1
 62
     1
370
     0
100
AcDbSpline
210
0.0
220
0.0
230
1.0
 70
    11
 71
     3
 72
    20
 73
    16
 74
     0
 42
0.0000000001
 43
0.0000000001
 40
0.0
 40
0.0
 40
0.0
 40
0.0
 40
0.25
 40
0.25
 40
0.25
 40
0.25
 40
0.5
 40
0.5
 40
0.5
 40
0.5
 40
0.75
 40
0.75
 40
0.75
 40
0.75
 40
1.0
 40
1.0
 40
1.0
 40
1.0
 10
69.2085
 20
52.53140000000001
 30
0.0
 10
69.2085
 20
52.53140000000001
 30
0.0
 10
63.2113
 20
52.53140000000001
 30
0.0
 10
63.2113
 20
52.53140000000001
 30
0.0
 10
63.2113
 20
52.53140000000001
 30
0.0
 10
63.2113
 20
52.53140000000001
 30
0.0
 10
63.2113
 20
55.53140000000001
 30
0.0
 10
63.2113
 20
55.53140000000001
 30
0.0
 10
63.2113
 20
55.53140000000001
 30
0.0
 10
63.2113
 20
55.53140000000001
 30
0.0
 10
69.2085
 20
55.53140000000001
 30
0.0
 10
69.2085
 20
55.53140000000001
 30
0.0
 10
69.2085
 20
55.53140000000001
 30
0.0
 10
69.2085
 20
55.53140000000001
 30
0.0
 10
69.2085
 20
52.53140000000001
 30
0.0
 10
69.2085
 20
52.53140000000001
 30
0.0
  0
SPLINE
  5
7F
330
1F
100
AcDbEntity
  8
Capa 1
 62
     1
370
     0
100
AcDbSpline
210
0.0
220
0.0
230
1.0
 70
    11
 71
     3
 72
    20
 73
    16
 74
     0
 42
0.0000000001
 43
0.0000000001
 40
0.0
 40
0.0
 40
0.0
 40
0.0
 40
0.25
 40
0.25
 40
0.25
 40
0.25
 40
0.5
 40
0.5
 40
0.5
 40
0.5
 40
0.75
 40
0.75
 40
0.75
 40
0.75
 40
1.0
 40
1.0
 40
1.0
 40
1.0
 10
86.58290000000001
 20
61.4844
 30
0.0
 10
90.55280000000001
 20
61.4844
 30
0.0
 10
93.77070000000001
 20
58.2665
 30
0.0
 10
93.77070000000001
 20
54.29660000000001
 30
0.0
 10
93.77070000000001
 20
54.29660000000001
 30
0.0
 10
93.77070000000001
 20
50.3267
 30
0.0
 10
90.55280000000001
 20
47.1088
 30
0.0
 10
86.58290000000001
 20
47.1088
 30
0.0
 10
86.58290000000001
 20
47.1088
 30
0.0
 10
82.613
 20
47.1088
 30
0.0
 10
79.3951
 20
50.3267
 30
0.0
 10
79.3951
 20
54.29660000000001
 30
0.0
 10
79.3951
 20
54.29660000000001
 30
0.0
 10
79.3951
 20
58.2665
 30
0.0
 10
82.613
 20
61.4844
 30
0.0
 10
86.58290000000001
 20
61.4844
 30
0.0
  0
SPLINE
  5
80
330
1F
100
AcDbEntity
  8
Capa 1
 62
     1
370
     0
100
AcDbSpline
210
0.0
220
0.0
230
1.0
 70
    11
 71
     3
 72
    20
 73
    16
 74
     0
 42
0.0000000001
 43
0.0000000001
 40
0.0
 40
0.0
 40
0.0
 40
0.0
 40
0.25
 40
0.25
 40
0.25
 40
0.25
 40
0.5
 40
0.5
 40
0.5
 40
0.5
 40
0.75
 40
0.75
 40
0.75
 40
0.75
 40
1.0
 40
1.0
 40
1.0
 40
1.0
 10
86.58290000000001
 20
56.6779
 30
0.0
 10
87.8981
 20
56.6779
 30
0.0
 10
88.96420000000001
 20
55.6118
 30
0.0
 10
88.96420000000001
 20
54.29660000000001
 30
0.0
 10
88.96420000000001
 20
54.29660000000001
 30
0.0
 10
88.96420000000001
 20
52.9814
 30
0.0
 10
87.8981
 20
51.9153
 30
0.0
 10
86.58290000000001
 20
51.9153
 30
0.0
 10
86.58290000000001
 20
51.9153
 30
0.0
 10
85.26770000000001
 20
51.9153
 30
0.0
 10
84.2016
 20
52.9814
 30
0.0
 10
84.2016
 20
54.29660000000001
 30
0.0
 10
84.2016
 20
54.29660000000001
 30
0.0
 10
84.2016
 20
55.6118
 30
0.0
 10
85.26770000000001
 20
56.6779
 30
0.0
 10
86.58290000000001
 20
56.6779
 30
0.0
  0
SPLINE
  5
81
330
1F
100
AcDbEntity
  8
Capa 1
 62
     1
370
     0
100
AcDbSpline
210
0.0
220
0.0
230
1.0
 70
    11
 71
     3
 72
    32
 73
    28
 74
     0
 42
0.0000000001
 43
0.0000000001
 40
0.0
 40
0.0
 40
0.0
 40
0.0
 40
0.1428571428571429
 40
0.1428571428571429
 40
0.1428571428571429
 40
0.1428571428571429
 40
0.2857142857142857
 40
0.2857142857142857
 40
0.2857142857142857
 40
0.2857142857142857
 40
0.4285714285714286
 40
0.4285714285714286
 40
0.4285714285714286
 40
0.4285714285714286
 40
0.5714285714285714
 40
0.5714285714285714
 40
0.5714285714285714
 40
0.5714285714285714
 40
0.7142857142857142
 40
0.7142857142857142
 40
0.7142857142857142
 40
0.7142857142857142
 40
0.857142857142857
 40
0.857142857142857
 40
0.857142857142857
 40
0.857142857142857
 40
1.0
 40
1.0
 40
1.0
 40
1.0
 10
76.59480000000001
 20
80.1598
 30
0.0
 10
79.97670000000001
 20
80.1598
 30
0.0
 10
82.80240000000001
 20
77.78020000000001
 30
0.0
 10
83.4901
 20
74.60420000000001
 30
0.0
 10
83.4901
 20
74.60420000000001
 30
0.0
 10
83.4901
 20
74.60420000000001
 30
0.0
 10
75.18350000000001
 20
74.6041
 30
0.0
 10
75.18350000000001
 20
74.6041
 30
0.0
 10
75.18350000000001
 20
74.6041
 30
0.0
 10
75.18350000000001
 20
74.6041
 30
0.0
 10
75.18350000000001
 20
71.60420000000001
 30
0.0
 10
75.18350000000001
 20
71.60420000000001
 30
0.0
 10
75.18350000000001
 20
71.60420000000001
 30
0.0
 10
75.18350000000001
 20
71.60420000000001
 30
0.0
 10
83.4901
 20
71.60420000000001
 30
0.0
 10
83.4901
 20
71.60420000000001
 30
0.0
 10
83.4901
 20
71.60420000000001
 30
0.0
 10
82.8023
 20
68.4282
 30
0.0
 10
79.97670000000001
 20
66.04860000000001
 30
0.0
 10
76.59480000000001
 20
66.04860000000001
 30
0.0
 10
76.59480000000001
 20
66.04860000000001
 30
0.0
 10
72.6981
 20
66.04860000000001
 30
0.0
 10
69.53920000000001
 20
69.20750000000001
 30
0.0
 10
69.53920000000001
 20
73.10420000000001
 30
0.0
 10
69.53920000000001
 20
73.10420000000001
 30
0.0
 10
69.53920000000001
 20
77.0009
 30
0.0
 10
72.6981
 20
80.1598
 30
0.0
 10
76.59480000000001
 20
80.1598
 30
0.0
  0
SPLINE
  5
82
330
1F
100
AcDbEntity
  8
Capa 1
 62
     1
370
     0
100
AcDbSpline
210
0.0
220
0.0
230
1.0
 70
    11
 71
     3
 72
    32
 73
    28
 74
     0
 42
0.0000000001
 43
0.0000000001
 40
0.0
 40
0.0
 40
0.0
 40
0.0
 40
0.1428571428571429
 40
0.1428571428571429
 40
0.1428571428571429
 40
0.1428571428571429
 40
0.2857142857142857
 40
0.2857142857142857
 40
0.2857142857142857
 40
0.2857142857142857
 40
0.4285714285714286
 40
0.4285714285714286
 40
0.4285714285714286
 40
0.4285714285714286
 40
0.5714285714285714
 40
0.5714285714285714
 40
0.5714285714285714
 40
0.5714285714285714
 40
0.7142857142857142
 40
0.7142857142857142
 40
0.7142857142857142
 40
0.7142857142857142
 40
0.857142857142857
 40
0.857142857142857
 40
0.857142857142857
 40
0.857142857142857
 40
1.0
 40
1.0
 40
1.0
 40
1.0
 10
96.2919
 20
80.4901
 30
0.0
 10
92.91000000000001
 20
80.4901
 30
0.0
 10
90.0843
 20
78.1105
 30
0.0
 10
89.39660000000001
 20
74.9345
 30
0.0
 10
89.39660000000001
 20
74.9345
 30
0.0
 10
89.39660000000001
 20
74.9345
 30
0.0
 10
97.70320000000001
 20
74.9344
 30
0.0
 10
97.70320000000001
 20
74.9344
 30
0.0
 10
97.70320000000001
 20
74.9344
 30
0.0
 10
97.70320000000001
 20
74.9344
 30
0.0
 10
97.70320000000001
 20
71.9345
 30
0.0
 10
97.70320000000001
 20
71.9345
 30
0.0
 10
97.70320000000001
 20
71.9345
 30
0.0
 10
97.70320000000001
 20
71.9345
 30
0.0
 10
89.39660000000001
 20
71.9345
 30
0.0
 10
89.39660000000001
 20
71.9345
 30
0.0
 10
89.39660000000001
 20
71.9345
 30
0.0
 10
90.0844
 20
68.7585
 30
0.0
 10
92.91000000000001
 20
66.3789
 30
0.0
 10
96.2919
 20
66.3789
 30
0.0
 10
96.2919
 20
66.3789
 30
0.0
 10
100.1886
 20
66.3789
 30
0.0
 10
103.3475
 20
69.5378
 30
0.0
 10
103.3475
 20
73.4345
 30
0.0
 10
103.3475
 20
73.4345
 30
0.0
 10
103.3475
 20
77.33120000000001
 30
0.0
 10
100.1886
 20
80.4901
 30
0.0
 10
96.2919
 20
80.4901
 30
0.0
  0
SPLINE
  5
83
330
1F
100
AcDbEntity
  8
Capa 1
 62
     1
370
     0
100
AcDbSpline
210
0.0
220
0.0
230
1.0
 70
    11
 71
     3
 72
    32
 73
    28
 74
     0
 42
0.0000000001
 43
0.0000000001
 40
0.0
 40
0.0
 40
0.0
 40
0.0
 40
0.1428571428571429
 40
0.1428571428571429
 40
0.1428571428571429
 40
0.1428571428571429
 40
0.2857142857142857
 40
0.2857142857142857
 40
0.2857142857142857
 40
0.2857142857142857
 40
0.4285714285714286
 40
0.4285714285714286
 40
0.4285714285714286
 40
0.4285714285714286
 40
0.5714285714285714
 40
0.5714285714285714
 40
0.5714285714285714
 40
0.5714285714285714
 40
0.7142857142857142
 40
0.7142857142857142
 40
0.7142857142857142
 40
0.7142857142857142
 40
0.857142857142857
 40
0.857142857142857
 40
0.857142857142857
 40
0.857142857142857
 40
1.0
 40
1.0
 40
1.0
 40
1.0
 10
99.0257
 20
-9.6883
 30
0.0
 10
95.6438
 20
-9.6883
 30
0.0
 10
92.8181
 20
-12.0679
 30
0.0
 10
92.13040000000001
 20
-15.2439
 30
0.0
 10
92.13040000000001
 20
-15.2439
 30
0.0
 10
92.13040000000001
 20
-15.2439
 30
0.0
 10
100.437
 20
-15.244
 30
0.0
 10
100.437
 20
-15.244
 30
0.0
 10
100.437
 20
-15.244
 30
0.0
 10
100.437
 20
-15.244
 30
0.0
 10
100.437
 20
-18.2439
 30
0.0
 10
100.437
 20
-18.2439
 30
0.0
 10
100.437
 20
-18.2439
 30
0.0
 10
100.437
 20
-18.2439
 30
0.0
 10
92.13040000000001
 20
-18.2439
 30
0.0
 10
92.13040000000001
 20
-18.2439
 30
0.0
 10
92.13040000000001
 20
-18.2439
 30
0.0
 10
92.8182
 20
-21.4199
 30
0.0
 10
95.6438
 20
-23.7995
 30
0.0
 10
99.0257
 20
-23.7995
 30
0.0
 10
99.0257
 20
-23.7995
 30
0.0
 10
102.9224
 20
-23.7995
 30
0.0
 10
106.0813
 20
-20.6406
 30
0.0
 10
106.0813
 20
-16.7439
 30
0.0
 10
106.0813
 20
-16.7439
 30
0.0
 10
106.0813
 20
-12.8472
 30
0.0
 10
102.9224
 20
-9.6883
 30
0.0
 10
99.0257
 20
-9.6883
 30
0.0
  0
SPLINE
  5
84
330
1F
100
AcDbEntity
  8
Capa 1
 62
     1
370
     0
100
AcDbSpline
210
0.0
220
0.0
230
1.0
 70
    11
 71
     3
 72
    32
 73
    28
 74
     0
 42
0.0000000001
 43
0.0000000001
 40
0.0
 40
0.0
 40
0.0
 40
0.0
 40
0.1428571428571429
 40
0.1428571428571429
 40
0.1428571428571429
 40
0.1428571428571429
 40
0.2857142857142857
 40
0.2857142857142857
 40
0.2857142857142857
 40
0.2857142857142857
 40
0.4285714285714286
 40
0.4285714285714286
 40
0.4285714285714286
 40
0.4285714285714286
 40
0.5714285714285714
 40
0.5714285714285714
 40
0.5714285714285714
 40
0.5714285714285714
 40
0.7142857142857142
 40
0.7142857142857142
 40
0.7142857142857142
 40
0.7142857142857142
 40
0.857142857142857
 40
0.857142857142857
 40
0.857142857142857
 40
0.857142857142857
 40
1.0
 40
1.0
 40
1.0
 40
1.0
 10
89.93340000000001
 20
-26.5327
 30
0.0
 10
86.5515
 20
-26.5327
 30
0.0
 10
83.72580000000001
 20
-28.9123
 30
0.0
 10
83.0381
 20
-32.0883
 30
0.0
 10
83.0381
 20
-32.0883
 30
0.0
 10
83.0381
 20
-32.0883
 30
0.0
 10
91.3447
 20
-32.0884
 30
0.0
 10
91.3447
 20
-32.0884
 30
0.0
 10
91.3447
 20
-32.0884
 30
0.0
 10
91.3447
 20
-32.0884
 30
0.0
 10
91.3447
 20
-35.0883
 30
0.0
 10
91.3447
 20
-35.0883
 30
0.0
 10
91.3447
 20
-35.0883
 30
0.0
 10
91.3447
 20
-35.0883
 30
0.0
 10
83.0381
 20
-35.0883
 30
0.0
 10
83.0381
 20
-35.0883
 30
0.0
 10
83.0381
 20
-35.0883
 30
0.0
 10
83.72590000000001
 20
-38.2643
 30
0.0
 10
86.5515
 20
-40.6439
 30
0.0
 10
89.93340000000001
 20
-40.6439
 30
0.0
 10
89.93340000000001
 20
-40.6439
 30
0.0
 10
93.8301
 20
-40.6439
 30
0.0
 10
96.989
 20
-37.485
 30
0.0
 10
96.989
 20
-33.5883
 30
0.0
 10
96.989
 20
-33.5883
 30
0.0
 10
96.989
 20
-29.6916
 30
0.0
 10
93.8301
 20
-26.5327
 30
0.0
 10
89.93340000000001
 20
-26.5327
 30
0.0
  0
SPLINE
  5
85
330
1F
100
AcDbEntity
  8
Capa 1
 62
     1
370
     0
100
AcDbSpline
210
0.0
220
0.0
230
1.0
 70
    11
 71
     3
 72
    20
 73
    16
 74
     0
 42
0.0000000001
 43
0.0000000001
 40
0.0
 40
0.0
 40
0.0
 40
0.0
 40
0.25
 40
0.25
 40
0.25
 40
0.25
 40
0.5
 40
0.5
 40
0.5
 40
0.5
 40
0.75
 40
0.75
 40
0.75
 40
0.75
 40
1.0
 40
1.0
 40
1.0
 40
1.0
 10
50.06970000000001
 20
-5.6755
 30
0.0
 10
54.0394
 20
-5.6755
 30
0.0
 10
57.2575
 20
-8.893600000000001
 30
0.0
 10
57.2575
 20
-12.8633
 30
0.0
 10
57.2575
 20
-12.8633
 30
0.0
 10
57.2575
 20
-16.833
 30
0.0
 10
54.0394
 20
-20.0511
 30
0.0
 10
50.06970000000001
 20
-20.0511
 30
0.0
 10
50.06970000000001
 20
-20.0511
 30
0.0
 10
46.1
 20
-20.0511
 30
0.0
 10
42.8819
 20
-16.833
 30
0.0
 10
42.8819
 20
-12.8633
 30
0.0
 10
42.8819
 20
-12.8633
 30
0.0
 10
42.8819
 20
-8.893600000000001
 30
0.0
 10
46.1
 20
-5.6755
 30
0.0
 10
50.06970000000001
 20
-5.6755
 30
0.0
  0
SPLINE
  5
86
330
1F
100
AcDbEntity
  8
Capa 1
 62
     1
370
     0
100
AcDbSpline
210
0.0
220
0.0
230
1.0
 70
    11
 71
     3
 72
    20
 73
    16
 74
     0
 42
0.0000000001
 43
0.0000000001
 40
0.0
 40
0.0
 40
0.0
 40
0.0
 40
0.25
 40
0.25
 40
0.25
 40
0.25
 40
0.5
 40
0.5
 40
0.5
 40
0.5
 40
0.75
 40
0.75
 40
0.75
 40
0.75
 40
1.0
 40
1.0
 40
1.0
 40
1.0
 10
53.0683
 20
-14.3633
 30
0.0
 10
53.0683
 20
-14.3633
 30
0.0
 10
47.0711
 20
-14.3633
 30
0.0
 10
47.0711
 20
-14.3633
 30
0.0
 10
47.0711
 20
-14.3633
 30
0.0
 10
47.0711
 20
-14.3633
 30
0.0
 10
47.0711
 20
-11.3633
 30
0.0
 10
47.0711
 20
-11.3633
 30
0.0
 10
47.0711
 20
-11.3633
 30
0.0
 10
47.0711
 20
-11.3633
 30
0.0
 10
53.0683
 20
-11.3633
 30
0.0
 10
53.0683
 20
-11.3633
 30
0.0
 10
53.0683
 20
-11.3633
 30
0.0
 10
53.0683
 20
-11.3633
 30
0.0
 10
53.0683
 20
-14.3633
 30
0.0
 10
53.0683
 20
-14.3633
 30
0.0
  0
SPLINE
  5
87
330
1F
100
AcDbEntity
  8
Capa 1
 62
     1
370
     0
100
AcDbSpline
210
0.0
220
0.0
230
1.0
 70
    11
 71
     3
 72
    20
 73
    16
 74
     0
 42
0.0000000001
 43
0.0000000001
 40
0.0
 40
0.0
 40
0.0
 40
0.0
 40
0.25
 40
0.25
 40
0.25
 40
0.25
 40
0.5
 40
0.5
 40
0.5
 40
0.5
 40
0.75
 40
0.75
 40
0.75
 40
0.75
 40
1.0
 40
1.0
 40
1.0
 40
1.0
 10
19.5544
 20
-55.32830000000001
 30
0.0
 10
23.5241
 20
-55.32830000000001
 30
0.0
 10
26.7422
 20
-58.54640000000001
 30
0.0
 10
26.7422
 20
-62.5161
 30
0.0
 10
26.7422
 20
-62.5161
 30
0.0
 10
26.7422
 20
-66.4858
 30
0.0
 10
23.5241
 20
-69.7039
 30
0.0
 10
19.5544
 20
-69.7039
 30
0.0
 10
19.5544
 20
-69.7039
 30
0.0
 10
15.5847
 20
-69.7039
 30
0.0
 10
12.3666
 20
-66.4858
 30
0.0
 10
12.3666
 20
-62.5161
 30
0.0
 10
12.3666
 20
-62.5161
 30
0.0
 10
12.3666
 20
-58.54640000000001
 30
0.0
 10
15.5847
 20
-55.32830000000001
 30
0.0
 10
19.5544
 20
-55.32830000000001
 30
0.0
  0
SPLINE
  5
88
330
1F
100
AcDbEntity
  8
Capa 1
 62
     1
370
     0
100
AcDbSpline
210
0.0
220
0.0
230
1.0
 70
    11
 71
     3
 72
    20
 73
    16
 74
     0
 42
0.0000000001
 43
0.0000000001
 40
0.0
 40
0.0
 40
0.0
 40
0.0
 40
0.25
 40
0.25
 40
0.25
 40
0.25
 40
0.5
 40
0.5
 40
0.5
 40
0.5
 40
0.75
 40
0.75
 40
0.75
 40
0.75
 40
1.0
 40
1.0
 40
1.0
 40
1.0
 10
22.553
 20
-64.01610000000001
 30
0.0
 10
22.553
 20
-64.01610000000001
 30
0.0
 10
16.5558
 20
-64.01610000000001
 30
0.0
 10
16.5558
 20
-64.01610000000001
 30
0.0
 10
16.5558
 20
-64.01610000000001
 30
0.0
 10
16.5558
 20
-64.01610000000001
 30
0.0
 10
16.5558
 20
-61.0161
 30
0.0
 10
16.5558
 20
-61.0161
 30
0.0
 10
16.5558
 20
-61.0161
 30
0.0
 10
16.5558
 20
-61.0161
 30
0.0
 10
22.553
 20
-61.0161
 30
0.0
 10
22.553
 20
-61.0161
 30
0.0
 10
22.553
 20
-61.0161
 30
0.0
 10
22.553
 20
-61.0161
 30
0.0
 10
22.553
 20
-64.01610000000001
 30
0.0
 10
22.553
 20
-64.01610000000001
 30
0.0
  0
SPLINE
  5
89
330
1F
100
AcDbEntity
  8
Capa 1
 62
     1
370
     0
100
AcDbSpline
210
0.0
220
0.0
230
1.0
 70
    11
 71
     3
 72
   128
 73
   124
 74
     0
 42
0.0000000001
 43
0.0000000001
 40
0.0
 40
0.0
 40
0.0
 40
0.0
 40
0.032258064516129
 40
0.032258064516129
 40
0.032258064516129
 40
0.032258064516129
 40
0.0645161290322581
 40
0.0645161290322581
 40
0.0645161290322581
 40
0.0645161290322581
 40
0.0967741935483871
 40
0.0967741935483871
 40
0.0967741935483871
 40
0.0967741935483871
 40
0.1290322580645161
 40
0.1290322580645161
 40
0.1290322580645161
 40
0.1290322580645161
 40
0.1612903225806452
 40
0.1612903225806452
 40
0.1612903225806452
 40
0.1612903225806452
 40
0.1935483870967742
 40
0.1935483870967742
 40
0.1935483870967742
 40
0.1935483870967742
 40
0.2258064516129032
 40
0.2258064516129032
 40
0.2258064516129032
 40
0.2258064516129032
 40
0.2580645161290323
 40
0.2580645161290323
 40
0.2580645161290323
 40
0.2580645161290323
 40
0.2903225806451613
 40
0.2903225806451613
 40
0.2903225806451613
 40
0.2903225806451613
 40
0.3225806451612903
 40
0.3225806451612903
 40
0.3225806451612903
 40
0.3225806451612903
 40
0.3548387096774193
 40
0.3548387096774193
 40
0.3548387096774193
 40
0.3548387096774193
 40
0.3870967741935483
 40
0.3870967741935483
 40
0.3870967741935483
 40
0.3870967741935483
 40
0.4193548387096773
 40
0.4193548387096773
 40
0.4193548387096773
 40
0.4193548387096773
 40
0.4516129032258063
 40
0.4516129032258063
 40
0.4516129032258063
 40
0.4516129032258063
 40
0.4838709677419353
 40
0.4838709677419353
 40
0.4838709677419353
 40
0.4838709677419353
 40
0.5161290322580643
 40
0.5161290322580643
 40
0.5161290322580643
 40
0.5161290322580643
 40
0.5483870967741933
 40
0.5483870967741933
 40
0.5483870967741933
 40
0.5483870967741933
 40
0.5806451612903223
 40
0.5806451612903223
 40
0.5806451612903223
 40
0.5806451612903223
 40
0.6129032258064513
 40
0.6129032258064513
 40
0.6129032258064513
 40
0.6129032258064513
 40
0.6451612903225803
 40
0.6451612903225803
 40
0.6451612903225803
 40
0.6451612903225803
 40
0.6774193548387093
 40
0.6774193548387093
 40
0.6774193548387093
 40
0.6774193548387093
 40
0.7096774193548383
 40
0.7096774193548383
 40
0.7096774193548383
 40
0.7096774193548383
 40
0.7419354838709673
 40
0.7419354838709673
 40
0.7419354838709673
 40
0.7419354838709673
 40
0.7741935483870963
 40
0.7741935483870963
 40
0.7741935483870963
 40
0.7741935483870963
 40
0.8064516129032253
 40
0.8064516129032253
 40
0.8064516129032253
 40
0.8064516129032253
 40
0.8387096774193543
 40
0.8387096774193543
 40
0.8387096774193543
 40
0.8387096774193543
 40
0.8709677419354833
 40
0.8709677419354833
 40
0.8709677419354833
 40
0.8709677419354833
 40
0.9032258064516123
 40
0.9032258064516123
 40
0.9032258064516123
 40
0.9032258064516123
 40
0.9354838709677413
 40
0.9354838709677413
 40
0.9354838709677413
 40
0.9354838709677413
 40
0.9677419354838703
 40
0.9677419354838703
 40
0.9677419354838703
 40
0.9677419354838703
 40
1.0
 40
1.0
 40
1.0
 40
1.0
 10
39.3098
 20
41.5086
 30
0.0
 10
39.3098
 20
41.5086
 30
0.0
 10
53.0681
 20
41.5086
 30
0.0
 10
53.0681
 20
41.5086
 30
0.0
 10
53.0681
 20
41.5086
 30
0.0
 10
53.0681
 20
41.5086
 30
0.0
 10
53.0681
 20
36.8798
 30
0.0
 10
53.0681
 20
36.8798
 30
0.0
 10
53.0681
 20
36.8798
 30
0.0
 10
53.0681
 20
36.8798
 30
0.0
 10
45.4825
 20
36.8798
 30
0.0
 10
45.4825
 20
36.8798
 30
0.0
 10
45.4825
 20
36.8798
 30
0.0
 10
45.4825
 20
36.8798
 30
0.0
 10
45.4825
 20
33.8798
 30
0.0
 10
45.4825
 20
33.8798
 30
0.0
 10
45.4825
 20
33.8798
 30
0.0
 10
45.4825
 20
33.8798
 30
0.0
 10
53.0681
 20
33.8798
 30
0.0
 10
53.0681
 20
33.8798
 30
0.0
 10
53.0681
 20
33.8798
 30
0.0
 10
53.0681
 20
33.8798
 30
0.0
 10
61.9649
 20
33.8798
 30
0.0
 10
61.9649
 20
33.8798
 30
0.0
 10
61.9649
 20
33.8798
 30
0.0
 10
61.9649
 20
33.8798
 30
0.0
 10
61.9649
 20
9.2735
 30
0.0
 10
61.9649
 20
9.2735
 30
0.0
 10
61.9649
 20
9.2735
 30
0.0
 10
61.9649
 20
9.2735
 30
0.0
 10
53.0681
 20
9.2735
 30
0.0
 10
53.0681
 20
9.2735
 30
0.0
 10
53.0681
 20
9.2735
 30
0.0
 10
53.0681
 20
9.2735
 30
0.0
 10
45.4825
 20
9.2735
 30
0.0
 10
45.4825
 20
9.2735
 30
0.0
 10
45.4825
 20
9.2735
 30
0.0
 10
45.4825
 20
9.2735
 30
0.0
 10
45.4825
 20
6.2735
 30
0.0
 10
45.4825
 20
6.2735
 30
0.0
 10
45.4825
 20
6.2735
 30
0.0
 10
45.4825
 20
6.2735
 30
0.0
 10
53.0681
 20
6.2735
 30
0.0
 10
53.0681
 20
6.2735
 30
0.0
 10
53.0681
 20
6.2735
 30
0.0
 10
53.0681
 20
6.2735
 30
0.0
 10
53.0681
 20
1.6447
 30
0.0
 10
53.0681
 20
1.6447
 30
0.0
 10
53.0681
 20
1.6447
 30
0.0
 10
53.0681
 20
1.6447
 30
0.0
 10
39.3098
 20
1.6447
 30
0.0
 10
39.3098
 20
1.6447
 30
0.0
 10
39.3098
 20
1.6447
 30
0.0
 10
39.3098
 20
1.6447
 30
0.0
 10
39.3098
 20
9.2735
 30
0.0
 10
39.3098
 20
9.2735
 30
0.0
 10
39.3098
 20
9.2735
 30
0.0
 10
39.3098
 20
9.2735
 30
0.0
 10
39.3098
 20
9.8142
 30
0.0
 10
39.3098
 20
9.8142
 30
0.0
 10
39.3098
 20
9.8142
 30
0.0
 10
39.3098
 20
9.8142
 30
0.0
 10
31.7281
 20
12.5343
 30
0.0
 10
31.7281
 20
12.5343
 30
0.0
 10
31.7281
 20
12.5343
 30
0.0
 10
31.7281
 20
12.5343
 30
0.0
 10
30.7065
 20
9.706300000000001
 30
0.0
 10
30.7065
 20
9.706300000000001
 30
0.0
 10
30.7065
 20
9.706300000000001
 30
0.0
 10
30.7065
 20
9.706300000000001
 30
0.0
 10
27.258
 20
10.9601
 30
0.0
 10
27.258
 20
10.9601
 30
0.0
 10
27.258
 20
10.9601
 30
0.0
 10
27.258
 20
10.9601
 30
0.0
 10
28.2742
 20
13.7735
 30
0.0
 10
28.2742
 20
13.7735
 30
0.0
 10
28.2742
 20
13.7735
 30
0.0
 10
28.2742
 20
13.7735
 30
0.0
 10
20.1842
 20
16.676
 30
0.0
 10
20.1842
 20
16.676
 30
0.0
 10
20.1842
 20
16.676
 30
0.0
 10
20.1842
 20
16.676
 30
0.0
 10
20.1842
 20
19.3296
 30
0.0
 10
20.1842
 20
19.3296
 30
0.0
 10
20.1842
 20
19.3296
 30
0.0
 10
18.9819
 20
20.0786
 30
0.0
 10
16.5774
 20
18.676
 30
0.0
 10
16.5774
 20
21.5767
 30
0.0
 10
16.5774
 20
21.5767
 30
0.0
 10
16.5774
 20
24.4774
 30
0.0
 10
18.9819
 20
22.7701
 30
0.0
 10
20.1842
 20
23.3668
 30
0.0
 10
20.1842
 20
23.3668
 30
0.0
 10
20.1842
 20
23.3668
 30
0.0
 10
20.1842
 20
26.0555
 30
0.0
 10
20.1842
 20
26.0555
 30
0.0
 10
20.1842
 20
26.0555
 30
0.0
 10
20.1842
 20
26.0555
 30
0.0
 10
28.2899
 20
29.0027
 30
0.0
 10
28.2899
 20
29.0027
 30
0.0
 10
28.2899
 20
29.0027
 30
0.0
 10
28.2899
 20
29.0027
 30
0.0
 10
27.258
 20
31.8197
 30
0.0
 10
27.258
 20
31.8197
 30
0.0
 10
27.258
 20
31.8197
 30
0.0
 10
27.258
 20
31.8197
 30
0.0
 10
30.7065
 20
33.0735
 30
0.0
 10
30.7065
 20
33.0735
 30
0.0
 10
30.7065
 20
33.0735
 30
0.0
 10
30.7065
 20
33.0735
 30
0.0
 10
31.7384
 20
30.2565
 30
0.0
 10
31.7384
 20
30.2565
 30
0.0
 10
31.7384
 20
30.2565
 30
0.0
 10
31.7384
 20
30.2565
 30
0.0
 10
39.3098
 20
33.0094
 30
0.0
 10
39.3098
 20
33.0094
 30
0.0
 10
39.3098
 20
33.0094
 30
0.0
 10
39.3098
 20
33.0094
 30
0.0
 10
39.3098
 20
33.8798
 30
0.0
 10
39.3098
 20
33.8798
 30
0.0
 10
39.3098
 20
33.8798
 30
0.0
 10
39.3098
 20
33.8798
 30
0.0
 10
39.3098
 20
41.5086
 30
0.0
 10
39.3098
 20
41.5086
 30
0.0
  0
SPLINE
  5
8A
330
1F
100
AcDbEntity
  8
Capa 1
 62
     1
370
     0
100
AcDbSpline
210
0.0
220
0.0
230
1.0
 70
    11
 71
     3
 72
   144
 73
   140
 74
     0
 42
0.0000000001
 43
0.0000000001
 40
0.0
 40
0.0
 40
0.0
 40
0.0
 40
0.0285714285714286
 40
0.0285714285714286
 40
0.0285714285714286
 40
0.0285714285714286
 40
0.0571428571428571
 40
0.0571428571428571
 40
0.0571428571428571
 40
0.0571428571428571
 40
0.0857142857142857
 40
0.0857142857142857
 40
0.0857142857142857
 40
0.0857142857142857
 40
0.1142857142857143
 40
0.1142857142857143
 40
0.1142857142857143
 40
0.1142857142857143
 40
0.1428571428571429
 40
0.1428571428571429
 40
0.1428571428571429
 40
0.1428571428571429
 40
0.1714285714285714
 40
0.1714285714285714
 40
0.1714285714285714
 40
0.1714285714285714
 40
0.2
 40
0.2
 40
0.2
 40
0.2
 40
0.2285714285714286
 40
0.2285714285714286
 40
0.2285714285714286
 40
0.2285714285714286
 40
0.2571428571428572
 40
0.2571428571428572
 40
0.2571428571428572
 40
0.2571428571428572
 40
0.2857142857142858
 40
0.2857142857142858
 40
0.2857142857142858
 40
0.2857142857142858
 40
0.3142857142857143
 40
0.3142857142857143
 40
0.3142857142857143
 40
0.3142857142857143
 40
0.3428571428571429
 40
0.3428571428571429
 40
0.3428571428571429
 40
0.3428571428571429
 40
0.3714285714285715
 40
0.3714285714285715
 40
0.3714285714285715
 40
0.3714285714285715
 40
0.4000000000000001
 40
0.4000000000000001
 40
0.4000000000000001
 40
0.4000000000000001
 40
0.4285714285714287
 40
0.4285714285714287
 40
0.4285714285714287
 40
0.4285714285714287
 40
0.4571428571428572
 40
0.4571428571428572
 40
0.4571428571428572
 40
0.4571428571428572
 40
0.4857142857142858
 40
0.4857142857142858
 40
0.4857142857142858
 40
0.4857142857142858
 40
0.5142857142857144
 40
0.5142857142857144
 40
0.5142857142857144
 40
0.5142857142857144
 40
0.5428571428571429
 40
0.5428571428571429
 40
0.5428571428571429
 40
0.5428571428571429
 40
0.5714285714285715
 40
0.5714285714285715
 40
0.5714285714285715
 40
0.5714285714285715
 40
0.6000000000000001
 40
0.6000000000000001
 40
0.6000000000000001
 40
0.6000000000000001
 40
0.6285714285714287
 40
0.6285714285714287
 40
0.6285714285714287
 40
0.6285714285714287
 40
0.6571428571428573
 40
0.6571428571428573
 40
0.6571428571428573
 40
0.6571428571428573
 40
0.6857142857142858
 40
0.6857142857142858
 40
0.6857142857142858
 40
0.6857142857142858
 40
0.7142857142857144
 40
0.7142857142857144
 40
0.7142857142857144
 40
0.7142857142857144
 40
0.742857142857143
 40
0.742857142857143
 40
0.742857142857143
 40
0.742857142857143
 40
0.7714285714285716
 40
0.7714285714285716
 40
0.7714285714285716
 40
0.7714285714285716
 40
0.8000000000000002
 40
0.8000000000000002
 40
0.8000000000000002
 40
0.8000000000000002
 40
0.8285714285714287
 40
0.8285714285714287
 40
0.8285714285714287
 40
0.8285714285714287
 40
0.8571428571428573
 40
0.8571428571428573
 40
0.8571428571428573
 40
0.8571428571428573
 40
0.8857142857142859
 40
0.8857142857142859
 40
0.8857142857142859
 40
0.8857142857142859
 40
0.9142857142857145
 40
0.9142857142857145
 40
0.9142857142857145
 40
0.9142857142857145
 40
0.9428571428571431
 40
0.9428571428571431
 40
0.9428571428571431
 40
0.9428571428571431
 40
0.9714285714285716
 40
0.9714285714285716
 40
0.9714285714285716
 40
0.9714285714285716
 40
1.0
 40
1.0
 40
1.0
 40
1.0
 10
77.3292
 20
39.5589
 30
0.0
 10
77.3292
 20
39.5589
 30
0.0
 10
77.3292
 20
34.9302
 30
0.0
 10
77.3292
 20
34.9302
 30
0.0
 10
77.3292
 20
34.9302
 30
0.0
 10
77.3292
 20
34.9302
 30
0.0
 10
77.3292
 20
34.9301
 30
0.0
 10
77.3292
 20
34.9301
 30
0.0
 10
77.3292
 20
34.9301
 30
0.0
 10
77.3292
 20
34.9301
 30
0.0
 10
83.8233
 20
34.9301
 30
0.0
 10
83.8233
 20
34.9301
 30
0.0
 10
83.8233
 20
34.9301
 30
0.0
 10
83.8233
 20
34.9301
 30
0.0
 10
83.8233
 20
31.9302
 30
0.0
 10
83.8233
 20
31.9302
 30
0.0
 10
83.8233
 20
31.9302
 30
0.0
 10
83.8233
 20
31.9302
 30
0.0
 10
77.3292
 20
31.9302
 30
0.0
 10
77.3292
 20
31.9302
 30
0.0
 10
77.3292
 20
31.9302
 30
0.0
 10
77.3292
 20
31.9302
 30
0.0
 10
68.70790000000001
 20
31.9302
 30
0.0
 10
68.70790000000001
 20
31.9302
 30
0.0
 10
68.70790000000001
 20
31.9302
 30
0.0
 10
68.70790000000001
 20
31.9302
 30
0.0
 10
68.70790000000001
 20
31.9301
 30
0.0
 10
68.70790000000001
 20
31.9301
 30
0.0
 10
68.70790000000001
 20
31.9301
 30
0.0
 10
68.70790000000001
 20
31.9301
 30
0.0
 10
68.70790000000001
 20
2.5615
 30
0.0
 10
68.70790000000001
 20
2.5615
 30
0.0
 10
68.70790000000001
 20
2.5615
 30
0.0
 10
68.70790000000001
 20
2.5615
 30
0.0
 10
68.70790000000001
 20
2.5614
 30
0.0
 10
68.70790000000001
 20
2.5614
 30
0.0
 10
68.70790000000001
 20
2.5614
 30
0.0
 10
68.70790000000001
 20
2.5614
 30
0.0
 10
77.3292
 20
2.5614
 30
0.0
 10
77.3292
 20
2.5614
 30
0.0
 10
77.3292
 20
2.5614
 30
0.0
 10
77.3292
 20
2.5614
 30
0.0
 10
83.8233
 20
2.5614
 30
0.0
 10
83.8233
 20
2.5614
 30
0.0
 10
83.8233
 20
2.5614
 30
0.0
 10
83.8233
 20
2.5614
 30
0.0
 10
83.8233
 20
-0.4385
 30
0.0
 10
83.8233
 20
-0.4385
 30
0.0
 10
83.8233
 20
-0.4385
 30
0.0
 10
83.8233
 20
-0.4385
 30
0.0
 10
77.3292
 20
-0.4385
 30
0.0
 10
77.3292
 20
-0.4385
 30
0.0
 10
77.3292
 20
-0.4385
 30
0.0
 10
77.3292
 20
-0.4385
 30
0.0
 10
77.3292
 20
-0.4386000000000001
 30
0.0
 10
77.3292
 20
-0.4386000000000001
 30
0.0
 10
77.3292
 20
-0.4386000000000001
 30
0.0
 10
77.3292
 20
-0.4386000000000001
 30
0.0
 10
77.3292
 20
-5.0673
 30
0.0
 10
77.3292
 20
-5.0673
 30
0.0
 10
77.3292
 20
-5.0673
 30
0.0
 10
77.3292
 20
-5.0673
 30
0.0
 10
77.3292
 20
-5.0674
 30
0.0
 10
77.3292
 20
-5.0674
 30
0.0
 10
77.3292
 20
-5.0674
 30
0.0
 10
77.3292
 20
-5.0674
 30
0.0
 10
88.3644
 20
-5.0674
 30
0.0
 10
88.3644
 20
-5.0674
 30
0.0
 10
88.3644
 20
-5.0674
 30
0.0
 10
88.3644
 20
-5.0674
 30
0.0
 10
88.3644
 20
-5.0673
 30
0.0
 10
88.3644
 20
-5.0673
 30
0.0
 10
88.3644
 20
-5.0673
 30
0.0
 10
88.3644
 20
-5.0673
 30
0.0
 10
88.3644
 20
-4.9482
 30
0.0
 10
88.3644
 20
-4.9482
 30
0.0
 10
88.3644
 20
-4.9482
 30
0.0
 10
88.3644
 20
-4.9482
 30
0.0
 10
88.3056
 20
3.9287
 30
0.0
 10
88.3056
 20
3.9287
 30
0.0
 10
88.3056
 20
3.9287
 30
0.0
 10
88.10080000000001
 20
6.896400000000001
 30
0.0
 10
90.9868
 20
7.6298
 30
0.0
 10
92.024
 20
6.442200000000001
 30
0.0
 10
92.024
 20
6.442200000000001
 30
0.0
 10
92.7042
 20
5.0572
 30
0.0
 10
92.7372
 20
2.8017
 30
0.0
 10
93.834
 20
2.6947
 30
0.0
 10
93.834
 20
2.6947
 30
0.0
 10
95.3699
 20
2.5449
 30
0.0
 10
95.5411
 20
2.7921
 30
0.0
 10
95.5599
 20
6.925400000000001
 30
0.0
 10
95.5599
 20
6.925400000000001
 30
0.0
 10
95.5599
 20
6.925400000000001
 30
0.0
 10
95.59740000000001
 20
15.1864
 30
0.0
 10
95.59740000000001
 20
15.1864
 30
0.0
 10
95.59740000000001
 20
15.1864
 30
0.0
 10
95.59740000000001
 20
15.1864
 30
0.0
 10
95.78960000000001
 20
15.2446
 30
0.0
 10
95.78960000000001
 20
15.2446
 30
0.0
 10
95.78960000000001
 20
15.2446
 30
0.0
 10
97.10770000000001
 20
15.31
 30
0.0
 10
99.1023
 20
14.6186
 30
0.0
 10
99.1023
 20
17.2458
 30
0.0
 10
99.1023
 20
17.2458
 30
0.0
 10
99.1023
 20
19.873
 30
0.0
 10
97.10770000000001
 20
19.1816
 30
0.0
 10
95.78960000000001
 20
19.247
 30
0.0
 10
95.78960000000001
 20
19.247
 30
0.0
 10
95.78960000000001
 20
19.247
 30
0.0
 10
95.59740000000001
 20
19.3052
 30
0.0
 10
95.59740000000001
 20
19.3052
 30
0.0
 10
95.59740000000001
 20
19.3052
 30
0.0
 10
95.59740000000001
 20
19.3052
 30
0.0
 10
95.5599
 20
27.5662
 30
0.0
 10
95.5599
 20
27.5662
 30
0.0
 10
95.5599
 20
27.5662
 30
0.0
 10
95.5411
 20
31.6995
 30
0.0
 10
95.3699
 20
31.9468
 30
0.0
 10
93.834
 20
31.7969
 30
0.0
 10
93.834
 20
31.7969
 30
0.0
 10
92.7371
 20
31.6899
 30
0.0
 10
92.8382
 20
30.0492
 30
0.0
 10
92.3785
 20
28.7524
 30
0.0
 10
92.3785
 20
28.7524
 30
0.0
 10
91.60590000000001
 20
27.1459
 30
0.0
 10
88.10080000000001
 20
27.5952
 30
0.0
 10
88.3056
 20
30.5629
 30
0.0
 10
88.3056
 20
30.5629
 30
0.0
 10
88.61110000000001
 20
31.0983
 30
0.0
 10
88.3644
 20
37.9769
 30
0.0
 10
88.3644
 20
39.5589
 30
0.0
 10
88.3644
 20
39.5589
 30
0.0
 10
88.3644
 20
39.5589
 30
0.0
 10
77.3292
 20
39.55900000000001
 30
0.0
 10
77.3292
 20
39.55900000000001
 30
0.0
 10
77.3292
 20
39.55900000000001
 30
0.0
 10
77.3292
 20
39.55900000000001
 30
0.0
 10
77.3292
 20
39.5589
 30
0.0
 10
77.3292
 20
39.5589
 30
0.0
  0
SPLINE
  5
8B
330
1F
100
AcDbEntity
  8
Capa 1
 62
     1
370
     0
100
AcDbSpline
210
0.0
220
0.0
230
1.0
 70
    11
 71
     3
 72
   132
 73
   128
 74
     0
 42
0.0000000001
 43
0.0000000001
 40
0.0
 40
0.0
 40
0.0
 40
0.0
 40
0.03125
 40
0.03125
 40
0.03125
 40
0.03125
 40
0.0625
 40
0.0625
 40
0.0625
 40
0.0625
 40
0.09375
 40
0.09375
 40
0.09375
 40
0.09375
 40
0.125
 40
0.125
 40
0.125
 40
0.125
 40
0.15625
 40
0.15625
 40
0.15625
 40
0.15625
 40
0.1875
 40
0.1875
 40
0.1875
 40
0.1875
 40
0.21875
 40
0.21875
 40
0.21875
 40
0.21875
 40
0.25
 40
0.25
 40
0.25
 40
0.25
 40
0.28125
 40
0.28125
 40
0.28125
 40
0.28125
 40
0.3125
 40
0.3125
 40
0.3125
 40
0.3125
 40
0.34375
 40
0.34375
 40
0.34375
 40
0.34375
 40
0.375
 40
0.375
 40
0.375
 40
0.375
 40
0.40625
 40
0.40625
 40
0.40625
 40
0.40625
 40
0.4375
 40
0.4375
 40
0.4375
 40
0.4375
 40
0.46875
 40
0.46875
 40
0.46875
 40
0.46875
 40
0.5
 40
0.5
 40
0.5
 40
0.5
 40
0.53125
 40
0.53125
 40
0.53125
 40
0.53125
 40
0.5625
 40
0.5625
 40
0.5625
 40
0.5625
 40
0.59375
 40
0.59375
 40
0.59375
 40
0.59375
 40
0.625
 40
0.625
 40
0.625
 40
0.625
 40
0.65625
 40
0.65625
 40
0.65625
 40
0.65625
 40
0.6875
 40
0.6875
 40
0.6875
 40
0.6875
 40
0.71875
 40
0.71875
 40
0.71875
 40
0.71875
 40
0.75
 40
0.75
 40
0.75
 40
0.75
 40
0.78125
 40
0.78125
 40
0.78125
 40
0.78125
 40
0.8125
 40
0.8125
 40
0.8125
 40
0.8125
 40
0.84375
 40
0.84375
 40
0.84375
 40
0.84375
 40
0.875
 40
0.875
 40
0.875
 40
0.875
 40
0.90625
 40
0.90625
 40
0.90625
 40
0.90625
 40
0.9375
 40
0.9375
 40
0.9375
 40
0.9375
 40
0.96875
 40
0.96875
 40
0.96875
 40
0.96875
 40
1.0
 40
1.0
 40
1.0
 40
1.0
 10
43.3217
 20
113.2191
 30
0.0
 10
43.3217
 20
113.2191
 30
0.0
 10
60.9735
 20
113.2191
 30
0.0
 10
60.9735
 20
113.2191
 30
0.0
 10
60.9735
 20
113.2191
 30
0.0
 10
62.0735
 20
113.2191
 30
0.0
 10
62.9735
 20
112.3191
 30
0.0
 10
62.9735
 20
111.2191
 30
0.0
 10
62.9735
 20
111.2191
 30
0.0
 10
62.9735
 20
111.2191
 30
0.0
 10
62.9735
 20
110.1109
 30
0.0
 10
62.9735
 20
110.1109
 30
0.0
 10
62.9735
 20
110.1109
 30
0.0
 10
62.9735
 20
110.1109
 30
0.0
 10
57.4065
 20
110.1109
 30
0.0
 10
57.4065
 20
110.1109
 30
0.0
 10
57.4065
 20
110.1109
 30
0.0
 10
57.4065
 20
110.1109
 30
0.0
 10
57.4065
 20
107.1109
 30
0.0
 10
57.4065
 20
107.1109
 30
0.0
 10
57.4065
 20
107.1109
 30
0.0
 10
57.4065
 20
107.1109
 30
0.0
 10
62.9735
 20
107.1109
 30
0.0
 10
62.9735
 20
107.1109
 30
0.0
 10
62.9735
 20
107.1109
 30
0.0
 10
62.9735
 20
107.1109
 30
0.0
 10
62.9735
 20
100.2545
 30
0.0
 10
62.9735
 20
100.2545
 30
0.0
 10
62.9735
 20
100.2545
 30
0.0
 10
62.9735
 20
100.2545
 30
0.0
 10
57.4065
 20
100.2545
 30
0.0
 10
57.4065
 20
100.2545
 30
0.0
 10
57.4065
 20
100.2545
 30
0.0
 10
57.4065
 20
100.2545
 30
0.0
 10
57.4065
 20
97.25450000000001
 30
0.0
 10
57.4065
 20
97.25450000000001
 30
0.0
 10
57.4065
 20
97.25450000000001
 30
0.0
 10
57.4065
 20
97.25450000000001
 30
0.0
 10
62.9735
 20
97.25450000000001
 30
0.0
 10
62.9735
 20
97.25450000000001
 30
0.0
 10
62.9735
 20
97.25450000000001
 30
0.0
 10
62.9735
 20
97.25450000000001
 30
0.0
 10
62.9735
 20
92.36110000000001
 30
0.0
 10
62.9735
 20
92.36110000000001
 30
0.0
 10
62.9735
 20
92.36110000000001
 30
0.0
 10
62.9735
 20
92.36110000000001
 30
0.0
 10
57.4065
 20
92.36110000000001
 30
0.0
 10
57.4065
 20
92.36110000000001
 30
0.0
 10
57.4065
 20
92.36110000000001
 30
0.0
 10
57.4065
 20
92.36110000000001
 30
0.0
 10
57.4065
 20
89.36110000000001
 30
0.0
 10
57.4065
 20
89.36110000000001
 30
0.0
 10
57.4065
 20
89.36110000000001
 30
0.0
 10
57.4065
 20
89.36110000000001
 30
0.0
 10
62.9735
 20
89.36110000000001
 30
0.0
 10
62.9735
 20
89.36110000000001
 30
0.0
 10
62.9735
 20
89.36110000000001
 30
0.0
 10
62.9735
 20
89.36110000000001
 30
0.0
 10
62.9735
 20
88.18740000000001
 30
0.0
 10
62.9735
 20
88.18740000000001
 30
0.0
 10
62.9735
 20
88.18740000000001
 30
0.0
 10
62.9735
 20
87.0874
 30
0.0
 10
62.0735
 20
86.18740000000001
 30
0.0
 10
60.9735
 20
86.18740000000001
 30
0.0
 10
60.9735
 20
86.18740000000001
 30
0.0
 10
60.9735
 20
86.18740000000001
 30
0.0
 10
43.3217
 20
86.18740000000001
 30
0.0
 10
43.3217
 20
86.18740000000001
 30
0.0
 10
43.3217
 20
86.18740000000001
 30
0.0
 10
42.22170000000001
 20
86.18740000000001
 30
0.0
 10
41.3217
 20
87.0874
 30
0.0
 10
41.3217
 20
88.18740000000001
 30
0.0
 10
41.3217
 20
88.18740000000001
 30
0.0
 10
41.3217
 20
88.18740000000001
 30
0.0
 10
41.3217
 20
89.36110000000001
 30
0.0
 10
41.3217
 20
89.36110000000001
 30
0.0
 10
41.3217
 20
89.36110000000001
 30
0.0
 10
41.3217
 20
89.36110000000001
 30
0.0
 10
46.8887
 20
89.36110000000001
 30
0.0
 10
46.8887
 20
89.36110000000001
 30
0.0
 10
46.8887
 20
89.36110000000001
 30
0.0
 10
46.8887
 20
89.36110000000001
 30
0.0
 10
46.8887
 20
92.36110000000001
 30
0.0
 10
46.8887
 20
92.36110000000001
 30
0.0
 10
46.8887
 20
92.36110000000001
 30
0.0
 10
46.8887
 20
92.36110000000001
 30
0.0
 10
41.3217
 20
92.36110000000001
 30
0.0
 10
41.3217
 20
92.36110000000001
 30
0.0
 10
41.3217
 20
92.36110000000001
 30
0.0
 10
41.3217
 20
92.36110000000001
 30
0.0
 10
41.3217
 20
97.25450000000001
 30
0.0
 10
41.3217
 20
97.25450000000001
 30
0.0
 10
41.3217
 20
97.25450000000001
 30
0.0
 10
41.3217
 20
97.25450000000001
 30
0.0
 10
46.8887
 20
97.25450000000001
 30
0.0
 10
46.8887
 20
97.25450000000001
 30
0.0
 10
46.8887
 20
97.25450000000001
 30
0.0
 10
46.8887
 20
97.25450000000001
 30
0.0
 10
46.8887
 20
100.2545
 30
0.0
 10
46.8887
 20
100.2545
 30
0.0
 10
46.8887
 20
100.2545
 30
0.0
 10
46.8887
 20
100.2545
 30
0.0
 10
41.3217
 20
100.2545
 30
0.0
 10
41.3217
 20
100.2545
 30
0.0
 10
41.3217
 20
100.2545
 30
0.0
 10
41.3217
 20
100.2545
 30
0.0
 10
41.3217
 20
107.1109
 30
0.0
 10
41.3217
 20
107.1109
 30
0.0
 10
41.3217
 20
107.1109
 30
0.0
 10
41.3217
 20
107.1109
 30
0.0
 10
46.8887
 20
107.1109
 30
0.0
 10
46.8887
 20
107.1109
 30
0.0
 10
46.8887
 20
107.1109
 30
0.0
 10
46.8887
 20
107.1109
 30
0.0
 10
46.8887
 20
110.1109
 30
0.0
 10
46.8887
 20
110.1109
 30
0.0
 10
46.8887
 20
110.1109
 30
0.0
 10
46.8887
 20
110.1109
 30
0.0
 10
41.3217
 20
110.1109
 30
0.0
 10
41.3217
 20
110.1109
 30
0.0
 10
41.3217
 20
110.1109
 30
0.0
 10
41.3217
 20
110.1109
 30
0.0
 10
41.3217
 20
111.2191
 30
0.0
 10
41.3217
 20
111.2191
 30
0.0
 10
41.3217
 20
111.2191
 30
0.0
 10
41.3217
 20
112.3191
 30
0.0
 10
42.22170000000001
 20
113.2191
 30
0.0
 10
43.3217
 20
113.2191
 30
0.0
  0
SPLINE
  5
8C
330
1F
100
AcDbEntity
  8
Capa 1
 62
     1
370
     0
100
AcDbSpline
210
0.0
220
0.0
230
1.0
 70
    24
 71
     3
 72
     8
 73
     4
 74
     0
 42
0.0000000001
 43
0.0000000001
 40
0.0
 40
0.0
 40
0.0
 40
0.0
 40
1.0
 40
1.0
 40
1.0
 40
1.0
 10
52.1476
 20
113.2191
 30
0.0
 10
52.1476
 20
113.2191
 30
0.0
 10
52.1476
 20
86.18740000000001
 30
0.0
 10
52.1476
 20
86.18740000000001
 30
0.0
  0
SPLINE
  5
8D
330
1F
100
AcDbEntity
  8
Capa 1
 62
     1
370
     0
100
AcDbSpline
210
0.0
220
0.0
230
1.0
 70
    11
 71
     3
 72
   132
 73
   128
 74
     0
 42
0.0000000001
 43
0.0000000001
 40
0.0
 40
0.0
 40
0.0
 40
0.0
 40
0.03125
 40
0.03125
 40
0.03125
 40
0.03125
 40
0.0625
 40
0.0625
 40
0.0625
 40
0.0625
 40
0.09375
 40
0.09375
 40
0.09375
 40
0.09375
 40
0.125
 40
0.125
 40
0.125
 40
0.125
 40
0.15625
 40
0.15625
 40
0.15625
 40
0.15625
 40
0.1875
 40
0.1875
 40
0.1875
 40
0.1875
 40
0.21875
 40
0.21875
 40
0.21875
 40
0.21875
 40
0.25
 40
0.25
 40
0.25
 40
0.25
 40
0.28125
 40
0.28125
 40
0.28125
 40
0.28125
 40
0.3125
 40
0.3125
 40
0.3125
 40
0.3125
 40
0.34375
 40
0.34375
 40
0.34375
 40
0.34375
 40
0.375
 40
0.375
 40
0.375
 40
0.375
 40
0.40625
 40
0.40625
 40
0.40625
 40
0.40625
 40
0.4375
 40
0.4375
 40
0.4375
 40
0.4375
 40
0.46875
 40
0.46875
 40
0.46875
 40
0.46875
 40
0.5
 40
0.5
 40
0.5
 40
0.5
 40
0.53125
 40
0.53125
 40
0.53125
 40
0.53125
 40
0.5625
 40
0.5625
 40
0.5625
 40
0.5625
 40
0.59375
 40
0.59375
 40
0.59375
 40
0.59375
 40
0.625
 40
0.625
 40
0.625
 40
0.625
 40
0.65625
 40
0.65625
 40
0.65625
 40
0.65625
 40
0.6875
 40
0.6875
 40
0.6875
 40
0.6875
 40
0.71875
 40
0.71875
 40
0.71875
 40
0.71875
 40
0.75
 40
0.75
 40
0.75
 40
0.75
 40
0.78125
 40
0.78125
 40
0.78125
 40
0.78125
 40
0.8125
 40
0.8125
 40
0.8125
 40
0.8125
 40
0.84375
 40
0.84375
 40
0.84375
 40
0.84375
 40
0.875
 40
0.875
 40
0.875
 40
0.875
 40
0.90625
 40
0.90625
 40
0.90625
 40
0.90625
 40
0.9375
 40
0.9375
 40
0.9375
 40
0.9375
 40
0.96875
 40
0.96875
 40
0.96875
 40
0.96875
 40
1.0
 40
1.0
 40
1.0
 40
1.0
 10
65.02170000000001
 20
113.2191
 30
0.0
 10
65.02170000000001
 20
113.2191
 30
0.0
 10
82.6735
 20
113.2191
 30
0.0
 10
82.6735
 20
113.2191
 30
0.0
 10
82.6735
 20
113.2191
 30
0.0
 10
83.7735
 20
113.2191
 30
0.0
 10
84.6735
 20
112.3191
 30
0.0
 10
84.6735
 20
111.2191
 30
0.0
 10
84.6735
 20
111.2191
 30
0.0
 10
84.6735
 20
111.2191
 30
0.0
 10
84.6735
 20
110.1109
 30
0.0
 10
84.6735
 20
110.1109
 30
0.0
 10
84.6735
 20
110.1109
 30
0.0
 10
84.6735
 20
110.1109
 30
0.0
 10
79.1065
 20
110.1109
 30
0.0
 10
79.1065
 20
110.1109
 30
0.0
 10
79.1065
 20
110.1109
 30
0.0
 10
79.1065
 20
110.1109
 30
0.0
 10
79.1065
 20
107.1109
 30
0.0
 10
79.1065
 20
107.1109
 30
0.0
 10
79.1065
 20
107.1109
 30
0.0
 10
79.1065
 20
107.1109
 30
0.0
 10
84.6735
 20
107.1109
 30
0.0
 10
84.6735
 20
107.1109
 30
0.0
 10
84.6735
 20
107.1109
 30
0.0
 10
84.6735
 20
107.1109
 30
0.0
 10
84.6735
 20
100.2545
 30
0.0
 10
84.6735
 20
100.2545
 30
0.0
 10
84.6735
 20
100.2545
 30
0.0
 10
84.6735
 20
100.2545
 30
0.0
 10
79.1065
 20
100.2545
 30
0.0
 10
79.1065
 20
100.2545
 30
0.0
 10
79.1065
 20
100.2545
 30
0.0
 10
79.1065
 20
100.2545
 30
0.0
 10
79.1065
 20
97.25450000000001
 30
0.0
 10
79.1065
 20
97.25450000000001
 30
0.0
 10
79.1065
 20
97.25450000000001
 30
0.0
 10
79.1065
 20
97.25450000000001
 30
0.0
 10
84.6735
 20
97.25450000000001
 30
0.0
 10
84.6735
 20
97.25450000000001
 30
0.0
 10
84.6735
 20
97.25450000000001
 30
0.0
 10
84.6735
 20
97.25450000000001
 30
0.0
 10
84.6735
 20
92.36110000000001
 30
0.0
 10
84.6735
 20
92.36110000000001
 30
0.0
 10
84.6735
 20
92.36110000000001
 30
0.0
 10
84.6735
 20
92.36110000000001
 30
0.0
 10
79.1065
 20
92.36110000000001
 30
0.0
 10
79.1065
 20
92.36110000000001
 30
0.0
 10
79.1065
 20
92.36110000000001
 30
0.0
 10
79.1065
 20
92.36110000000001
 30
0.0
 10
79.1065
 20
89.36110000000001
 30
0.0
 10
79.1065
 20
89.36110000000001
 30
0.0
 10
79.1065
 20
89.36110000000001
 30
0.0
 10
79.1065
 20
89.36110000000001
 30
0.0
 10
84.6735
 20
89.36110000000001
 30
0.0
 10
84.6735
 20
89.36110000000001
 30
0.0
 10
84.6735
 20
89.36110000000001
 30
0.0
 10
84.6735
 20
89.36110000000001
 30
0.0
 10
84.6735
 20
88.18740000000001
 30
0.0
 10
84.6735
 20
88.18740000000001
 30
0.0
 10
84.6735
 20
88.18740000000001
 30
0.0
 10
84.6735
 20
87.0874
 30
0.0
 10
83.7735
 20
86.18740000000001
 30
0.0
 10
82.6735
 20
86.18740000000001
 30
0.0
 10
82.6735
 20
86.18740000000001
 30
0.0
 10
82.6735
 20
86.18740000000001
 30
0.0
 10
65.02170000000001
 20
86.18740000000001
 30
0.0
 10
65.02170000000001
 20
86.18740000000001
 30
0.0
 10
65.02170000000001
 20
86.18740000000001
 30
0.0
 10
63.9217
 20
86.18740000000001
 30
0.0
 10
63.0217
 20
87.0874
 30
0.0
 10
63.0217
 20
88.18740000000001
 30
0.0
 10
63.0217
 20
88.18740000000001
 30
0.0
 10
63.0217
 20
88.18740000000001
 30
0.0
 10
63.0217
 20
89.36110000000001
 30
0.0
 10
63.0217
 20
89.36110000000001
 30
0.0
 10
63.0217
 20
89.36110000000001
 30
0.0
 10
63.0217
 20
89.36110000000001
 30
0.0
 10
68.5887
 20
89.36110000000001
 30
0.0
 10
68.5887
 20
89.36110000000001
 30
0.0
 10
68.5887
 20
89.36110000000001
 30
0.0
 10
68.5887
 20
89.36110000000001
 30
0.0
 10
68.5887
 20
92.36110000000001
 30
0.0
 10
68.5887
 20
92.36110000000001
 30
0.0
 10
68.5887
 20
92.36110000000001
 30
0.0
 10
68.5887
 20
92.36110000000001
 30
0.0
 10
63.0217
 20
92.36110000000001
 30
0.0
 10
63.0217
 20
92.36110000000001
 30
0.0
 10
63.0217
 20
92.36110000000001
 30
0.0
 10
63.0217
 20
92.36110000000001
 30
0.0
 10
63.0217
 20
97.25450000000001
 30
0.0
 10
63.0217
 20
97.25450000000001
 30
0.0
 10
63.0217
 20
97.25450000000001
 30
0.0
 10
63.0217
 20
97.25450000000001
 30
0.0
 10
68.5887
 20
97.25450000000001
 30
0.0
 10
68.5887
 20
97.25450000000001
 30
0.0
 10
68.5887
 20
97.25450000000001
 30
0.0
 10
68.5887
 20
97.25450000000001
 30
0.0
 10
68.5887
 20
100.2545
 30
0.0
 10
68.5887
 20
100.2545
 30
0.0
 10
68.5887
 20
100.2545
 30
0.0
 10
68.5887
 20
100.2545
 30
0.0
 10
63.0217
 20
100.2545
 30
0.0
 10
63.0217
 20
100.2545
 30
0.0
 10
63.0217
 20
100.2545
 30
0.0
 10
63.0217
 20
100.2545
 30
0.0
 10
63.0217
 20
107.1109
 30
0.0
 10
63.0217
 20
107.1109
 30
0.0
 10
63.0217
 20
107.1109
 30
0.0
 10
63.0217
 20
107.1109
 30
0.0
 10
68.5887
 20
107.1109
 30
0.0
 10
68.5887
 20
107.1109
 30
0.0
 10
68.5887
 20
107.1109
 30
0.0
 10
68.5887
 20
107.1109
 30
0.0
 10
68.5887
 20
110.1109
 30
0.0
 10
68.5887
 20
110.1109
 30
0.0
 10
68.5887
 20
110.1109
 30
0.0
 10
68.5887
 20
110.1109
 30
0.0
 10
63.0217
 20
110.1109
 30
0.0
 10
63.0217
 20
110.1109
 30
0.0
 10
63.0217
 20
110.1109
 30
0.0
 10
63.0217
 20
110.1109
 30
0.0
 10
63.0217
 20
111.2191
 30
0.0
 10
63.0217
 20
111.2191
 30
0.0
 10
63.0217
 20
111.2191
 30
0.0
 10
63.0217
 20
112.3191
 30
0.0
 10
63.9217
 20
113.2191
 30
0.0
 10
65.02170000000001
 20
113.2191
 30
0.0
  0
SPLINE
  5
8E
330
1F
100
AcDbEntity
  8
Capa 1
 62
     1
370
     0
100
AcDbSpline
210
0.0
220
0.0
230
1.0
 70
    24
 71
     3
 72
     8
 73
     4
 74
     0
 42
0.0000000001
 43
0.0000000001
 40
0.0
 40
0.0
 40
0.0
 40
0.0
 40
1.0
 40
1.0
 40
1.0
 40
1.0
 10
73.8476
 20
113.2191
 30
0.0
 10
73.8476
 20
113.2191
 30
0.0
 10
73.8476
 20
86.18740000000001
 30
0.0
 10
73.8476
 20
86.18740000000001
 30
0.0
  0
SPLINE
  5
8F
330
1F
100
AcDbEntity
  8
Capa 1
 62
     1
370
     0
100
AcDbSpline
210
0.0
220
0.0
230
1.0
 70
    11
 71
     3
 72
   132
 73
   128
 74
     0
 42
0.0000000001
 43
0.0000000001
 40
0.0
 40
0.0
 40
0.0
 40
0.0
 40
0.03125
 40
0.03125
 40
0.03125
 40
0.03125
 40
0.0625
 40
0.0625
 40
0.0625
 40
0.0625
 40
0.09375
 40
0.09375
 40
0.09375
 40
0.09375
 40
0.125
 40
0.125
 40
0.125
 40
0.125
 40
0.15625
 40
0.15625
 40
0.15625
 40
0.15625
 40
0.1875
 40
0.1875
 40
0.1875
 40
0.1875
 40
0.21875
 40
0.21875
 40
0.21875
 40
0.21875
 40
0.25
 40
0.25
 40
0.25
 40
0.25
 40
0.28125
 40
0.28125
 40
0.28125
 40
0.28125
 40
0.3125
 40
0.3125
 40
0.3125
 40
0.3125
 40
0.34375
 40
0.34375
 40
0.34375
 40
0.34375
 40
0.375
 40
0.375
 40
0.375
 40
0.375
 40
0.40625
 40
0.40625
 40
0.40625
 40
0.40625
 40
0.4375
 40
0.4375
 40
0.4375
 40
0.4375
 40
0.46875
 40
0.46875
 40
0.46875
 40
0.46875
 40
0.5
 40
0.5
 40
0.5
 40
0.5
 40
0.53125
 40
0.53125
 40
0.53125
 40
0.53125
 40
0.5625
 40
0.5625
 40
0.5625
 40
0.5625
 40
0.59375
 40
0.59375
 40
0.59375
 40
0.59375
 40
0.625
 40
0.625
 40
0.625
 40
0.625
 40
0.65625
 40
0.65625
 40
0.65625
 40
0.65625
 40
0.6875
 40
0.6875
 40
0.6875
 40
0.6875
 40
0.71875
 40
0.71875
 40
0.71875
 40
0.71875
 40
0.75
 40
0.75
 40
0.75
 40
0.75
 40
0.78125
 40
0.78125
 40
0.78125
 40
0.78125
 40
0.8125
 40
0.8125
 40
0.8125
 40
0.8125
 40
0.84375
 40
0.84375
 40
0.84375
 40
0.84375
 40
0.875
 40
0.875
 40
0.875
 40
0.875
 40
0.90625
 40
0.90625
 40
0.90625
 40
0.90625
 40
0.9375
 40
0.9375
 40
0.9375
 40
0.9375
 40
0.96875
 40
0.96875
 40
0.96875
 40
0.96875
 40
1.0
 40
1.0
 40
1.0
 40
1.0
 10
86.7217
 20
113.2191
 30
0.0
 10
86.7217
 20
113.2191
 30
0.0
 10
104.3735
 20
113.2191
 30
0.0
 10
104.3735
 20
113.2191
 30
0.0
 10
104.3735
 20
113.2191
 30
0.0
 10
105.4735
 20
113.2191
 30
0.0
 10
106.3735
 20
112.3191
 30
0.0
 10
106.3735
 20
111.2191
 30
0.0
 10
106.3735
 20
111.2191
 30
0.0
 10
106.3735
 20
111.2191
 30
0.0
 10
106.3735
 20
110.1109
 30
0.0
 10
106.3735
 20
110.1109
 30
0.0
 10
106.3735
 20
110.1109
 30
0.0
 10
106.3735
 20
110.1109
 30
0.0
 10
100.8065
 20
110.1109
 30
0.0
 10
100.8065
 20
110.1109
 30
0.0
 10
100.8065
 20
110.1109
 30
0.0
 10
100.8065
 20
110.1109
 30
0.0
 10
100.8065
 20
107.1109
 30
0.0
 10
100.8065
 20
107.1109
 30
0.0
 10
100.8065
 20
107.1109
 30
0.0
 10
100.8065
 20
107.1109
 30
0.0
 10
106.3735
 20
107.1109
 30
0.0
 10
106.3735
 20
107.1109
 30
0.0
 10
106.3735
 20
107.1109
 30
0.0
 10
106.3735
 20
107.1109
 30
0.0
 10
106.3735
 20
100.2545
 30
0.0
 10
106.3735
 20
100.2545
 30
0.0
 10
106.3735
 20
100.2545
 30
0.0
 10
106.3735
 20
100.2545
 30
0.0
 10
100.8065
 20
100.2545
 30
0.0
 10
100.8065
 20
100.2545
 30
0.0
 10
100.8065
 20
100.2545
 30
0.0
 10
100.8065
 20
100.2545
 30
0.0
 10
100.8065
 20
97.25450000000001
 30
0.0
 10
100.8065
 20
97.25450000000001
 30
0.0
 10
100.8065
 20
97.25450000000001
 30
0.0
 10
100.8065
 20
97.25450000000001
 30
0.0
 10
106.3735
 20
97.25450000000001
 30
0.0
 10
106.3735
 20
97.25450000000001
 30
0.0
 10
106.3735
 20
97.25450000000001
 30
0.0
 10
106.3735
 20
97.25450000000001
 30
0.0
 10
106.3735
 20
92.36110000000001
 30
0.0
 10
106.3735
 20
92.36110000000001
 30
0.0
 10
106.3735
 20
92.36110000000001
 30
0.0
 10
106.3735
 20
92.36110000000001
 30
0.0
 10
100.8065
 20
92.36110000000001
 30
0.0
 10
100.8065
 20
92.36110000000001
 30
0.0
 10
100.8065
 20
92.36110000000001
 30
0.0
 10
100.8065
 20
92.36110000000001
 30
0.0
 10
100.8065
 20
89.36110000000001
 30
0.0
 10
100.8065
 20
89.36110000000001
 30
0.0
 10
100.8065
 20
89.36110000000001
 30
0.0
 10
100.8065
 20
89.36110000000001
 30
0.0
 10
106.3735
 20
89.36110000000001
 30
0.0
 10
106.3735
 20
89.36110000000001
 30
0.0
 10
106.3735
 20
89.36110000000001
 30
0.0
 10
106.3735
 20
89.36110000000001
 30
0.0
 10
106.3735
 20
88.18740000000001
 30
0.0
 10
106.3735
 20
88.18740000000001
 30
0.0
 10
106.3735
 20
88.18740000000001
 30
0.0
 10
106.3735
 20
87.0874
 30
0.0
 10
105.4735
 20
86.18740000000001
 30
0.0
 10
104.3735
 20
86.18740000000001
 30
0.0
 10
104.3735
 20
86.18740000000001
 30
0.0
 10
104.3735
 20
86.18740000000001
 30
0.0
 10
86.7217
 20
86.18740000000001
 30
0.0
 10
86.7217
 20
86.18740000000001
 30
0.0
 10
86.7217
 20
86.18740000000001
 30
0.0
 10
85.6217
 20
86.18740000000001
 30
0.0
 10
84.7217
 20
87.0874
 30
0.0
 10
84.7217
 20
88.18740000000001
 30
0.0
 10
84.7217
 20
88.18740000000001
 30
0.0
 10
84.7217
 20
88.18740000000001
 30
0.0
 10
84.7217
 20
89.36110000000001
 30
0.0
 10
84.7217
 20
89.36110000000001
 30
0.0
 10
84.7217
 20
89.36110000000001
 30
0.0
 10
84.7217
 20
89.36110000000001
 30
0.0
 10
90.28870000000001
 20
89.36110000000001
 30
0.0
 10
90.28870000000001
 20
89.36110000000001
 30
0.0
 10
90.28870000000001
 20
89.36110000000001
 30
0.0
 10
90.28870000000001
 20
89.36110000000001
 30
0.0
 10
90.28870000000001
 20
92.36110000000001
 30
0.0
 10
90.28870000000001
 20
92.36110000000001
 30
0.0
 10
90.28870000000001
 20
92.36110000000001
 30
0.0
 10
90.28870000000001
 20
92.36110000000001
 30
0.0
 10
84.7217
 20
92.36110000000001
 30
0.0
 10
84.7217
 20
92.36110000000001
 30
0.0
 10
84.7217
 20
92.36110000000001
 30
0.0
 10
84.7217
 20
92.36110000000001
 30
0.0
 10
84.7217
 20
97.25450000000001
 30
0.0
 10
84.7217
 20
97.25450000000001
 30
0.0
 10
84.7217
 20
97.25450000000001
 30
0.0
 10
84.7217
 20
97.25450000000001
 30
0.0
 10
90.28870000000001
 20
97.25450000000001
 30
0.0
 10
90.28870000000001
 20
97.25450000000001
 30
0.0
 10
90.28870000000001
 20
97.25450000000001
 30
0.0
 10
90.28870000000001
 20
97.25450000000001
 30
0.0
 10
90.28870000000001
 20
100.2545
 30
0.0
 10
90.28870000000001
 20
100.2545
 30
0.0
 10
90.28870000000001
 20
100.2545
 30
0.0
 10
90.28870000000001
 20
100.2545
 30
0.0
 10
84.7217
 20
100.2545
 30
0.0
 10
84.7217
 20
100.2545
 30
0.0
 10
84.7217
 20
100.2545
 30
0.0
 10
84.7217
 20
100.2545
 30
0.0
 10
84.7217
 20
107.1109
 30
0.0
 10
84.7217
 20
107.1109
 30
0.0
 10
84.7217
 20
107.1109
 30
0.0
 10
84.7217
 20
107.1109
 30
0.0
 10
90.28870000000001
 20
107.1109
 30
0.0
 10
90.28870000000001
 20
107.1109
 30
0.0
 10
90.28870000000001
 20
107.1109
 30
0.0
 10
90.28870000000001
 20
107.1109
 30
0.0
 10
90.28870000000001
 20
110.1109
 30
0.0
 10
90.28870000000001
 20
110.1109
 30
0.0
 10
90.28870000000001
 20
110.1109
 30
0.0
 10
90.28870000000001
 20
110.1109
 30
0.0
 10
84.7217
 20
110.1109
 30
0.0
 10
84.7217
 20
110.1109
 30
0.0
 10
84.7217
 20
110.1109
 30
0.0
 10
84.7217
 20
110.1109
 30
0.0
 10
84.7217
 20
111.2191
 30
0.0
 10
84.7217
 20
111.2191
 30
0.0
 10
84.7217
 20
111.2191
 30
0.0
 10
84.7217
 20
112.3191
 30
0.0
 10
85.6217
 20
113.2191
 30
0.0
 10
86.7217
 20
113.2191
 30
0.0
  0
SPLINE
  5
90
330
1F
100
AcDbEntity
  8
Capa 1
 62
     1
370
     0
100
AcDbSpline
210
0.0
220
0.0
230
1.0
 70
    24
 71
     3
 72
     8
 73
     4
 74
     0
 42
0.0000000001
 43
0.0000000001
 40
0.0
 40
0.0
 40
0.0
 40
0.0
 40
1.0
 40
1.0
 40
1.0
 40
1.0
 10
95.5476
 20
113.2191
 30
0.0
 10
95.5476
 20
113.2191
 30
0.0
 10
95.5476
 20
86.18740000000001
 30
0.0
 10
95.5476
 20
86.18740000000001
 30
0.0
  0
SPLINE
  5
91
330
1F
100
AcDbEntity
  8
Capa 1
 62
     1
370
     0
100
AcDbSpline
210
0.0
220
0.0
230
1.0
 70
    11
 71
     3
 72
   132
 73
   128
 74
     0
 42
0.0000000001
 43
0.0000000001
 40
0.0
 40
0.0
 40
0.0
 40
0.0
 40
0.03125
 40
0.03125
 40
0.03125
 40
0.03125
 40
0.0625
 40
0.0625
 40
0.0625
 40
0.0625
 40
0.09375
 40
0.09375
 40
0.09375
 40
0.09375
 40
0.125
 40
0.125
 40
0.125
 40
0.125
 40
0.15625
 40
0.15625
 40
0.15625
 40
0.15625
 40
0.1875
 40
0.1875
 40
0.1875
 40
0.1875
 40
0.21875
 40
0.21875
 40
0.21875
 40
0.21875
 40
0.25
 40
0.25
 40
0.25
 40
0.25
 40
0.28125
 40
0.28125
 40
0.28125
 40
0.28125
 40
0.3125
 40
0.3125
 40
0.3125
 40
0.3125
 40
0.34375
 40
0.34375
 40
0.34375
 40
0.34375
 40
0.375
 40
0.375
 40
0.375
 40
0.375
 40
0.40625
 40
0.40625
 40
0.40625
 40
0.40625
 40
0.4375
 40
0.4375
 40
0.4375
 40
0.4375
 40
0.46875
 40
0.46875
 40
0.46875
 40
0.46875
 40
0.5
 40
0.5
 40
0.5
 40
0.5
 40
0.53125
 40
0.53125
 40
0.53125
 40
0.53125
 40
0.5625
 40
0.5625
 40
0.5625
 40
0.5625
 40
0.59375
 40
0.59375
 40
0.59375
 40
0.59375
 40
0.625
 40
0.625
 40
0.625
 40
0.625
 40
0.65625
 40
0.65625
 40
0.65625
 40
0.65625
 40
0.6875
 40
0.6875
 40
0.6875
 40
0.6875
 40
0.71875
 40
0.71875
 40
0.71875
 40
0.71875
 40
0.75
 40
0.75
 40
0.75
 40
0.75
 40
0.78125
 40
0.78125
 40
0.78125
 40
0.78125
 40
0.8125
 40
0.8125
 40
0.8125
 40
0.8125
 40
0.84375
 40
0.84375
 40
0.84375
 40
0.84375
 40
0.875
 40
0.875
 40
0.875
 40
0.875
 40
0.90625
 40
0.90625
 40
0.90625
 40
0.90625
 40
0.9375
 40
0.9375
 40
0.9375
 40
0.9375
 40
0.96875
 40
0.96875
 40
0.96875
 40
0.96875
 40
1.0
 40
1.0
 40
1.0
 40
1.0
 10
108.4217
 20
113.2191
 30
0.0
 10
108.4217
 20
113.2191
 30
0.0
 10
126.0735
 20
113.2191
 30
0.0
 10
126.0735
 20
113.2191
 30
0.0
 10
126.0735
 20
113.2191
 30
0.0
 10
127.1735
 20
113.2191
 30
0.0
 10
128.0735
 20
112.3191
 30
0.0
 10
128.0735
 20
111.2191
 30
0.0
 10
128.0735
 20
111.2191
 30
0.0
 10
128.0735
 20
111.2191
 30
0.0
 10
128.0735
 20
110.1109
 30
0.0
 10
128.0735
 20
110.1109
 30
0.0
 10
128.0735
 20
110.1109
 30
0.0
 10
128.0735
 20
110.1109
 30
0.0
 10
122.5065
 20
110.1109
 30
0.0
 10
122.5065
 20
110.1109
 30
0.0
 10
122.5065
 20
110.1109
 30
0.0
 10
122.5065
 20
110.1109
 30
0.0
 10
122.5065
 20
107.1109
 30
0.0
 10
122.5065
 20
107.1109
 30
0.0
 10
122.5065
 20
107.1109
 30
0.0
 10
122.5065
 20
107.1109
 30
0.0
 10
128.0735
 20
107.1109
 30
0.0
 10
128.0735
 20
107.1109
 30
0.0
 10
128.0735
 20
107.1109
 30
0.0
 10
128.0735
 20
107.1109
 30
0.0
 10
128.0735
 20
100.2545
 30
0.0
 10
128.0735
 20
100.2545
 30
0.0
 10
128.0735
 20
100.2545
 30
0.0
 10
128.0735
 20
100.2545
 30
0.0
 10
122.5065
 20
100.2545
 30
0.0
 10
122.5065
 20
100.2545
 30
0.0
 10
122.5065
 20
100.2545
 30
0.0
 10
122.5065
 20
100.2545
 30
0.0
 10
122.5065
 20
97.25450000000001
 30
0.0
 10
122.5065
 20
97.25450000000001
 30
0.0
 10
122.5065
 20
97.25450000000001
 30
0.0
 10
122.5065
 20
97.25450000000001
 30
0.0
 10
128.0735
 20
97.25450000000001
 30
0.0
 10
128.0735
 20
97.25450000000001
 30
0.0
 10
128.0735
 20
97.25450000000001
 30
0.0
 10
128.0735
 20
97.25450000000001
 30
0.0
 10
128.0735
 20
92.36110000000001
 30
0.0
 10
128.0735
 20
92.36110000000001
 30
0.0
 10
128.0735
 20
92.36110000000001
 30
0.0
 10
128.0735
 20
92.36110000000001
 30
0.0
 10
122.5065
 20
92.36110000000001
 30
0.0
 10
122.5065
 20
92.36110000000001
 30
0.0
 10
122.5065
 20
92.36110000000001
 30
0.0
 10
122.5065
 20
92.36110000000001
 30
0.0
 10
122.5065
 20
89.36110000000001
 30
0.0
 10
122.5065
 20
89.36110000000001
 30
0.0
 10
122.5065
 20
89.36110000000001
 30
0.0
 10
122.5065
 20
89.36110000000001
 30
0.0
 10
128.0735
 20
89.36110000000001
 30
0.0
 10
128.0735
 20
89.36110000000001
 30
0.0
 10
128.0735
 20
89.36110000000001
 30
0.0
 10
128.0735
 20
89.36110000000001
 30
0.0
 10
128.0735
 20
88.18740000000001
 30
0.0
 10
128.0735
 20
88.18740000000001
 30
0.0
 10
128.0735
 20
88.18740000000001
 30
0.0
 10
128.0735
 20
87.0874
 30
0.0
 10
127.1735
 20
86.18740000000001
 30
0.0
 10
126.0735
 20
86.18740000000001
 30
0.0
 10
126.0735
 20
86.18740000000001
 30
0.0
 10
126.0735
 20
86.18740000000001
 30
0.0
 10
108.4217
 20
86.18740000000001
 30
0.0
 10
108.4217
 20
86.18740000000001
 30
0.0
 10
108.4217
 20
86.18740000000001
 30
0.0
 10
107.3217
 20
86.18740000000001
 30
0.0
 10
106.4217
 20
87.0874
 30
0.0
 10
106.4217
 20
88.18740000000001
 30
0.0
 10
106.4217
 20
88.18740000000001
 30
0.0
 10
106.4217
 20
88.18740000000001
 30
0.0
 10
106.4217
 20
89.36110000000001
 30
0.0
 10
106.4217
 20
89.36110000000001
 30
0.0
 10
106.4217
 20
89.36110000000001
 30
0.0
 10
106.4217
 20
89.36110000000001
 30
0.0
 10
111.9887
 20
89.36110000000001
 30
0.0
 10
111.9887
 20
89.36110000000001
 30
0.0
 10
111.9887
 20
89.36110000000001
 30
0.0
 10
111.9887
 20
89.36110000000001
 30
0.0
 10
111.9887
 20
92.36110000000001
 30
0.0
 10
111.9887
 20
92.36110000000001
 30
0.0
 10
111.9887
 20
92.36110000000001
 30
0.0
 10
111.9887
 20
92.36110000000001
 30
0.0
 10
106.4217
 20
92.36110000000001
 30
0.0
 10
106.4217
 20
92.36110000000001
 30
0.0
 10
106.4217
 20
92.36110000000001
 30
0.0
 10
106.4217
 20
92.36110000000001
 30
0.0
 10
106.4217
 20
97.25450000000001
 30
0.0
 10
106.4217
 20
97.25450000000001
 30
0.0
 10
106.4217
 20
97.25450000000001
 30
0.0
 10
106.4217
 20
97.25450000000001
 30
0.0
 10
111.9887
 20
97.25450000000001
 30
0.0
 10
111.9887
 20
97.25450000000001
 30
0.0
 10
111.9887
 20
97.25450000000001
 30
0.0
 10
111.9887
 20
97.25450000000001
 30
0.0
 10
111.9887
 20
100.2545
 30
0.0
 10
111.9887
 20
100.2545
 30
0.0
 10
111.9887
 20
100.2545
 30
0.0
 10
111.9887
 20
100.2545
 30
0.0
 10
106.4217
 20
100.2545
 30
0.0
 10
106.4217
 20
100.2545
 30
0.0
 10
106.4217
 20
100.2545
 30
0.0
 10
106.4217
 20
100.2545
 30
0.0
 10
106.4217
 20
107.1109
 30
0.0
 10
106.4217
 20
107.1109
 30
0.0
 10
106.4217
 20
107.1109
 30
0.0
 10
106.4217
 20
107.1109
 30
0.0
 10
111.9887
 20
107.1109
 30
0.0
 10
111.9887
 20
107.1109
 30
0.0
 10
111.9887
 20
107.1109
 30
0.0
 10
111.9887
 20
107.1109
 30
0.0
 10
111.9887
 20
110.1109
 30
0.0
 10
111.9887
 20
110.1109
 30
0.0
 10
111.9887
 20
110.1109
 30
0.0
 10
111.9887
 20
110.1109
 30
0.0
 10
106.4217
 20
110.1109
 30
0.0
 10
106.4217
 20
110.1109
 30
0.0
 10
106.4217
 20
110.1109
 30
0.0
 10
106.4217
 20
110.1109
 30
0.0
 10
106.4217
 20
111.2191
 30
0.0
 10
106.4217
 20
111.2191
 30
0.0
 10
106.4217
 20
111.2191
 30
0.0
 10
106.4217
 20
112.3191
 30
0.0
 10
107.3217
 20
113.2191
 30
0.0
 10
108.4217
 20
113.2191
 30
0.0
  0
SPLINE
  5
92
330
1F
100
AcDbEntity
  8
Capa 1
 62
     1
370
     0
100
AcDbSpline
210
0.0
220
0.0
230
1.0
 70
    24
 71
     3
 72
     8
 73
     4
 74
     0
 42
0.0000000001
 43
0.0000000001
 40
0.0
 40
0.0
 40
0.0
 40
0.0
 40
1.0
 40
1.0
 40
1.0
 40
1.0
 10
117.2476
 20
113.2191
 30
0.0
 10
117.2476
 20
113.2191
 30
0.0
 10
117.2476
 20
86.18740000000001
 30
0.0
 10
117.2476
 20
86.18740000000001
 30
0.0
  0
SPLINE
  5
93
330
1F
100
AcDbEntity
  8
Capa 1
 62
     1
370
     0
100
AcDbSpline
210
0.0
220
0.0
230
1.0
 70
    11
 71
     3
 72
   132
 73
   128
 74
     0
 42
0.0000000001
 43
0.0000000001
 40
0.0
 40
0.0
 40
0.0
 40
0.0
 40
0.03125
 40
0.03125
 40
0.03125
 40
0.03125
 40
0.0625
 40
0.0625
 40
0.0625
 40
0.0625
 40
0.09375
 40
0.09375
 40
0.09375
 40
0.09375
 40
0.125
 40
0.125
 40
0.125
 40
0.125
 40
0.15625
 40
0.15625
 40
0.15625
 40
0.15625
 40
0.1875
 40
0.1875
 40
0.1875
 40
0.1875
 40
0.21875
 40
0.21875
 40
0.21875
 40
0.21875
 40
0.25
 40
0.25
 40
0.25
 40
0.25
 40
0.28125
 40
0.28125
 40
0.28125
 40
0.28125
 40
0.3125
 40
0.3125
 40
0.3125
 40
0.3125
 40
0.34375
 40
0.34375
 40
0.34375
 40
0.34375
 40
0.375
 40
0.375
 40
0.375
 40
0.375
 40
0.40625
 40
0.40625
 40
0.40625
 40
0.40625
 40
0.4375
 40
0.4375
 40
0.4375
 40
0.4375
 40
0.46875
 40
0.46875
 40
0.46875
 40
0.46875
 40
0.5
 40
0.5
 40
0.5
 40
0.5
 40
0.53125
 40
0.53125
 40
0.53125
 40
0.53125
 40
0.5625
 40
0.5625
 40
0.5625
 40
0.5625
 40
0.59375
 40
0.59375
 40
0.59375
 40
0.59375
 40
0.625
 40
0.625
 40
0.625
 40
0.625
 40
0.65625
 40
0.65625
 40
0.65625
 40
0.65625
 40
0.6875
 40
0.6875
 40
0.6875
 40
0.6875
 40
0.71875
 40
0.71875
 40
0.71875
 40
0.71875
 40
0.75
 40
0.75
 40
0.75
 40
0.75
 40
0.78125
 40
0.78125
 40
0.78125
 40
0.78125
 40
0.8125
 40
0.8125
 40
0.8125
 40
0.8125
 40
0.84375
 40
0.84375
 40
0.84375
 40
0.84375
 40
0.875
 40
0.875
 40
0.875
 40
0.875
 40
0.90625
 40
0.90625
 40
0.90625
 40
0.90625
 40
0.9375
 40
0.9375
 40
0.9375
 40
0.9375
 40
0.96875
 40
0.96875
 40
0.96875
 40
0.96875
 40
1.0
 40
1.0
 40
1.0
 40
1.0
 10
-26.158
 20
-73.77550000000001
 30
0.0
 10
-26.158
 20
-73.77550000000001
 30
0.0
 10
-8.5062
 20
-73.77550000000001
 30
0.0
 10
-8.5062
 20
-73.77550000000001
 30
0.0
 10
-8.5062
 20
-73.77550000000001
 30
0.0
 10
-7.4062
 20
-73.77550000000001
 30
0.0
 10
-6.506200000000001
 20
-74.6755
 30
0.0
 10
-6.506200000000001
 20
-75.77550000000001
 30
0.0
 10
-6.506200000000001
 20
-75.77550000000001
 30
0.0
 10
-6.506200000000001
 20
-75.77550000000001
 30
0.0
 10
-6.506200000000001
 20
-76.88370000000001
 30
0.0
 10
-6.506200000000001
 20
-76.88370000000001
 30
0.0
 10
-6.506200000000001
 20
-76.88370000000001
 30
0.0
 10
-6.506200000000001
 20
-76.88370000000001
 30
0.0
 10
-12.0732
 20
-76.88370000000001
 30
0.0
 10
-12.0732
 20
-76.88370000000001
 30
0.0
 10
-12.0732
 20
-76.88370000000001
 30
0.0
 10
-12.0732
 20
-76.88370000000001
 30
0.0
 10
-12.0732
 20
-79.88370000000001
 30
0.0
 10
-12.0732
 20
-79.88370000000001
 30
0.0
 10
-12.0732
 20
-79.88370000000001
 30
0.0
 10
-12.0732
 20
-79.88370000000001
 30
0.0
 10
-6.506200000000001
 20
-79.88370000000001
 30
0.0
 10
-6.506200000000001
 20
-79.88370000000001
 30
0.0
 10
-6.506200000000001
 20
-79.88370000000001
 30
0.0
 10
-6.506200000000001
 20
-79.88370000000001
 30
0.0
 10
-6.506200000000001
 20
-86.7401
 30
0.0
 10
-6.506200000000001
 20
-86.7401
 30
0.0
 10
-6.506200000000001
 20
-86.7401
 30
0.0
 10
-6.506200000000001
 20
-86.7401
 30
0.0
 10
-12.0732
 20
-86.7401
 30
0.0
 10
-12.0732
 20
-86.7401
 30
0.0
 10
-12.0732
 20
-86.7401
 30
0.0
 10
-12.0732
 20
-86.7401
 30
0.0
 10
-12.0732
 20
-89.7401
 30
0.0
 10
-12.0732
 20
-89.7401
 30
0.0
 10
-12.0732
 20
-89.7401
 30
0.0
 10
-12.0732
 20
-89.7401
 30
0.0
 10
-6.506200000000001
 20
-89.7401
 30
0.0
 10
-6.506200000000001
 20
-89.7401
 30
0.0
 10
-6.506200000000001
 20
-89.7401
 30
0.0
 10
-6.506200000000001
 20
-89.7401
 30
0.0
 10
-6.506200000000001
 20
-94.6335
 30
0.0
 10
-6.506200000000001
 20
-94.6335
 30
0.0
 10
-6.506200000000001
 20
-94.6335
 30
0.0
 10
-6.506200000000001
 20
-94.6335
 30
0.0
 10
-12.0732
 20
-94.6335
 30
0.0
 10
-12.0732
 20
-94.6335
 30
0.0
 10
-12.0732
 20
-94.6335
 30
0.0
 10
-12.0732
 20
-94.6335
 30
0.0
 10
-12.0732
 20
-97.6335
 30
0.0
 10
-12.0732
 20
-97.6335
 30
0.0
 10
-12.0732
 20
-97.6335
 30
0.0
 10
-12.0732
 20
-97.6335
 30
0.0
 10
-6.506200000000001
 20
-97.6335
 30
0.0
 10
-6.506200000000001
 20
-97.6335
 30
0.0
 10
-6.506200000000001
 20
-97.6335
 30
0.0
 10
-6.506200000000001
 20
-97.6335
 30
0.0
 10
-6.506200000000001
 20
-98.80720000000001
 30
0.0
 10
-6.506200000000001
 20
-98.80720000000001
 30
0.0
 10
-6.506200000000001
 20
-98.80720000000001
 30
0.0
 10
-6.506200000000001
 20
-99.9072
 30
0.0
 10
-7.4062
 20
-100.8072
 30
0.0
 10
-8.5062
 20
-100.8072
 30
0.0
 10
-8.5062
 20
-100.8072
 30
0.0
 10
-8.5062
 20
-100.8072
 30
0.0
 10
-26.158
 20
-100.8072
 30
0.0
 10
-26.158
 20
-100.8072
 30
0.0
 10
-26.158
 20
-100.8072
 30
0.0
 10
-27.258
 20
-100.8072
 30
0.0
 10
-28.158
 20
-99.9072
 30
0.0
 10
-28.158
 20
-98.80720000000001
 30
0.0
 10
-28.158
 20
-98.80720000000001
 30
0.0
 10
-28.158
 20
-98.80720000000001
 30
0.0
 10
-28.158
 20
-97.6335
 30
0.0
 10
-28.158
 20
-97.6335
 30
0.0
 10
-28.158
 20
-97.6335
 30
0.0
 10
-28.158
 20
-97.6335
 30
0.0
 10
-22.591
 20
-97.6335
 30
0.0
 10
-22.591
 20
-97.6335
 30
0.0
 10
-22.591
 20
-97.6335
 30
0.0
 10
-22.591
 20
-97.6335
 30
0.0
 10
-22.591
 20
-94.6335
 30
0.0
 10
-22.591
 20
-94.6335
 30
0.0
 10
-22.591
 20
-94.6335
 30
0.0
 10
-22.591
 20
-94.6335
 30
0.0
 10
-28.158
 20
-94.6335
 30
0.0
 10
-28.158
 20
-94.6335
 30
0.0
 10
-28.158
 20
-94.6335
 30
0.0
 10
-28.158
 20
-94.6335
 30
0.0
 10
-28.158
 20
-89.7401
 30
0.0
 10
-28.158
 20
-89.7401
 30
0.0
 10
-28.158
 20
-89.7401
 30
0.0
 10
-28.158
 20
-89.7401
 30
0.0
 10
-22.591
 20
-89.7401
 30
0.0
 10
-22.591
 20
-89.7401
 30
0.0
 10
-22.591
 20
-89.7401
 30
0.0
 10
-22.591
 20
-89.7401
 30
0.0
 10
-22.591
 20
-86.7401
 30
0.0
 10
-22.591
 20
-86.7401
 30
0.0
 10
-22.591
 20
-86.7401
 30
0.0
 10
-22.591
 20
-86.7401
 30
0.0
 10
-28.158
 20
-86.7401
 30
0.0
 10
-28.158
 20
-86.7401
 30
0.0
 10
-28.158
 20
-86.7401
 30
0.0
 10
-28.158
 20
-86.7401
 30
0.0
 10
-28.158
 20
-79.88370000000001
 30
0.0
 10
-28.158
 20
-79.88370000000001
 30
0.0
 10
-28.158
 20
-79.88370000000001
 30
0.0
 10
-28.158
 20
-79.88370000000001
 30
0.0
 10
-22.591
 20
-79.88370000000001
 30
0.0
 10
-22.591
 20
-79.88370000000001
 30
0.0
 10
-22.591
 20
-79.88370000000001
 30
0.0
 10
-22.591
 20
-79.88370000000001
 30
0.0
 10
-22.591
 20
-76.88370000000001
 30
0.0
 10
-22.591
 20
-76.88370000000001
 30
0.0
 10
-22.591
 20
-76.88370000000001
 30
0.0
 10
-22.591
 20
-76.88370000000001
 30
0.0
 10
-28.158
 20
-76.88370000000001
 30
0.0
 10
-28.158
 20
-76.88370000000001
 30
0.0
 10
-28.158
 20
-76.88370000000001
 30
0.0
 10
-28.158
 20
-76.88370000000001
 30
0.0
 10
-28.158
 20
-75.77550000000001
 30
0.0
 10
-28.158
 20
-75.77550000000001
 30
0.0
 10
-28.158
 20
-75.77550000000001
 30
0.0
 10
-28.158
 20
-74.6755
 30
0.0
 10
-27.258
 20
-73.77550000000001
 30
0.0
 10
-26.158
 20
-73.77550000000001
 30
0.0
  0
SPLINE
  5
94
330
1F
100
AcDbEntity
  8
Capa 1
 62
     1
370
     0
100
AcDbSpline
210
0.0
220
0.0
230
1.0
 70
    24
 71
     3
 72
     8
 73
     4
 74
     0
 42
0.0000000001
 43
0.0000000001
 40
0.0
 40
0.0
 40
0.0
 40
0.0
 40
1.0
 40
1.0
 40
1.0
 40
1.0
 10
-17.3321
 20
-73.77550000000001
 30
0.0
 10
-17.3321
 20
-73.77550000000001
 30
0.0
 10
-17.3321
 20
-100.8072
 30
0.0
 10
-17.3321
 20
-100.8072
 30
0.0
  0
SPLINE
  5
95
330
1F
100
AcDbEntity
  8
Capa 1
 62
     1
370
     0
100
AcDbSpline
210
0.0
220
0.0
230
1.0
 70
    11
 71
     3
 72
   132
 73
   128
 74
     0
 42
0.0000000001
 43
0.0000000001
 40
0.0
 40
0.0
 40
0.0
 40
0.0
 40
0.03125
 40
0.03125
 40
0.03125
 40
0.03125
 40
0.0625
 40
0.0625
 40
0.0625
 40
0.0625
 40
0.09375
 40
0.09375
 40
0.09375
 40
0.09375
 40
0.125
 40
0.125
 40
0.125
 40
0.125
 40
0.15625
 40
0.15625
 40
0.15625
 40
0.15625
 40
0.1875
 40
0.1875
 40
0.1875
 40
0.1875
 40
0.21875
 40
0.21875
 40
0.21875
 40
0.21875
 40
0.25
 40
0.25
 40
0.25
 40
0.25
 40
0.28125
 40
0.28125
 40
0.28125
 40
0.28125
 40
0.3125
 40
0.3125
 40
0.3125
 40
0.3125
 40
0.34375
 40
0.34375
 40
0.34375
 40
0.34375
 40
0.375
 40
0.375
 40
0.375
 40
0.375
 40
0.40625
 40
0.40625
 40
0.40625
 40
0.40625
 40
0.4375
 40
0.4375
 40
0.4375
 40
0.4375
 40
0.46875
 40
0.46875
 40
0.46875
 40
0.46875
 40
0.5
 40
0.5
 40
0.5
 40
0.5
 40
0.53125
 40
0.53125
 40
0.53125
 40
0.53125
 40
0.5625
 40
0.5625
 40
0.5625
 40
0.5625
 40
0.59375
 40
0.59375
 40
0.59375
 40
0.59375
 40
0.625
 40
0.625
 40
0.625
 40
0.625
 40
0.65625
 40
0.65625
 40
0.65625
 40
0.65625
 40
0.6875
 40
0.6875
 40
0.6875
 40
0.6875
 40
0.71875
 40
0.71875
 40
0.71875
 40
0.71875
 40
0.75
 40
0.75
 40
0.75
 40
0.75
 40
0.78125
 40
0.78125
 40
0.78125
 40
0.78125
 40
0.8125
 40
0.8125
 40
0.8125
 40
0.8125
 40
0.84375
 40
0.84375
 40
0.84375
 40
0.84375
 40
0.875
 40
0.875
 40
0.875
 40
0.875
 40
0.90625
 40
0.90625
 40
0.90625
 40
0.90625
 40
0.9375
 40
0.9375
 40
0.9375
 40
0.9375
 40
0.96875
 40
0.96875
 40
0.96875
 40
0.96875
 40
1.0
 40
1.0
 40
1.0
 40
1.0
 10
-4.458
 20
-73.77550000000001
 30
0.0
 10
-4.458
 20
-73.77550000000001
 30
0.0
 10
13.1938
 20
-73.77550000000001
 30
0.0
 10
13.1938
 20
-73.77550000000001
 30
0.0
 10
13.1938
 20
-73.77550000000001
 30
0.0
 10
14.2938
 20
-73.77550000000001
 30
0.0
 10
15.1938
 20
-74.6755
 30
0.0
 10
15.1938
 20
-75.77550000000001
 30
0.0
 10
15.1938
 20
-75.77550000000001
 30
0.0
 10
15.1938
 20
-75.77550000000001
 30
0.0
 10
15.1938
 20
-76.88370000000001
 30
0.0
 10
15.1938
 20
-76.88370000000001
 30
0.0
 10
15.1938
 20
-76.88370000000001
 30
0.0
 10
15.1938
 20
-76.88370000000001
 30
0.0
 10
9.626800000000001
 20
-76.88370000000001
 30
0.0
 10
9.626800000000001
 20
-76.88370000000001
 30
0.0
 10
9.626800000000001
 20
-76.88370000000001
 30
0.0
 10
9.626800000000001
 20
-76.88370000000001
 30
0.0
 10
9.626800000000001
 20
-79.88370000000001
 30
0.0
 10
9.626800000000001
 20
-79.88370000000001
 30
0.0
 10
9.626800000000001
 20
-79.88370000000001
 30
0.0
 10
9.626800000000001
 20
-79.88370000000001
 30
0.0
 10
15.1938
 20
-79.88370000000001
 30
0.0
 10
15.1938
 20
-79.88370000000001
 30
0.0
 10
15.1938
 20
-79.88370000000001
 30
0.0
 10
15.1938
 20
-79.88370000000001
 30
0.0
 10
15.1938
 20
-86.7401
 30
0.0
 10
15.1938
 20
-86.7401
 30
0.0
 10
15.1938
 20
-86.7401
 30
0.0
 10
15.1938
 20
-86.7401
 30
0.0
 10
9.626800000000001
 20
-86.7401
 30
0.0
 10
9.626800000000001
 20
-86.7401
 30
0.0
 10
9.626800000000001
 20
-86.7401
 30
0.0
 10
9.626800000000001
 20
-86.7401
 30
0.0
 10
9.626800000000001
 20
-89.7401
 30
0.0
 10
9.626800000000001
 20
-89.7401
 30
0.0
 10
9.626800000000001
 20
-89.7401
 30
0.0
 10
9.626800000000001
 20
-89.7401
 30
0.0
 10
15.1938
 20
-89.7401
 30
0.0
 10
15.1938
 20
-89.7401
 30
0.0
 10
15.1938
 20
-89.7401
 30
0.0
 10
15.1938
 20
-89.7401
 30
0.0
 10
15.1938
 20
-94.6335
 30
0.0
 10
15.1938
 20
-94.6335
 30
0.0
 10
15.1938
 20
-94.6335
 30
0.0
 10
15.1938
 20
-94.6335
 30
0.0
 10
9.626800000000001
 20
-94.6335
 30
0.0
 10
9.626800000000001
 20
-94.6335
 30
0.0
 10
9.626800000000001
 20
-94.6335
 30
0.0
 10
9.626800000000001
 20
-94.6335
 30
0.0
 10
9.626800000000001
 20
-97.6335
 30
0.0
 10
9.626800000000001
 20
-97.6335
 30
0.0
 10
9.626800000000001
 20
-97.6335
 30
0.0
 10
9.626800000000001
 20
-97.6335
 30
0.0
 10
15.1938
 20
-97.6335
 30
0.0
 10
15.1938
 20
-97.6335
 30
0.0
 10
15.1938
 20
-97.6335
 30
0.0
 10
15.1938
 20
-97.6335
 30
0.0
 10
15.1938
 20
-98.80720000000001
 30
0.0
 10
15.1938
 20
-98.80720000000001
 30
0.0
 10
15.1938
 20
-98.80720000000001
 30
0.0
 10
15.1938
 20
-99.9072
 30
0.0
 10
14.2938
 20
-100.8072
 30
0.0
 10
13.1938
 20
-100.8072
 30
0.0
 10
13.1938
 20
-100.8072
 30
0.0
 10
13.1938
 20
-100.8072
 30
0.0
 10
-4.458
 20
-100.8072
 30
0.0
 10
-4.458
 20
-100.8072
 30
0.0
 10
-4.458
 20
-100.8072
 30
0.0
 10
-5.558
 20
-100.8072
 30
0.0
 10
-6.458
 20
-99.9072
 30
0.0
 10
-6.458
 20
-98.80720000000001
 30
0.0
 10
-6.458
 20
-98.80720000000001
 30
0.0
 10
-6.458
 20
-98.80720000000001
 30
0.0
 10
-6.458
 20
-97.6335
 30
0.0
 10
-6.458
 20
-97.6335
 30
0.0
 10
-6.458
 20
-97.6335
 30
0.0
 10
-6.458
 20
-97.6335
 30
0.0
 10
-0.891
 20
-97.6335
 30
0.0
 10
-0.891
 20
-97.6335
 30
0.0
 10
-0.891
 20
-97.6335
 30
0.0
 10
-0.891
 20
-97.6335
 30
0.0
 10
-0.891
 20
-94.6335
 30
0.0
 10
-0.891
 20
-94.6335
 30
0.0
 10
-0.891
 20
-94.6335
 30
0.0
 10
-0.891
 20
-94.6335
 30
0.0
 10
-6.458
 20
-94.6335
 30
0.0
 10
-6.458
 20
-94.6335
 30
0.0
 10
-6.458
 20
-94.6335
 30
0.0
 10
-6.458
 20
-94.6335
 30
0.0
 10
-6.458
 20
-89.7401
 30
0.0
 10
-6.458
 20
-89.7401
 30
0.0
 10
-6.458
 20
-89.7401
 30
0.0
 10
-6.458
 20
-89.7401
 30
0.0
 10
-0.891
 20
-89.7401
 30
0.0
 10
-0.891
 20
-89.7401
 30
0.0
 10
-0.891
 20
-89.7401
 30
0.0
 10
-0.891
 20
-89.7401
 30
0.0
 10
-0.891
 20
-86.7401
 30
0.0
 10
-0.891
 20
-86.7401
 30
0.0
 10
-0.891
 20
-86.7401
 30
0.0
 10
-0.891
 20
-86.7401
 30
0.0
 10
-6.458
 20
-86.7401
 30
0.0
 10
-6.458
 20
-86.7401
 30
0.0
 10
-6.458
 20
-86.7401
 30
0.0
 10
-6.458
 20
-86.7401
 30
0.0
 10
-6.458
 20
-79.88370000000001
 30
0.0
 10
-6.458
 20
-79.88370000000001
 30
0.0
 10
-6.458
 20
-79.88370000000001
 30
0.0
 10
-6.458
 20
-79.88370000000001
 30
0.0
 10
-0.891
 20
-79.88370000000001
 30
0.0
 10
-0.891
 20
-79.88370000000001
 30
0.0
 10
-0.891
 20
-79.88370000000001
 30
0.0
 10
-0.891
 20
-79.88370000000001
 30
0.0
 10
-0.891
 20
-76.88370000000001
 30
0.0
 10
-0.891
 20
-76.88370000000001
 30
0.0
 10
-0.891
 20
-76.88370000000001
 30
0.0
 10
-0.891
 20
-76.88370000000001
 30
0.0
 10
-6.458
 20
-76.88370000000001
 30
0.0
 10
-6.458
 20
-76.88370000000001
 30
0.0
 10
-6.458
 20
-76.88370000000001
 30
0.0
 10
-6.458
 20
-76.88370000000001
 30
0.0
 10
-6.458
 20
-75.77550000000001
 30
0.0
 10
-6.458
 20
-75.77550000000001
 30
0.0
 10
-6.458
 20
-75.77550000000001
 30
0.0
 10
-6.458
 20
-74.6755
 30
0.0
 10
-5.558
 20
-73.77550000000001
 30
0.0
 10
-4.458
 20
-73.77550000000001
 30
0.0
  0
SPLINE
  5
96
330
1F
100
AcDbEntity
  8
Capa 1
 62
     1
370
     0
100
AcDbSpline
210
0.0
220
0.0
230
1.0
 70
    24
 71
     3
 72
     8
 73
     4
 74
     0
 42
0.0000000001
 43
0.0000000001
 40
0.0
 40
0.0
 40
0.0
 40
0.0
 40
1.0
 40
1.0
 40
1.0
 40
1.0
 10
4.367900000000001
 20
-73.77550000000001
 30
0.0
 10
4.367900000000001
 20
-73.77550000000001
 30
0.0
 10
4.367900000000001
 20
-100.8072
 30
0.0
 10
4.367900000000001
 20
-100.8072
 30
0.0
  0
SPLINE
  5
97
330
1F
100
AcDbEntity
  8
Capa 1
 62
     1
370
     0
100
AcDbSpline
210
0.0
220
0.0
230
1.0
 70
    11
 71
     3
 72
   132
 73
   128
 74
     0
 42
0.0000000001
 43
0.0000000001
 40
0.0
 40
0.0
 40
0.0
 40
0.0
 40
0.03125
 40
0.03125
 40
0.03125
 40
0.03125
 40
0.0625
 40
0.0625
 40
0.0625
 40
0.0625
 40
0.09375
 40
0.09375
 40
0.09375
 40
0.09375
 40
0.125
 40
0.125
 40
0.125
 40
0.125
 40
0.15625
 40
0.15625
 40
0.15625
 40
0.15625
 40
0.1875
 40
0.1875
 40
0.1875
 40
0.1875
 40
0.21875
 40
0.21875
 40
0.21875
 40
0.21875
 40
0.25
 40
0.25
 40
0.25
 40
0.25
 40
0.28125
 40
0.28125
 40
0.28125
 40
0.28125
 40
0.3125
 40
0.3125
 40
0.3125
 40
0.3125
 40
0.34375
 40
0.34375
 40
0.34375
 40
0.34375
 40
0.375
 40
0.375
 40
0.375
 40
0.375
 40
0.40625
 40
0.40625
 40
0.40625
 40
0.40625
 40
0.4375
 40
0.4375
 40
0.4375
 40
0.4375
 40
0.46875
 40
0.46875
 40
0.46875
 40
0.46875
 40
0.5
 40
0.5
 40
0.5
 40
0.5
 40
0.53125
 40
0.53125
 40
0.53125
 40
0.53125
 40
0.5625
 40
0.5625
 40
0.5625
 40
0.5625
 40
0.59375
 40
0.59375
 40
0.59375
 40
0.59375
 40
0.625
 40
0.625
 40
0.625
 40
0.625
 40
0.65625
 40
0.65625
 40
0.65625
 40
0.65625
 40
0.6875
 40
0.6875
 40
0.6875
 40
0.6875
 40
0.71875
 40
0.71875
 40
0.71875
 40
0.71875
 40
0.75
 40
0.75
 40
0.75
 40
0.75
 40
0.78125
 40
0.78125
 40
0.78125
 40
0.78125
 40
0.8125
 40
0.8125
 40
0.8125
 40
0.8125
 40
0.84375
 40
0.84375
 40
0.84375
 40
0.84375
 40
0.875
 40
0.875
 40
0.875
 40
0.875
 40
0.90625
 40
0.90625
 40
0.90625
 40
0.90625
 40
0.9375
 40
0.9375
 40
0.9375
 40
0.9375
 40
0.96875
 40
0.96875
 40
0.96875
 40
0.96875
 40
1.0
 40
1.0
 40
1.0
 40
1.0
 10
17.242
 20
-73.77550000000001
 30
0.0
 10
17.242
 20
-73.77550000000001
 30
0.0
 10
34.8938
 20
-73.77550000000001
 30
0.0
 10
34.8938
 20
-73.77550000000001
 30
0.0
 10
34.8938
 20
-73.77550000000001
 30
0.0
 10
35.9938
 20
-73.77550000000001
 30
0.0
 10
36.8938
 20
-74.6755
 30
0.0
 10
36.8938
 20
-75.77550000000001
 30
0.0
 10
36.8938
 20
-75.77550000000001
 30
0.0
 10
36.8938
 20
-75.77550000000001
 30
0.0
 10
36.8938
 20
-76.88370000000001
 30
0.0
 10
36.8938
 20
-76.88370000000001
 30
0.0
 10
36.8938
 20
-76.88370000000001
 30
0.0
 10
36.8938
 20
-76.88370000000001
 30
0.0
 10
31.3268
 20
-76.88370000000001
 30
0.0
 10
31.3268
 20
-76.88370000000001
 30
0.0
 10
31.3268
 20
-76.88370000000001
 30
0.0
 10
31.3268
 20
-76.88370000000001
 30
0.0
 10
31.3268
 20
-79.88370000000001
 30
0.0
 10
31.3268
 20
-79.88370000000001
 30
0.0
 10
31.3268
 20
-79.88370000000001
 30
0.0
 10
31.3268
 20
-79.88370000000001
 30
0.0
 10
36.8938
 20
-79.88370000000001
 30
0.0
 10
36.8938
 20
-79.88370000000001
 30
0.0
 10
36.8938
 20
-79.88370000000001
 30
0.0
 10
36.8938
 20
-79.88370000000001
 30
0.0
 10
36.8938
 20
-86.7401
 30
0.0
 10
36.8938
 20
-86.7401
 30
0.0
 10
36.8938
 20
-86.7401
 30
0.0
 10
36.8938
 20
-86.7401
 30
0.0
 10
31.3268
 20
-86.7401
 30
0.0
 10
31.3268
 20
-86.7401
 30
0.0
 10
31.3268
 20
-86.7401
 30
0.0
 10
31.3268
 20
-86.7401
 30
0.0
 10
31.3268
 20
-89.7401
 30
0.0
 10
31.3268
 20
-89.7401
 30
0.0
 10
31.3268
 20
-89.7401
 30
0.0
 10
31.3268
 20
-89.7401
 30
0.0
 10
36.8938
 20
-89.7401
 30
0.0
 10
36.8938
 20
-89.7401
 30
0.0
 10
36.8938
 20
-89.7401
 30
0.0
 10
36.8938
 20
-89.7401
 30
0.0
 10
36.8938
 20
-94.6335
 30
0.0
 10
36.8938
 20
-94.6335
 30
0.0
 10
36.8938
 20
-94.6335
 30
0.0
 10
36.8938
 20
-94.6335
 30
0.0
 10
31.3268
 20
-94.6335
 30
0.0
 10
31.3268
 20
-94.6335
 30
0.0
 10
31.3268
 20
-94.6335
 30
0.0
 10
31.3268
 20
-94.6335
 30
0.0
 10
31.3268
 20
-97.6335
 30
0.0
 10
31.3268
 20
-97.6335
 30
0.0
 10
31.3268
 20
-97.6335
 30
0.0
 10
31.3268
 20
-97.6335
 30
0.0
 10
36.8938
 20
-97.6335
 30
0.0
 10
36.8938
 20
-97.6335
 30
0.0
 10
36.8938
 20
-97.6335
 30
0.0
 10
36.8938
 20
-97.6335
 30
0.0
 10
36.8938
 20
-98.80720000000001
 30
0.0
 10
36.8938
 20
-98.80720000000001
 30
0.0
 10
36.8938
 20
-98.80720000000001
 30
0.0
 10
36.8938
 20
-99.9072
 30
0.0
 10
35.9938
 20
-100.8072
 30
0.0
 10
34.8938
 20
-100.8072
 30
0.0
 10
34.8938
 20
-100.8072
 30
0.0
 10
34.8938
 20
-100.8072
 30
0.0
 10
17.242
 20
-100.8072
 30
0.0
 10
17.242
 20
-100.8072
 30
0.0
 10
17.242
 20
-100.8072
 30
0.0
 10
16.142
 20
-100.8072
 30
0.0
 10
15.242
 20
-99.9072
 30
0.0
 10
15.242
 20
-98.80720000000001
 30
0.0
 10
15.242
 20
-98.80720000000001
 30
0.0
 10
15.242
 20
-98.80720000000001
 30
0.0
 10
15.242
 20
-97.6335
 30
0.0
 10
15.242
 20
-97.6335
 30
0.0
 10
15.242
 20
-97.6335
 30
0.0
 10
15.242
 20
-97.6335
 30
0.0
 10
20.809
 20
-97.6335
 30
0.0
 10
20.809
 20
-97.6335
 30
0.0
 10
20.809
 20
-97.6335
 30
0.0
 10
20.809
 20
-97.6335
 30
0.0
 10
20.809
 20
-94.6335
 30
0.0
 10
20.809
 20
-94.6335
 30
0.0
 10
20.809
 20
-94.6335
 30
0.0
 10
20.809
 20
-94.6335
 30
0.0
 10
15.242
 20
-94.6335
 30
0.0
 10
15.242
 20
-94.6335
 30
0.0
 10
15.242
 20
-94.6335
 30
0.0
 10
15.242
 20
-94.6335
 30
0.0
 10
15.242
 20
-89.7401
 30
0.0
 10
15.242
 20
-89.7401
 30
0.0
 10
15.242
 20
-89.7401
 30
0.0
 10
15.242
 20
-89.7401
 30
0.0
 10
20.809
 20
-89.7401
 30
0.0
 10
20.809
 20
-89.7401
 30
0.0
 10
20.809
 20
-89.7401
 30
0.0
 10
20.809
 20
-89.7401
 30
0.0
 10
20.809
 20
-86.7401
 30
0.0
 10
20.809
 20
-86.7401
 30
0.0
 10
20.809
 20
-86.7401
 30
0.0
 10
20.809
 20
-86.7401
 30
0.0
 10
15.242
 20
-86.7401
 30
0.0
 10
15.242
 20
-86.7401
 30
0.0
 10
15.242
 20
-86.7401
 30
0.0
 10
15.242
 20
-86.7401
 30
0.0
 10
15.242
 20
-79.88370000000001
 30
0.0
 10
15.242
 20
-79.88370000000001
 30
0.0
 10
15.242
 20
-79.88370000000001
 30
0.0
 10
15.242
 20
-79.88370000000001
 30
0.0
 10
20.809
 20
-79.88370000000001
 30
0.0
 10
20.809
 20
-79.88370000000001
 30
0.0
 10
20.809
 20
-79.88370000000001
 30
0.0
 10
20.809
 20
-79.88370000000001
 30
0.0
 10
20.809
 20
-76.88370000000001
 30
0.0
 10
20.809
 20
-76.88370000000001
 30
0.0
 10
20.809
 20
-76.88370000000001
 30
0.0
 10
20.809
 20
-76.88370000000001
 30
0.0
 10
15.242
 20
-76.88370000000001
 30
0.0
 10
15.242
 20
-76.88370000000001
 30
0.0
 10
15.242
 20
-76.88370000000001
 30
0.0
 10
15.242
 20
-76.88370000000001
 30
0.0
 10
15.242
 20
-75.77550000000001
 30
0.0
 10
15.242
 20
-75.77550000000001
 30
0.0
 10
15.242
 20
-75.77550000000001
 30
0.0
 10
15.242
 20
-74.6755
 30
0.0
 10
16.142
 20
-73.77550000000001
 30
0.0
 10
17.242
 20
-73.77550000000001
 30
0.0
  0
SPLINE
  5
98
330
1F
100
AcDbEntity
  8
Capa 1
 62
     1
370
     0
100
AcDbSpline
210
0.0
220
0.0
230
1.0
 70
    24
 71
     3
 72
     8
 73
     4
 74
     0
 42
0.0000000001
 43
0.0000000001
 40
0.0
 40
0.0
 40
0.0
 40
0.0
 40
1.0
 40
1.0
 40
1.0
 40
1.0
 10
26.0679
 20
-73.77550000000001
 30
0.0
 10
26.0679
 20
-73.77550000000001
 30
0.0
 10
26.0679
 20
-100.8072
 30
0.0
 10
26.0679
 20
-100.8072
 30
0.0
  0
SPLINE
  5
99
330
1F
100
AcDbEntity
  8
Capa 1
 62
     1
370
     0
100
AcDbSpline
210
0.0
220
0.0
230
1.0
 70
    11
 71
     3
 72
   132
 73
   128
 74
     0
 42
0.0000000001
 43
0.0000000001
 40
0.0
 40
0.0
 40
0.0
 40
0.0
 40
0.03125
 40
0.03125
 40
0.03125
 40
0.03125
 40
0.0625
 40
0.0625
 40
0.0625
 40
0.0625
 40
0.09375
 40
0.09375
 40
0.09375
 40
0.09375
 40
0.125
 40
0.125
 40
0.125
 40
0.125
 40
0.15625
 40
0.15625
 40
0.15625
 40
0.15625
 40
0.1875
 40
0.1875
 40
0.1875
 40
0.1875
 40
0.21875
 40
0.21875
 40
0.21875
 40
0.21875
 40
0.25
 40
0.25
 40
0.25
 40
0.25
 40
0.28125
 40
0.28125
 40
0.28125
 40
0.28125
 40
0.3125
 40
0.3125
 40
0.3125
 40
0.3125
 40
0.34375
 40
0.34375
 40
0.34375
 40
0.34375
 40
0.375
 40
0.375
 40
0.375
 40
0.375
 40
0.40625
 40
0.40625
 40
0.40625
 40
0.40625
 40
0.4375
 40
0.4375
 40
0.4375
 40
0.4375
 40
0.46875
 40
0.46875
 40
0.46875
 40
0.46875
 40
0.5
 40
0.5
 40
0.5
 40
0.5
 40
0.53125
 40
0.53125
 40
0.53125
 40
0.53125
 40
0.5625
 40
0.5625
 40
0.5625
 40
0.5625
 40
0.59375
 40
0.59375
 40
0.59375
 40
0.59375
 40
0.625
 40
0.625
 40
0.625
 40
0.625
 40
0.65625
 40
0.65625
 40
0.65625
 40
0.65625
 40
0.6875
 40
0.6875
 40
0.6875
 40
0.6875
 40
0.71875
 40
0.71875
 40
0.71875
 40
0.71875
 40
0.75
 40
0.75
 40
0.75
 40
0.75
 40
0.78125
 40
0.78125
 40
0.78125
 40
0.78125
 40
0.8125
 40
0.8125
 40
0.8125
 40
0.8125
 40
0.84375
 40
0.84375
 40
0.84375
 40
0.84375
 40
0.875
 40
0.875
 40
0.875
 40
0.875
 40
0.90625
 40
0.90625
 40
0.90625
 40
0.90625
 40
0.9375
 40
0.9375
 40
0.9375
 40
0.9375
 40
0.96875
 40
0.96875
 40
0.96875
 40
0.96875
 40
1.0
 40
1.0
 40
1.0
 40
1.0
 10
38.942
 20
-73.77550000000001
 30
0.0
 10
38.942
 20
-73.77550000000001
 30
0.0
 10
56.5938
 20
-73.77550000000001
 30
0.0
 10
56.5938
 20
-73.77550000000001
 30
0.0
 10
56.5938
 20
-73.77550000000001
 30
0.0
 10
57.6938
 20
-73.77550000000001
 30
0.0
 10
58.5938
 20
-74.6755
 30
0.0
 10
58.5938
 20
-75.77550000000001
 30
0.0
 10
58.5938
 20
-75.77550000000001
 30
0.0
 10
58.5938
 20
-75.77550000000001
 30
0.0
 10
58.5938
 20
-76.88370000000001
 30
0.0
 10
58.5938
 20
-76.88370000000001
 30
0.0
 10
58.5938
 20
-76.88370000000001
 30
0.0
 10
58.5938
 20
-76.88370000000001
 30
0.0
 10
53.0268
 20
-76.88370000000001
 30
0.0
 10
53.0268
 20
-76.88370000000001
 30
0.0
 10
53.0268
 20
-76.88370000000001
 30
0.0
 10
53.0268
 20
-76.88370000000001
 30
0.0
 10
53.0268
 20
-79.88370000000001
 30
0.0
 10
53.0268
 20
-79.88370000000001
 30
0.0
 10
53.0268
 20
-79.88370000000001
 30
0.0
 10
53.0268
 20
-79.88370000000001
 30
0.0
 10
58.5938
 20
-79.88370000000001
 30
0.0
 10
58.5938
 20
-79.88370000000001
 30
0.0
 10
58.5938
 20
-79.88370000000001
 30
0.0
 10
58.5938
 20
-79.88370000000001
 30
0.0
 10
58.5938
 20
-86.7401
 30
0.0
 10
58.5938
 20
-86.7401
 30
0.0
 10
58.5938
 20
-86.7401
 30
0.0
 10
58.5938
 20
-86.7401
 30
0.0
 10
53.0268
 20
-86.7401
 30
0.0
 10
53.0268
 20
-86.7401
 30
0.0
 10
53.0268
 20
-86.7401
 30
0.0
 10
53.0268
 20
-86.7401
 30
0.0
 10
53.0268
 20
-89.7401
 30
0.0
 10
53.0268
 20
-89.7401
 30
0.0
 10
53.0268
 20
-89.7401
 30
0.0
 10
53.0268
 20
-89.7401
 30
0.0
 10
58.5938
 20
-89.7401
 30
0.0
 10
58.5938
 20
-89.7401
 30
0.0
 10
58.5938
 20
-89.7401
 30
0.0
 10
58.5938
 20
-89.7401
 30
0.0
 10
58.5938
 20
-94.6335
 30
0.0
 10
58.5938
 20
-94.6335
 30
0.0
 10
58.5938
 20
-94.6335
 30
0.0
 10
58.5938
 20
-94.6335
 30
0.0
 10
53.0268
 20
-94.6335
 30
0.0
 10
53.0268
 20
-94.6335
 30
0.0
 10
53.0268
 20
-94.6335
 30
0.0
 10
53.0268
 20
-94.6335
 30
0.0
 10
53.0268
 20
-97.6335
 30
0.0
 10
53.0268
 20
-97.6335
 30
0.0
 10
53.0268
 20
-97.6335
 30
0.0
 10
53.0268
 20
-97.6335
 30
0.0
 10
58.5938
 20
-97.6335
 30
0.0
 10
58.5938
 20
-97.6335
 30
0.0
 10
58.5938
 20
-97.6335
 30
0.0
 10
58.5938
 20
-97.6335
 30
0.0
 10
58.5938
 20
-98.80720000000001
 30
0.0
 10
58.5938
 20
-98.80720000000001
 30
0.0
 10
58.5938
 20
-98.80720000000001
 30
0.0
 10
58.5938
 20
-99.9072
 30
0.0
 10
57.6938
 20
-100.8072
 30
0.0
 10
56.5938
 20
-100.8072
 30
0.0
 10
56.5938
 20
-100.8072
 30
0.0
 10
56.5938
 20
-100.8072
 30
0.0
 10
38.942
 20
-100.8072
 30
0.0
 10
38.942
 20
-100.8072
 30
0.0
 10
38.942
 20
-100.8072
 30
0.0
 10
37.842
 20
-100.8072
 30
0.0
 10
36.942
 20
-99.9072
 30
0.0
 10
36.942
 20
-98.80720000000001
 30
0.0
 10
36.942
 20
-98.80720000000001
 30
0.0
 10
36.942
 20
-98.80720000000001
 30
0.0
 10
36.942
 20
-97.6335
 30
0.0
 10
36.942
 20
-97.6335
 30
0.0
 10
36.942
 20
-97.6335
 30
0.0
 10
36.942
 20
-97.6335
 30
0.0
 10
42.509
 20
-97.6335
 30
0.0
 10
42.509
 20
-97.6335
 30
0.0
 10
42.509
 20
-97.6335
 30
0.0
 10
42.509
 20
-97.6335
 30
0.0
 10
42.509
 20
-94.6335
 30
0.0
 10
42.509
 20
-94.6335
 30
0.0
 10
42.509
 20
-94.6335
 30
0.0
 10
42.509
 20
-94.6335
 30
0.0
 10
36.942
 20
-94.6335
 30
0.0
 10
36.942
 20
-94.6335
 30
0.0
 10
36.942
 20
-94.6335
 30
0.0
 10
36.942
 20
-94.6335
 30
0.0
 10
36.942
 20
-89.7401
 30
0.0
 10
36.942
 20
-89.7401
 30
0.0
 10
36.942
 20
-89.7401
 30
0.0
 10
36.942
 20
-89.7401
 30
0.0
 10
42.509
 20
-89.7401
 30
0.0
 10
42.509
 20
-89.7401
 30
0.0
 10
42.509
 20
-89.7401
 30
0.0
 10
42.509
 20
-89.7401
 30
0.0
 10
42.509
 20
-86.7401
 30
0.0
 10
42.509
 20
-86.7401
 30
0.0
 10
42.509
 20
-86.7401
 30
0.0
 10
42.509
 20
-86.7401
 30
0.0
 10
36.942
 20
-86.7401
 30
0.0
 10
36.942
 20
-86.7401
 30
0.0
 10
36.942
 20
-86.7401
 30
0.0
 10
36.942
 20
-86.7401
 30
0.0
 10
36.942
 20
-79.88370000000001
 30
0.0
 10
36.942
 20
-79.88370000000001
 30
0.0
 10
36.942
 20
-79.88370000000001
 30
0.0
 10
36.942
 20
-79.88370000000001
 30
0.0
 10
42.509
 20
-79.88370000000001
 30
0.0
 10
42.509
 20
-79.88370000000001
 30
0.0
 10
42.509
 20
-79.88370000000001
 30
0.0
 10
42.509
 20
-79.88370000000001
 30
0.0
 10
42.509
 20
-76.88370000000001
 30
0.0
 10
42.509
 20
-76.88370000000001
 30
0.0
 10
42.509
 20
-76.88370000000001
 30
0.0
 10
42.509
 20
-76.88370000000001
 30
0.0
 10
36.942
 20
-76.88370000000001
 30
0.0
 10
36.942
 20
-76.88370000000001
 30
0.0
 10
36.942
 20
-76.88370000000001
 30
0.0
 10
36.942
 20
-76.88370000000001
 30
0.0
 10
36.942
 20
-75.77550000000001
 30
0.0
 10
36.942
 20
-75.77550000000001
 30
0.0
 10
36.942
 20
-75.77550000000001
 30
0.0
 10
36.942
 20
-74.6755
 30
0.0
 10
37.842
 20
-73.77550000000001
 30
0.0
 10
38.942
 20
-73.77550000000001
 30
0.0
  0
SPLINE
  5
9A
330
1F
100
AcDbEntity
  8
Capa 1
 62
     1
370
     0
100
AcDbSpline
210
0.0
220
0.0
230
1.0
 70
    24
 71
     3
 72
     8
 73
     4
 74
     0
 42
0.0000000001
 43
0.0000000001
 40
0.0
 40
0.0
 40
0.0
 40
0.0
 40
1.0
 40
1.0
 40
1.0
 40
1.0
 10
47.7679
 20
-73.77550000000001
 30
0.0
 10
47.7679
 20
-73.77550000000001
 30
0.0
 10
47.7679
 20
-100.8072
 30
0.0
 10
47.7679
 20
-100.8072
 30
0.0
  0
SPLINE
  5
9B
330
1F
100
AcDbEntity
  8
Capa 1
 62
     1
370
     0
100
AcDbSpline
210
0.0
220
0.0
230
1.0
 70
    11
 71
     3
 72
    52
 73
    48
 74
     0
 42
0.0000000001
 43
0.0000000001
 40
0.0
 40
0.0
 40
0.0
 40
0.0
 40
0.0833333333333333
 40
0.0833333333333333
 40
0.0833333333333333
 40
0.0833333333333333
 40
0.1666666666666667
 40
0.1666666666666667
 40
0.1666666666666667
 40
0.1666666666666667
 40
0.25
 40
0.25
 40
0.25
 40
0.25
 40
0.3333333333333333
 40
0.3333333333333333
 40
0.3333333333333333
 40
0.3333333333333333
 40
0.4166666666666666
 40
0.4166666666666666
 40
0.4166666666666666
 40
0.4166666666666666
 40
0.4999999999999999
 40
0.4999999999999999
 40
0.4999999999999999
 40
0.4999999999999999
 40
0.5833333333333333
 40
0.5833333333333333
 40
0.5833333333333333
 40
0.5833333333333333
 40
0.6666666666666666
 40
0.6666666666666666
 40
0.6666666666666666
 40
0.6666666666666666
 40
0.75
 40
0.75
 40
0.75
 40
0.75
 40
0.8333333333333334
 40
0.8333333333333334
 40
0.8333333333333334
 40
0.8333333333333334
 40
0.9166666666666667
 40
0.9166666666666667
 40
0.9166666666666667
 40
0.9166666666666667
 40
1.0
 40
1.0
 40
1.0
 40
1.0
 10
41.60760000000001
 20
-30.4282
 30
0.0
 10
41.60760000000001
 20
-30.4282
 30
0.0
 10
68.7274
 20
-30.4282
 30
0.0
 10
68.7274
 20
-30.4282
 30
0.0
 10
68.7274
 20
-30.4282
 30
0.0
 10
68.7274
 20
-30.4282
 30
0.0
 10
68.7274
 20
-34.6608
 30
0.0
 10
68.7274
 20
-34.6608
 30
0.0
 10
68.7274
 20
-34.6608
 30
0.0
 10
68.7274
 20
-34.6608
 30
0.0
 10
59.6876
 20
-34.6608
 30
0.0
 10
59.6876
 20
-34.6608
 30
0.0
 10
59.6876
 20
-34.6608
 30
0.0
 10
59.6876
 20
-34.6608
 30
0.0
 10
59.6876
 20
-37.6608
 30
0.0
 10
59.6876
 20
-37.6608
 30
0.0
 10
59.6876
 20
-37.6608
 30
0.0
 10
59.6876
 20
-37.6608
 30
0.0
 10
68.7274
 20
-37.6608
 30
0.0
 10
68.7274
 20
-37.6608
 30
0.0
 10
68.7274
 20
-37.6608
 30
0.0
 10
68.7274
 20
-37.6608
 30
0.0
 10
68.7274
 20
-41.8935
 30
0.0
 10
68.7274
 20
-41.8935
 30
0.0
 10
68.7274
 20
-41.8935
 30
0.0
 10
68.7274
 20
-41.8935
 30
0.0
 10
50.20180000000001
 20
-41.8935
 30
0.0
 10
50.20180000000001
 20
-41.8935
 30
0.0
 10
50.20180000000001
 20
-41.8935
 30
0.0
 10
50.20180000000001
 20
-41.8935
 30
0.0
 10
49.85760000000001
 20
-36.545
 30
0.0
 10
49.85760000000001
 20
-36.545
 30
0.0
 10
49.85760000000001
 20
-36.545
 30
0.0
 10
49.85760000000001
 20
-36.545
 30
0.0
 10
46.86380000000001
 20
-36.7377
 30
0.0
 10
46.86380000000001
 20
-36.7377
 30
0.0
 10
46.86380000000001
 20
-36.7377
 30
0.0
 10
46.86380000000001
 20
-36.7377
 30
0.0
 10
47.1956
 20
-41.8935
 30
0.0
 10
47.1956
 20
-41.8935
 30
0.0
 10
47.1956
 20
-41.8935
 30
0.0
 10
47.1956
 20
-41.8935
 30
0.0
 10
41.60760000000001
 20
-41.8935
 30
0.0
 10
41.60760000000001
 20
-41.8935
 30
0.0
 10
41.60760000000001
 20
-41.8935
 30
0.0
 10
41.60760000000001
 20
-41.8935
 30
0.0
 10
41.60760000000001
 20
-30.4282
 30
0.0
 10
41.60760000000001
 20
-30.4282
 30
0.0
  0
SPLINE
  5
9C
330
1F
100
AcDbEntity
  8
Capa 1
 62
     1
370
     0
100
AcDbSpline
210
0.0
220
0.0
230
1.0
 70
    11
 71
     3
 72
    52
 73
    48
 74
     0
 42
0.0000000001
 43
0.0000000001
 40
0.0
 40
0.0
 40
0.0
 40
0.0
 40
0.0833333333333333
 40
0.0833333333333333
 40
0.0833333333333333
 40
0.0833333333333333
 40
0.1666666666666667
 40
0.1666666666666667
 40
0.1666666666666667
 40
0.1666666666666667
 40
0.25
 40
0.25
 40
0.25
 40
0.25
 40
0.3333333333333333
 40
0.3333333333333333
 40
0.3333333333333333
 40
0.3333333333333333
 40
0.4166666666666666
 40
0.4166666666666666
 40
0.4166666666666666
 40
0.4166666666666666
 40
0.4999999999999999
 40
0.4999999999999999
 40
0.4999999999999999
 40
0.4999999999999999
 40
0.5833333333333333
 40
0.5833333333333333
 40
0.5833333333333333
 40
0.5833333333333333
 40
0.6666666666666666
 40
0.6666666666666666
 40
0.6666666666666666
 40
0.6666666666666666
 40
0.75
 40
0.75
 40
0.75
 40
0.75
 40
0.8333333333333334
 40
0.8333333333333334
 40
0.8333333333333334
 40
0.8333333333333334
 40
0.9166666666666667
 40
0.9166666666666667
 40
0.9166666666666667
 40
0.9166666666666667
 40
1.0
 40
1.0
 40
1.0
 40
1.0
 10
97.4346
 20
-100.8734
 30
0.0
 10
97.4346
 20
-100.8734
 30
0.0
 10
97.4346
 20
-73.75360000000001
 30
0.0
 10
97.4346
 20
-73.75360000000001
 30
0.0
 10
97.4346
 20
-73.75360000000001
 30
0.0
 10
97.4346
 20
-73.75360000000001
 30
0.0
 10
93.202
 20
-73.75360000000001
 30
0.0
 10
93.202
 20
-73.75360000000001
 30
0.0
 10
93.202
 20
-73.75360000000001
 30
0.0
 10
93.202
 20
-73.75360000000001
 30
0.0
 10
93.202
 20
-82.79340000000001
 30
0.0
 10
93.202
 20
-82.79340000000001
 30
0.0
 10
93.202
 20
-82.79340000000001
 30
0.0
 10
93.202
 20
-82.79340000000001
 30
0.0
 10
90.202
 20
-82.79340000000001
 30
0.0
 10
90.202
 20
-82.79340000000001
 30
0.0
 10
90.202
 20
-82.79340000000001
 30
0.0
 10
90.202
 20
-82.79340000000001
 30
0.0
 10
90.202
 20
-73.75360000000001
 30
0.0
 10
90.202
 20
-73.75360000000001
 30
0.0
 10
90.202
 20
-73.75360000000001
 30
0.0
 10
90.202
 20
-73.75360000000001
 30
0.0
 10
85.9693
 20
-73.75360000000001
 30
0.0
 10
85.9693
 20
-73.75360000000001
 30
0.0
 10
85.9693
 20
-73.75360000000001
 30
0.0
 10
85.9693
 20
-73.75360000000001
 30
0.0
 10
85.9693
 20
-90.9563
 30
0.0
 10
85.9693
 20
-90.9563
 30
0.0
 10
85.9693
 20
-90.9563
 30
0.0
 10
85.9693
 20
-90.9563
 30
0.0
 10
91.3695
 20
-90.4958
 30
0.0
 10
91.3695
 20
-90.4958
 30
0.0
 10
91.3695
 20
-90.4958
 30
0.0
 10
91.3695
 20
-90.4958
 30
0.0
 10
91.1768
 20
-93.48960000000001
 30
0.0
 10
91.1768
 20
-93.48960000000001
 30
0.0
 10
91.1768
 20
-93.48960000000001
 30
0.0
 10
91.1768
 20
-93.48960000000001
 30
0.0
 10
85.9693
 20
-93.96250000000001
 30
0.0
 10
85.9693
 20
-93.96250000000001
 30
0.0
 10
85.9693
 20
-93.96250000000001
 30
0.0
 10
85.9693
 20
-93.96250000000001
 30
0.0
 10
85.9693
 20
-100.8734
 30
0.0
 10
85.9693
 20
-100.8734
 30
0.0
 10
85.9693
 20
-100.8734
 30
0.0
 10
85.9693
 20
-100.8734
 30
0.0
 10
97.4346
 20
-100.8734
 30
0.0
 10
97.4346
 20
-100.8734
 30
0.0
  0
SPLINE
  5
9D
330
1F
100
AcDbEntity
  8
Capa 1
 62
     1
370
     0
100
AcDbSpline
210
0.0
220
0.0
230
1.0
 70
    11
 71
     3
 72
    68
 73
    64
 74
     0
 42
0.0000000001
 43
0.0000000001
 40
0.0
 40
0.0
 40
0.0
 40
0.0
 40
0.0625
 40
0.0625
 40
0.0625
 40
0.0625
 40
0.125
 40
0.125
 40
0.125
 40
0.125
 40
0.1875
 40
0.1875
 40
0.1875
 40
0.1875
 40
0.25
 40
0.25
 40
0.25
 40
0.25
 40
0.3125
 40
0.3125
 40
0.3125
 40
0.3125
 40
0.375
 40
0.375
 40
0.375
 40
0.375
 40
0.4375
 40
0.4375
 40
0.4375
 40
0.4375
 40
0.5
 40
0.5
 40
0.5
 40
0.5
 40
0.5625
 40
0.5625
 40
0.5625
 40
0.5625
 40
0.625
 40
0.625
 40
0.625
 40
0.625
 40
0.6875
 40
0.6875
 40
0.6875
 40
0.6875
 40
0.75
 40
0.75
 40
0.75
 40
0.75
 40
0.8125
 40
0.8125
 40
0.8125
 40
0.8125
 40
0.875
 40
0.875
 40
0.875
 40
0.875
 40
0.9375
 40
0.9375
 40
0.9375
 40
0.9375
 40
1.0
 40
1.0
 40
1.0
 40
1.0
 10
33.6615
 20
-54.0587
 30
0.0
 10
33.6615
 20
-54.0587
 30
0.0
 10
36.03910000000001
 20
-54.0587
 30
0.0
 10
36.03910000000001
 20
-54.0587
 30
0.0
 10
36.03910000000001
 20
-54.0587
 30
0.0
 10
36.03910000000001
 20
-54.0587
 30
0.0
 10
36.03910000000001
 20
-60.6511
 30
0.0
 10
36.03910000000001
 20
-60.6511
 30
0.0
 10
36.03910000000001
 20
-60.6511
 30
0.0
 10
36.03910000000001
 20
-60.6511
 30
0.0
 10
39.03910000000001
 20
-60.6511
 30
0.0
 10
39.03910000000001
 20
-60.6511
 30
0.0
 10
39.03910000000001
 20
-60.6511
 30
0.0
 10
39.03910000000001
 20
-60.6511
 30
0.0
 10
39.03910000000001
 20
-54.0587
 30
0.0
 10
39.03910000000001
 20
-54.0587
 30
0.0
 10
39.03910000000001
 20
-54.0587
 30
0.0
 10
39.03910000000001
 20
-54.0587
 30
0.0
 10
48.11960000000001
 20
-54.0587
 30
0.0
 10
48.11960000000001
 20
-54.0587
 30
0.0
 10
48.11960000000001
 20
-54.0587
 30
0.0
 10
49.1096
 20
-54.0587
 30
0.0
 10
49.9196
 20
-54.8687
 30
0.0
 10
49.9196
 20
-55.85870000000001
 30
0.0
 10
49.9196
 20
-55.85870000000001
 30
0.0
 10
49.9196
 20
-55.85870000000001
 30
0.0
 10
49.9196
 20
-59.9016
 30
0.0
 10
49.9196
 20
-59.9016
 30
0.0
 10
49.9196
 20
-59.9016
 30
0.0
 10
49.9196
 20
-59.9016
 30
0.0
 10
43.6167
 20
-59.9016
 30
0.0
 10
43.6167
 20
-59.9016
 30
0.0
 10
43.6167
 20
-59.9016
 30
0.0
 10
43.6167
 20
-59.9016
 30
0.0
 10
43.6167
 20
-62.9016
 30
0.0
 10
43.6167
 20
-62.9016
 30
0.0
 10
43.6167
 20
-62.9016
 30
0.0
 10
43.6167
 20
-62.9016
 30
0.0
 10
49.9196
 20
-62.9016
 30
0.0
 10
49.9196
 20
-62.9016
 30
0.0
 10
49.9196
 20
-62.9016
 30
0.0
 10
49.9196
 20
-62.9016
 30
0.0
 10
49.9196
 20
-64.8485
 30
0.0
 10
49.9196
 20
-64.8485
 30
0.0
 10
49.9196
 20
-64.8485
 30
0.0
 10
49.9196
 20
-65.8385
 30
0.0
 10
49.1096
 20
-66.6485
 30
0.0
 10
48.11960000000001
 20
-66.6485
 30
0.0
 10
48.11960000000001
 20
-66.6485
 30
0.0
 10
48.11960000000001
 20
-66.6485
 30
0.0
 10
33.6615
 20
-66.6485
 30
0.0
 10
33.6615
 20
-66.6485
 30
0.0
 10
33.6615
 20
-66.6485
 30
0.0
 10
32.6715
 20
-66.6485
 30
0.0
 10
31.8615
 20
-65.8385
 30
0.0
 10
31.8615
 20
-64.8485
 30
0.0
 10
31.8615
 20
-64.8485
 30
0.0
 10
31.8615
 20
-64.8485
 30
0.0
 10
31.8615
 20
-55.85870000000001
 30
0.0
 10
31.8615
 20
-55.85870000000001
 30
0.0
 10
31.8615
 20
-55.85870000000001
 30
0.0
 10
31.8615
 20
-54.8687
 30
0.0
 10
32.6715
 20
-54.0587
 30
0.0
 10
33.6615
 20
-54.0587
 30
0.0
  0
SPLINE
  5
9E
330
1F
100
AcDbEntity
  8
Capa 1
 62
     1
370
     0
100
AcDbSpline
210
0.0
220
0.0
230
1.0
 70
    11
 71
     3
 72
   100
 73
    96
 74
     0
 42
0.0000000001
 43
0.0000000001
 40
0.0
 40
0.0
 40
0.0
 40
0.0
 40
0.0416666666666667
 40
0.0416666666666667
 40
0.0416666666666667
 40
0.0416666666666667
 40
0.0833333333333333
 40
0.0833333333333333
 40
0.0833333333333333
 40
0.0833333333333333
 40
0.125
 40
0.125
 40
0.125
 40
0.125
 40
0.1666666666666667
 40
0.1666666666666667
 40
0.1666666666666667
 40
0.1666666666666667
 40
0.2083333333333333
 40
0.2083333333333333
 40
0.2083333333333333
 40
0.2083333333333333
 40
0.25
 40
0.25
 40
0.25
 40
0.25
 40
0.2916666666666666
 40
0.2916666666666666
 40
0.2916666666666666
 40
0.2916666666666666
 40
0.3333333333333333
 40
0.3333333333333333
 40
0.3333333333333333
 40
0.3333333333333333
 40
0.375
 40
0.375
 40
0.375
 40
0.375
 40
0.4166666666666667
 40
0.4166666666666667
 40
0.4166666666666667
 40
0.4166666666666667
 40
0.4583333333333334
 40
0.4583333333333334
 40
0.4583333333333334
 40
0.4583333333333334
 40
0.5
 40
0.5
 40
0.5
 40
0.5
 40
0.5416666666666666
 40
0.5416666666666666
 40
0.5416666666666666
 40
0.5416666666666666
 40
0.5833333333333333
 40
0.5833333333333333
 40
0.5833333333333333
 40
0.5833333333333333
 40
0.6249999999999999
 40
0.6249999999999999
 40
0.6249999999999999
 40
0.6249999999999999
 40
0.6666666666666665
 40
0.6666666666666665
 40
0.6666666666666665
 40
0.6666666666666665
 40
0.7083333333333332
 40
0.7083333333333332
 40
0.7083333333333332
 40
0.7083333333333332
 40
0.7499999999999998
 40
0.7499999999999998
 40
0.7499999999999998
 40
0.7499999999999998
 40
0.7916666666666664
 40
0.7916666666666664
 40
0.7916666666666664
 40
0.7916666666666664
 40
0.833333333333333
 40
0.833333333333333
 40
0.833333333333333
 40
0.833333333333333
 40
0.8749999999999997
 40
0.8749999999999997
 40
0.8749999999999997
 40
0.8749999999999997
 40
0.9166666666666663
 40
0.9166666666666663
 40
0.9166666666666663
 40
0.9166666666666663
 40
0.9583333333333329
 40
0.9583333333333329
 40
0.9583333333333329
 40
0.9583333333333329
 40
1.0
 40
1.0
 40
1.0
 40
1.0
 10
20.0516
 20
-48.9424
 30
0.0
 10
20.0516
 20
-48.9424
 30
0.0
 10
35.7502
 20
-48.9424
 30
0.0
 10
35.7502
 20
-48.9424
 30
0.0
 10
35.7502
 20
-48.9424
 30
0.0
 10
35.7502
 20
-48.9424
 30
0.0
 10
35.7502
 20
-45.1067
 30
0.0
 10
35.7502
 20
-45.1067
 30
0.0
 10
35.7502
 20
-45.1067
 30
0.0
 10
35.7502
 20
-45.1067
 30
0.0
 10
28.6947
 20
-45.1067
 30
0.0
 10
28.6947
 20
-45.1067
 30
0.0
 10
28.6947
 20
-45.1067
 30
0.0
 10
28.6947
 20
-45.1067
 30
0.0
 10
28.6947
 20
-42.1067
 30
0.0
 10
28.6947
 20
-42.1067
 30
0.0
 10
28.6947
 20
-42.1067
 30
0.0
 10
28.6947
 20
-42.1067
 30
0.0
 10
35.7502
 20
-42.1067
 30
0.0
 10
35.7502
 20
-42.1067
 30
0.0
 10
35.7502
 20
-42.1067
 30
0.0
 10
35.7502
 20
-42.1067
 30
0.0
 10
35.7502
 20
-27.6882
 30
0.0
 10
35.7502
 20
-27.6882
 30
0.0
 10
35.7502
 20
-27.6882
 30
0.0
 10
35.7502
 20
-27.6882
 30
0.0
 10
28.6947
 20
-27.6882
 30
0.0
 10
28.6947
 20
-27.6882
 30
0.0
 10
28.6947
 20
-27.6882
 30
0.0
 10
28.6947
 20
-27.6882
 30
0.0
 10
28.6947
 20
-24.6882
 30
0.0
 10
28.6947
 20
-24.6882
 30
0.0
 10
28.6947
 20
-24.6882
 30
0.0
 10
28.6947
 20
-24.6882
 30
0.0
 10
35.7502
 20
-24.6882
 30
0.0
 10
35.7502
 20
-24.6882
 30
0.0
 10
35.7502
 20
-24.6882
 30
0.0
 10
35.7502
 20
-24.6882
 30
0.0
 10
35.7502
 20
-10.2698
 30
0.0
 10
35.7502
 20
-10.2698
 30
0.0
 10
35.7502
 20
-10.2698
 30
0.0
 10
35.7502
 20
-10.2698
 30
0.0
 10
28.6947
 20
-10.2698
 30
0.0
 10
28.6947
 20
-10.2698
 30
0.0
 10
28.6947
 20
-10.2698
 30
0.0
 10
28.6947
 20
-10.2698
 30
0.0
 10
28.6947
 20
-7.2698
 30
0.0
 10
28.6947
 20
-7.2698
 30
0.0
 10
28.6947
 20
-7.2698
 30
0.0
 10
28.6947
 20
-7.2698
 30
0.0
 10
35.7502
 20
-7.2698
 30
0.0
 10
35.7502
 20
-7.2698
 30
0.0
 10
35.7502
 20
-7.2698
 30
0.0
 10
35.7502
 20
-7.2698
 30
0.0
 10
35.7502
 20
-3.434
 30
0.0
 10
35.7502
 20
-3.434
 30
0.0
 10
35.7502
 20
-3.434
 30
0.0
 10
35.7502
 20
-3.434
 30
0.0
 10
20.0516
 20
-3.434
 30
0.0
 10
20.0516
 20
-3.434
 30
0.0
 10
20.0516
 20
-3.434
 30
0.0
 10
20.0516
 20
-3.434
 30
0.0
 10
20.0516
 20
-21.5359
 30
0.0
 10
20.0516
 20
-21.5359
 30
0.0
 10
20.0516
 20
-21.5359
 30
0.0
 10
20.0516
 20
-21.5359
 30
0.0
 10
13.7234
 20
-21.5359
 30
0.0
 10
13.7234
 20
-21.5359
 30
0.0
 10
13.7234
 20
-21.5359
 30
0.0
 10
13.7234
 20
-21.5359
 30
0.0
 10
13.7234
 20
-30.9948
 30
0.0
 10
13.7234
 20
-30.9948
 30
0.0
 10
13.7234
 20
-30.9948
 30
0.0
 10
13.7234
 20
-30.9948
 30
0.0
 10
13.2801
 20
-32.9791
 30
0.0
 10
17.0516
 20
-32.6043
 30
0.0
 10
17.0516
 20
-32.6043
 30
0.0
 10
17.0516
 20
-32.6043
 30
0.0
 10
17.0516
 20
-27.4009
 30
0.0
 10
17.0516
 20
-27.4009
 30
0.0
 10
17.0516
 20
-27.4009
 30
0.0
 10
17.0516
 20
-27.4009
 30
0.0
 10
20.0516
 20
-27.4009
 30
0.0
 10
20.0516
 20
-27.4009
 30
0.0
 10
20.0516
 20
-27.4009
 30
0.0
 10
20.0516
 20
-27.4009
 30
0.0
 10
20.0516
 20
-32.478
 30
0.0
 10
20.0516
 20
-32.478
 30
0.0
 10
20.0516
 20
-32.478
 30
0.0
 10
20.0516
 20
-32.478
 30
0.0
 10
20.0516
 20
-43.0995
 30
0.0
 10
20.0516
 20
-43.0995
 30
0.0
 10
20.0516
 20
-43.0995
 30
0.0
 10
20.0516
 20
-43.0995
 30
0.0
 10
20.0516
 20
-48.9424
 30
0.0
 10
20.0516
 20
-48.9424
 30
0.0
  0
SPLINE
  5
9F
330
1F
100
AcDbEntity
  8
Capa 1
 62
     1
370
     0
100
AcDbSpline
210
0.0
220
0.0
230
1.0
 70
    11
 71
     3
 72
    36
 73
    32
 74
     0
 42
0.0000000001
 43
0.0000000001
 40
0.0
 40
0.0
 40
0.0
 40
0.0
 40
0.125
 40
0.125
 40
0.125
 40
0.125
 40
0.25
 40
0.25
 40
0.25
 40
0.25
 40
0.375
 40
0.375
 40
0.375
 40
0.375
 40
0.5
 40
0.5
 40
0.5
 40
0.5
 40
0.625
 40
0.625
 40
0.625
 40
0.625
 40
0.75
 40
0.75
 40
0.75
 40
0.75
 40
0.875
 40
0.875
 40
0.875
 40
0.875
 40
1.0
 40
1.0
 40
1.0
 40
1.0
 10
64.6276
 20
-10.0927
 30
0.0
 10
64.6276
 20
-10.0927
 30
0.0
 10
82.13430000000001
 20
-10.0927
 30
0.0
 10
82.13430000000001
 20
-10.0927
 30
0.0
 10
82.13430000000001
 20
-10.0927
 30
0.0
 10
82.13430000000001
 20
-10.0927
 30
0.0
 10
82.13430000000001
 20
-23.1455
 30
0.0
 10
82.13430000000001
 20
-23.1455
 30
0.0
 10
82.13430000000001
 20
-23.1455
 30
0.0
 10
82.13430000000001
 20
-23.1455
 30
0.0
 10
75.3446
 20
-23.1455
 30
0.0
 10
75.3446
 20
-23.1455
 30
0.0
 10
75.3446
 20
-23.1455
 30
0.0
 10
75.3446
 20
-23.1455
 30
0.0
 10
75.3446
 20
-15.1198
 30
0.0
 10
75.3446
 20
-15.1198
 30
0.0
 10
75.3446
 20
-15.1198
 30
0.0
 10
75.3446
 20
-15.1198
 30
0.0
 10
69.3446
 20
-15.1198
 30
0.0
 10
69.3446
 20
-15.1198
 30
0.0
 10
69.3446
 20
-15.1198
 30
0.0
 10
69.3446
 20
-15.1198
 30
0.0
 10
69.3446
 20
-23.1455
 30
0.0
 10
69.3446
 20
-23.1455
 30
0.0
 10
69.3446
 20
-23.1455
 30
0.0
 10
69.3446
 20
-23.1455
 30
0.0
 10
64.6276
 20
-23.1455
 30
0.0
 10
64.6276
 20
-23.1455
 30
0.0
 10
64.6276
 20
-23.1455
 30
0.0
 10
64.6276
 20
-23.1455
 30
0.0
 10
64.6276
 20
-10.0927
 30
0.0
 10
64.6276
 20
-10.0927
 30
0.0
  0
SPLINE
  5
A0
330
1F
100
AcDbEntity
  8
Capa 1
 62
     1
370
     0
100
AcDbSpline
210
0.0
220
0.0
230
1.0
 70
    11
 71
     3
 72
    60
 73
    56
 74
     0
 42
0.0000000001
 43
0.0000000001
 40
0.0
 40
0.0
 40
0.0
 40
0.0
 40
0.0714285714285714
 40
0.0714285714285714
 40
0.0714285714285714
 40
0.0714285714285714
 40
0.1428571428571429
 40
0.1428571428571429
 40
0.1428571428571429
 40
0.1428571428571429
 40
0.2142857142857143
 40
0.2142857142857143
 40
0.2142857142857143
 40
0.2142857142857143
 40
0.2857142857142857
 40
0.2857142857142857
 40
0.2857142857142857
 40
0.2857142857142857
 40
0.3571428571428571
 40
0.3571428571428571
 40
0.3571428571428571
 40
0.3571428571428571
 40
0.4285714285714285
 40
0.4285714285714285
 40
0.4285714285714285
 40
0.4285714285714285
 40
0.4999999999999999
 40
0.4999999999999999
 40
0.4999999999999999
 40
0.4999999999999999
 40
0.5714285714285713
 40
0.5714285714285713
 40
0.5714285714285713
 40
0.5714285714285713
 40
0.6428571428571427
 40
0.6428571428571427
 40
0.6428571428571427
 40
0.6428571428571427
 40
0.7142857142857141
 40
0.7142857142857141
 40
0.7142857142857141
 40
0.7142857142857141
 40
0.7857142857142855
 40
0.7857142857142855
 40
0.7857142857142855
 40
0.7857142857142855
 40
0.8571428571428569
 40
0.8571428571428569
 40
0.8571428571428569
 40
0.8571428571428569
 40
0.9285714285714283
 40
0.9285714285714283
 40
0.9285714285714283
 40
0.9285714285714283
 40
1.0
 40
1.0
 40
1.0
 40
1.0
 10
42.3131
 20
74.9714
 30
0.0
 10
42.3131
 20
74.9714
 30
0.0
 10
42.70990000000001
 20
79.11660000000001
 30
0.0
 10
46.7669
 20
79.20480000000001
 30
0.0
 10
46.7669
 20
79.20480000000001
 30
0.0
 10
46.7669
 20
79.20480000000001
 30
0.0
 10
47.69300000000001
 20
76.9999
 30
0.0
 10
47.69300000000001
 20
76.9999
 30
0.0
 10
47.69300000000001
 20
76.9999
 30
0.0
 10
47.69300000000001
 20
76.9999
 30
0.0
 10
50.4711
 20
78.0583
 30
0.0
 10
50.4711
 20
78.0583
 30
0.0
 10
50.4711
 20
78.0583
 30
0.0
 10
50.4711
 20
78.0583
 30
0.0
 10
51.9268
 20
74.46290000000001
 30
0.0
 10
51.9268
 20
74.46290000000001
 30
0.0
 10
51.9268
 20
74.46290000000001
 30
0.0
 10
51.9268
 20
74.46290000000001
 30
0.0
 10
48.619
 20
73.16340000000001
 30
0.0
 10
48.619
 20
73.16340000000001
 30
0.0
 10
48.619
 20
73.16340000000001
 30
0.0
 10
48.619
 20
73.16340000000001
 30
0.0
 10
50.9562
 20
64.47630000000001
 30
0.0
 10
50.9562
 20
64.47630000000001
 30
0.0
 10
50.9562
 20
64.47630000000001
 30
0.0
 10
50.9562
 20
64.47630000000001
 30
0.0
 10
52.8524
 20
64.43220000000001
 30
0.0
 10
52.8524
 20
64.43220000000001
 30
0.0
 10
52.8524
 20
64.43220000000001
 30
0.0
 10
52.8524
 20
64.43220000000001
 30
0.0
 10
52.8811
 20
62.91200000000001
 30
0.0
 10
52.90750000000001
 20
60.9705
 30
0.0
 10
52.90750000000001
 20
60.9705
 30
0.0
 10
52.90750000000001
 20
60.9705
 30
0.0
 10
47.69300000000001
 20
60.9705
 30
0.0
 10
47.69300000000001
 20
60.9705
 30
0.0
 10
47.69300000000001
 20
60.9705
 30
0.0
 10
47.69300000000001
 20
60.9705
 30
0.0
 10
47.69300000000001
 20
58.01600000000001
 30
0.0
 10
47.69300000000001
 20
58.01600000000001
 30
0.0
 10
47.69300000000001
 20
58.01600000000001
 30
0.0
 10
47.69300000000001
 20
58.01600000000001
 30
0.0
 10
52.9403
 20
58.01600000000001
 30
0.0
 10
52.9403
 20
58.01600000000001
 30
0.0
 10
52.9403
 20
58.01600000000001
 30
0.0
 10
52.9621
 20
55.317
 30
0.0
 10
52.9551
 20
52.79040000000001
 30
0.0
 10
52.8524
 20
52.79040000000001
 30
0.0
 10
52.8524
 20
52.79040000000001
 30
0.0
 10
52.6319
 20
52.79040000000001
 30
0.0
 10
42.4013
 20
52.79040000000001
 30
0.0
 10
42.4013
 20
52.79040000000001
 30
0.0
 10
42.4013
 20
52.79040000000001
 30
0.0
 10
42.4013
 20
52.79040000000001
 30
0.0
 10
42.3131
 20
74.9714
 30
0.0
 10
42.3131
 20
74.9714
 30
0.0
  0
ENDSEC
  0
SECTION
  2
OBJECTS
  0
DICTIONARY
  5
C
330
0
100
AcDbDictionary
281
     1
  3
ACAD_GROUP
350
D
  3
ACAD_LAYOUT
350
1A
  3
ACAD_MLINESTYLE
350
17
  3
ACAD_PLOTSETTINGS
350
19
  3
ACAD_PLOTSTYLENAME
350
E
  0
DICTIONARY
  5
D
102
{ACAD_REACTORS
330
C
102
}
330
C
100
AcDbDictionary
281
     1
  0
DICTIONARY
  5
1A
102
{ACAD_REACTORS
330
C
102
}
330
C
100
AcDbDictionary
281
     1
  3
Layout1
350
1E
  3
Layout2
350
26
  3
Model
350
22
  0
DICTIONARY
  5
17
102
{ACAD_REACTORS
330
C
102
}
330
C
100
AcDbDictionary
281
     1
  3
Standard
350
18
  0
DICTIONARY
  5
19
102
{ACAD_REACTORS
330
C
102
}
330
C
100
AcDbDictionary
281
     1
  0
ACDBDICTIONARYWDFLT
  5
E
102
{ACAD_REACTORS
330
C
102
}
330
C
100
AcDbDictionary
281
     1
  3
Normal
350
F
100
AcDbDictionaryWithDefault
340
F
  0
LAYOUT
  5
1E
102
{ACAD_REACTORS
330
1A
102
}
330
1A
100
AcDbPlotSettings
  1

  2

  4

  6

 40
0.0
 41
0.0
 42
0.0
 43
0.0
 44
0.0
 45
0.0
 46
0.0
 47
0.0
 48
0.0
 49
0.0
140
0.0
141
0.0
142
1.0
143
1.0
 70
   688
 72
     0
 73
     0
 74
     5
  7

 75
    16
 76
     0
 77
     2
 78
   300
147
1.0
148
0.0
149
0.0
100
AcDbLayout
  1
Layout1
 70
     1
 71
     1
 10
0.0
 20
0.0
 11
12.0
 21
9.0
 12
0.0
 22
0.0
 32
0.0
 14
1.000000000000000E+20
 24
1.000000000000000E+20
 34
1.000000000000000E+20
 15
-1.000000000000000E+20
 25
-1.000000000000000E+20
 35
-1.000000000000000E+20
146
0.0
 13
0.0
 23
0.0
 33
0.0
 16
1.0
 26
0.0
 36
0.0
 17
0.0
 27
1.0
 37
0.0
 76
     0
330
1B
  0
LAYOUT
  5
26
102
{ACAD_REACTORS
330
1A
102
}
330
1A
100
AcDbPlotSettings
  1

  2

  4

  6

 40
0.0
 41
0.0
 42
0.0
 43
0.0
 44
0.0
 45
0.0
 46
0.0
 47
0.0
 48
0.0
 49
0.0
140
0.0
141
0.0
142
1.0
143
1.0
 70
   688
 72
     0
 73
     0
 74
     5
  7

 75
    16
 76
     0
 77
     2
 78
   300
147
1.0
148
0.0
149
0.0
100
AcDbLayout
  1
Layout2
 70
     1
 71
     2
 10
0.0
 20
0.0
 11
0.0
 21
0.0
 12
0.0
 22
0.0
 32
0.0
 14
0.0
 24
0.0
 34
0.0
 15
0.0
 25
0.0
 35
0.0
146
0.0
 13
0.0
 23
0.0
 33
0.0
 16
1.0
 26
0.0
 36
0.0
 17
0.0
 27
1.0
 37
0.0
 76
     0
330
23
  0
LAYOUT
  5
22
102
{ACAD_REACTORS
330
1A
102
}
330
1A
100
AcDbPlotSettings
  1

  2

  4

  6

 40
0.0
 41
0.0
 42
0.0
 43
0.0
 44
0.0
 45
0.0
 46
0.0
 47
0.0
 48
0.0
 49
0.0
140
0.0
141
0.0
142
1.0
143
1.0
 70
  1712
 72
     0
 73
     0
 74
     0
  7

 75
     0
 76
     0
 77
     2
 78
   300
147
1.0
148
0.0
149
0.0
100
AcDbLayout
  1
Model
 70
     1
 71
     0
 10
0.0
 20
0.0
 11
0.0
 21
0.0
 12
0.0
 22
0.0
 32
0.0
 14
-209.6428
 24
-101.1234
 34
0.0
 15
143.6325
 25
332.8609
 35
0.0
146
0.0
 13
0.0
 23
0.0
 33
0.0
 16
1.0
 26
0.0
 36
0.0
 17
0.0
 27
1.0
 37
0.0
 76
     0
330
1F
  0
MLINESTYLE
  5
18
102
{ACAD_REACTORS
330
17
102
}
330
17
100
AcDbMlineStyle
  2
Standard
 70
     0
  3

 62
   256
 51
90.0
 52
90.0
 71
     2
 49
0.5
 62
   256
  6
BYLAYER
 49
-0.5
 62
   256
  6
BYLAYER
  0
ACDBPLACEHOLDER
  5
F
102
{ACAD_REACTORS
330
E
102
}
330
E
  0
ENDSEC
  0
EOF
