  0
SECTION
  2
ENTITIES
  0
LINE
  8
APS_GEOMETR�
 10
4780.767479
 11
4780.767479
 20
568.347895
 21
463.347895
  0
LINE
  8
APS_GEOMETR�
 10
4780.767479
 11
4791.267479
 20
463.347895
 21
463.347895
  0
LINE
  8
APS_GEOMETR�
 10
4791.267479
 11
4791.267479
 20
463.347895
 21
568.347895
  0
LINE
  8
APS_GEOMETR�
 10
4791.267479
 11
4780.767479
 20
568.347895
 21
568.347895
  0
LINE
  8
APS_GEOMETR�
 10
4780.767479
 11
4780.767479
 20
973.347895
 21
868.347895
  0
LINE
  8
APS_GEOMETR�
 10
4780.767479
 11
4791.267479
 20
868.347895
 21
868.347895
  0
LINE
  8
APS_GEOMETR�
 10
4791.267479
 11
4791.267479
 20
868.347895
 21
973.347895
  0
LINE
  8
APS_GEOMETR�
 10
4791.267479
 11
4780.767479
 20
973.347895
 21
973.347895
  0
LINE
  8
APS_GEOMETR�
 10
5440.767479
 11
5440.767479
 20
568.347895
 21
463.347895
  0
LINE
  8
APS_GEOMETR�
 10
5440.767479
 11
5430.267479
 20
463.347895
 21
463.347895
  0
LINE
  8
APS_GEOMETR�
 10
5430.267479
 11
5430.267479
 20
463.347895
 21
568.347895
  0
LINE
  8
APS_GEOMETR�
 10
5430.267479
 11
5440.767479
 20
568.347895
 21
568.347895
  0
LINE
  8
APS_GEOMETR�
 10
5440.767479
 11
5440.767479
 20
973.347895
 21
868.347895
  0
LINE
  8
APS_GEOMETR�
 10
5440.767479
 11
5430.267479
 20
868.347895
 21
868.347895
  0
LINE
  8
APS_GEOMETR�
 10
5430.267479
 11
5430.267479
 20
868.347895
 21
973.347895
  0
LINE
  8
APS_GEOMETR�
 10
5430.267479
 11
5440.767479
 20
973.347895
 21
973.347895
  0
LINE
  8
APS_GEOMETR�
 10
4860.767479
 11
4965.767479
 20
413.347895
 21
413.347895
  0
LINE
  8
APS_GEOMETR�
 10
4965.767479
 11
4965.767479
 20
413.347895
 21
423.847895
  0
LINE
  8
APS_GEOMETR�
 10
4965.767479
 11
4860.767479
 20
423.847895
 21
423.847895
  0
LINE
  8
APS_GEOMETR�
 10
4860.767479
 11
4860.767479
 20
423.847895
 21
413.347895
  0
LINE
  8
APS_GEOMETR�
 10
4860.767479
 11
4965.767479
 20
563.347895
 21
563.347895
  0
LINE
  8
APS_GEOMETR�
 10
4965.767479
 11
4965.767479
 20
563.347895
 21
573.847895
  0
LINE
  8
APS_GEOMETR�
 10
4965.767479
 11
4860.767479
 20
573.847895
 21
573.847895
  0
LINE
  8
APS_GEOMETR�
 10
4860.767479
 11
4860.767479
 20
573.847895
 21
563.347895
  0
LINE
  8
APS_GEOMETR�
 10
5360.767479
 11
5255.767479
 20
413.347895
 21
413.347895
  0
LINE
  8
APS_GEOMETR�
 10
5255.767479
 11
5255.767479
 20
413.347895
 21
423.847895
  0
LINE
  8
APS_GEOMETR�
 10
5255.767479
 11
5360.767479
 20
423.847895
 21
423.847895
  0
LINE
  8
APS_GEOMETR�
 10
5360.767479
 11
5360.767479
 20
423.847895
 21
413.347895
  0
LINE
  8
APS_GEOMETR�
 10
5360.767479
 11
5255.767479
 20
563.347895
 21
563.347895
  0
LINE
  8
APS_GEOMETR�
 10
5255.767479
 11
5255.767479
 20
563.347895
 21
573.847895
  0
LINE
  8
APS_GEOMETR�
 10
5255.767479
 11
5360.767479
 20
573.847895
 21
573.847895
  0
LINE
  8
APS_GEOMETR�
 10
5360.767479
 11
5360.767479
 20
573.847895
 21
563.347895
  0
LINE
  8
APS_GEOMETR�
 10
4980.767479
 11
4980.767479
 20
1056.084527
 21
733.347895
  0
ARC
  8
APS_GEOMETR�
 10
4960.767479
 20
733.347895
 40
20.0
 50
180.0
 51
0.0
  0
LINE
  8
APS_GEOMETR�
 10
4940.767479
 11
4940.767479
 20
733.347895
 21
1056.084527
  0
ARC
  8
APS_GEOMETR�
 10
4960.767479
 20
1056.084527
 40
20.0
 50
0.0
 51
180.0
  0
LINE
  8
APS_GEOMETR�
 10
5060.767479
 11
5060.767479
 20
1061.768992
 21
733.347895
  0
ARC
  8
APS_GEOMETR�
 10
5040.767479
 20
733.347895
 40
20.0
 50
180.0
 51
0.0
  0
LINE
  8
APS_GEOMETR�
 10
5020.767479
 11
5020.767479
 20
733.347895
 21
1061.768992
  0
ARC
  8
APS_GEOMETR�
 10
5040.767479
 20
1061.768992
 40
20.0
 50
0.0
 51
180.0
  0
LINE
  8
APS_GEOMETR�
 10
4900.767479
 11
4900.767479
 20
733.347895
 21
1046.216336
  0
ARC
  8
APS_GEOMETR�
 10
4880.767479
 20
1046.216336
 40
20.0
 50
0.0
 51
180.0
  0
LINE
  8
APS_GEOMETR�
 10
4860.767479
 11
4860.767479
 20
1046.216336
 21
733.347895
  0
ARC
  8
APS_GEOMETR�
 10
4880.767479
 20
733.347895
 40
20.0
 50
180.0
 51
0.0
  0
LINE
  8
APS_GEOMETR�
 10
5240.767479
 11
5240.767479
 20
1056.084527
 21
733.347895
  0
ARC
  8
APS_GEOMETR�
 10
5260.767479
 20
733.347895
 40
20.0
 50
180.0
 51
0.0
  0
LINE
  8
APS_GEOMETR�
 10
5280.767479
 11
5280.767479
 20
733.347895
 21
1056.084527
  0
ARC
  8
APS_GEOMETR�
 10
5260.767479
 20
1056.084527
 40
20.0
 50
0.0
 51
180.0
  0
LINE
  8
APS_GEOMETR�
 10
5160.767479
 11
5160.767479
 20
1061.768992
 21
733.347895
  0
ARC
  8
APS_GEOMETR�
 10
5180.767479
 20
733.347895
 40
20.0
 50
180.0
 51
0.0
  0
LINE
  8
APS_GEOMETR�
 10
5200.767479
 11
5200.767479
 20
733.347895
 21
1061.768992
  0
ARC
  8
APS_GEOMETR�
 10
5180.767479
 20
1061.768992
 40
20.0
 50
0.0
 51
180.0
  0
LINE
  8
APS_GEOMETR�
 10
5320.767479
 11
5320.767479
 20
733.347895
 21
1046.216336
  0
ARC
  8
APS_GEOMETR�
 10
5340.767479
 20
1046.216336
 40
20.0
 50
0.0
 51
180.0
  0
LINE
  8
APS_GEOMETR�
 10
5360.767479
 11
5360.767479
 20
1046.216336
 21
733.347895
  0
ARC
  8
APS_GEOMETR�
 10
5340.767479
 20
733.347895
 40
20.0
 50
180.0
 51
0.0
  0
LINE
  8
APS_GEOMETR�
 10
5060.767479
 11
5160.767479
 20
1113.347895
 21
1113.347895
  0
ARC
  8
APS_GEOMETR�
 10
5160.767479
 20
1138.347895
 40
25.0
 50
270.0
 51
90.0
  0
LINE
  8
APS_GEOMETR�
 10
5160.767479
 11
5060.767479
 20
1163.347895
 21
1163.347895
  0
ARC
  8
APS_GEOMETR�
 10
5060.767479
 20
1138.347895
 40
25.0
 50
90.0
 51
270.0
  0
LINE
  8
APS_GEOMETR�
 10
5110.767479
 11
4810.767479
 20
1213.347895
 21
1213.347895
  0
ARC
  8
APS_GEOMETR�
 10
4810.767479
 20
1163.347895
 40
50.0
 50
90.0
 51
180.0
  0
LINE
  8
APS_GEOMETR�
 10
4760.767479
 11
4760.767479
 20
1163.347895
 21
308.347895
  0
ARC
  8
APS_GEOMETR�
 10
4745.767479
 20
308.347895
 40
15.0
 50
270.0
 51
0.0
  0
ARC
  8
APS_GEOMETR�
 10
4745.767479
 20
278.347895
 40
15.0
 50
90.0
 51
180.0
  0
LINE
  8
APS_GEOMETR�
 10
4730.767479
 11
4730.767479
 20
278.347895
 21
269.096253
  0
ARC
  8
APS_GEOMETR�
 10
4760.767479
 20
269.096253
 40
30.0
 50
180.0
 51
261.585032
  0
ARC
  8
APS_GEOMETR�
 10
5110.767479
 20
2635.014562
 40
2421.666667
 50
261.585032
 51
278.414968
  0
ARC
  8
APS_GEOMETR�
 10
5460.767479
 20
269.096253
 40
30.0
 50
278.414968
 51
0.0
  0
LINE
  8
APS_GEOMETR�
 10
5490.767479
 11
5490.767479
 20
269.096253
 21
278.347895
  0
ARC
  8
APS_GEOMETR�
 10
5475.767479
 20
278.347895
 40
15.0
 50
0.0
 51
90.0
  0
ARC
  8
APS_GEOMETR�
 10
5475.767479
 20
308.347895
 40
15.0
 50
180.0
 51
270.0
  0
LINE
  8
APS_GEOMETR�
 10
5460.767479
 11
5460.767479
 20
308.347895
 21
1163.347895
  0
ARC
  8
APS_GEOMETR�
 10
5410.767479
 20
1163.347895
 40
50.0
 50
0.0
 51
90.0
  0
LINE
  8
APS_GEOMETR�
 10
5410.767479
 11
5110.767479
 20
1213.347895
 21
1213.347895
  0
LINE
  8
APS_GEOMETR�
 10
6989.217782
 11
6989.217782
 20
547.542832
 21
692.542832
  0
LINE
  8
APS_GEOMETR�
 10
6989.217782
 11
6999.217782
 20
692.542832
 21
692.542832
  0
ARC
  8
APS_GEOMETR�
 10
6999.217782
 20
722.542832
 40
30.0
 50
270.0
 51
0.0
  0
LINE
  8
APS_GEOMETR�
 10
7029.217782
 11
7029.217782
 20
722.542832
 21
762.542832
  0
ARC
  8
APS_GEOMETR�
 10
6999.217782
 20
762.542832
 40
30.0
 50
0.0
 51
90.0
  0
LINE
  8
APS_GEOMETR�
 10
6999.217782
 11
6989.217782
 20
792.542832
 21
792.542832
  0
LINE
  8
APS_GEOMETR�
 10
6989.217782
 11
6989.217782
 20
792.542832
 21
886.542832
  0
LINE
  8
APS_GEOMETR�
 10
6989.217782
 11
6647.717782
 20
886.542832
 21
886.542832
  0
LINE
  8
APS_GEOMETR�
 10
6647.717782
 11
6647.717782
 20
886.542832
 21
896.542832
  0
ARC
  8
APS_GEOMETR�
 10
6617.717782
 20
896.542832
 40
30.0
 50
0.0
 51
90.0
  0
LINE
  8
APS_GEOMETR�
 10
6617.717782
 11
6577.717782
 20
926.542832
 21
926.542832
  0
ARC
  8
APS_GEOMETR�
 10
6577.717782
 20
896.542832
 40
30.0
 50
90.0
 51
180.0
  0
LINE
  8
APS_GEOMETR�
 10
6547.717782
 11
6547.717782
 20
896.542832
 21
886.542832
  0
LINE
  8
APS_GEOMETR�
 10
6547.717782
 11
6252.717782
 20
886.542832
 21
886.542832
  0
LINE
  8
APS_GEOMETR�
 10
6252.717782
 11
6252.717782
 20
886.542832
 21
896.542832
  0
ARC
  8
APS_GEOMETR�
 10
6222.717782
 20
896.542832
 40
30.0
 50
0.0
 51
90.0
  0
LINE
  8
APS_GEOMETR�
 10
6222.717782
 11
6182.717782
 20
926.542832
 21
926.542832
  0
ARC
  8
APS_GEOMETR�
 10
6182.717782
 20
896.542832
 40
30.0
 50
90.0
 51
180.0
  0
LINE
  8
APS_GEOMETR�
 10
6152.717782
 11
6152.717782
 20
896.542832
 21
886.542832
  0
LINE
  8
APS_GEOMETR�
 10
6152.717782
 11
5811.217782
 20
886.542832
 21
886.542832
  0
LINE
  8
APS_GEOMETR�
 10
5811.217782
 11
5811.217782
 20
886.542832
 21
792.542832
  0
LINE
  8
APS_GEOMETR�
 10
5811.217782
 11
5801.217782
 20
792.542832
 21
792.542832
  0
ARC
  8
APS_GEOMETR�
 10
5801.217782
 20
762.542832
 40
30.0
 50
90.0
 51
180.0
  0
LINE
  8
APS_GEOMETR�
 10
5771.217782
 11
5771.217782
 20
762.542832
 21
722.542832
  0
ARC
  8
APS_GEOMETR�
 10
5801.217782
 20
722.542832
 40
30.0
 50
180.0
 51
270.0
  0
LINE
  8
APS_GEOMETR�
 10
5801.217782
 11
5811.217782
 20
692.542832
 21
692.542832
  0
LINE
  8
APS_GEOMETR�
 10
5811.217782
 11
5811.217782
 20
692.542832
 21
402.542832
  0
LINE
  8
APS_GEOMETR�
 10
5811.217782
 11
5801.217782
 20
402.542832
 21
402.542832
  0
ARC
  8
APS_GEOMETR�
 10
5801.217782
 20
372.542832
 40
30.0
 50
90.0
 51
180.0
  0
LINE
  8
APS_GEOMETR�
 10
5771.217782
 11
5771.217782
 20
372.542832
 21
332.542832
  0
ARC
  8
APS_GEOMETR�
 10
5801.217782
 20
332.542832
 40
30.0
 50
180.0
 51
270.0
  0
LINE
  8
APS_GEOMETR�
 10
5801.217782
 11
5811.217782
 20
302.542832
 21
302.542832
  0
LINE
  8
APS_GEOMETR�
 10
5811.217782
 11
5811.217782
 20
302.542832
 21
208.542832
  0
LINE
  8
APS_GEOMETR�
 10
5811.217782
 11
6152.717782
 20
208.542832
 21
208.542832
  0
LINE
  8
APS_GEOMETR�
 10
6152.717782
 11
6152.717782
 20
208.542832
 21
198.542832
  0
ARC
  8
APS_GEOMETR�
 10
6182.717782
 20
198.542832
 40
30.0
 50
180.0
 51
270.0
  0
LINE
  8
APS_GEOMETR�
 10
6182.717782
 11
6222.717782
 20
168.542832
 21
168.542832
  0
ARC
  8
APS_GEOMETR�
 10
6222.717782
 20
198.542832
 40
30.0
 50
270.0
 51
0.0
  0
LINE
  8
APS_GEOMETR�
 10
6252.717782
 11
6252.717782
 20
198.542832
 21
208.542832
  0
LINE
  8
APS_GEOMETR�
 10
6252.717782
 11
6547.717782
 20
208.542832
 21
208.542832
  0
LINE
  8
APS_GEOMETR�
 10
6547.717782
 11
6547.717782
 20
208.542832
 21
198.542832
  0
ARC
  8
APS_GEOMETR�
 10
6577.717782
 20
198.542832
 40
30.0
 50
180.0
 51
270.0
  0
LINE
  8
APS_GEOMETR�
 10
6577.717782
 11
6617.717782
 20
168.542832
 21
168.542832
  0
ARC
  8
APS_GEOMETR�
 10
6617.717782
 20
198.542832
 40
30.0
 50
270.0
 51
0.0
  0
LINE
  8
APS_GEOMETR�
 10
6647.717782
 11
6647.717782
 20
198.542832
 21
208.542832
  0
LINE
  8
APS_GEOMETR�
 10
6647.717782
 11
6989.217782
 20
208.542832
 21
208.542832
  0
LINE
  8
APS_GEOMETR�
 10
6989.217782
 11
6989.217782
 20
208.542832
 21
302.542832
  0
LINE
  8
APS_GEOMETR�
 10
6989.217782
 11
6999.217782
 20
302.542832
 21
302.542832
  0
ARC
  8
APS_GEOMETR�
 10
6999.217782
 20
332.542832
 40
30.0
 50
270.0
 51
0.0
  0
LINE
  8
APS_GEOMETR�
 10
7029.217782
 11
7029.217782
 20
332.542832
 21
372.542832
  0
ARC
  8
APS_GEOMETR�
 10
6999.217782
 20
372.542832
 40
30.0
 50
0.0
 51
90.0
  0
LINE
  8
APS_GEOMETR�
 10
6999.217782
 11
6989.217782
 20
402.542832
 21
402.542832
  0
LINE
  8
APS_GEOMETR�
 10
6989.217782
 11
6989.217782
 20
402.542832
 21
547.542832
  0
LINE
  8
APS_GEOMETR�
 10
5788.717782
 11
5799.217782
 20
717.542832
 21
717.542832
  0
LINE
  8
APS_GEOMETR�
 10
5799.217782
 11
5799.217782
 20
717.542832
 21
767.542832
  0
LINE
  8
APS_GEOMETR�
 10
5799.217782
 11
5788.717782
 20
767.542832
 21
767.542832
  0
LINE
  8
APS_GEOMETR�
 10
5788.717782
 11
5788.717782
 20
767.542832
 21
717.542832
  0
LINE
  8
APS_GEOMETR�
 10
5788.717782
 11
5799.217782
 20
327.542832
 21
327.542832
  0
LINE
  8
APS_GEOMETR�
 10
5799.217782
 11
5799.217782
 20
327.542832
 21
377.542832
  0
LINE
  8
APS_GEOMETR�
 10
5799.217782
 11
5788.717782
 20
377.542832
 21
377.542832
  0
LINE
  8
APS_GEOMETR�
 10
5788.717782
 11
5788.717782
 20
377.542832
 21
327.542832
  0
LINE
  8
APS_GEOMETR�
 10
7011.717782
 11
7001.217782
 20
717.542832
 21
717.542832
  0
LINE
  8
APS_GEOMETR�
 10
7001.217782
 11
7001.217782
 20
717.542832
 21
767.542832
  0
LINE
  8
APS_GEOMETR�
 10
7001.217782
 11
7011.717782
 20
767.542832
 21
767.542832
  0
LINE
  8
APS_GEOMETR�
 10
7011.717782
 11
7011.717782
 20
767.542832
 21
717.542832
  0
LINE
  8
APS_GEOMETR�
 10
7011.717782
 11
7001.217782
 20
327.542832
 21
327.542832
  0
LINE
  8
APS_GEOMETR�
 10
7001.217782
 11
7001.217782
 20
327.542832
 21
377.542832
  0
LINE
  8
APS_GEOMETR�
 10
7001.217782
 11
7011.717782
 20
377.542832
 21
377.542832
  0
LINE
  8
APS_GEOMETR�
 10
7011.717782
 11
7011.717782
 20
377.542832
 21
327.542832
  0
LINE
  8
APS_GEOMETR�
 10
6227.717782
 11
6227.717782
 20
186.042832
 21
196.542832
  0
LINE
  8
APS_GEOMETR�
 10
6227.717782
 11
6177.717782
 20
196.542832
 21
196.542832
  0
LINE
  8
APS_GEOMETR�
 10
6177.717782
 11
6177.717782
 20
196.542832
 21
186.042832
  0
LINE
  8
APS_GEOMETR�
 10
6177.717782
 11
6227.717782
 20
186.042832
 21
186.042832
  0
LINE
  8
APS_GEOMETR�
 10
6622.717782
 11
6622.717782
 20
186.042832
 21
196.542832
  0
LINE
  8
APS_GEOMETR�
 10
6622.717782
 11
6572.717782
 20
196.542832
 21
196.542832
  0
LINE
  8
APS_GEOMETR�
 10
6572.717782
 11
6572.717782
 20
196.542832
 21
186.042832
  0
LINE
  8
APS_GEOMETR�
 10
6572.717782
 11
6622.717782
 20
186.042832
 21
186.042832
  0
LINE
  8
APS_GEOMETR�
 10
6227.717782
 11
6227.717782
 20
909.042832
 21
898.542832
  0
LINE
  8
APS_GEOMETR�
 10
6227.717782
 11
6177.717782
 20
898.542832
 21
898.542832
  0
LINE
  8
APS_GEOMETR�
 10
6177.717782
 11
6177.717782
 20
898.542832
 21
909.042832
  0
LINE
  8
APS_GEOMETR�
 10
6177.717782
 11
6227.717782
 20
909.042832
 21
909.042832
  0
LINE
  8
APS_GEOMETR�
 10
6622.717782
 11
6622.717782
 20
909.042832
 21
898.542832
  0
LINE
  8
APS_GEOMETR�
 10
6622.717782
 11
6572.717782
 20
898.542832
 21
898.542832
  0
LINE
  8
APS_GEOMETR�
 10
6572.717782
 11
6572.717782
 20
898.542832
 21
909.042832
  0
LINE
  8
APS_GEOMETR�
 10
6572.717782
 11
6622.717782
 20
909.042832
 21
909.042832
  0
LINE
  8
APS_GEOMETR�
 10
3590.291965
 11
3695.291965
 20
288.144117
 21
288.144117
  0
LINE
  8
APS_GEOMETR�
 10
3695.291965
 11
3695.291965
 20
288.144117
 21
298.644117
  0
LINE
  8
APS_GEOMETR�
 10
3695.291965
 11
3590.291965
 20
298.644117
 21
298.644117
  0
LINE
  8
APS_GEOMETR�
 10
3590.291965
 11
3590.291965
 20
298.644117
 21
288.144117
  0
LINE
  8
APS_GEOMETR�
 10
3990.291965
 11
4095.291965
 20
288.144117
 21
288.144117
  0
LINE
  8
APS_GEOMETR�
 10
4095.291965
 11
4095.291965
 20
288.144117
 21
298.644117
  0
LINE
  8
APS_GEOMETR�
 10
4095.291965
 11
3990.291965
 20
298.644117
 21
298.644117
  0
LINE
  8
APS_GEOMETR�
 10
3990.291965
 11
3990.291965
 20
298.644117
 21
288.144117
  0
LINE
  8
APS_GEOMETR�
 10
3990.291965
 11
4095.291965
 20
438.144117
 21
438.144117
  0
LINE
  8
APS_GEOMETR�
 10
4095.291965
 11
4095.291965
 20
438.144117
 21
448.644117
  0
LINE
  8
APS_GEOMETR�
 10
4095.291965
 11
3990.291965
 20
448.644117
 21
448.644117
  0
LINE
  8
APS_GEOMETR�
 10
3990.291965
 11
3990.291965
 20
448.644117
 21
438.144117
  0
LINE
  8
APS_GEOMETR�
 10
3590.291965
 11
3695.291965
 20
438.144117
 21
438.144117
  0
LINE
  8
APS_GEOMETR�
 10
3695.291965
 11
3695.291965
 20
438.144117
 21
448.644117
  0
LINE
  8
APS_GEOMETR�
 10
3695.291965
 11
3590.291965
 20
448.644117
 21
448.644117
  0
LINE
  8
APS_GEOMETR�
 10
3590.291965
 11
3590.291965
 20
448.644117
 21
438.144117
  0
LINE
  8
APS_GEOMETR�
 10
3612.791965
 11
3612.791965
 20
818.144117
 21
628.144117
  0
ARC
  8
APS_GEOMETR�
 10
3592.791965
 20
628.144117
 40
20.0
 50
180.0
 51
0.0
  0
LINE
  8
APS_GEOMETR�
 10
3572.791965
 11
3572.791965
 20
628.144117
 21
818.144117
  0
ARC
  8
APS_GEOMETR�
 10
3592.791965
 20
818.144117
 40
20.0
 50
0.0
 51
180.0
  0
LINE
  8
APS_GEOMETR�
 10
3692.791965
 11
3692.791965
 20
818.144117
 21
628.144117
  0
ARC
  8
APS_GEOMETR�
 10
3672.791965
 20
628.144117
 40
20.0
 50
180.0
 51
0.0
  0
LINE
  8
APS_GEOMETR�
 10
3652.791965
 11
3652.791965
 20
628.144117
 21
818.144117
  0
ARC
  8
APS_GEOMETR�
 10
3672.791965
 20
818.144117
 40
20.0
 50
0.0
 51
180.0
  0
LINE
  8
APS_GEOMETR�
 10
3372.791965
 11
3372.791965
 20
818.144117
 21
388.144117
  0
ARC
  8
APS_GEOMETR�
 10
3352.791965
 20
388.144117
 40
20.0
 50
180.0
 51
0.0
  0
LINE
  8
APS_GEOMETR�
 10
3332.791965
 11
3332.791965
 20
388.144117
 21
818.144117
  0
ARC
  8
APS_GEOMETR�
 10
3352.791965
 20
818.144117
 40
20.0
 50
0.0
 51
180.0
  0
LINE
  8
APS_GEOMETR�
 10
3452.791965
 11
3452.791965
 20
818.144117
 21
388.144117
  0
ARC
  8
APS_GEOMETR�
 10
3432.791965
 20
388.144117
 40
20.0
 50
180.0
 51
0.0
  0
LINE
  8
APS_GEOMETR�
 10
3412.791965
 11
3412.791965
 20
388.144117
 21
818.144117
  0
ARC
  8
APS_GEOMETR�
 10
3432.791965
 20
818.144117
 40
20.0
 50
0.0
 51
180.0
  0
LINE
  8
APS_GEOMETR�
 10
3532.791965
 11
3532.791965
 20
818.144117
 21
388.144117
  0
ARC
  8
APS_GEOMETR�
 10
3512.791965
 20
388.144117
 40
20.0
 50
180.0
 51
0.0
  0
LINE
  8
APS_GEOMETR�
 10
3492.791965
 11
3492.791965
 20
388.144117
 21
818.144117
  0
ARC
  8
APS_GEOMETR�
 10
3512.791965
 20
818.144117
 40
20.0
 50
0.0
 51
180.0
  0
LINE
  8
APS_GEOMETR�
 10
3772.791965
 11
3772.791965
 20
818.144117
 21
388.144117
  0
ARC
  8
APS_GEOMETR�
 10
3752.791965
 20
388.144117
 40
20.0
 50
180.0
 51
0.0
  0
LINE
  8
APS_GEOMETR�
 10
3732.791965
 11
3732.791965
 20
388.144117
 21
818.144117
  0
ARC
  8
APS_GEOMETR�
 10
3752.791965
 20
818.144117
 40
20.0
 50
0.0
 51
180.0
  0
LINE
  8
APS_GEOMETR�
 10
4072.791965
 11
4072.791965
 20
818.144117
 21
628.144117
  0
ARC
  8
APS_GEOMETR�
 10
4092.791965
 20
628.144117
 40
20.0
 50
180.0
 51
0.0
  0
LINE
  8
APS_GEOMETR�
 10
4112.791965
 11
4112.791965
 20
628.144117
 21
818.144117
  0
ARC
  8
APS_GEOMETR�
 10
4092.791965
 20
818.144117
 40
20.0
 50
0.0
 51
180.0
  0
LINE
  8
APS_GEOMETR�
 10
3992.791965
 11
3992.791965
 20
818.144117
 21
628.144117
  0
ARC
  8
APS_GEOMETR�
 10
4012.791965
 20
628.144117
 40
20.0
 50
180.0
 51
0.0
  0
LINE
  8
APS_GEOMETR�
 10
4032.791965
 11
4032.791965
 20
628.144117
 21
818.144117
  0
ARC
  8
APS_GEOMETR�
 10
4012.791965
 20
818.144117
 40
20.0
 50
0.0
 51
180.0
  0
LINE
  8
APS_GEOMETR�
 10
4312.791965
 11
4312.791965
 20
818.144117
 21
388.144117
  0
ARC
  8
APS_GEOMETR�
 10
4332.791965
 20
388.144117
 40
20.0
 50
180.0
 51
0.0
  0
LINE
  8
APS_GEOMETR�
 10
4352.791965
 11
4352.791965
 20
388.144117
 21
818.144117
  0
ARC
  8
APS_GEOMETR�
 10
4332.791965
 20
818.144117
 40
20.0
 50
0.0
 51
180.0
  0
LINE
  8
APS_GEOMETR�
 10
4232.791965
 11
4232.791965
 20
818.144117
 21
388.144117
  0
ARC
  8
APS_GEOMETR�
 10
4252.791965
 20
388.144117
 40
20.0
 50
180.0
 51
0.0
  0
LINE
  8
APS_GEOMETR�
 10
4272.791965
 11
4272.791965
 20
388.144117
 21
818.144117
  0
ARC
  8
APS_GEOMETR�
 10
4252.791965
 20
818.144117
 40
20.0
 50
0.0
 51
180.0
  0
LINE
  8
APS_GEOMETR�
 10
4152.791965
 11
4152.791965
 20
818.144117
 21
388.144117
  0
ARC
  8
APS_GEOMETR�
 10
4172.791965
 20
388.144117
 40
20.0
 50
180.0
 51
0.0
  0
LINE
  8
APS_GEOMETR�
 10
4192.791965
 11
4192.791965
 20
388.144117
 21
818.144117
  0
ARC
  8
APS_GEOMETR�
 10
4172.791965
 20
818.144117
 40
20.0
 50
0.0
 51
180.0
  0
LINE
  8
APS_GEOMETR�
 10
3912.791965
 11
3912.791965
 20
818.144117
 21
388.144117
  0
ARC
  8
APS_GEOMETR�
 10
3932.791965
 20
388.144117
 40
20.0
 50
180.0
 51
0.0
  0
LINE
  8
APS_GEOMETR�
 10
3952.791965
 11
3952.791965
 20
388.144117
 21
818.144117
  0
ARC
  8
APS_GEOMETR�
 10
3932.791965
 20
818.144117
 40
20.0
 50
0.0
 51
180.0
  0
LINE
  8
APS_GEOMETR�
 10
3822.791965
 11
3822.791965
 20
818.144117
 21
388.144117
  0
ARC
  8
APS_GEOMETR�
 10
3842.791965
 20
388.144117
 40
20.0
 50
180.0
 51
0.0
  0
LINE
  8
APS_GEOMETR�
 10
3862.791965
 11
3862.791965
 20
388.144117
 21
818.144117
  0
ARC
  8
APS_GEOMETR�
 10
3842.791965
 20
818.144117
 40
20.0
 50
0.0
 51
180.0
  0
LINE
  8
APS_GEOMETR�
 10
3220.291965
 11
3230.791965
 20
763.144117
 21
763.144117
  0
LINE
  8
APS_GEOMETR�
 10
3230.791965
 11
3230.791965
 20
763.144117
 21
813.144117
  0
LINE
  8
APS_GEOMETR�
 10
3230.791965
 11
3220.291965
 20
813.144117
 21
813.144117
  0
LINE
  8
APS_GEOMETR�
 10
3220.291965
 11
3220.291965
 20
813.144117
 21
763.144117
  0
LINE
  8
APS_GEOMETR�
 10
3220.291965
 11
3230.791965
 20
363.144117
 21
363.144117
  0
LINE
  8
APS_GEOMETR�
 10
3230.791965
 11
3230.791965
 20
363.144117
 21
413.144117
  0
LINE
  8
APS_GEOMETR�
 10
3230.791965
 11
3220.291965
 20
413.144117
 21
413.144117
  0
LINE
  8
APS_GEOMETR�
 10
3220.291965
 11
3220.291965
 20
413.144117
 21
363.144117
  0
LINE
  8
APS_GEOMETR�
 10
4465.291965
 11
4454.791965
 20
763.144117
 21
763.144117
  0
LINE
  8
APS_GEOMETR�
 10
4454.791965
 11
4454.791965
 20
763.144117
 21
813.144117
  0
LINE
  8
APS_GEOMETR�
 10
4454.791965
 11
4465.291965
 20
813.144117
 21
813.144117
  0
LINE
  8
APS_GEOMETR�
 10
4465.291965
 11
4465.291965
 20
813.144117
 21
763.144117
  0
LINE
  8
APS_GEOMETR�
 10
4465.291965
 11
4454.791965
 20
363.144117
 21
363.144117
  0
LINE
  8
APS_GEOMETR�
 10
4454.791965
 11
4454.791965
 20
363.144117
 21
413.144117
  0
LINE
  8
APS_GEOMETR�
 10
4454.791965
 11
4465.291965
 20
413.144117
 21
413.144117
  0
LINE
  8
APS_GEOMETR�
 10
4465.291965
 11
4465.291965
 20
413.144117
 21
363.144117
  0
LINE
  8
APS_GEOMETR�
 10
3842.791965
 11
3242.791965
 20
238.144117
 21
238.144117
  0
LINE
  8
APS_GEOMETR�
 10
3242.791965
 11
3242.791965
 20
238.144117
 21
338.144117
  0
LINE
  8
APS_GEOMETR�
 10
3242.791965
 11
3232.791965
 20
338.144117
 21
338.144117
  0
ARC
  8
APS_GEOMETR�
 10
3232.791965
 20
368.144117
 40
30.0
 50
180.0
 51
270.0
  0
LINE
  8
APS_GEOMETR�
 10
3202.791965
 11
3202.791965
 20
368.144117
 21
408.144117
  0
ARC
  8
APS_GEOMETR�
 10
3232.791965
 20
408.144117
 40
30.0
 50
90.0
 51
180.0
  0
LINE
  8
APS_GEOMETR�
 10
3232.791965
 11
3242.791965
 20
438.144117
 21
438.144117
  0
LINE
  8
APS_GEOMETR�
 10
3242.791965
 11
3242.791965
 20
438.144117
 21
738.144117
  0
LINE
  8
APS_GEOMETR�
 10
3242.791965
 11
3232.791965
 20
738.144117
 21
738.144117
  0
ARC
  8
APS_GEOMETR�
 10
3232.791965
 20
768.144117
 40
30.0
 50
180.0
 51
270.0
  0
LINE
  8
APS_GEOMETR�
 10
3202.791965
 11
3202.791965
 20
768.144117
 21
808.144117
  0
ARC
  8
APS_GEOMETR�
 10
3232.791965
 20
808.144117
 40
30.0
 50
90.0
 51
180.0
  0
LINE
  8
APS_GEOMETR�
 10
3232.791965
 11
3242.791965
 20
838.144117
 21
838.144117
  0
LINE
  8
APS_GEOMETR�
 10
3242.791965
 11
3242.791965
 20
838.144117
 21
938.144117
  0
ARC
  8
APS_GEOMETR�
 10
3842.791965
 20
-17056.855883
 40
18005.0
 50
88.090317
 51
91.909683
  0
LINE
  8
APS_GEOMETR�
 10
4442.791965
 11
4442.791965
 20
938.144117
 21
838.144117
  0
LINE
  8
APS_GEOMETR�
 10
4442.791965
 11
4452.791965
 20
838.144117
 21
838.144117
  0
ARC
  8
APS_GEOMETR�
 10
4452.791965
 20
808.144117
 40
30.0
 50
360.0
 51
90.0
  0
LINE
  8
APS_GEOMETR�
 10
4482.791965
 11
4482.791965
 20
808.144117
 21
768.144117
  0
ARC
  8
APS_GEOMETR�
 10
4452.791965
 20
768.144117
 40
30.0
 50
270.0
 51
360.0
  0
LINE
  8
APS_GEOMETR�
 10
4452.791965
 11
4442.791965
 20
738.144117
 21
738.144117
  0
LINE
  8
APS_GEOMETR�
 10
4442.791965
 11
4442.791965
 20
738.144117
 21
438.144117
  0
LINE
  8
APS_GEOMETR�
 10
4442.791965
 11
4452.791965
 20
438.144117
 21
438.144117
  0
ARC
  8
APS_GEOMETR�
 10
4452.791965
 20
408.144117
 40
30.0
 50
360.0
 51
90.0
  0
LINE
  8
APS_GEOMETR�
 10
4482.791965
 11
4482.791965
 20
408.144117
 21
368.144117
  0
ARC
  8
APS_GEOMETR�
 10
4452.791965
 20
368.144117
 40
30.0
 50
270.0
 51
360.0
  0
LINE
  8
APS_GEOMETR�
 10
4452.791965
 11
4442.791965
 20
338.144117
 21
338.144117
  0
LINE
  8
APS_GEOMETR�
 10
4442.791965
 11
4442.791965
 20
338.144117
 21
238.144117
  0
LINE
  8
APS_GEOMETR�
 10
4442.791965
 11
3842.791965
 20
238.144117
 21
238.144117
  0
LINE
  8
APS_GEOMETR�
 10
3601.74236
 11
3706.74236
 20
-705.865906
 21
-705.865906
  0
LINE
  8
APS_GEOMETR�
 10
3706.74236
 11
3706.74236
 20
-705.865906
 21
-695.365906
  0
LINE
  8
APS_GEOMETR�
 10
3706.74236
 11
3601.74236
 20
-695.365906
 21
-695.365906
  0
LINE
  8
APS_GEOMETR�
 10
3601.74236
 11
3601.74236
 20
-695.365906
 21
-705.865906
  0
LINE
  8
APS_GEOMETR�
 10
4001.74236
 11
4106.74236
 20
-705.865906
 21
-705.865906
  0
LINE
  8
APS_GEOMETR�
 10
4106.74236
 11
4106.74236
 20
-705.865906
 21
-695.365906
  0
LINE
  8
APS_GEOMETR�
 10
4106.74236
 11
4001.74236
 20
-695.365906
 21
-695.365906
  0
LINE
  8
APS_GEOMETR�
 10
4001.74236
 11
4001.74236
 20
-695.365906
 21
-705.865906
  0
LINE
  8
APS_GEOMETR�
 10
4001.74236
 11
4106.74236
 20
-555.865906
 21
-555.865906
  0
LINE
  8
APS_GEOMETR�
 10
4106.74236
 11
4106.74236
 20
-555.865906
 21
-545.365906
  0
LINE
  8
APS_GEOMETR�
 10
4106.74236
 11
4001.74236
 20
-545.365906
 21
-545.365906
  0
LINE
  8
APS_GEOMETR�
 10
4001.74236
 11
4001.74236
 20
-545.365906
 21
-555.865906
  0
LINE
  8
APS_GEOMETR�
 10
3601.74236
 11
3706.74236
 20
-555.865906
 21
-555.865906
  0
LINE
  8
APS_GEOMETR�
 10
3706.74236
 11
3706.74236
 20
-555.865906
 21
-545.365906
  0
LINE
  8
APS_GEOMETR�
 10
3706.74236
 11
3601.74236
 20
-545.365906
 21
-545.365906
  0
LINE
  8
APS_GEOMETR�
 10
3601.74236
 11
3601.74236
 20
-545.365906
 21
-555.865906
  0
LINE
  8
APS_GEOMETR�
 10
3624.24236
 11
3624.24236
 20
-175.865906
 21
-365.865906
  0
ARC
  8
APS_GEOMETR�
 10
3604.24236
 20
-365.865906
 40
20.0
 50
180.0
 51
0.0
  0
LINE
  8
APS_GEOMETR�
 10
3584.24236
 11
3584.24236
 20
-365.865906
 21
-175.865906
  0
ARC
  8
APS_GEOMETR�
 10
3604.24236
 20
-175.865906
 40
20.0
 50
0.0
 51
180.0
  0
LINE
  8
APS_GEOMETR�
 10
3704.24236
 11
3704.24236
 20
-175.865906
 21
-365.865906
  0
ARC
  8
APS_GEOMETR�
 10
3684.24236
 20
-365.865906
 40
20.0
 50
180.0
 51
0.0
  0
LINE
  8
APS_GEOMETR�
 10
3664.24236
 11
3664.24236
 20
-365.865906
 21
-175.865906
  0
ARC
  8
APS_GEOMETR�
 10
3684.24236
 20
-175.865906
 40
20.0
 50
0.0
 51
180.0
  0
LINE
  8
APS_GEOMETR�
 10
3384.24236
 11
3384.24236
 20
-175.865906
 21
-605.865906
  0
ARC
  8
APS_GEOMETR�
 10
3364.24236
 20
-605.865906
 40
20.0
 50
180.0
 51
0.0
  0
LINE
  8
APS_GEOMETR�
 10
3344.24236
 11
3344.24236
 20
-605.865906
 21
-175.865906
  0
ARC
  8
APS_GEOMETR�
 10
3364.24236
 20
-175.865906
 40
20.0
 50
0.0
 51
180.0
  0
LINE
  8
APS_GEOMETR�
 10
3464.24236
 11
3464.24236
 20
-175.865906
 21
-605.865906
  0
ARC
  8
APS_GEOMETR�
 10
3444.24236
 20
-605.865906
 40
20.0
 50
180.0
 51
0.0
  0
LINE
  8
APS_GEOMETR�
 10
3424.24236
 11
3424.24236
 20
-605.865906
 21
-175.865906
  0
ARC
  8
APS_GEOMETR�
 10
3444.24236
 20
-175.865906
 40
20.0
 50
0.0
 51
180.0
  0
LINE
  8
APS_GEOMETR�
 10
3544.24236
 11
3544.24236
 20
-175.865906
 21
-605.865906
  0
ARC
  8
APS_GEOMETR�
 10
3524.24236
 20
-605.865906
 40
20.0
 50
180.0
 51
0.0
  0
LINE
  8
APS_GEOMETR�
 10
3504.24236
 11
3504.24236
 20
-605.865906
 21
-175.865906
  0
ARC
  8
APS_GEOMETR�
 10
3524.24236
 20
-175.865906
 40
20.0
 50
0.0
 51
180.0
  0
LINE
  8
APS_GEOMETR�
 10
3784.24236
 11
3784.24236
 20
-175.865906
 21
-605.865906
  0
ARC
  8
APS_GEOMETR�
 10
3764.24236
 20
-605.865906
 40
20.0
 50
180.0
 51
0.0
  0
LINE
  8
APS_GEOMETR�
 10
3744.24236
 11
3744.24236
 20
-605.865906
 21
-175.865906
  0
ARC
  8
APS_GEOMETR�
 10
3764.24236
 20
-175.865906
 40
20.0
 50
0.0
 51
180.0
  0
LINE
  8
APS_GEOMETR�
 10
4084.24236
 11
4084.24236
 20
-175.865906
 21
-365.865906
  0
ARC
  8
APS_GEOMETR�
 10
4104.24236
 20
-365.865906
 40
20.0
 50
180.0
 51
0.0
  0
LINE
  8
APS_GEOMETR�
 10
4124.24236
 11
4124.24236
 20
-365.865906
 21
-175.865906
  0
ARC
  8
APS_GEOMETR�
 10
4104.24236
 20
-175.865906
 40
20.0
 50
0.0
 51
180.0
  0
LINE
  8
APS_GEOMETR�
 10
4004.24236
 11
4004.24236
 20
-175.865906
 21
-365.865906
  0
ARC
  8
APS_GEOMETR�
 10
4024.24236
 20
-365.865906
 40
20.0
 50
180.0
 51
0.0
  0
LINE
  8
APS_GEOMETR�
 10
4044.24236
 11
4044.24236
 20
-365.865906
 21
-175.865906
  0
ARC
  8
APS_GEOMETR�
 10
4024.24236
 20
-175.865906
 40
20.0
 50
0.0
 51
180.0
  0
LINE
  8
APS_GEOMETR�
 10
4324.24236
 11
4324.24236
 20
-175.865906
 21
-605.865906
  0
ARC
  8
APS_GEOMETR�
 10
4344.24236
 20
-605.865906
 40
20.0
 50
180.0
 51
0.0
  0
LINE
  8
APS_GEOMETR�
 10
4364.24236
 11
4364.24236
 20
-605.865906
 21
-175.865906
  0
ARC
  8
APS_GEOMETR�
 10
4344.24236
 20
-175.865906
 40
20.0
 50
0.0
 51
180.0
  0
LINE
  8
APS_GEOMETR�
 10
4244.24236
 11
4244.24236
 20
-175.865906
 21
-605.865906
  0
ARC
  8
APS_GEOMETR�
 10
4264.24236
 20
-605.865906
 40
20.0
 50
180.0
 51
0.0
  0
LINE
  8
APS_GEOMETR�
 10
4284.24236
 11
4284.24236
 20
-605.865906
 21
-175.865906
  0
ARC
  8
APS_GEOMETR�
 10
4264.24236
 20
-175.865906
 40
20.0
 50
0.0
 51
180.0
  0
LINE
  8
APS_GEOMETR�
 10
4164.24236
 11
4164.24236
 20
-175.865906
 21
-605.865906
  0
ARC
  8
APS_GEOMETR�
 10
4184.24236
 20
-605.865906
 40
20.0
 50
180.0
 51
0.0
  0
LINE
  8
APS_GEOMETR�
 10
4204.24236
 11
4204.24236
 20
-605.865906
 21
-175.865906
  0
ARC
  8
APS_GEOMETR�
 10
4184.24236
 20
-175.865906
 40
20.0
 50
0.0
 51
180.0
  0
LINE
  8
APS_GEOMETR�
 10
3924.24236
 11
3924.24236
 20
-175.865906
 21
-605.865906
  0
ARC
  8
APS_GEOMETR�
 10
3944.24236
 20
-605.865906
 40
20.0
 50
180.0
 51
0.0
  0
LINE
  8
APS_GEOMETR�
 10
3964.24236
 11
3964.24236
 20
-605.865906
 21
-175.865906
  0
ARC
  8
APS_GEOMETR�
 10
3944.24236
 20
-175.865906
 40
20.0
 50
0.0
 51
180.0
  0
LINE
  8
APS_GEOMETR�
 10
3834.24236
 11
3834.24236
 20
-175.865906
 21
-605.865906
  0
ARC
  8
APS_GEOMETR�
 10
3854.24236
 20
-605.865906
 40
20.0
 50
180.0
 51
0.0
  0
LINE
  8
APS_GEOMETR�
 10
3874.24236
 11
3874.24236
 20
-605.865906
 21
-175.865906
  0
ARC
  8
APS_GEOMETR�
 10
3854.24236
 20
-175.865906
 40
20.0
 50
0.0
 51
180.0
  0
LINE
  8
APS_GEOMETR�
 10
3231.74236
 11
3242.24236
 20
-230.865906
 21
-230.865906
  0
LINE
  8
APS_GEOMETR�
 10
3242.24236
 11
3242.24236
 20
-230.865906
 21
-180.865906
  0
LINE
  8
APS_GEOMETR�
 10
3242.24236
 11
3231.74236
 20
-180.865906
 21
-180.865906
  0
LINE
  8
APS_GEOMETR�
 10
3231.74236
 11
3231.74236
 20
-180.865906
 21
-230.865906
  0
LINE
  8
APS_GEOMETR�
 10
3231.74236
 11
3242.24236
 20
-630.865906
 21
-630.865906
  0
LINE
  8
APS_GEOMETR�
 10
3242.24236
 11
3242.24236
 20
-630.865906
 21
-580.865906
  0
LINE
  8
APS_GEOMETR�
 10
3242.24236
 11
3231.74236
 20
-580.865906
 21
-580.865906
  0
LINE
  8
APS_GEOMETR�
 10
3231.74236
 11
3231.74236
 20
-580.865906
 21
-630.865906
  0
LINE
  8
APS_GEOMETR�
 10
4476.74236
 11
4466.24236
 20
-230.865906
 21
-230.865906
  0
LINE
  8
APS_GEOMETR�
 10
4466.24236
 11
4466.24236
 20
-230.865906
 21
-180.865906
  0
LINE
  8
APS_GEOMETR�
 10
4466.24236
 11
4476.74236
 20
-180.865906
 21
-180.865906
  0
LINE
  8
APS_GEOMETR�
 10
4476.74236
 11
4476.74236
 20
-180.865906
 21
-230.865906
  0
LINE
  8
APS_GEOMETR�
 10
4476.74236
 11
4466.24236
 20
-630.865906
 21
-630.865906
  0
LINE
  8
APS_GEOMETR�
 10
4466.24236
 11
4466.24236
 20
-630.865906
 21
-580.865906
  0
LINE
  8
APS_GEOMETR�
 10
4466.24236
 11
4476.74236
 20
-580.865906
 21
-580.865906
  0
LINE
  8
APS_GEOMETR�
 10
4476.74236
 11
4476.74236
 20
-580.865906
 21
-630.865906
  0
LINE
  8
APS_GEOMETR�
 10
3854.24236
 11
3254.24236
 20
-755.865906
 21
-755.865906
  0
LINE
  8
APS_GEOMETR�
 10
3254.24236
 11
3254.24236
 20
-755.865906
 21
-655.865906
  0
LINE
  8
APS_GEOMETR�
 10
3254.24236
 11
3244.24236
 20
-655.865906
 21
-655.865906
  0
ARC
  8
APS_GEOMETR�
 10
3244.24236
 20
-625.865906
 40
30.0
 50
180.0
 51
270.0
  0
LINE
  8
APS_GEOMETR�
 10
3214.24236
 11
3214.24236
 20
-625.865906
 21
-585.865906
  0
ARC
  8
APS_GEOMETR�
 10
3244.24236
 20
-585.865906
 40
30.0
 50
90.0
 51
180.0
  0
LINE
  8
APS_GEOMETR�
 10
3244.24236
 11
3254.24236
 20
-555.865906
 21
-555.865906
  0
LINE
  8
APS_GEOMETR�
 10
3254.24236
 11
3254.24236
 20
-555.865906
 21
-255.865906
  0
LINE
  8
APS_GEOMETR�
 10
3254.24236
 11
3244.24236
 20
-255.865906
 21
-255.865906
  0
ARC
  8
APS_GEOMETR�
 10
3244.24236
 20
-225.865906
 40
30.0
 50
180.0
 51
270.0
  0
LINE
  8
APS_GEOMETR�
 10
3214.24236
 11
3214.24236
 20
-225.865906
 21
-185.865906
  0
ARC
  8
APS_GEOMETR�
 10
3244.24236
 20
-185.865906
 40
30.0
 50
90.0
 51
180.0
  0
LINE
  8
APS_GEOMETR�
 10
3244.24236
 11
3254.24236
 20
-155.865906
 21
-155.865906
  0
LINE
  8
APS_GEOMETR�
 10
3254.24236
 11
3254.24236
 20
-155.865906
 21
-55.865906
  0
ARC
  8
APS_GEOMETR�
 10
3854.24236
 20
-18050.865906
 40
18005.0
 50
88.090317
 51
91.909683
  0
LINE
  8
APS_GEOMETR�
 10
4454.24236
 11
4454.24236
 20
-55.865906
 21
-155.865906
  0
LINE
  8
APS_GEOMETR�
 10
4454.24236
 11
4464.24236
 20
-155.865906
 21
-155.865906
  0
ARC
  8
APS_GEOMETR�
 10
4464.24236
 20
-185.865906
 40
30.0
 50
360.0
 51
90.0
  0
LINE
  8
APS_GEOMETR�
 10
4494.24236
 11
4494.24236
 20
-185.865906
 21
-225.865906
  0
ARC
  8
APS_GEOMETR�
 10
4464.24236
 20
-225.865906
 40
30.0
 50
270.0
 51
360.0
  0
LINE
  8
APS_GEOMETR�
 10
4464.24236
 11
4454.24236
 20
-255.865906
 21
-255.865906
  0
LINE
  8
APS_GEOMETR�
 10
4454.24236
 11
4454.24236
 20
-255.865906
 21
-555.865906
  0
LINE
  8
APS_GEOMETR�
 10
4454.24236
 11
4464.24236
 20
-555.865906
 21
-555.865906
  0
ARC
  8
APS_GEOMETR�
 10
4464.24236
 20
-585.865906
 40
30.0
 50
360.0
 51
90.0
  0
LINE
  8
APS_GEOMETR�
 10
4494.24236
 11
4494.24236
 20
-585.865906
 21
-625.865906
  0
ARC
  8
APS_GEOMETR�
 10
4464.24236
 20
-625.865906
 40
30.0
 50
270.0
 51
360.0
  0
LINE
  8
APS_GEOMETR�
 10
4464.24236
 11
4454.24236
 20
-655.865906
 21
-655.865906
  0
LINE
  8
APS_GEOMETR�
 10
4454.24236
 11
4454.24236
 20
-655.865906
 21
-755.865906
  0
LINE
  8
APS_GEOMETR�
 10
4454.24236
 11
3854.24236
 20
-755.865906
 21
-755.865906
  0
LINE
  8
APS_GEOMETR�
 10
4985.027041
 11
4985.027041
 20
-637.092802
 21
-742.092802
  0
LINE
  8
APS_GEOMETR�
 10
4985.027041
 11
4995.527041
 20
-742.092802
 21
-742.092802
  0
LINE
  8
APS_GEOMETR�
 10
4995.527041
 11
4995.527041
 20
-742.092802
 21
-637.092802
  0
LINE
  8
APS_GEOMETR�
 10
4995.527041
 11
4985.027041
 20
-637.092802
 21
-637.092802
  0
LINE
  8
APS_GEOMETR�
 10
4985.027041
 11
4985.027041
 20
-232.092802
 21
-337.092802
  0
LINE
  8
APS_GEOMETR�
 10
4985.027041
 11
4995.527041
 20
-337.092802
 21
-337.092802
  0
LINE
  8
APS_GEOMETR�
 10
4995.527041
 11
4995.527041
 20
-337.092802
 21
-232.092802
  0
LINE
  8
APS_GEOMETR�
 10
4995.527041
 11
4985.027041
 20
-232.092802
 21
-232.092802
  0
LINE
  8
APS_GEOMETR�
 10
5645.027041
 11
5645.027041
 20
-637.092802
 21
-742.092802
  0
LINE
  8
APS_GEOMETR�
 10
5645.027041
 11
5634.527041
 20
-742.092802
 21
-742.092802
  0
LINE
  8
APS_GEOMETR�
 10
5634.527041
 11
5634.527041
 20
-742.092802
 21
-637.092802
  0
LINE
  8
APS_GEOMETR�
 10
5634.527041
 11
5645.027041
 20
-637.092802
 21
-637.092802
  0
LINE
  8
APS_GEOMETR�
 10
5645.027041
 11
5645.027041
 20
-232.092802
 21
-337.092802
  0
LINE
  8
APS_GEOMETR�
 10
5645.027041
 11
5634.527041
 20
-337.092802
 21
-337.092802
  0
LINE
  8
APS_GEOMETR�
 10
5634.527041
 11
5634.527041
 20
-337.092802
 21
-232.092802
  0
LINE
  8
APS_GEOMETR�
 10
5634.527041
 11
5645.027041
 20
-232.092802
 21
-232.092802
  0
LINE
  8
APS_GEOMETR�
 10
5065.027041
 11
5170.027041
 20
-792.092802
 21
-792.092802
  0
LINE
  8
APS_GEOMETR�
 10
5170.027041
 11
5170.027041
 20
-792.092802
 21
-781.592802
  0
LINE
  8
APS_GEOMETR�
 10
5170.027041
 11
5065.027041
 20
-781.592802
 21
-781.592802
  0
LINE
  8
APS_GEOMETR�
 10
5065.027041
 11
5065.027041
 20
-781.592802
 21
-792.092802
  0
LINE
  8
APS_GEOMETR�
 10
5065.027041
 11
5170.027041
 20
-642.092802
 21
-642.092802
  0
LINE
  8
APS_GEOMETR�
 10
5170.027041
 11
5170.027041
 20
-642.092802
 21
-631.592802
  0
LINE
  8
APS_GEOMETR�
 10
5170.027041
 11
5065.027041
 20
-631.592802
 21
-631.592802
  0
LINE
  8
APS_GEOMETR�
 10
5065.027041
 11
5065.027041
 20
-631.592802
 21
-642.092802
  0
LINE
  8
APS_GEOMETR�
 10
5565.027041
 11
5460.027041
 20
-792.092802
 21
-792.092802
  0
LINE
  8
APS_GEOMETR�
 10
5460.027041
 11
5460.027041
 20
-792.092802
 21
-781.592802
  0
LINE
  8
APS_GEOMETR�
 10
5460.027041
 11
5565.027041
 20
-781.592802
 21
-781.592802
  0
LINE
  8
APS_GEOMETR�
 10
5565.027041
 11
5565.027041
 20
-781.592802
 21
-792.092802
  0
LINE
  8
APS_GEOMETR�
 10
5565.027041
 11
5460.027041
 20
-642.092802
 21
-642.092802
  0
LINE
  8
APS_GEOMETR�
 10
5460.027041
 11
5460.027041
 20
-642.092802
 21
-631.592802
  0
LINE
  8
APS_GEOMETR�
 10
5460.027041
 11
5565.027041
 20
-631.592802
 21
-631.592802
  0
LINE
  8
APS_GEOMETR�
 10
5565.027041
 11
5565.027041
 20
-631.592802
 21
-642.092802
  0
LINE
  8
APS_GEOMETR�
 10
5185.027041
 11
5185.027041
 20
-149.356169
 21
-472.092802
  0
ARC
  8
APS_GEOMETR�
 10
5165.027041
 20
-472.092802
 40
20.0
 50
180.0
 51
0.0
  0
LINE
  8
APS_GEOMETR�
 10
5145.027041
 11
5145.027041
 20
-472.092802
 21
-149.356169
  0
ARC
  8
APS_GEOMETR�
 10
5165.027041
 20
-149.356169
 40
20.0
 50
0.0
 51
180.0
  0
LINE
  8
APS_GEOMETR�
 10
5265.027041
 11
5265.027041
 20
-143.671704
 21
-472.092802
  0
ARC
  8
APS_GEOMETR�
 10
5245.027041
 20
-472.092802
 40
20.0
 50
180.0
 51
0.0
  0
LINE
  8
APS_GEOMETR�
 10
5225.027041
 11
5225.027041
 20
-472.092802
 21
-143.671704
  0
ARC
  8
APS_GEOMETR�
 10
5245.027041
 20
-143.671704
 40
20.0
 50
0.0
 51
180.0
  0
LINE
  8
APS_GEOMETR�
 10
5105.027041
 11
5105.027041
 20
-472.092802
 21
-159.224361
  0
ARC
  8
APS_GEOMETR�
 10
5085.027041
 20
-159.224361
 40
20.0
 50
0.0
 51
180.0
  0
LINE
  8
APS_GEOMETR�
 10
5065.027041
 11
5065.027041
 20
-159.224361
 21
-472.092802
  0
ARC
  8
APS_GEOMETR�
 10
5085.027041
 20
-472.092802
 40
20.0
 50
180.0
 51
0.0
  0
LINE
  8
APS_GEOMETR�
 10
5445.027041
 11
5445.027041
 20
-149.356169
 21
-472.092802
  0
ARC
  8
APS_GEOMETR�
 10
5465.027041
 20
-472.092802
 40
20.0
 50
180.0
 51
0.0
  0
LINE
  8
APS_GEOMETR�
 10
5485.027041
 11
5485.027041
 20
-472.092802
 21
-149.356169
  0
ARC
  8
APS_GEOMETR�
 10
5465.027041
 20
-149.356169
 40
20.0
 50
0.0
 51
180.0
  0
LINE
  8
APS_GEOMETR�
 10
5365.027041
 11
5365.027041
 20
-143.671704
 21
-472.092802
  0
ARC
  8
APS_GEOMETR�
 10
5385.027041
 20
-472.092802
 40
20.0
 50
180.0
 51
0.0
  0
LINE
  8
APS_GEOMETR�
 10
5405.027041
 11
5405.027041
 20
-472.092802
 21
-143.671704
  0
ARC
  8
APS_GEOMETR�
 10
5385.027041
 20
-143.671704
 40
20.0
 50
0.0
 51
180.0
  0
LINE
  8
APS_GEOMETR�
 10
5525.027041
 11
5525.027041
 20
-472.092802
 21
-159.224361
  0
ARC
  8
APS_GEOMETR�
 10
5545.027041
 20
-159.224361
 40
20.0
 50
0.0
 51
180.0
  0
LINE
  8
APS_GEOMETR�
 10
5565.027041
 11
5565.027041
 20
-159.224361
 21
-472.092802
  0
ARC
  8
APS_GEOMETR�
 10
5545.027041
 20
-472.092802
 40
20.0
 50
180.0
 51
0.0
  0
LINE
  8
APS_GEOMETR�
 10
5265.027041
 11
5365.027041
 20
-92.092802
 21
-92.092802
  0
ARC
  8
APS_GEOMETR�
 10
5365.027041
 20
-67.092802
 40
25.0
 50
270.0
 51
90.0
  0
LINE
  8
APS_GEOMETR�
 10
5365.027041
 11
5265.027041
 20
-42.092802
 21
-42.092802
  0
ARC
  8
APS_GEOMETR�
 10
5265.027041
 20
-67.092802
 40
25.0
 50
90.0
 51
270.0
  0
LINE
  8
APS_GEOMETR�
 10
5315.027041
 11
5015.027041
 20
7.907198
 21
7.907198
  0
ARC
  8
APS_GEOMETR�
 10
5015.027041
 20
-42.092802
 40
50.0
 50
90.0
 51
180.0
  0
LINE
  8
APS_GEOMETR�
 10
4965.027041
 11
4965.027041
 20
-42.092802
 21
-897.092802
  0
ARC
  8
APS_GEOMETR�
 10
4950.027041
 20
-897.092802
 40
15.0
 50
270.0
 51
0.0
  0
ARC
  8
APS_GEOMETR�
 10
4950.027041
 20
-927.092802
 40
15.0
 50
90.0
 51
180.0
  0
LINE
  8
APS_GEOMETR�
 10
4935.027041
 11
4935.027041
 20
-927.092802
 21
-936.344444
  0
ARC
  8
APS_GEOMETR�
 10
4965.027041
 20
-936.344444
 40
30.0
 50
180.0
 51
261.585032
  0
ARC
  8
APS_GEOMETR�
 10
5315.027041
 20
1429.573865
 40
2421.666667
 50
261.585032
 51
278.414968
  0
ARC
  8
APS_GEOMETR�
 10
5665.027041
 20
-936.344444
 40
30.0
 50
278.414968
 51
0.0
  0
LINE
  8
APS_GEOMETR�
 10
5695.027041
 11
5695.027041
 20
-936.344444
 21
-927.092802
  0
ARC
  8
APS_GEOMETR�
 10
5680.027041
 20
-927.092802
 40
15.0
 50
0.0
 51
90.0
  0
ARC
  8
APS_GEOMETR�
 10
5680.027041
 20
-897.092802
 40
15.0
 50
180.0
 51
270.0
  0
LINE
  8
APS_GEOMETR�
 10
5665.027041
 11
5665.027041
 20
-897.092802
 21
-42.092802
  0
ARC
  8
APS_GEOMETR�
 10
5615.027041
 20
-42.092802
 40
50.0
 50
0.0
 51
90.0
  0
LINE
  8
APS_GEOMETR�
 10
5615.027041
 11
5315.027041
 20
7.907198
 21
7.907198
  0
ARC
  8
APS_GEOMETR�
 10
3276.42569
 20
1116.813946
 40
44.072049
 50
245.841371
 51
269.973235
  0
ARC
  8
APS_GEOMETR�
 10
3276.384514
 20
1116.813946
 40
44.072049
 50
270.026765
 51
294.158629
  0
ARC
  8
APS_GEOMETR�
 10
3296.407668
 20
1072.173844
 40
4.853051
 50
90.748754
 51
114.156766
  0
ARC
  8
APS_GEOMETR�
 10
3296.403462
 20
1072.17869
 40
4.848153
 50
67.275923
 51
90.699806
  0
ARC
  8
APS_GEOMETR�
 10
3296.346591
 20
1072.050341
 40
4.988509
 50
44.263401
 51
67.242885
  0
ARC
  8
APS_GEOMETR�
 10
3296.200179
 20
1071.907335
 40
5.193172
 50
21.898106
 51
44.265856
  0
ARC
  8
APS_GEOMETR�
 10
3296.064575
 20
1071.849595
 40
5.340527
 50
359.978534
 51
21.930287
  0
LINE
  8
APS_GEOMETR�
 10
3301.405102
 11
3301.405102
 20
1071.847594
 21
1062.383362
  0
ARC
  8
APS_GEOMETR�
 10
3296.064209
 20
1062.381406
 40
5.340893
 50
338.23894
 51
0.020981
  0
ARC
  8
APS_GEOMETR�
 10
3296.198223
 20
1062.324823
 40
5.195453
 50
316.081293
 51
338.270554
  0
ARC
  8
APS_GEOMETR�
 10
3296.344465
 20
1062.183643
 40
4.992184
 50
293.292735
 51
316.084239
  0
ARC
  8
APS_GEOMETR�
 10
3296.403076
 20
1062.054268
 40
4.850177
 50
270.023932
 51
293.261126
  0
LINE
  8
APS_GEOMETR�
 10
3296.405102
 11
3281.405102
 20
1057.204091
 21
1057.204091
  0
ARC
  8
APS_GEOMETR�
 10
3281.407128
 20
1052.353914
 40
4.850177
 50
90.023932
 51
113.261126
  0
ARC
  8
APS_GEOMETR�
 10
3281.465739
 20
1052.224539
 40
4.992184
 50
113.292735
 51
136.084239
  0
ARC
  8
APS_GEOMETR�
 10
3281.611981
 20
1052.083359
 40
5.195453
 50
136.081293
 51
158.270554
  0
ARC
  8
APS_GEOMETR�
 10
3281.745995
 20
1052.026776
 40
5.340893
 50
158.23894
 51
180.020981
  0
ARC
  8
APS_GEOMETR�
 10
3281.745995
 20
1052.022865
 40
5.340893
 50
179.979019
 51
201.76106
  0
ARC
  8
APS_GEOMETR�
 10
3281.611981
 20
1051.966282
 40
5.195453
 50
201.729446
 51
223.918707
  0
ARC
  8
APS_GEOMETR�
 10
3281.465739
 20
1051.825102
 40
4.992184
 50
223.915761
 51
246.707265
  0
ARC
  8
APS_GEOMETR�
 10
3281.407128
 20
1051.695727
 40
4.850177
 50
246.738874
 51
269.976068
  0
LINE
  8
APS_GEOMETR�
 10
3281.405102
 11
3296.405102
 20
1046.84555
 21
1046.84555
  0
ARC
  8
APS_GEOMETR�
 10
3296.403076
 20
1041.995373
 40
4.850177
 50
66.738874
 51
89.976068
  0
ARC
  8
APS_GEOMETR�
 10
3296.344465
 20
1041.865998
 40
4.992184
 50
43.915761
 51
66.707265
  0
ARC
  8
APS_GEOMETR�
 10
3296.198223
 20
1041.724818
 40
5.195453
 50
21.729446
 51
43.918707
  0
ARC
  8
APS_GEOMETR�
 10
3296.064209
 20
1041.668236
 40
5.340893
 50
359.979019
 51
21.76106
  0
LINE
  8
APS_GEOMETR�
 10
3301.405102
 11
3301.405102
 20
1041.66628
 21
1032.202047
  0
ARC
  8
APS_GEOMETR�
 10
3296.064575
 20
1032.200046
 40
5.340527
 50
338.069713
 51
0.021466
  0
ARC
  8
APS_GEOMETR�
 10
3296.200179
 20
1032.142306
 40
5.193172
 50
315.734144
 51
338.101894
  0
ARC
  8
APS_GEOMETR�
 10
3296.346591
 20
1031.9993
 40
4.988509
 50
292.757115
 51
315.736599
  0
ARC
  8
APS_GEOMETR�
 10
3296.403462
 20
1031.870952
 40
4.848153
 50
269.300194
 51
292.724077
  0
ARC
  8
APS_GEOMETR�
 10
3296.407668
 20
1031.875797
 40
4.853051
 50
245.843234
 51
269.251246
  0
ARC
  8
APS_GEOMETR�
 10
3276.384514
 20
987.235695
 40
44.072049
 50
65.841371
 51
89.973235
  0
ARC
  8
APS_GEOMETR�
 10
3276.42569
 20
987.235695
 40
44.072049
 50
90.026765
 51
114.158629
  0
ARC
  8
APS_GEOMETR�
 10
3256.402536
 20
1031.875797
 40
4.853051
 50
270.748754
 51
294.156766
  0
ARC
  8
APS_GEOMETR�
 10
3256.406742
 20
1031.870952
 40
4.848153
 50
247.275923
 51
270.699806
  0
ARC
  8
APS_GEOMETR�
 10
3256.463613
 20
1031.9993
 40
4.988509
 50
224.263401
 51
247.242885
  0
ARC
  8
APS_GEOMETR�
 10
3256.610025
 20
1032.142306
 40
5.193172
 50
201.898106
 51
224.265856
  0
ARC
  8
APS_GEOMETR�
 10
3256.745629
 20
1032.200046
 40
5.340527
 50
179.978534
 51
201.930287
  0
LINE
  8
APS_GEOMETR�
 10
3251.405102
 11
3251.405102
 20
1032.202047
 21
1071.847594
  0
ARC
  8
APS_GEOMETR�
 10
3256.745629
 20
1071.849595
 40
5.340527
 50
158.069713
 51
180.021466
  0
ARC
  8
APS_GEOMETR�
 10
3256.610025
 20
1071.907335
 40
5.193172
 50
135.734144
 51
158.101894
  0
ARC
  8
APS_GEOMETR�
 10
3256.463613
 20
1072.050341
 40
4.988509
 50
112.757115
 51
135.736599
  0
ARC
  8
APS_GEOMETR�
 10
3256.406742
 20
1072.17869
 40
4.848153
 50
89.300194
 51
112.724077
  0
ARC
  8
APS_GEOMETR�
 10
3256.402536
 20
1072.173844
 40
4.853051
 50
65.843234
 51
89.251246
  0
LINE
  8
APS_GEOMETR�
 10
3251.405102
 11
3301.405102
 20
1027.022777
 21
1027.022777
  0
LINE
  8
APS_GEOMETR�
 10
3301.405102
 11
3301.405102
 20
1027.022777
 21
1077.022777
  0
LINE
  8
APS_GEOMETR�
 10
3301.405102
 11
3251.405102
 20
1077.022777
 21
1077.022777
  0
LINE
  8
APS_GEOMETR�
 10
3251.405102
 11
3251.405102
 20
1077.022777
 21
1027.022777
  0
ENDSEC
  0
EOF
