  0
SECTION
  2
HEADER
  9
$ACADVER
  1
AC1009
  9
$EXTMIN
 10
0.91068894
 20
0.49997371
 30
0.0
  9
$EXTMAX
 10
23.08931106
 20
23.50002629
 30
0.0
  0
ENDSEC
  0
SECTION
  2
TABLES
  0
TABLE
  2
LAYER
 70
2
 0
LAYER
 2
color#000000ff
 70
0
 62
1
 6
CONTINUOUS
 0
LAYER
 2
color#ffffffff
 70
0
 62
1
 6
CONTINUOUS
 0
ENDTAB
 0
ENDSEC
  0
SECTION
  2
ENTITIES
  0
POLYLINE
  8
color#000000ff
 66
   1
 39
0.000000
 70
    1
  0
VERTEX
  8
0
 10
11.03573880
 20
23.50002629
  0
VERTEX
  8
0
 10
11.08525969
 20
23.50002629
  0
VERTEX
  8
0
 10
11.28411651
 20
23.36393336
  0
VERTEX
  8
0
 10
11.42623672
 20
23.25206728
  0
VERTEX
  8
0
 10
11.53858969
 20
23.15178897
  0
VERTEX
  8
0
 10
11.62372598
 20
23.06661556
  0
VERTEX
  8
0
 10
11.68445215
 20
22.99969268
  0
VERTEX
  8
0
 10
11.74224348
 20
22.93005102
  0
VERTEX
  8
0
 10
11.76859597
 20
22.89662904
  0
VERTEX
  8
0
 10
11.79427316
 20
22.86276349
  0
VERTEX
  8
0
 10
11.81929139
 20
22.82846972
  0
VERTEX
  8
0
 10
11.84366698
 20
22.79376311
  0
VERTEX
  8
0
 10
11.89055564
 20
22.72317285
  0
VERTEX
  8
0
 10
11.93506984
 20
22.65111562
  0
VERTEX
  8
0
 10
11.97734030
 20
22.57771439
  0
VERTEX
  8
0
 10
12.01749771
 20
22.50309210
  0
VERTEX
  8
0
 10
12.05567278
 20
22.42737167
  0
VERTEX
  8
0
 10
12.10950444
 20
22.31200099
  0
VERTEX
  8
0
 10
12.17556172
 20
22.15547743
  0
VERTEX
  8
0
 10
12.26451821
 20
21.91691281
  0
VERTEX
  8
0
 10
12.29199202
 20
21.83687522
  0
VERTEX
  8
0
 10
12.33348709
 20
21.70667191
  0
VERTEX
  8
0
 10
12.39197331
 20
21.51031855
  0
VERTEX
  8
0
 10
12.51599675
 20
21.04868079
  0
VERTEX
  8
0
 10
12.75449382
 20
20.12265463
  0
VERTEX
  8
0
 10
12.81135378
 20
19.92580153
  0
VERTEX
  8
0
 10
12.88068002
 20
19.70549751
  0
VERTEX
  8
0
 10
12.92677518
 20
19.57451517
  0
VERTEX
  8
0
 10
12.97676412
 20
19.44495517
  0
VERTEX
  8
0
 10
13.01246309
 20
19.35958306
  0
VERTEX
  8
0
 10
13.05020732
 20
19.27515963
  0
VERTEX
  8
0
 10
13.09012268
 20
19.19181150
  0
VERTEX
  8
0
 10
13.13233505
 20
19.10966529
  0
VERTEX
  8
0
 10
13.17697030
 20
19.02884760
  0
VERTEX
  8
0
 10
13.20023585
 20
18.98897652
  0
VERTEX
  8
0
 10
13.22415431
 20
18.94948506
  0
VERTEX
  8
0
 10
13.24874144
 20
18.91038903
  0
VERTEX
  8
0
 10
13.27401296
 20
18.87170427
  0
VERTEX
  8
0
 10
13.29998460
 20
18.83344661
  0
VERTEX
  8
0
 10
13.32667211
 20
18.79563186
  0
VERTEX
  8
0
 10
13.35409121
 20
18.75827586
  0
VERTEX
  8
0
 10
13.38225764
 20
18.72139443
  0
VERTEX
  8
0
 10
13.60740623
 20
18.52604469
  0
VERTEX
  8
0
 10
13.74077899
 20
18.92538012
  0
VERTEX
  8
0
 10
13.79751882
 20
19.08364685
  0
VERTEX
  8
0
 10
13.83048134
 20
19.16089461
  0
VERTEX
  8
0
 10
13.85481360
 20
19.21142804
  0
VERTEX
  8
0
 10
13.88136574
 20
19.26105362
  0
VERTEX
  8
0
 10
13.89556376
 20
19.28548961
  0
VERTEX
  8
0
 10
13.94117439
 20
19.36225778
  0
VERTEX
  8
0
 10
13.98844954
 20
19.43772111
  0
VERTEX
  8
0
 10
14.03732423
 20
19.51192331
  0
VERTEX
  8
0
 10
14.08773348
 20
19.58490809
  0
VERTEX
  8
0
 10
14.13961231
 20
19.65671914
  0
VERTEX
  8
0
 10
14.19289574
 20
19.72740019
  0
VERTEX
  8
0
 10
14.24751880
 20
19.79699493
  0
VERTEX
  8
0
 10
14.30341652
 20
19.86554707
  0
VERTEX
  8
0
 10
14.36052390
 20
19.93310033
  0
VERTEX
  8
0
 10
14.41877598
 20
19.99969840
  0
VERTEX
  8
0
 10
14.47810777
 20
20.06538500
  0
VERTEX
  8
0
 10
14.53845431
 20
20.13020384
  0
VERTEX
  8
0
 10
14.59975060
 20
20.19419861
  0
VERTEX
  8
0
 10
14.66193168
 20
20.25741304
  0
VERTEX
  8
0
 10
14.72493256
 20
20.31989082
  0
VERTEX
  8
0
 10
14.78868827
 20
20.38167566
  0
VERTEX
  8
0
 10
14.85313384
 20
20.44281127
  0
VERTEX
  8
0
 10
14.91820427
 20
20.50334136
  0
VERTEX
  8
0
 10
15.04995985
 20
20.62275981
  0
VERTEX
  8
0
 10
15.18343518
 20
20.74028066
  0
VERTEX
  8
0
 10
15.65663703
 20
21.14170825
  0
VERTEX
  8
0
 10
16.60840638
 20
21.98271075
  0
VERTEX
  8
0
 10
16.72010640
 20
21.70711129
  0
VERTEX
  8
0
 10
16.77260254
 20
21.55037351
  0
VERTEX
  8
0
 10
16.80830883
 20
21.42318222
  0
VERTEX
  8
0
 10
16.83088456
 20
21.32676308
  0
VERTEX
  8
0
 10
16.84947510
 20
21.22948265
  0
VERTEX
  8
0
 10
16.86373687
 20
21.13135698
  0
VERTEX
  8
0
 10
16.87067018
 20
21.06547821
  0
VERTEX
  8
0
 10
16.87706213
 20
20.97645052
  0
VERTEX
  8
0
 10
16.88097443
 20
20.88735821
  0
VERTEX
  8
0
 10
16.88248169
 20
20.79824003
  0
VERTEX
  8
0
 10
16.88165853
 20
20.70913473
  0
VERTEX
  8
0
 10
16.87857955
 20
20.62008106
  0
VERTEX
  8
0
 10
16.87331936
 20
20.53111776
  0
VERTEX
  8
0
 10
16.86150254
 20
20.39792702
  0
VERTEX
  8
0
 10
16.84519768
 20
20.26515756
  0
VERTEX
  8
0
 10
16.82465660
 20
20.13294015
  0
VERTEX
  8
0
 10
16.80013112
 20
20.00140558
  0
VERTEX
  8
0
 10
16.76166773
 20
19.82731433
  0
VERTEX
  8
0
 10
16.75108500
 20
19.78405384
  0
VERTEX
  8
0
 10
16.55900616
 20
19.04770187
  0
VERTEX
  8
0
 10
16.50902220
 20
18.83619594
  0
VERTEX
  8
0
 10
16.48677694
 20
18.72994921
  0
VERTEX
  8
0
 10
16.46687769
 20
18.62329138
  0
VERTEX
  8
0
 10
16.45792849
 20
18.56978911
  0
VERTEX
  8
0
 10
16.44971060
 20
18.51616102
  0
VERTEX
  8
0
 10
16.44227229
 20
18.46239945
  0
VERTEX
  8
0
 10
16.43566183
 20
18.40849671
  0
VERTEX
  8
0
 10
16.42992749
 20
18.35444511
  0
VERTEX
  8
0
 10
16.42511753
 20
18.30023700
  0
VERTEX
  8
0
 10
16.42128023
 20
18.24586467
  0
VERTEX
  8
0
 10
16.41905175
 20
18.20167835
  0
VERTEX
  8
0
 10
16.41767906
 20
18.15738916
  0
VERTEX
  8
0
 10
16.41717326
 20
18.11302531
  0
VERTEX
  8
0
 10
16.41754544
 20
18.06861498
  0
VERTEX
  8
0
 10
16.41880669
 20
18.02418635
  0
VERTEX
  8
0
 10
16.42096809
 20
17.97976762
  0
VERTEX
  8
0
 10
16.42404075
 20
17.93538698
  0
VERTEX
  8
0
 10
16.42803574
 20
17.89107261
  0
VERTEX
  8
0
 10
16.43296416
 20
17.84685270
  0
VERTEX
  8
0
 10
16.43883710
 20
17.80275544
  0
VERTEX
  8
0
 10
16.44566565
 20
17.75880903
  0
VERTEX
  8
0
 10
16.45346090
 20
17.71504164
  0
VERTEX
  8
0
 10
16.46223394
 20
17.67148147
  0
VERTEX
  8
0
 10
16.47199585
 20
17.62815671
  0
VERTEX
  8
0
 10
16.48275774
 20
17.58509555
  0
VERTEX
  8
0
 10
16.49453069
 20
17.54232617
  0
VERTEX
  8
0
 10
16.50732579
 20
17.49987676
  0
VERTEX
  8
0
 10
16.52115412
 20
17.45777551
  0
VERTEX
  8
0
 10
16.53602679
 20
17.41605062
  0
VERTEX
  8
0
 10
16.55195488
 20
17.37473026
  0
VERTEX
  8
0
 10
16.56894948
 20
17.33384263
  0
VERTEX
  8
0
 10
16.58702168
 20
17.29341592
  0
VERTEX
  8
0
 10
16.60618257
 20
17.25347832
  0
VERTEX
  8
0
 10
16.62644325
 20
17.21405800
  0
VERTEX
  8
0
 10
16.64781479
 20
17.17518318
  0
VERTEX
  8
0
 10
16.67030830
 20
17.13688202
  0
VERTEX
  8
0
 10
16.69393486
 20
17.09918272
  0
VERTEX
  8
0
 10
16.71870556
 20
17.06211348
  0
VERTEX
  8
0
 10
16.74463149
 20
17.02570247
  0
VERTEX
  8
0
 10
16.77569143
 20
16.98420683
  0
VERTEX
  8
0
 10
16.80758417
 20
16.94350522
  0
VERTEX
  8
0
 10
16.84027359
 20
16.90356582
  0
VERTEX
  8
0
 10
16.87372358
 20
16.86435684
  0
VERTEX
  8
0
 10
16.90789801
 20
16.82584647
  0
VERTEX
  8
0
 10
16.94276075
 20
16.78800290
  0
VERTEX
  8
0
 10
16.97827569
 20
16.75079433
  0
VERTEX
  8
0
 10
17.01440672
 20
16.71418895
  0
VERTEX
  8
0
 10
17.05111769
 20
16.67815496
  0
VERTEX
  8
0
 10
17.12613503
 20
16.60767394
  0
VERTEX
  8
0
 10
17.20303875
 20
16.53909682
  0
VERTEX
  8
0
 10
17.32129916
 20
16.43924436
  0
VERTEX
  8
0
 10
17.85150182
 20
16.02848758
  0
VERTEX
  8
0
 10
17.93058430
 20
15.96778274
  0
VERTEX
  8
0
 10
18.04669317
 20
15.87381568
  0
VERTEX
  8
0
 10
18.23475708
 20
15.71090131
  0
VERTEX
  8
0
 10
18.92590011
 20
15.06482108
  0
VERTEX
  8
0
 10
19.27039827
 20
14.73079547
  0
VERTEX
  8
0
 10
19.38161113
 20
14.61537484
  0
VERTEX
  8
0
 10
19.45391713
 20
14.53681741
  0
VERTEX
  8
0
 10
19.52442224
 20
14.45678078
  0
VERTEX
  8
0
 10
19.59284177
 20
14.37510126
  0
VERTEX
  8
0
 10
19.62618047
 20
14.33359428
  0
VERTEX
  8
0
 10
19.65889100
 20
14.29161521
  0
VERTEX
  8
0
 10
19.69093779
 20
14.24914359
  0
VERTEX
  8
0
 10
19.72228524
 20
14.20615896
  0
VERTEX
  8
0
 10
19.75289776
 20
14.16264086
  0
VERTEX
  8
0
 10
19.78273977
 20
14.11856884
  0
VERTEX
  8
0
 10
19.81177567
 20
14.07392244
  0
VERTEX
  8
0
 10
19.83996989
 20
14.02868120
  0
VERTEX
  8
0
 10
19.86728682
 20
13.98282466
  0
VERTEX
  8
0
 10
19.89369089
 20
13.93633237
  0
VERTEX
  8
0
 10
19.91914651
 20
13.88918386
  0
VERTEX
  8
0
 10
20.03627215
 20
13.62022361
  0
VERTEX
  8
0
 10
20.07306878
 20
13.50007414
  0
VERTEX
  8
0
 10
20.09483438
 20
13.39774521
  0
VERTEX
  8
0
 10
20.10533998
 20
13.31445201
  0
VERTEX
  8
0
 10
20.10781224
 20
13.26840620
  0
VERTEX
  8
0
 10
20.10767227
 20
13.22260614
  0
VERTEX
  8
0
 10
20.10330538
 20
13.15429400
  0
VERTEX
  8
0
 10
20.08379839
 20
13.01865439
  0
VERTEX
  8
0
 10
20.02786768
 20
12.70280140
  0
VERTEX
  8
0
 10
20.02365543
 20
12.65726438
  0
VERTEX
  8
0
 10
20.02075210
 20
12.61121398
  0
VERTEX
  8
0
 10
20.01890878
 20
12.56506435
  0
VERTEX
  8
0
 10
20.01812814
 20
12.51884624
  0
VERTEX
  8
0
 10
20.01841288
 20
12.47259036
  0
VERTEX
  8
0
 10
20.01976568
 20
12.42632747
  0
VERTEX
  8
0
 10
20.02218922
 20
12.38008830
  0
VERTEX
  8
0
 10
20.02568619
 20
12.33390358
  0
VERTEX
  8
0
 10
20.03025927
 20
12.28780406
  0
VERTEX
  8
0
 10
20.03591116
 20
12.24182047
  0
VERTEX
  8
0
 10
20.04264453
 20
12.19598354
  0
VERTEX
  8
0
 10
20.05046207
 20
12.15032402
  0
VERTEX
  8
0
 10
20.05936646
 20
12.10487263
  0
VERTEX
  8
0
 10
20.06936039
 20
12.05966013
  0
VERTEX
  8
0
 10
20.08044655
 20
12.01471723
  0
VERTEX
  8
0
 10
20.09262762
 20
11.97007468
  0
VERTEX
  8
0
 10
20.10590629
 20
11.92576323
  0
VERTEX
  8
0
 10
20.12028524
 20
11.88181359
  0
VERTEX
  8
0
 10
20.13576715
 20
11.83825651
  0
VERTEX
  8
0
 10
20.15235471
 20
11.79512273
  0
VERTEX
  8
0
 10
20.17005062
 20
11.75244299
  0
VERTEX
  8
0
 10
20.18885754
 20
11.71024801
  0
VERTEX
  8
0
 10
20.20877817
 20
11.66856854
  0
VERTEX
  8
0
 10
20.22981519
 20
11.62743531
  0
VERTEX
  8
0
 10
20.25197129
 20
11.58687906
  0
VERTEX
  8
0
 10
20.27524915
 20
11.54693053
  0
VERTEX
  8
0
 10
20.29965146
 20
11.50762046
  0
VERTEX
  8
0
 10
20.32518090
 20
11.46897957
  0
VERTEX
  8
0
 10
20.35184016
 20
11.43103861
  0
VERTEX
  8
0
 10
20.37963193
 20
11.39382831
  0
VERTEX
  8
0
 10
20.40796770
 20
11.35749168
  0
VERTEX
  8
0
 10
20.43712069
 20
11.32195070
  0
VERTEX
  8
0
 10
20.46706368
 20
11.28718946
  0
VERTEX
  8
0
 10
20.49776948
 20
11.25319203
  0
VERTEX
  8
0
 10
20.52921086
 20
11.21994251
  0
VERTEX
  8
0
 10
20.56136061
 20
11.18742499
  0
VERTEX
  8
0
 10
20.59419153
 20
11.15562355
  0
VERTEX
  8
0
 10
20.62767640
 20
11.12452229
  0
VERTEX
  8
0
 10
20.66178800
 20
11.09410528
  0
VERTEX
  8
0
 10
20.69649914
 20
11.06435661
  0
VERTEX
  8
0
 10
20.73178259
 20
11.03526038
  0
VERTEX
  8
0
 10
20.76761114
 20
11.00680067
  0
VERTEX
  8
0
 10
20.80395758
 20
10.97896157
  0
VERTEX
  8
0
 10
20.84079470
 20
10.95172716
  0
VERTEX
  8
0
 10
20.91583215
 20
10.89900879
  0
VERTEX
  8
0
 10
20.99250577
 20
10.84851824
  0
VERTEX
  8
0
 10
21.07059788
 20
10.80012822
  0
VERTEX
  8
0
 10
21.14989078
 20
10.75371144
  0
VERTEX
  8
0
 10
21.27060542
 20
10.68750760
  0
VERTEX
  8
0
 10
21.43372924
 20
10.60495398
  0
VERTEX
  8
0
 10
21.74440662
 20
10.46941037
  0
VERTEX
  8
0
 10
22.45350574
 20
10.21498330
  0
VERTEX
  8
0
 10
22.89359840
 20
10.06208718
  0
VERTEX
  8
0
 10
22.92260158
 20
10.04573103
  0
VERTEX
  8
0
 10
22.95714900
 20
10.01921937
  0
VERTEX
  8
0
 10
22.99456527
 20
9.97989593
  0
VERTEX
  8
0
 10
23.08931106
 20
9.81956710
  0
VERTEX
  8
0
 10
23.08931106
 20
9.55156827
  0
VERTEX
  8
0
 10
23.07711952
 20
9.51134334
  0
VERTEX
  8
0
 10
23.06379383
 20
9.47168531
  0
VERTEX
  8
0
 10
23.04940201
 20
9.43255995
  0
VERTEX
  8
0
 10
23.03401204
 20
9.39393305
  0
VERTEX
  8
0
 10
23.01769194
 20
9.35577038
  0
VERTEX
  8
0
 10
23.00050971
 20
9.31803772
  0
VERTEX
  8
0
 10
22.98253335
 20
9.28070085
  0
VERTEX
  8
0
 10
22.96383086
 20
9.24372555
  0
VERTEX
  8
0
 10
22.92451952
 20
9.17072277
  0
VERTEX
  8
0
 10
22.86180665
 20
9.06307483
  0
VERTEX
  8
0
 10
22.62132853
 20
8.67336942
  0
VERTEX
  8
0
 10
22.58054217
 20
8.60098598
  0
VERTEX
  8
0
 10
22.54201955
 20
8.52744800
  0
VERTEX
  8
0
 10
22.52377715
 20
8.49016049
  0
VERTEX
  8
0
 10
22.49283564
 20
8.42088874
  0
VERTEX
  8
0
 10
22.46770565
 20
8.34907612
  0
VERTEX
  8
0
 10
22.45314095
 20
8.29394692
  0
VERTEX
  8
0
 10
22.44261263
 20
8.23803928
  0
VERTEX
  8
0
 10
22.43644959
 20
8.18163211
  0
VERTEX
  8
0
 10
22.43492847
 20
8.14388754
  0
VERTEX
  8
0
 10
22.43559108
 20
8.10612755
  0
VERTEX
  8
0
 10
22.43853490
 20
8.06843479
  0
VERTEX
  8
0
 10
22.44385735
 20
8.03089189
  0
VERTEX
  8
0
 10
22.45165589
 20
7.99358149
  0
VERTEX
  8
0
 10
22.46202797
 20
7.95658624
  0
VERTEX
  8
0
 10
22.47510733
 20
7.91380644
  0
VERTEX
  8
0
 10
22.48911026
 20
7.87137232
  0
VERTEX
  8
0
 10
22.50395917
 20
7.82925505
  0
VERTEX
  8
0
 10
22.51957646
 20
7.78742582
  0
VERTEX
  8
0
 10
22.55280587
 20
7.70451613
  0
VERTEX
  8
0
 10
22.62507144
 20
7.54088486
  0
VERTEX
  8
0
 10
22.79328220
 20
7.17495045
  0
VERTEX
  8
0
 10
22.82745046
 20
7.09246680
  0
VERTEX
  8
0
 10
22.84363106
 20
7.05089319
  0
VERTEX
  8
0
 10
22.85910587
 20
7.00905994
  0
VERTEX
  8
0
 10
22.87379729
 20
6.96693825
  0
VERTEX
  8
0
 10
22.88762774
 20
6.92449928
  0
VERTEX
  8
0
 10
22.90051962
 20
6.88171421
  0
VERTEX
  8
0
 10
22.91239534
 20
6.83855422
  0
VERTEX
  8
0
 10
22.92317732
 20
6.79499048
  0
VERTEX
  8
0
 10
22.93278797
 20
6.75099416
  0
VERTEX
  8
0
 10
22.94149706
 20
6.70990299
  0
VERTEX
  8
0
 10
22.94903352
 20
6.66863336
  0
VERTEX
  8
0
 10
22.95540548
 20
6.62721135
  0
VERTEX
  8
0
 10
22.96062104
 20
6.58566308
  0
VERTEX
  8
0
 10
22.96468834
 20
6.54401465
  0
VERTEX
  8
0
 10
22.96761550
 20
6.50229216
  0
VERTEX
  8
0
 10
22.96941064
 20
6.46052170
  0
VERTEX
  8
0
 10
22.97008188
 20
6.41872937
  0
VERTEX
  8
0
 10
22.96963734
 20
6.37694129
  0
VERTEX
  8
0
 10
22.96808514
 20
6.33518355
  0
VERTEX
  8
0
 10
22.96543342
 20
6.29348224
  0
VERTEX
  8
0
 10
22.96169028
 20
6.25186348
  0
VERTEX
  8
0
 10
22.95686385
 20
6.21035336
  0
VERTEX
  8
0
 10
22.95096226
 20
6.16897798
  0
VERTEX
  8
0
 10
22.94399362
 20
6.12776344
  0
VERTEX
  8
0
 10
22.93596606
 20
6.08673585
  0
VERTEX
  8
0
 10
22.92688769
 20
6.04592130
  0
VERTEX
  8
0
 10
22.91676665
 20
6.00534590
  0
VERTEX
  8
0
 10
22.90561104
 20
5.96503574
  0
VERTEX
  8
0
 10
22.89342900
 20
5.92501693
  0
VERTEX
  8
0
 10
22.88022865
 20
5.88531557
  0
VERTEX
  8
0
 10
22.86601811
 20
5.84595776
  0
VERTEX
  8
0
 10
22.85080549
 20
5.80696960
  0
VERTEX
  8
0
 10
22.83459893
 20
5.76837718
  0
VERTEX
  8
0
 10
22.81740654
 20
5.73020662
  0
VERTEX
  8
0
 10
22.79923644
 20
5.69248401
  0
VERTEX
  8
0
 10
22.78009677
 20
5.65523545
  0
VERTEX
  8
0
 10
22.75999563
 20
5.61848705
  0
VERTEX
  8
0
 10
22.73894115
 20
5.58226489
  0
VERTEX
  8
0
 10
22.70573570
 20
5.52767685
  0
VERTEX
  8
0
 10
22.67155084
 20
5.47381903
  0
VERTEX
  8
0
 10
22.63642066
 20
5.42067120
  0
VERTEX
  8
0
 10
22.60037923
 20
5.36821313
  0
VERTEX
  8
0
 10
22.56346061
 20
5.31642459
  0
VERTEX
  8
0
 10
22.52569888
 20
5.26528535
  0
VERTEX
  8
0
 10
22.48712812
 20
5.21477517
  0
VERTEX
  8
0
 10
22.44778239
 20
5.16487383
  0
VERTEX
  8
0
 10
22.40769577
 20
5.11556109
  0
VERTEX
  8
0
 10
22.36690234
 20
5.06681673
  0
VERTEX
  8
0
 10
22.32543616
 20
5.01862051
  0
VERTEX
  8
0
 10
22.28333130
 20
4.97095220
  0
VERTEX
  8
0
 10
22.24062185
 20
4.92379157
  0
VERTEX
  8
0
 10
22.15352544
 20
4.83091243
  0
VERTEX
  8
0
 10
22.06441950
 20
4.73982124
  0
VERTEX
  8
0
 10
21.97357663
 20
4.65035615
  0
VERTEX
  8
0
 10
21.83465182
 20
4.51885342
  0
VERTEX
  8
0
 10
21.50284850
 20
4.22175755
  0
VERTEX
  8
0
 10
21.42774271
 20
4.15829959
  0
VERTEX
  8
0
 10
21.27876313
 20
4.02953310
  0
VERTEX
  8
0
 10
20.68995156
 20
3.50301763
  0
VERTEX
  8
0
 10
20.46753537
 20
3.30729849
  0
VERTEX
  8
0
 10
20.39269292
 20
3.24298911
  0
VERTEX
  8
0
 10
20.31739270
 20
3.17929519
  0
VERTEX
  8
0
 10
20.24157116
 20
3.11630688
  0
VERTEX
  8
0
 10
20.16516477
 20
3.05411436
  0
VERTEX
  8
0
 10
20.08810998
 20
2.99280780
  0
VERTEX
  8
0
 10
20.01034324
 20
2.93247737
  0
VERTEX
  8
0
 10
19.93180102
 20
2.87321323
  0
VERTEX
  8
0
 10
19.85241976
 20
2.81510556
  0
VERTEX
  8
0
 10
19.77213593
 20
2.75824452
  0
VERTEX
  8
0
 10
19.69088598
 20
2.70272028
  0
VERTEX
  8
0
 10
19.60860637
 20
2.64862301
  0
VERTEX
  8
0
 10
19.52523355
 20
2.59604288
  0
VERTEX
  8
0
 10
19.44070398
 20
2.54507006
  0
VERTEX
  8
0
 10
19.35495412
 20
2.49579472
  0
VERTEX
  8
0
 10
19.26792042
 20
2.44830702
  0
VERTEX
  8
0
 10
19.15442489
 20
2.39312956
  0
VERTEX
  8
0
 10
19.07742564
 20
2.35857430
  0
VERTEX
  8
0
 10
18.99943311
 20
2.32602186
  0
VERTEX
  8
0
 10
18.92051173
 20
2.29566002
  0
VERTEX
  8
0
 10
18.84072593
 20
2.26767652
  0
VERTEX
  8
0
 10
18.76014015
 20
2.24225916
  0
VERTEX
  8
0
 10
18.67881882
 20
2.21959568
  0
VERTEX
  8
0
 10
18.63790245
 20
2.20935532
  0
VERTEX
  8
0
 10
18.59682636
 20
2.19987385
  0
VERTEX
  8
0
 10
18.55559860
 20
2.19117473
  0
VERTEX
  8
0
 10
18.51422722
 20
2.18328144
  0
VERTEX
  8
0
 10
18.47272027
 20
2.17621744
  0
VERTEX
  8
0
 10
18.43108582
 20
2.17000621
  0
VERTEX
  8
0
 10
18.38933191
 20
2.16467122
  0
VERTEX
  8
0
 10
18.34746659
 20
2.16023594
  0
VERTEX
  8
0
 10
18.30549793
 20
2.15672383
  0
VERTEX
  8
0
 10
18.26343397
 20
2.15415837
  0
VERTEX
  8
0
 10
18.22128278
 20
2.15256304
  0
VERTEX
  8
0
 10
18.17905239
 20
2.15196129
  0
VERTEX
  8
0
 10
18.13675088
 20
2.15237661
  0
VERTEX
  8
0
 10
18.09438628
 20
2.15383246
  0
VERTEX
  8
0
 10
18.03352108
 20
2.15752072
  0
VERTEX
  8
0
 10
17.97295347
 20
2.16384510
  0
VERTEX
  8
0
 10
17.91275802
 20
2.17274065
  0
VERTEX
  8
0
 10
17.85300929
 20
2.18414238
  0
VERTEX
  8
0
 10
17.79378181
 20
2.19798535
  0
VERTEX
  8
0
 10
17.73515015
 20
2.21420458
  0
VERTEX
  8
0
 10
17.67718885
 20
2.23273512
  0
VERTEX
  8
0
 10
17.61997248
 20
2.25351198
  0
VERTEX
  8
0
 10
17.56357558
 20
2.27647022
  0
VERTEX
  8
0
 10
17.50807271
 20
2.30154487
  0
VERTEX
  8
0
 10
17.45353842
 20
2.32867095
  0
VERTEX
  8
0
 10
17.40004726
 20
2.35778351
  0
VERTEX
  8
0
 10
17.34767379
 20
2.38881759
  0
VERTEX
  8
0
 10
17.29649256
 20
2.42170821
  0
VERTEX
  8
0
 10
17.27137233
 20
2.43882942
  0
VERTEX
  8
0
 10
17.12047815
 20
2.53302261
  0
VERTEX
  8
0
 10
17.08820225
 20
2.54667341
  0
VERTEX
  8
0
 10
17.06616782
 20
2.55356917
  0
VERTEX
  8
0
 10
17.04368359
 20
2.55835279
  0
VERTEX
  8
0
 10
17.02071865
 20
2.56072569
  0
VERTEX
  8
0
 10
16.99724207
 20
2.56038931
  0
VERTEX
  8
0
 10
16.98530225
 20
2.55911182
  0
VERTEX
  8
0
 10
16.97322294
 20
2.55704505
  0
VERTEX
  8
0
 10
16.96100025
 20
2.55415167
  0
VERTEX
  8
0
 10
16.91474595
 20
2.54424151
  0
VERTEX
  8
0
 10
16.86872903
 20
2.53316071
  0
VERTEX
  8
0
 10
16.82292595
 20
2.52102851
  0
VERTEX
  8
0
 10
16.77731317
 20
2.50796416
  0
VERTEX
  8
0
 10
16.68656435
 20
2.47951593
  0
VERTEX
  8
0
 10
16.32647225
 20
2.35228414
  0
VERTEX
  8
0
 10
16.23623328
 20
2.32188596
  0
VERTEX
  8
0
 10
16.19095191
 20
2.30755414
  0
VERTEX
  8
0
 10
16.14553123
 20
2.29395948
  0
VERTEX
  8
0
 10
16.09994769
 20
2.28122122
  0
VERTEX
  8
0
 10
16.05417775
 20
2.26945860
  0
VERTEX
  8
0
 10
16.00819786
 20
2.25879085
  0
VERTEX
  8
0
 10
15.96198448
 20
2.24933722
  0
VERTEX
  8
0
 10
15.91551407
 20
2.24121693
  0
VERTEX
  8
0
 10
15.86876309
 20
2.23454923
  0
VERTEX
  8
0
 10
15.82170798
 20
2.22945335
  0
VERTEX
  8
0
 10
15.77432521
 20
2.22604853
  0
VERTEX
  8
0
 10
15.72659123
 20
2.22445401
  0
VERTEX
  8
0
 10
15.67848250
 20
2.22478902
  0
VERTEX
  8
0
 10
15.62997547
 20
2.22717281
  0
VERTEX
  8
0
 10
15.60067374
 20
2.22799522
  0
VERTEX
  8
0
 10
15.57161589
 20
2.22998878
  0
VERTEX
  8
0
 10
15.54281431
 20
2.23312387
  0
VERTEX
  8
0
 10
15.51428142
 20
2.23737087
  0
VERTEX
  8
0
 10
15.48602961
 20
2.24270015
  0
VERTEX
  8
0
 10
15.45807129
 20
2.24908209
  0
VERTEX
  8
0
 10
15.43041885
 20
2.25648707
  0
VERTEX
  8
0
 10
15.40308469
 20
2.26488547
  0
VERTEX
  8
0
 10
15.37608121
 20
2.27424765
  0
VERTEX
  8
0
 10
15.34942083
 20
2.28454400
  0
VERTEX
  8
0
 10
15.32311592
 20
2.29574490
  0
VERTEX
  8
0
 10
15.29717891
 20
2.30782072
  0
VERTEX
  8
0
 10
15.27162218
 20
2.32074185
  0
VERTEX
  8
0
 10
15.24645814
 20
2.33447864
  0
VERTEX
  8
0
 10
15.22169919
 20
2.34900149
  0
VERTEX
  8
0
 10
15.19735773
 20
2.36428078
  0
VERTEX
  8
0
 10
15.17344616
 20
2.38028687
  0
VERTEX
  8
0
 10
15.14997687
 20
2.39699014
  0
VERTEX
  8
0
 10
15.12696228
 20
2.41436098
  0
VERTEX
  8
0
 10
15.10441479
 20
2.43236975
  0
VERTEX
  8
0
 10
15.08234678
 20
2.45098685
  0
VERTEX
  8
0
 10
15.06077067
 20
2.47018263
  0
VERTEX
  8
0
 10
15.01914372
 20
2.51019179
  0
VERTEX
  8
0
 10
14.97963316
 20
2.55216024
  0
VERTEX
  8
0
 10
14.94233819
 20
2.59585101
  0
VERTEX
  8
0
 10
14.92455255
 20
2.61826821
  0
VERTEX
  8
0
 10
14.88284595
 20
2.67277424
  0
VERTEX
  8
0
 10
14.84293220
 20
2.72827291
  0
VERTEX
  8
0
 10
14.80469366
 20
2.78469956
  0
VERTEX
  8
0
 10
14.76801270
 20
2.84198953
  0
VERTEX
  8
0
 10
14.73277167
 20
2.90007816
  0
VERTEX
  8
0
 10
14.69885294
 20
2.95890080
  0
VERTEX
  8
0
 10
14.66613888
 20
3.01839277
  0
VERTEX
  8
0
 10
14.63451184
 20
3.07848943
  0
VERTEX
  8
0
 10
14.60385419
 20
3.13912610
  0
VERTEX
  8
0
 10
14.57404829
 20
3.20023814
  0
VERTEX
  8
0
 10
14.51652119
 20
3.32362965
  0
VERTEX
  8
0
 10
14.29695541
 20
3.82327805
  0
VERTEX
  8
0
 10
14.23999413
 20
3.94712434
  0
VERTEX
  8
0
 10
14.21055601
 20
4.00853198
  0
VERTEX
  8
0
 10
14.18032272
 20
4.06950974
  0
VERTEX
  8
0
 10
14.14917662
 20
4.12999296
  0
VERTEX
  8
0
 10
14.11700008
 20
4.18991698
  0
VERTEX
  8
0
 10
14.08367546
 20
4.24921713
  0
VERTEX
  8
0
 10
14.04908512
 20
4.30782876
  0
VERTEX
  8
0
 10
14.01311142
 20
4.36568720
  0
VERTEX
  8
0
 10
13.94260596
 20
4.35285053
  0
VERTEX
  8
0
 10
13.87200954
 20
4.34113703
  0
VERTEX
  8
0
 10
13.80132678
 20
4.33049704
  0
VERTEX
  8
0
 10
13.73056234
 20
4.32088089
  0
VERTEX
  8
0
 10
13.65972082
 20
4.31223890
  0
VERTEX
  8
0
 10
13.58880687
 20
4.30452140
  0
VERTEX
  8
0
 10
13.51782512
 20
4.29767873
  0
VERTEX
  8
0
 10
13.44678020
 20
4.29166122
  0
VERTEX
  8
0
 10
13.30451936
 20
4.28190296
  0
VERTEX
  8
0
 10
13.16206142
 20
4.27484926
  0
VERTEX
  8
0
 10
12.94808598
 20
4.26847053
  0
VERTEX
  8
0
 10
11.94844654
 20
4.26793684
  0
VERTEX
  8
0
 10
11.73016157
 20
4.25767426
  0
VERTEX
  8
0
 10
11.59786338
 20
4.24683475
  0
VERTEX
  8
0
 10
11.50975400
 20
4.23679095
  0
VERTEX
  8
0
 10
11.46584178
 20
4.23076782
  0
VERTEX
  8
0
 10
11.42207592
 20
4.22400787
  0
VERTEX
  8
0
 10
11.37849498
 20
4.21645911
  0
VERTEX
  8
0
 10
11.33513750
 20
4.20806953
  0
VERTEX
  8
0
 10
11.29204202
 20
4.19878714
  0
VERTEX
  8
0
 10
11.24924709
 20
4.18855995
  0
VERTEX
  8
0
 10
11.20679126
 20
4.17733594
  0
VERTEX
  8
0
 10
11.16471307
 20
4.16506313
  0
VERTEX
  8
0
 10
11.12305107
 20
4.15168951
  0
VERTEX
  8
0
 10
11.08184380
 20
4.13716309
  0
VERTEX
  8
0
 10
11.04112980
 20
4.12143188
  0
VERTEX
  8
0
 10
11.00094763
 20
4.10444386
  0
VERTEX
  8
0
 10
10.96133583
 20
4.08614705
  0
VERTEX
  8
0
 10
10.92233294
 20
4.06648944
  0
VERTEX
  8
0
 10
10.88397752
 20
4.04541904
  0
VERTEX
  8
0
 10
10.84630809
 20
4.02288386
  0
VERTEX
  8
0
 10
10.80936322
 20
3.99883188
  0
VERTEX
  8
0
 10
10.77318145
 20
3.97321112
  0
VERTEX
  8
0
 10
10.73780131
 20
3.94596957
  0
VERTEX
  8
0
 10
10.71528057
 20
3.92752670
  0
VERTEX
  8
0
 10
10.69365652
 20
3.90839166
  0
VERTEX
  8
0
 10
10.67289554
 20
3.88859485
  0
VERTEX
  8
0
 10
10.65296401
 20
3.86816668
  0
VERTEX
  8
0
 10
10.63382830
 20
3.84713756
  0
VERTEX
  8
0
 10
10.61545479
 20
3.82553790
  0
VERTEX
  8
0
 10
10.59780985
 20
3.80339809
  0
VERTEX
  8
0
 10
10.58085986
 20
3.78074855
  0
VERTEX
  8
0
 10
10.56457118
 20
3.75761967
  0
VERTEX
  8
0
 10
10.53384330
 20
3.71004557
  0
VERTEX
  8
0
 10
10.50535721
 20
3.66091901
  0
VERTEX
  8
0
 10
10.47884390
 20
3.61048327
  0
VERTEX
  8
0
 10
10.43065963
 20
3.50665717
  0
VERTEX
  8
0
 10
10.32589270
 20
3.24120835
  0
VERTEX
  8
0
 10
10.15526724
 20
2.84979787
  0
VERTEX
  8
0
 10
10.31046355
 20
2.64034547
  0
VERTEX
  8
0
 10
10.33850562
 20
2.58617095
  0
VERTEX
  8
0
 10
10.35562277
 20
2.54375868
  0
VERTEX
  8
0
 10
10.36874338
 20
2.49962005
  0
VERTEX
  8
0
 10
10.37498512
 20
2.46914656
  0
VERTEX
  8
0
 10
10.37839797
 20
2.44676099
  0
VERTEX
  8
0
 10
10.38095262
 20
2.42435761
  0
VERTEX
  8
0
 10
10.38266546
 20
2.40195194
  0
VERTEX
  8
0
 10
10.38355287
 20
2.37955955
  0
VERTEX
  8
0
 10
10.38363125
 20
2.35719599
  0
VERTEX
  8
0
 10
10.38291699
 20
2.33487679
  0
VERTEX
  8
0
 10
10.38142646
 20
2.31261750
  0
VERTEX
  8
0
 10
10.37917606
 20
2.29043368
  0
VERTEX
  8
0
 10
10.37618218
 20
2.26834088
  0
VERTEX
  8
0
 10
10.36802951
 20
2.22449049
  0
VERTEX
  8
0
 10
10.35709956
 20
2.18119072
  0
VERTEX
  8
0
 10
10.34352343
 20
2.13856595
  0
VERTEX
  8
0
 10
10.32743221
 20
2.09674056
  0
VERTEX
  8
0
 10
10.30895701
 20
2.05583894
  0
VERTEX
  8
0
 10
10.28822894
 20
2.01598547
  0
VERTEX
  8
0
 10
10.26537909
 20
1.97730452
  0
VERTEX
  8
0
 10
10.24053857
 20
1.93992049
  0
VERTEX
  8
0
 10
10.21383848
 20
1.90395774
  0
VERTEX
  8
0
 10
10.18540992
 20
1.86954067
  0
VERTEX
  8
0
 10
10.07110911
 20
1.73185370
  0
VERTEX
  8
0
 10
10.05015609
 20
1.70022200
  0
VERTEX
  8
0
 10
10.03832115
 20
1.67830919
  0
VERTEX
  8
0
 10
10.02861750
 20
1.65561615
  0
VERTEX
  8
0
 10
10.02140884
 20
1.63203984
  0
VERTEX
  8
0
 10
10.01885379
 20
1.61988826
  0
VERTEX
  8
0
 10
10.01705887
 20
1.60747722
  0
VERTEX
  8
0
 10
10.01606954
 20
1.59479383
  0
VERTEX
  8
0
 10
10.01593126
 20
1.58182523
  0
VERTEX
  8
0
 10
10.01668950
 20
1.56855852
  0
VERTEX
  8
0
 10
10.01838972
 20
1.55498084
  0
VERTEX
  8
0
 10
10.12818834
 20
0.66276739
  0
VERTEX
  8
0
 10
10.13359936
 20
0.59634366
  0
VERTEX
  8
0
 10
9.90459300
 20
0.62274704
  0
VERTEX
  8
0
 10
9.18863578
 20
0.73197975
  0
VERTEX
  8
0
 10
9.16883439
 20
0.73460170
  0
VERTEX
  8
0
 10
9.14950889
 20
0.73576983
  0
VERTEX
  8
0
 10
9.13063479
 20
0.73556138
  0
VERTEX
  8
0
 10
9.11218760
 20
0.73405357
  0
VERTEX
  8
0
 10
9.09414283
 20
0.73132364
  0
VERTEX
  8
0
 10
9.07647598
 20
0.72744881
  0
VERTEX
  8
0
 10
9.05916257
 20
0.72250634
  0
VERTEX
  8
0
 10
9.04217811
 20
0.71657344
  0
VERTEX
  8
0
 10
9.02549810
 20
0.70972734
  0
VERTEX
  8
0
 10
9.00909805
 20
0.70204529
  0
VERTEX
  8
0
 10
8.97703989
 20
0.68448224
  0
VERTEX
  8
0
 10
8.93044011
 20
0.65379880
  0
VERTEX
  8
0
 10
8.78003933
 20
0.53901775
  0
VERTEX
  8
0
 10
8.74940022
 20
0.51838727
  0
VERTEX
  8
0
 10
8.71811764
 20
0.49997371
  0
VERTEX
  8
0
 10
8.54951621
 20
0.49997371
  0
VERTEX
  8
0
 10
8.37344490
 20
0.62022443
  0
VERTEX
  8
0
 10
8.19922271
 20
0.74295780
  0
VERTEX
  8
0
 10
8.02684576
 20
0.86812580
  0
VERTEX
  8
0
 10
7.85631018
 20
0.99568037
  0
VERTEX
  8
0
 10
7.68761211
 20
1.12557346
  0
VERTEX
  8
0
 10
7.52074766
 20
1.25775702
  0
VERTEX
  8
0
 10
7.35571296
 20
1.39218301
  0
VERTEX
  8
0
 10
7.19250415
 20
1.52880338
  0
VERTEX
  8
0
 10
7.03111734
 20
1.66757009
  0
VERTEX
  8
0
 10
6.87154867
 20
1.80843508
  0
VERTEX
  8
0
 10
6.71379426
 20
1.95135030
  0
VERTEX
  8
0
 10
6.55785023
 20
2.09626772
  0
VERTEX
  8
0
 10
6.40371273
 20
2.24313928
  0
VERTEX
  8
0
 10
6.25137786
 20
2.39191693
  0
VERTEX
  8
0
 10
6.10084177
 20
2.54255263
  0
VERTEX
  8
0
 10
5.95210057
 20
2.69499832
  0
VERTEX
  8
0
 10
5.80515040
 20
2.84920597
  0
VERTEX
  8
0
 10
5.65998738
 20
3.00512753
  0
VERTEX
  8
0
 10
5.51660764
 20
3.16271494
  0
VERTEX
  8
0
 10
5.37500730
 20
3.32192016
  0
VERTEX
  8
0
 10
5.23518249
 20
3.48269514
  0
VERTEX
  8
0
 10
5.09712934
 20
3.64499183
  0
VERTEX
  8
0
 10
4.96084398
 20
3.80876220
  0
VERTEX
  8
0
 10
4.82632254
 20
3.97395817
  0
VERTEX
  8
0
 10
4.69356113
 20
4.14053173
  0
VERTEX
  8
0
 10
4.56255589
 20
4.30843480
  0
VERTEX
  8
0
 10
4.43330295
 20
4.47761935
  0
VERTEX
  8
0
 10
4.30579843
 20
4.64803733
  0
VERTEX
  8
0
 10
4.18003845
 20
4.81964069
  0
VERTEX
  8
0
 10
4.07895659
 20
4.95996426
  0
VERTEX
  8
0
 10
3.97881693
 20
5.10094493
  0
VERTEX
  8
0
 10
3.87961333
 20
5.24257224
  0
VERTEX
  8
0
 10
3.78133968
 20
5.38483575
  0
VERTEX
  8
0
 10
3.68398986
 20
5.52772499
  0
VERTEX
  8
0
 10
3.58755774
 20
5.67122951
  0
VERTEX
  8
0
 10
3.49203720
 20
5.81533887
  0
VERTEX
  8
0
 10
3.39742211
 20
5.96004260
  0
VERTEX
  8
0
 10
3.30370636
 20
6.10533026
  0
VERTEX
  8
0
 10
3.21088381
 20
6.25119139
  0
VERTEX
  8
0
 10
3.11894835
 20
6.39761554
  0
VERTEX
  8
0
 10
3.02789385
 20
6.54459225
  0
VERTEX
  8
0
 10
2.93771419
 20
6.69211107
  0
VERTEX
  8
0
 10
2.84840325
 20
6.84016155
  0
VERTEX
  8
0
 10
2.75995489
 20
6.98873323
  0
VERTEX
  8
0
 10
2.67236301
 20
7.13781567
  0
VERTEX
  8
0
 10
2.58562147
 20
7.28739840
  0
VERTEX
  8
0
 10
2.49972415
 20
7.43747098
  0
VERTEX
  8
0
 10
2.41466494
 20
7.58802294
  0
VERTEX
  8
0
 10
2.33043769
 20
7.73904385
  0
VERTEX
  8
0
 10
2.24703630
 20
7.89052324
  0
VERTEX
  8
0
 10
2.16445464
 20
8.04245066
  0
VERTEX
  8
0
 10
2.08268659
 20
8.19481567
  0
VERTEX
  8
0
 10
2.00172602
 20
8.34760779
  0
VERTEX
  8
0
 10
1.92156681
 20
8.50081659
  0
VERTEX
  8
0
 10
1.84220283
 20
8.65443160
  0
VERTEX
  8
0
 10
1.76362797
 20
8.80844238
  0
VERTEX
  8
0
 10
1.68583609
 20
8.96283848
  0
VERTEX
  8
0
 10
1.60882108
 20
9.11760943
  0
VERTEX
  8
0
 10
1.55863343
 20
9.21692703
  0
VERTEX
  8
0
 10
1.29004397
 20
9.70623877
  0
VERTEX
  8
0
 10
1.18411535
 20
9.90273429
  0
VERTEX
  8
0
 10
1.13356208
 20
10.00204003
  0
VERTEX
  8
0
 10
1.08531221
 20
10.10234870
  0
VERTEX
  8
0
 10
1.06221418
 20
10.15294888
  0
VERTEX
  8
0
 10
1.03988775
 20
10.20388349
  0
VERTEX
  8
0
 10
1.01839818
 20
10.25518044
  0
VERTEX
  8
0
 10
0.99781073
 20
10.30686761
  0
VERTEX
  8
0
 10
0.97819063
 20
10.35897292
  0
VERTEX
  8
0
 10
0.95960315
 20
10.41152426
  0
VERTEX
  8
0
 10
0.94211354
 20
10.46454953
  0
VERTEX
  8
0
 10
0.92578705
 20
10.51807664
  0
VERTEX
  8
0
 10
0.91068894
 20
10.57213348
  0
VERTEX
  8
0
 10
0.91068894
 20
10.83860939
  0
VERTEX
  8
0
 10
1.01802632
 20
11.02281065
  0
VERTEX
  8
0
 10
1.11917385
 20
11.13410484
  0
VERTEX
  8
0
 10
1.36305750
 20
11.31982048
  0
VERTEX
  8
0
 10
1.44818231
 20
11.39344494
  0
VERTEX
  8
0
 10
1.48114831
 20
11.42903429
  0
VERTEX
  8
0
 10
1.49544024
 20
11.44832222
  0
VERTEX
  8
0
 10
1.52480059
 20
11.59113347
  0
VERTEX
  8
0
 10
1.47911805
 20
12.75738661
  0
VERTEX
  8
0
 10
1.51164980
 20
12.74331848
  0
VERTEX
  8
0
 10
1.57568264
 20
12.71340977
  0
VERTEX
  8
0
 10
1.63845806
 20
12.68134085
  0
VERTEX
  8
0
 10
1.70011623
 20
12.64735539
  0
VERTEX
  8
0
 10
1.82064140
 20
12.57460948
  0
VERTEX
  8
0
 10
2.34470131
 20
12.21671121
  0
VERTEX
  8
0
 10
2.45055039
 20
12.15996892
  0
VERTEX
  8
0
 10
2.48816289
 20
12.14991414
  0
VERTEX
  8
0
 10
2.51108144
 20
12.14887095
  0
VERTEX
  8
0
 10
2.52646907
 20
12.15077327
  0
VERTEX
  8
0
 10
2.54192246
 20
12.15504429
  0
VERTEX
  8
0
 10
2.55742353
 20
12.16193302
  0
VERTEX
  8
0
 10
2.63352549
 20
12.20021435
  0
VERTEX
  8
0
 10
3.07532642
 20
12.49700894
  0
VERTEX
  8
0
 10
3.19323641
 20
12.58831651
  0
VERTEX
  8
0
 10
3.30829782
 20
12.68255095
  0
VERTEX
  8
0
 10
3.42072242
 20
12.77949460
  0
VERTEX
  8
0
 10
3.53072199
 20
12.87892980
  0
VERTEX
  8
0
 10
3.63850828
 20
12.98063890
  0
VERTEX
  8
0
 10
3.74429308
 20
13.08440423
  0
VERTEX
  8
0
 10
3.84828815
 20
13.19000815
  0
VERTEX
  8
0
 10
3.95070527
 20
13.29723298
  0
VERTEX
  8
0
 10
4.05175621
 20
13.40586108
  0
VERTEX
  8
0
 10
4.15165273
 20
13.51567478
  0
VERTEX
  8
0
 10
4.25060662
 20
13.62645643
  0
VERTEX
  8
0
 10
4.34882963
 20
13.73798838
  0
VERTEX
  8
0
 10
4.83639365
 20
14.29928441
  0
VERTEX
  8
0
 10
4.93467864
 20
14.41074728
  0
VERTEX
  8
0
 10
5.03371516
 20
14.52143683
  0
VERTEX
  8
0
 10
5.13371498
 20
14.63113541
  0
VERTEX
  8
0
 10
5.23488987
 20
14.73962536
  0
VERTEX
  8
0
 10
5.33745161
 20
14.84668902
  0
VERTEX
  8
0
 10
5.44161195
 20
14.95210874
  0
VERTEX
  8
0
 10
5.54758268
 20
15.05566685
  0
VERTEX
  8
0
 10
5.65557557
 20
15.15714570
  0
VERTEX
  8
0
 10
5.76580238
 20
15.25632764
  0
VERTEX
  8
0
 10
5.87847489
 20
15.35299499
  0
VERTEX
  8
0
 10
5.99380487
 20
15.44693011
  0
VERTEX
  8
0
 10
6.11200409
 20
15.53791534
  0
VERTEX
  8
0
 10
6.20271622
 20
15.60382889
  0
VERTEX
  8
0
 10
6.29497429
 20
15.66771731
  0
VERTEX
  8
0
 10
6.38874055
 20
15.72947378
  0
VERTEX
  8
0
 10
6.48397722
 20
15.78899149
  0
VERTEX
  8
0
 10
6.58064653
 20
15.84616360
  0
VERTEX
  8
0
 10
6.67871071
 20
15.90088329
  0
VERTEX
  8
0
 10
6.77813200
 20
15.95304374
  0
VERTEX
  8
0
 10
6.82833975
 20
15.97813087
  0
VERTEX
  8
0
 10
6.87887262
 20
16.00253813
  0
VERTEX
  8
0
 10
6.92972587
 20
16.02625217
  0
VERTEX
  8
0
 10
6.98089480
 20
16.04925963
  0
VERTEX
  8
0
 10
7.03237467
 20
16.07154717
  0
VERTEX
  8
0
 10
7.08416077
 20
16.09310142
  0
VERTEX
  8
0
 10
7.13624838
 20
16.11390904
  0
VERTEX
  8
0
 10
7.18863277
 20
16.13395668
  0
VERTEX
  8
0
 10
7.24130923
 20
16.15323098
  0
VERTEX
  8
0
 10
7.29427303
 20
16.17171858
  0
VERTEX
  8
0
 10
7.34751945
 20
16.18940614
  0
VERTEX
  8
0
 10
7.40104377
 20
16.20628030
  0
VERTEX
  8
0
 10
7.45484127
 20
16.22232771
  0
VERTEX
  8
0
 10
7.50890722
 20
16.23753502
  0
VERTEX
  8
0
 10
7.56323692
 20
16.25188887
  0
VERTEX
  8
0
 10
7.75988556
 20
16.32326169
  0
VERTEX
  8
0
 10
7.76882796
 20
16.33646123
  0
VERTEX
  8
0
 10
7.79313525
 20
16.37729512
  0
VERTEX
  8
0
 10
7.82051106
 20
16.43419396
  0
VERTEX
  8
0
 10
7.92535729
 20
16.75078670
  0
VERTEX
  8
0
 10
8.39238401
 20
18.16830429
  0
VERTEX
  8
0
 10
8.55575125
 20
18.63811560
  0
VERTEX
  8
0
 10
8.65845050
 20
18.91828849
  0
VERTEX
  8
0
 10
8.72937941
 20
19.10416295
  0
VERTEX
  8
0
 10
8.80256592
 20
19.28920317
  0
VERTEX
  8
0
 10
8.87825636
 20
19.47331636
  0
VERTEX
  8
0
 10
8.91879179
 20
19.56840306
  0
VERTEX
  8
0
 10
8.96021931
 20
19.66331206
  0
VERTEX
  8
0
 10
9.00257512
 20
19.75798512
  0
VERTEX
  8
0
 10
9.04589539
 20
19.85236399
  0
VERTEX
  8
0
 10
9.09021631
 20
19.94639041
  0
VERTEX
  8
0
 10
9.13557406
 20
20.04000615
  0
VERTEX
  8
0
 10
9.18200481
 20
20.13315295
  0
VERTEX
  8
0
 10
9.22954476
 20
20.22577256
  0
VERTEX
  8
0
 10
9.27823008
 20
20.31780675
  0
VERTEX
  8
0
 10
9.32809696
 20
20.40919725
  0
VERTEX
  8
0
 10
9.37918158
 20
20.49988583
  0
VERTEX
  8
0
 10
9.43152012
 20
20.58981424
  0
VERTEX
  8
0
 10
9.48514876
 20
20.67892422
  0
VERTEX
  8
0
 10
9.54010368
 20
20.76715754
  0
VERTEX
  8
0
 10
9.59642108
 20
20.85445594
  0
VERTEX
  8
0
 10
9.65413712
 20
20.94076117
  0
VERTEX
  8
0
 10
9.71328799
 20
21.02601500
  0
VERTEX
  8
0
 10
9.77390987
 20
21.11015916
  0
VERTEX
  8
0
 10
9.83603895
 20
21.19313542
  0
VERTEX
  8
0
 10
9.89971141
 20
21.27488553
  0
VERTEX
  8
0
 10
9.96496342
 20
21.35535123
  0
VERTEX
  8
0
 10
10.03183118
 20
21.43447429
  0
VERTEX
  8
0
 10
10.10035085
 20
21.51219645
  0
VERTEX
  8
0
 10
10.17055864
 20
21.58845947
  0
VERTEX
  8
0
 10
10.24249071
 20
21.66320509
  0
VERTEX
  8
0
 10
10.31618325
 20
21.73637508
  0
VERTEX
  8
0
 10
10.39167244
 20
21.80791118
  0
VERTEX
  8
0
 10
10.46899446
 20
21.87775514
  0
VERTEX
  8
0
 10
10.54818550
 20
21.94584873
  0
VERTEX
  8
0
 10
10.57746608
 20
21.97094993
  0
VERTEX
  8
0
 10
10.75326388
 20
22.10373788
  0
VERTEX
  8
0
 10
10.79830009
 20
22.14276798
  0
VERTEX
  8
0
 10
10.82590738
 20
22.17049707
  0
VERTEX
  8
0
 10
10.83879198
 20
22.18499117
  0
VERTEX
  8
0
 10
10.85097767
 20
22.19995691
  0
VERTEX
  8
0
 10
10.86239978
 20
22.21543326
  0
VERTEX
  8
0
 10
10.87299366
 20
22.23145914
  0
VERTEX
  8
0
 10
10.88269464
 20
22.24807353
  0
VERTEX
  8
0
 10
10.89143806
 20
22.26531537
  0
VERTEX
  8
0
 10
10.89915926
 20
22.28322362
  0
VERTEX
  8
0
 10
10.90579358
 20
22.30183722
  0
VERTEX
  8
0
 10
10.91127635
 20
22.32119513
  0
VERTEX
  8
0
 10
10.91554291
 20
22.34133630
  0
VERTEX
  8
0
 10
10.91852860
 20
22.36229968
  0
VERTEX
  8
0
 10
10.94184323
 20
22.51834974
  0
VERTEX
  8
0
 10
11.00463875
 20
23.22562402
  0
VERTEX
  8
0
 10
11.03573880
 20
23.50002629
  0
SEQEND
  0
POLYLINE
  8
color#ffffffff
 66
   1
 39
0.000000
 70
    1
  0
VERTEX
  8
0
 10
11.37553447
 20
22.71957587
  0
VERTEX
  8
0
 10
11.39465825
 20
22.69043614
  0
VERTEX
  8
0
 10
11.41254898
 20
22.66077390
  0
VERTEX
  8
0
 10
11.42924299
 20
22.63061537
  0
VERTEX
  8
0
 10
11.44477663
 20
22.59998676
  0
VERTEX
  8
0
 10
11.45918627
 20
22.56891430
  0
VERTEX
  8
0
 10
11.47250824
 20
22.53742419
  0
VERTEX
  8
0
 10
11.48477890
 20
22.50554267
  0
VERTEX
  8
0
 10
11.49603460
 20
22.47329596
  0
VERTEX
  8
0
 10
11.50631169
 20
22.44071026
  0
VERTEX
  8
0
 10
11.51564651
 20
22.40781180
  0
VERTEX
  8
0
 10
11.52407542
 20
22.37462681
  0
VERTEX
  8
0
 10
11.53163477
 20
22.34118149
  0
VERTEX
  8
0
 10
11.53836091
 20
22.30750207
  0
VERTEX
  8
0
 10
11.54429018
 20
22.27361477
  0
VERTEX
  8
0
 10
11.54945894
 20
22.23954581
  0
VERTEX
  8
0
 10
11.55766033
 20
22.17096778
  0
VERTEX
  8
0
 10
11.56325587
 20
22.10197773
  0
VERTEX
  8
0
 10
11.56653636
 20
22.03278542
  0
VERTEX
  8
0
 10
11.56775250
 20
21.92907655
  0
VERTEX
  8
0
 10
11.56232383
 20
21.75818864
  0
VERTEX
  8
0
 10
11.55762125
 20
21.70380363
  0
VERTEX
  8
0
 10
11.55185787
 20
21.64957849
  0
VERTEX
  8
0
 10
11.54505513
 20
21.59551958
  0
VERTEX
  8
0
 10
11.53723448
 20
21.54163323
  0
VERTEX
  8
0
 10
11.52841737
 20
21.48792578
  0
VERTEX
  8
0
 10
11.51862524
 20
21.43440356
  0
VERTEX
  8
0
 10
11.50787953
 20
21.38107292
  0
VERTEX
  8
0
 10
11.49620169
 20
21.32794020
  0
VERTEX
  8
0
 10
11.48361316
 20
21.27501172
  0
VERTEX
  8
0
 10
11.47013540
 20
21.22229384
  0
VERTEX
  8
0
 10
11.45578984
 20
21.16979288
  0
VERTEX
  8
0
 10
11.44059793
 20
21.11751519
  0
VERTEX
  8
0
 10
11.42458111
 20
21.06546710
  0
VERTEX
  8
0
 10
11.40776084
 20
21.01365496
  0
VERTEX
  8
0
 10
11.39015856
 20
20.96208510
  0
VERTEX
  8
0
 10
11.37179570
 20
20.91076385
  0
VERTEX
  8
0
 10
11.35269372
 20
20.85969757
  0
VERTEX
  8
0
 10
11.33287406
 20
20.80889257
  0
VERTEX
  8
0
 10
11.29116749
 20
20.70809183
  0
VERTEX
  8
0
 10
11.24684755
 20
20.60841233
  0
VERTEX
  8
0
 10
11.20008580
 20
20.50990477
  0
VERTEX
  8
0
 10
11.15105380
 20
20.41261986
  0
VERTEX
  8
0
 10
11.09992310
 20
20.31660830
  0
VERTEX
  8
0
 10
11.07362436
 20
20.26909588
  0
VERTEX
  8
0
 10
11.03507483
 20
20.17009760
  0
VERTEX
  8
0
 10
11.03606323
 20
20.14770276
  0
VERTEX
  8
0
 10
11.04127164
 20
20.13133747
  0
VERTEX
  8
0
 10
11.04724602
 20
20.12072246
  0
VERTEX
  8
0
 10
11.05545535
 20
20.11039961
  0
VERTEX
  8
0
 10
11.19544992
 20
19.85091178
  0
VERTEX
  8
0
 10
11.24144622
 20
19.72009140
  0
VERTEX
  8
0
 10
11.25782747
 20
19.65231419
  0
VERTEX
  8
0
 10
11.26897826
 20
19.59848486
  0
VERTEX
  8
0
 10
11.27904474
 20
19.54454483
  0
VERTEX
  8
0
 10
11.28809175
 20
19.49050061
  0
VERTEX
  8
0
 10
11.29618417
 20
19.43635871
  0
VERTEX
  8
0
 10
11.30338686
 20
19.38212566
  0
VERTEX
  8
0
 10
11.30976468
 20
19.32780796
  0
VERTEX
  8
0
 10
11.32030516
 20
19.21894467
  0
VERTEX
  8
0
 10
11.32832453
 20
19.10982096
  0
VERTEX
  8
0
 10
11.34876633
 20
18.56211994
  0
VERTEX
  8
0
 10
11.36048625
 20
18.28835205
  0
VERTEX
  8
0
 10
11.36802694
 20
18.17911870
  0
VERTEX
  8
0
 10
11.37797612
 20
18.07011998
  0
VERTEX
  8
0
 10
11.40583817
 20
18.11109893
  0
VERTEX
  8
0
 10
11.43147975
 20
18.15319882
  0
VERTEX
  8
0
 10
11.45503513
 20
18.19632540
  0
VERTEX
  8
0
 10
11.48675027
 20
18.26273411
  0
VERTEX
  8
0
 10
11.51452666
 20
18.33092263
  0
VERTEX
  8
0
 10
11.54621810
 20
18.42405941
  0
VERTEX
  8
0
 10
11.60043077
 20
18.63921224
  0
VERTEX
  8
0
 10
11.61940100
 20
18.73558645
  0
VERTEX
  8
0
 10
11.77323152
 20
19.66523942
  0
VERTEX
  8
0
 10
11.78046648
 20
19.69813649
  0
VERTEX
  8
0
 10
11.80844399
 20
19.68341639
  0
VERTEX
  8
0
 10
11.83591017
 20
19.66767785
  0
VERTEX
  8
0
 10
11.86283156
 20
19.65095039
  0
VERTEX
  8
0
 10
11.88917474
 20
19.63326352
  0
VERTEX
  8
0
 10
11.91490624
 20
19.61464677
  0
VERTEX
  8
0
 10
11.93999262
 20
19.59512964
  0
VERTEX
  8
0
 10
11.96440043
 20
19.57474166
  0
VERTEX
  8
0
 10
11.98809623
 20
19.55351235
  0
VERTEX
  8
0
 10
12.01104657
 20
19.53147121
  0
VERTEX
  8
0
 10
12.03321800
 20
19.50864777
  0
VERTEX
  8
0
 10
12.05457709
 20
19.48507155
  0
VERTEX
  8
0
 10
12.07509037
 20
19.46077205
  0
VERTEX
  8
0
 10
12.09472440
 20
19.43577881
  0
VERTEX
  8
0
 10
12.11344574
 20
19.41012132
  0
VERTEX
  8
0
 10
12.13122094
 20
19.38382912
  0
VERTEX
  8
0
 10
12.14801655
 20
19.35693171
  0
VERTEX
  8
0
 10
12.16379913
 20
19.32945862
  0
VERTEX
  8
0
 10
12.17853523
 20
19.30143937
  0
VERTEX
  8
0
 10
12.19219141
 20
19.27290346
  0
VERTEX
  8
0
 10
12.20473421
 20
19.24388041
  0
VERTEX
  8
0
 10
12.21613018
 20
19.21439975
  0
VERTEX
  8
0
 10
12.22634589
 20
19.18449098
  0
VERTEX
  8
0
 10
12.23534789
 20
19.15418364
  0
VERTEX
  8
0
 10
12.24310273
 20
19.12350722
  0
VERTEX
  8
0
 10
12.24957696
 20
19.09249125
  0
VERTEX
  8
0
 10
12.25473713
 20
19.06116525
  0
VERTEX
  8
0
 10
12.25854981
 20
19.02955874
  0
VERTEX
  8
0
 10
12.26098153
 20
18.99770122
  0
VERTEX
  8
0
 10
12.26199886
 20
18.96562222
  0
VERTEX
  8
0
 10
12.26223349
 20
18.92738502
  0
VERTEX
  8
0
 10
12.26115131
 20
18.88939429
  0
VERTEX
  8
0
 10
12.25880656
 20
18.85164386
  0
VERTEX
  8
0
 10
12.25525349
 20
18.81412754
  0
VERTEX
  8
0
 10
12.25054637
 20
18.77683913
  0
VERTEX
  8
0
 10
12.24473943
 20
18.73977245
  0
VERTEX
  8
0
 10
12.23788693
 20
18.70292130
  0
VERTEX
  8
0
 10
12.23004312
 20
18.66627949
  0
VERTEX
  8
0
 10
12.22126225
 20
18.62984084
  0
VERTEX
  8
0
 10
12.21159857
 20
18.59359916
  0
VERTEX
  8
0
 10
12.20110633
 20
18.55754826
  0
VERTEX
  8
0
 10
12.18983978
 20
18.52168194
  0
VERTEX
  8
0
 10
12.16520076
 20
18.45047830
  0
VERTEX
  8
0
 10
12.13811551
 20
18.37993872
  0
VERTEX
  8
0
 10
12.07834236
 20
18.24065370
  0
VERTEX
  8
0
 10
11.93240812
 20
17.93419825
  0
VERTEX
  8
0
 10
11.74788380
 20
17.54625546
  0
VERTEX
  8
0
 10
11.70946223
 20
17.45831579
  0
VERTEX
  8
0
 10
11.67327553
 20
17.36961856
  0
VERTEX
  8
0
 10
11.65620709
 20
17.32496733
  0
VERTEX
  8
0
 10
11.63992156
 20
17.28010449
  0
VERTEX
  8
0
 10
11.62449367
 20
17.23502262
  0
VERTEX
  8
0
 10
11.60999814
 20
17.18971432
  0
VERTEX
  8
0
 10
11.59650971
 20
17.14417218
  0
VERTEX
  8
0
 10
11.58410311
 20
17.09838878
  0
VERTEX
  8
0
 10
11.57285307
 20
17.05235672
  0
VERTEX
  8
0
 10
11.56283431
 20
17.00606859
  0
VERTEX
  8
0
 10
11.55412157
 20
16.95951699
  0
VERTEX
  8
0
 10
11.54678957
 20
16.91269450
  0
VERTEX
  8
0
 10
11.54091305
 20
16.86559371
  0
VERTEX
  8
0
 10
11.53656673
 20
16.81820722
  0
VERTEX
  8
0
 10
11.53382535
 20
16.77052762
  0
VERTEX
  8
0
 10
11.53276363
 20
16.72254750
  0
VERTEX
  8
0
 10
11.53345630
 20
16.67425945
  0
VERTEX
  8
0
 10
11.53597809
 20
16.62565605
  0
VERTEX
  8
0
 10
11.59131692
 20
16.70542982
  0
VERTEX
  8
0
 10
11.80861425
 20
17.03661663
  0
VERTEX
  8
0
 10
11.86487272
 20
17.11866784
  0
VERTEX
  8
0
 10
11.89369750
 20
17.15906345
  0
VERTEX
  8
0
 10
11.92308428
 20
17.19891347
  0
VERTEX
  8
0
 10
11.95310676
 20
17.23812367
  0
VERTEX
  8
0
 10
11.98383867
 20
17.27659985
  0
VERTEX
  8
0
 10
12.01535371
 20
17.31424779
  0
VERTEX
  8
0
 10
12.04772561
 20
17.35097329
  0
VERTEX
  8
0
 10
12.08102807
 20
17.38668213
  0
VERTEX
  8
0
 10
12.11533482
 20
17.42128010
  0
VERTEX
  8
0
 10
12.15071956
 20
17.45467299
  0
VERTEX
  8
0
 10
12.18725603
 20
17.48676660
  0
VERTEX
  8
0
 10
12.22501792
 20
17.51746670
  0
VERTEX
  8
0
 10
12.26407896
 20
17.54667910
  0
VERTEX
  8
0
 10
12.30451285
 20
17.57430957
  0
VERTEX
  8
0
 10
12.34639333
 20
17.60026392
  0
VERTEX
  8
0
 10
12.38979410
 20
17.62444792
  0
VERTEX
  8
0
 10
12.43478888
 20
17.64676737
  0
VERTEX
  8
0
 10
12.48145138
 20
17.66712805
  0
VERTEX
  8
0
 10
12.46129074
 20
17.62164062
  0
VERTEX
  8
0
 10
12.44006084
 20
17.57673939
  0
VERTEX
  8
0
 10
12.41784577
 20
17.53237823
  0
VERTEX
  8
0
 10
12.39472965
 20
17.48851100
  0
VERTEX
  8
0
 10
12.37079658
 20
17.44509155
  0
VERTEX
  8
0
 10
12.34613069
 20
17.40207376
  0
VERTEX
  8
0
 10
12.29493684
 20
17.31705858
  0
VERTEX
  8
0
 10
12.05049423
 20
16.94219140
  0
VERTEX
  8
0
 10
11.97096211
 20
16.81616045
  0
VERTEX
  8
0
 10
11.92044457
 20
16.73076456
  0
VERTEX
  8
0
 10
11.89618929
 20
16.68751563
  0
VERTEX
  8
0
 10
11.87271516
 20
16.64383786
  0
VERTEX
  8
0
 10
11.85010628
 20
16.59968510
  0
VERTEX
  8
0
 10
11.82844675
 20
16.55501122
  0
VERTEX
  8
0
 10
11.80782070
 20
16.50977008
  0
VERTEX
  8
0
 10
11.78831223
 20
16.46391554
  0
VERTEX
  8
0
 10
11.77000545
 20
16.41740146
  0
VERTEX
  8
0
 10
11.73929564
 20
16.33620048
  0
VERTEX
  8
0
 10
11.71234210
 20
16.25377608
  0
VERTEX
  8
0
 10
11.68214557
 20
16.14223709
  0
VERTEX
  8
0
 10
11.65838309
 20
16.02915508
  0
VERTEX
  8
0
 10
11.64091536
 20
15.91489117
  0
VERTEX
  8
0
 10
11.62960308
 20
15.79980646
  0
VERTEX
  8
0
 10
11.62430696
 20
15.68426208
  0
VERTEX
  8
0
 10
11.62419917
 20
15.59751937
  0
VERTEX
  8
0
 10
11.89251691
 20
15.99821671
  0
VERTEX
  8
0
 10
11.94810511
 20
16.07759399
  0
VERTEX
  8
0
 10
12.00539226
 20
16.15547849
  0
VERTEX
  8
0
 10
12.03481456
 20
16.19369506
  0
VERTEX
  8
0
 10
12.06483154
 20
16.23133936
  0
VERTEX
  8
0
 10
12.09549984
 20
16.26834503
  0
VERTEX
  8
0
 10
12.12687612
 20
16.30464571
  0
VERTEX
  8
0
 10
12.15901701
 20
16.34017505
  0
VERTEX
  8
0
 10
12.19197916
 20
16.37486668
  0
VERTEX
  8
0
 10
12.22581922
 20
16.40865425
  0
VERTEX
  8
0
 10
12.26059385
 20
16.44147140
  0
VERTEX
  8
0
 10
12.29635967
 20
16.47325176
  0
VERTEX
  8
0
 10
12.33317335
 20
16.50392898
  0
VERTEX
  8
0
 10
12.37109152
 20
16.53343670
  0
VERTEX
  8
0
 10
12.41017084
 20
16.56170857
  0
VERTEX
  8
0
 10
12.45046794
 20
16.58867821
  0
VERTEX
  8
0
 10
12.49203949
 20
16.61427928
  0
VERTEX
  8
0
 10
12.53494211
 20
16.63844541
  0
VERTEX
  8
0
 10
12.53292008
 20
16.56282624
  0
VERTEX
  8
0
 10
12.50419426
 20
16.18255380
  0
VERTEX
  8
0
 10
12.49548289
 20
16.03042775
  0
VERTEX
  8
0
 10
12.49417974
 20
15.95457506
  0
VERTEX
  8
0
 10
12.49456004
 20
15.91672471
  0
VERTEX
  8
0
 10
12.49573064
 20
15.87893394
  0
VERTEX
  8
0
 10
12.49776832
 20
15.84120943
  0
VERTEX
  8
0
 10
12.50074986
 20
15.80355787
  0
VERTEX
  8
0
 10
12.50475204
 20
15.76598596
  0
VERTEX
  8
0
 10
12.50985164
 20
15.72850037
  0
VERTEX
  8
0
 10
12.51612546
 20
15.69110780
  0
VERTEX
  8
0
 10
12.52365027
 20
15.65381493
  0
VERTEX
  8
0
 10
12.53250285
 20
15.61662845
  0
VERTEX
  8
0
 10
12.54276000
 20
15.57955505
  0
VERTEX
  8
0
 10
12.55449848
 20
15.54260142
  0
VERTEX
  8
0
 10
12.79124566
 20
16.02052877
  0
VERTEX
  8
0
 10
12.85729648
 20
16.12404779
  0
VERTEX
  8
0
 10
12.92888422
 20
16.22421017
  0
VERTEX
  8
0
 10
12.98624424
 20
16.29664647
  0
VERTEX
  8
0
 10
13.04677705
 20
16.36640479
  0
VERTEX
  8
0
 10
13.11050761
 20
16.43314663
  0
VERTEX
  8
0
 10
13.15478351
 20
16.47579819
  0
VERTEX
  8
0
 10
13.20049914
 20
16.51685834
  0
VERTEX
  8
0
 10
13.24766189
 20
16.55622677
  0
VERTEX
  8
0
 10
13.29627916
 20
16.59380319
  0
VERTEX
  8
0
 10
13.34635834
 20
16.62948730
  0
VERTEX
  8
0
 10
13.39790684
 20
16.66317880
  0
VERTEX
  8
0
 10
13.44422150
 20
16.68969907
  0
VERTEX
  8
0
 10
13.49319907
 20
16.71256151
  0
VERTEX
  8
0
 10
13.52702479
 20
16.72547652
  0
VERTEX
  8
0
 10
13.56157596
 20
16.73632412
  0
VERTEX
  8
0
 10
13.59666933
 20
16.74492761
  0
VERTEX
  8
0
 10
13.63212169
 20
16.75111031
  0
VERTEX
  8
0
 10
13.66774980
 20
16.75469553
  0
VERTEX
  8
0
 10
13.70337044
 20
16.75550658
  0
VERTEX
  8
0
 10
13.72112069
 20
16.75481658
  0
VERTEX
  8
0
 10
13.73880037
 20
16.75336679
  0
VERTEX
  8
0
 10
13.75638656
 20
16.75113511
  0
VERTEX
  8
0
 10
13.77385636
 20
16.74809946
  0
VERTEX
  8
0
 10
13.79118687
 20
16.74423776
  0
VERTEX
  8
0
 10
13.80835519
 20
16.73952791
  0
VERTEX
  8
0
 10
13.82533841
 20
16.73394784
  0
VERTEX
  8
0
 10
13.84211363
 20
16.72747545
  0
VERTEX
  8
0
 10
13.85865794
 20
16.72008867
  0
VERTEX
  8
0
 10
13.87494844
 20
16.71176540
  0
VERTEX
  8
0
 10
13.89096223
 20
16.70248357
  0
VERTEX
  8
0
 10
13.90823115
 20
16.69195449
  0
VERTEX
  8
0
 10
13.92470947
 20
16.68072482
  0
VERTEX
  8
0
 10
13.94043246
 20
16.66882870
  0
VERTEX
  8
0
 10
13.95543540
 20
16.65630028
  0
VERTEX
  8
0
 10
13.96975357
 20
16.64317370
  0
VERTEX
  8
0
 10
13.98342226
 20
16.62948313
  0
VERTEX
  8
0
 10
13.99647673
 20
16.61526270
  0
VERTEX
  8
0
 10
14.02088414
 20
16.58536888
  0
VERTEX
  8
0
 10
14.04325805
 20
16.55376542
  0
VERTEX
  8
0
 10
14.07362345
 20
16.50375228
  0
VERTEX
  8
0
 10
14.19121533
 20
16.25471456
  0
VERTEX
  8
0
 10
14.19968253
 20
16.23747693
  0
VERTEX
  8
0
 10
14.21232421
 20
16.29207094
  0
VERTEX
  8
0
 10
14.22286821
 20
16.34735345
  0
VERTEX
  8
0
 10
14.23117391
 20
16.40315782
  0
VERTEX
  8
0
 10
14.23710065
 20
16.45931743
  0
VERTEX
  8
0
 10
14.24050781
 20
16.51566564
  0
VERTEX
  8
0
 10
14.24125476
 20
16.57203582
  0
VERTEX
  8
0
 10
14.23920085
 20
16.62826134
  0
VERTEX
  8
0
 10
14.23707963
 20
16.65626779
  0
VERTEX
  8
0
 10
14.23420545
 20
16.68417558
  0
VERTEX
  8
0
 10
14.23056075
 20
16.71196389
  0
VERTEX
  8
0
 10
14.22612793
 20
16.73961190
  0
VERTEX
  8
0
 10
14.22088943
 20
16.76709876
  0
VERTEX
  8
0
 10
14.21482766
 20
16.79440366
  0
VERTEX
  8
0
 10
14.20792504
 20
16.82150577
  0
VERTEX
  8
0
 10
14.20016399
 20
16.84838425
  0
VERTEX
  8
0
 10
14.19152694
 20
16.87501828
  0
VERTEX
  8
0
 10
14.18199629
 20
16.90138702
  0
VERTEX
  8
0
 10
14.17155449
 20
16.92746966
  0
VERTEX
  8
0
 10
14.16018393
 20
16.95324536
  0
VERTEX
  8
0
 10
14.14786706
 20
16.97869328
  0
VERTEX
  8
0
 10
14.13458628
 20
17.00379262
  0
VERTEX
  8
0
 10
14.12032401
 20
17.02852252
  0
VERTEX
  8
0
 10
14.09232035
 20
17.07605435
  0
VERTEX
  8
0
 10
14.06224987
 20
17.12199742
  0
VERTEX
  8
0
 10
14.03029074
 20
17.16648598
  0
VERTEX
  8
0
 10
13.99662111
 20
17.20965428
  0
VERTEX
  8
0
 10
13.96141914
 20
17.25163656
  0
VERTEX
  8
0
 10
13.92486299
 20
17.29256706
  0
VERTEX
  8
0
 10
13.88713081
 20
17.33258003
  0
VERTEX
  8
0
 10
13.84840075
 20
17.37180972
  0
VERTEX
  8
0
 10
13.80885097
 20
17.41039036
  0
VERTEX
  8
0
 10
13.60504180
 20
17.59825650
  0
VERTEX
  8
0
 10
13.52401557
 20
17.67355823
  0
VERTEX
  8
0
 10
13.48432167
 20
17.71177934
  0
VERTEX
  8
0
 10
13.44541146
 20
17.75055961
  0
VERTEX
  8
0
 10
13.40746310
 20
17.79003329
  0
VERTEX
  8
0
 10
13.37065473
 20
17.83033461
  0
VERTEX
  8
0
 10
13.33516452
 20
17.87159783
  0
VERTEX
  8
0
 10
13.30117061
 20
17.91395718
  0
VERTEX
  8
0
 10
13.26885118
 20
17.95754692
  0
VERTEX
  8
0
 10
13.23838437
 20
18.00250129
  0
VERTEX
  8
0
 10
13.20994834
 20
18.04895452
  0
VERTEX
  8
0
 10
13.18372124
 20
18.09704088
  0
VERTEX
  8
0
 10
13.15988124
 20
18.14689459
  0
VERTEX
  8
0
 10
13.13860648
 20
18.19864991
  0
VERTEX
  8
0
 10
13.12007512
 20
18.25244108
  0
VERTEX
  8
0
 10
13.13846679
 20
18.25430545
  0
VERTEX
  8
0
 10
13.15669160
 20
18.25535177
  0
VERTEX
  8
0
 10
13.17475046
 20
18.25560742
  0
VERTEX
  8
0
 10
13.19264428
 20
18.25509978
  0
VERTEX
  8
0
 10
13.22794038
 20
18.25190418
  0
VERTEX
  8
0
 10
13.26258713
 20
18.24598406
  0
VERTEX
  8
0
 10
13.29659175
 20
18.23755848
  0
VERTEX
  8
0
 10
13.32996147
 20
18.22684653
  0
VERTEX
  8
0
 10
13.37884142
 20
18.20697087
  0
VERTEX
  8
0
 10
13.44185996
 20
18.17451239
  0
VERTEX
  8
0
 10
13.57492981
 20
18.08513046
  0
VERTEX
  8
0
 10
13.58899096
 20
18.07444065
  0
VERTEX
  8
0
 10
13.63949655
 20
18.03702269
  0
VERTEX
  8
0
 10
13.69054043
 20
18.00037458
  0
VERTEX
  8
0
 10
13.74207413
 20
17.96442755
  0
VERTEX
  8
0
 10
13.84641713
 20
17.89436161
  0
VERTEX
  8
0
 10
14.00539357
 20
17.79280150
  0
VERTEX
  8
0
 10
14.54089948
 20
17.46258699
  0
VERTEX
  8
0
 10
14.64612350
 20
17.39395373
  0
VERTEX
  8
0
 10
14.69818582
 20
17.35886630
  0
VERTEX
  8
0
 10
14.74981705
 20
17.32317330
  0
VERTEX
  8
0
 10
14.80096872
 20
17.28680598
  0
VERTEX
  8
0
 10
14.85159237
 20
17.24969556
  0
VERTEX
  8
0
 10
14.90163953
 20
17.21177326
  0
VERTEX
  8
0
 10
14.95106172
 20
17.17297032
  0
VERTEX
  8
0
 10
14.99981048
 20
17.13321797
  0
VERTEX
  8
0
 10
15.04783734
 20
17.09244744
  0
VERTEX
  8
0
 10
15.09509384
 20
17.05058995
  0
VERTEX
  8
0
 10
15.43995731
 20
16.68675259
  0
VERTEX
  8
0
 10
15.42930012
 20
16.73459179
  0
VERTEX
  8
0
 10
15.41690668
 20
16.78169386
  0
VERTEX
  8
0
 10
15.40289516
 20
16.82810956
  0
VERTEX
  8
0
 10
15.38738373
 20
16.87388963
  0
VERTEX
  8
0
 10
15.37049057
 20
16.91908485
  0
VERTEX
  8
0
 10
15.35233384
 20
16.96374597
  0
VERTEX
  8
0
 10
15.33303171
 20
17.00792375
  0
VERTEX
  8
0
 10
15.31270235
 20
17.05166894
  0
VERTEX
  8
0
 10
15.29146393
 20
17.09503232
  0
VERTEX
  8
0
 10
15.24673261
 20
17.18081666
  0
VERTEX
  8
0
 10
15.05507898
 20
17.51883308
  0
VERTEX
  8
0
 10
15.00871029
 20
17.60408733
  0
VERTEX
  8
0
 10
14.98640759
 20
17.64710615
  0
VERTEX
  8
0
 10
14.96485022
 20
17.69045379
  0
VERTEX
  8
0
 10
14.94415633
 20
17.73418100
  0
VERTEX
  8
0
 10
14.92444411
 20
17.77833854
  0
VERTEX
  8
0
 10
14.90583172
 20
17.82297716
  0
VERTEX
  8
0
 10
14.88843733
 20
17.86814764
  0
VERTEX
  8
0
 10
14.87237912
 20
17.91390073
  0
VERTEX
  8
0
 10
14.85777525
 20
17.96028719
  0
VERTEX
  8
0
 10
14.84543643
 20
18.00441685
  0
VERTEX
  8
0
 10
14.83437142
 20
18.04891512
  0
VERTEX
  8
0
 10
14.82458249
 20
18.09374166
  0
VERTEX
  8
0
 10
14.81607189
 20
18.13885616
  0
VERTEX
  8
0
 10
14.80884189
 20
18.18421826
  0
VERTEX
  8
0
 10
14.80289476
 20
18.22978765
  0
VERTEX
  8
0
 10
14.79823276
 20
18.27552399
  0
VERTEX
  8
0
 10
14.79485816
 20
18.32138695
  0
VERTEX
  8
0
 10
14.79277322
 20
18.36733620
  0
VERTEX
  8
0
 10
14.79198021
 20
18.41333141
  0
VERTEX
  8
0
 10
14.79248139
 20
18.45933224
  0
VERTEX
  8
0
 10
14.79427903
 20
18.50529837
  0
VERTEX
  8
0
 10
14.79737540
 20
18.55118946
  0
VERTEX
  8
0
 10
14.80177275
 20
18.59696517
  0
VERTEX
  8
0
 10
14.80747335
 20
18.64258519
  0
VERTEX
  8
0
 10
14.81447947
 20
18.68800918
  0
VERTEX
  8
0
 10
14.82279338
 20
18.73319680
  0
VERTEX
  8
0
 10
14.83241733
 20
18.77810773
  0
VERTEX
  8
0
 10
14.84335360
 20
18.82270163
  0
VERTEX
  8
0
 10
14.85560445
 20
18.86693818
  0
VERTEX
  8
0
 10
14.86917214
 20
18.91077703
  0
VERTEX
  8
0
 10
14.88405894
 20
18.95417787
  0
VERTEX
  8
0
 10
14.90026712
 20
18.99710035
  0
VERTEX
  8
0
 10
14.91779893
 20
19.03950415
  0
VERTEX
  8
0
 10
14.93665665
 20
19.08134893
  0
VERTEX
  8
0
 10
14.95684254
 20
19.12259436
  0
VERTEX
  8
0
 10
14.97835887
 20
19.16320012
  0
VERTEX
  8
0
 10
15.00120789
 20
19.20312586
  0
VERTEX
  8
0
 10
15.02539188
 20
19.24233127
  0
VERTEX
  8
0
 10
15.07232432
 20
19.31278611
  0
VERTEX
  8
0
 10
15.13960038
 20
19.40302949
  0
VERTEX
  8
0
 10
15.26752640
 20
19.55276956
  0
VERTEX
  8
0
 10
15.56360353
 20
19.85431213
  0
VERTEX
  8
0
 10
15.80293277
 20
20.11065021
  0
VERTEX
  8
0
 10
15.84024254
 20
20.16591284
  0
VERTEX
  8
0
 10
15.86484353
 20
20.20982079
  0
VERTEX
  8
0
 10
15.87231038
 20
20.22498590
  0
VERTEX
  8
0
 10
15.54581134
 20
20.24460353
  0
VERTEX
  8
0
 10
15.55807965
 20
20.26621135
  0
VERTEX
  8
0
 10
15.58433657
 20
20.30807157
  0
VERTEX
  8
0
 10
15.61267786
 20
20.34828755
  0
VERTEX
  8
0
 10
15.64285230
 20
20.38705488
  0
VERTEX
  8
0
 10
15.69100159
 20
20.44291751
  0
VERTEX
  8
0
 10
15.97290874
 20
20.72048674
  0
VERTEX
  8
0
 10
16.02391163
 20
20.77382225
  0
VERTEX
  8
0
 10
16.11081554
 20
20.86166836
  0
VERTEX
  8
0
 10
16.22257939
 20
20.99306608
  0
VERTEX
  8
0
 10
16.39188015
 20
21.23571870
  0
VERTEX
  8
0
 10
16.45581860
 20
21.34128385
  0
VERTEX
  8
0
 10
16.45959772
 20
21.27094934
  0
VERTEX
  8
0
 10
16.46130500
 20
21.20086177
  0
VERTEX
  8
0
 10
16.46102848
 20
21.13101443
  0
VERTEX
  8
0
 10
16.45885621
 20
21.06140062
  0
VERTEX
  8
0
 10
16.45487623
 20
20.99201365
  0
VERTEX
  8
0
 10
16.44917659
 20
20.92284681
  0
VERTEX
  8
0
 10
16.44184533
 20
20.85389341
  0
VERTEX
  8
0
 10
16.43297051
 20
20.78514675
  0
VERTEX
  8
0
 10
16.42264016
 20
20.71660012
  0
VERTEX
  8
0
 10
16.41094233
 20
20.64824683
  0
VERTEX
  8
0
 10
16.39796507
 20
20.58008017
  0
VERTEX
  8
0
 10
16.38379643
 20
20.51209346
  0
VERTEX
  8
0
 10
16.36852445
 20
20.44427998
  0
VERTEX
  8
0
 10
16.35223718
 20
20.37663305
  0
VERTEX
  8
0
 10
16.33502265
 20
20.30914595
  0
VERTEX
  8
0
 10
16.31696893
 20
20.24181199
  0
VERTEX
  8
0
 10
16.27869606
 20
20.10757671
  0
VERTEX
  8
0
 10
16.19595392
 20
19.84064904
  0
VERTEX
  8
0
 10
16.04596406
 20
19.37735809
  0
VERTEX
  8
0
 10
16.02343581
 20
19.30401937
  0
VERTEX
  8
0
 10
16.00236362
 20
19.23012493
  0
VERTEX
  8
0
 10
15.98277619
 20
19.15571999
  0
VERTEX
  8
0
 10
15.96470217
 20
19.08084983
  0
VERTEX
  8
0
 10
15.94817026
 20
19.00555969
  0
VERTEX
  8
0
 10
15.93320913
 20
18.92989481
  0
VERTEX
  8
0
 10
15.91984746
 20
18.85390047
  0
VERTEX
  8
0
 10
15.90811392
 20
18.77762189
  0
VERTEX
  8
0
 10
15.89803719
 20
18.70110435
  0
VERTEX
  8
0
 10
15.88964596
 20
18.62439309
  0
VERTEX
  8
0
 10
15.88296890
 20
18.54753335
  0
VERTEX
  8
0
 10
15.87803469
 20
18.47057040
  0
VERTEX
  8
0
 10
15.87487200
 20
18.39354949
  0
VERTEX
  8
0
 10
15.87350952
 20
18.31651586
  0
VERTEX
  8
0
 10
15.87397592
 20
18.23951478
  0
VERTEX
  8
0
 10
15.87629988
 20
18.16259148
  0
VERTEX
  8
0
 10
15.88051008
 20
18.08579123
  0
VERTEX
  8
0
 10
15.88663520
 20
18.00915927
  0
VERTEX
  8
0
 10
15.89470391
 20
17.93274086
  0
VERTEX
  8
0
 10
15.90474489
 20
17.85658125
  0
VERTEX
  8
0
 10
15.91678683
 20
17.78072569
  0
VERTEX
  8
0
 10
15.93085840
 20
17.70521943
  0
VERTEX
  8
0
 10
15.94698828
 20
17.63010773
  0
VERTEX
  8
0
 10
15.96520514
 20
17.55543583
  0
VERTEX
  8
0
 10
15.98553766
 20
17.48124899
  0
VERTEX
  8
0
 10
16.00801453
 20
17.40759246
  0
VERTEX
  8
0
 10
16.03266442
 20
17.33451150
  0
VERTEX
  8
0
 10
16.05951600
 20
17.26205135
  0
VERTEX
  8
0
 10
16.08859796
 20
17.19025726
  0
VERTEX
  8
0
 10
16.10943641
 20
17.14117904
  0
VERTEX
  8
0
 10
16.13129338
 20
17.09265132
  0
VERTEX
  8
0
 10
16.15414177
 20
17.04466892
  0
VERTEX
  8
0
 10
16.17795452
 20
16.99722662
  0
VERTEX
  8
0
 10
16.20270451
 20
16.95031924
  0
VERTEX
  8
0
 10
16.22836467
 20
16.90394158
  0
VERTEX
  8
0
 10
16.25490791
 20
16.85808844
  0
VERTEX
  8
0
 10
16.28230714
 20
16.81275462
  0
VERTEX
  8
0
 10
16.31053527
 20
16.76793493
  0
VERTEX
  8
0
 10
16.33956521
 20
16.72362416
  0
VERTEX
  8
0
 10
16.36936987
 20
16.67981712
  0
VERTEX
  8
0
 10
16.39992217
 20
16.63650861
  0
VERTEX
  8
0
 10
16.43119501
 20
16.59369343
  0
VERTEX
  8
0
 10
16.46316131
 20
16.55136640
  0
VERTEX
  8
0
 10
16.49579398
 20
16.50952230
  0
VERTEX
  8
0
 10
16.52906593
 20
16.46815594
  0
VERTEX
  8
0
 10
16.56295006
 20
16.42726213
  0
VERTEX
  8
0
 10
16.63244656
 20
16.34687134
  0
VERTEX
  8
0
 10
16.70406675
 20
16.26830835
  0
VERTEX
  8
0
 10
16.77759394
 20
16.19153159
  0
VERTEX
  8
0
 10
16.85281141
 20
16.11649947
  0
VERTEX
  8
0
 10
16.92950245
 20
16.04317041
  0
VERTEX
  8
0
 10
17.00745035
 20
15.97150284
  0
VERTEX
  8
0
 10
17.11439387
 20
15.87621659
  0
VERTEX
  8
0
 10
17.22303022
 20
15.78294630
  0
VERTEX
  8
0
 10
17.38851825
 20
15.64605924
  0
VERTEX
  8
0
 10
18.11792421
 20
15.06758288
  0
VERTEX
  8
0
 10
18.28352144
 20
14.93086639
  0
VERTEX
  8
0
 10
18.39225333
 20
14.83774534
  0
VERTEX
  8
0
 10
18.49931059
 20
14.74263676
  0
VERTEX
  8
0
 10
18.55211973
 20
14.69422836
  0
VERTEX
  8
0
 10
18.60440039
 20
14.64519252
  0
VERTEX
  8
0
 10
18.68298003
 20
14.56869156
  0
VERTEX
  8
0
 10
18.76022553
 20
14.49021847
  0
VERTEX
  8
0
 10
18.83581441
 20
14.40974450
  0
VERTEX
  8
0
 10
18.87288686
 20
14.36874819
  0
VERTEX
  8
0
 10
18.90942423
 20
14.32724088
  0
VERTEX
  8
0
 10
18.94538621
 20
14.28521897
  0
VERTEX
  8
0
 10
18.98073250
 20
14.24267888
  0
VERTEX
  8
0
 10
19.01542279
 20
14.19961699
  0
VERTEX
  8
0
 10
19.04941676
 20
14.15602973
  0
VERTEX
  8
0
 10
19.08267413
 20
14.11191349
  0
VERTEX
  8
0
 10
19.11515456
 20
14.06726468
  0
VERTEX
  8
0
 10
19.14681776
 20
14.02207971
  0
VERTEX
  8
0
 10
19.17762342
 20
13.97635499
  0
VERTEX
  8
0
 10
19.20753123
 20
13.93008691
  0
VERTEX
  8
0
 10
19.23650088
 20
13.88327189
  0
VERTEX
  8
0
 10
19.26449206
 20
13.83590633
  0
VERTEX
  8
0
 10
19.29146447
 20
13.78798664
  0
VERTEX
  8
0
 10
19.31737780
 20
13.73950923
  0
VERTEX
  8
0
 10
19.34219173
 20
13.69047049
  0
VERTEX
  8
0
 10
19.36586597
 20
13.64086684
  0
VERTEX
  8
0
 10
19.38836020
 20
13.59069468
  0
VERTEX
  8
0
 10
19.40963411
 20
13.53995042
  0
VERTEX
  8
0
 10
19.42964739
 20
13.48863046
  0
VERTEX
  8
0
 10
19.44835975
 20
13.43673121
  0
VERTEX
  8
0
 10
19.46573087
 20
13.38424907
  0
VERTEX
  8
0
 10
19.48172043
 20
13.33118046
  0
VERTEX
  8
0
 10
19.32318616
 20
13.44627036
  0
VERTEX
  8
0
 10
18.60036291
 20
14.04832718
  0
VERTEX
  8
0
 10
17.52875372
 20
14.94890051
  0
VERTEX
  8
0
 10
17.27067171
 20
15.15336034
  0
VERTEX
  8
0
 10
17.07420677
 20
15.30290677
  0
VERTEX
  8
0
 10
16.94159421
 20
15.40044946
  0
VERTEX
  8
0
 10
16.80751526
 20
15.49605281
  0
VERTEX
  8
0
 10
16.73988366
 20
15.54306953
  0
VERTEX
  8
0
 10
16.77131631
 20
15.48804658
  0
VERTEX
  8
0
 10
16.80493983
 20
15.43463807
  0
VERTEX
  8
0
 10
16.84054443
 20
15.38269711
  0
VERTEX
  8
0
 10
16.89720696
 20
15.30721599
  0
VERTEX
  8
0
 10
16.97773283
 20
15.21033991
  0
VERTEX
  8
0
 10
17.32453639
 20
14.84334537
  0
VERTEX
  8
0
 10
17.76240923
 20
14.37552196
  0
VERTEX
  8
0
 10
17.86729570
 20
14.25431254
  0
VERTEX
  8
0
 10
17.93535330
 20
14.17204827
  0
VERTEX
  8
0
 10
18.00163802
 20
14.08844870
  0
VERTEX
  8
0
 10
18.06591026
 20
14.00336906
  0
VERTEX
  8
0
 10
18.12793043
 20
13.91666456
  0
VERTEX
  8
0
 10
18.15802112
 20
13.87265775
  0
VERTEX
  8
0
 10
18.18745895
 20
13.82819044
  0
VERTEX
  8
0
 10
18.21621397
 20
13.78324452
  0
VERTEX
  8
0
 10
18.24425623
 20
13.73780190
  0
VERTEX
  8
0
 10
18.27155578
 20
13.69184449
  0
VERTEX
  8
0
 10
18.29808267
 20
13.64535419
  0
VERTEX
  8
0
 10
18.32040292
 20
13.60321174
  0
VERTEX
  8
0
 10
18.34149020
 20
13.55903963
  0
VERTEX
  8
0
 10
18.36085026
 20
13.51320999
  0
VERTEX
  8
0
 10
18.37798881
 20
13.46609496
  0
VERTEX
  8
0
 10
18.38557056
 20
13.44217171
  0
VERTEX
  8
0
 10
18.39241159
 20
13.41806667
  0
VERTEX
  8
0
 10
18.39845012
 20
13.39382635
  0
VERTEX
  8
0
 10
18.40362434
 20
13.36949728
  0
VERTEX
  8
0
 10
18.40787249
 20
13.34512596
  0
VERTEX
  8
0
 10
18.41113279
 20
13.32075891
  0
VERTEX
  8
0
 10
18.41334343
 20
13.29644265
  0
VERTEX
  8
0
 10
18.41444265
 20
13.27222371
  0
VERTEX
  8
0
 10
18.41436866
 20
13.24814858
  0
VERTEX
  8
0
 10
18.41305968
 20
13.22426381
  0
VERTEX
  8
0
 10
18.41045392
 20
13.20061589
  0
VERTEX
  8
0
 10
18.40648959
 20
13.17725135
  0
VERTEX
  8
0
 10
18.40110493
 20
13.15421671
  0
VERTEX
  8
0
 10
18.39423813
 20
13.13155848
  0
VERTEX
  8
0
 10
18.38582742
 20
13.10932318
  0
VERTEX
  8
0
 10
18.37581101
 20
13.08755733
  0
VERTEX
  8
0
 10
18.36412713
 20
13.06630744
  0
VERTEX
  8
0
 10
18.35071398
 20
13.04562004
  0
VERTEX
  8
0
 10
18.33550979
 20
13.02554164
  0
VERTEX
  8
0
 10
18.31845276
 20
13.00611875
  0
VERTEX
  8
0
 10
18.29948112
 20
12.98739790
  0
VERTEX
  8
0
 10
18.13391331
 20
13.17639505
  0
VERTEX
  8
0
 10
18.05100522
 20
13.25477356
  0
VERTEX
  8
0
 10
17.98040977
 20
13.31228323
  0
VERTEX
  8
0
 10
17.92468367
 20
13.35175442
  0
VERTEX
  8
0
 10
17.86636853
 20
13.38763632
  0
VERTEX
  8
0
 10
17.82596157
 20
13.40936298
  0
VERTEX
  8
0
 10
17.80527836
 20
13.41952280
  0
VERTEX
  8
0
 10
17.75781752
 20
13.44240415
  0
VERTEX
  8
0
 10
17.70982426
 20
13.46352649
  0
VERTEX
  8
0
 10
17.66132916
 20
13.48293637
  0
VERTEX
  8
0
 10
17.61236277
 20
13.50068033
  0
VERTEX
  8
0
 10
17.56295566
 20
13.51680492
  0
VERTEX
  8
0
 10
17.51313840
 20
13.53135667
  0
VERTEX
  8
0
 10
17.46294156
 20
13.54438213
  0
VERTEX
  8
0
 10
17.41239570
 20
13.55592785
  0
VERTEX
  8
0
 10
17.36153139
 20
13.56604036
  0
VERTEX
  8
0
 10
17.31037919
 20
13.57476621
  0
VERTEX
  8
0
 10
17.25896967
 20
13.58215193
  0
VERTEX
  8
0
 10
17.20733340
 20
13.58824409
  0
VERTEX
  8
0
 10
17.15550094
 20
13.59308920
  0
VERTEX
  8
0
 10
17.10350286
 20
13.59673383
  0
VERTEX
  8
0
 10
17.05136972
 20
13.59922450
  0
VERTEX
  8
0
 10
16.99913209
 20
13.60060777
  0
VERTEX
  8
0
 10
16.94682054
 20
13.60093017
  0
VERTEX
  8
0
 10
16.89446563
 20
13.60023826
  0
VERTEX
  8
0
 10
16.84209793
 20
13.59857856
  0
VERTEX
  8
0
 10
16.78974801
 20
13.59599763
  0
VERTEX
  8
0
 10
16.73744642
 20
13.59254200
  0
VERTEX
  8
0
 10
16.68522375
 20
13.58825822
  0
VERTEX
  8
0
 10
16.63311054
 20
13.58319284
  0
VERTEX
  8
0
 10
16.52933482
 20
13.57090342
  0
VERTEX
  8
0
 10
16.42636378
 20
13.55604607
  0
VERTEX
  8
0
 10
16.32444195
 20
13.53899314
  0
VERTEX
  8
0
 10
16.26200147
 20
13.52716018
  0
VERTEX
  8
0
 10
16.19975531
 20
13.51438089
  0
VERTEX
  8
0
 10
16.13771692
 20
13.50065963
  0
VERTEX
  8
0
 10
16.07589972
 20
13.48600076
  0
VERTEX
  8
0
 10
16.01431716
 20
13.47040863
  0
VERTEX
  8
0
 10
15.95298266
 20
13.45388760
  0
VERTEX
  8
0
 10
15.89190968
 20
13.43644201
  0
VERTEX
  8
0
 10
15.83111164
 20
13.41807624
  0
VERTEX
  8
0
 10
15.77060199
 20
13.39879464
  0
VERTEX
  8
0
 10
15.71039416
 20
13.37860155
  0
VERTEX
  8
0
 10
15.65050158
 20
13.35750134
  0
VERTEX
  8
0
 10
15.59093770
 20
13.33549837
  0
VERTEX
  8
0
 10
15.53171595
 20
13.31259698
  0
VERTEX
  8
0
 10
15.47284977
 20
13.28880154
  0
VERTEX
  8
0
 10
15.41435259
 20
13.26411640
  0
VERTEX
  8
0
 10
15.35623785
 20
13.23854592
  0
VERTEX
  8
0
 10
15.29851900
 20
13.21209445
  0
VERTEX
  8
0
 10
15.24120946
 20
13.18476635
  0
VERTEX
  8
0
 10
15.18432267
 20
13.15656597
  0
VERTEX
  8
0
 10
15.12787208
 20
13.12749768
  0
VERTEX
  8
0
 10
15.07187111
 20
13.09756582
  0
VERTEX
  8
0
 10
15.01633321
 20
13.06677475
  0
VERTEX
  8
0
 10
14.96127181
 20
13.03512884
  0
VERTEX
  8
0
 10
14.90670034
 20
13.00263242
  0
VERTEX
  8
0
 10
14.85263225
 20
12.96928987
  0
VERTEX
  8
0
 10
14.79908098
 20
12.93510554
  0
VERTEX
  8
0
 10
14.74605995
 20
12.90008377
  0
VERTEX
  8
0
 10
14.69358262
 20
12.86422894
  0
VERTEX
  8
0
 10
14.64166240
 20
12.82754539
  0
VERTEX
  8
0
 10
14.68422883
 20
13.08661445
  0
VERTEX
  8
0
 10
14.71918681
 20
13.25815196
  0
VERTEX
  8
0
 10
14.76022271
 20
13.42823039
  0
VERTEX
  8
0
 10
14.79540779
 20
13.55456414
  0
VERTEX
  8
0
 10
14.83469818
 20
13.67963933
  0
VERTEX
  8
0
 10
14.86331780
 20
13.76223093
  0
VERTEX
  8
0
 10
14.89397994
 20
13.84412418
  0
VERTEX
  8
0
 10
14.92677177
 20
13.92526349
  0
VERTEX
  8
0
 10
14.96178047
 20
14.00559325
  0
VERTEX
  8
0
 10
14.98014338
 20
14.04543717
  0
VERTEX
  8
0
 10
14.92593919
 20
14.02804101
  0
VERTEX
  8
0
 10
14.87291594
 20
14.00866279
  0
VERTEX
  8
0
 10
14.82103962
 20
13.98738084
  0
VERTEX
  8
0
 10
14.77027622
 20
13.96427348
  0
VERTEX
  8
0
 10
14.72059174
 20
13.93941906
  0
VERTEX
  8
0
 10
14.67195217
 20
13.91289588
  0
VERTEX
  8
0
 10
14.62432350
 20
13.88478229
  0
VERTEX
  8
0
 10
14.57767172
 20
13.85515661
  0
VERTEX
  8
0
 10
14.53196283
 20
13.82409716
  0
VERTEX
  8
0
 10
14.48716281
 20
13.79168228
  0
VERTEX
  8
0
 10
14.44323766
 20
13.75799030
  0
VERTEX
  8
0
 10
14.40015338
 20
13.72309954
  0
VERTEX
  8
0
 10
14.35787595
 20
13.68708833
  0
VERTEX
  8
0
 10
14.31637136
 20
13.65003499
  0
VERTEX
  8
0
 10
14.27560562
 20
13.61201787
  0
VERTEX
  8
0
 10
14.23554470
 20
13.57311528
  0
VERTEX
  8
0
 10
14.19615461
 20
13.53340555
  0
VERTEX
  8
0
 10
14.15740134
 20
13.49296701
  0
VERTEX
  8
0
 10
14.11925087
 20
13.45187799
  0
VERTEX
  8
0
 10
14.04462232
 20
13.36806182
  0
VERTEX
  8
0
 10
13.97199691
 20
13.28258367
  0
VERTEX
  8
0
 10
13.79741170
 20
13.06572932
  0
VERTEX
  8
0
 10
13.76341888
 20
13.02244354
  0
VERTEX
  8
0
 10
13.78866423
 20
13.17499267
  0
VERTEX
  8
0
 10
13.81877008
 20
13.30039094
  0
VERTEX
  8
0
 10
13.84942975
 20
13.39876705
  0
VERTEX
  8
0
 10
13.87655835
 20
13.47103673
  0
VERTEX
  8
0
 10
13.90744342
 20
13.54173914
  0
VERTEX
  8
0
 10
13.94227681
 20
13.61063046
  0
VERTEX
  8
0
 10
13.96778734
 20
13.65543144
  0
VERTEX
  8
0
 10
13.99519479
 20
13.69924687
  0
VERTEX
  8
0
 10
14.00962763
 20
13.72076243
  0
VERTEX
  8
0
 10
14.03572730
 20
13.75902257
  0
VERTEX
  8
0
 10
14.06280527
 20
13.79637159
  0
VERTEX
  8
0
 10
14.09080076
 20
13.83286640
  0
VERTEX
  8
0
 10
14.11965298
 20
13.86856391
  0
VERTEX
  8
0
 10
14.14930115
 20
13.90352104
  0
VERTEX
  8
0
 10
14.17968448
 20
13.93779470
  0
VERTEX
  8
0
 10
14.21074218
 20
13.97144182
  0
VERTEX
  8
0
 10
14.24241348
 20
14.00451930
  0
VERTEX
  8
0
 10
14.30735370
 20
14.06919300
  0
VERTEX
  8
0
 10
14.40784634
 20
14.16335416
  0
VERTEX
  8
0
 10
14.74977995
 20
14.47102719
  0
VERTEX
  8
0
 10
14.81580414
 20
14.53483254
  0
VERTEX
  8
0
 10
14.84812582
 20
14.56738900
  0
VERTEX
  8
0
 10
14.87990617
 20
14.60045720
  0
VERTEX
  8
0
 10
14.91108441
 20
14.63409407
  0
VERTEX
  8
0
 10
14.94159975
 20
14.66835651
  0
VERTEX
  8
0
 10
14.89317507
 20
14.65900048
  0
VERTEX
  8
0
 10
14.84513184
 20
14.64830608
  0
VERTEX
  8
0
 10
14.79748207
 20
14.63630234
  0
VERTEX
  8
0
 10
14.75023774
 20
14.62301827
  0
VERTEX
  8
0
 10
14.70341085
 20
14.60848289
  0
VERTEX
  8
0
 10
14.65701340
 20
14.59272522
  0
VERTEX
  8
0
 10
14.61105737
 20
14.57577429
  0
VERTEX
  8
0
 10
14.56555476
 20
14.55765912
  0
VERTEX
  8
0
 10
14.52051756
 20
14.53840872
  0
VERTEX
  8
0
 10
14.47595778
 20
14.51805212
  0
VERTEX
  8
0
 10
14.43188739
 20
14.49661834
  0
VERTEX
  8
0
 10
14.38831839
 20
14.47413639
  0
VERTEX
  8
0
 10
14.34526279
 20
14.45063531
  0
VERTEX
  8
0
 10
14.30273256
 20
14.42614410
  0
VERTEX
  8
0
 10
14.26073971
 20
14.40069180
  0
VERTEX
  8
0
 10
14.21929623
 20
14.37430742
  0
VERTEX
  8
0
 10
14.17841411
 20
14.34701998
  0
VERTEX
  8
0
 10
14.13810534
 20
14.31885850
  0
VERTEX
  8
0
 10
14.09838193
 20
14.28985201
  0
VERTEX
  8
0
 10
14.05925585
 20
14.26002952
  0
VERTEX
  8
0
 10
14.02073911
 20
14.22942006
  0
VERTEX
  8
0
 10
13.98284370
 20
14.19805264
  0
VERTEX
  8
0
 10
13.94558161
 20
14.16595629
  0
VERTEX
  8
0
 10
13.90896484
 20
14.13316003
  0
VERTEX
  8
0
 10
13.87300537
 20
14.09969288
  0
VERTEX
  8
0
 10
13.83771521
 20
14.06558385
  0
VERTEX
  8
0
 10
13.80310635
 20
14.03086198
  0
VERTEX
  8
0
 10
13.76919078
 20
13.99555628
  0
VERTEX
  8
0
 10
13.73598049
 20
13.95969577
  0
VERTEX
  8
0
 10
13.65880234
 20
13.87141718
  0
VERTEX
  8
0
 10
13.58485557
 20
13.78052092
  0
VERTEX
  8
0
 10
13.49106638
 20
13.65560424
  0
VERTEX
  8
0
 10
13.40249371
 20
13.52687457
  0
VERTEX
  8
0
 10
13.29865382
 20
13.36133226
  0
VERTEX
  8
0
 10
13.18335263
 20
13.15712895
  0
VERTEX
  8
0
 10
13.11165403
 20
13.01837880
  0
VERTEX
  8
0
 10
13.26792705
 20
12.77315974
  0
VERTEX
  8
0
 10
13.27544783
 20
12.76581503
  0
VERTEX
  8
0
 10
13.33936131
 20
12.71296124
  0
VERTEX
  8
0
 10
13.61867356
 20
12.56216060
  0
VERTEX
  8
0
 10
13.58071960
 20
12.47187029
  0
VERTEX
  8
0
 10
13.48004108
 20
12.25801205
  0
VERTEX
  8
0
 10
13.46040927
 20
12.20301887
  0
VERTEX
  8
0
 10
13.44999759
 20
12.16561005
  0
VERTEX
  8
0
 10
13.44220305
 20
12.12746979
  0
VERTEX
  8
0
 10
13.43941477
 20
12.10808945
  0
VERTEX
  8
0
 10
13.43743383
 20
12.08848317
  0
VERTEX
  8
0
 10
13.43631126
 20
12.06863656
  0
VERTEX
  8
0
 10
13.43609808
 20
12.04853526
  0
VERTEX
  8
0
 10
13.43684531
 20
12.02816492
  0
VERTEX
  8
0
 10
13.45616118
 20
12.02956745
  0
VERTEX
  8
0
 10
13.47471120
 20
12.03253953
  0
VERTEX
  8
0
 10
13.49255517
 20
12.03695854
  0
VERTEX
  8
0
 10
13.50975289
 20
12.04270183
  0
VERTEX
  8
0
 10
13.52636417
 20
12.04964678
  0
VERTEX
  8
0
 10
13.54244880
 20
12.05767076
  0
VERTEX
  8
0
 10
13.55806659
 20
12.06665114
  0
VERTEX
  8
0
 10
13.57327734
 20
12.07646528
  0
VERTEX
  8
0
 10
13.60271692
 20
12.09810435
  0
VERTEX
  8
0
 10
13.71615412
 20
12.19348519
  0
VERTEX
  8
0
 10
13.74582522
 20
12.21463131
  0
VERTEX
  8
0
 10
13.76118646
 20
12.22412504
  0
VERTEX
  8
0
 10
13.77697788
 20
12.23273572
  0
VERTEX
  8
0
 10
13.79325929
 20
12.24034069
  0
VERTEX
  8
0
 10
13.81009050
 20
12.24681735
  0
VERTEX
  8
0
 10
13.82753131
 20
12.25204305
  0
VERTEX
  8
0
 10
13.84564152
 20
12.25589517
  0
VERTEX
  8
0
 10
13.86448093
 20
12.25825108
  0
VERTEX
  8
0
 10
13.88410935
 20
12.25898814
  0
VERTEX
  8
0
 10
13.90458657
 20
12.25798372
  0
VERTEX
  8
0
 10
13.90426366
 20
12.23009646
  0
VERTEX
  8
0
 10
13.90300027
 20
12.20241486
  0
VERTEX
  8
0
 10
13.90085216
 20
12.17492650
  0
VERTEX
  8
0
 10
13.89787507
 20
12.14761894
  0
VERTEX
  8
0
 10
13.88965693
 20
12.09349650
  0
VERTEX
  8
0
 10
13.87879183
 20
12.03994806
  0
VERTEX
  8
0
 10
13.85850674
 20
11.96048403
  0
VERTEX
  8
0
 10
13.75009839
 20
11.62028731
  0
VERTEX
  8
0
 10
13.72882249
 20
11.54084742
  0
VERTEX
  8
0
 10
13.71709045
 20
11.48732009
  0
VERTEX
  8
0
 10
13.70700356
 20
11.42385174
  0
VERTEX
  8
0
 10
13.70286719
 20
11.34422887
  0
VERTEX
  8
0
 10
13.71420177
 20
11.20102079
  0
VERTEX
  8
0
 10
13.74886044
 20
11.02841197
  0
VERTEX
  8
0
 10
13.61513769
 20
10.97794182
  0
VERTEX
  8
0
 10
13.62209765
 20
10.90812672
  0
VERTEX
  8
0
 10
13.63057613
 20
10.83854281
  0
VERTEX
  8
0
 10
13.64044437
 20
10.76917072
  0
VERTEX
  8
0
 10
13.65157363
 20
10.69999110
  0
VERTEX
  8
0
 10
13.66383515
 20
10.63098461
  0
VERTEX
  8
0
 10
13.67710018
 20
10.56213188
  0
VERTEX
  8
0
 10
13.69123997
 20
10.49341357
  0
VERTEX
  8
0
 10
13.72162882
 20
10.35630277
  0
VERTEX
  8
0
 10
13.85242417
 20
9.80936560
  0
VERTEX
  8
0
 10
13.88228292
 20
9.67223369
  0
VERTEX
  8
0
 10
13.89607814
 20
9.60350165
  0
VERTEX
  8
0
 10
13.90894560
 20
9.53463309
  0
VERTEX
  8
0
 10
13.92075654
 20
9.46560864
  0
VERTEX
  8
0
 10
13.93138220
 20
9.39640896
  0
VERTEX
  8
0
 10
13.94069384
 20
9.32701470
  0
VERTEX
  8
0
 10
13.94856271
 20
9.25740650
  0
VERTEX
  8
0
 10
13.95486004
 20
9.18756500
  0
VERTEX
  8
0
 10
13.95945710
 20
9.11747087
  0
VERTEX
  8
0
 10
13.96222512
 20
9.04710473
  0
VERTEX
  8
0
 10
13.96303536
 20
8.97644725
  0
VERTEX
  8
0
 10
13.95664105
 20
8.86738692
  0
VERTEX
  8
0
 10
13.94511733
 20
8.77926938
  0
VERTEX
  8
0
 10
13.93175202
 20
8.71392241
  0
VERTEX
  8
0
 10
13.92024143
 20
8.67115652
  0
VERTEX
  8
0
 10
13.90643179
 20
8.62930704
  0
VERTEX
  8
0
 10
13.89013561
 20
8.58861172
  0
VERTEX
  8
0
 10
13.88099647
 20
8.56877117
  0
VERTEX
  8
0
 10
13.87116538
 20
8.54930833
  0
VERTEX
  8
0
 10
13.86061890
 20
8.53025291
  0
VERTEX
  8
0
 10
13.84933360
 20
8.51163464
  0
VERTEX
  8
0
 10
13.83728604
 20
8.49348324
  0
VERTEX
  8
0
 10
13.82445278
 20
8.47582842
  0
VERTEX
  8
0
 10
13.81081039
 20
8.45869990
  0
VERTEX
  8
0
 10
13.79633542
 20
8.44212742
  0
VERTEX
  8
0
 10
13.78100444
 20
8.42614068
  0
VERTEX
  8
0
 10
13.76479402
 20
8.41076941
  0
VERTEX
  8
0
 10
13.74768072
 20
8.39604334
  0
VERTEX
  8
0
 10
13.72758253
 20
8.38040403
  0
VERTEX
  8
0
 10
13.70699202
 20
8.36581980
  0
VERTEX
  8
0
 10
13.68593447
 20
8.35226128
  0
VERTEX
  8
0
 10
13.66443520
 20
8.33969911
  0
VERTEX
  8
0
 10
13.64251948
 20
8.32810393
  0
VERTEX
  8
0
 10
13.62021263
 20
8.31744639
  0
VERTEX
  8
0
 10
13.59753993
 20
8.30769711
  0
VERTEX
  8
0
 10
13.57452668
 20
8.29882675
  0
VERTEX
  8
0
 10
13.55119818
 20
8.29080594
  0
VERTEX
  8
0
 10
13.52757972
 20
8.28360532
  0
VERTEX
  8
0
 10
13.50369661
 20
8.27719553
  0
VERTEX
  8
0
 10
13.47957414
 20
8.27154721
  0
VERTEX
  8
0
 10
13.43071229
 20
8.26241756
  0
VERTEX
  8
0
 10
13.38119655
 20
8.25598147
  0
VERTEX
  8
0
 10
13.33122929
 20
8.25200407
  0
VERTEX
  8
0
 10
13.25587450
 20
8.25013422
  0
VERTEX
  8
0
 10
13.15570994
 20
8.25405429
  0
VERTEX
  8
0
 10
13.05738201
 20
8.26358130
  0
VERTEX
  8
0
 10
13.22471577
 20
8.60019145
  0
VERTEX
  8
0
 10
13.19965874
 20
8.60030436
  0
VERTEX
  8
0
 10
13.17482411
 20
8.59924506
  0
VERTEX
  8
0
 10
13.15019469
 20
8.59710791
  0
VERTEX
  8
0
 10
13.12575331
 20
8.59398724
  0
VERTEX
  8
0
 10
13.10148276
 20
8.58997738
  0
VERTEX
  8
0
 10
13.05338542
 20
8.57966747
  0
VERTEX
  8
0
 10
12.98209096
 20
8.55989222
  0
VERTEX
  8
0
 10
12.77000696
 20
8.49330506
  0
VERTEX
  8
0
 10
12.72236134
 20
8.48187147
  0
VERTEX
  8
0
 10
12.69836505
 20
8.47717937
  0
VERTEX
  8
0
 10
12.67423019
 20
8.47329620
  0
VERTEX
  8
0
 10
12.64993956
 20
8.47031628
  0
VERTEX
  8
0
 10
12.62547599
 20
8.46833395
  0
VERTEX
  8
0
 10
12.60082227
 20
8.46744357
  0
VERTEX
  8
0
 10
12.57596122
 20
8.46773945
  0
VERTEX
  8
0
 10
12.55087566
 20
8.46931595
  0
VERTEX
  8
0
 10
12.52554838
 20
8.47226741
  0
VERTEX
  8
0
 10
12.53234881
 20
8.49388331
  0
VERTEX
  8
0
 10
12.54001687
 20
8.51494474
  0
VERTEX
  8
0
 10
12.54849936
 20
8.53548610
  0
VERTEX
  8
0
 10
12.55774310
 20
8.55554179
  0
VERTEX
  8
0
 10
12.56769489
 20
8.57514620
  0
VERTEX
  8
0
 10
12.58950988
 20
8.61313881
  0
VERTEX
  8
0
 10
12.61351880
 20
8.64973912
  0
VERTEX
  8
0
 10
12.66641639
 20
8.71986363
  0
VERTEX
  8
0
 10
12.82056660
 20
8.90763967
  0
VERTEX
  8
0
 10
12.84604363
 20
8.94351653
  0
VERTEX
  8
0
 10
12.86967215
 20
8.98061547
  0
VERTEX
  8
0
 10
12.88066025
 20
8.99970922
  0
VERTEX
  8
0
 10
12.90047886
 20
9.03939270
  0
VERTEX
  8
0
 10
12.92036676
 20
9.10188917
  0
VERTEX
  8
0
 10
12.93818017
 20
9.30969153
  0
VERTEX
  8
0
 10
12.91375204
 20
9.30868623
  0
VERTEX
  8
0
 10
12.88999166
 20
9.30614041
  0
VERTEX
  8
0
 10
12.86685250
 20
9.30215821
  0
VERTEX
  8
0
 10
12.84428802
 20
9.29684376
  0
VERTEX
  8
0
 10
12.82225167
 20
9.29030122
  0
VERTEX
  8
0
 10
12.80069692
 20
9.28263471
  0
VERTEX
  8
0
 10
12.77957723
 20
9.27394839
  0
VERTEX
  8
0
 10
12.75884605
 20
9.26434638
  0
VERTEX
  8
0
 10
12.73845684
 20
9.25393283
  0
VERTEX
  8
0
 10
12.69851819
 20
9.23108766
  0
VERTEX
  8
0
 10
12.54313448
 20
9.12807336
  0
VERTEX
  8
0
 10
12.50351966
 20
9.10357698
  0
VERTEX
  8
0
 10
12.46285264
 20
9.08124971
  0
VERTEX
  8
0
 10
12.44200821
 20
9.07115984
  0
VERTEX
  8
0
 10
12.42076110
 20
9.06192467
  0
VERTEX
  8
0
 10
12.39906478
 20
9.05364835
  0
VERTEX
  8
0
 10
12.37687270
 20
9.04643500
  0
VERTEX
  8
0
 10
12.35413833
 20
9.04038877
  0
VERTEX
  8
0
 10
12.33081513
 20
9.03561380
  0
VERTEX
  8
0
 10
12.33574382
 20
8.64441784
  0
VERTEX
  8
0
 10
12.34315629
 20
8.54649575
  0
VERTEX
  8
0
 10
12.35077322
 20
8.48173284
  0
VERTEX
  8
0
 10
12.36095924
 20
8.41756454
  0
VERTEX
  8
0
 10
12.36713053
 20
8.38575153
  0
VERTEX
  8
0
 10
12.37408194
 20
8.35414496
  0
VERTEX
  8
0
 10
12.38185942
 20
8.32276411
  0
VERTEX
  8
0
 10
12.39050891
 20
8.29162823
  0
VERTEX
  8
0
 10
12.40007637
 20
8.26075659
  0
VERTEX
  8
0
 10
12.41060775
 20
8.23016847
  0
VERTEX
  8
0
 10
12.42214899
 20
8.19988311
  0
VERTEX
  8
0
 10
12.43474604
 20
8.16991979
  0
VERTEX
  8
0
 10
12.44844485
 20
8.14029777
  0
VERTEX
  8
0
 10
12.46329137
 20
8.11103633
  0
VERTEX
  8
0
 10
12.48210938
 20
8.10201043
  0
VERTEX
  8
0
 10
12.50119129
 20
8.09387839
  0
VERTEX
  8
0
 10
12.52051725
 20
8.08657418
  0
VERTEX
  8
0
 10
12.55982185
 20
8.07418506
  0
VERTEX
  8
0
 10
12.59986429
 20
8.06431482
  0
VERTEX
  8
0
 10
12.72282967
 20
8.04453459
  0
VERTEX
  8
0
 10
12.90766255
 20
8.01725443
  0
VERTEX
  8
0
 10
12.94756117
 20
8.00746556
  0
VERTEX
  8
0
 10
12.98668811
 20
7.99517696
  0
VERTEX
  8
0
 10
13.00591254
 20
7.98793018
  0
VERTEX
  8
0
 10
13.02488447
 20
7.97986037
  0
VERTEX
  8
0
 10
13.04358403
 20
7.97090148
  0
VERTEX
  8
0
 10
13.05112487
 20
7.94363841
  0
VERTEX
  8
0
 10
13.05650352
 20
7.91650179
  0
VERTEX
  8
0
 10
13.05988234
 20
7.88948154
  0
VERTEX
  8
0
 10
13.06142373
 20
7.86256754
  0
VERTEX
  8
0
 10
13.06129005
 20
7.83574971
  0
VERTEX
  8
0
 10
13.05964369
 20
7.80901795
  0
VERTEX
  8
0
 10
13.05664704
 20
7.78236217
  0
VERTEX
  8
0
 10
13.05246246
 20
7.75577226
  0
VERTEX
  8
0
 10
13.04725235
 20
7.72923814
  0
VERTEX
  8
0
 10
13.03440503
 20
7.67629687
  0
VERTEX
  8
0
 10
12.98100480
 20
7.49127551
  0
VERTEX
  8
0
 10
12.97447021
 20
7.46474396
  0
VERTEX
  8
0
 10
12.96869625
 20
7.43815713
  0
VERTEX
  8
0
 10
12.96384533
 20
7.41150495
  0
VERTEX
  8
0
 10
12.96007980
 20
7.38477729
  0
VERTEX
  8
0
 10
12.95756206
 20
7.35796409
  0
VERTEX
  8
0
 10
12.95645448
 20
7.33105522
  0
VERTEX
  8
0
 10
12.95691945
 20
7.30404061
  0
VERTEX
  8
0
 10
12.95911934
 20
7.27691016
  0
VERTEX
  8
0
 10
12.96321653
 20
7.24965376
  0
VERTEX
  8
0
 10
12.96937341
 20
7.22226133
  0
VERTEX
  8
0
 10
12.97775236
 20
7.19472277
  0
VERTEX
  8
0
 10
12.99626582
 20
7.19701325
  0
VERTEX
  8
0
 10
13.01403947
 20
7.20047740
  0
VERTEX
  8
0
 10
13.03111880
 20
7.20504459
  0
VERTEX
  8
0
 10
13.04754930
 20
7.21064418
  0
VERTEX
  8
0
 10
13.06337648
 20
7.21720555
  0
VERTEX
  8
0
 10
13.07864583
 20
7.22465806
  0
VERTEX
  8
0
 10
13.09340283
 20
7.23293110
  0
VERTEX
  8
0
 10
13.10769299
 20
7.24195402
  0
VERTEX
  8
0
 10
13.13505477
 20
7.26196700
  0
VERTEX
  8
0
 10
13.17373347
 20
7.29584489
  0
VERTEX
  8
0
 10
13.29696074
 20
7.41925611
  0
VERTEX
  8
0
 10
13.32328326
 20
7.44163625
  0
VERTEX
  8
0
 10
13.35101404
 20
7.46193061
  0
VERTEX
  8
0
 10
13.36552126
 20
7.47111904
  0
VERTEX
  8
0
 10
13.38051703
 20
7.47957414
  0
VERTEX
  8
0
 10
13.38981310
 20
7.48393048
  0
VERTEX
  8
0
 10
13.39909994
 20
7.48747876
  0
VERTEX
  8
0
 10
13.40836576
 20
7.49024639
  0
VERTEX
  8
0
 10
13.42678711
 20
7.49354939
  0
VERTEX
  8
0
 10
13.44498274
 20
7.49405884
  0
VERTEX
  8
0
 10
13.46285820
 20
7.49199412
  0
VERTEX
  8
0
 10
13.48031909
 20
7.48757459
  0
VERTEX
  8
0
 10
13.50552654
 20
7.47700991
  0
VERTEX
  8
0
 10
13.52927006
 20
7.46238086
  0
VERTEX
  8
0
 10
13.55810005
 20
7.43783275
  0
VERTEX
  8
0
 10
13.58853024
 20
7.40151119
  0
VERTEX
  8
0
 10
13.60323125
 20
7.37802835
  0
VERTEX
  8
0
 10
13.61423064
 20
7.35862386
  0
VERTEX
  8
0
 10
13.62429096
 20
7.33895493
  0
VERTEX
  8
0
 10
13.63345857
 20
7.31903570
  0
VERTEX
  8
0
 10
13.64177983
 20
7.29888032
  0
VERTEX
  8
0
 10
13.64930110
 20
7.27850294
  0
VERTEX
  8
0
 10
13.66212913
 20
7.23713877
  0
VERTEX
  8
0
 10
13.67231355
 20
7.19505640
  0
VERTEX
  8
0
 10
13.68344476
 20
7.13083379
  0
VERTEX
  8
0
 10
13.70312627
 20
6.84612453
  0
VERTEX
  8
0
 10
13.71035591
 20
6.75963274
  0
VERTEX
  8
0
 10
13.72201221
 20
6.77412238
  0
VERTEX
  8
0
 10
13.73289573
 20
6.78896089
  0
VERTEX
  8
0
 10
13.74305378
 20
6.80412735
  0
VERTEX
  8
0
 10
13.76138270
 20
6.83536046
  0
VERTEX
  8
0
 10
13.77737743
 20
6.86765442
  0
VERTEX
  8
0
 10
13.79782082
 20
6.91771844
  0
VERTEX
  8
0
 10
13.87257175
 20
7.16134186
  0
VERTEX
  8
0
 10
13.89220688
 20
7.21213260
  0
VERTEX
  8
0
 10
13.90750428
 20
7.24505353
  0
VERTEX
  8
0
 10
13.93664748
 20
7.21050796
  0
VERTEX
  8
0
 10
13.96334526
 20
7.17494121
  0
VERTEX
  8
0
 10
13.98768607
 20
7.13840960
  0
VERTEX
  8
0
 10
14.00975833
 20
7.10096942
  0
VERTEX
  8
0
 10
14.02965049
 20
7.06267697
  0
VERTEX
  8
0
 10
14.04745098
 20
7.02358856
  0
VERTEX
  8
0
 10
14.06324825
 20
6.98376049
  0
VERTEX
  8
0
 10
14.07713074
 20
6.94324905
  0
VERTEX
  8
0
 10
14.08918687
 20
6.90211056
  0
VERTEX
  8
0
 10
14.09950510
 20
6.86040132
  0
VERTEX
  8
0
 10
14.10817386
 20
6.81817761
  0
VERTEX
  8
0
 10
14.11528158
 20
6.77549576
  0
VERTEX
  8
0
 10
14.12091672
 20
6.73241206
  0
VERTEX
  8
0
 10
14.12516770
 20
6.68898280
  0
VERTEX
  8
0
 10
14.12812296
 20
6.64526430
  0
VERTEX
  8
0
 10
14.12987095
 20
6.60131285
  0
VERTEX
  8
0
 10
14.13050010
 20
6.55718476
  0
VERTEX
  8
0
 10
14.13009885
 20
6.51293633
  0
VERTEX
  8
0
 10
14.12875564
 20
6.46862386
  0
VERTEX
  8
0
 10
14.12655891
 20
6.42430365
  0
VERTEX
  8
0
 10
14.11995863
 20
6.33586522
  0
VERTEX
  8
0
 10
14.11100553
 20
6.24807147
  0
VERTEX
  8
0
 10
14.09471201
 20
6.11857487
  0
VERTEX
  8
0
 10
14.08297220
 20
6.03436335
  0
VERTEX
  8
0
 10
14.24904787
 20
6.05773698
  0
VERTEX
  8
0
 10
14.28490853
 20
6.07249549
  0
VERTEX
  8
0
 10
14.30977018
 20
6.08761605
  0
VERTEX
  8
0
 10
14.32515648
 20
6.09993597
  0
VERTEX
  8
0
 10
14.33945565
 20
6.11424051
  0
VERTEX
  8
0
 10
14.34616094
 20
6.12218871
  0
VERTEX
  8
0
 10
14.39549734
 20
6.18766060
  0
VERTEX
  8
0
 10
14.53110179
 20
6.39357910
  0
VERTEX
  8
0
 10
14.56268107
 20
6.43100997
  0
VERTEX
  8
0
 10
14.58563705
 20
6.45438915
  0
VERTEX
  8
0
 10
14.61041723
 20
6.47626221
  0
VERTEX
  8
0
 10
14.63728021
 20
6.49641801
  0
VERTEX
  8
0
 10
14.80542950
 20
5.98230963
  0
VERTEX
  8
0
 10
14.98342328
 20
5.57096384
  0
VERTEX
  8
0
 10
15.01289270
 20
5.48647228
  0
VERTEX
  8
0
 10
15.03838307
 20
5.40085172
  0
VERTEX
  8
0
 10
15.05275632
 20
5.34306198
  0
VERTEX
  8
0
 10
15.06474651
 20
5.28464724
  0
VERTEX
  8
0
 10
15.07410781
 20
5.22555819
  0
VERTEX
  8
0
 10
15.07772579
 20
5.19574541
  0
VERTEX
  8
0
 10
15.08059437
 20
5.16574556
  0
VERTEX
  8
0
 10
15.07793194
 20
4.81744133
  0
VERTEX
  8
0
 10
15.07853430
 20
4.74485491
  0
VERTEX
  8
0
 10
15.17024568
 20
4.60324548
  0
VERTEX
  8
0
 10
15.29612894
 20
4.43689428
  0
VERTEX
  8
0
 10
16.03339842
 20
3.35086594
  0
VERTEX
  8
0
 10
16.19607821
 20
3.13094253
  0
VERTEX
  8
0
 10
16.33770780
 20
3.26207191
  0
VERTEX
  8
0
 10
16.39971407
 20
3.29845975
  0
VERTEX
  8
0
 10
16.44450557
 20
3.31636064
  0
VERTEX
  8
0
 10
16.48011165
 20
3.32579670
  0
VERTEX
  8
0
 10
16.78795148
 20
3.38742543
  0
VERTEX
  8
0
 10
16.88127743
 20
3.41105058
  0
VERTEX
  8
0
 10
16.92687579
 20
3.42557186
  0
VERTEX
  8
0
 10
16.97153462
 20
3.44242830
  0
VERTEX
  8
0
 10
16.99345786
 20
3.45185629
  0
VERTEX
  8
0
 10
17.01508159
 20
3.46201696
  0
VERTEX
  8
0
 10
17.03638427
 20
3.47295993
  0
VERTEX
  8
0
 10
17.05734435
 20
3.48473485
  0
VERTEX
  8
0
 10
17.07794029
 20
3.49739133
  0
VERTEX
  8
0
 10
17.09815056
 20
3.51097901
  0
VERTEX
  8
0
 10
17.11795361
 20
3.52554752
  0
VERTEX
  8
0
 10
17.13732789
 20
3.54114648
  0
VERTEX
  8
0
 10
17.26814491
 20
3.48519421
  0
VERTEX
  8
0
 10
17.32913341
 20
3.46732770
  0
VERTEX
  8
0
 10
17.37550577
 20
3.45834906
  0
VERTEX
  8
0
 10
17.40658214
 20
3.45489558
  0
VERTEX
  8
0
 10
17.43770116
 20
3.45373356
  0
VERTEX
  8
0
 10
17.46878871
 20
3.45509071
  0
VERTEX
  8
0
 10
17.49977063
 20
3.45919470
  0
VERTEX
  8
0
 10
17.51519881
 20
3.46234791
  0
VERTEX
  8
0
 10
17.53057279
 20
3.46627323
  0
VERTEX
  8
0
 10
17.54588328
 20
3.47099910
  0
VERTEX
  8
0
 10
17.56112103
 20
3.47655400
  0
VERTEX
  8
0
 10
17.57627677
 20
3.48296637
  0
VERTEX
  8
0
 10
17.60814426
 20
3.49770093
  0
VERTEX
  8
0
 10
17.63898360
 20
3.51372181
  0
VERTEX
  8
0
 10
17.66886038
 20
3.53094813
  0
VERTEX
  8
0
 10
17.69784016
 20
3.54929902
  0
VERTEX
  8
0
 10
17.72598852
 20
3.56869361
  0
VERTEX
  8
0
 10
17.75337104
 20
3.58905103
  0
VERTEX
  8
0
 10
17.78005329
 20
3.61029040
  0
VERTEX
  8
0
 10
17.80610084
 20
3.63233085
  0
VERTEX
  8
0
 10
17.83157928
 20
3.65509151
  0
VERTEX
  8
0
 10
17.88109110
 20
3.70244995
  0
VERTEX
  8
0
 10
18.04609481
 20
3.87900275
  0
VERTEX
  8
0
 10
18.14084594
 20
3.97972181
  0
VERTEX
  8
0
 10
18.19005281
 20
4.02793275
  0
VERTEX
  8
0
 10
18.21534359
 20
4.05121802
  0
VERTEX
  8
0
 10
18.24118003
 20
4.07384866
  0
VERTEX
  8
0
 10
18.26762770
 20
4.09574380
  0
VERTEX
  8
0
 10
18.29475218
 20
4.11682256
  0
VERTEX
  8
0
 10
18.32261905
 20
4.13700407
  0
VERTEX
  8
0
 10
18.39541121
 20
4.06546604
  0
VERTEX
  8
0
 10
18.44898432
 20
4.00006410
  0
VERTEX
  8
0
 10
18.48593876
 20
3.94394301
  0
VERTEX
  8
0
 10
18.50962011
 20
3.89963031
  0
VERTEX
  8
0
 10
18.52942157
 20
3.85340923
  0
VERTEX
  8
0
 10
18.54027961
 20
3.82153323
  0
VERTEX
  8
0
 10
18.54913208
 20
3.78880645
  0
VERTEX
  8
0
 10
18.55586652
 20
3.75522785
  0
VERTEX
  8
0
 10
18.56037045
 20
3.72079639
  0
VERTEX
  8
0
 10
18.61600672
 20
3.72029041
  0
VERTEX
  8
0
 10
18.67170076
 20
3.72064717
  0
VERTEX
  8
0
 10
18.72742878
 20
3.72187931
  0
VERTEX
  8
0
 10
18.78316698
 20
3.72399946
  0
VERTEX
  8
0
 10
18.83889156
 20
3.72702027
  0
VERTEX
  8
0
 10
18.89457872
 20
3.73095436
  0
VERTEX
  8
0
 10
18.95020467
 20
3.73581437
  0
VERTEX
  8
0
 10
19.00574561
 20
3.74161295
  0
VERTEX
  8
0
 10
19.06117774
 20
3.74836273
  0
VERTEX
  8
0
 10
19.11647727
 20
3.75607634
  0
VERTEX
  8
0
 10
19.17162039
 20
3.76476641
  0
VERTEX
  8
0
 10
19.22658331
 20
3.77444560
  0
VERTEX
  8
0
 10
19.28134224
 20
3.78512653
  0
VERTEX
  8
0
 10
19.33587337
 20
3.79682184
  0
VERTEX
  8
0
 10
19.39015290
 20
3.80954416
  0
VERTEX
  8
0
 10
19.44415705
 20
3.82330613
  0
VERTEX
  8
0
 10
19.49786201
 20
3.83812040
  0
VERTEX
  8
0
 10
19.55124398
 20
3.85399959
  0
VERTEX
  8
0
 10
19.60427917
 20
3.87095634
  0
VERTEX
  8
0
 10
19.65694378
 20
3.88900329
  0
VERTEX
  8
0
 10
19.70921401
 20
3.90815308
  0
VERTEX
  8
0
 10
19.76106607
 20
3.92841833
  0
VERTEX
  8
0
 10
19.81247615
 20
3.94981169
  0
VERTEX
  8
0
 10
19.86342047
 20
3.97234580
  0
VERTEX
  8
0
 10
19.91387522
 20
3.99603329
  0
VERTEX
  8
0
 10
19.96381660
 20
4.02088679
  0
VERTEX
  8
0
 10
20.01322082
 20
4.04691895
  0
VERTEX
  8
0
 10
20.06206408
 20
4.07414240
  0
VERTEX
  8
0
 10
20.11032259
 20
4.10256977
  0
VERTEX
  8
0
 10
20.16583365
 20
4.13638909
  0
VERTEX
  8
0
 10
20.22032256
 20
4.17147545
  0
VERTEX
  8
0
 10
20.27382034
 20
4.20778122
  0
VERTEX
  8
0
 10
20.32635802
 20
4.24525877
  0
VERTEX
  8
0
 10
20.37796662
 20
4.28386047
  0
VERTEX
  8
0
 10
20.42867715
 20
4.32353868
  0
VERTEX
  8
0
 10
20.47852065
 20
4.36424578
  0
VERTEX
  8
0
 10
20.52752813
 20
4.40593413
  0
VERTEX
  8
0
 10
20.57573061
 20
4.44855610
  0
VERTEX
  8
0
 10
20.62315912
 20
4.49206406
  0
VERTEX
  8
0
 10
20.66984467
 20
4.53641037
  0
VERTEX
  8
0
 10
20.71581830
 20
4.58154741
  0
VERTEX
  8
0
 10
20.76111102
 20
4.62742754
  0
VERTEX
  8
0
 10
20.80575385
 20
4.67400314
  0
VERTEX
  8
0
 10
20.84977781
 20
4.72122656
  0
VERTEX
  8
0
 10
20.89321393
 20
4.76905018
  0
VERTEX
  8
0
 10
20.97844673
 20
4.86630749
  0
VERTEX
  8
0
 10
21.06170042
 20
4.96539400
  0
VERTEX
  8
0
 10
21.18341299
 20
5.11661999
  0
VERTEX
  8
0
 10
21.41850466
 20
5.42370277
  0
VERTEX
  8
0
 10
21.85681935
 20
5.99039082
  0
VERTEX
  8
0
 10
21.94745970
 20
6.09216635
  0
VERTEX
  8
0
 10
22.01870097
 20
6.16559212
  0
VERTEX
  8
0
 10
22.04316494
 20
6.18942618
  0
VERTEX
  8
0
 10
21.92131213
 20
5.92081224
  0
VERTEX
  8
0
 10
21.78721542
 20
5.67997195
  0
VERTEX
  8
0
 10
21.71937427
 20
5.56363302
  0
VERTEX
  8
0
 10
21.64966403
 20
5.44835654
  0
VERTEX
  8
0
 10
21.57807074
 20
5.33420958
  0
VERTEX
  8
0
 10
21.50458044
 20
5.22125924
  0
VERTEX
  8
0
 10
21.42917917
 20
5.10957259
  0
VERTEX
  8
0
 10
21.35185297
 20
4.99921674
  0
VERTEX
  8
0
 10
21.27258789
 20
4.89025877
  0
VERTEX
  8
0
 10
21.19136996
 20
4.78276575
  0
VERTEX
  8
0
 10
21.10818523
 20
4.67680480
  0
VERTEX
  8
0
 10
21.02301972
 20
4.57244297
  0
VERTEX
  8
0
 10
20.93585950
 20
4.46974738
  0
VERTEX
  8
0
 10
20.84669059
 20
4.36878510
  0
VERTEX
  8
0
 10
20.75549904
 20
4.26962322
  0
VERTEX
  8
0
 10
20.66227088
 20
4.17232883
  0
VERTEX
  8
0
 10
20.61488871
 20
4.12440291
  0
VERTEX
  8
0
 10
20.54043949
 20
4.05212549
  0
VERTEX
  8
0
 10
20.46417764
 20
3.98150754
  0
VERTEX
  8
0
 10
20.38611497
 20
3.91271823
  0
VERTEX
  8
0
 10
20.30626334
 20
3.84592667
  0
VERTEX
  8
0
 10
20.22463456
 20
3.78130203
  0
VERTEX
  8
0
 10
20.18315744
 20
3.74985516
  0
VERTEX
  8
0
 10
20.14124047
 20
3.71901345
  0
VERTEX
  8
0
 10
20.09888513
 20
3.68879803
  0
VERTEX
  8
0
 10
20.05609289
 20
3.65923006
  0
VERTEX
  8
0
 10
20.01286525
 20
3.63033067
  0
VERTEX
  8
0
 10
19.96920367
 20
3.60212101
  0
VERTEX
  8
0
 10
19.92510964
 20
3.57462222
  0
VERTEX
  8
0
 10
19.88058463
 20
3.54785544
  0
VERTEX
  8
0
 10
19.83563012
 20
3.52184182
  0
VERTEX
  8
0
 10
19.79024759
 20
3.49660251
  0
VERTEX
  8
0
 10
19.74443853
 20
3.47215863
  0
VERTEX
  8
0
 10
19.69820440
 20
3.44853134
  0
VERTEX
  8
0
 10
19.65154670
 20
3.42574178
  0
VERTEX
  8
0
 10
19.60446689
 20
3.40381109
  0
VERTEX
  8
0
 10
19.55696645
 20
3.38276041
  0
VERTEX
  8
0
 10
19.50904687
 20
3.36261089
  0
VERTEX
  8
0
 10
19.46070963
 20
3.34338367
  0
VERTEX
  8
0
 10
19.41195619
 20
3.32509990
  0
VERTEX
  8
0
 10
19.36278805
 20
3.30778071
  0
VERTEX
  8
0
 10
19.19166665
 20
3.25918577
  0
VERTEX
  8
0
 10
19.07541106
 20
3.23350164
  0
VERTEX
  8
0
 10
18.98740381
 20
3.21852263
  0
VERTEX
  8
0
 10
18.89891257
 20
3.20771679
  0
VERTEX
  8
0
 10
18.83974509
 20
3.20305405
  0
VERTEX
  8
0
 10
18.78050587
 20
3.20058012
  0
VERTEX
  8
0
 10
18.72125225
 20
3.20042865
  0
VERTEX
  8
0
 10
18.66204156
 20
3.20273325
  0
VERTEX
  8
0
 10
18.60293117
 20
3.20762756
  0
VERTEX
  8
0
 10
18.54397841
 20
3.21524521
  0
VERTEX
  8
0
 10
18.51457906
 20
3.22011705
  0
VERTEX
  8
0
 10
18.49107620
 20
3.22438600
  0
VERTEX
  8
0
 10
18.45739702
 20
3.23417575
  0
VERTEX
  8
0
 10
18.40467101
 20
3.25779461
  0
VERTEX
  8
0
 10
18.21869093
 20
3.37762112
  0
VERTEX
  8
0
 10
18.20941046
 20
3.37694487
  0
VERTEX
  8
0
 10
18.20046910
 20
3.37555417
  0
VERTEX
  8
0
 10
18.18353392
 20
3.37078712
  0
VERTEX
  8
0
 10
18.16774587
 20
3.36363533
  0
VERTEX
  8
0
 10
18.14590948
 20
3.34912606
  0
VERTEX
  8
0
 10
18.10715475
 20
3.31039635
  0
VERTEX
  8
0
 10
18.02351012
 20
3.21198236
  0
VERTEX
  8
0
 10
17.89906981
 20
3.36164305
  0
VERTEX
  8
0
 10
17.86468898
 20
3.38512475
  0
VERTEX
  8
0
 10
17.85710983
 20
3.38892123
  0
VERTEX
  8
0
 10
17.83760395
 20
3.38969385
  0
VERTEX
  8
0
 10
17.81841693
 20
3.38939733
  0
VERTEX
  8
0
 10
17.79954106
 20
3.38807638
  0
VERTEX
  8
0
 10
17.78096860
 20
3.38577573
  0
VERTEX
  8
0
 10
17.76269183
 20
3.38254008
  0
VERTEX
  8
0
 10
17.74470301
 20
3.37841415
  0
VERTEX
  8
0
 10
17.72699442
 20
3.37344266
  0
VERTEX
  8
0
 10
17.70955833
 20
3.36767033
  0
VERTEX
  8
0
 10
17.69238701
 20
3.36114185
  0
VERTEX
  8
0
 10
17.65880778
 20
3.34599537
  0
VERTEX
  8
0
 10
17.62619488
 20
3.32836092
  0
VERTEX
  8
0
 10
17.57895218
 20
3.29802686
  0
VERTEX
  8
0
 10
17.48973753
 20
3.22780885
  0
VERTEX
  8
0
 10
17.39266050
 20
3.14064537
  0
VERTEX
  8
0
 10
17.26053602
 20
3.18178455
  0
VERTEX
  8
0
 10
17.17558175
 20
3.19766789
  0
VERTEX
  8
0
 10
17.10702160
 20
3.20346124
  0
VERTEX
  8
0
 10
17.05554965
 20
3.20316828
  0
VERTEX
  8
0
 10
17.00424487
 20
3.19846763
  0
VERTEX
  8
0
 10
16.97022860
 20
3.19269303
  0
VERTEX
  8
0
 10
16.93642770
 20
3.18467127
  0
VERTEX
  8
0
 10
16.90289861
 20
3.17428707
  0
VERTEX
  8
0
 10
16.87107035
 20
3.16454086
  0
VERTEX
  8
0
 10
16.83975135
 20
3.15350541
  0
VERTEX
  8
0
 10
16.80889732
 20
3.14129636
  0
VERTEX
  8
0
 10
16.77846396
 20
3.12802938
  0
VERTEX
  8
0
 10
16.74840697
 20
3.11382013
  0
VERTEX
  8
0
 10
16.71868205
 20
3.09878424
  0
VERTEX
  8
0
 10
16.66005126
 20
3.06669523
  0
VERTEX
  8
0
 10
16.42995160
 20
2.92840540
  0
VERTEX
  8
0
 10
16.37176067
 20
2.89597572
  0
VERTEX
  8
0
 10
16.34232167
 20
2.88071840
  0
VERTEX
  8
0
 10
16.31259459
 20
2.86625364
  0
VERTEX
  8
0
 10
16.28253512
 20
2.85269709
  0
VERTEX
  8
0
 10
16.25209897
 20
2.84016441
  0
VERTEX
  8
0
 10
16.22124183
 20
2.82877125
  0
VERTEX
  8
0
 10
16.18991943
 20
2.81863328
  0
VERTEX
  8
0
 10
16.15808744
 20
2.80986613
  0
VERTEX
  8
0
 10
16.12570159
 20
2.80258548
  0
VERTEX
  8
0
 10
16.09271757
 20
2.79690698
  0
VERTEX
  8
0
 10
16.05909108
 20
2.79294627
  0
VERTEX
  8
0
 10
16.02477784
 20
2.79081902
  0
VERTEX
  8
0
 10
16.00129981
 20
2.79095509
  0
VERTEX
  8
0
 10
15.97829501
 20
2.79245369
  0
VERTEX
  8
0
 10
15.95576263
 20
2.79526403
  0
VERTEX
  8
0
 10
15.93370187
 20
2.79933528
  0
VERTEX
  8
0
 10
15.91211194
 20
2.80461666
  0
VERTEX
  8
0
 10
15.89099204
 20
2.81105734
  0
VERTEX
  8
0
 10
15.87034136
 20
2.81860652
  0
VERTEX
  8
0
 10
15.85015912
 20
2.82721340
  0
VERTEX
  8
0
 10
15.83044452
 20
2.83682716
  0
VERTEX
  8
0
 10
15.81119675
 20
2.84739700
  0
VERTEX
  8
0
 10
15.79241503
 20
2.85887210
  0
VERTEX
  8
0
 10
15.77409855
 20
2.87120168
  0
VERTEX
  8
0
 10
15.75624651
 20
2.88433490
  0
VERTEX
  8
0
 10
15.73885812
 20
2.89822098
  0
VERTEX
  8
0
 10
15.72193259
 20
2.91280909
  0
VERTEX
  8
0
 10
15.70546911
 20
2.92804844
  0
VERTEX
  8
0
 10
15.67392511
 20
2.96027760
  0
VERTEX
  8
0
 10
15.64421976
 20
2.99450199
  0
VERTEX
  8
0
 10
15.61634668
 20
3.03031517
  0
VERTEX
  8
0
 10
15.57795859
 20
3.08612476
  0
VERTEX
  8
0
 10
15.54365721
 20
3.14322275
  0
VERTEX
  8
0
 10
15.53312786
 20
3.16230462
  0
VERTEX
  8
0
 10
15.49274529
 20
3.23687016
  0
VERTEX
  8
0
 10
15.43567213
 20
3.35032020
  0
VERTEX
  8
0
 10
15.36504106
 20
3.50408106
  0
VERTEX
  8
0
 10
15.05066354
 20
4.29014611
  0
VERTEX
  8
0
 10
15.03442084
 20
4.32796728
  0
VERTEX
  8
0
 10
15.01693991
 20
4.36491683
  0
VERTEX
  8
0
 10
14.99828532
 20
4.40103938
  0
VERTEX
  8
0
 10
14.97852167
 20
4.43637954
  0
VERTEX
  8
0
 10
14.95771355
 20
4.47098194
  0
VERTEX
  8
0
 10
14.93592554
 20
4.50489120
  0
VERTEX
  8
0
 10
14.91322224
 20
4.53815193
  0
VERTEX
  8
0
 10
14.88966822
 20
4.57080876
  0
VERTEX
  8
0
 10
14.86532808
 20
4.60290631
  0
VERTEX
  8
0
 10
14.84026641
 20
4.63448919
  0
VERTEX
  8
0
 10
14.78823681
 20
4.69628945
  0
VERTEX
  8
0
 10
14.73409614
 20
4.75656649
  0
VERTEX
  8
0
 10
14.44981129
 20
5.04759721
  0
VERTEX
  8
0
 10
14.36640919
 20
5.13589167
  0
VERTEX
  8
0
 10
14.31290541
 20
5.19612278
  0
VERTEX
  8
0
 10
14.25133186
 20
5.26732251
  0
VERTEX
  8
0
 10
14.19267334
 20
5.34123724
  0
VERTEX
  8
0
 10
14.13736553
 20
5.41778546
  0
VERTEX
  8
0
 10
14.10257032
 20
5.47024041
  0
VERTEX
  8
0
 10
14.06958704
 20
5.52380543
  0
VERTEX
  8
0
 10
14.03854478
 20
5.57845637
  0
VERTEX
  8
0
 10
14.00957264
 20
5.63416908
  0
VERTEX
  8
0
 10
13.98279970
 20
5.69091942
  0
VERTEX
  8
0
 10
13.95835504
 20
5.74868322
  0
VERTEX
  8
0
 10
13.93636778
 20
5.80743635
  0
VERTEX
  8
0
 10
13.91696698
 20
5.86715466
  0
VERTEX
  8
0
 10
13.90028175
 20
5.92781399
  0
VERTEX
  8
0
 10
13.89299781
 20
5.95848900
  0
VERTEX
  8
0
 10
13.88644117
 20
5.98939020
  0
VERTEX
  8
0
 10
13.83989757
 20
6.40300498
  0
VERTEX
  8
0
 10
13.83169794
 20
6.41912936
  0
VERTEX
  8
0
 10
13.81441027
 20
6.43411737
  0
VERTEX
  8
0
 10
13.74114671
 20
6.43269728
  0
VERTEX
  8
0
 10
13.62227974
 20
6.28674308
  0
VERTEX
  8
0
 10
13.58122692
 20
6.24591644
  0
VERTEX
  8
0
 10
13.56289803
 20
6.23186024
  0
VERTEX
  8
0
 10
13.54316888
 20
6.21946966
  0
VERTEX
  8
0
 10
13.52183275
 20
6.20898866
  0
VERTEX
  8
0
 10
13.51049745
 20
6.20454050
  0
VERTEX
  8
0
 10
13.49868289
 20
6.20066122
  0
VERTEX
  8
0
 10
13.48761293
 20
6.22089844
  0
VERTEX
  8
0
 10
13.47791229
 20
6.24143586
  0
VERTEX
  8
0
 10
13.46948413
 20
6.26225209
  0
VERTEX
  8
0
 10
13.46223162
 20
6.28332573
  0
VERTEX
  8
0
 10
13.45605792
 20
6.30463538
  0
VERTEX
  8
0
 10
13.45086621
 20
6.32615965
  0
VERTEX
  8
0
 10
13.44655963
 20
6.34787714
  0
VERTEX
  8
0
 10
13.44021457
 20
6.39180620
  0
VERTEX
  8
0
 10
13.43388541
 20
6.48104152
  0
VERTEX
  8
0
 10
13.42497981
 20
6.66022823
  0
VERTEX
  8
0
 10
13.41901625
 20
6.70417560
  0
VERTEX
  8
0
 10
13.41494130
 20
6.72590420
  0
VERTEX
  8
0
 10
13.41000846
 20
6.74744089
  0
VERTEX
  8
0
 10
13.40412088
 20
6.76876427
  0
VERTEX
  8
0
 10
13.39718175
 20
6.78985294
  0
VERTEX
  8
0
 10
13.38909421
 20
6.81068552
  0
VERTEX
  8
0
 10
13.37976145
 20
6.83124059
  0
VERTEX
  8
0
 10
13.33143195
 20
6.85679357
  0
VERTEX
  8
0
 10
13.30208430
 20
6.84250617
  0
VERTEX
  8
0
 10
13.19037604
 20
6.77133229
  0
VERTEX
  8
0
 10
13.09300643
 20
6.70972444
  0
VERTEX
  8
0
 10
13.06403662
 20
6.69550714
  0
VERTEX
  8
0
 10
13.03420655
 20
6.68373469
  0
VERTEX
  8
0
 10
13.01890940
 20
6.67892560
  0
VERTEX
  8
0
 10
13.00332575
 20
6.67492009
  0
VERTEX
  8
0
 10
12.98743181
 20
6.67178228
  0
VERTEX
  8
0
 10
12.97120375
 20
6.66957630
  0
VERTEX
  8
0
 10
12.95461778
 20
6.66836626
  0
VERTEX
  8
0
 10
12.93765009
 20
6.66821628
  0
VERTEX
  8
0
 10
12.92027687
 20
6.66919050
  0
VERTEX
  8
0
 10
12.90247430
 20
6.67135302
  0
VERTEX
  8
0
 10
12.89444834
 20
6.69809784
  0
VERTEX
  8
0
 10
12.88740319
 20
6.72493710
  0
VERTEX
  8
0
 10
12.88127787
 20
6.75186525
  0
VERTEX
  8
0
 10
12.87601141
 20
6.77887674
  0
VERTEX
  8
0
 10
12.87154282
 20
6.80596602
  0
VERTEX
  8
0
 10
12.86475533
 20
6.86035570
  0
VERTEX
  8
0
 10
12.86042756
 20
6.91498989
  0
VERTEX
  8
0
 10
12.85732416
 20
7.07991522
  0
VERTEX
  8
0
 10
12.85581425
 20
7.35553447
  0
VERTEX
  8
0
 10
12.85167104
 20
7.41037006
  0
VERTEX
  8
0
 10
12.84510912
 20
7.46500589
  0
VERTEX
  8
0
 10
12.82612826
 20
7.46058302
  0
VERTEX
  8
0
 10
12.80842070
 20
7.45494556
  0
VERTEX
  8
0
 10
12.79193304
 20
7.44815350
  0
VERTEX
  8
0
 10
12.77661188
 20
7.44026680
  0
VERTEX
  8
0
 10
12.76240381
 20
7.43134545
  0
VERTEX
  8
0
 10
12.74925544
 20
7.42144943
  0
VERTEX
  8
0
 10
12.73711336
 20
7.41063871
  0
VERTEX
  8
0
 10
12.72592416
 20
7.39897328
  0
VERTEX
  8
0
 10
12.71563444
 20
7.38651311
  0
VERTEX
  8
0
 10
12.70619080
 20
7.37331818
  0
VERTEX
  8
0
 10
12.69753983
 20
7.35944847
  0
VERTEX
  8
0
 10
12.68962813
 20
7.34496395
  0
VERTEX
  8
0
 10
12.68240230
 20
7.32992461
  0
VERTEX
  8
0
 10
12.66979462
 20
7.29842138
  0
VERTEX
  8
0
 10
12.65928956
 20
7.26541858
  0
VERTEX
  8
0
 10
12.62658164
 20
7.11121436
  0
VERTEX
  8
0
 10
12.61648940
 20
7.06278145
  0
VERTEX
  8
0
 10
12.45926516
 20
7.20504054
  0
VERTEX
  8
0
 10
12.44237509
 20
7.23502107
  0
VERTEX
  8
0
 10
12.42768936
 20
7.26538424
  0
VERTEX
  8
0
 10
12.41432075
 20
7.29613961
  0
VERTEX
  8
0
 10
12.40217088
 20
7.32725776
  0
VERTEX
  8
0
 10
12.39114136
 20
7.35870929
  0
VERTEX
  8
0
 10
12.38113380
 20
7.39046481
  0
VERTEX
  8
0
 10
12.37204981
 20
7.42249490
  0
VERTEX
  8
0
 10
12.36379102
 20
7.45477018
  0
VERTEX
  8
0
 10
12.34935547
 20
7.51993865
  0
VERTEX
  8
0
 10
12.29926852
 20
7.81757096
  0
VERTEX
  8
0
 10
12.28675348
 20
7.88328201
  0
VERTEX
  8
0
 10
12.27202958
 20
7.94832727
  0
VERTEX
  8
0
 10
12.26359334
 20
7.98052672
  0
VERTEX
  8
0
 10
12.25430973
 20
8.01247151
  0
VERTEX
  8
0
 10
12.24408037
 20
8.04413225
  0
VERTEX
  8
0
 10
12.23280686
 20
8.07547952
  0
VERTEX
  8
0
 10
12.22039082
 20
8.10648394
  0
VERTEX
  8
0
 10
12.20673387
 20
8.13711609
  0
VERTEX
  8
0
 10
12.19173761
 20
8.16734657
  0
VERTEX
  8
0
 10
12.18919681
 20
8.17466482
  0
VERTEX
  8
0
 10
12.18609634
 20
8.18143095
  0
VERTEX
  8
0
 10
12.17836517
 20
8.19333273
  0
VERTEX
  8
0
 10
12.16884163
 20
8.20310360
  0
VERTEX
  8
0
 10
12.15782325
 20
8.21079528
  0
VERTEX
  8
0
 10
12.14560755
 20
8.21645945
  0
VERTEX
  8
0
 10
12.12568988
 20
8.22126723
  0
VERTEX
  8
0
 10
12.10475184
 20
8.22180394
  0
VERTEX
  8
0
 10
12.08379759
 20
8.21824406
  0
VERTEX
  8
0
 10
12.06383128
 20
8.21076207
  0
VERTEX
  8
0
 10
12.04585706
 20
8.19953247
  0
VERTEX
  8
0
 10
12.03547684
 20
8.19005021
  0
VERTEX
  8
0
 10
12.02672581
 20
8.17903160
  0
VERTEX
  8
0
 10
11.91503764
 20
8.03965711
  0
VERTEX
  8
0
 10
11.88813456
 20
8.01403684
  0
VERTEX
  8
0
 10
11.86880873
 20
7.99912782
  0
VERTEX
  8
0
 10
11.84813238
 20
7.98635027
  0
VERTEX
  8
0
 10
11.83722395
 20
7.98086649
  0
VERTEX
  8
0
 10
11.82590134
 20
7.97604240
  0
VERTEX
  8
0
 10
11.81413902
 20
7.97192028
  0
VERTEX
  8
0
 10
11.80191147
 20
7.96854239
  0
VERTEX
  8
0
 10
11.78919317
 20
7.96595102
  0
VERTEX
  8
0
 10
11.77595860
 20
7.96418843
  0
VERTEX
  8
0
 10
11.76218226
 20
7.96329691
  0
VERTEX
  8
0
 10
11.74783860
 20
7.96331872
  0
VERTEX
  8
0
 10
11.72600720
 20
8.03588099
  0
VERTEX
  8
0
 10
11.70651995
 20
8.10875245
  0
VERTEX
  8
0
 10
11.68928498
 20
8.18191356
  0
VERTEX
  8
0
 10
11.67421041
 20
8.25534474
  0
VERTEX
  8
0
 10
11.66120436
 20
8.32902643
  0
VERTEX
  8
0
 10
11.65017496
 20
8.40293906
  0
VERTEX
  8
0
 10
11.64103034
 20
8.47706307
  0
VERTEX
  8
0
 10
11.63367861
 20
8.55137890
  0
VERTEX
  8
0
 10
11.62802789
 20
8.62586698
  0
VERTEX
  8
0
 10
11.62398632
 20
8.70050774
  0
VERTEX
  8
0
 10
11.62146202
 20
8.77528163
  0
VERTEX
  8
0
 10
11.62036310
 20
8.85016907
  0
VERTEX
  8
0
 10
11.62059769
 20
8.92515051
  0
VERTEX
  8
0
 10
11.62207393
 20
9.00020638
  0
VERTEX
  8
0
 10
11.62469992
 20
9.07531711
  0
VERTEX
  8
0
 10
11.62838379
 20
9.15046314
  0
VERTEX
  8
0
 10
11.63303367
 20
9.22562490
  0
VERTEX
  8
0
 10
11.63855768
 20
9.30078284
  0
VERTEX
  8
0
 10
11.65186058
 20
9.45100897
  0
VERTEX
  8
0
 10
11.67607399
 20
9.67583034
  0
VERTEX
  8
0
 10
11.73073764
 20
10.12167203
  0
VERTEX
  8
0
 10
11.68699304
 20
10.10786736
  0
VERTEX
  8
0
 10
11.64510763
 20
10.09010602
  0
VERTEX
  8
0
 10
11.60534295
 20
10.06857691
  0
VERTEX
  8
0
 10
11.56796055
 20
10.04346894
  0
VERTEX
  8
0
 10
11.53322199
 20
10.01497100
  0
VERTEX
  8
0
 10
11.50138882
 20
9.98327202
  0
VERTEX
  8
0
 10
11.47272258
 20
9.94856088
  0
VERTEX
  8
0
 10
11.44748484
 20
9.91102650
  0
VERTEX
  8
0
 10
11.42593715
 20
9.87085778
  0
VERTEX
  8
0
 10
11.41375121
 20
9.84270839
  0
VERTEX
  8
0
 10
11.39916807
 20
9.80761845
  0
VERTEX
  8
0
 10
11.38578467
 20
9.77221458
  0
VERTEX
  8
0
 10
11.37351433
 20
9.73651934
  0
VERTEX
  8
0
 10
11.36227040
 20
9.70055527
  0
VERTEX
  8
0
 10
11.35196622
 20
9.66434491
  0
VERTEX
  8
0
 10
11.34251514
 20
9.62791081
  0
VERTEX
  8
0
 10
11.32582564
 20
9.55446156
  0
VERTEX
  8
0
 10
11.30502317
 20
9.44317321
  0
VERTEX
  8
0
 10
11.25124700
 20
9.10696509
  0
VERTEX
  8
0
 10
11.23660655
 20
9.03293215
  0
VERTEX
  8
0
 10
11.21948579
 20
8.95953724
  0
VERTEX
  8
0
 10
11.20977865
 20
8.92313540
  0
VERTEX
  8
0
 10
11.19919146
 20
8.88696070
  0
VERTEX
  8
0
 10
11.18763756
 20
8.85103569
  0
VERTEX
  8
0
 10
11.17503030
 20
8.81538290
  0
VERTEX
  8
0
 10
11.16128302
 20
8.78002488
  0
VERTEX
  8
0
 10
11.08292327
 20
8.64869674
  0
VERTEX
  8
0
 10
10.99920725
 20
8.55607825
  0
VERTEX
  8
0
 10
10.98542491
 20
8.58914291
  0
VERTEX
  8
0
 10
10.97238014
 20
8.62243213
  0
VERTEX
  8
0
 10
10.94842229
 20
8.68964341
  0
VERTEX
  8
0
 10
10.92717158
 20
8.75763050
  0
VERTEX
  8
0
 10
10.90846588
 20
8.82631182
  0
VERTEX
  8
0
 10
10.89214307
 20
8.89560577
  0
VERTEX
  8
0
 10
10.87804103
 20
8.96543079
  0
VERTEX
  8
0
 10
10.86069726
 20
9.07098556
  0
VERTEX
  8
0
 10
10.84383176
 20
9.21282250
  0
VERTEX
  8
0
 10
10.82931226
 20
9.42660336
  0
VERTEX
  8
0
 10
10.82492698
 20
9.56885575
  0
VERTEX
  8
0
 10
10.83219927
 20
9.81272324
  0
VERTEX
  8
0
 10
10.84384329
 20
9.97524466
  0
VERTEX
  8
0
 10
10.85677069
 20
10.09674402
  0
VERTEX
  8
0
 10
10.87370640
 20
10.21766904
  0
VERTEX
  8
0
 10
10.89502225
 20
10.33780502
  0
VERTEX
  8
0
 10
10.91184984
 20
10.41735128
  0
VERTEX
  8
0
 10
10.93089957
 20
10.49638781
  0
VERTEX
  8
0
 10
10.95228162
 20
10.57485097
  0
VERTEX
  8
0
 10
10.97610615
 20
10.65267716
  0
VERTEX
  8
0
 10
11.00248333
 20
10.72980276
  0
VERTEX
  8
0
 10
11.02148509
 20
10.72650525
  0
VERTEX
  8
0
 10
11.03979453
 20
10.72212277
  0
VERTEX
  8
0
 10
11.05745479
 20
10.71672091
  0
VERTEX
  8
0
 10
11.07450904
 20
10.71036525
  0
VERTEX
  8
0
 10
11.09100041
 20
10.70312139
  0
VERTEX
  8
0
 10
11.10697207
 20
10.69505491
  0
VERTEX
  8
0
 10
11.12246716
 20
10.68623140
  0
VERTEX
  8
0
 10
11.13752883
 20
10.67671646
  0
VERTEX
  8
0
 10
11.16652452
 20
10.65587462
  0
VERTEX
  8
0
 10
11.20784621
 20
10.62106578
  0
VERTEX
  8
0
 10
11.34078656
 20
10.49562017
  0
VERTEX
  8
0
 10
11.36907780
 20
10.47272801
  0
VERTEX
  8
0
 10
11.39874225
 20
10.45179249
  0
VERTEX
  8
0
 10
11.41419731
 20
10.44222245
  0
VERTEX
  8
0
 10
11.43012512
 20
10.43333834
  0
VERTEX
  8
0
 10
11.33132390
 20
11.15512659
  0
VERTEX
  8
0
 10
11.32842357
 20
11.20911491
  0
VERTEX
  8
0
 10
11.31989750
 20
11.39449441
  0
VERTEX
  8
0
 10
11.35622445
 20
11.97591971
  0
VERTEX
  8
0
 10
11.31555128
 20
11.95663882
  0
VERTEX
  8
0
 10
11.27616045
 20
11.93570854
  0
VERTEX
  8
0
 10
11.23803697
 20
11.91319062
  0
VERTEX
  8
0
 10
11.20116585
 20
11.88914686
  0
VERTEX
  8
0
 10
11.16553211
 20
11.86363900
  0
VERTEX
  8
0
 10
11.13112075
 20
11.83672883
  0
VERTEX
  8
0
 10
11.09791678
 20
11.80847812
  0
VERTEX
  8
0
 10
11.06590522
 20
11.77894863
  0
VERTEX
  8
0
 10
11.03507106
 20
11.74820214
  0
VERTEX
  8
0
 10
11.00539933
 20
11.71630042
  0
VERTEX
  8
0
 10
10.97687503
 20
11.68330523
  0
VERTEX
  8
0
 10
10.94948316
 20
11.64927836
  0
VERTEX
  8
0
 10
10.92320875
 20
11.61428156
  0
VERTEX
  8
0
 10
10.89803679
 20
11.57837661
  0
VERTEX
  8
0
 10
10.87395230
 20
11.54162529
  0
VERTEX
  8
0
 10
10.85094029
 20
11.50408935
  0
VERTEX
  8
0
 10
10.82898577
 20
11.46583058
  0
VERTEX
  8
0
 10
10.80807375
 20
11.42691074
  0
VERTEX
  8
0
 10
10.78818923
 20
11.38739160
  0
VERTEX
  8
0
 10
10.76931723
 20
11.34733493
  0
VERTEX
  8
0
 10
10.75144275
 20
11.30680251
  0
VERTEX
  8
0
 10
10.73455081
 20
11.26585611
  0
VERTEX
  8
0
 10
10.71862642
 20
11.22455749
  0
VERTEX
  8
0
 10
10.70365458
 20
11.18296843
  0
VERTEX
  8
0
 10
10.68962030
 20
11.14115069
  0
VERTEX
  8
0
 10
10.67650860
 20
11.09916605
  0
VERTEX
  8
0
 10
10.66430448
 20
11.05707628
  0
VERTEX
  8
0
 10
10.65299296
 20
11.01494315
  0
VERTEX
  8
0
 10
10.64255903
 20
10.97282842
  0
VERTEX
  8
0
 10
10.62489469
 20
10.89507592
  0
VERTEX
  8
0
 10
10.60872972
 20
10.81713987
  0
VERTEX
  8
0
 10
10.59399007
 20
10.73903010
  0
VERTEX
  8
0
 10
10.58060170
 20
10.66075645
  0
VERTEX
  8
0
 10
10.56849055
 20
10.58232876
  0
VERTEX
  8
0
 10
10.55758257
 20
10.50375686
  0
VERTEX
  8
0
 10
10.54780370
 20
10.42505059
  0
VERTEX
  8
0
 10
10.53907990
 20
10.34621979
  0
VERTEX
  8
0
 10
10.53133711
 20
10.26727428
  0
VERTEX
  8
0
 10
10.52450129
 20
10.18822392
  0
VERTEX
  8
0
 10
10.51849837
 20
10.10907853
  0
VERTEX
  8
0
 10
10.50869507
 20
9.95054201
  0
VERTEX
  8
0
 10
10.49838564
 20
9.71227043
  0
VERTEX
  8
0
 10
10.47530128
 20
8.83785494
  0
VERTEX
  8
0
 10
10.46845454
 20
8.67942514
  0
VERTEX
  8
0
 10
10.42049895
 20
8.01914283
  0
VERTEX
  8
0
 10
10.39306315
 20
7.82650776
  0
VERTEX
  8
0
 10
10.37189323
 20
7.71169264
  0
VERTEX
  8
0
 10
10.34659804
 20
7.59759198
  0
VERTEX
  8
0
 10
10.33716560
 20
7.55973700
  0
VERTEX
  8
0
 10
10.21761138
 20
7.69453309
  0
VERTEX
  8
0
 10
10.14582547
 20
7.80864571
  0
VERTEX
  8
0
 10
10.10329309
 20
7.90479403
  0
VERTEX
  8
0
 10
10.09828445
 20
7.91904382
  0
VERTEX
  8
0
 10
10.08385554
 20
7.96084589
  0
VERTEX
  8
0
 10
10.07064333
 20
8.00286675
  0
VERTEX
  8
0
 10
10.05858433
 20
8.04509455
  0
VERTEX
  8
0
 10
10.04761506
 20
8.08751745
  0
VERTEX
  8
0
 10
10.03767203
 20
8.13012359
  0
VERTEX
  8
0
 10
10.02869175
 20
8.17290114
  0
VERTEX
  8
0
 10
10.02061074
 20
8.21583823
  0
VERTEX
  8
0
 10
10.01336549
 20
8.25892302
  0
VERTEX
  8
0
 10
10.00112836
 20
8.34548832
  0
VERTEX
  8
0
 10
9.99147246
 20
8.43250224
  0
VERTEX
  8
0
 10
9.97787270
 20
8.60749679
  0
VERTEX
  8
0
 10
9.95006284
 20
9.08983879
  0
VERTEX
  8
0
 10
9.94184059
 20
9.17683893
  0
VERTEX
  8
0
 10
9.88402169
 20
9.59766258
  0
VERTEX
  8
0
 10
9.85901846
 20
9.70797790
  0
VERTEX
  8
0
 10
9.83585374
 20
9.78944262
  0
VERTEX
  8
0
 10
9.81796590
 20
9.84300159
  0
VERTEX
  8
0
 10
9.79790849
 20
9.89586951
  0
VERTEX
  8
0
 10
9.77549827
 20
9.94796892
  0
VERTEX
  8
0
 10
9.76335359
 20
9.97370622
  0
VERTEX
  8
0
 10
9.74188432
 20
9.88173208
  0
VERTEX
  8
0
 10
9.72259568
 20
9.78932861
  0
VERTEX
  8
0
 10
9.69756569
 20
9.65000833
  0
VERTEX
  8
0
 10
9.67696457
 20
9.50995323
  0
VERTEX
  8
0
 10
9.66050581
 20
9.36930203
  0
VERTEX
  8
0
 10
9.64450924
 20
9.18107954
  0
VERTEX
  8
0
 10
9.63311845
 20
8.94515878
  0
VERTEX
  8
0
 10
9.63085683
 20
8.61482078
  0
VERTEX
  8
0
 10
9.63276610
 20
8.53487540
  0
VERTEX
  8
0
 10
9.63589643
 20
8.45490731
  0
VERTEX
  8
0
 10
9.64025913
 20
8.37494598
  0
VERTEX
  8
0
 10
9.64586550
 20
8.29502089
  0
VERTEX
  8
0
 10
9.65272687
 20
8.21516151
  0
VERTEX
  8
0
 10
9.66085453
 20
8.13539733
  0
VERTEX
  8
0
 10
9.67025980
 20
8.05575781
  0
VERTEX
  8
0
 10
9.68095400
 20
7.97627244
  0
VERTEX
  8
0
 10
9.69294842
 20
7.89697068
  0
VERTEX
  8
0
 10
9.70625438
 20
7.81788202
  0
VERTEX
  8
0
 10
9.72088319
 20
7.73903593
  0
VERTEX
  8
0
 10
9.73684616
 20
7.66046188
  0
VERTEX
  8
0
 10
9.75415460
 20
7.58218935
  0
VERTEX
  8
0
 10
9.77281982
 20
7.50424782
  0
VERTEX
  8
0
 10
9.79285313
 20
7.42666676
  0
VERTEX
  8
0
 10
9.81426584
 20
7.34947565
  0
VERTEX
  8
0
 10
9.83706926
 20
7.27270397
  0
VERTEX
  8
0
 10
9.86127470
 20
7.19638118
  0
VERTEX
  8
0
 10
9.88689348
 20
7.12053677
  0
VERTEX
  8
0
 10
9.91393689
 20
7.04520021
  0
VERTEX
  8
0
 10
9.94241626
 20
6.97040097
  0
VERTEX
  8
0
 10
9.97234289
 20
6.89616854
  0
VERTEX
  8
0
 10
10.00372809
 20
6.82253239
  0
VERTEX
  8
0
 10
10.03658317
 20
6.74952199
  0
VERTEX
  8
0
 10
10.07091944
 20
6.67716682
  0
VERTEX
  8
0
 10
10.10674822
 20
6.60549636
  0
VERTEX
  8
0
 10
10.14408080
 20
6.53454007
  0
VERTEX
  8
0
 10
10.18292851
 20
6.46432744
  0
VERTEX
  8
0
 10
10.22330266
 20
6.39488795
  0
VERTEX
  8
0
 10
10.25259815
 20
6.34619303
  0
VERTEX
  8
0
 10
10.28279494
 20
6.29802805
  0
VERTEX
  8
0
 10
10.31388287
 20
6.25041360
  0
VERTEX
  8
0
 10
10.34585175
 20
6.20337026
  0
VERTEX
  8
0
 10
10.37869139
 20
6.15691864
  0
VERTEX
  8
0
 10
10.41239163
 20
6.11107930
  0
VERTEX
  8
0
 10
10.44694227
 20
6.06587285
  0
VERTEX
  8
0
 10
10.48233314
 20
6.02131986
  0
VERTEX
  8
0
 10
10.51855407
 20
5.97744093
  0
VERTEX
  8
0
 10
10.55559486
 20
5.93425664
  0
VERTEX
  8
0
 10
10.59344535
 20
5.89178759
  0
VERTEX
  8
0
 10
10.63209534
 20
5.85005435
  0
VERTEX
  8
0
 10
10.67153467
 20
5.80907751
  0
VERTEX
  8
0
 10
10.71175314
 20
5.76887767
  0
VERTEX
  8
0
 10
10.75274059
 20
5.72947541
  0
VERTEX
  8
0
 10
10.79448683
 20
5.69089132
  0
VERTEX
  8
0
 10
10.83698169
 20
5.65314598
  0
VERTEX
  8
0
 10
10.88021497
 20
5.61625999
  0
VERTEX
  8
0
 10
10.92417651
 20
5.58025392
  0
VERTEX
  8
0
 10
10.96885612
 20
5.54514838
  0
VERTEX
  8
0
 10
11.01424362
 20
5.51096394
  0
VERTEX
  8
0
 10
11.06032883
 20
5.47772119
  0
VERTEX
  8
0
 10
11.10710158
 20
5.44544073
  0
VERTEX
  8
0
 10
11.15455168
 20
5.41414313
  0
VERTEX
  8
0
 10
11.20266896
 20
5.38384899
  0
VERTEX
  8
0
 10
11.25144323
 20
5.35457889
  0
VERTEX
  8
0
 10
11.30086431
 20
5.32635342
  0
VERTEX
  8
0
 10
11.35092202
 20
5.29919317
  0
VERTEX
  8
0
 10
11.40160620
 20
5.27311872
  0
VERTEX
  8
0
 10
11.52609438
 20
5.21292787
  0
VERTEX
  8
0
 10
11.70540014
 20
5.14102350
  0
VERTEX
  8
0
 10
12.15478715
 20
5.00479638
  0
VERTEX
  8
0
 10
12.12713562
 20
4.98904521
  0
VERTEX
  8
0
 10
12.09913668
 20
4.97423433
  0
VERTEX
  8
0
 10
12.07080744
 20
4.96032372
  0
VERTEX
  8
0
 10
12.04216499
 20
4.94727340
  0
VERTEX
  8
0
 10
12.01322646
 20
4.93504334
  0
VERTEX
  8
0
 10
11.98400894
 20
4.92359357
  0
VERTEX
  8
0
 10
11.95452954
 20
4.91288406
  0
VERTEX
  8
0
 10
11.89485352
 20
4.89352583
  0
VERTEX
  8
0
 10
11.83433525
 20
4.87664864
  0
VERTEX
  8
0
 10
11.74227799
 20
4.85528475
  0
VERTEX
  8
0
 10
11.52389989
 20
4.81827736
  0
VERTEX
  8
0
 10
11.27434967
 20
4.78359638
  0
VERTEX
  8
0
 10
10.96672006
 20
4.74032891
  0
VERTEX
  8
0
 10
10.85098555
 20
4.71901489
  0
VERTEX
  8
0
 10
10.77460731
 20
4.70197727
  0
VERTEX
  8
0
 10
10.73677503
 20
4.69243188
  0
VERTEX
  8
0
 10
10.69923549
 20
4.68212295
  0
VERTEX
  8
0
 10
10.66202983
 20
4.67099111
  0
VERTEX
  8
0
 10
10.62519917
 20
4.65897700
  0
VERTEX
  8
0
 10
10.58878465
 20
4.64602125
  0
VERTEX
  8
0
 10
10.55282742
 20
4.63206450
  0
VERTEX
  8
0
 10
10.51736860
 20
4.61704738
  0
VERTEX
  8
0
 10
10.48244933
 20
4.60091053
  0
VERTEX
  8
0
 10
10.44811075
 20
4.58359458
  0
VERTEX
  8
0
 10
10.41439398
 20
4.56504017
  0
VERTEX
  8
0
 10
10.38134018
 20
4.54518793
  0
VERTEX
  8
0
 10
10.34899046
 20
4.52397849
  0
VERTEX
  8
0
 10
10.31738597
 20
4.50135250
  0
VERTEX
  8
0
 10
10.28656783
 20
4.47725058
  0
VERTEX
  8
0
 10
10.25657720
 20
4.45161337
  0
VERTEX
  8
0
 10
10.22745519
 20
4.42438150
  0
VERTEX
  8
0
 10
10.18986669
 20
4.38665768
  0
VERTEX
  8
0
 10
10.15399789
 20
4.34781157
  0
VERTEX
  8
0
 10
10.11978395
 20
4.30789432
  0
VERTEX
  8
0
 10
10.08715999
 20
4.26695711
  0
VERTEX
  8
0
 10
10.05606114
 20
4.22505107
  0
VERTEX
  8
0
 10
10.02642255
 20
4.18222736
  0
VERTEX
  8
0
 10
9.99817934
 20
4.13853715
  0
VERTEX
  8
0
 10
9.97126666
 20
4.09403157
  0
VERTEX
  8
0
 10
9.94561962
 20
4.04876178
  0
VERTEX
  8
0
 10
9.92117337
 20
4.00277895
  0
VERTEX
  8
0
 10
9.89786305
 20
3.95613422
  0
VERTEX
  8
0
 10
9.87562378
 20
3.90887875
  0
VERTEX
  8
0
 10
9.85439070
 20
3.86106369
  0
VERTEX
  8
0
 10
9.83409894
 20
3.81274019
  0
VERTEX
  8
0
 10
9.81468364
 20
3.76395941
  0
VERTEX
  8
0
 10
9.79607993
 20
3.71477251
  0
VERTEX
  8
0
 10
9.77822295
 20
3.66523064
  0
VERTEX
  8
0
 10
9.74448970
 20
3.56528660
  0
VERTEX
  8
0
 10
9.69786863
 20
3.41398710
  0
VERTEX
  8
0
 10
9.59857260
 20
3.06166050
  0
VERTEX
  8
0
 10
9.23849237
 20
3.34192448
  0
VERTEX
  8
0
 10
8.73757740
 20
3.64386541
  0
VERTEX
  8
0
 10
8.62273970
 20
3.71926989
  0
VERTEX
  8
0
 10
8.53924259
 20
3.77953850
  0
VERTEX
  8
0
 10
8.48516561
 20
3.82195556
  0
VERTEX
  8
0
 10
8.43256716
 20
3.86645471
  0
VERTEX
  8
0
 10
8.40687819
 20
3.88956321
  0
VERTEX
  8
0
 10
8.33671091
 20
3.95724622
  0
VERTEX
  8
0
 10
8.29161142
 20
4.00433905
  0
VERTEX
  8
0
 10
8.24804970
 20
4.05297364
  0
VERTEX
  8
0
 10
8.20619272
 20
4.10312009
  0
VERTEX
  8
0
 10
8.16620746
 20
4.15474851
  0
VERTEX
  8
0
 10
8.12826090
 20
4.20782900
  0
VERTEX
  8
0
 10
8.09252002
 20
4.26233165
  0
VERTEX
  8
0
 10
8.05915179
 20
4.31822656
  0
VERTEX
  8
0
 10
8.04340960
 20
4.34668677
  0
VERTEX
  8
0
 10
8.02832320
 20
4.37548384
  0
VERTEX
  8
0
 10
8.01391344
 20
4.40461402
  0
VERTEX
  8
0
 10
8.00020121
 20
4.43407357
  0
VERTEX
  8
0
 10
7.98720738
 20
4.46385877
  0
VERTEX
  8
0
 10
7.97495282
 20
4.49396587
  0
VERTEX
  8
0
 10
7.96345840
 20
4.52439113
  0
VERTEX
  8
0
 10
7.95274499
 20
4.55513083
  0
VERTEX
  8
0
 10
7.94283347
 20
4.58618121
  0
VERTEX
  8
0
 10
7.93374471
 20
4.61753854
  0
VERTEX
  8
0
 10
7.92549958
 20
4.64919909
  0
VERTEX
  8
0
 10
7.91811895
 20
4.68115911
  0
VERTEX
  8
0
 10
7.90866795
 20
4.72588908
  0
VERTEX
  8
0
 10
7.90008478
 20
4.77072307
  0
VERTEX
  8
0
 10
7.89231077
 20
4.81565415
  0
VERTEX
  8
0
 10
7.87895539
 20
4.90577973
  0
VERTEX
  8
0
 10
7.86813222
 20
4.99621019
  0
VERTEX
  8
0
 10
7.85220421
 20
5.17776322
  0
VERTEX
  8
0
 10
7.81635708
 20
5.72395389
  0
VERTEX
  8
0
 10
7.80182862
 20
5.85986961
  0
VERTEX
  8
0
 10
7.78924285
 20
5.95014263
  0
VERTEX
  8
0
 10
7.78190384
 20
5.99515704
  0
VERTEX
  8
0
 10
7.77358111
 20
6.03798974
  0
VERTEX
  8
0
 10
7.76421501
 20
6.08048315
  0
VERTEX
  8
0
 10
7.75387543
 20
6.12266014
  0
VERTEX
  8
0
 10
7.74263224
 20
6.16454358
  0
VERTEX
  8
0
 10
7.73055534
 20
6.20615635
  0
VERTEX
  8
0
 10
7.70417992
 20
6.28866132
  0
VERTEX
  8
0
 10
7.67530825
 20
6.37035802
  0
VERTEX
  8
0
 10
7.51307366
 20
6.77312122
  0
VERTEX
  8
0
 10
7.45027365
 20
6.93497233
  0
VERTEX
  8
0
 10
7.42155862
 20
7.01678956
  0
VERTEX
  8
0
 10
7.40811694
 20
7.05800114
  0
VERTEX
  8
0
 10
7.39537900
 20
7.09944518
  0
VERTEX
  8
0
 10
7.38341468
 20
7.14114457
  0
VERTEX
  8
0
 10
7.37229387
 20
7.18312217
  0
VERTEX
  8
0
 10
7.35833783
 20
7.24478628
  0
VERTEX
  8
0
 10
7.35240342
 20
7.27599297
  0
VERTEX
  8
0
 10
7.34719314
 20
7.30740492
  0
VERTEX
  8
0
 10
7.34272824
 20
7.33898872
  0
VERTEX
  8
0
 10
7.33903003
 20
7.37071099
  0
VERTEX
  8
0
 10
7.33611978
 20
7.40253834
  0
VERTEX
  8
0
 10
7.33401876
 20
7.43443739
  0
VERTEX
  8
0
 10
7.33274827
 20
7.46637474
  0
VERTEX
  8
0
 10
7.33232957
 20
7.49831701
  0
VERTEX
  8
0
 10
7.33278396
 20
7.53023081
  0
VERTEX
  8
0
 10
7.33413271
 20
7.56208276
  0
VERTEX
  8
0
 10
7.33639709
 20
7.59383946
  0
VERTEX
  8
0
 10
7.33959840
 20
7.62546753
  0
VERTEX
  8
0
 10
7.34375791
 20
7.65693357
  0
VERTEX
  8
0
 10
7.34889691
 20
7.68820421
  0
VERTEX
  8
0
 10
7.35503666
 20
7.71924605
  0
VERTEX
  8
0
 10
7.36219846
 20
7.75002571
  0
VERTEX
  8
0
 10
7.37040358
 20
7.78050980
  0
VERTEX
  8
0
 10
7.37967331
 20
7.81066492
  0
VERTEX
  8
0
 10
7.39002892
 20
7.84045770
  0
VERTEX
  8
0
 10
7.40149170
 20
7.86985474
  0
VERTEX
  8
0
 10
7.41408292
 20
7.89882266
  0
VERTEX
  8
0
 10
7.42782387
 20
7.92732807
  0
VERTEX
  8
0
 10
7.44273583
 20
7.95533758
  0
VERTEX
  8
0
 10
7.45884007
 20
7.98281780
  0
VERTEX
  8
0
 10
7.47615787
 20
8.00973534
  0
VERTEX
  8
0
 10
7.49471053
 20
8.03605683
  0
VERTEX
  8
0
 10
7.51451932
 20
8.06174886
  0
VERTEX
  8
0
 10
7.66982957
 20
7.90273773
  0
VERTEX
  8
0
 10
7.72104196
 20
7.86904355
  0
VERTEX
  8
0
 10
7.75434910
 20
7.85286779
  0
VERTEX
  8
0
 10
7.78987513
 20
7.84031106
  0
VERTEX
  8
0
 10
7.84028281
 20
7.82422918
  0
VERTEX
  8
0
 10
8.02386945
 20
7.78123417
  0
VERTEX
  8
0
 10
8.06050262
 20
7.76670000
  0
VERTEX
  8
0
 10
8.08365672
 20
7.75454605
  0
VERTEX
  8
0
 10
8.10557911
 20
7.74000164
  0
VERTEX
  8
0
 10
8.11602021
 20
7.73172081
  0
VERTEX
  8
0
 10
8.12608354
 20
7.72270773
  0
VERTEX
  8
0
 10
8.13574581
 20
7.71291751
  0
VERTEX
  8
0
 10
8.14498375
 20
7.70230528
  0
VERTEX
  8
0
 10
8.21058154
 20
7.63129863
  0
VERTEX
  8
0
 10
8.27438745
 20
7.55895654
  0
VERTEX
  8
0
 10
8.33644169
 20
7.48532577
  0
VERTEX
  8
0
 10
8.39678448
 20
7.41045309
  0
VERTEX
  8
0
 10
8.45545603
 20
7.33438526
  0
VERTEX
  8
0
 10
8.51249656
 20
7.25716903
  0
VERTEX
  8
0
 10
8.56794628
 20
7.17885118
  0
VERTEX
  8
0
 10
8.62184541
 20
7.09947845
  0
VERTEX
  8
0
 10
8.67423417
 20
7.01909762
  0
VERTEX
  8
0
 10
8.72515276
 20
6.93775544
  0
VERTEX
  8
0
 10
8.77464142
 20
6.85549868
  0
VERTEX
  8
0
 10
8.82274034
 20
6.77237409
  0
VERTEX
  8
0
 10
8.86948975
 20
6.68842844
  0
VERTEX
  8
0
 10
8.91492986
 20
6.60370848
  0
VERTEX
  8
0
 10
8.95910088
 20
6.51826099
  0
VERTEX
  8
0
 10
9.00204304
 20
6.43213271
  0
VERTEX
  8
0
 10
9.04379655
 20
6.34537042
  0
VERTEX
  8
0
 10
9.08440163
 20
6.25802087
  0
VERTEX
  8
0
 10
9.12389848
 20
6.17013082
  0
VERTEX
  8
0
 10
9.16232733
 20
6.08174704
  0
VERTEX
  8
0
 10
9.19972839
 20
5.99291628
  0
VERTEX
  8
0
 10
9.23614187
 20
5.90368532
  0
VERTEX
  8
0
 10
9.27160800
 20
5.81410090
  0
VERTEX
  8
0
 10
9.30616698
 20
5.72420979
  0
VERTEX
  8
0
 10
9.33985903
 20
5.63405875
  0
VERTEX
  8
0
 10
9.37272438
 20
5.54369454
  0
VERTEX
  8
0
 10
9.40480322
 20
5.45316393
  0
VERTEX
  8
0
 10
9.46676229
 20
5.27179053
  0
VERTEX
  8
0
 10
9.65821611
 20
4.69377680
  0
VERTEX
  8
0
 10
9.67590501
 20
4.65221088
  0
VERTEX
  8
0
 10
9.68317413
 20
4.69622466
  0
VERTEX
  8
0
 10
9.68927933
 20
4.74030105
  0
VERTEX
  8
0
 10
9.69424570
 20
4.78442795
  0
VERTEX
  8
0
 10
9.69809833
 20
4.82859323
  0
VERTEX
  8
0
 10
9.70086229
 20
4.87278479
  0
VERTEX
  8
0
 10
9.70256267
 20
4.91699052
  0
VERTEX
  8
0
 10
9.70322455
 20
4.96119831
  0
VERTEX
  8
0
 10
9.70287302
 20
5.00539605
  0
VERTEX
  8
0
 10
9.70153317
 20
5.04957163
  0
VERTEX
  8
0
 10
9.69923006
 20
5.09371293
  0
VERTEX
  8
0
 10
9.69598880
 20
5.13780785
  0
VERTEX
  8
0
 10
9.69183445
 20
5.18184427
  0
VERTEX
  8
0
 10
9.68679211
 20
5.22581009
  0
VERTEX
  8
0
 10
9.68088686
 20
5.26969319
  0
VERTEX
  8
0
 10
9.67414378
 20
5.31348147
  0
VERTEX
  8
0
 10
9.66658796
 20
5.35716281
  0
VERTEX
  8
0
 10
9.65824448
 20
5.40072510
  0
VERTEX
  8
0
 10
9.64913842
 20
5.44415624
  0
VERTEX
  8
0
 10
9.62873890
 20
5.53057659
  0
VERTEX
  8
0
 10
9.60559007
 20
5.61632699
  0
VERTEX
  8
0
 10
9.57989261
 20
5.70131054
  0
VERTEX
  8
0
 10
9.55184717
 20
5.78543037
  0
VERTEX
  8
0
 10
9.52165444
 20
5.86858958
  0
VERTEX
  8
0
 10
9.50581554
 20
5.90977869
  0
VERTEX
  8
0
 10
9.46619835
 20
6.01079381
  0
VERTEX
  8
0
 10
9.40292212
 20
6.16094588
  0
VERTEX
  8
0
 10
9.15788023
 20
6.70684209
  0
VERTEX
  8
0
 10
9.09517679
 20
6.85717850
  0
VERTEX
  8
0
 10
9.05607782
 20
6.95836042
  0
VERTEX
  8
0
 10
9.03753294
 20
7.00930742
  0
VERTEX
  8
0
 10
9.01974383
 20
7.06052233
  0
VERTEX
  8
0
 10
9.00277504
 20
7.11202807
  0
VERTEX
  8
0
 10
8.98669110
 20
7.16384755
  0
VERTEX
  8
0
 10
8.97155654
 20
7.21600369
  0
VERTEX
  8
0
 10
8.95743589
 20
7.26851941
  0
VERTEX
  8
0
 10
8.94439370
 20
7.32141761
  0
VERTEX
  8
0
 10
8.93249448
 20
7.37472122
  0
VERTEX
  8
0
 10
8.89359605
 20
7.58651374
  0
VERTEX
  8
0
 10
8.87831187
 20
7.63110362
  0
VERTEX
  8
0
 10
8.86262684
 20
7.66280373
  0
VERTEX
  8
0
 10
8.84970762
 20
7.68291004
  0
VERTEX
  8
0
 10
8.83453704
 20
7.70207185
  0
VERTEX
  8
0
 10
8.74064745
 20
7.82623852
  0
VERTEX
  8
0
 10
8.67066287
 20
7.94288474
  0
VERTEX
  8
0
 10
8.62904137
 20
8.03054033
  0
VERTEX
  8
0
 10
8.59539426
 20
8.12164366
  0
VERTEX
  8
0
 10
8.57481196
 20
8.19691007
  0
VERTEX
  8
0
 10
8.56506517
 20
8.23925440
  0
VERTEX
  8
0
 10
8.55638694
 20
8.28170644
  0
VERTEX
  8
0
 10
8.54873970
 20
8.32425868
  0
VERTEX
  8
0
 10
8.54208590
 20
8.36690362
  0
VERTEX
  8
0
 10
8.53638798
 20
8.40963377
  0
VERTEX
  8
0
 10
8.53160837
 20
8.45244162
  0
VERTEX
  8
0
 10
8.52770953
 20
8.49531967
  0
VERTEX
  8
0
 10
8.52465388
 20
8.53826042
  0
VERTEX
  8
0
 10
8.52240387
 20
8.58125636
  0
VERTEX
  8
0
 10
8.52017054
 20
8.66738383
  0
VERTEX
  8
0
 10
8.52070907
 20
8.75364207
  0
VERTEX
  8
0
 10
8.52371898
 20
8.83997105
  0
VERTEX
  8
0
 10
8.53221040
 20
8.96946591
  0
VERTEX
  8
0
 10
8.55979050
 20
9.22771793
  0
VERTEX
  8
0
 10
8.58874735
 20
9.44121387
  0
VERTEX
  8
0
 10
8.69424993
 20
10.25256512
  0
VERTEX
  8
0
 10
8.70754325
 20
10.40528810
  0
VERTEX
  8
0
 10
8.71669759
 20
10.55823266
  0
VERTEX
  8
0
 10
8.72007882
 20
10.66032562
  0
VERTEX
  8
0
 10
8.72098717
 20
10.76252731
  0
VERTEX
  8
0
 10
8.71916930
 20
10.86484181
  0
VERTEX
  8
0
 10
8.71715886
 20
10.91604265
  0
VERTEX
  8
0
 10
8.70192517
 20
11.08444297
  0
VERTEX
  8
0
 10
8.68488218
 20
11.19676078
  0
VERTEX
  8
0
 10
8.66735496
 20
11.28003746
  0
VERTEX
  8
0
 10
8.65303838
 20
11.33477145
  0
VERTEX
  8
0
 10
8.63638475
 20
11.38867566
  0
VERTEX
  8
0
 10
8.61719552
 20
11.44157629
  0
VERTEX
  8
0
 10
8.60658802
 20
11.46759596
  0
VERTEX
  8
0
 10
8.59527217
 20
11.49329957
  0
VERTEX
  8
0
 10
8.58322315
 20
11.51866539
  0
VERTEX
  8
0
 10
8.57041615
 20
11.54367170
  0
VERTEX
  8
0
 10
8.55682634
 20
11.56829677
  0
VERTEX
  8
0
 10
8.54242892
 20
11.59251889
  0
VERTEX
  8
0
 10
8.52719906
 20
11.61631633
  0
VERTEX
  8
0
 10
8.51111194
 20
11.63966736
  0
VERTEX
  8
0
 10
8.49414275
 20
11.66255027
  0
VERTEX
  8
0
 10
8.47626667
 20
11.68494333
  0
VERTEX
  8
0
 10
8.47193589
 20
11.64348446
  0
VERTEX
  8
0
 10
8.46906941
 20
11.60203619
  0
VERTEX
  8
0
 10
8.46754712
 20
11.56059841
  0
VERTEX
  8
0
 10
8.46724890
 20
11.51917105
  0
VERTEX
  8
0
 10
8.46805464
 20
11.47775402
  0
VERTEX
  8
0
 10
8.46984422
 20
11.43634723
  0
VERTEX
  8
0
 10
8.47249752
 20
11.39495059
  0
VERTEX
  8
0
 10
8.47991483
 20
11.31218743
  0
VERTEX
  8
0
 10
8.52010979
 20
10.98152339
  0
VERTEX
  8
0
 10
8.52798532
 20
10.89895104
  0
VERTEX
  8
0
 10
8.53093646
 20
10.85767843
  0
VERTEX
  8
0
 10
8.53306969
 20
10.81641475
  0
VERTEX
  8
0
 10
8.53426491
 20
10.77515992
  0
VERTEX
  8
0
 10
8.53440200
 20
10.73391383
  0
VERTEX
  8
0
 10
8.53336083
 20
10.69267641
  0
VERTEX
  8
0
 10
8.53102130
 20
10.65144758
  0
VERTEX
  8
0
 10
8.52726329
 20
10.61022723
  0
VERTEX
  8
0
 10
8.52196667
 20
10.56901529
  0
VERTEX
  8
0
 10
8.51501134
 20
10.52781166
  0
VERTEX
  8
0
 10
8.50627718
 20
10.48661627
  0
VERTEX
  8
0
 10
8.49341736
 20
10.43932421
  0
VERTEX
  8
0
 10
8.47487575
 20
10.39476464
  0
VERTEX
  8
0
 10
8.43787954
 20
10.33294915
  0
VERTEX
  8
0
 10
8.37493505
 20
10.25966736
  0
VERTEX
  8
0
 10
8.31095100
 20
10.20385211
  0
VERTEX
  8
0
 10
8.28376565
 20
10.22669728
  0
VERTEX
  8
0
 10
8.25758103
 20
10.25046942
  0
VERTEX
  8
0
 10
8.23240463
 20
10.27513230
  0
VERTEX
  8
0
 10
8.20824394
 20
10.30064966
  0
VERTEX
  8
0
 10
8.18510647
 20
10.32698528
  0
VERTEX
  8
0
 10
8.16299969
 20
10.35410289
  0
VERTEX
  8
0
 10
8.14193112
 20
10.38196626
  0
VERTEX
  8
0
 10
8.12190823
 20
10.41053914
  0
VERTEX
  8
0
 10
8.10293854
 20
10.43978528
  0
VERTEX
  8
0
 10
8.08502952
 20
10.46966844
  0
VERTEX
  8
0
 10
8.06818867
 20
10.50015238
  0
VERTEX
  8
0
 10
8.05242350
 20
10.53120085
  0
VERTEX
  8
0
 10
8.03774148
 20
10.56277760
  0
VERTEX
  8
0
 10
8.02415013
 20
10.59484640
  0
VERTEX
  8
0
 10
8.01165692
 20
10.62737099
  0
VERTEX
  8
0
 10
8.00026936
 20
10.66031512
  0
VERTEX
  8
0
 10
7.98999493
 20
10.69364257
  0
VERTEX
  8
0
 10
7.98084114
 20
10.72731707
  0
VERTEX
  8
0
 10
7.97281547
 20
10.76130239
  0
VERTEX
  8
0
 10
7.96592543
 20
10.79556227
  0
VERTEX
  8
0
 10
7.96017850
 20
10.83006049
  0
VERTEX
  8
0
 10
7.95558218
 20
10.86476078
  0
VERTEX
  8
0
 10
7.95214396
 20
10.89962690
  0
VERTEX
  8
0
 10
7.94987134
 20
10.93462262
  0
VERTEX
  8
0
 10
7.94877180
 20
10.96971168
  0
VERTEX
  8
0
 10
7.94885286
 20
11.00485784
  0
VERTEX
  8
0
 10
7.95012199
 20
11.04002485
  0
VERTEX
  8
0
 10
7.95258670
 20
11.07517647
  0
VERTEX
  8
0
 10
7.95625447
 20
11.11027646
  0
VERTEX
  8
0
 10
7.96401494
 20
11.17366321
  0
VERTEX
  8
0
 10
7.97354237
 20
11.23666710
  0
VERTEX
  8
0
 10
7.98479641
 20
11.29927383
  0
VERTEX
  8
0
 10
7.99773669
 20
11.36146911
  0
VERTEX
  8
0
 10
8.01232284
 20
11.42323863
  0
VERTEX
  8
0
 10
8.02851451
 20
11.48456811
  0
VERTEX
  8
0
 10
8.04627132
 20
11.54544323
  0
VERTEX
  8
0
 10
8.06555292
 20
11.60584972
  0
VERTEX
  8
0
 10
8.08631895
 20
11.66577325
  0
VERTEX
  8
0
 10
8.10852903
 20
11.72519955
  0
VERTEX
  8
0
 10
8.13214280
 20
11.78411431
  0
VERTEX
  8
0
 10
8.15711990
 20
11.84250323
  0
VERTEX
  8
0
 10
8.18341997
 20
11.90035202
  0
VERTEX
  8
0
 10
8.21100265
 20
11.95764638
  0
VERTEX
  8
0
 10
8.23982756
 20
12.01437201
  0
VERTEX
  8
0
 10
8.26985435
 20
12.07051462
  0
VERTEX
  8
0
 10
8.30104265
 20
12.12605990
  0
VERTEX
  8
0
 10
8.33335210
 20
12.18099356
  0
VERTEX
  8
0
 10
8.36674233
 20
12.23530130
  0
VERTEX
  8
0
 10
8.40117298
 20
12.28896882
  0
VERTEX
  8
0
 10
8.43660369
 20
12.34198183
  0
VERTEX
  8
0
 10
8.47299409
 20
12.39432603
  0
VERTEX
  8
0
 10
8.51030383
 20
12.44598711
  0
VERTEX
  8
0
 10
8.54849252
 20
12.49695079
  0
VERTEX
  8
0
 10
8.58751982
 20
12.54720277
  0
VERTEX
  8
0
 10
8.62734536
 20
12.59672874
  0
VERTEX
  8
0
 10
8.66792877
 20
12.64551441
  0
VERTEX
  8
0
 10
8.70922970
 20
12.69354549
  0
VERTEX
  8
0
 10
8.75120777
 20
12.74080767
  0
VERTEX
  8
0
 10
8.65131905
 20
12.86114386
  0
VERTEX
  8
0
 10
8.70909547
 20
12.94061170
  0
VERTEX
  8
0
 10
8.78790591
 20
13.03456804
  0
VERTEX
  8
0
 10
8.89080833
 20
13.13987964
  0
VERTEX
  8
0
 10
9.03927690
 20
13.26864880
  0
VERTEX
  8
0
 10
9.15681134
 20
13.35725861
  0
VERTEX
  8
0
 10
9.34340773
 20
13.30808916
  0
VERTEX
  8
0
 10
9.40215130
 20
13.30177591
  0
VERTEX
  8
0
 10
9.44624127
 20
13.30121680
  0
VERTEX
  8
0
 10
9.49019682
 20
13.30485982
  0
VERTEX
  8
0
 10
9.51935381
 20
13.30989983
  0
VERTEX
  8
0
 10
9.54834299
 20
13.31722269
  0
VERTEX
  8
0
 10
9.57712114
 20
13.32699449
  0
VERTEX
  8
0
 10
9.87773231
 20
13.43294316
  0
VERTEX
  8
0
 10
9.93229045
 20
13.44495067
  0
VERTEX
  8
0
 10
9.98761933
 20
13.45283110
  0
VERTEX
  8
0
 10
10.02499490
 20
13.45538218
  0
VERTEX
  8
0
 10
10.06280519
 20
13.45548443
  0
VERTEX
  8
0
 10
10.10108709
 20
13.45289200
  0
VERTEX
  8
0
 10
10.09106016
 20
13.06912761
  0
VERTEX
  8
0
 10
10.09423519
 20
12.98705802
  0
VERTEX
  8
0
 10
10.09898297
 20
12.93276575
  0
VERTEX
  8
0
 10
10.10630345
 20
12.87892456
  0
VERTEX
  8
0
 10
10.11105377
 20
12.85220379
  0
VERTEX
  8
0
 10
10.11659763
 20
12.82563257
  0
VERTEX
  8
0
 10
10.12298516
 20
12.79922317
  0
VERTEX
  8
0
 10
10.13026649
 20
12.77298785
  0
VERTEX
  8
0
 10
10.13849173
 20
12.74693889
  0
VERTEX
  8
0
 10
10.14771101
 20
12.72108853
  0
VERTEX
  8
0
 10
10.15797446
 20
12.69544904
  0
VERTEX
  8
0
 10
10.16933220
 20
12.67003269
  0
VERTEX
  8
0
 10
10.19487718
 20
12.69778678
  0
VERTEX
  8
0
 10
10.21971810
 20
12.72605046
  0
VERTEX
  8
0
 10
10.24389716
 20
12.75479337
  0
VERTEX
  8
0
 10
10.29043853
 20
12.81359556
  0
VERTEX
  8
0
 10
10.33483900
 20
12.87395063
  0
VERTEX
  8
0
 10
10.39816419
 20
12.96686397
  0
VERTEX
  8
0
 10
10.67352357
 20
13.41536841
  0
VERTEX
  8
0
 10
10.73538544
 20
13.50951363
  0
VERTEX
  8
0
 10
10.77852343
 20
13.57093150
  0
VERTEX
  8
0
 10
10.75250241
 20
13.61253162
  0
VERTEX
  8
0
 10
10.72776344
 20
13.65491607
  0
VERTEX
  8
0
 10
10.70418103
 20
13.69800638
  0
VERTEX
  8
0
 10
10.68162968
 20
13.74172408
  0
VERTEX
  8
0
 10
10.65998390
 20
13.78599069
  0
VERTEX
  8
0
 10
10.63911819
 20
13.83072775
  0
VERTEX
  8
0
 10
10.59922505
 20
13.92129931
  0
VERTEX
  8
0
 10
10.46572398
 20
14.24158330
  0
VERTEX
  8
0
 10
10.42518954
 20
14.33144159
  0
VERTEX
  8
0
 10
10.40389631
 20
14.37570313
  0
VERTEX
  8
0
 10
10.38175174
 20
14.41941498
  0
VERTEX
  8
0
 10
10.35863035
 20
14.46249866
  0
VERTEX
  8
0
 10
10.33440663
 20
14.50487571
  0
VERTEX
  8
0
 10
10.30895511
 20
14.54646764
  0
VERTEX
  8
0
 10
10.28215029
 20
14.58719599
  0
VERTEX
  8
0
 10
10.25386666
 20
14.62698228
  0
VERTEX
  8
0
 10
10.22397874
 20
14.66574804
  0
VERTEX
  8
0
 10
10.19236105
 20
14.70341480
  0
VERTEX
  8
0
 10
10.15888807
 20
14.73990409
  0
VERTEX
  8
0
 10
10.12343432
 20
14.77513744
  0
VERTEX
  8
0
 10
10.08587431
 20
14.80903637
  0
VERTEX
  8
0
 10
10.13679443
 20
15.11520114
  0
VERTEX
  8
0
 10
10.14989207
 20
15.21904128
  0
VERTEX
  8
0
 10
10.15571397
 20
15.28822816
  0
VERTEX
  8
0
 10
10.15751626
 20
15.32274075
  0
VERTEX
  8
0
 10
10.15847467
 20
15.35716882
  0
VERTEX
  8
0
 10
10.15851065
 20
15.39148942
  0
VERTEX
  8
0
 10
10.15754563
 20
15.42567957
  0
VERTEX
  8
0
 10
10.15550103
 20
15.45971632
  0
VERTEX
  8
0
 10
10.15229828
 20
15.49357670
  0
VERTEX
  8
0
 10
10.14785882
 20
15.52723776
  0
VERTEX
  8
0
 10
10.14210408
 20
15.56067653
  0
VERTEX
  8
0
 10
10.13495549
 20
15.59387005
  0
VERTEX
  8
0
 10
10.12633448
 20
15.62679536
  0
VERTEX
  8
0
 10
10.11616248
 20
15.65942949
  0
VERTEX
  8
0
 10
10.10436093
 20
15.69174948
  0
VERTEX
  8
0
 10
10.09085125
 20
15.72373238
  0
VERTEX
  8
0
 10
10.07555488
 20
15.75535521
  0
VERTEX
  8
0
 10
10.05839324
 20
15.78659503
  0
VERTEX
  8
0
 10
9.96821599
 20
15.07453506
  0
VERTEX
  8
0
 10
9.94569749
 20
14.93286379
  0
VERTEX
  8
0
 10
9.92837342
 20
14.83890388
  0
VERTEX
  8
0
 10
9.90878512
 20
14.74543217
  0
VERTEX
  8
0
 10
9.88657703
 20
14.65253276
  0
VERTEX
  8
0
 10
9.87437945
 20
14.60632396
  0
VERTEX
  8
0
 10
9.86139357
 20
14.56028978
  0
VERTEX
  8
0
 10
9.84757497
 20
14.51444072
  0
VERTEX
  8
0
 10
9.83287918
 20
14.46878730
  0
VERTEX
  8
0
 10
9.81726176
 20
14.42334004
  0
VERTEX
  8
0
 10
9.77519762
 20
14.32100722
  0
VERTEX
  8
0
 10
9.73518269
 20
14.24113412
  0
VERTEX
  8
0
 10
9.70113199
 20
14.18341195
  0
VERTEX
  8
0
 10
9.67639105
 20
14.14633415
  0
VERTEX
  8
0
 10
9.64994496
 20
14.11060593
  0
VERTEX
  8
0
 10
9.62173138
 20
14.07642156
  0
VERTEX
  8
0
 10
9.59168794
 20
14.04397534
  0
VERTEX
  8
0
 10
9.55975229
 20
14.01346153
  0
VERTEX
  8
0
 10
9.54305539
 20
13.99899000
  0
VERTEX
  8
0
 10
9.52586207
 20
13.98507443
  0
VERTEX
  8
0
 10
9.50816450
 20
13.97173911
  0
VERTEX
  8
0
 10
9.48995492
 20
13.95900832
  0
VERTEX
  8
0
 10
9.47122551
 20
13.94690635
  0
VERTEX
  8
0
 10
9.45196848
 20
13.93545748
  0
VERTEX
  8
0
 10
9.43217605
 20
13.92468599
  0
VERTEX
  8
0
 10
9.40540333
 20
13.91173912
  0
VERTEX
  8
0
 10
9.37806841
 20
13.89994034
  0
VERTEX
  8
0
 10
9.35022572
 20
13.88929399
  0
VERTEX
  8
0
 10
9.32192964
 20
13.87980441
  0
VERTEX
  8
0
 10
9.29323459
 20
13.87147590
  0
VERTEX
  8
0
 10
9.26419497
 20
13.86431282
  0
VERTEX
  8
0
 10
9.23486519
 20
13.85831947
  0
VERTEX
  8
0
 10
9.20529965
 20
13.85350020
  0
VERTEX
  8
0
 10
9.17555277
 20
13.84985932
  0
VERTEX
  8
0
 10
9.14567894
 20
13.84740116
  0
VERTEX
  8
0
 10
9.11573258
 20
13.84613007
  0
VERTEX
  8
0
 10
9.08576809
 20
13.84605035
  0
VERTEX
  8
0
 10
9.05583987
 20
13.84716634
  0
VERTEX
  8
0
 10
9.02600233
 20
13.84948237
  0
VERTEX
  8
0
 10
8.99630988
 20
13.85300277
  0
VERTEX
  8
0
 10
8.96681693
 20
13.85773185
  0
VERTEX
  8
0
 10
8.93757788
 20
13.86367396
  0
VERTEX
  8
0
 10
8.90864713
 20
13.87083342
  0
VERTEX
  8
0
 10
8.88007909
 20
13.87921456
  0
VERTEX
  8
0
 10
8.85192817
 20
13.88882170
  0
VERTEX
  8
0
 10
8.82424878
 20
13.89965917
  0
VERTEX
  8
0
 10
8.79709532
 20
13.91173130
  0
VERTEX
  8
0
 10
8.77052220
 20
13.92504242
  0
VERTEX
  8
0
 10
8.74458381
 20
13.93959686
  0
VERTEX
  8
0
 10
8.71933458
 20
13.95539894
  0
VERTEX
  8
0
 10
8.69482890
 20
13.97245300
  0
VERTEX
  8
0
 10
8.67112119
 20
13.99076335
  0
VERTEX
  8
0
 10
8.64826584
 20
14.01033434
  0
VERTEX
  8
0
 10
8.62631727
 20
14.03117028
  0
VERTEX
  8
0
 10
8.60340835
 20
14.05458769
  0
VERTEX
  8
0
 10
8.58148351
 20
14.07872209
  0
VERTEX
  8
0
 10
8.56052643
 20
14.10354313
  0
VERTEX
  8
0
 10
8.54052079
 20
14.12902047
  0
VERTEX
  8
0
 10
8.52145029
 20
14.15512377
  0
VERTEX
  8
0
 10
8.50329862
 20
14.18182269
  0
VERTEX
  8
0
 10
8.48604947
 20
14.20908689
  0
VERTEX
  8
0
 10
8.46968652
 20
14.23688602
  0
VERTEX
  8
0
 10
8.45419346
 20
14.26518975
  0
VERTEX
  8
0
 10
8.43955399
 20
14.29396773
  0
VERTEX
  8
0
 10
8.42575180
 20
14.32318962
  0
VERTEX
  8
0
 10
8.41277056
 20
14.35282508
  0
VERTEX
  8
0
 10
8.40059398
 20
14.38284377
  0
VERTEX
  8
0
 10
8.38920574
 20
14.41321535
  0
VERTEX
  8
0
 10
8.37858953
 20
14.44390947
  0
VERTEX
  8
0
 10
8.36872905
 20
14.47489580
  0
VERTEX
  8
0
 10
8.35960797
 20
14.50614399
  0
VERTEX
  8
0
 10
8.35120999
 20
14.53762370
  0
VERTEX
  8
0
 10
8.33651809
 20
14.60115631
  0
VERTEX
  8
0
 10
8.32452285
 20
14.66525092
  0
VERTEX
  8
0
 10
8.31509380
 20
14.72966478
  0
VERTEX
  8
0
 10
8.30810045
 20
14.79415517
  0
VERTEX
  8
0
 10
8.30341231
 20
14.85847935
  0
VERTEX
  8
0
 10
8.30189192
 20
14.89050325
  0
VERTEX
  8
0
 10
8.31119683
 20
15.20365085
  0
VERTEX
  8
0
 10
8.32289764
 20
15.29236288
  0
VERTEX
  8
0
 10
8.33568225
 20
15.35806453
  0
VERTEX
  8
0
 10
8.35246302
 20
15.42280331
  0
VERTEX
  8
0
 10
8.36611913
 20
15.46531671
  0
VERTEX
  8
0
 10
8.38192455
 20
15.50723589
  0
VERTEX
  8
0
 10
8.39067992
 20
15.52795187
  0
VERTEX
  8
0
 10
8.40543021
 20
15.55786617
  0
VERTEX
  8
0
 10
8.42225991
 20
15.58632594
  0
VERTEX
  8
0
 10
8.45068288
 20
15.62678729
  0
VERTEX
  8
0
 10
8.60272477
 20
15.80173946
  0
VERTEX
  8
0
 10
8.64165949
 20
15.85471557
  0
VERTEX
  8
0
 10
8.65872902
 20
15.88284239
  0
VERTEX
  8
0
 10
8.67376086
 20
15.91236584
  0
VERTEX
  8
0
 10
8.67496692
 20
15.92165773
  0
VERTEX
  8
0
 10
8.67543962
 20
15.93070042
  0
VERTEX
  8
0
 10
8.67433038
 20
15.94807823
  0
VERTEX
  8
0
 10
8.67072401
 20
15.96457924
  0
VERTEX
  8
0
 10
8.66491138
 20
15.98028344
  0
VERTEX
  8
0
 10
8.65269200
 20
16.00252070
  0
VERTEX
  8
0
 10
8.56131113
 20
16.09896267
  0
VERTEX
  8
0
 10
8.54385015
 20
16.11719187
  0
VERTEX
  8
0
 10
8.44106004
 20
16.22766957
  0
VERTEX
  8
0
 10
8.41668696
 20
16.26674421
  0
VERTEX
  8
0
 10
8.40240069
 20
16.29779164
  0
VERTEX
  8
0
 10
8.39515387
 20
16.31935606
  0
VERTEX
  8
0
 10
8.38996269
 20
16.34163636
  0
VERTEX
  8
0
 10
8.38702750
 20
16.36465220
  0
VERTEX
  8
0
 10
8.38654868
 20
16.38842325
  0
VERTEX
  8
0
 10
8.38729301
 20
16.40059814
  0
VERTEX
  8
0
 10
8.39193579
 20
16.46658932
  0
VERTEX
  8
0
 10
8.39737474
 20
16.53253448
  0
VERTEX
  8
0
 10
8.40361233
 20
16.59842147
  0
VERTEX
  8
0
 10
8.41065107
 20
16.66423810
  0
VERTEX
  8
0
 10
8.41849341
 20
16.72997219
  0
VERTEX
  8
0
 10
8.42714187
 20
16.79561159
  0
VERTEX
  8
0
 10
8.43659890
 20
16.86114410
  0
VERTEX
  8
0
 10
8.44686701
 20
16.92655757
  0
VERTEX
  8
0
 10
8.45794867
 20
16.99183982
  0
VERTEX
  8
0
 10
8.46984637
 20
17.05697866
  0
VERTEX
  8
0
 10
8.48256259
 20
17.12196194
  0
VERTEX
  8
0
 10
8.49609981
 20
17.18677748
  0
VERTEX
  8
0
 10
8.51046053
 20
17.25141310
  0
VERTEX
  8
0
 10
8.52564721
 20
17.31585663
  0
VERTEX
  8
0
 10
8.54166236
 20
17.38009590
  0
VERTEX
  8
0
 10
8.55850845
 20
17.44411873
  0
VERTEX
  8
0
 10
8.57618796
 20
17.50791296
  0
VERTEX
  8
0
 10
8.59470338
 20
17.57146640
  0
VERTEX
  8
0
 10
8.61405719
 20
17.63476689
  0
VERTEX
  8
0
 10
8.63425189
 20
17.69780225
  0
VERTEX
  8
0
 10
8.65528994
 20
17.76056031
  0
VERTEX
  8
0
 10
8.67717384
 20
17.82302889
  0
VERTEX
  8
0
 10
8.69990606
 20
17.88519583
  0
VERTEX
  8
0
 10
8.72348910
 20
17.94704895
  0
VERTEX
  8
0
 10
8.74792544
 20
18.00857607
  0
VERTEX
  8
0
 10
8.77321756
 20
18.06976502
  0
VERTEX
  8
0
 10
8.79936794
 20
18.13060364
  0
VERTEX
  8
0
 10
8.82637907
 20
18.19107974
  0
VERTEX
  8
0
 10
8.85425343
 20
18.25118115
  0
VERTEX
  8
0
 10
8.90287919
 20
18.35375317
  0
VERTEX
  8
0
 10
8.95363153
 20
18.45498598
  0
VERTEX
  8
0
 10
9.00638314
 20
18.55496013
  0
VERTEX
  8
0
 10
9.06100671
 20
18.65375617
  0
VERTEX
  8
0
 10
9.11737490
 20
18.75145467
  0
VERTEX
  8
0
 10
9.17536039
 20
18.84813617
  0
VERTEX
  8
0
 10
9.23483587
 20
18.94388123
  0
VERTEX
  8
0
 10
9.29567401
 20
19.03877041
  0
VERTEX
  8
0
 10
9.35774749
 20
19.13288425
  0
VERTEX
  8
0
 10
9.42092898
 20
19.22630332
  0
VERTEX
  8
0
 10
9.48509118
 20
19.31910817
  0
VERTEX
  8
0
 10
9.55010674
 20
19.41137936
  0
VERTEX
  8
0
 10
9.68218870
 20
19.59464295
  0
VERTEX
  8
0
 10
10.15264053
 20
20.23109662
  0
VERTEX
  8
0
 10
10.28518657
 20
20.41417914
  0
VERTEX
  8
0
 10
10.35051151
 20
20.50632961
  0
VERTEX
  8
0
 10
10.41503464
 20
20.59899364
  0
VERTEX
  8
0
 10
10.47862864
 20
20.69225176
  0
VERTEX
  8
0
 10
10.54116619
 20
20.78618454
  0
VERTEX
  8
0
 10
10.60251996
 20
20.88087253
  0
VERTEX
  8
0
 10
10.66256263
 20
20.97639628
  0
VERTEX
  8
0
 10
10.69701133
 20
21.03191479
  0
VERTEX
  8
0
 10
10.73071441
 20
21.08785285
  0
VERTEX
  8
0
 10
10.76367643
 20
21.14420029
  0
VERTEX
  8
0
 10
10.79590195
 20
21.20094694
  0
VERTEX
  8
0
 10
10.82739555
 20
21.25808260
  0
VERTEX
  8
0
 10
10.85816178
 20
21.31559711
  0
VERTEX
  8
0
 10
10.88820523
 20
21.37348027
  0
VERTEX
  8
0
 10
10.91753044
 20
21.43172192
  0
VERTEX
  8
0
 10
10.94614198
 20
21.49031186
  0
VERTEX
  8
0
 10
10.97404443
 20
21.54923992
  0
VERTEX
  8
0
 10
11.00124235
 20
21.60849592
  0
VERTEX
  8
0
 10
11.02774029
 20
21.66806968
  0
VERTEX
  8
0
 10
11.05354284
 20
21.72795101
  0
VERTEX
  8
0
 10
11.07865455
 20
21.78812975
  0
VERTEX
  8
0
 10
11.10307998
 20
21.84859570
  0
VERTEX
  8
0
 10
11.14989031
 20
21.97034853
  0
VERTEX
  8
0
 10
11.19401035
 20
22.09312807
  0
VERTEX
  8
0
 10
11.23547661
 20
22.21685287
  0
VERTEX
  8
0
 10
11.27432563
 20
22.34144149
  0
VERTEX
  8
0
 10
11.31059393
 20
22.46681249
  0
VERTEX
  8
0
 10
11.34431803
 20
22.59288443
  0
VERTEX
  8
0
 10
11.37553447
 20
22.71957587
  0
SEQEND
  0
POLYLINE
  8
color#ffffffff
 66
   1
 39
0.000000
 70
    1
  0
VERTEX
  8
0
 10
11.91139654
 20
13.97789955
  0
VERTEX
  8
0
 10
11.50121148
 20
13.67945476
  0
VERTEX
  8
0
 10
11.27798610
 20
13.53341062
  0
VERTEX
  8
0
 10
11.28773782
 20
13.55840450
  0
VERTEX
  8
0
 10
11.29839638
 20
13.58276820
  0
VERTEX
  8
0
 10
11.30990739
 20
13.60653996
  0
VERTEX
  8
0
 10
11.32221646
 20
13.62975797
  0
VERTEX
  8
0
 10
11.33526920
 20
13.65246045
  0
VERTEX
  8
0
 10
11.34901121
 20
13.67468562
  0
VERTEX
  8
0
 10
11.37834551
 20
13.71785688
  0
VERTEX
  8
0
 10
11.40978423
 20
13.75957746
  0
VERTEX
  8
0
 10
11.47723443
 20
13.83988944
  0
VERTEX
  8
0
 10
11.66873259
 20
14.05709946
  0
VERTEX
  8
0
 10
11.70049072
 20
14.09883248
  0
VERTEX
  8
0
 10
11.73021958
 20
14.14201911
  0
VERTEX
  8
0
 10
11.68273142
 20
14.12464210
  0
VERTEX
  8
0
 10
11.63662498
 20
14.10522733
  0
VERTEX
  8
0
 10
11.59187454
 20
14.08385356
  0
VERTEX
  8
0
 10
11.54845436
 20
14.06059959
  0
VERTEX
  8
0
 10
11.50633869
 20
14.03554421
  0
VERTEX
  8
0
 10
11.46550182
 20
14.00876619
  0
VERTEX
  8
0
 10
11.42591799
 20
13.98034432
  0
VERTEX
  8
0
 10
11.38756147
 20
13.95035739
  0
VERTEX
  8
0
 10
11.35040653
 20
13.91888417
  0
VERTEX
  8
0
 10
11.31442743
 20
13.88600346
  0
VERTEX
  8
0
 10
11.27959844
 20
13.85179403
  0
VERTEX
  8
0
 10
11.24589381
 20
13.81633467
  0
VERTEX
  8
0
 10
11.21328782
 20
13.77970416
  0
VERTEX
  8
0
 10
11.18175473
 20
13.74198129
  0
VERTEX
  8
0
 10
11.15126880
 20
13.70324484
  0
VERTEX
  8
0
 10
11.12180430
 20
13.66357360
  0
VERTEX
  8
0
 10
11.09333549
 20
13.62304634
  0
VERTEX
  8
0
 10
11.06583663
 20
13.58174186
  0
VERTEX
  8
0
 10
11.03928199
 20
13.53973893
  0
VERTEX
  8
0
 10
11.01364583
 20
13.49711635
  0
VERTEX
  8
0
 10
10.98890242
 20
13.45395288
  0
VERTEX
  8
0
 10
10.96502602
 20
13.41032733
  0
VERTEX
  8
0
 10
10.94199090
 20
13.36631847
  0
VERTEX
  8
0
 10
10.91977132
 20
13.32200508
  0
VERTEX
  8
0
 10
10.89834154
 20
13.27746595
  0
VERTEX
  8
0
 10
10.87767582
 20
13.23277987
  0
VERTEX
  8
0
 10
10.85774844
 20
13.18802562
  0
VERTEX
  8
0
 10
10.82000574
 20
13.09862772
  0
VERTEX
  8
0
 10
10.50909978
 20
12.28495452
  0
VERTEX
  8
0
 10
10.53522230
 20
12.29333814
  0
VERTEX
  8
0
 10
10.56053958
 20
12.30284540
  0
VERTEX
  8
0
 10
10.58507913
 20
12.31342880
  0
VERTEX
  8
0
 10
10.60886842
 20
12.32504081
  0
VERTEX
  8
0
 10
10.63193493
 20
12.33763391
  0
VERTEX
  8
0
 10
10.65430616
 20
12.35116056
  0
VERTEX
  8
0
 10
10.67600958
 20
12.36557325
  0
VERTEX
  8
0
 10
10.69707269
 20
12.38082445
  0
VERTEX
  8
0
 10
10.71752296
 20
12.39686665
  0
VERTEX
  8
0
 10
10.73738787
 20
12.41365230
  0
VERTEX
  8
0
 10
10.75669492
 20
12.43113390
  0
VERTEX
  8
0
 10
10.77547159
 20
12.44926391
  0
VERTEX
  8
0
 10
10.81154370
 20
12.48727908
  0
VERTEX
  8
0
 10
10.84582410
 20
12.52731763
  0
VERTEX
  8
0
 10
10.89436618
 20
12.59033761
  0
VERTEX
  8
0
 10
11.04015839
 20
12.81063092
  0
VERTEX
  8
0
 10
11.06056267
 20
12.84245624
  0
VERTEX
  8
0
 10
11.10506604
 20
12.90337133
  0
VERTEX
  8
0
 10
11.15435365
 20
12.96018053
  0
VERTEX
  8
0
 10
11.20825490
 20
13.01233363
  0
VERTEX
  8
0
 10
11.25160591
 20
13.04806192
  0
VERTEX
  8
0
 10
11.29738416
 20
13.08062955
  0
VERTEX
  8
0
 10
11.34551767
 20
13.10980441
  0
VERTEX
  8
0
 10
11.39593448
 20
13.13535439
  0
VERTEX
  8
0
 10
11.44856260
 20
13.15704736
  0
VERTEX
  8
0
 10
11.45369728
 20
13.11264165
  0
VERTEX
  8
0
 10
11.47620423
 20
12.91523946
  0
VERTEX
  8
0
 10
11.48766951
 20
12.87172662
  0
VERTEX
  8
0
 10
11.49784564
 20
12.84377301
  0
VERTEX
  8
0
 10
11.51042931
 20
12.81685925
  0
VERTEX
  8
0
 10
11.51772614
 20
12.80384478
  0
VERTEX
  8
0
 10
11.52574746
 20
12.79115323
  0
VERTEX
  8
0
 10
11.53453415
 20
12.77880560
  0
VERTEX
  8
0
 10
11.54412706
 20
12.76682287
  0
VERTEX
  8
0
 10
11.55456707
 20
12.75522603
  0
VERTEX
  8
0
 10
11.56589506
 20
12.74403607
  0
VERTEX
  8
0
 10
11.57497532
 20
12.77135590
  0
VERTEX
  8
0
 10
11.65937721
 20
12.98827732
  0
VERTEX
  8
0
 10
11.68929382
 20
13.03759904
  0
VERTEX
  8
0
 10
11.71556848
 20
13.07207953
  0
VERTEX
  8
0
 10
11.73519594
 20
13.09364316
  0
VERTEX
  8
0
 10
11.75668880
 20
13.11392638
  0
VERTEX
  8
0
 10
11.78672539
 20
13.13964372
  0
VERTEX
  8
0
 10
11.81768677
 20
13.16368139
  0
VERTEX
  8
0
 10
11.84950574
 20
13.18616174
  0
VERTEX
  8
0
 10
11.88211510
 20
13.20720713
  0
VERTEX
  8
0
 10
11.91544765
 20
13.22693989
  0
VERTEX
  8
0
 10
11.94943620
 20
13.24548238
  0
VERTEX
  8
0
 10
11.98401354
 20
13.26295695
  0
VERTEX
  8
0
 10
12.01911249
 20
13.27948593
  0
VERTEX
  8
0
 10
12.05466583
 20
13.29519169
  0
VERTEX
  8
0
 10
12.12686694
 20
13.32462289
  0
VERTEX
  8
0
 10
12.38400642
 20
13.41968540
  0
VERTEX
  8
0
 10
12.45652464
 20
13.44861310
  0
VERTEX
  8
0
 10
12.49228939
 20
13.46398318
  0
VERTEX
  8
0
 10
12.52763497
 20
13.48012055
  0
VERTEX
  8
0
 10
12.56249419
 20
13.49714755
  0
VERTEX
  8
0
 10
12.59679984
 20
13.51518654
  0
VERTEX
  8
0
 10
12.63048473
 20
13.53435985
  0
VERTEX
  8
0
 10
12.66348167
 20
13.55478984
  0
VERTEX
  8
0
 10
12.69572344
 20
13.57659885
  0
VERTEX
  8
0
 10
12.72714287
 20
13.59990923
  0
VERTEX
  8
0
 10
12.75767274
 20
13.62484334
  0
VERTEX
  8
0
 10
12.76994088
 20
13.63533336
  0
VERTEX
  8
0
 10
12.79313662
 20
13.65740305
  0
VERTEX
  8
0
 10
12.81457351
 20
13.68083760
  0
VERTEX
  8
0
 10
12.83428587
 20
13.70553143
  0
VERTEX
  8
0
 10
12.86069592
 20
13.74470234
  0
VERTEX
  8
0
 10
12.88341867
 20
13.78611272
  0
VERTEX
  8
0
 10
12.90256989
 20
13.82940621
  0
VERTEX
  8
0
 10
12.92274917
 20
13.88944423
  0
VERTEX
  8
0
 10
12.93705920
 20
13.95135181
  0
VERTEX
  8
0
 10
12.94711110
 20
14.03007853
  0
VERTEX
  8
0
 10
12.66126289
 20
14.00652185
  0
VERTEX
  8
0
 10
12.68779581
 20
14.11696988
  0
VERTEX
  8
0
 10
12.71592135
 20
14.15937098
  0
VERTEX
  8
0
 10
12.73175713
 20
14.17680580
  0
VERTEX
  8
0
 10
12.74819482
 20
14.19356048
  0
VERTEX
  8
0
 10
12.76518394
 20
14.20969133
  0
VERTEX
  8
0
 10
12.80061455
 20
14.24030692
  0
VERTEX
  8
0
 10
12.83764509
 20
14.26910323
  0
VERTEX
  8
0
 10
13.05186407
 20
14.41510306
  0
VERTEX
  8
0
 10
13.10773224
 20
14.45759457
  0
VERTEX
  8
0
 10
13.14302309
 20
14.48806100
  0
VERTEX
  8
0
 10
13.15993069
 20
14.50410485
  0
VERTEX
  8
0
 10
13.17627909
 20
14.52076423
  0
VERTEX
  8
0
 10
13.19201781
 20
14.53809548
  0
VERTEX
  8
0
 10
13.20709638
 20
14.55615493
  0
VERTEX
  8
0
 10
13.22146430
 20
14.57499891
  0
VERTEX
  8
0
 10
13.23507109
 20
14.59468377
  0
VERTEX
  8
0
 10
13.24655842
 20
14.61319621
  0
VERTEX
  8
0
 10
13.26054489
 20
14.64204144
  0
VERTEX
  8
0
 10
13.27393892
 20
14.68217989
  0
VERTEX
  8
0
 10
13.29206714
 20
14.89459403
  0
VERTEX
  8
0
 10
13.14399936
 20
14.80809493
  0
VERTEX
  8
0
 10
12.90116019
 20
14.65750635
  0
VERTEX
  8
0
 10
11.91139654
 20
13.97789955
  0
SEQEND
  0
POLYLINE
  8
color#ffffffff
 66
   1
 39
0.000000
 70
    1
  0
VERTEX
  8
0
 10
6.07396283
 20
14.75458860
  0
VERTEX
  8
0
 10
6.18534030
 20
14.84626539
  0
VERTEX
  8
0
 10
6.29857546
 20
14.93595497
  0
VERTEX
  8
0
 10
6.41366536
 20
15.02346604
  0
VERTEX
  8
0
 10
6.47190493
 20
15.06634486
  0
VERTEX
  8
0
 10
6.53060709
 20
15.10860732
  0
VERTEX
  8
0
 10
6.58977148
 20
15.15022950
  0
VERTEX
  8
0
 10
6.64939772
 20
15.19118751
  0
VERTEX
  8
0
 10
6.70948545
 20
15.23145742
  0
VERTEX
  8
0
 10
6.77003430
 20
15.27101532
  0
VERTEX
  8
0
 10
6.83104392
 20
15.30983731
  0
VERTEX
  8
0
 10
6.89251392
 20
15.34789947
  0
VERTEX
  8
0
 10
6.95444395
 20
15.38517789
  0
VERTEX
  8
0
 10
7.01683364
 20
15.42164866
  0
VERTEX
  8
0
 10
7.07968262
 20
15.45728787
  0
VERTEX
  8
0
 10
7.14299053
 20
15.49207161
  0
VERTEX
  8
0
 10
7.20675700
 20
15.52597596
  0
VERTEX
  8
0
 10
7.27098166
 20
15.55897702
  0
VERTEX
  8
0
 10
7.33566415
 20
15.59105087
  0
VERTEX
  8
0
 10
7.40080410
 20
15.62217360
  0
VERTEX
  8
0
 10
7.46640115
 20
15.65232130
  0
VERTEX
  8
0
 10
7.53245492
 20
15.68147006
  0
VERTEX
  8
0
 10
7.59896506
 20
15.70959596
  0
VERTEX
  8
0
 10
7.66593119
 20
15.73667511
  0
VERTEX
  8
0
 10
7.73335296
 20
15.76268358
  0
VERTEX
  8
0
 10
7.80122998
 20
15.78759746
  0
VERTEX
  8
0
 10
7.86956191
 20
15.81139284
  0
VERTEX
  8
0
 10
7.87164342
 20
15.79171540
  0
VERTEX
  8
0
 10
7.87266342
 20
15.77233558
  0
VERTEX
  8
0
 10
7.87267745
 20
15.75323767
  0
VERTEX
  8
0
 10
7.87174103
 20
15.73440594
  0
VERTEX
  8
0
 10
7.86990970
 20
15.71582469
  0
VERTEX
  8
0
 10
7.86723898
 20
15.69747821
  0
VERTEX
  8
0
 10
7.86378442
 20
15.67935076
  0
VERTEX
  8
0
 10
7.85474586
 20
15.64369014
  0
VERTEX
  8
0
 10
7.84323828
 20
15.60871711
  0
VERTEX
  8
0
 10
7.81459306
 20
15.54033093
  0
VERTEX
  8
0
 10
7.71560311
 20
15.33859932
  0
VERTEX
  8
0
 10
7.70186569
 20
15.30415705
  0
VERTEX
  8
0
 10
7.69603487
 20
15.27305137
  0
VERTEX
  8
0
 10
7.69176971
 20
15.24208610
  0
VERTEX
  8
0
 10
7.68900984
 20
15.21126434
  0
VERTEX
  8
0
 10
7.68769488
 20
15.18058917
  0
VERTEX
  8
0
 10
7.68776446
 20
15.15006367
  0
VERTEX
  8
0
 10
7.68915821
 20
15.11969093
  0
VERTEX
  8
0
 10
7.69181575
 20
15.08947404
  0
VERTEX
  8
0
 10
7.69567673
 20
15.05941609
  0
VERTEX
  8
0
 10
7.70068075
 20
15.02952015
  0
VERTEX
  8
0
 10
7.70676746
 20
14.99978932
  0
VERTEX
  8
0
 10
7.71387647
 20
14.97022669
  0
VERTEX
  8
0
 10
7.72194742
 20
14.94083533
  0
VERTEX
  8
0
 10
7.73091993
 20
14.91161834
  0
VERTEX
  8
0
 10
7.74073364
 20
14.88257881
  0
VERTEX
  8
0
 10
7.75132816
 20
14.85371981
  0
VERTEX
  8
0
 10
7.77461818
 20
14.79655577
  0
VERTEX
  8
0
 10
7.80030702
 20
14.74015093
  0
VERTEX
  8
0
 10
7.85694921
 20
14.62971759
  0
VERTEX
  8
0
 10
7.94782918
 20
14.47037880
  0
VERTEX
  8
0
 10
8.09442294
 20
14.21090868
  0
VERTEX
  8
0
 10
8.12612664
 20
14.14335951
  0
VERTEX
  8
0
 10
8.14467037
 20
14.09755293
  0
VERTEX
  8
0
 10
8.16064855
 20
14.05106872
  0
VERTEX
  8
0
 10
8.16754381
 20
14.02755681
  0
VERTEX
  8
0
 10
8.17363956
 20
14.00385666
  0
VERTEX
  8
0
 10
8.17888312
 20
13.97996199
  0
VERTEX
  8
0
 10
8.18322178
 20
13.95586652
  0
VERTEX
  8
0
 10
8.18660284
 20
13.93156398
  0
VERTEX
  8
0
 10
8.18897358
 20
13.90704808
  0
VERTEX
  8
0
 10
8.19028132
 20
13.88231255
  0
VERTEX
  8
0
 10
8.19047335
 20
13.85735111
  0
VERTEX
  8
0
 10
8.18949697
 20
13.83215749
  0
VERTEX
  8
0
 10
8.18729946
 20
13.80672540
  0
VERTEX
  8
0
 10
8.18363375
 20
13.78038386
  0
VERTEX
  8
0
 10
8.17749730
 20
13.75515772
  0
VERTEX
  8
0
 10
8.16911633
 20
13.73096759
  0
VERTEX
  8
0
 10
8.15283116
 20
13.69645120
  0
VERTEX
  8
0
 10
8.12537288
 20
13.65331426
  0
VERTEX
  8
0
 10
7.98456881
 20
13.50156187
  0
VERTEX
  8
0
 10
7.95464920
 20
13.47240561
  0
VERTEX
  8
0
 10
7.92577558
 20
13.44246949
  0
VERTEX
  8
0
 10
7.89791622
 20
13.41178524
  0
VERTEX
  8
0
 10
7.87103938
 20
13.38038460
  0
VERTEX
  8
0
 10
7.84511334
 20
13.34829927
  0
VERTEX
  8
0
 10
7.82010636
 20
13.31556099
  0
VERTEX
  8
0
 10
7.79598671
 20
13.28220147
  0
VERTEX
  8
0
 10
7.77272266
 20
13.24825246
  0
VERTEX
  8
0
 10
7.75028247
 20
13.21374566
  0
VERTEX
  8
0
 10
7.72863441
 20
13.17871281
  0
VERTEX
  8
0
 10
7.70774674
 20
13.14318563
  0
VERTEX
  8
0
 10
7.68758774
 20
13.10719584
  0
VERTEX
  8
0
 10
7.66812568
 20
13.07077518
  0
VERTEX
  8
0
 10
7.63116542
 20
12.99676810
  0
VERTEX
  8
0
 10
7.59661209
 20
12.92141820
  0
VERTEX
  8
0
 10
7.56421185
 20
12.84497928
  0
VERTEX
  8
0
 10
7.51909318
 20
12.72883416
  0
VERTEX
  8
0
 10
7.42562166
 20
12.45533226
  0
VERTEX
  8
0
 10
7.11598711
 20
11.34967211
  0
VERTEX
  8
0
 10
7.35355066
 20
11.39321769
  0
VERTEX
  8
0
 10
7.22637957
 20
10.89711207
  0
VERTEX
  8
0
 10
7.21314852
 20
10.79098021
  0
VERTEX
  8
0
 10
7.20759730
 20
10.72985154
  0
VERTEX
  8
0
 10
7.20320001
 20
10.66853378
  0
VERTEX
  8
0
 10
7.19997253
 20
10.60706351
  0
VERTEX
  8
0
 10
7.19793076
 20
10.54547732
  0
VERTEX
  8
0
 10
7.19709056
 20
10.48381180
  0
VERTEX
  8
0
 10
7.19746784
 20
10.42210354
  0
VERTEX
  8
0
 10
7.19907848
 20
10.36038914
  0
VERTEX
  8
0
 10
7.20193836
 20
10.29870517
  0
VERTEX
  8
0
 10
7.20606336
 20
10.23708823
  0
VERTEX
  8
0
 10
7.21146938
 20
10.17557492
  0
VERTEX
  8
0
 10
7.21817230
 20
10.11420181
  0
VERTEX
  8
0
 10
7.22618800
 20
10.05300550
  0
VERTEX
  8
0
 10
7.23553238
 20
9.99202258
  0
VERTEX
  8
0
 10
7.24622131
 20
9.93128963
  0
VERTEX
  8
0
 10
7.25827068
 20
9.87084326
  0
VERTEX
  8
0
 10
7.27169637
 20
9.81072003
  0
VERTEX
  8
0
 10
7.28651428
 20
9.75095656
  0
VERTEX
  8
0
 10
7.30274029
 20
9.69158942
  0
VERTEX
  8
0
 10
7.32039028
 20
9.63265521
  0
VERTEX
  8
0
 10
7.33948014
 20
9.57419051
  0
VERTEX
  8
0
 10
7.36002576
 20
9.51623191
  0
VERTEX
  8
0
 10
7.38204301
 20
9.45881601
  0
VERTEX
  8
0
 10
7.40554780
 20
9.40197940
  0
VERTEX
  8
0
 10
7.43055599
 20
9.34575865
  0
VERTEX
  8
0
 10
7.45708348
 20
9.29019037
  0
VERTEX
  8
0
 10
7.48514615
 20
9.23531114
  0
VERTEX
  8
0
 10
7.51475989
 20
9.18115755
  0
VERTEX
  8
0
 10
7.54594059
 20
9.12776620
  0
VERTEX
  8
0
 10
7.57870412
 20
9.07517366
  0
VERTEX
  8
0
 10
7.49992287
 20
8.96011717
  0
VERTEX
  8
0
 10
7.43112135
 20
8.88090298
  0
VERTEX
  8
0
 10
7.38032624
 20
8.83318398
  0
VERTEX
  8
0
 10
7.33952890
 20
8.80071936
  0
VERTEX
  8
0
 10
7.29634117
 20
8.77153440
  0
VERTEX
  8
0
 10
7.25069532
 20
8.74601607
  0
VERTEX
  8
0
 10
7.21886570
 20
8.73123197
  0
VERTEX
  8
0
 10
7.18841010
 20
8.74055375
  0
VERTEX
  8
0
 10
7.15837162
 20
8.75086620
  0
VERTEX
  8
0
 10
7.12875818
 20
8.76214325
  0
VERTEX
  8
0
 10
7.09957768
 20
8.77435886
  0
VERTEX
  8
0
 10
7.07083803
 20
8.78748697
  0
VERTEX
  8
0
 10
7.04254713
 20
8.80150150
  0
VERTEX
  8
0
 10
7.01471289
 20
8.81637642
  0
VERTEX
  8
0
 10
6.98734322
 20
8.83208566
  0
VERTEX
  8
0
 10
6.96044603
 20
8.84860316
  0
VERTEX
  8
0
 10
6.93402922
 20
8.86590287
  0
VERTEX
  8
0
 10
6.90810069
 20
8.88395872
  0
VERTEX
  8
0
 10
6.88266837
 20
8.90274466
  0
VERTEX
  8
0
 10
6.85774015
 20
8.92223463
  0
VERTEX
  8
0
 10
6.83332393
 20
8.94240258
  0
VERTEX
  8
0
 10
6.80942764
 20
8.96322245
  0
VERTEX
  8
0
 10
6.78605916
 20
8.98466817
  0
VERTEX
  8
0
 10
6.76322642
 20
9.00671369
  0
VERTEX
  8
0
 10
6.74093732
 20
9.02933295
  0
VERTEX
  8
0
 10
6.71919976
 20
9.05249990
  0
VERTEX
  8
0
 10
6.69802165
 20
9.07618848
  0
VERTEX
  8
0
 10
6.67741090
 20
9.10037263
  0
VERTEX
  8
0
 10
6.63792310
 20
9.15012340
  0
VERTEX
  8
0
 10
6.60079962
 20
9.20154375
  0
VERTEX
  8
0
 10
6.56610371
 20
9.25442522
  0
VERTEX
  8
0
 10
6.53389863
 20
9.30855935
  0
VERTEX
  8
0
 10
6.51490219
 20
9.34233555
  0
VERTEX
  8
0
 10
6.49668615
 20
9.37643149
  0
VERTEX
  8
0
 10
6.47922023
 20
9.41083308
  0
VERTEX
  8
0
 10
6.46247417
 20
9.44552622
  0
VERTEX
  8
0
 10
6.43102059
 20
9.51573080
  0
VERTEX
  8
0
 10
6.40208331
 20
9.58693249
  0
VERTEX
  8
0
 10
6.37542022
 20
9.65901856
  0
VERTEX
  8
0
 10
6.33916007
 20
9.76855927
  0
VERTEX
  8
0
 10
6.28666758
 20
9.95395195
  0
VERTEX
  8
0
 10
6.18925804
 20
10.36639122
  0
VERTEX
  8
0
 10
6.16265026
 20
10.33691402
  0
VERTEX
  8
0
 10
6.13794736
 20
10.30650938
  0
VERTEX
  8
0
 10
6.11508360
 20
10.27522488
  0
VERTEX
  8
0
 10
6.09399329
 20
10.24310809
  0
VERTEX
  8
0
 10
6.07461070
 20
10.21020658
  0
VERTEX
  8
0
 10
6.05687014
 20
10.17656792
  0
VERTEX
  8
0
 10
6.04070588
 20
10.14223969
  0
VERTEX
  8
0
 10
6.02605222
 20
10.10726945
  0
VERTEX
  8
0
 10
6.01284344
 20
10.07170479
  0
VERTEX
  8
0
 10
6.00101384
 20
10.03559327
  0
VERTEX
  8
0
 10
5.99049770
 20
9.99898246
  0
VERTEX
  8
0
 10
5.98122931
 20
9.96191994
  0
VERTEX
  8
0
 10
5.97314295
 20
9.92445328
  0
VERTEX
  8
0
 10
5.96617293
 20
9.88663005
  0
VERTEX
  8
0
 10
5.96025353
 20
9.84849782
  0
VERTEX
  8
0
 10
5.95531903
 20
9.81010416
  0
VERTEX
  8
0
 10
5.95130372
 20
9.77149666
  0
VERTEX
  8
0
 10
5.94814190
 20
9.73272287
  0
VERTEX
  8
0
 10
5.94411586
 20
9.65486675
  0
VERTEX
  8
0
 10
5.94271522
 20
9.57691637
  0
VERTEX
  8
0
 10
5.94438693
 20
9.46064658
  0
VERTEX
  8
0
 10
5.95089832
 20
9.30884235
  0
VERTEX
  8
0
 10
5.95814287
 20
9.23540576
  0
VERTEX
  8
0
 10
5.96653647
 20
9.16215973
  0
VERTEX
  8
0
 10
5.97604928
 20
9.08910480
  0
VERTEX
  8
0
 10
5.98665143
 20
9.01624153
  0
VERTEX
  8
0
 10
5.99831306
 20
8.94357048
  0
VERTEX
  8
0
 10
6.01100432
 20
8.87109218
  0
VERTEX
  8
0
 10
6.02469535
 20
8.79880720
  0
VERTEX
  8
0
 10
6.03935630
 20
8.72671609
  0
VERTEX
  8
0
 10
6.05495729
 20
8.65481941
  0
VERTEX
  8
0
 10
6.07146848
 20
8.58311769
  0
VERTEX
  8
0
 10
6.08886001
 20
8.51161150
  0
VERTEX
  8
0
 10
6.10710202
 20
8.44030140
  0
VERTEX
  8
0
 10
6.12616466
 20
8.36918792
  0
VERTEX
  8
0
 10
6.14601806
 20
8.29827163
  0
VERTEX
  8
0
 10
6.16663237
 20
8.22755308
  0
VERTEX
  8
0
 10
6.21002428
 20
8.08671140
  0
VERTEX
  8
0
 10
6.25610153
 20
7.94666731
  0
VERTEX
  8
0
 10
6.30462526
 20
7.80742522
  0
VERTEX
  8
0
 10
6.35535660
 20
7.66898955
  0
VERTEX
  8
0
 10
6.43507040
 20
7.46285778
  0
VERTEX
  8
0
 10
6.51840773
 20
7.25856534
  0
VERTEX
  8
0
 10
7.09833023
 20
5.93467361
  0
VERTEX
  8
0
 10
7.21633882
 20
5.64346482
  0
VERTEX
  8
0
 10
7.23895368
 20
5.58480514
  0
VERTEX
  8
0
 10
7.36897523
 20
5.20146498
  0
VERTEX
  8
0
 10
7.38410619
 20
5.11459794
  0
VERTEX
  8
0
 10
7.38611356
 20
5.09697287
  0
VERTEX
  8
0
 10
7.23620869
 20
5.15924253
  0
VERTEX
  8
0
 10
7.20235200
 20
5.19121679
  0
VERTEX
  8
0
 10
7.19264037
 20
5.20401947
  0
VERTEX
  8
0
 10
6.64290128
 20
5.83841449
  0
VERTEX
  8
0
 10
6.55648021
 20
5.93891495
  0
VERTEX
  8
0
 10
6.47079859
 20
6.04007703
  0
VERTEX
  8
0
 10
6.38587389
 20
6.14190009
  0
VERTEX
  8
0
 10
6.30172359
 20
6.24438350
  0
VERTEX
  8
0
 10
6.21836517
 20
6.34752663
  0
VERTEX
  8
0
 10
6.13581610
 20
6.45132884
  0
VERTEX
  8
0
 10
6.05409386
 20
6.55578949
  0
VERTEX
  8
0
 10
5.97321593
 20
6.66090797
  0
VERTEX
  8
0
 10
5.89319978
 20
6.76668362
  0
VERTEX
  8
0
 10
5.81406289
 20
6.87311583
  0
VERTEX
  8
0
 10
5.73582273
 20
6.98020394
  0
VERTEX
  8
0
 10
5.65849679
 20
7.08794734
  0
VERTEX
  8
0
 10
5.58210254
 20
7.19634539
  0
VERTEX
  8
0
 10
5.50665745
 20
7.30539744
  0
VERTEX
  8
0
 10
5.43217901
 20
7.41510288
  0
VERTEX
  8
0
 10
5.35868469
 20
7.52546106
  0
VERTEX
  8
0
 10
5.28619196
 20
7.63647135
  0
VERTEX
  8
0
 10
5.21471830
 20
7.74813312
  0
VERTEX
  8
0
 10
5.14428120
 20
7.86044573
  0
VERTEX
  8
0
 10
5.07489812
 20
7.97340855
  0
VERTEX
  8
0
 10
5.00658655
 20
8.08702095
  0
VERTEX
  8
0
 10
4.93936395
 20
8.20128229
  0
VERTEX
  8
0
 10
4.87324781
 20
8.31619194
  0
VERTEX
  8
0
 10
4.80825560
 20
8.43174927
  0
VERTEX
  8
0
 10
4.74440481
 20
8.54795363
  0
VERTEX
  8
0
 10
4.68171290
 20
8.66480441
  0
VERTEX
  8
0
 10
4.62019735
 20
8.78230095
  0
VERTEX
  8
0
 10
4.55987564
 20
8.90044264
  0
VERTEX
  8
0
 10
4.50076525
 20
9.01922883
  0
VERTEX
  8
0
 10
4.41630823
 20
9.19225078
  0
VERTEX
  8
0
 10
4.33418305
 20
9.36651111
  0
VERTEX
  8
0
 10
4.25456671
 20
9.54200206
  0
VERTEX
  8
0
 10
4.21575467
 20
9.63020657
  0
VERTEX
  8
0
 10
4.17763621
 20
9.71871582
  0
VERTEX
  8
0
 10
4.14023346
 20
9.80752882
  0
VERTEX
  8
0
 10
4.10356853
 20
9.89664460
  0
VERTEX
  8
0
 10
4.06766357
 20
9.98606219
  0
VERTEX
  8
0
 10
4.03254068
 20
10.07578062
  0
VERTEX
  8
0
 10
3.99822199
 20
10.16579890
  0
VERTEX
  8
0
 10
3.96472963
 20
10.25611608
  0
VERTEX
  8
0
 10
3.93208573
 20
10.34673116
  0
VERTEX
  8
0
 10
3.90031240
 20
10.43764319
  0
VERTEX
  8
0
 10
3.86943177
 20
10.52885118
  0
VERTEX
  8
0
 10
3.83946596
 20
10.62035417
  0
VERTEX
  8
0
 10
3.81043710
 20
10.71215117
  0
VERTEX
  8
0
 10
3.78236731
 20
10.80424122
  0
VERTEX
  8
0
 10
3.75527872
 20
10.89662333
  0
VERTEX
  8
0
 10
3.72919345
 20
10.98929655
  0
VERTEX
  8
0
 10
3.70413362
 20
11.08225989
  0
VERTEX
  8
0
 10
3.68012136
 20
11.17551237
  0
VERTEX
  8
0
 10
3.65717880
 20
11.26905304
  0
VERTEX
  8
0
 10
3.63532805
 20
11.36288090
  0
VERTEX
  8
0
 10
3.61459124
 20
11.45699499
  0
VERTEX
  8
0
 10
3.59499049
 20
11.55139434
  0
VERTEX
  8
0
 10
3.57654794
 20
11.64607796
  0
VERTEX
  8
0
 10
3.51663044
 20
11.97827116
  0
VERTEX
  8
0
 10
3.51428473
 20
12.05438822
  0
VERTEX
  8
0
 10
3.51611078
 20
12.08493827
  0
VERTEX
  8
0
 10
3.74148119
 20
12.32382829
  0
VERTEX
  8
0
 10
3.82216911
 20
12.40739169
  0
VERTEX
  8
0
 10
3.90224897
 20
12.49156198
  0
VERTEX
  8
0
 10
4.06084655
 20
12.66146165
  0
VERTEX
  8
0
 10
4.45128565
 20
13.09225338
  0
VERTEX
  8
0
 10
4.99621056
 20
13.69704519
  0
VERTEX
  8
0
 10
5.15429310
 20
13.86745671
  0
VERTEX
  8
0
 10
5.23406024
 20
13.95193776
  0
VERTEX
  8
0
 10
5.31439867
 20
14.03584849
  0
VERTEX
  8
0
 10
5.39537390
 20
14.11912347
  0
VERTEX
  8
0
 10
5.47705145
 20
14.20169732
  0
VERTEX
  8
0
 10
5.55949683
 20
14.28350462
  0
VERTEX
  8
0
 10
5.64277558
 20
14.36447998
  0
VERTEX
  8
0
 10
5.72695320
 20
14.44455800
  0
VERTEX
  8
0
 10
5.81209521
 20
14.52367328
  0
VERTEX
  8
0
 10
5.89826714
 20
14.60176040
  0
VERTEX
  8
0
 10
5.98553451
 20
14.67875398
  0
VERTEX
  8
0
 10
6.07396283
 20
14.75458860
  0
SEQEND
  0
POLYLINE
  8
color#ffffffff
 66
   1
 39
0.000000
 70
    1
  0
VERTEX
  8
0
 10
16.37750722
 20
13.05968392
  0
VERTEX
  8
0
 10
16.41322271
 20
13.07463384
  0
VERTEX
  8
0
 10
16.44931445
 20
13.08854506
  0
VERTEX
  8
0
 10
16.48575651
 20
13.10142148
  0
VERTEX
  8
0
 10
16.52252296
 20
13.11326702
  0
VERTEX
  8
0
 10
16.55958785
 20
13.12408556
  0
VERTEX
  8
0
 10
16.59692527
 20
13.13388103
  0
VERTEX
  8
0
 10
16.63450927
 20
13.14265732
  0
VERTEX
  8
0
 10
16.67231393
 20
13.15041835
  0
VERTEX
  8
0
 10
16.71031330
 20
13.15716801
  0
VERTEX
  8
0
 10
16.74848146
 20
13.16291022
  0
VERTEX
  8
0
 10
16.78679248
 20
13.16764888
  0
VERTEX
  8
0
 10
16.82522041
 20
13.17138789
  0
VERTEX
  8
0
 10
16.86373933
 20
13.17413116
  0
VERTEX
  8
0
 10
16.90232330
 20
13.17588260
  0
VERTEX
  8
0
 10
16.94094639
 20
13.17664612
  0
VERTEX
  8
0
 10
16.97958266
 20
13.17642561
  0
VERTEX
  8
0
 10
17.01820619
 20
13.17522499
  0
VERTEX
  8
0
 10
17.05679104
 20
13.17304816
  0
VERTEX
  8
0
 10
17.09531127
 20
13.16989902
  0
VERTEX
  8
0
 10
17.13374096
 20
13.16578149
  0
VERTEX
  8
0
 10
17.17205417
 20
13.16069946
  0
VERTEX
  8
0
 10
17.21022496
 20
13.15465685
  0
VERTEX
  8
0
 10
17.24822740
 20
13.14765755
  0
VERTEX
  8
0
 10
17.28603557
 20
13.13970548
  0
VERTEX
  8
0
 10
17.32362352
 20
13.13080455
  0
VERTEX
  8
0
 10
17.36096532
 20
13.12095865
  0
VERTEX
  8
0
 10
17.39803504
 20
13.11017169
  0
VERTEX
  8
0
 10
17.43480675
 20
13.09844758
  0
VERTEX
  8
0
 10
17.47125452
 20
13.08579022
  0
VERTEX
  8
0
 10
17.55484122
 20
13.04538638
  0
VERTEX
  8
0
 10
17.56862503
 20
13.03048775
  0
VERTEX
  8
0
 10
17.57505501
 20
13.01674998
  0
VERTEX
  8
0
 10
17.57704560
 20
13.00615348
  0
VERTEX
  8
0
 10
17.57692857
 20
12.99427152
  0
VERTEX
  8
0
 10
17.57600716
 20
12.98781230
  0
VERTEX
  8
0
 10
17.58321986
 20
12.61110099
  0
VERTEX
  8
0
 10
17.59859458
 20
12.52675688
  0
VERTEX
  8
0
 10
17.60718856
 20
12.49332419
  0
VERTEX
  8
0
 10
17.61676019
 20
12.45666415
  0
VERTEX
  8
0
 10
17.62750583
 20
12.42051460
  0
VERTEX
  8
0
 10
17.63934262
 20
12.38483938
  0
VERTEX
  8
0
 10
17.65218774
 20
12.34960231
  0
VERTEX
  8
0
 10
17.66595834
 20
12.31476721
  0
VERTEX
  8
0
 10
17.68057160
 20
12.28029793
  0
VERTEX
  8
0
 10
17.69594466
 20
12.24615828
  0
VERTEX
  8
0
 10
17.72863885
 20
12.17872319
  0
VERTEX
  8
0
 10
17.89150393
 20
11.88203270
  0
VERTEX
  8
0
 10
17.94455794
 20
11.78255828
  0
VERTEX
  8
0
 10
17.97765151
 20
11.71523753
  0
VERTEX
  8
0
 10
17.99326705
 20
11.68116730
  0
VERTEX
  8
0
 10
18.00815131
 20
11.64677560
  0
VERTEX
  8
0
 10
18.02222144
 20
11.61202626
  0
VERTEX
  8
0
 10
18.03539462
 20
11.57688311
  0
VERTEX
  8
0
 10
18.04758801
 20
11.54130997
  0
VERTEX
  8
0
 10
18.05871876
 20
11.50527068
  0
VERTEX
  8
0
 10
18.07837348
 20
11.42608817
  0
VERTEX
  8
0
 10
18.10026419
 20
11.18314805
  0
VERTEX
  8
0
 10
18.10232391
 20
11.03648804
  0
VERTEX
  8
0
 10
18.32966819
 20
11.19936743
  0
VERTEX
  8
0
 10
18.38698940
 20
11.23043067
  0
VERTEX
  8
0
 10
18.41686452
 20
11.24350080
  0
VERTEX
  8
0
 10
18.44770412
 20
11.25459971
  0
VERTEX
  8
0
 10
18.47962431
 20
11.26347972
  0
VERTEX
  8
0
 10
18.51274118
 20
11.26989314
  0
VERTEX
  8
0
 10
18.27540376
 20
11.62086885
  0
VERTEX
  8
0
 10
18.22706649
 20
11.70764040
  0
VERTEX
  8
0
 10
18.19511594
 20
11.77487955
  0
VERTEX
  8
0
 10
18.17629749
 20
11.82093324
  0
VERTEX
  8
0
 10
18.15973411
 20
11.86809270
  0
VERTEX
  8
0
 10
18.15237025
 20
11.89212023
  0
VERTEX
  8
0
 10
18.12430602
 20
12.01616478
  0
VERTEX
  8
0
 10
18.11392757
 20
12.29829244
  0
VERTEX
  8
0
 10
18.37240377
 20
12.28082521
  0
VERTEX
  8
0
 10
18.44195473
 20
12.26340639
  0
VERTEX
  8
0
 10
18.49588662
 20
12.24300763
  0
VERTEX
  8
0
 10
18.52214643
 20
12.23031013
  0
VERTEX
  8
0
 10
18.55767739
 20
12.21303872
  0
VERTEX
  8
0
 10
18.59211962
 20
12.19435375
  0
VERTEX
  8
0
 10
18.62555127
 20
12.17435633
  0
VERTEX
  8
0
 10
18.65805050
 20
12.15314761
  0
VERTEX
  8
0
 10
18.68969547
 20
12.13082872
  0
VERTEX
  8
0
 10
18.72056434
 20
12.10750078
  0
VERTEX
  8
0
 10
18.75073525
 20
12.08326495
  0
VERTEX
  8
0
 10
18.78028637
 20
12.05822234
  0
VERTEX
  8
0
 10
18.80929586
 20
12.03247410
  0
VERTEX
  8
0
 10
18.86600254
 20
11.97926525
  0
VERTEX
  8
0
 10
19.08679504
 20
11.75843114
  0
VERTEX
  8
0
 10
19.14361086
 20
11.70526830
  0
VERTEX
  8
0
 10
19.17269128
 20
11.67954997
  0
VERTEX
  8
0
 10
19.20232425
 20
11.65454188
  0
VERTEX
  8
0
 10
19.23258793
 20
11.63034516
  0
VERTEX
  8
0
 10
19.26356048
 20
11.60706094
  0
VERTEX
  8
0
 10
19.29532004
 20
11.58479036
  0
VERTEX
  8
0
 10
19.32794478
 20
11.56363456
  0
VERTEX
  8
0
 10
19.36151285
 20
11.54369466
  0
VERTEX
  8
0
 10
19.39610241
 20
11.52507180
  0
VERTEX
  8
0
 10
19.48029156
 20
11.48751802
  0
VERTEX
  8
0
 10
19.82371104
 20
11.40740984
  0
VERTEX
  8
0
 10
19.86587606
 20
11.29266013
  0
VERTEX
  8
0
 10
19.90557175
 20
11.20320082
  0
VERTEX
  8
0
 10
19.95077777
 20
11.11649048
  0
VERTEX
  8
0
 10
19.98841466
 20
11.05363297
  0
VERTEX
  8
0
 10
20.02934127
 20
10.99292925
  0
VERTEX
  8
0
 10
20.07363910
 20
10.93463967
  0
VERTEX
  8
0
 10
20.12138966
 20
10.87902459
  0
VERTEX
  8
0
 10
20.15518180
 20
10.84356226
  0
VERTEX
  8
0
 10
20.19056885
 20
10.80948146
  0
VERTEX
  8
0
 10
20.22895356
 20
10.77402668
  0
VERTEX
  8
0
 10
20.26818976
 20
10.73987089
  0
VERTEX
  8
0
 10
20.30823115
 20
10.70694395
  0
VERTEX
  8
0
 10
20.34903145
 20
10.67517571
  0
VERTEX
  8
0
 10
20.39054435
 20
10.64449602
  0
VERTEX
  8
0
 10
20.43272357
 20
10.61483474
  0
VERTEX
  8
0
 10
20.47552281
 20
10.58612173
  0
VERTEX
  8
0
 10
20.51889579
 20
10.55828683
  0
VERTEX
  8
0
 10
20.56279620
 20
10.53125990
  0
VERTEX
  8
0
 10
20.60717776
 20
10.50497079
  0
VERTEX
  8
0
 10
20.69719913
 20
10.45432547
  0
VERTEX
  8
0
 10
20.83468247
 20
10.38213751
  0
VERTEX
  8
0
 10
21.29915949
 20
10.15147373
  0
VERTEX
  8
0
 10
21.39042180
 20
10.10297148
  0
VERTEX
  8
0
 10
21.48027562
 20
10.05237001
  0
VERTEX
  8
0
 10
21.43994082
 20
10.05190765
  0
VERTEX
  8
0
 10
21.39960090
 20
10.05050785
  0
VERTEX
  8
0
 10
21.35928333
 20
10.04816912
  0
VERTEX
  8
0
 10
21.31901557
 20
10.04489001
  0
VERTEX
  8
0
 10
21.27882507
 20
10.04066905
  0
VERTEX
  8
0
 10
21.23873931
 20
10.03550479
  0
VERTEX
  8
0
 10
21.19878573
 20
10.02939577
  0
VERTEX
  8
0
 10
21.15899180
 20
10.02234051
  0
VERTEX
  8
0
 10
21.11938499
 20
10.01433757
  0
VERTEX
  8
0
 10
21.07999275
 20
10.00538547
  0
VERTEX
  8
0
 10
21.04084254
 20
9.99548276
  0
VERTEX
  8
0
 10
21.00196182
 20
9.98462798
  0
VERTEX
  8
0
 10
20.96337807
 20
9.97281965
  0
VERTEX
  8
0
 10
20.92511872
 20
9.96005633
  0
VERTEX
  8
0
 10
20.88721126
 20
9.94633655
  0
VERTEX
  8
0
 10
20.84968313
 20
9.93165885
  0
VERTEX
  8
0
 10
20.81256181
 20
9.91602176
  0
VERTEX
  8
0
 10
20.77587474
 20
9.89942382
  0
VERTEX
  8
0
 10
20.73964940
 20
9.88186358
  0
VERTEX
  8
0
 10
20.70391323
 20
9.86333957
  0
VERTEX
  8
0
 10
20.66869371
 20
9.84385033
  0
VERTEX
  8
0
 10
20.63401830
 20
9.82339440
  0
VERTEX
  8
0
 10
20.59991445
 20
9.80197031
  0
VERTEX
  8
0
 10
20.56640963
 20
9.77957661
  0
VERTEX
  8
0
 10
20.53353129
 20
9.75621183
  0
VERTEX
  8
0
 10
20.50130690
 20
9.73187451
  0
VERTEX
  8
0
 10
20.46976392
 20
9.70656319
  0
VERTEX
  8
0
 10
20.43892981
 20
9.68027640
  0
VERTEX
  8
0
 10
20.40883203
 20
9.65301270
  0
VERTEX
  8
0
 10
20.34699791
 20
9.58753569
  0
VERTEX
  8
0
 10
20.30241316
 20
9.52682010
  0
VERTEX
  8
0
 10
20.27245638
 20
9.47471179
  0
VERTEX
  8
0
 10
20.25386439
 20
9.43379693
  0
VERTEX
  8
0
 10
20.23898301
 20
9.39147391
  0
VERTEX
  8
0
 10
20.22816209
 20
9.34788990
  0
VERTEX
  8
0
 10
20.22337669
 20
9.31820602
  0
VERTEX
  8
0
 10
20.22065505
 20
9.28807071
  0
VERTEX
  8
0
 10
20.22010054
 20
9.27284740
  0
VERTEX
  8
0
 10
20.21942536
 20
9.25307857
  0
VERTEX
  8
0
 10
20.21985531
 20
9.23356186
  0
VERTEX
  8
0
 10
20.22135243
 20
9.21430500
  0
VERTEX
  8
0
 10
20.22387876
 20
9.19531573
  0
VERTEX
  8
0
 10
20.22739633
 20
9.17660176
  0
VERTEX
  8
0
 10
20.23186720
 20
9.15817084
  0
VERTEX
  8
0
 10
20.23725340
 20
9.14003070
  0
VERTEX
  8
0
 10
20.24351697
 20
9.12218907
  0
VERTEX
  8
0
 10
20.25061995
 20
9.10465369
  0
VERTEX
  8
0
 10
20.25852439
 20
9.08743227
  0
VERTEX
  8
0
 10
20.26719232
 20
9.07053256
  0
VERTEX
  8
0
 10
20.27658579
 20
9.05396229
  0
VERTEX
  8
0
 10
20.28666683
 20
9.03772919
  0
VERTEX
  8
0
 10
20.30873981
 20
9.00630543
  0
VERTEX
  8
0
 10
20.33310758
 20
8.97632313
  0
VERTEX
  8
0
 10
20.35946647
 20
8.94784415
  0
VERTEX
  8
0
 10
20.38751280
 20
8.92093035
  0
VERTEX
  8
0
 10
20.43208198
 20
8.88362965
  0
VERTEX
  8
0
 10
20.47873975
 20
8.85019853
  0
VERTEX
  8
0
 10
20.51049913
 20
8.83016399
  0
VERTEX
  8
0
 10
20.88705074
 20
8.76349582
  0
VERTEX
  8
0
 10
21.01098697
 20
8.73303560
  0
VERTEX
  8
0
 10
21.02841633
 20
8.72737834
  0
VERTEX
  8
0
 10
21.07471112
 20
8.71390443
  0
VERTEX
  8
0
 10
21.12055489
 20
8.69896612
  0
VERTEX
  8
0
 10
21.16590713
 20
8.68258885
  0
VERTEX
  8
0
 10
21.21072738
 20
8.66479805
  0
VERTEX
  8
0
 10
21.25497515
 20
8.64561918
  0
VERTEX
  8
0
 10
21.29860996
 20
8.62507767
  0
VERTEX
  8
0
 10
21.34159132
 20
8.60319896
  0
VERTEX
  8
0
 10
21.38387875
 20
8.58000849
  0
VERTEX
  8
0
 10
21.42543176
 20
8.55553171
  0
VERTEX
  8
0
 10
21.46620989
 20
8.52979405
  0
VERTEX
  8
0
 10
21.50617263
 20
8.50282096
  0
VERTEX
  8
0
 10
21.54527951
 20
8.47463787
  0
VERTEX
  8
0
 10
21.58349004
 20
8.44527024
  0
VERTEX
  8
0
 10
21.62076375
 20
8.41474349
  0
VERTEX
  8
0
 10
21.65706015
 20
8.38308307
  0
VERTEX
  8
0
 10
21.69233875
 20
8.35031442
  0
VERTEX
  8
0
 10
21.72655908
 20
8.31646298
  0
VERTEX
  8
0
 10
21.75968065
 20
8.28155419
  0
VERTEX
  8
0
 10
21.79166298
 20
8.24561349
  0
VERTEX
  8
0
 10
21.82246558
 20
8.20866633
  0
VERTEX
  8
0
 10
21.85204797
 20
8.17073815
  0
VERTEX
  8
0
 10
21.88036968
 20
8.13185438
  0
VERTEX
  8
0
 10
21.90739021
 20
8.09204046
  0
VERTEX
  8
0
 10
21.93306908
 20
8.05132185
  0
VERTEX
  8
0
 10
21.95736581
 20
8.00972397
  0
VERTEX
  8
0
 10
21.98023992
 20
7.96727227
  0
VERTEX
  8
0
 10
22.00165092
 20
7.92399219
  0
VERTEX
  8
0
 10
22.02155833
 20
7.87990917
  0
VERTEX
  8
0
 10
22.03992168
 20
7.83504866
  0
VERTEX
  8
0
 10
22.05405406
 20
7.79613922
  0
VERTEX
  8
0
 10
22.06729916
 20
7.75681830
  0
VERTEX
  8
0
 10
22.07964043
 20
7.71711804
  0
VERTEX
  8
0
 10
22.09106134
 20
7.67707059
  0
VERTEX
  8
0
 10
22.10154532
 20
7.63670810
  0
VERTEX
  8
0
 10
22.11107585
 20
7.59606272
  0
VERTEX
  8
0
 10
22.11963637
 20
7.55516658
  0
VERTEX
  8
0
 10
22.12721034
 20
7.51405184
  0
VERTEX
  8
0
 10
22.13378121
 20
7.47275065
  0
VERTEX
  8
0
 10
22.13933244
 20
7.43129515
  0
VERTEX
  8
0
 10
22.14384748
 20
7.38971748
  0
VERTEX
  8
0
 10
22.14730979
 20
7.34804980
  0
VERTEX
  8
0
 10
22.14970281
 20
7.30632426
  0
VERTEX
  8
0
 10
22.15101002
 20
7.26457299
  0
VERTEX
  8
0
 10
22.15121486
 20
7.22282815
  0
VERTEX
  8
0
 10
22.15030078
 20
7.18112188
  0
VERTEX
  8
0
 10
22.14825124
 20
7.13948633
  0
VERTEX
  8
0
 10
22.14504970
 20
7.09795365
  0
VERTEX
  8
0
 10
22.14067960
 20
7.05655598
  0
VERTEX
  8
0
 10
22.13512441
 20
7.01532547
  0
VERTEX
  8
0
 10
22.12836758
 20
6.97429426
  0
VERTEX
  8
0
 10
22.12039257
 20
6.93349452
  0
VERTEX
  8
0
 10
22.11118282
 20
6.89295837
  0
VERTEX
  8
0
 10
22.10072180
 20
6.85271797
  0
VERTEX
  8
0
 10
22.08899295
 20
6.81280546
  0
VERTEX
  8
0
 10
22.07597974
 20
6.77325300
  0
VERTEX
  8
0
 10
22.06166561
 20
6.73409272
  0
VERTEX
  8
0
 10
22.04603403
 20
6.69535678
  0
VERTEX
  8
0
 10
22.02906844
 20
6.65707733
  0
VERTEX
  8
0
 10
22.01090187
 20
6.62059172
  0
VERTEX
  8
0
 10
21.99190870
 20
6.58462745
  0
VERTEX
  8
0
 10
21.97211562
 20
6.54917479
  0
VERTEX
  8
0
 10
21.95154931
 20
6.51422405
  0
VERTEX
  8
0
 10
21.93023647
 20
6.47976550
  0
VERTEX
  8
0
 10
21.90820379
 20
6.44578944
  0
VERTEX
  8
0
 10
21.88547794
 20
6.41228615
  0
VERTEX
  8
0
 10
21.86208563
 20
6.37924593
  0
VERTEX
  8
0
 10
21.83805354
 20
6.34665907
  0
VERTEX
  8
0
 10
21.78817677
 20
6.28280655
  0
VERTEX
  8
0
 10
21.73606115
 20
6.22065092
  0
VERTEX
  8
0
 10
21.68192017
 20
6.16011448
  0
VERTEX
  8
0
 10
21.62596735
 20
6.10111955
  0
VERTEX
  8
0
 10
21.53910798
 20
6.01534754
  0
VERTEX
  8
0
 10
21.41894677
 20
5.90565505
  0
VERTEX
  8
0
 10
21.26415825
 20
5.77517112
  0
VERTEX
  8
0
 10
21.20666677
 20
5.73116350
  0
VERTEX
  8
0
 10
21.14848403
 20
5.68803365
  0
VERTEX
  8
0
 10
21.08962544
 20
5.64579457
  0
VERTEX
  8
0
 10
21.03010643
 20
5.60445921
  0
VERTEX
  8
0
 10
20.96994242
 20
5.56404057
  0
VERTEX
  8
0
 10
20.90914884
 20
5.52455161
  0
VERTEX
  8
0
 10
20.84774110
 20
5.48600532
  0
VERTEX
  8
0
 10
20.78573463
 20
5.44841466
  0
VERTEX
  8
0
 10
20.72314486
 20
5.41179262
  0
VERTEX
  8
0
 10
20.65998720
 20
5.37615217
  0
VERTEX
  8
0
 10
20.59627708
 20
5.34150629
  0
VERTEX
  8
0
 10
20.53202992
 20
5.30786796
  0
VERTEX
  8
0
 10
20.46726115
 20
5.27525014
  0
VERTEX
  8
0
 10
20.40198619
 20
5.24366583
  0
VERTEX
  8
0
 10
20.33622046
 20
5.21312798
  0
VERTEX
  8
0
 10
20.26997938
 20
5.18364959
  0
VERTEX
  8
0
 10
20.20327838
 20
5.15524362
  0
VERTEX
  8
0
 10
20.13613288
 20
5.12792305
  0
VERTEX
  8
0
 10
20.06855831
 20
5.10170087
  0
VERTEX
  8
0
 10
20.00057008
 20
5.07659003
  0
VERTEX
  8
0
 10
19.93218362
 20
5.05260354
  0
VERTEX
  8
0
 10
19.86341436
 20
5.02975434
  0
VERTEX
  8
0
 10
19.79427771
 20
5.00805544
  0
VERTEX
  8
0
 10
19.72478910
 20
4.98751979
  0
VERTEX
  8
0
 10
19.65496395
 20
4.96816038
  0
VERTEX
  8
0
 10
19.58481769
 20
4.94999018
  0
VERTEX
  8
0
 10
19.51436574
 20
4.93302218
  0
VERTEX
  8
0
 10
19.44362351
 20
4.91726934
  0
VERTEX
  8
0
 10
19.37260645
 20
4.90274464
  0
VERTEX
  8
0
 10
19.31816080
 20
4.89222546
  0
VERTEX
  8
0
 10
19.23618990
 20
4.88026343
  0
VERTEX
  8
0
 10
19.12643277
 20
4.87051463
  0
VERTEX
  8
0
 10
18.93352193
 20
4.86655322
  0
VERTEX
  8
0
 10
18.57496153
 20
4.88054694
  0
VERTEX
  8
0
 10
18.59345663
 20
4.92219630
  0
VERTEX
  8
0
 10
18.61335664
 20
4.96281443
  0
VERTEX
  8
0
 10
18.63460358
 20
5.00243582
  0
VERTEX
  8
0
 10
18.65713948
 20
5.04109495
  0
VERTEX
  8
0
 10
18.68090637
 20
5.07882629
  0
VERTEX
  8
0
 10
18.70584628
 20
5.11566434
  0
VERTEX
  8
0
 10
18.73190124
 20
5.15164356
  0
VERTEX
  8
0
 10
18.75901326
 20
5.18679844
  0
VERTEX
  8
0
 10
18.78712439
 20
5.22116347
  0
VERTEX
  8
0
 10
18.81617665
 20
5.25477311
  0
VERTEX
  8
0
 10
18.84611206
 20
5.28766185
  0
VERTEX
  8
0
 10
18.87687265
 20
5.31986417
  0
VERTEX
  8
0
 10
18.90840046
 20
5.35141455
  0
VERTEX
  8
0
 10
18.94063750
 20
5.38234747
  0
VERTEX
  8
0
 10
18.97352581
 20
5.41269741
  0
VERTEX
  8
0
 10
19.00700742
 20
5.44249886
  0
VERTEX
  8
0
 10
19.07551861
 20
5.50059417
  0
VERTEX
  8
0
 10
19.18128580
 20
5.58448540
  0
VERTEX
  8
0
 10
19.46988053
 20
5.79569278
  0
VERTEX
  8
0
 10
19.80675295
 20
6.06198694
  0
VERTEX
  8
0
 10
19.87496096
 20
6.12841791
  0
VERTEX
  8
0
 10
19.92312110
 20
6.18118803
  0
VERTEX
  8
0
 10
19.96823052
 20
6.23690086
  0
VERTEX
  8
0
 10
19.98251395
 20
6.25619059
  0
VERTEX
  8
0
 10
19.93553849
 20
6.24512727
  0
VERTEX
  8
0
 10
19.88908438
 20
6.23276243
  0
VERTEX
  8
0
 10
19.84311971
 20
6.21917501
  0
VERTEX
  8
0
 10
19.79761256
 20
6.20444396
  0
VERTEX
  8
0
 10
19.75253101
 20
6.18864823
  0
VERTEX
  8
0
 10
19.70784317
 20
6.17186675
  0
VERTEX
  8
0
 10
19.66351709
 20
6.15417849
  0
VERTEX
  8
0
 10
19.61952089
 20
6.13566239
  0
VERTEX
  8
0
 10
19.53239041
 20
6.09646245
  0
VERTEX
  8
0
 10
19.40337082
 20
6.03342743
  0
VERTEX
  8
0
 10
18.97745973
 20
5.81226428
  0
VERTEX
  8
0
 10
18.89112958
 20
5.77072918
  0
VERTEX
  8
0
 10
18.80382105
 20
5.73156694
  0
VERTEX
  8
0
 10
18.75972011
 20
5.71307301
  0
VERTEX
  8
0
 10
18.71527883
 20
5.69540914
  0
VERTEX
  8
0
 10
18.62075153
 20
5.65979499
  0
VERTEX
  8
0
 10
18.52471525
 20
5.62840221
  0
VERTEX
  8
0
 10
18.42736926
 20
5.60133569
  0
VERTEX
  8
0
 10
18.32891278
 20
5.57870030
  0
VERTEX
  8
0
 10
18.22954509
 20
5.56060094
  0
VERTEX
  8
0
 10
18.16289212
 20
5.55110651
  0
VERTEX
  8
0
 10
18.09598176
 20
5.54370578
  0
VERTEX
  8
0
 10
18.02887304
 20
5.53842983
  0
VERTEX
  8
0
 10
17.96162501
 20
5.53530974
  0
VERTEX
  8
0
 10
17.89429669
 20
5.53437659
  0
VERTEX
  8
0
 10
17.82694713
 20
5.53566146
  0
VERTEX
  8
0
 10
17.75963536
 20
5.53919541
  0
VERTEX
  8
0
 10
17.86834551
 20
5.84767848
  0
VERTEX
  8
0
 10
17.86011855
 20
5.85205743
  0
VERTEX
  8
0
 10
17.85182063
 20
5.85561631
  0
VERTEX
  8
0
 10
17.83502979
 20
5.86046016
  0
VERTEX
  8
0
 10
17.81800872
 20
5.86258265
  0
VERTEX
  8
0
 10
17.80079316
 20
5.86235641
  0
VERTEX
  8
0
 10
17.76592143
 20
5.85634829
  0
VERTEX
  8
0
 10
17.63437526
 20
5.81430729
  0
VERTEX
  8
0
 10
17.61727450
 20
5.81191717
  0
VERTEX
  8
0
 10
17.61883148
 20
5.83047803
  0
VERTEX
  8
0
 10
17.62127961
 20
5.84869802
  0
VERTEX
  8
0
 10
17.62459253
 20
5.86657116
  0
VERTEX
  8
0
 10
17.62874384
 20
5.88409148
  0
VERTEX
  8
0
 10
17.63370719
 20
5.90125300
  0
VERTEX
  8
0
 10
17.63945618
 20
5.91804975
  0
VERTEX
  8
0
 10
17.64596445
 20
5.93447575
  0
VERTEX
  8
0
 10
17.65320562
 20
5.95052502
  0
VERTEX
  8
0
 10
17.66115332
 20
5.96619159
  0
VERTEX
  8
0
 10
17.66978117
 20
5.98146949
  0
VERTEX
  8
0
 10
17.67906279
 20
5.99635273
  0
VERTEX
  8
0
 10
17.69948186
 20
6.02491135
  0
VERTEX
  8
0
 10
17.72219951
 20
6.05181964
  0
VERTEX
  8
0
 10
17.74700476
 20
6.07702980
  0
VERTEX
  8
0
 10
17.77368658
 20
6.10049402
  0
VERTEX
  8
0
 10
17.80203399
 20
6.12216450
  0
VERTEX
  8
0
 10
17.83183598
 20
6.14199342
  0
VERTEX
  8
0
 10
17.86288154
 20
6.15993298
  0
VERTEX
  8
0
 10
17.89495967
 20
6.17593537
  0
VERTEX
  8
0
 10
17.92785937
 20
6.18995279
  0
VERTEX
  8
0
 10
17.98154260
 20
6.21129110
  0
VERTEX
  8
0
 10
18.03559323
 20
6.23132006
  0
VERTEX
  8
0
 10
18.08998604
 20
6.25013034
  0
VERTEX
  8
0
 10
18.14469580
 20
6.26781261
  0
VERTEX
  8
0
 10
18.19969727
 20
6.28445753
  0
VERTEX
  8
0
 10
18.25496524
 20
6.30015578
  0
VERTEX
  8
0
 10
18.31047445
 20
6.31499802
  0
VERTEX
  8
0
 10
18.42211575
 20
6.34247715
  0
VERTEX
  8
0
 10
18.59075641
 20
6.37954250
  0
VERTEX
  8
0
 10
19.09880736
 20
6.48368284
  0
VERTEX
  8
0
 10
19.21084616
 20
6.51004218
  0
VERTEX
  8
0
 10
19.26659672
 20
6.52420454
  0
VERTEX
  8
0
 10
19.32213442
 20
6.53914293
  0
VERTEX
  8
0
 10
19.37743402
 20
6.55494800
  0
VERTEX
  8
0
 10
19.43247029
 20
6.57171044
  0
VERTEX
  8
0
 10
19.48721801
 20
6.58952090
  0
VERTEX
  8
0
 10
19.54165196
 20
6.60847006
  0
VERTEX
  8
0
 10
19.70932827
 20
6.68930868
  0
VERTEX
  8
0
 10
19.76848289
 20
6.73404134
  0
VERTEX
  8
0
 10
19.80323491
 20
6.76911781
  0
VERTEX
  8
0
 10
19.82624683
 20
6.79854400
  0
VERTEX
  8
0
 10
19.83326664
 20
6.80898900
  0
VERTEX
  8
0
 10
19.84718852
 20
6.83322554
  0
VERTEX
  8
0
 10
19.85968367
 20
6.86719301
  0
VERTEX
  8
0
 10
19.86924225
 20
6.93901216
  0
VERTEX
  8
0
 10
19.86632666
 20
7.06725830
  0
VERTEX
  8
0
 10
19.83105081
 20
7.06809763
  0
VERTEX
  8
0
 10
19.79612156
 20
7.06742732
  0
VERTEX
  8
0
 10
19.76151671
 20
7.06534182
  0
VERTEX
  8
0
 10
19.72721407
 20
7.06193556
  0
VERTEX
  8
0
 10
19.69319143
 20
7.05730299
  0
VERTEX
  8
0
 10
19.65942659
 20
7.05153855
  0
VERTEX
  8
0
 10
19.62589737
 20
7.04473668
  0
VERTEX
  8
0
 10
19.59258155
 20
7.03699182
  0
VERTEX
  8
0
 10
19.55945694
 20
7.02839843
  0
VERTEX
  8
0
 10
19.49369255
 20
7.00904377
  0
VERTEX
  8
0
 10
19.23384370
 20
6.91657180
  0
VERTEX
  8
0
 10
19.10335823
 20
6.87188133
  0
VERTEX
  8
0
 10
19.03735368
 20
6.85256685
  0
VERTEX
  8
0
 10
19.00408325
 20
6.84399784
  0
VERTEX
  8
0
 10
18.97060446
 20
6.83628026
  0
VERTEX
  8
0
 10
18.93689511
 20
6.82950852
  0
VERTEX
  8
0
 10
18.90293299
 20
6.82377709
  0
VERTEX
  8
0
 10
18.91118193
 20
6.85393544
  0
VERTEX
  8
0
 10
18.92064002
 20
6.88345874
  0
VERTEX
  8
0
 10
18.93126705
 20
6.91235072
  0
VERTEX
  8
0
 10
18.94302276
 20
6.94061511
  0
VERTEX
  8
0
 10
18.95586692
 20
6.96825563
  0
VERTEX
  8
0
 10
18.96975931
 20
6.99527603
  0
VERTEX
  8
0
 10
18.98465969
 20
7.02168003
  0
VERTEX
  8
0
 10
19.00052782
 20
7.04747137
  0
VERTEX
  8
0
 10
19.01732347
 20
7.07265377
  0
VERTEX
  8
0
 10
19.03500640
 20
7.09723098
  0
VERTEX
  8
0
 10
19.05353638
 20
7.12120671
  0
VERTEX
  8
0
 10
19.07287317
 20
7.14458471
  0
VERTEX
  8
0
 10
19.09297655
 20
7.16736870
  0
VERTEX
  8
0
 10
19.11380627
 20
7.18956241
  0
VERTEX
  8
0
 10
19.13532211
 20
7.21116958
  0
VERTEX
  8
0
 10
19.15748382
 20
7.23219394
  0
VERTEX
  8
0
 10
19.18025117
 20
7.25263923
  0
VERTEX
  8
0
 10
19.20358394
 20
7.27250916
  0
VERTEX
  8
0
 10
19.22744188
 20
7.29180748
  0
VERTEX
  8
0
 10
19.27657234
 20
7.32870419
  0
VERTEX
  8
0
 10
19.32732068
 20
7.36335923
  0
VERTEX
  8
0
 10
19.37936504
 20
7.39580243
  0
VERTEX
  8
0
 10
19.43238353
 20
7.42606365
  0
VERTEX
  8
0
 10
19.48605428
 20
7.45417275
  0
VERTEX
  8
0
 10
19.58722714
 20
7.50628536
  0
VERTEX
  8
0
 10
19.96778722
 20
7.68848494
  0
VERTEX
  8
0
 10
20.03541599
 20
7.72424176
  0
VERTEX
  8
0
 10
20.10164521
 20
7.76199870
  0
VERTEX
  8
0
 10
20.13412019
 20
7.78177610
  0
VERTEX
  8
0
 10
20.16610754
 20
7.80223217
  0
VERTEX
  8
0
 10
20.19756133
 20
7.82342648
  0
VERTEX
  8
0
 10
20.22843565
 20
7.84541858
  0
VERTEX
  8
0
 10
20.25868458
 20
7.86826800
  0
VERTEX
  8
0
 10
20.28826221
 20
7.89203432
  0
VERTEX
  8
0
 10
20.31712261
 20
7.91677707
  0
VERTEX
  8
0
 10
20.34521988
 20
7.94255580
  0
VERTEX
  8
0
 10
20.37250809
 20
7.96943007
  0
VERTEX
  8
0
 10
20.39894133
 20
7.99745943
  0
VERTEX
  8
0
 10
20.42447368
 20
8.02670342
  0
VERTEX
  8
0
 10
20.48050900
 20
8.10377764
  0
VERTEX
  8
0
 10
20.57218777
 20
8.30063510
  0
VERTEX
  8
0
 10
20.59784335
 20
8.37806076
  0
VERTEX
  8
0
 10
20.53071184
 20
8.33903238
  0
VERTEX
  8
0
 10
20.46392262
 20
8.29922599
  0
VERTEX
  8
0
 10
20.33117809
 20
8.21769477
  0
VERTEX
  8
0
 10
19.80424243
 20
7.88122739
  0
VERTEX
  8
0
 10
19.67158924
 20
7.79868043
  0
VERTEX
  8
0
 10
19.60485939
 20
7.75821382
  0
VERTEX
  8
0
 10
19.53779639
 20
7.71842364
  0
VERTEX
  8
0
 10
19.47035197
 20
7.67941377
  0
VERTEX
  8
0
 10
19.40247790
 20
7.64128811
  0
VERTEX
  8
0
 10
19.33412592
 20
7.60415053
  0
VERTEX
  8
0
 10
19.26524779
 20
7.56810494
  0
VERTEX
  8
0
 10
19.19579526
 20
7.53325522
  0
VERTEX
  8
0
 10
19.12572008
 20
7.49970525
  0
VERTEX
  8
0
 10
19.05497401
 20
7.46755892
  0
VERTEX
  8
0
 10
18.98350880
 20
7.43692013
  0
VERTEX
  8
0
 10
18.91127620
 20
7.40789275
  0
VERTEX
  8
0
 10
18.83822797
 20
7.38058068
  0
VERTEX
  8
0
 10
18.76431586
 20
7.35508781
  0
VERTEX
  8
0
 10
18.68949161
 20
7.33151801
  0
VERTEX
  8
0
 10
18.61370699
 20
7.30997519
  0
VERTEX
  8
0
 10
18.59639247
 20
7.36736013
  0
VERTEX
  8
0
 10
18.58303328
 20
7.42688181
  0
VERTEX
  8
0
 10
18.57663807
 20
7.46734399
  0
VERTEX
  8
0
 10
18.57247103
 20
7.50814685
  0
VERTEX
  8
0
 10
18.57072026
 20
7.54904676
  0
VERTEX
  8
0
 10
18.57157387
 20
7.58980015
  0
VERTEX
  8
0
 10
18.57521995
 20
7.63016341
  0
VERTEX
  8
0
 10
18.57814895
 20
7.65012262
  0
VERTEX
  8
0
 10
18.58184661
 20
7.66989295
  0
VERTEX
  8
0
 10
18.58633643
 20
7.68944395
  0
VERTEX
  8
0
 10
18.59164194
 20
7.70874516
  0
VERTEX
  8
0
 10
18.59778663
 20
7.72776615
  0
VERTEX
  8
0
 10
18.60479404
 20
7.74647646
  0
VERTEX
  8
0
 10
18.61268766
 20
7.76484564
  0
VERTEX
  8
0
 10
18.62149101
 20
7.78284324
  0
VERTEX
  8
0
 10
18.63122760
 20
7.80043881
  0
VERTEX
  8
0
 10
18.64192095
 20
7.81760191
  0
VERTEX
  8
0
 10
18.65359456
 20
7.83430207
  0
VERTEX
  8
0
 10
18.66627196
 20
7.85050886
  0
VERTEX
  8
0
 10
18.67997664
 20
7.86619183
  0
VERTEX
  8
0
 10
18.71139901
 20
7.89644277
  0
VERTEX
  8
0
 10
18.74427970
 20
7.92431648
  0
VERTEX
  8
0
 10
18.77850082
 20
7.95000245
  0
VERTEX
  8
0
 10
18.81394448
 20
7.97369015
  0
VERTEX
  8
0
 10
18.85049276
 20
7.99556905
  0
VERTEX
  8
0
 10
18.88802778
 20
8.01582862
  0
VERTEX
  8
0
 10
18.92643164
 20
8.03465834
  0
VERTEX
  8
0
 10
18.96558644
 20
8.05224768
  0
VERTEX
  8
0
 10
19.00537428
 20
8.06878611
  0
VERTEX
  8
0
 10
19.04567727
 20
8.08446312
  0
VERTEX
  8
0
 10
19.25079298
 20
8.15655821
  0
VERTEX
  8
0
 10
19.33231887
 20
8.18599780
  0
VERTEX
  8
0
 10
19.37249871
 20
8.20160439
  0
VERTEX
  8
0
 10
19.41213262
 20
8.21805481
  0
VERTEX
  8
0
 10
19.45110270
 20
8.23553853
  0
VERTEX
  8
0
 10
19.48929106
 20
8.25424502
  0
VERTEX
  8
0
 10
19.52657979
 20
8.27436377
  0
VERTEX
  8
0
 10
19.56285099
 20
8.29608424
  0
VERTEX
  8
0
 10
19.59798678
 20
8.31959590
  0
VERTEX
  8
0
 10
19.63186925
 20
8.34508824
  0
VERTEX
  8
0
 10
19.66438051
 20
8.37275072
  0
VERTEX
  8
0
 10
19.69540265
 20
8.40277281
  0
VERTEX
  8
0
 10
19.72481779
 20
8.43534400
  0
VERTEX
  8
0
 10
19.75250802
 20
8.47065375
  0
VERTEX
  8
0
 10
19.65945771
 20
8.44533146
  0
VERTEX
  8
0
 10
19.59603325
 20
8.43043311
  0
VERTEX
  8
0
 10
19.53176936
 20
8.41751718
  0
VERTEX
  8
0
 10
19.46690030
 20
8.40692296
  0
VERTEX
  8
0
 10
19.40166034
 20
8.39898979
  0
VERTEX
  8
0
 10
19.36897448
 20
8.39612713
  0
VERTEX
  8
0
 10
19.33628375
 20
8.39405697
  0
VERTEX
  8
0
 10
19.30361742
 20
8.39282173
  0
VERTEX
  8
0
 10
19.27100478
 20
8.39246382
  0
VERTEX
  8
0
 10
19.23847512
 20
8.39302566
  0
VERTEX
  8
0
 10
19.20605771
 20
8.39454966
  0
VERTEX
  8
0
 10
19.17378184
 20
8.39707823
  0
VERTEX
  8
0
 10
19.14167679
 20
8.40065379
  0
VERTEX
  8
0
 10
19.10977185
 20
8.40531876
  0
VERTEX
  8
0
 10
19.07809630
 20
8.41111554
  0
VERTEX
  8
0
 10
19.04667941
 20
8.41808656
  0
VERTEX
  8
0
 10
19.01555049
 20
8.42627422
  0
VERTEX
  8
0
 10
18.98473880
 20
8.43572095
  0
VERTEX
  8
0
 10
18.95427363
 20
8.44646915
  0
VERTEX
  8
0
 10
18.92418426
 20
8.45856123
  0
VERTEX
  8
0
 10
18.89449998
 20
8.47203963
  0
VERTEX
  8
0
 10
18.86525007
 20
8.48694674
  0
VERTEX
  8
0
 10
18.83646382
 20
8.50332498
  0
VERTEX
  8
0
 10
18.82282579
 20
8.53845675
  0
VERTEX
  8
0
 10
18.81339733
 20
8.57449542
  0
VERTEX
  8
0
 10
18.80543375
 20
8.63608199
  0
VERTEX
  8
0
 10
18.81774178
 20
8.86148078
  0
VERTEX
  8
0
 10
19.33143837
 20
8.90977609
  0
VERTEX
  8
0
 10
19.32439516
 20
8.93678761
  0
VERTEX
  8
0
 10
19.31561152
 20
8.96212249
  0
VERTEX
  8
0
 10
19.30517291
 20
8.98584087
  0
VERTEX
  8
0
 10
19.29316478
 20
9.00800291
  0
VERTEX
  8
0
 10
19.27967261
 20
9.02866875
  0
VERTEX
  8
0
 10
19.26478186
 20
9.04789855
  0
VERTEX
  8
0
 10
19.24857798
 20
9.06575247
  0
VERTEX
  8
0
 10
19.23114645
 20
9.08229065
  0
VERTEX
  8
0
 10
19.21257272
 20
9.09757325
  0
VERTEX
  8
0
 10
19.19294226
 20
9.11166042
  0
VERTEX
  8
0
 10
19.17234052
 20
9.12461231
  0
VERTEX
  8
0
 10
19.15085298
 20
9.13648907
  0
VERTEX
  8
0
 10
19.12856510
 20
9.14735086
  0
VERTEX
  8
0
 10
19.10556233
 20
9.15725783
  0
VERTEX
  8
0
 10
19.08193015
 20
9.16627013
  0
VERTEX
  8
0
 10
19.05775401
 20
9.17444791
  0
VERTEX
  8
0
 10
19.03311937
 20
9.18185133
  0
VERTEX
  8
0
 10
18.98281647
 20
9.19457568
  0
VERTEX
  8
0
 10
18.90606000
 20
9.20935829
  0
VERTEX
  8
0
 10
18.80487682
 20
9.22356083
  0
VERTEX
  8
0
 10
18.75632019
 20
9.22938444
  0
VERTEX
  8
0
 10
18.73284974
 20
9.23218737
  0
VERTEX
  8
0
 10
18.77618630
 20
9.37277557
  0
VERTEX
  8
0
 10
18.81628174
 20
9.46997929
  0
VERTEX
  8
0
 10
18.85452465
 20
9.54465024
  0
VERTEX
  8
0
 10
18.88710242
 20
9.59834130
  0
VERTEX
  8
0
 10
18.92323242
 20
9.64968735
  0
VERTEX
  8
0
 10
18.94938729
 20
9.68245385
  0
VERTEX
  8
0
 10
18.97726304
 20
9.71393599
  0
VERTEX
  8
0
 10
19.00691651
 20
9.74403694
  0
VERTEX
  8
0
 10
19.02242766
 20
9.75853920
  0
VERTEX
  8
0
 10
19.04359506
 20
9.77909936
  0
VERTEX
  8
0
 10
19.06527010
 20
9.79889578
  0
VERTEX
  8
0
 10
19.08742707
 20
9.81796624
  0
VERTEX
  8
0
 10
19.11004027
 20
9.83634854
  0
VERTEX
  8
0
 10
19.15653250
 20
9.87119990
  0
VERTEX
  8
0
 10
19.20454114
 20
9.90375227
  0
VERTEX
  8
0
 10
19.25386053
 20
9.93430806
  0
VERTEX
  8
0
 10
19.35560895
 20
9.99063956
  0
VERTEX
  8
0
 10
19.74844950
 20
10.18282656
  0
VERTEX
  8
0
 10
19.45679093
 20
10.20592832
  0
VERTEX
  8
0
 10
19.36002334
 20
10.19288910
  0
VERTEX
  8
0
 10
19.34630092
 20
10.18977710
  0
VERTEX
  8
0
 10
19.31885364
 20
10.18381454
  0
VERTEX
  8
0
 10
19.29177531
 20
10.17698163
  0
VERTEX
  8
0
 10
19.26504418
 20
10.16932929
  0
VERTEX
  8
0
 10
19.23863853
 20
10.16090839
  0
VERTEX
  8
0
 10
19.18671672
 20
10.14196455
  0
VERTEX
  8
0
 10
19.13583601
 20
10.12055725
  0
VERTEX
  8
0
 10
19.06108670
 20
10.08471802
  0
VERTEX
  8
0
 10
18.74540659
 20
9.90947432
  0
VERTEX
  8
0
 10
18.67115398
 20
9.87216794
  0
VERTEX
  8
0
 10
18.62070790
 20
9.84947689
  0
VERTEX
  8
0
 10
18.64527352
 20
9.90845718
  0
VERTEX
  8
0
 10
18.68566667
 20
9.99528282
  0
VERTEX
  8
0
 10
18.73019965
 20
10.07999420
  0
VERTEX
  8
0
 10
18.77874441
 20
10.16243328
  0
VERTEX
  8
0
 10
18.83117291
 20
10.24244199
  0
VERTEX
  8
0
 10
18.88735710
 20
10.31986226
  0
VERTEX
  8
0
 10
18.94716893
 20
10.39453605
  0
VERTEX
  8
0
 10
19.01048037
 20
10.46630529
  0
VERTEX
  8
0
 10
19.07716337
 20
10.53501192
  0
VERTEX
  8
0
 10
19.14708987
 20
10.60049788
  0
VERTEX
  8
0
 10
19.05255784
 20
10.74439644
  0
VERTEX
  8
0
 10
18.91874713
 20
10.87116293
  0
VERTEX
  8
0
 10
18.83849259
 20
10.80577195
  0
VERTEX
  8
0
 10
18.76012905
 20
10.73855929
  0
VERTEX
  8
0
 10
18.68360905
 20
10.66959016
  0
VERTEX
  8
0
 10
18.60888514
 20
10.59892979
  0
VERTEX
  8
0
 10
18.53590987
 20
10.52664339
  0
VERTEX
  8
0
 10
18.46463578
 20
10.45279618
  0
VERTEX
  8
0
 10
18.39501544
 20
10.37745339
  0
VERTEX
  8
0
 10
18.32700139
 20
10.30068022
  0
VERTEX
  8
0
 10
18.26054618
 20
10.22254192
  0
VERTEX
  8
0
 10
18.19560236
 20
10.14310368
  0
VERTEX
  8
0
 10
18.13212248
 20
10.06243074
  0
VERTEX
  8
0
 10
18.07005909
 20
9.98058831
  0
VERTEX
  8
0
 10
18.00936474
 20
9.89764161
  0
VERTEX
  8
0
 10
17.94999198
 20
9.81365587
  0
VERTEX
  8
0
 10
17.89189336
 20
9.72869630
  0
VERTEX
  8
0
 10
17.83502143
 20
9.64282812
  0
VERTEX
  8
0
 10
17.77932875
 20
9.55611655
  0
VERTEX
  8
0
 10
17.72476785
 20
9.46862682
  0
VERTEX
  8
0
 10
17.67129129
 20
9.38042414
  0
VERTEX
  8
0
 10
17.61885162
 20
9.29157373
  0
VERTEX
  8
0
 10
17.56740139
 20
9.20214081
  0
VERTEX
  8
0
 10
17.51689315
 20
9.11219061
  0
VERTEX
  8
0
 10
17.46727946
 20
9.02178834
  0
VERTEX
  8
0
 10
17.41851285
 20
8.93099922
  0
VERTEX
  8
0
 10
17.37054588
 20
8.83988847
  0
VERTEX
  8
0
 10
17.27682106
 20
8.65696297
  0
VERTEX
  8
0
 10
17.18572540
 20
8.47353360
  0
VERTEX
  8
0
 10
16.64373909
 20
7.31239470
  0
VERTEX
  8
0
 10
16.55318215
 20
7.12852259
  0
VERTEX
  8
0
 10
16.55921684
 20
7.19829536
  0
VERTEX
  8
0
 10
16.56634708
 20
7.26790881
  0
VERTEX
  8
0
 10
16.57454563
 20
7.33736100
  0
VERTEX
  8
0
 10
16.58378521
 20
7.40664995
  0
VERTEX
  8
0
 10
16.59403856
 20
7.47577371
  0
VERTEX
  8
0
 10
16.60527844
 20
7.54473033
  0
VERTEX
  8
0
 10
16.61747757
 20
7.61351784
  0
VERTEX
  8
0
 10
16.63060869
 20
7.68213429
  0
VERTEX
  8
0
 10
16.64464455
 20
7.75057771
  0
VERTEX
  8
0
 10
16.65955789
 20
7.81884615
  0
VERTEX
  8
0
 10
16.67532145
 20
7.88693765
  0
VERTEX
  8
0
 10
16.69190796
 20
7.95485024
  0
VERTEX
  8
0
 10
16.70929017
 20
8.02258198
  0
VERTEX
  8
0
 10
16.72744081
 20
8.09013091
  0
VERTEX
  8
0
 10
16.74633263
 20
8.15749505
  0
VERTEX
  8
0
 10
16.78623076
 20
8.29166119
  0
VERTEX
  8
0
 10
16.82876646
 20
8.42506471
  0
VERTEX
  8
0
 10
16.87372168
 20
8.55768996
  0
VERTEX
  8
0
 10
16.92087831
 20
8.68952126
  0
VERTEX
  8
0
 10
16.99526387
 20
8.88574529
  0
VERTEX
  8
0
 10
17.07337593
 20
9.08009480
  0
VERTEX
  8
0
 10
17.51012936
 20
10.07470948
  0
VERTEX
  8
0
 10
17.62242467
 20
10.34873658
  0
VERTEX
  8
0
 10
17.64009080
 20
10.39484302
  0
VERTEX
  8
0
 10
17.47734779
 20
10.32016116
  0
VERTEX
  8
0
 10
17.37124424
 20
10.26399165
  0
VERTEX
  8
0
 10
17.29397756
 20
10.21788489
  0
VERTEX
  8
0
 10
17.24391480
 20
10.18504452
  0
VERTEX
  8
0
 10
17.19522721
 20
10.15039304
  0
VERTEX
  8
0
 10
17.14810032
 20
10.11381982
  0
VERTEX
  8
0
 10
17.10271969
 20
10.07521420
  0
VERTEX
  8
0
 10
17.08074220
 20
10.05511466
  0
VERTEX
  8
0
 10
17.05927086
 20
10.03446554
  0
VERTEX
  8
0
 10
17.03832885
 20
10.01325299
  0
VERTEX
  8
0
 10
17.01793937
 20
9.99146319
  0
VERTEX
  8
0
 10
16.99812561
 20
9.96908230
  0
VERTEX
  8
0
 10
16.97891077
 20
9.94609651
  0
VERTEX
  8
0
 10
16.96031803
 20
9.92249197
  0
VERTEX
  8
0
 10
16.94237060
 20
9.89825485
  0
VERTEX
  8
0
 10
16.92516603
 20
9.87329007
  0
VERTEX
  8
0
 10
16.90913441
 20
9.84776408
  0
VERTEX
  8
0
 10
16.89418392
 20
9.82172115
  0
VERTEX
  8
0
 10
16.88022270
 20
9.79520555
  0
VERTEX
  8
0
 10
16.86715892
 20
9.76826152
  0
VERTEX
  8
0
 10
16.85490076
 20
9.74093335
  0
VERTEX
  8
0
 10
16.83243393
 20
9.68530161
  0
VERTEX
  8
0
 10
16.75642393
 20
9.45626131
  0
VERTEX
  8
0
 10
16.72707010
 20
9.37084931
  0
VERTEX
  8
0
 10
16.70525352
 20
9.31501190
  0
VERTEX
  8
0
 10
16.69339550
 20
9.28755716
  0
VERTEX
  8
0
 10
16.68078190
 20
9.26047075
  0
VERTEX
  8
0
 10
16.66732087
 20
9.23379694
  0
VERTEX
  8
0
 10
16.65292058
 20
9.20757998
  0
VERTEX
  8
0
 10
16.63748919
 20
9.18186415
  0
VERTEX
  8
0
 10
16.62093486
 20
9.15669370
  0
VERTEX
  8
0
 10
16.60316577
 20
9.13211290
  0
VERTEX
  8
0
 10
16.58409007
 20
9.10816601
  0
VERTEX
  8
0
 10
16.56446138
 20
9.08491226
  0
VERTEX
  8
0
 10
16.54410952
 20
9.06253771
  0
VERTEX
  8
0
 10
16.52306399
 20
9.04101955
  0
VERTEX
  8
0
 10
16.50135426
 20
9.02033500
  0
VERTEX
  8
0
 10
16.47900980
 20
9.00046126
  0
VERTEX
  8
0
 10
16.45606010
 20
8.98137555
  0
VERTEX
  8
0
 10
16.43253464
 20
8.96305508
  0
VERTEX
  8
0
 10
16.40846290
 20
8.94547704
  0
VERTEX
  8
0
 10
16.38387435
 20
8.92861865
  0
VERTEX
  8
0
 10
16.35879847
 20
8.91245711
  0
VERTEX
  8
0
 10
16.33326474
 20
8.89696965
  0
VERTEX
  8
0
 10
16.30730265
 20
8.88213345
  0
VERTEX
  8
0
 10
16.25421127
 20
8.85432371
  0
VERTEX
  8
0
 10
16.19976016
 20
8.82884556
  0
VERTEX
  8
0
 10
16.14418515
 20
8.80551666
  0
VERTEX
  8
0
 10
16.05923121
 20
8.77415430
  0
VERTEX
  8
0
 10
15.94422674
 20
8.73815842
  0
VERTEX
  8
0
 10
15.82897165
 20
8.70747753
  0
VERTEX
  8
0
 10
15.09917833
 20
8.55313392
  0
VERTEX
  8
0
 10
15.10210764
 20
8.24867158
  0
VERTEX
  8
0
 10
15.12614304
 20
8.02170790
  0
VERTEX
  8
0
 10
15.15974437
 20
7.84722155
  0
VERTEX
  8
0
 10
15.16569461
 20
7.82249367
  0
VERTEX
  8
0
 10
15.31299176
 20
7.27096399
  0
VERTEX
  8
0
 10
15.33697823
 20
7.14920282
  0
VERTEX
  8
0
 10
15.34073908
 20
7.12460566
  0
VERTEX
  8
0
 10
15.29557670
 20
7.17229100
  0
VERTEX
  8
0
 10
15.23998658
 20
7.23948597
  0
VERTEX
  8
0
 10
15.16493943
 20
7.34656374
  0
VERTEX
  8
0
 10
14.99524251
 20
7.65184704
  0
VERTEX
  8
0
 10
14.96489115
 20
7.71476259
  0
VERTEX
  8
0
 10
14.93565791
 20
7.77811549
  0
VERTEX
  8
0
 10
14.90751421
 20
7.84188883
  0
VERTEX
  8
0
 10
14.88043142
 20
7.90606575
  0
VERTEX
  8
0
 10
14.85438095
 20
7.97062936
  0
VERTEX
  8
0
 10
14.82933418
 20
8.03556276
  0
VERTEX
  8
0
 10
14.80526252
 20
8.10084908
  0
VERTEX
  8
0
 10
14.78213734
 20
8.16647142
  0
VERTEX
  8
0
 10
14.75993005
 20
8.23241291
  0
VERTEX
  8
0
 10
14.73861204
 20
8.29865666
  0
VERTEX
  8
0
 10
14.71815470
 20
8.36518579
  0
VERTEX
  8
0
 10
14.69852942
 20
8.43198340
  0
VERTEX
  8
0
 10
14.67970760
 20
8.49903262
  0
VERTEX
  8
0
 10
14.66166064
 20
8.56631655
  0
VERTEX
  8
0
 10
14.64435992
 20
8.63381832
  0
VERTEX
  8
0
 10
14.61188279
 20
8.76940782
  0
VERTEX
  8
0
 10
14.58204735
 20
8.90566604
  0
VERTEX
  8
0
 10
14.55462476
 20
9.04245789
  0
VERTEX
  8
0
 10
14.51751434
 20
9.24835074
  0
VERTEX
  8
0
 10
14.47434277
 20
9.52348150
  0
VERTEX
  8
0
 10
14.46448577
 20
9.59226001
  0
VERTEX
  8
0
 10
14.35736180
 20
10.68015670
  0
VERTEX
  8
0
 10
14.35430392
 20
10.76108000
  0
VERTEX
  8
0
 10
14.38788914
 20
10.71164715
  0
VERTEX
  8
0
 10
14.41919152
 20
10.66117831
  0
VERTEX
  8
0
 10
14.44838033
 20
10.60975054
  0
VERTEX
  8
0
 10
14.47562481
 20
10.55744089
  0
VERTEX
  8
0
 10
14.50109423
 20
10.50432640
  0
VERTEX
  8
0
 10
14.52495785
 20
10.45048413
  0
VERTEX
  8
0
 10
14.54738493
 20
10.39599113
  0
VERTEX
  8
0
 10
14.56854472
 20
10.34092445
  0
VERTEX
  8
0
 10
14.58860649
 20
10.28536114
  0
VERTEX
  8
0
 10
14.60773948
 20
10.22937825
  0
VERTEX
  8
0
 10
14.64389621
 20
10.11646195
  0
VERTEX
  8
0
 10
14.74767887
 20
9.77565655
  0
VERTEX
  8
0
 10
14.76606960
 20
9.71936479
  0
VERTEX
  8
0
 10
14.78522415
 20
9.66342395
  0
VERTEX
  8
0
 10
14.80531178
 20
9.60791111
  0
VERTEX
  8
0
 10
14.82650175
 20
9.55290330
  0
VERTEX
  8
0
 10
14.84896331
 20
9.49847758
  0
VERTEX
  8
0
 10
14.87286573
 20
9.44471101
  0
VERTEX
  8
0
 10
14.89837826
 20
9.39168062
  0
VERTEX
  8
0
 10
14.92567016
 20
9.33946348
  0
VERTEX
  8
0
 10
14.95491069
 20
9.28813664
  0
VERTEX
  8
0
 10
14.98626912
 20
9.23777714
  0
VERTEX
  8
0
 10
15.01991469
 20
9.18846204
  0
VERTEX
  8
0
 10
15.04309467
 20
9.15773917
  0
VERTEX
  8
0
 10
15.06804871
 20
9.12880600
  0
VERTEX
  8
0
 10
15.09466274
 20
9.10167568
  0
VERTEX
  8
0
 10
15.12282267
 20
9.07636139
  0
VERTEX
  8
0
 10
15.15241443
 20
9.05287632
  0
VERTEX
  8
0
 10
15.18332394
 20
9.03123363
  0
VERTEX
  8
0
 10
15.21543711
 20
9.01144650
  0
VERTEX
  8
0
 10
15.24863988
 20
8.99352810
  0
VERTEX
  8
0
 10
15.28281815
 20
8.97749161
  0
VERTEX
  8
0
 10
15.31785786
 20
8.96335021
  0
VERTEX
  8
0
 10
15.35364493
 20
8.95111707
  0
VERTEX
  8
0
 10
15.39006527
 20
8.94080536
  0
VERTEX
  8
0
 10
15.42700482
 20
8.93242826
  0
VERTEX
  8
0
 10
15.46434948
 20
8.92599895
  0
VERTEX
  8
0
 10
15.50198518
 20
8.92153060
  0
VERTEX
  8
0
 10
15.53979785
 20
8.91903638
  0
VERTEX
  8
0
 10
15.57767340
 20
8.91852947
  0
VERTEX
  8
0
 10
15.61549776
 20
8.92002305
  0
VERTEX
  8
0
 10
15.65315685
 20
8.92353029
  0
VERTEX
  8
0
 10
15.69053658
 20
8.92906436
  0
VERTEX
  8
0
 10
15.72752289
 20
8.93663845
  0
VERTEX
  8
0
 10
15.76400169
 20
8.94626572
  0
VERTEX
  8
0
 10
15.79985890
 20
8.95795935
  0
VERTEX
  8
0
 10
15.83498045
 20
8.97173252
  0
VERTEX
  8
0
 10
15.86925226
 20
8.98759839
  0
VERTEX
  8
0
 10
15.90256025
 20
9.00557016
  0
VERTEX
  8
0
 10
15.93479033
 20
9.02566098
  0
VERTEX
  8
0
 10
15.96582844
 20
9.04788405
  0
VERTEX
  8
0
 10
15.99556050
 20
9.07225252
  0
VERTEX
  8
0
 10
16.02722210
 20
9.10014430
  0
VERTEX
  8
0
 10
16.05764833
 20
9.12896995
  0
VERTEX
  8
0
 10
16.08689629
 20
9.15868362
  0
VERTEX
  8
0
 10
16.11502307
 20
9.18923945
  0
VERTEX
  8
0
 10
16.14208575
 20
9.22059159
  0
VERTEX
  8
0
 10
16.16814143
 20
9.25269419
  0
VERTEX
  8
0
 10
16.19324721
 20
9.28550138
  0
VERTEX
  8
0
 10
16.21746017
 20
9.31896733
  0
VERTEX
  8
0
 10
16.24083741
 20
9.35304617
  0
VERTEX
  8
0
 10
16.26343601
 20
9.38769204
  0
VERTEX
  8
0
 10
16.28531308
 20
9.42285910
  0
VERTEX
  8
0
 10
16.30652569
 20
9.45850149
  0
VERTEX
  8
0
 10
16.34718595
 20
9.53102885
  0
VERTEX
  8
0
 10
16.40462026
 20
9.64223849
  0
VERTEX
  8
0
 10
16.60214951
 20
10.05600758
  0
VERTEX
  8
0
 10
16.62080156
 20
10.09271488
  0
VERTEX
  8
0
 10
16.62744385
 20
10.10609349
  0
VERTEX
  8
0
 10
16.63481744
 20
10.11860223
  0
VERTEX
  8
0
 10
16.64288098
 20
10.13029080
  0
VERTEX
  8
0
 10
16.65159312
 20
10.14120887
  0
VERTEX
  8
0
 10
16.66091250
 20
10.15140612
  0
VERTEX
  8
0
 10
16.67079777
 20
10.16093225
  0
VERTEX
  8
0
 10
16.68120759
 20
10.16983694
  0
VERTEX
  8
0
 10
16.70343543
 20
10.18598073
  0
VERTEX
  8
0
 10
16.72726519
 20
10.20023496
  0
VERTEX
  8
0
 10
16.87217981
 20
10.26261953
  0
VERTEX
  8
0
 10
16.92365766
 20
10.28703214
  0
VERTEX
  8
0
 10
16.94774692
 20
10.30127317
  0
VERTEX
  8
0
 10
16.95923440
 20
10.30907626
  0
VERTEX
  8
0
 10
17.00417984
 20
10.33642888
  0
VERTEX
  8
0
 10
17.04732275
 20
10.36567880
  0
VERTEX
  8
0
 10
17.08868551
 20
10.39674673
  0
VERTEX
  8
0
 10
17.12829052
 20
10.42955336
  0
VERTEX
  8
0
 10
17.16616016
 20
10.46401940
  0
VERTEX
  8
0
 10
17.20231684
 20
10.50006555
  0
VERTEX
  8
0
 10
17.23678294
 20
10.53761250
  0
VERTEX
  8
0
 10
17.26958086
 20
10.57658097
  0
VERTEX
  8
0
 10
17.30073298
 20
10.61689164
  0
VERTEX
  8
0
 10
17.33026169
 20
10.65846523
  0
VERTEX
  8
0
 10
17.35818939
 20
10.70122243
  0
VERTEX
  8
0
 10
17.38453847
 20
10.74508394
  0
VERTEX
  8
0
 10
17.40933133
 20
10.78997047
  0
VERTEX
  8
0
 10
17.43259034
 20
10.83580272
  0
VERTEX
  8
0
 10
17.45433791
 20
10.88250138
  0
VERTEX
  8
0
 10
17.47459642
 20
10.92998716
  0
VERTEX
  8
0
 10
17.49338827
 20
10.97818076
  0
VERTEX
  8
0
 10
17.51073585
 20
11.02700289
  0
VERTEX
  8
0
 10
17.52666154
 20
11.07637423
  0
VERTEX
  8
0
 10
17.54118775
 20
11.12621550
  0
VERTEX
  8
0
 10
17.55433686
 20
11.17644739
  0
VERTEX
  8
0
 10
17.56613126
 20
11.22699060
  0
VERTEX
  8
0
 10
17.57659334
 20
11.27776585
  0
VERTEX
  8
0
 10
17.58574551
 20
11.32869382
  0
VERTEX
  8
0
 10
17.59361014
 20
11.37969521
  0
VERTEX
  8
0
 10
17.60020963
 20
11.43069074
  0
VERTEX
  8
0
 10
17.60556637
 20
11.48160110
  0
VERTEX
  8
0
 10
17.60970275
 20
11.53234699
  0
VERTEX
  8
0
 10
17.61264117
 20
11.58284911
  0
VERTEX
  8
0
 10
17.44559387
 20
11.55197063
  0
VERTEX
  8
0
 10
17.38486808
 20
11.52918242
  0
VERTEX
  8
0
 10
17.35060881
 20
11.51124369
  0
VERTEX
  8
0
 10
17.31846754
 20
11.48957290
  0
VERTEX
  8
0
 10
17.29841299
 20
11.47283712
  0
VERTEX
  8
0
 10
17.27959422
 20
11.45411980
  0
VERTEX
  8
0
 10
17.27068506
 20
11.44397771
  0
VERTEX
  8
0
 10
17.25308030
 20
11.42398298
  0
VERTEX
  8
0
 10
17.23617303
 20
11.40325644
  0
VERTEX
  8
0
 10
17.21988567
 20
11.38188006
  0
VERTEX
  8
0
 10
17.18886025
 20
11.33750572
  0
VERTEX
  8
0
 10
17.07403499
 20
11.15041143
  0
VERTEX
  8
0
 10
17.02925379
 20
11.08215411
  0
VERTEX
  8
0
 10
17.01349724
 20
11.06028820
  0
VERTEX
  8
0
 10
16.99719663
 20
11.03900220
  0
VERTEX
  8
0
 10
16.98027435
 20
11.01837808
  0
VERTEX
  8
0
 10
16.96265281
 20
10.99849784
  0
VERTEX
  8
0
 10
16.94425440
 20
10.97944345
  0
VERTEX
  8
0
 10
16.92500154
 20
10.96129689
  0
VERTEX
  8
0
 10
16.90481661
 20
10.94414015
  0
VERTEX
  8
0
 10
16.88362203
 20
10.92805522
  0
VERTEX
  8
0
 10
16.86134020
 20
10.91312407
  0
VERTEX
  8
0
 10
16.83789351
 20
10.89942868
  0
VERTEX
  8
0
 10
16.81320438
 20
10.88705105
  0
VERTEX
  8
0
 10
16.78719520
 20
10.87607315
  0
VERTEX
  8
0
 10
16.75978837
 20
10.86657697
  0
VERTEX
  8
0
 10
16.88251985
 20
11.38877957
  0
VERTEX
  8
0
 10
16.75090722
 20
11.39673159
  0
VERTEX
  8
0
 10
16.67195326
 20
11.40620514
  0
VERTEX
  8
0
 10
16.59363132
 20
11.41978468
  0
VERTEX
  8
0
 10
16.54201904
 20
11.43135287
  0
VERTEX
  8
0
 10
16.49106451
 20
11.44509700
  0
VERTEX
  8
0
 10
16.44091846
 20
11.46115751
  0
VERTEX
  8
0
 10
16.39173164
 20
11.47967481
  0
VERTEX
  8
0
 10
16.34365478
 20
11.50078933
  0
VERTEX
  8
0
 10
16.32007970
 20
11.51236444
  0
VERTEX
  8
0
 10
16.29683863
 20
11.52464150
  0
VERTEX
  8
0
 10
16.27395042
 20
11.53763809
  0
VERTEX
  8
0
 10
16.25143391
 20
11.55137174
  0
VERTEX
  8
0
 10
16.22930795
 20
11.56586002
  0
VERTEX
  8
0
 10
16.20759138
 20
11.58112047
  0
VERTEX
  8
0
 10
16.18630304
 20
11.59717065
  0
VERTEX
  8
0
 10
16.16546177
 20
11.61402812
  0
VERTEX
  8
0
 10
16.09856401
 20
11.67276737
  0
VERTEX
  8
0
 10
15.79919300
 20
11.96254164
  0
VERTEX
  8
0
 10
15.73203855
 20
12.02080367
  0
VERTEX
  8
0
 10
15.68560884
 20
12.05755468
  0
VERTEX
  8
0
 10
15.63753537
 20
12.09223879
  0
VERTEX
  8
0
 10
15.61279767
 20
12.10870006
  0
VERTEX
  8
0
 10
15.58754754
 20
12.12451777
  0
VERTEX
  8
0
 10
15.56175117
 20
12.13964963
  0
VERTEX
  8
0
 10
15.53537473
 20
12.15405336
  0
VERTEX
  8
0
 10
15.50838440
 20
12.16768668
  0
VERTEX
  8
0
 10
15.52446447
 20
12.20893817
  0
VERTEX
  8
0
 10
15.54174831
 20
12.24967084
  0
VERTEX
  8
0
 10
15.56021240
 20
12.28985908
  0
VERTEX
  8
0
 10
15.57983322
 20
12.32947724
  0
VERTEX
  8
0
 10
15.60058727
 20
12.36849969
  0
VERTEX
  8
0
 10
15.62245101
 20
12.40690081
  0
VERTEX
  8
0
 10
15.64540094
 20
12.44465495
  0
VERTEX
  8
0
 10
15.66941354
 20
12.48173650
  0
VERTEX
  8
0
 10
15.69446530
 20
12.51811981
  0
VERTEX
  8
0
 10
15.72053269
 20
12.55377926
  0
VERTEX
  8
0
 10
15.74759220
 20
12.58868921
  0
VERTEX
  8
0
 10
15.77562032
 20
12.62282403
  0
VERTEX
  8
0
 10
15.80459352
 20
12.65615809
  0
VERTEX
  8
0
 10
15.83448829
 20
12.68866576
  0
VERTEX
  8
0
 10
15.86528112
 20
12.72032140
  0
VERTEX
  8
0
 10
15.89694848
 20
12.75109938
  0
VERTEX
  8
0
 10
15.92946687
 20
12.78097408
  0
VERTEX
  8
0
 10
15.96281276
 20
12.80991986
  0
VERTEX
  8
0
 10
15.99696265
 20
12.83791108
  0
VERTEX
  8
0
 10
16.03189300
 20
12.86492212
  0
VERTEX
  8
0
 10
16.06758031
 20
12.89092735
  0
VERTEX
  8
0
 10
16.10400106
 20
12.91590112
  0
VERTEX
  8
0
 10
16.14113173
 20
12.93981782
  0
VERTEX
  8
0
 10
16.17894881
 20
12.96265180
  0
VERTEX
  8
0
 10
16.21742878
 20
12.98437744
  0
VERTEX
  8
0
 10
16.25654812
 20
13.00496911
  0
VERTEX
  8
0
 10
16.29628332
 20
13.02440116
  0
VERTEX
  8
0
 10
16.33661086
 20
13.04264798
  0
VERTEX
  8
0
 10
16.37750722
 20
13.05968392
  0
SEQEND
  0
POLYLINE
  8
color#ffffffff
 66
   1
 39
0.000000
 70
    1
  0
VERTEX
  8
0
 10
16.44305234
 20
12.86316718
  0
VERTEX
  8
0
 10
16.41336560
 20
12.84906831
  0
VERTEX
  8
0
 10
16.38419508
 20
12.83414214
  0
VERTEX
  8
0
 10
16.35554180
 20
12.81841080
  0
VERTEX
  8
0
 10
16.32740673
 20
12.80189640
  0
VERTEX
  8
0
 10
16.29979088
 20
12.78462109
  0
VERTEX
  8
0
 10
16.27269523
 20
12.76660697
  0
VERTEX
  8
0
 10
16.24612078
 20
12.74787618
  0
VERTEX
  8
0
 10
16.22006853
 20
12.72845084
  0
VERTEX
  8
0
 10
16.19453946
 20
12.70835307
  0
VERTEX
  8
0
 10
16.16953456
 20
12.68760501
  0
VERTEX
  8
0
 10
16.14505484
 20
12.66622876
  0
VERTEX
  8
0
 10
16.12110129
 20
12.64424647
  0
VERTEX
  8
0
 10
16.09767489
 20
12.62168025
  0
VERTEX
  8
0
 10
16.07477664
 20
12.59855223
  0
VERTEX
  8
0
 10
16.05240753
 20
12.57488454
  0
VERTEX
  8
0
 10
16.00926072
 20
12.52601861
  0
VERTEX
  8
0
 10
15.96824240
 20
12.47525948
  0
VERTEX
  8
0
 10
15.92936051
 20
12.42278414
  0
VERTEX
  8
0
 10
15.89262300
 20
12.36876958
  0
VERTEX
  8
0
 10
15.85803780
 20
12.31339280
  0
VERTEX
  8
0
 10
15.82561288
 20
12.25683081
  0
VERTEX
  8
0
 10
15.79535616
 20
12.19926060
  0
VERTEX
  8
0
 10
15.82373541
 20
12.17793470
  0
VERTEX
  8
0
 10
15.85263802
 20
12.15754902
  0
VERTEX
  8
0
 10
15.88204213
 20
12.13808169
  0
VERTEX
  8
0
 10
15.91192589
 20
12.11951082
  0
VERTEX
  8
0
 10
15.94226743
 20
12.10181455
  0
VERTEX
  8
0
 10
15.97304490
 20
12.08497101
  0
VERTEX
  8
0
 10
16.00423644
 20
12.06895831
  0
VERTEX
  8
0
 10
16.03582018
 20
12.05375459
  0
VERTEX
  8
0
 10
16.06777427
 20
12.03933797
  0
VERTEX
  8
0
 10
16.10007685
 20
12.02568657
  0
VERTEX
  8
0
 10
16.13270606
 20
12.01277853
  0
VERTEX
  8
0
 10
16.16564003
 20
12.00059197
  0
VERTEX
  8
0
 10
16.23233485
 20
11.97829578
  0
VERTEX
  8
0
 10
16.29998643
 20
11.95862303
  0
VERTEX
  8
0
 10
16.36841990
 20
11.94139871
  0
VERTEX
  8
0
 10
16.43746038
 20
11.92644783
  0
VERTEX
  8
0
 10
16.50693299
 20
11.91359540
  0
VERTEX
  8
0
 10
16.61156961
 20
11.89786857
  0
VERTEX
  8
0
 10
16.75096541
 20
11.88261078
  0
VERTEX
  8
0
 10
16.77757599
 20
11.88090607
  0
VERTEX
  8
0
 10
16.88589739
 20
11.87716836
  0
VERTEX
  8
0
 10
16.96816596
 20
11.87861871
  0
VERTEX
  8
0
 10
17.02299447
 20
11.88215674
  0
VERTEX
  8
0
 10
17.07749404
 20
11.88809114
  0
VERTEX
  8
0
 10
17.13139453
 20
11.89671289
  0
VERTEX
  8
0
 10
17.15803571
 20
11.90212246
  0
VERTEX
  8
0
 10
17.18442581
 20
11.90831299
  0
VERTEX
  8
0
 10
17.21053108
 20
11.91532084
  0
VERTEX
  8
0
 10
17.23631773
 20
11.92318239
  0
VERTEX
  8
0
 10
17.26175202
 20
11.93193402
  0
VERTEX
  8
0
 10
17.28680017
 20
11.94161209
  0
VERTEX
  8
0
 10
17.31142840
 20
11.95225299
  0
VERTEX
  8
0
 10
17.33560296
 20
11.96389307
  0
VERTEX
  8
0
 10
17.35929008
 20
11.97656872
  0
VERTEX
  8
0
 10
17.38245599
 20
11.99031630
  0
VERTEX
  8
0
 10
17.40506692
 20
12.00517219
  0
VERTEX
  8
0
 10
17.42708910
 20
12.02117276
  0
VERTEX
  8
0
 10
17.44848877
 20
12.03835438
  0
VERTEX
  8
0
 10
17.46923216
 20
12.05675343
  0
VERTEX
  8
0
 10
17.48928549
 20
12.07640628
  0
VERTEX
  8
0
 10
17.26271424
 20
12.05474687
  0
VERTEX
  8
0
 10
17.32621706
 20
12.24418484
  0
VERTEX
  8
0
 10
17.38276832
 20
12.46150329
  0
VERTEX
  8
0
 10
17.40387307
 20
12.58428293
  0
VERTEX
  8
0
 10
17.41398030
 20
12.68361217
  0
VERTEX
  8
0
 10
17.41703492
 20
12.75877450
  0
VERTEX
  8
0
 10
17.41377885
 20
12.85128226
  0
VERTEX
  8
0
 10
17.40558406
 20
12.86840546
  0
VERTEX
  8
0
 10
17.39549811
 20
12.87873125
  0
VERTEX
  8
0
 10
17.38652826
 20
12.88412579
  0
VERTEX
  8
0
 10
17.37553164
 20
12.88814785
  0
VERTEX
  8
0
 10
17.34491640
 20
12.90134531
  0
VERTEX
  8
0
 10
17.31393266
 20
12.91346010
  0
VERTEX
  8
0
 10
17.28260914
 20
12.92450094
  0
VERTEX
  8
0
 10
17.25097458
 20
12.93447654
  0
VERTEX
  8
0
 10
17.21905769
 20
12.94339563
  0
VERTEX
  8
0
 10
17.18688721
 20
12.95126692
  0
VERTEX
  8
0
 10
17.15449188
 20
12.95809913
  0
VERTEX
  8
0
 10
17.12190040
 20
12.96390098
  0
VERTEX
  8
0
 10
17.08914153
 20
12.96868119
  0
VERTEX
  8
0
 10
17.05624398
 20
12.97244847
  0
VERTEX
  8
0
 10
17.02323649
 20
12.97521155
  0
VERTEX
  8
0
 10
16.99014778
 20
12.97697915
  0
VERTEX
  8
0
 10
16.95700659
 20
12.97775998
  0
VERTEX
  8
0
 10
16.92384164
 20
12.97756275
  0
VERTEX
  8
0
 10
16.89068166
 20
12.97639620
  0
VERTEX
  8
0
 10
16.85755538
 20
12.97426904
  0
VERTEX
  8
0
 10
16.82449153
 20
12.97118998
  0
VERTEX
  8
0
 10
16.79151885
 20
12.96716775
  0
VERTEX
  8
0
 10
16.75866605
 20
12.96221106
  0
VERTEX
  8
0
 10
16.72596186
 20
12.95632864
  0
VERTEX
  8
0
 10
16.69343503
 20
12.94952919
  0
VERTEX
  8
0
 10
16.66111427
 20
12.94182145
  0
VERTEX
  8
0
 10
16.62902832
 20
12.93321412
  0
VERTEX
  8
0
 10
16.59720590
 20
12.92371593
  0
VERTEX
  8
0
 10
16.56567574
 20
12.91333560
  0
VERTEX
  8
0
 10
16.53446658
 20
12.90208184
  0
VERTEX
  8
0
 10
16.50360714
 20
12.88996337
  0
VERTEX
  8
0
 10
16.47312615
 20
12.87698891
  0
VERTEX
  8
0
 10
16.44305234
 20
12.86316718
  0
SEQEND
  0
POLYLINE
  8
color#ffffffff
 66
   1
 39
0.000000
 70
    1
  0
VERTEX
  8
0
 10
2.38465606
 20
10.02746297
  0
VERTEX
  8
0
 10
3.47844723
 20
10.02745401
  0
VERTEX
  8
0
 10
3.47829570
 20
8.93428029
  0
VERTEX
  8
0
 10
2.38448160
 20
8.93425056
  0
VERTEX
  8
0
 10
2.38465606
 20
10.02746297
  0
SEQEND
  0
POLYLINE
  8
color#ffffffff
 66
   1
 39
0.000000
 70
    1
  0
VERTEX
  8
0
 10
3.89374195
 20
7.33333205
  0
VERTEX
  8
0
 10
4.99221008
 20
7.33129420
  0
VERTEX
  8
0
 10
4.98915573
 20
6.23992613
  0
VERTEX
  8
0
 10
3.89648093
 20
6.23998771
  0
VERTEX
  8
0
 10
3.89374195
 20
7.33333205
  0
SEQEND
  0
POLYLINE
  8
color#ffffffff
 66
   1
 39
0.000000
 70
    1
  0
VERTEX
  8
0
 10
5.66776125
 20
4.96756688
  0
VERTEX
  8
0
 10
6.76415433
 20
4.96745937
  0
VERTEX
  8
0
 10
6.76407857
 20
3.87431095
  0
VERTEX
  8
0
 10
5.66763146
 20
3.87707358
  0
VERTEX
  8
0
 10
5.66776125
 20
4.96756688
  0
SEQEND
  0
POLYLINE
  8
color#ffffffff
 66
   1
 39
0.000000
 70
    1
  0
VERTEX
  8
0
 10
7.70476779
 20
2.99606661
  0
VERTEX
  8
0
 10
8.80133387
 20
2.99600570
  0
VERTEX
  8
0
 10
8.80118672
 20
1.90546258
  0
VERTEX
  8
0
 10
7.70473892
 20
1.90544770
  0
VERTEX
  8
0
 10
7.70476779
 20
2.99606661
  0
SEQEND
  0
ENDSEC
  0
EOF
