  0
SECTION
  2
HEADER
  9
$ACADVER
  1
AC1009
  9
$DWGCODEPAGE
  3
ansi_1252
  9
$INSBASE
 10
0.0
 20
0.0
 30
0.0
  9
$EXTMIN
 10
1.204486420482288
 20
19.53204165087579
 30
0.0
  9
$EXTMAX
 10
162.3255039722753
 20
89.27802958393653
 30
0.0
  9
$LIMMIN
 10
0.0
 20
0.0
  9
$LIMMAX
 10
12.0
 20
9.0
  9
$ORTHOMODE
 70
     0
  9
$REGENMODE
 70
     1
  9
$FILLMODE
 70
     1
  9
$QTEXTMODE
 70
     0
  9
$MIRRTEXT
 70
     1
  9
$DRAGMODE
 70
     2
  9
$LTSCALE
 40
1.0
  9
$OSMODE
 70
    37
  9
$ATTMODE
 70
     1
  9
$TEXTSIZE
 40
0.2
  9
$TRACEWID
 40
0.05
  9
$TEXTSTYLE
  7
STANDARD
  9
$CLAYER
  8
0
  9
$CELTYPE
  6
BYBLOCK
  9
$CECOLOR
 62
     2
  9
$DIMSCALE
 40
1.0
  9
$DIMASZ
 40
0.18
  9
$DIMEXO
 40
0.0625
  9
$DIMDLI
 40
0.38
  9
$DIMRND
 40
0.0
  9
$DIMDLE
 40
0.0
  9
$DIMEXE
 40
0.18
  9
$DIMTP
 40
0.0
  9
$DIMTM
 40
0.0
  9
$DIMTXT
 40
0.18
  9
$DIMCEN
 40
0.09
  9
$DIMTSZ
 40
0.0
  9
$DIMTOL
 70
     0
  9
$DIMLIM
 70
     0
  9
$DIMTIH
 70
     1
  9
$DIMTOH
 70
     1
  9
$DIMSE1
 70
     0
  9
$DIMSE2
 70
     0
  9
$DIMTAD
 70
     0
  9
$DIMZIN
 70
     0
  9
$DIMBLK
  1

  9
$DIMASO
 70
     1
  9
$DIMSHO
 70
     1
  9
$DIMPOST
  1

  9
$DIMAPOST
  1

  9
$DIMALT
 70
     0
  9
$DIMALTD
 70
     2
  9
$DIMALTF
 40
25.4
  9
$DIMLFAC
 40
1.0
  9
$DIMTOFL
 70
     0
  9
$DIMTVP
 40
0.0
  9
$DIMTIX
 70
     0
  9
$DIMSOXD
 70
     0
  9
$DIMSAH
 70
     0
  9
$DIMBLK1
  1

  9
$DIMBLK2
  1

  9
$DIMSTYLE
  2
STANDARD
  9
$DIMCLRD
 70
     0
  9
$DIMCLRE
 70
     0
  9
$DIMCLRT
 70
     0
  9
$DIMTFAC
 40
1.0
  9
$DIMGAP
 40
0.09
  9
$LUNITS
 70
     2
  9
$LUPREC
 70
     4
  9
$SKETCHINC
 40
0.1
  9
$FILLETRAD
 40
0.5
  9
$AUNITS
 70
     0
  9
$AUPREC
 70
     0
  9
$MENU
  1
.
  9
$ELEVATION
 40
0.0
  9
$PELEVATION
 40
0.0
  9
$THICKNESS
 40
0.0
  9
$LIMCHECK
 70
     0
  9
$CHAMFERA
 40
0.5
  9
$CHAMFERB
 40
0.5
  9
$SKPOLY
 70
     0
  9
$TDCREATE
 40
2453353.550459155
  9
$TDUPDATE
 40
9821823.882974815
  9
$TDINDWG
 40
9791572.06217926
  9
$TDUSRTIMER
 40
9791572.06217926
  9
$USRTIMER
 70
     1
  9
$ANGBASE
 50
0.0
  9
$ANGDIR
 70
     0
  9
$PDMODE
 70
     0
  9
$PDSIZE
 40
0.0
  9
$PLINEWID
 40
0.0
  9
$COORDS
 70
     1
  9
$SPLFRAME
 70
     0
  9
$SPLINETYPE
 70
     6
  9
$SPLINESEGS
 70
     8
  9
$ATTDIA
 70
     0
  9
$ATTREQ
 70
     1
  9
$HANDLING
 70
     1
  9
$HANDSEED
  5
405
  9
$SURFTAB1
 70
     6
  9
$SURFTAB2
 70
     6
  9
$SURFTYPE
 70
     6
  9
$SURFU
 70
     6
  9
$SURFV
 70
     6
  9
$UCSNAME
  2

  9
$UCSORG
 10
0.0
 20
0.0
 30
0.0
  9
$UCSXDIR
 10
1.0
 20
0.0
 30
0.0
  9
$UCSYDIR
 10
0.0
 20
1.0
 30
0.0
  9
$PUCSNAME
  2

  9
$PUCSORG
 10
0.0
 20
0.0
 30
0.0
  9
$PUCSXDIR
 10
1.0
 20
0.0
 30
0.0
  9
$PUCSYDIR
 10
0.0
 20
1.0
 30
0.0
  9
$USERI1
 70
     0
  9
$USERI2
 70
     0
  9
$USERI3
 70
     0
  9
$USERI4
 70
     0
  9
$USERI5
 70
     0
  9
$USERR1
 40
0.0
  9
$USERR2
 40
0.0
  9
$USERR3
 40
0.0
  9
$USERR4
 40
0.0
  9
$USERR5
 40
0.0
  9
$WORLDVIEW
 70
     1
  9
$SHADEDGE
 70
     3
  9
$SHADEDIF
 70
    70
  9
$TILEMODE
 70
     1
  9
$MAXACTVP
 70
    64
  9
$PLIMCHECK
 70
     0
  9
$PEXTMIN
 10
0.0
 20
0.0
 30
0.0
  9
$PEXTMAX
 10
0.0
 20
0.0
 30
0.0
  9
$PLIMMIN
 10
0.0
 20
0.0
  9
$PLIMMAX
 10
0.0
 20
0.0
  9
$UNITMODE
 70
     0
  9
$VISRETAIN
 70
     1
  9
$PLINEGEN
 70
     0
  9
$PSLTSCALE
 70
     1
  0
ENDSEC
  0
SECTION
  2
TABLES
  0
TABLE
  2
VPORT
 70
     1
  0
VPORT
  2
*ACTIVE
 70
     0
 10
0.0
 20
0.0
 11
1.0
 21
1.0
 12
74.07570476509099
 22
55.99161467674773
 13
0.0
 23
0.0
 14
0.5
 24
0.5
 15
0.5
 25
0.5
 16
0.0
 26
0.0
 36
1.0
 17
0.0
 27
0.0
 37
0.0
 40
110.9421538317794
 41
1.972972972850329
 42
50.0
 43
0.0
 44
0.0
 50
0.0
 51
0.0
 71
    16
 72
   100
 73
     1
 74
     3
 75
     0
 76
     0
 77
     0
 78
     0
  0
ENDTAB
  0
TABLE
  2
LTYPE
 70
     1
  0
LTYPE
  2
CONTINUOUS
 70
     0
  3
Solid line
 72
    65
 73
     0
 40
0.0
  0
ENDTAB
  0
TABLE
  2
LAYER
 70
     2
  0
LAYER
  2
0
 70
     0
 62
     7
  6
CONTINUOUS
  0
LAYER
  2
LAYER_1
 70
     0
 62
     7
  6
CONTINUOUS
  0
ENDTAB
  0
TABLE
  2
STYLE
 70
     1
  0
STYLE
  2
STANDARD
 70
     0
 40
0.0
 41
1.0
 50
0.0
 71
     0
 42
0.2
  3
txt
  4

  0
ENDTAB
  0
TABLE
  2
VIEW
 70
     0
  0
ENDTAB
  0
TABLE
  2
UCS
 70
     0
  0
ENDTAB
  0
TABLE
  2
APPID
 70
     1
  0
APPID
  2
ACAD
 70
     0
  0
ENDTAB
  0
TABLE
  2
DIMSTYLE
 70
     1
  0
DIMSTYLE
  2
STANDARD
 70
     0
  3

  4

  5

  6

  7

 40
1.0
 41
0.18
 42
0.0625
 43
0.38
 44
0.18
 45
0.0
 46
0.0
 47
0.0
 48
0.0
140
0.18
141
0.09
142
0.0
143
25.4
144
1.0
145
0.0
146
1.0
147
0.09
 71
     0
 72
     0
 73
     1
 74
     1
 75
     0
 76
     0
 77
     0
 78
     0
170
     0
171
     2
172
     0
173
     0
174
     0
175
     0
176
     0
177
     0
178
     0
  0
ENDTAB
  0
ENDSEC
  0
SECTION
  2
BLOCKS
  0
BLOCK
  8
0
  2
$MODEL_SPACE
 70
     0
 10
0.0
 20
0.0
 30
0.0
  3
$MODEL_SPACE
  1

  0
ENDBLK
  5
21
  8
0
  0
BLOCK
 67
     1
  8
0
  2
$PAPER_SPACE
 70
     0
 10
0.0
 20
0.0
 30
0.0
  3
$PAPER_SPACE
  1

  0
ENDBLK
  5
76
 67
     1
  8
0
  0
ENDSEC
  0
SECTION
  2
ENTITIES
  0
LINE
  5
D8
  8
LAYER_1
 62
     1
 10
155.4299347189199
 20
62.01811146084444
 30
0.0
 11
156.6496713494805
 21
61.93679568547373
 31
0.0
  0
LINE
  5
D9
  8
LAYER_1
 62
     1
 10
156.6496713494805
 20
61.93679568547373
 30
0.0
 11
157.291994
 21
60.983428
 31
0.0
  0
LINE
  5
DA
  8
LAYER_1
 62
     1
 10
157.291994
 20
60.983428
 30
0.0
 11
160.0242760273649
 21
51.28442911191095
 31
0.0
  0
LINE
  5
109
  8
LAYER_1
 62
     1
 10
159.907095002963
 20
28.34103467516367
 30
0.0
 11
147.0458319916055
 21
28.29882890631118
 31
0.0
  0
ARC
  5
304
  8
0
  6
BYBLOCK
 62
     1
 10
93.20828840324165
 20
-228.4511949062794
 30
0.0
 40
317.3748417562449
 50
82.72741431137312
 51
94.79995805520387
  0
ARC
  5
305
  8
0
  6
BYBLOCK
 62
     1
 10
131.7940420459147
 20
77.7099263365416
 30
0.0
 40
8.805357845175632
 50
46.38949896793174
 51
79.59210981168846
  0
LINE
  5
306
  8
0
  6
BYBLOCK
 62
     1
 10
137.8675574899891
 20
84.08540568575029
 30
0.0
 11
149.3872672081385
 21
68.39327370407152
 31
0.0
  0
ARC
  5
307
  8
0
  6
BYBLOCK
 62
     1
 10
144.8949372590752
 20
62.06629726952836
 30
0.0
 40
7.759617205411301
 50
25.75127008845506
 51
54.62418442297905
  0
ARC
  5
309
  8
0
  6
BYBLOCK
 62
     1
 10
144.4850864060487
 20
54.21661572380027
 30
0.0
 40
13.44072320698839
 50
35.48129879740134
 51
56.60004892085378
  0
ARC
  5
30C
  8
0
  6
BYBLOCK
 62
     1
 10
147.1764130285659
 20
68.75073663881184
 30
0.0
 40
1.631073690482655
 50
243.5853053172698
 51
332.8488850783778
  0
ARC
  5
30D
  8
0
  6
BYBLOCK
 62
     1
 10
139.973350383531
 20
77.21539757809592
 30
0.0
 40
1.725566773888259
 50
67.40174450704228
 51
149.4681531388023
  0
LINE
  5
30F
  8
0
  6
BYBLOCK
 62
     1
 10
140.6364291188176
 20
78.80847864381663
 30
0.0
 11
148.6277522631122
 21
68.0064142556666
 31
0.0
  0
LINE
  5
312
  8
0
  6
BYBLOCK
 62
     1
 10
138.4870387558693
 20
78.09201518950056
 30
0.0
 11
146.4508056134596
 21
67.28995080135051
 31
0.0
  0
ARC
  5
319
  8
0
  6
BYBLOCK
 62
     1
 10
155.7988437983628
 20
47.14937298048144
 30
0.0
 40
5.970491402157958
 50
342.4887845008155
 51
43.83486237079141
  0
ARC
  5
31A
  8
0
  6
BYBLOCK
 62
     1
 10
166.2281693365728
 20
41.82988855411531
 30
0.0
 40
5.902264097016501
 50
143.3524434499375
 51
227.0929579272631
  0
ARC
  5
31C
  8
0
  6
BYBLOCK
 62
     1
 10
158.4676356080314
 20
29.89246651289845
 30
0.0
 40
2.116361050670264
 50
312.8559723205269
 51
57.89743853557534
  0
ARC
  5
35E
  8
0
  6
BYBLOCK
 62
     1
 10
161.4204630342883
 20
36.9966044105788
 30
0.0
 40
0.9513758719991736
 50
252.0172069050097
 51
27.05833811080341
  0
LINE
  5
360
  8
0
  6
BYBLOCK
 62
     1
 10
161.0873999668833
 20
36.09170393823994
 30
0.0
 11
160.6546214801125
 21
34.32124649235958
 31
0.0
  0
ARC
  5
361
  8
0
  6
BYBLOCK
 62
     1
 10
158.3939079056057
 20
36.87338119280757
 30
0.0
 40
3.409430655577232
 50
269.8363635508994
 51
311.534933517185
  0
LINE
  5
363
  8
0
  6
BYBLOCK
 62
     1
 10
158.3841706025753
 20
33.46396444208327
 30
0.0
 11
153.3760742026043
 21
31.6852320729377
 31
0.0
  0
LINE
  5
364
  8
0
  6
BYBLOCK
 62
     1
 10
153.3760742026043
 20
31.6852320729377
 30
0.0
 11
159.5923470125843
 21
31.6852320729377
 31
0.0
  0
ARC
  5
371
  8
0
  6
BYBLOCK
 62
     1
 10
24.34691860181912
 20
35.01655388315384
 30
0.0
 40
15.55047658725231
 50
190.9324354071295
 51
331.51049722317
  0
ARC
  5
375
  8
0
  6
BYBLOCK
 62
     1
 10
7.107853952522246
 20
47.39083774665549
 30
0.0
 40
15.44966852072061
 50
250.9334423395084
 51
277.3287888944603
  0
ARC
  5
377
  8
0
  6
BYBLOCK
 62
     1
 10
1.161073233288784
 20
45.27777692406308
 30
0.0
 40
4.284516404495355
 50
294.3927888693353
 51
51.97279359488098
  0
ARC
  5
378
  8
0
  6
BYBLOCK
 62
     1
 10
9.024637798484054
 20
36.42107551957187
 30
0.0
 40
7.854078190611809
 50
140.8881313250639
 51
207.5470840302079
  0
ARC
  5
37F
  8
0
  6
BYBLOCK
 62
     1
 10
12.29677886615972
 20
52.62846111333681
 30
0.0
 40
9.380463182645451
 50
93.80189239854974
 51
205.0764290667072
  0
ARC
  5
380
  8
0
  6
BYBLOCK
 62
     1
 10
85.72674692279379
 20
-334.3858071448004
 30
0.0
 40
403.2320792214645
 50
96.82531566080803
 51
100.5822012877443
  0
ARC
  5
387
  8
0
  6
BYBLOCK
 62
     1
 10
133.2261251216144
 20
34.70646128547919
 30
0.0
 40
15.23292653035007
 50
207.8128259439249
 51
335.1247754848467
  0
LINE
  5
389
  8
0
  6
BYBLOCK
 62
     1
 10
38.01430274224178
 20
27.59901164540383
 30
0.0
 11
119.7529588162192
 21
27.59901164540383
 31
0.0
  0
ARC
  5
38C
  8
0
  6
BYBLOCK
 62
     1
 10
69.42462268083717
 20
55.11882287389788
 30
0.0
 40
32.80919007061807
 50
94.8489708929893
 51
116.4789914585867
  0
ARC
  5
38D
  8
0
  6
BYBLOCK
 62
     1
 10
58.56404187438443
 20
81.74586686505289
 30
0.0
 40
4.659172508505194
 50
143.9726266148964
 51
180.8425242607404
  0
ARC
  5
38E
  8
0
  6
BYBLOCK
 62
     1
 10
46.17592706244094
 20
57.57045701860518
 30
0.0
 40
11.87131946797115
 50
101.3756113201527
 51
134.8369283214512
  0
LINE
  5
390
  8
0
  6
BYBLOCK
 62
     1
 10
53.90537308743414
 20
81.67735702995068
 30
0.0
 11
43.83442732740927
 21
69.20856704134846
 31
0.0
  0
LINE
  5
394
  8
0
  6
BYBLOCK
 62
     1
 10
59.52317956581536
 20
80.17014065770206
 30
0.0
 11
54.79600094376287
 21
81.40331768954184
 31
0.0
  0
LINE
  5
395
  8
0
  6
BYBLOCK
 62
     1
 10
54.79600094376287
 20
81.40331768954184
 30
0.0
 11
44.65654534863579
 21
68.59197852542857
 31
0.0
  0
LINE
  5
396
  8
0
  6
BYBLOCK
 62
     1
 10
44.65654534863579
 20
68.59197852542857
 30
0.0
 11
49.3311329183998
 21
65.36874242841739
 31
0.0
  0
LINE
  5
397
  8
0
  6
BYBLOCK
 62
     1
 10
49.3311329183998
 20
65.36874242841739
 30
0.0
 11
59.52317956581536
 21
80.17014065770206
 31
0.0
  0
LINE
  5
39F
  8
0
  6
BYBLOCK
 62
     1
 10
92.04273745270632
 20
80.02277445933228
 30
0.0
 11
61.89155836521568
 21
80.01790999922532
 31
0.0
  0
LINE
  5
3A0
  8
0
  6
BYBLOCK
 62
     1
 10
61.89155836521568
 20
80.01790999922532
 30
0.0
 11
51.85007803436784
 21
64.48138841929597
 31
0.0
  0
LINE
  5
3A1
  8
0
  6
BYBLOCK
 62
     1
 10
51.85007803436784
 20
64.48138841929597
 30
0.0
 11
59.24914022540652
 21
64.48138841929597
 31
0.0
  0
LINE
  5
3A2
  8
0
  6
BYBLOCK
 62
     1
 10
59.24914022540652
 20
64.48138841929597
 30
0.0
 11
60.4823172572463
 21
65.23499660542028
 31
0.0
  0
LINE
  5
3A3
  8
0
  6
BYBLOCK
 62
     1
 10
60.4823172572463
 20
65.23499660542028
 30
0.0
 11
58.15298286377117
 21
67.76986050420204
 31
0.0
  0
LINE
  5
3A5
  8
0
  6
BYBLOCK
 62
     1
 10
59.52317956581536
 20
69.07154737114404
 30
0.0
 11
64.04482868256123
 21
64.48138841929597
 31
0.0
  0
LINE
  5
3A6
  8
0
  6
BYBLOCK
 62
     1
 10
64.04482868256123
 20
64.48138841929597
 30
0.0
 11
94.39054558562106
 21
64.42496158539446
 31
0.0
  0
ARC
  5
3A8
  8
0
  6
BYBLOCK
 62
     1
 10
59.02972568658138
 20
68.21897291473817
 30
0.0
 40
0.9850786438893162
 50
59.93855782805968
 51
207.1238407431686
  0
ARC
  5
3AC
  8
0
  6
BYBLOCK
 62
     1
 10
92.00543829849912
 20
77.5703858450858
 30
0.0
 40
2.452672245162482
 50
14.06483904631855
 51
89.12863754946977
  0
LINE
  5
3AD
  8
0
  6
BYBLOCK
 62
     1
 10
94.39054558562106
 20
64.42496158539446
 30
0.0
 11
94.38458269903833
 21
78.16643371528862
 31
0.0
  0
ARC
  5
3B5
  8
0
  6
BYBLOCK
 62
     1
 10
55.95312509072595
 20
38.14636430151602
 30
0.0
 40
5.419739437767489
 50
173.2894182136016
 51
267.0038296843093
  0
LINE
  5
3B6
  8
0
  6
BYBLOCK
 62
     1
 10
57.23696304495494
 20
32.66794049950866
 30
0.0
 11
91.92850109922671
 21
32.74665586045386
 31
0.0
  0
LINE
  5
3B7
  8
0
  6
BYBLOCK
 62
     1
 10
95.75037257358208
 20
59.92770145702112
 30
0.0
 11
95.75037257358208
 21
32.69161760270083
 31
0.0
  0
ARC
  5
3B9
  8
0
  6
BYBLOCK
 62
     1
 10
25.16498321949951
 20
33.70634541815653
 30
0.0
 40
15.70651161134527
 50
17.88675146857055
 51
170.5416055768976
  0
ARC
  5
3BA
  8
0
  6
BYBLOCK
 62
     1
 10
44.96600025689261
 20
37.80611169543898
 30
0.0
 40
4.611366850104198
 50
200.1672728018745
 51
284.03818513623
  0
LINE
  5
3BB
  8
0
  6
BYBLOCK
 62
     1
 10
50.57051582700372
 20
42.94520211256258
 30
0.0
 11
50.48100316237717
 21
57.10448506233134
 31
0.0
  0
LINE
  5
3BC
  8
0
  6
BYBLOCK
 62
     1
 10
46.40499711987238
 20
60.2481259729543
 30
0.0
 11
17.88721520181938
 21
60.2481259729543
 31
0.0
  0
LINE
  5
3C3
  8
0
  6
BYBLOCK
 62
     1
 10
100.1699767377992
 20
64.52328974707964
 30
0.0
 11
131.5727985627611
 21
64.54806935871557
 31
0.0
  0
LINE
  5
3C5
  8
0
  6
BYBLOCK
 62
     1
 10
133.0535810548821
 20
66.21394966235161
 30
0.0
 11
126.3160207157318
 21
78.61550303386441
 31
0.0
  0
ARC
  5
3C6
  8
0
  6
BYBLOCK
 62
     1
 10
122.5805844270476
 20
74.69377314378687
 30
0.0
 40
5.416036336431505
 50
46.3936920794609
 51
84.71557356073699
  0
ARC
  5
3C7
  8
0
  6
BYBLOCK
 62
     1
 10
100.0746649940194
 20
66.9244708544485
 30
0.0
 40
2.403072000354417
 50
184.0254195068324
 51
272.2730877197419
  0
ARC
  5
3C8
  8
0
  6
BYBLOCK
 62
     1
 10
99.74291381669093
 20
77.97846796566809
 30
0.0
 40
2.116830661116378
 50
84.86112529178668
 51
173.3514580392227
  0
LINE
  5
3C9
  8
0
  6
BYBLOCK
 62
     1
 10
97.6775213618573
 20
66.75577750641052
 30
0.0
 11
97.64031877320723
 21
78.22355189202843
 31
0.0
  0
LINE
  5
3CB
  8
0
  6
BYBLOCK
 62
     1
 10
131.5727985627611
 20
64.54806935871557
 30
0.0
 11
133.0535810548821
 21
66.21394966235161
 31
0.0
  0
LINE
  5
3CE
  8
0
  6
BYBLOCK
 62
     1
 10
99.93251851238254
 20
80.08679007275092
 30
0.0
 11
123.0794010280681
 21
80.08679007275092
 31
0.0
  0
ARC
  5
3D3
  8
0
  6
BYBLOCK
 62
     1
 10
122.4309471801994
 20
35.9100088702799
 30
0.0
 40
30.03715241980524
 50
5.683381775538651
 51
46.9827896760211
  0
ARC
  5
3D4
  8
0
  6
BYBLOCK
 62
     1
 10
133.2363420943029
 20
32.09191205333576
 30
0.0
 40
13.94459467810753
 50
4.273305618001346
 51
184.403227964855
  0
LINE
  5
3D5
  8
0
  6
BYBLOCK
 62
     1
 10
47.02881862471204
 20
39.84356237400566
 30
0.0
 11
48.37133483380404
 21
40.41892646361652
 31
0.0
  0
LINE
  5
3D6
  8
0
  6
BYBLOCK
 62
     1
 10
48.37133483380404
 20
40.41892646361652
 30
0.0
 11
52.59067149095031
 21
40.41892646361652
 31
0.0
  0
LINE
  5
3D7
  8
0
  6
BYBLOCK
 62
     1
 10
48.37133483380404
 20
58.63878930129363
 30
0.0
 11
52.59067149095031
 21
58.63878930129363
 31
0.0
  0
LINE
  5
3D8
  8
0
  6
BYBLOCK
 62
     1
 10
47.02881862471204
 20
58.06342521168278
 30
0.0
 11
48.37133483380404
 21
58.63878930129363
 31
0.0
  0
LINE
  5
3D9
  8
0
  6
BYBLOCK
 62
     1
 10
136.6975536224175
 20
66.21394966235161
 30
0.0
 11
129.9599932832673
 21
78.61550303386441
 31
0.0
  0
LINE
  5
3DA
  8
0
  6
BYBLOCK
 62
     1
 10
54.12497572991259
 20
60.36488157012619
 30
0.0
 11
90.94827746500738
 21
60.36488157012619
 31
0.0
  0
LINE
  5
3DB
  8
0
  6
BYBLOCK
 62
     1
 10
100.5376789585216
 20
60.36488157012619
 30
0.0
 11
137.3609806936164
 21
60.36488157012619
 31
0.0
  0
ARC
  5
3DC
  8
0
  6
BYBLOCK
 62
     1
 10
139.5856287391265
 20
46.9304093806689
 30
0.0
 40
17.49104221853934
 50
7.591620392307659
 51
50.18154314151386
  0
ARC
  5
3E0
  8
0
  6
BYBLOCK
 62
     1
 10
24.40032432842158
 20
34.08794554931644
 30
0.0
 40
4.605324975133602
 50
100.927261861562
 51
262.0576646568332
  0
ARC
  5
3E1
  8
0
  6
BYBLOCK
 62
     1
 10
24.39783110001837
 20
34.08992147789711
 30
0.0
 40
4.602912716886863
 50
277.1660987403254
 51
83.25539431916538
  0
ARC
  5
3E3
  8
0
  6
BYBLOCK
 62
     1
 10
133.1416440364702
 20
33.32276935841596
 30
0.0
 40
4.602912716886848
 50
279.7654436208779
 51
82.90582113110585
  0
ARC
  5
3E4
  8
0
  6
BYBLOCK
 62
     1
 10
133.1416440364702
 20
33.32276935841596
 30
0.0
 40
4.602912716886848
 50
100.410027415163
 51
259.3267037156707
  0
LINE
  5
3FA
  8
0
  6
BYBLOCK
 62
     1
 10
62.40874786117537
 20
82.0831728436863
 30
0.0
 11
93.80346825716649
 21
82.0831728436863
 31
0.0
  0
LINE
  5
3FB
  8
0
  6
BYBLOCK
 62
     1
 10
97.40961857292223
 20
81.8710463545242
 30
0.0
 11
128.1679595014271
 21
81.8710463545242
 31
0.0
  0
ENDSEC
  0
EOF
