  0
SECTION
  2
HEADER
  9
$ACADVER
  1
AC1015
  9
$ACADMAINTVER
 70
     6
  9
$DWGCODEPAGE
  3
ANSI_1252
  9
$INSBASE
 10
0.0
 20
0.0
 30
0.0
  9
$EXTMIN
 10
0.0
 20
0.0
 30
0.0
  9
$EXTMAX
 10
297.0
 20
210.0
 30
0.0
  9
$LIMMIN
 10
0.0
 20
0.0
  9
$LIMMAX
 10
297.0
 20
210.0
  9
$ORTHOMODE
 70
     0
  9
$REGENMODE
 70
     1
  9
$FILLMODE
 70
     1
  9
$QTEXTMODE
 70
     0
  9
$MIRRTEXT
 70
     1
  9
$LTSCALE
 40
1.0
  9
$ATTMODE
 70
     1
  9
$TEXTSIZE
 40
3.5
  9
$TRACEWID
 40
1.0
  9
$TEXTSTYLE
  7
Standard
  9
$CLAYER
  8
0
  9
$CELTYPE
  6
ByLayer
  9
$CECOLOR
 62
   256
  9
$CELTSCALE
 40
1.0
  9
$DISPSILH
 70
     0
  9
$DIMSCALE
 40
1.0
  9
$DIMASZ
 40
6.0
  9
$DIMEXO
 40
1.0
  9
$DIMDLI
 40
3.75
  9
$DIMRND
 40
0.0
  9
$DIMDLE
 40
0.0
  9
$DIMEXE
 40
1.0
  9
$DIMTP
 40
0.0
  9
$DIMTM
 40
0.0
  9
$DIMTXT
 40
3.5
  9
$DIMCEN
 40
2.5
  9
$DIMTSZ
 40
0.0
  9
$DIMTOL
 70
     0
  9
$DIMLIM
 70
     0
  9
$DIMTIH
 70
     1
  9
$DIMTOH
 70
     1
  9
$DIMSE1
 70
     0
  9
$DIMSE2
 70
     0
  9
$DIMTAD
 70
     1
  9
$DIMZIN
 70
     0
  9
$DIMBLK
  1

  9
$DIMASO
 70
     1
  9
$DIMSHO
 70
     1
  9
$DIMPOST
  1

  9
$DIMAPOST
  1

  9
$DIMALT
 70
     0
  9
$DIMALTD
 70
     3
  9
$DIMALTF
 40
0.0393700787
  9
$DIMLFAC
 40
10.0
  9
$DIMTOFL
 70
     1
  9
$DIMTVP
 40
0.0
  9
$DIMTIX
 70
     0
  9
$DIMSOXD
 70
     0
  9
$DIMSAH
 70
     0
  9
$DIMBLK1
  1

  9
$DIMBLK2
  1

  9
$DIMSTYLE
  2
ISO-25
  9
$DIMCLRD
 70
     0
  9
$DIMCLRE
 70
     0
  9
$DIMCLRT
 70
     0
  9
$DIMTFAC
 40
1.0
  9
$DIMGAP
 40
1.524
  9
$DIMJUST
 70
     0
  9
$DIMSD1
 70
     0
  9
$DIMSD2
 70
     0
  9
$DIMTOLJ
 70
     0
  9
$DIMTZIN
 70
     0
  9
$DIMALTZ
 70
     0
  9
$DIMALTTZ
 70
     0
  9
$DIMUPT
 70
     0
  9
$DIMDEC
 70
     2
  9
$DIMTDEC
 70
     2
  9
$DIMALTU
 70
     2
  9
$DIMALTTD
 70
     3
  9
$DIMTXSTY
  7
Standard
  9
$DIMAUNIT
 70
     0
  9
$DIMADEC
 70
     0
  9
$DIMALTRND
 40
0.0
  9
$DIMAZIN
 70
     0
  9
$DIMDSEP
 70
    44
  9
$DIMATFIT
 70
     3
  9
$DIMFRAC
 70
     0
  9
$DIMLDRBLK
  1

  9
$DIMLUNIT
 70
     2
  9
$DIMLWD
 70
    -2
  9
$DIMLWE
 70
    -2
  9
$DIMTMOVE
 70
     0
  9
$LUNITS
 70
     2
  9
$LUPREC
 70
     2
  9
$SKETCHINC
 40
1.0
  9
$FILLETRAD
 40
10.0
  9
$AUNITS
 70
     0
  9
$AUPREC
 70
     0
  9
$MENU
  1
.
  9
$ELEVATION
 40
0.0
  9
$PELEVATION
 40
0.0
  9
$THICKNESS
 40
0.0
  9
$LIMCHECK
 70
     0
  9
$CHAMFERA
 40
10.0
  9
$CHAMFERB
 40
10.0
  9
$CHAMFERC
 40
20.0
  9
$CHAMFERD
 40
0.0
  9
$SKPOLY
 70
     0
  9
$TDCREATE
 40
2455524.89002368
  9
$TDUCREATE
 40
2455524.723357014
  9
$TDUPDATE
 40
2455524.890023692
  9
$TDUUPDATE
 40
2455524.723357026
  9
$TDINDWG
 40
0.0000000116
  9
$TDUSRTIMER
 40
0.0000000116
  9
$USRTIMER
 70
     1
  9
$ANGBASE
 50
0.0
  9
$ANGDIR
 70
     0
  9
$PDMODE
 70
     0
  9
$PDSIZE
 40
-1.0
  9
$PLINEWID
 40
0.0
  9
$SPLFRAME
 70
     0
  9
$SPLINETYPE
 70
     6
  9
$SPLINESEGS
 70
     8
  9
$HANDSEED
  5
34B
  9
$SURFTAB1
 70
     6
  9
$SURFTAB2
 70
     6
  9
$SURFTYPE
 70
     6
  9
$SURFU
 70
     6
  9
$SURFV
 70
     6
  9
$UCSBASE
  2

  9
$UCSNAME
  2

  9
$UCSORG
 10
0.0
 20
0.0
 30
0.0
  9
$UCSXDIR
 10
1.0
 20
0.0
 30
0.0
  9
$UCSYDIR
 10
0.0
 20
1.0
 30
0.0
  9
$UCSORTHOREF
  2

  9
$UCSORTHOVIEW
 70
     0
  9
$UCSORGTOP
 10
0.0
 20
0.0
 30
0.0
  9
$UCSORGBOTTOM
 10
0.0
 20
0.0
 30
0.0
  9
$UCSORGLEFT
 10
0.0
 20
0.0
 30
0.0
  9
$UCSORGRIGHT
 10
0.0
 20
0.0
 30
0.0
  9
$UCSORGFRONT
 10
0.0
 20
0.0
 30
0.0
  9
$UCSORGBACK
 10
0.0
 20
0.0
 30
0.0
  9
$PUCSBASE
  2

  9
$PUCSNAME
  2

  9
$PUCSORG
 10
0.0
 20
0.0
 30
0.0
  9
$PUCSXDIR
 10
1.0
 20
0.0
 30
0.0
  9
$PUCSYDIR
 10
0.0
 20
1.0
 30
0.0
  9
$PUCSORTHOREF
  2

  9
$PUCSORTHOVIEW
 70
     0
  9
$PUCSORGTOP
 10
0.0
 20
0.0
 30
0.0
  9
$PUCSORGBOTTOM
 10
0.0
 20
0.0
 30
0.0
  9
$PUCSORGLEFT
 10
0.0
 20
0.0
 30
0.0
  9
$PUCSORGRIGHT
 10
0.0
 20
0.0
 30
0.0
  9
$PUCSORGFRONT
 10
0.0
 20
0.0
 30
0.0
  9
$PUCSORGBACK
 10
0.0
 20
0.0
 30
0.0
  9
$USERI1
 70
     0
  9
$USERI2
 70
     0
  9
$USERI3
 70
     0
  9
$USERI4
 70
     0
  9
$USERI5
 70
     0
  9
$USERR1
 40
0.0
  9
$USERR2
 40
0.0
  9
$USERR3
 40
0.0
  9
$USERR4
 40
0.0
  9
$USERR5
 40
0.0
  9
$WORLDVIEW
 70
     1
  9
$SHADEDGE
 70
     3
  9
$SHADEDIF
 70
    70
  9
$TILEMODE
 70
     1
  9
$MAXACTVP
 70
    64
  9
$PINSBASE
 10
0.0
 20
0.0
 30
0.0
  9
$PLIMCHECK
 70
     0
  9
$PEXTMIN
 10
1.0000000000E 20
 20
1.0000000000E 20
 30
1.0000000000E 20
  9
$PEXTMAX
 10
-1.0000000000E 20
 20
-1.0000000000E 20
 30
-1.0000000000E 20
  9
$PLIMMIN
 10
0.0
 20
0.0
  9
$PLIMMAX
 10
420.0
 20
297.0
  9
$UNITMODE
 70
     0
  9
$VISRETAIN
 70
     1
  9
$PLINEGEN
 70
     0
  9
$PSLTSCALE
 70
     1
  9
$TREEDEPTH
 70
  3020
  9
$CMLSTYLE
  2
Standard
  9
$CMLJUST
 70
     0
  9
$CMLSCALE
 40
20.0
  9
$PROXYGRAPHICS
 70
     1
  9
$MEASUREMENT
 70
     1
  9
$CELWEIGHT
370
    -1
  9
$ENDCAPS
280
     0
  9
$JOINSTYLE
280
     0
  9
$LWDISPLAY
290
     1
  9
$INSUNITS
 70
     4
  9
$HYPERLINKBASE
  1

  9
$STYLESHEET
  1

  9
$XEDIT
290
     1
  9
$CEPSNTYPE
380
     0
  9
$PSTYLEMODE
290
     1
  9
$FINGERPRINTGUID
  2
{264C905A-245B-4264-882B-B6649A362626}
  9
$VERSIONGUID
  2
{FAEB1C32-E019-11D5-929B-00C0DF256EC4}
  9
$EXTNAMES
290
     1
  9
$PSVPSCALE
 40
0.0
  9
$OLESTARTUP
290
     0
  0
ENDSEC
  0
SECTION
  2
CLASSES
  0
CLASS
  1
ACDBDICTIONARYWDFLT
  2
AcDbDictionaryWithDefault
  3
ObjectDBX Classes
 90
        0
280
     0
281
     0
  0
CLASS
  1
VISUALSTYLE
  2
AcDbVisualStyle
  3
ObjectDBX Classes
 90
     4095
280
     0
281
     0
  0
CLASS
  1
DICTIONARYVAR
  2
AcDbDictionaryVar
  3
ObjectDBX Classes
 90
        0
280
     0
281
     0
  0
CLASS
  1
ACDBPLACEHOLDER
  2
AcDbPlaceHolder
  3
ObjectDBX Classes
 90
        0
280
     0
281
     0
  0
CLASS
  1
LAYOUT
  2
AcDbLayout
  3
ObjectDBX Classes
 90
        0
280
     0
281
     0
  0
ENDSEC
  0
SECTION
  2
TABLES
  0
TABLE
  2
VPORT
  5
8
330
0
100
AcDbSymbolTable
 70
     1
  0
VPORT
  5
29
330
8
100
AcDbSymbolTableRecord
100
AcDbViewportTableRecord
  2
*Active
 70
     0
 10
0.0
 20
0.0
 11
1.0
 21
1.0
 12
148.5
 22
105.0
 13
0.0
 23
0.0
 14
10.0
 24
10.0
 15
10.0
 25
10.0
 16
0.0
 26
0.0
 36
1.0
 17
0.0
 27
0.0
 37
0.0
 40
210.0
 41
1.4142857143
 42
50.0
 43
0.0
 44
0.0
 50
0.0
 51
0.0
 71
     0
 72
  2000
 73
     1
 74
     3
 75
     0
 76
     0
 77
     0
 78
     0
281
     0
 65
     1
110
0.0
120
0.0
130
0.0
111
1.0
121
0.0
131
0.0
112
0.0
122
1.0
132
0.0
 79
     0
146
0.0
  0
ENDTAB
  0
TABLE
  2
LTYPE
  5
5
330
0
100
AcDbSymbolTable
 70
     6
  0
LTYPE
  5
14
330
5
100
AcDbSymbolTableRecord
100
AcDbLinetypeTableRecord
  2
ByBlock
 70
     0
  3

 72
    65
 73
     0
 40
0.0
  0
LTYPE
  5
15
330
5
100
AcDbSymbolTableRecord
100
AcDbLinetypeTableRecord
  2
ByLayer
 70
     0
  3

 72
    65
 73
     0
 40
0.0
  0
LTYPE
  5
16
330
5
100
AcDbSymbolTableRecord
100
AcDbLinetypeTableRecord
  2
Continuous
 70
     0
  3
Solid line
 72
    65
 73
     0
 40
0.0
  0
LTYPE
  5
3B
330
5
100
AcDbSymbolTableRecord
100
AcDbLinetypeTableRecord
  2
HIDDEN
 70
     0
  3
Hidden __ __ __ __ __ __ __ __ __ __ __ __ __ __
 72
    65
 73
     2
 40
1.905
 49
1.27
 74
     0
 49
-0.635
 74
     0
  0
LTYPE
  5
3C
330
5
100
AcDbSymbolTableRecord
100
AcDbLinetypeTableRecord
  2
PHANTOM
 70
     0
  3
Phantom ______  __  __  ______  __  __  ______
 72
    65
 73
     6
 40
12.7
 49
6.35
 74
     0
 49
-1.27
 74
     0
 49
1.27
 74
     0
 49
-1.27
 74
     0
 49
1.27
 74
     0
 49
-1.27
 74
     0
  0
LTYPE
  5
3D
330
5
100
AcDbSymbolTableRecord
100
AcDbLinetypeTableRecord
  2
CENTER
 70
     0
  3
Center ____ _ ____ _ ____ _ ____ _ ____ _ ____
 72
    65
 73
     4
 40
10.16
 49
6.35
 74
     0
 49
-1.27
 74
     0
 49
1.27
 74
     0
 49
-1.27
 74
     0
  0
LTYPE
  5
3E
330
5
100
AcDbSymbolTableRecord
100
AcDbLinetypeTableRecord
  2
CENTERX2
 70
     0
  3
Center (2x) ________  __  ________  __  _____
 72
    65
 73
     4
 40
20.32
 49
12.7
 74
     0
 49
-2.54
 74
     0
 49
2.54
 74
     0
 49
-2.54
 74
     0
  0
LTYPE
  5
3F
330
5
100
AcDbSymbolTableRecord
100
AcDbLinetypeTableRecord
  2
DOT2
 70
     0
  3
Dot (.5x) ........................................
 72
    65
 73
     2
 40
0.635
 49
0.0
 74
     0
 49
-0.635
 74
     0
  0
ENDTAB
  0
TABLE
  2
LAYER
  5
2
330
0
100
AcDbSymbolTable
 70
     1
  0
LAYER
  5
10
330
2
100
AcDbSymbolTableRecord
100
AcDbLayerTableRecord
  2
0
 70
     0
 62
     7
  6
Continuous
370
    -3
390
F
  0
ENDTAB
  0
TABLE
  2
STYLE
  5
3
330
0
100
AcDbSymbolTable
 70
     1
  0
STYLE
  5
11
330
3
100
AcDbSymbolTableRecord
100
AcDbTextStyleTableRecord
  2
Standard
 70
     0
 40
0.0
 41
1.0
 50
0.0
 71
     0
 42
2.5
  3
txt
  4

  0
ENDTAB
  0
TABLE
  2
VIEW
  5
6
330
0
100
AcDbSymbolTable
 70
     0
  0
ENDTAB
  0
TABLE
  2
UCS
  5
7
330
0
100
AcDbSymbolTable
 70
     0
  0
ENDTAB
  0
TABLE
  2
APPID
  5
9
330
0
100
AcDbSymbolTable
 70
     1
  0
APPID
  5
12
330
9
100
AcDbSymbolTableRecord
100
AcDbRegAppTableRecord
  2
ACAD
 70
     0
  0
ENDTAB
  0
TABLE
  2
DIMSTYLE
  5
A
330
0
100
AcDbSymbolTable
 70
     1
100
AcDbDimStyleTable
  0
DIMSTYLE
105
27
330
A
100
AcDbSymbolTableRecord
100
AcDbDimStyleTableRecord
  2
ISO-25
 70
     0
 41
2.5
 42
0.625
 43
3.75
 44
1.25
 73
     0
 74
     0
 77
     1
 78
     8
140
2.5
141
2.5
143
0.0393700787
147
0.625
171
     3
172
     1
271
     2
272
     2
274
     3
278
    44
283
     0
284
     8
340
11
  0
ENDTAB
  0
TABLE
  2
BLOCK_RECORD
  5
1
330
0
100
AcDbSymbolTable
 70
     1
  0
BLOCK_RECORD
  5
1F
330
1
100
AcDbSymbolTableRecord
100
AcDbBlockTableRecord
  2
*Model_Space
340
22
  0
BLOCK_RECORD
  5
1B
330
1
100
AcDbSymbolTableRecord
100
AcDbBlockTableRecord
  2
*Paper_Space
340
1E
  0
BLOCK_RECORD
  5
23
330
1
100
AcDbSymbolTableRecord
100
AcDbBlockTableRecord
  2
*Paper_Space0
340
26
  0
ENDTAB
  0
ENDSEC
  0
SECTION
  2
BLOCKS
  0
BLOCK
  5
20
330
1F
100
AcDbEntity
  8
0
100
AcDbBlockBegin
  2
*Model_Space
 70
     0
 10
0.0
 20
0.0
 30
0.0
  3
*Model_Space
  1

  0
ENDBLK
  5
21
330
1F
100
AcDbEntity
  8
0
100
AcDbBlockEnd
  0
BLOCK
  5
1C
330
1B
100
AcDbEntity
 67
     1
  8
0
100
AcDbBlockBegin
  2
*Paper_Space
 70
     0
 10
0.0
 20
0.0
 30
0.0
  3
*Paper_Space
  1

  0
ENDBLK
  5
1D
330
1B
100
AcDbEntity
 67
     1
  8
0
100
AcDbBlockEnd
  0
BLOCK
  5
24
330
23
100
AcDbEntity
  8
0
100
AcDbBlockBegin
  2
*Paper_Space0
 70
     0
 10
0.0
 20
0.0
 30
0.0
  3
*Paper_Space0
  1

  0
ENDBLK
  5
25
330
23
100
AcDbEntity
  8
0
100
AcDbBlockEnd
  0
ENDSEC
  0
SECTION
  2
ENTITIES
  0
LINE
  5
40
330
1F
100
AcDbEntity
  8
0
  6
Continuous
 62
     7
370
    15
100
AcDbLine
 10
1736.5774288714
 20
1828.0299831127
 30
0.0
 11
1723.0364009678
 21
1825.2880502437
 31
0.0
  0
ARC
  5
41
330
1F
100
AcDbEntity
  8
0
  6
Continuous
 62
     7
370
    15
100
AcDbCircle
 10
1721.0883196604
 20
1822.38033406
 30
0.0
 40
3.500000000000181
100
AcDbArc
 50
56.1793084154
 51
236.1793084154
  0
LINE
  5
42
330
1F
100
AcDbEntity
  8
0
  6
Continuous
 62
     7
370
    15
100
AcDbLine
 10
1719.1402316034
 20
1819.4726038669
 30
0.0
 11
1720.9970802009
 21
1810.3024292682
 31
0.0
  0
ARC
  5
43
330
1F
100
AcDbEntity
  8
0
  6
Continuous
 62
     7
370
    15
100
AcDbCircle
 10
1723.9996730504
 20
1808.5039735294
 30
0.0
 40
3.500000000000017
100
AcDbArc
 50
149.079691302
 51
329.079691302
  0
LINE
  5
44
330
1F
100
AcDbEntity
  8
0
  6
Continuous
 62
     7
370
    15
100
AcDbLine
 10
1727.0022630632
 20
1806.7055273746
 30
0.0
 11
1747.0079436839
 21
1810.7564378475
 31
0.0
  0
LINE
  5
45
330
1F
100
AcDbEntity
  8
0
  6
Continuous
 62
     7
370
    15
100
AcDbLine
 10
1759.7370669186
 20
1779.6388793682
 30
0.0
 11
1740.3996959269
 21
1773.9303637241
 31
0.0
  0
ARC
  5
46
330
1F
100
AcDbEntity
  8
0
  6
Continuous
 62
     7
370
    15
100
AcDbCircle
 10
1738.6575832748
 20
1770.8947370859
 30
0.0
 40
3.500000000000195
100
AcDbArc
 50
60.1489460148
 51
240.1489460148
  0
LINE
  5
47
330
1F
100
AcDbEntity
  8
0
  6
Continuous
 62
     7
370
    15
100
AcDbLine
 10
1736.9154691637
 20
1767.8590942119
 30
0.0
 11
1739.58537727
 21
1758.8148642276
 31
0.0
  0
ARC
  5
48
330
1F
100
AcDbEntity
  8
0
  6
Continuous
 62
     7
370
    15
100
AcDbCircle
 10
1742.7284133175
 20
1757.2749741752
 30
0.0
 40
3.500000000000008
100
AcDbArc
 50
153.8976272127
 51
333.8976272127
  0
LINE
  5
49
330
1F
100
AcDbEntity
  8
0
  6
Continuous
 62
     7
370
    15
100
AcDbLine
 10
1745.8714470208
 20
1755.7350326274
 30
0.0
 11
1765.0599591374
 21
1761.3996196483
 31
0.0
  0
ARC
  5
4A
330
1F
100
AcDbEntity
  8
0
  6
Continuous
 62
     7
370
    15
100
AcDbCircle
 10
1348.6223452688
 20
1656.4637750153
 30
0.0
 40
429.455256963303
100
AcDbArc
 50
7.890090205
 51
14.1432111127
  0
LINE
  5
4B
330
1F
100
AcDbEntity
  8
0
  6
Continuous
 62
     7
370
    15
100
AcDbLine
 10
1774.0120440662
 20
1715.4164839481
 30
0.0
 11
1753.0455589235
 21
1710.9943557476
 31
0.0
  0
ARC
  5
4C
330
1F
100
AcDbEntity
  8
0
  6
Continuous
 62
     7
370
    15
100
AcDbCircle
 10
1750.8769753828
 20
1708.2471522539
 30
0.0
 40
3.499999999999893
100
AcDbArc
 50
51.7134622492
 51
231.7134622492
  0
LINE
  5
4D
330
1F
100
AcDbEntity
  8
0
  6
Continuous
 62
     7
370
    15
100
AcDbLine
 10
1748.7083971441
 20
1705.4999399875
 30
0.0
 11
1750.6597489059
 21
1696.2480474208
 31
0.0
  0
ARC
  5
4E
330
1F
100
AcDbEntity
  8
0
  6
Continuous
 62
     7
370
    15
100
AcDbCircle
 10
1753.5468874457
 20
1694.2695404468
 30
0.0
 40
3.50000000000002
100
AcDbArc
 50
145.5780163498
 51
325.5780163498
  0
LINE
  5
4F
330
1F
100
AcDbEntity
  8
0
  6
Continuous
 62
     7
370
    15
100
AcDbLine
 10
1756.4340233743
 20
1692.2910738681
 30
0.0
 11
1776.4519788265
 21
1696.5131092761
 31
0.0
  0
LWPOLYLINE
  5
50
330
1F
100
AcDbEntity
  8
0
  6
Continuous
 62
     7
370
    15
100
AcDbPolyline
 90
        4
 70
   128
 43
0.0
 10
1781.1008244693
 20
1645.0819898342
 10
1779.7336801827
 20
1662.8325510715
 10
1778.2020159006
 20
1679.972820351
 10
1776.4519788265
 20
1696.5131092761
  0
LINE
  5
51
330
1F
100
AcDbEntity
  8
0
  6
Continuous
 62
     7
370
    15
100
AcDbLine
 10
1781.1008244693
 20
1645.0819898342
 30
0.0
 11
1753.1734406888
 21
1640.228741238
 31
0.0
  0
ARC
  5
52
330
1F
100
AcDbEntity
  8
0
  6
Continuous
 62
     7
370
    15
100
AcDbCircle
 10
1751.2493203777
 20
1637.3050860196
 30
0.0
 40
3.49999999999988
100
AcDbArc
 50
56.6502862488
 51
236.6502862488
  0
LINE
  5
53
330
1F
100
AcDbEntity
  8
0
  6
Continuous
 62
     7
370
    15
100
AcDbLine
 10
1749.3252009094
 20
1634.3814063762
 30
0.0
 11
1750.856384629
 21
1625.5703497623
 31
0.0
  0
ARC
  5
54
330
1F
100
AcDbEntity
  8
0
  6
Continuous
 62
     7
370
    15
100
AcDbCircle
 10
1753.7163980402
 20
1623.5528593888
 30
0.0
 40
3.50000000000023
100
AcDbArc
 50
144.8000811299
 51
324.8000811299
  0
LINE
  5
55
330
1F
100
AcDbEntity
  8
0
  6
Continuous
 62
     7
370
    15
100
AcDbLine
 10
1756.5764114201
 20
1621.5353537296
 30
0.0
 11
1782.4020646453
 21
1626.0233450626
 31
0.0
  0
LWPOLYLINE
  5
56
330
1F
100
AcDbEntity
  8
0
  6
Continuous
 62
     7
370
    15
100
AcDbPolyline
 90
        4
 70
   128
 43
0.0
 10
1785.9599664748
 20
1568.4259463047
 10
1784.7426347375
 20
1588.2443714832
 10
1783.5734113991
 20
1607.440226147
 10
1782.4020646453
 20
1626.0233450626
  0
LINE
  5
57
330
1F
100
AcDbEntity
  8
0
  6
Continuous
 62
     7
370
    15
100
AcDbLine
 10
1785.9599664748
 20
1568.4259463047
 30
0.0
 11
1766.6683085203
 21
1565.999083588
 31
0.0
  0
ARC
  5
58
330
1F
100
AcDbEntity
  8
0
  6
Continuous
 62
     7
370
    15
100
AcDbCircle
 10
1764.7264858617
 20
1563.0871726702
 30
0.0
 40
3.499999999999969
100
AcDbArc
 50
56.3026065865
 51
236.3026065865
  0
LINE
  5
59
330
1F
100
AcDbEntity
  8
0
  6
Continuous
 62
     7
370
    15
100
AcDbLine
 10
1762.7846635818
 20
1560.1752329563
 30
0.0
 11
1763.894058758
 21
1551.3564277385
 31
0.0
  0
ARC
  5
5A
330
1F
100
AcDbEntity
  8
0
  6
Continuous
 62
     7
370
    15
100
AcDbCircle
 10
1766.7138785389
 20
1549.2831216875
 30
0.0
 40
3.500000000000004
100
AcDbArc
 50
143.6743394956
 51
323.6743394956
  0
LINE
  5
5B
330
1F
100
AcDbEntity
  8
0
  6
Continuous
 62
     7
370
    15
100
AcDbLine
 10
1769.5336975098
 20
1547.2097922061
 30
0.0
 11
1787.1791608572
 21
1549.4295883869
 31
0.0
  0
LWPOLYLINE
  5
5C
330
1F
100
AcDbEntity
  8
0
  6
Continuous
 62
     7
370
    15
100
AcDbPolyline
 90
        4
 70
   128
 43
0.0
 10
1792.055554682
 20
1485.6271672939
 10
1790.2115341216
 20
1507.526986668
 10
1788.6018715739
 20
1528.7914205287
 10
1787.1791608572
 20
1549.4295883869
  0
LINE
  5
5D
330
1F
100
AcDbEntity
  8
0
  6
Continuous
 62
     7
370
    15
100
AcDbLine
 10
1792.055554682
 20
1485.6271672939
 30
0.0
 11
1768.8898481369
 21
1481.374822924
 31
0.0
  0
ARC
  5
5E
330
1F
100
AcDbEntity
  8
0
  6
Continuous
 62
     7
370
    15
100
AcDbCircle
 10
1767.1790904295
 20
1478.321427692
 30
0.0
 40
3.500000000000183
100
AcDbArc
 50
60.739076212
 51
240.739076212
  0
LINE
  5
5F
330
1F
100
AcDbEntity
  8
0
  6
Continuous
 62
     7
370
    15
100
AcDbLine
 10
1765.4683329105
 20
1475.2680290435
 30
0.0
 11
1767.1235874236
 21
1466.2505317424
 31
0.0
  0
ARC
  5
60
330
1F
100
AcDbEntity
  8
0
  6
Continuous
 62
     7
370
    15
100
AcDbCircle
 10
1770.1847950664
 20
1464.5537770176
 30
0.0
 40
3.500000000000121
100
AcDbArc
 50
151.0012531859
 51
331.0012531859
  0
LINE
  5
61
330
1F
100
AcDbEntity
  8
0
  6
Continuous
 62
     7
370
    15
100
AcDbLine
 10
1773.2460014462
 20
1462.8570008968
 30
0.0
 11
1793.8496861547
 21
1466.6390348171
 31
0.0
  0
ARC
  5
62
330
1F
100
AcDbEntity
  8
0
  6
Continuous
 62
     7
370
    15
100
AcDbCircle
 10
2109.8358012198
 20
1495.1256827112
 30
0.0
 40
317.2675748042756
100
AcDbArc
 50
185.1513796184
 51
191.9095680354
  0
LINE
  5
63
330
1F
100
AcDbEntity
  8
0
  6
Continuous
 62
     7
370
    15
100
AcDbLine
 10
1799.3975579679
 20
1429.6519387458
 30
0.0
 11
1771.7995941579
 21
1409.0952504371
 31
0.0
  0
ARC
  5
64
330
1F
100
AcDbEntity
  8
0
  6
Continuous
 62
     7
370
    15
100
AcDbCircle
 10
1771.3758905635
 20
1405.6209876396
 30
0.0
 40
3.500000000004359
100
AcDbArc
 50
83.0468504584
 51
263.0468504584
  0
LINE
  5
65
330
1F
100
AcDbEntity
  8
0
  6
Continuous
 62
     7
370
    15
100
AcDbLine
 10
1770.9521874726
 20
1402.1467197631
 30
0.0
 11
1776.4511406362
 21
1394.7642076705
 31
0.0
  0
ARC
  5
66
330
1F
100
AcDbEntity
  8
0
  6
Continuous
 62
     7
370
    15
100
AcDbCircle
 10
1779.9331681665
 20
1394.4099657636
 30
0.0
 40
3.500000000000153
100
AcDbArc
 50
174.190831979
 51
354.190831979
  0
LINE
  5
67
330
1F
100
AcDbEntity
  8
0
  6
Continuous
 62
     7
370
    15
100
AcDbLine
 10
1783.4151945949
 20
1394.0557170604
 30
0.0
 11
1805.6448120564
 21
1410.6137085651
 31
0.0
  0
ARC
  5
68
330
1F
100
AcDbEntity
  8
0
  6
Continuous
 62
     7
370
    15
100
AcDbCircle
 10
1847.835141538
 20
1429.5298443587
 30
0.0
 40
46.23682617915583
100
AcDbArc
 50
204.1491937333
 51
231.8726266925
  0
LINE
  5
69
330
1F
100
AcDbEntity
  8
0
  6
Continuous
 62
     7
370
    15
100
AcDbLine
 10
1819.2879810171
 20
1393.1581009124
 30
0.0
 11
1807.4822984576
 21
1362.7857495044
 31
0.0
  0
ARC
  5
6A
330
1F
100
AcDbEntity
  8
0
  6
Continuous
 62
     7
370
    15
100
AcDbCircle
 10
1809.089404243
 20
1359.6765358902
 30
0.0
 40
3.500000000000076
100
AcDbArc
 50
117.3337526468
 51
297.3337526468
  0
LINE
  5
6B
330
1F
100
AcDbEntity
  8
0
  6
Continuous
 62
     7
370
    15
100
AcDbLine
 10
1810.6965096608
 20
1356.5673161243
 30
0.0
 11
1818.8443749618
 21
1353.4002531265
 31
0.0
  0
ARC
  5
6C
330
1F
100
AcDbEntity
  8
0
  6
Continuous
 62
     7
370
    15
100
AcDbCircle
 10
1822.0646409693
 20
1354.7713491257
 30
0.0
 40
3.500000000000159
100
AcDbArc
 50
203.0628071932
 51
23.0628071932
  0
LINE
  5
6D
330
1F
100
AcDbEntity
  8
0
  6
Continuous
 62
     7
370
    15
100
AcDbLine
 10
1825.2849071227
 20
1356.142424414
 30
0.0
 11
1836.6050971612
 21
1385.2657604907
 31
0.0
  0
LWPOLYLINE
  5
6E
330
1F
100
AcDbEntity
  8
0
  6
Continuous
 62
     7
370
    15
100
AcDbPolyline
 90
        5
 70
   128
 43
0.0
 10
1868.9032830238
 20
1383.5283745025
 10
1860.2597601652
 20
1383.204870293
 10
1851.965174073
 20
1383.2968402599
 10
1844.0653439552
 20
1383.9375305866
 10
1836.6050971612
 20
1385.2657604907
  0
LINE
  5
6F
330
1F
100
AcDbEntity
  8
0
  6
Continuous
 62
     7
370
    15
100
AcDbLine
 10
1868.9032830238
 20
1383.5283745025
 30
0.0
 11
1868.9014166534
 21
1362.981044123
 31
0.0
  0
ARC
  5
70
330
1F
100
AcDbEntity
  8
0
  6
Continuous
 62
     7
370
    15
100
AcDbCircle
 10
1871.5390209738
 20
1360.6803869105
 30
0.0
 40
3.500000000000238
100
AcDbArc
 50
138.903322816
 51
318.9137331299
  0
LINE
  5
71
330
1F
100
AcDbEntity
  8
0
  6
Continuous
 62
     7
370
    15
100
AcDbLine
 10
1874.1770423889
 20
1358.3801913951
 30
0.0
 11
1882.6716504931
 21
1358.3801913951
 31
0.0
  0
ARC
  5
72
330
1F
100
AcDbEntity
  8
0
  6
Continuous
 62
     7
370
    15
100
AcDbCircle
 10
1885.2863246365
 20
1360.7068953607
 30
0.0
 40
3.500000000000144
100
AcDbArc
 50
221.6645639193
 51
41.6541536053
  0
LINE
  5
73
330
1F
100
AcDbEntity
  8
0
  6
Continuous
 62
     7
370
    15
100
AcDbLine
 10
1887.9014179051
 20
1363.0331087802
 30
0.0
 11
1887.9034370124
 21
1385.202460358
 31
0.0
  0
LWPOLYLINE
  5
74
330
1F
100
AcDbEntity
  8
0
  6
Continuous
 62
     7
370
    15
100
AcDbPolyline
 90
        3
 70
   128
 43
0.0
 10
1925.8780851901
 20
1390.3846073841
 10
1906.7835062683
 20
1387.6359093879
 10
1887.9034370124
 20
1385.202460358
  0
LINE
  5
75
330
1F
100
AcDbEntity
  8
0
  6
Continuous
 62
     7
370
    15
100
AcDbLine
 10
1925.8780851901
 20
1390.3846073841
 30
0.0
 11
1927.34587937
 21
1372.2222674583
 31
0.0
  0
ARC
  5
76
330
1F
100
AcDbEntity
  8
0
  6
Continuous
 62
     7
370
    15
100
AcDbCircle
 10
1930.1706409005
 20
1370.1557060848
 30
0.0
 40
3.500000000000296
100
AcDbArc
 50
143.8111657445
 51
323.8111657445
  0
LINE
  5
77
330
1F
100
AcDbEntity
  8
0
  6
Continuous
 62
     7
370
    15
100
AcDbLine
 10
1932.9954013169
 20
1368.089132378
 30
0.0
 11
1941.5833502948
 21
1368.7831688617
 31
0.0
  0
ARC
  5
78
330
1F
100
AcDbEntity
  8
0
  6
Continuous
 62
     7
370
    15
100
AcDbCircle
 10
1943.924274557
 20
1371.3851048272
 30
0.0
 40
3.5
100
AcDbArc
 50
228.0226817904
 51
48.0226817904
  0
LINE
  5
79
330
1F
100
AcDbEntity
  8
0
  6
Continuous
 62
     7
370
    15
100
AcDbLine
 10
1946.2651982844
 20
1373.9870417808
 30
0.0
 11
1944.7199553192
 21
1393.1078839992
 31
0.0
  0
LWPOLYLINE
  5
7A
330
1F
100
AcDbEntity
  8
0
  6
Continuous
 62
     7
370
    15
100
AcDbPolyline
 90
        3
 70
   128
 43
0.0
 10
1985.2835461438
 20
1398.8283205722
 10
1965.1327356637
 20
1396.0211206172
 10
1944.7199553192
 20
1393.1078839992
  0
LINE
  5
7B
330
1F
100
AcDbEntity
  8
0
  6
Continuous
 62
     7
370
    15
100
AcDbLine
 10
1985.2835461438
 20
1398.8283205722
 30
0.0
 11
1986.8485107958
 21
1378.3355284427
 31
0.0
  0
ARC
  5
7C
330
1F
100
AcDbEntity
  8
0
  6
Continuous
 62
     7
370
    15
100
AcDbCircle
 10
1989.6070918754
 20
1376.1814139866
 30
0.0
 40
3.500000000002479
100
AcDbArc
 50
142.0146339226
 51
322.0146339226
  0
LINE
  5
7D
330
1F
100
AcDbEntity
  8
0
  6
Continuous
 62
     7
370
    15
100
AcDbLine
 10
1992.365680629
 20
1374.0273047183
 30
0.0
 11
2001.5837624609
 21
1374.7312653755
 31
0.0
  0
ARC
  5
7E
330
1F
100
AcDbEntity
  8
0
  6
Continuous
 62
     7
370
    15
100
AcDbCircle
 10
2003.6666165772
 20
1377.5440320014
 30
0.0
 40
3.500000000000106
100
AcDbArc
 50
233.4802189287
 51
53.4802189287
  0
LINE
  5
7F
330
1F
100
AcDbEntity
  8
0
  6
Continuous
 62
     7
370
    15
100
AcDbLine
 10
2005.7494714797
 20
1380.356811354
 30
0.0
 11
2004.1452720702
 21
1401.3633955215
 31
0.0
  0
LINE
  5
80
330
1F
100
AcDbEntity
  8
0
  6
Continuous
 62
     7
370
    15
100
AcDbLine
 10
2030.7247564137
 20
1404.7196436618
 30
0.0
 11
2004.1452720702
 21
1401.3633955215
 31
0.0
  0
LINE
  5
81
330
1F
100
AcDbEntity
  8
0
  6
Continuous
 62
     7
370
    15
100
AcDbLine
 10
2030.7247564137
 20
1404.7196436618
 30
0.0
 11
2032.0092067063
 21
1381.4422119354
 31
0.0
  0
ARC
  5
82
330
1F
100
AcDbEntity
  8
0
  6
Continuous
 62
     7
370
    15
100
AcDbCircle
 10
2034.8574945773
 20
1379.4081925553
 30
0.0
 40
3.500000000000159
100
AcDbArc
 50
144.4685256345
 51
324.4685256345
  0
LINE
  5
83
330
1F
100
AcDbEntity
  8
0
  6
Continuous
 62
     7
370
    15
100
AcDbLine
 10
2037.7057865202
 20
1377.3741651271
 30
0.0
 11
2046.4424416363
 21
1377.8562474941
 31
0.0
  0
ARC
  5
84
330
1F
100
AcDbEntity
  8
0
  6
Continuous
 62
     7
370
    15
100
AcDbCircle
 10
2048.6912198646
 20
1380.5382299594
 30
0.0
 40
3.500000000000263
100
AcDbArc
 50
230.0208257609
 51
50.0208257609
  0
LINE
  5
85
330
1F
100
AcDbEntity
  8
0
  6
Continuous
 62
     7
370
    15
100
AcDbLine
 10
2050.9399995148
 20
1383.2201886867
 30
0.0
 11
2049.6333613932
 21
1406.8998921607
 31
0.0
  0
LWPOLYLINE
  5
86
330
1F
100
AcDbEntity
  8
0
  6
Continuous
 62
     7
370
    15
100
AcDbPolyline
 90
        3
 70
   128
 43
0.0
 10
2087.4900743306
 20
1410.5199504589
 10
2068.8961967766
 20
1408.8869024013
 10
2049.6333613932
 20
1406.8998921607
  0
LINE
  5
87
330
1F
100
AcDbEntity
  8
0
  6
Continuous
 62
     7
370
    15
100
AcDbLine
 10
2087.4900743306
 20
1410.5199504589
 30
0.0
 11
2085.4110941231
 21
1386.8713904117
 31
0.0
  0
ARC
  5
88
330
1F
100
AcDbEntity
  8
0
  6
Continuous
 62
     7
370
    15
100
AcDbCircle
 10
2087.5896607731
 20
1384.1320711788
 30
0.0
 40
3.500000000001815
100
AcDbArc
 50
128.4951744607
 51
308.4951744607
  0
LINE
  5
89
330
1F
100
AcDbEntity
  8
0
  6
Continuous
 62
     7
370
    15
100
AcDbLine
 10
2089.7682234585
 20
1381.3927698825
 30
0.0
 11
2099.28568452
 21
1380.5560696815
 31
0.0
  0
ARC
  5
8A
330
1F
100
AcDbEntity
  8
0
  6
Continuous
 62
     7
370
    15
100
AcDbCircle
 10
2101.8196721872
 20
1382.9703733364
 30
0.0
 40
3.50000000000014
100
AcDbArc
 50
223.6143235295
 51
43.6143235295
  0
LINE
  5
8B
330
1F
100
AcDbEntity
  8
0
  6
Continuous
 62
     7
370
    15
100
AcDbLine
 10
2104.353658849
 20
1385.3846717571
 30
0.0
 11
2106.6784784138
 21
1411.8295539115
 31
0.0
  0
ARC
  5
8C
330
1F
100
AcDbEntity
  8
0
  6
Continuous
 62
     7
370
    15
100
AcDbCircle
 10
2136.8276974952
 20
960.0727746959
 30
0.0
 40
452.7617066167018
100
AcDbArc
 50
86.2055627605
 51
93.8181280651
  0
LINE
  5
8D
330
1F
100
AcDbEntity
  8
0
  6
Continuous
 62
     7
370
    15
100
AcDbLine
 10
2166.7901202977
 20
1411.84198148
 30
0.0
 11
2152.1271392643
 21
1380.4315257762
 31
0.0
  0
ARC
  5
8E
330
1F
100
AcDbEntity
  8
0
  6
Continuous
 62
     7
370
    15
100
AcDbCircle
 10
2153.4251830819
 20
1377.181114803
 30
0.0
 40
3.500000000000162
100
AcDbArc
 50
111.7691288939
 51
291.7691288939
  0
LINE
  5
8F
330
1F
100
AcDbEntity
  8
0
  6
Continuous
 62
     7
370
    15
100
AcDbLine
 10
2154.7232195675
 20
1373.9307153915
 30
0.0
 11
2163.2202193081
 21
1369.9641752933
 31
0.0
  0
ARC
  5
90
330
1F
100
AcDbEntity
  8
0
  6
Continuous
 62
     7
370
    15
100
AcDbCircle
 10
2166.3986922611
 20
1371.4295108694
 30
0.0
 40
3.500000000000192
100
AcDbArc
 50
204.7506081347
 51
24.7506081347
  0
LINE
  5
91
330
1F
100
AcDbEntity
  8
0
  6
Continuous
 62
     7
370
    15
100
AcDbLine
 10
2169.5771738827
 20
1372.8948462699
 30
0.0
 11
2186.6048499882
 21
1409.3708921169
 31
0.0
  0
LWPOLYLINE
  5
92
330
1F
100
AcDbEntity
  8
0
  6
Continuous
 62
     7
370
    15
100
AcDbPolyline
 90
       11
 70
   128
 43
0.0
 10
2245.638512069
 20
1359.9176038002
 10
2242.5386831105
 20
1367.6667738651
 10
2239.2552718461
 20
1374.6683824752
 10
2235.7154712021
 20
1380.9365559314
 10
2231.2850877583
 20
1387.1586847995
 10
2226.2155935109
 20
1392.5676871036
 10
2220.3398272336
 20
1397.2238231395
 10
2213.490806514
 20
1401.1873830055
 10
2205.561362201
 20
1404.5106995796
 10
2196.5824887097
 20
1407.2280157302
 10
2186.6048499882
 20
1409.3708921169
  0
LINE
  5
93
330
1F
100
AcDbEntity
  8
0
  6
Continuous
 62
     7
370
    15
100
AcDbLine
 10
2245.638512069
 20
1359.9176038002
 30
0.0
 11
2211.8404731095
 21
1337.5569213127
 31
0.0
  0
ARC
  5
94
330
1F
100
AcDbEntity
  8
0
  6
Continuous
 62
     7
370
    15
100
AcDbCircle
 10
2210.9562336439
 20
1334.1704593055
 30
0.0
 40
3.500000000000133
100
AcDbArc
 50
75.3664456341
 51
255.3664456341
  0
LINE
  5
95
330
1F
100
AcDbEntity
  8
0
  6
Continuous
 62
     7
370
    15
100
AcDbLine
 10
2210.072003299
 20
1330.7839859222
 30
0.0
 11
2215.1119038403
 21
1323.1661844944
 31
0.0
  0
ARC
  5
96
330
1F
100
AcDbEntity
  8
0
  6
Continuous
 62
     7
370
    15
100
AcDbCircle
 10
2218.5019189736
 20
1322.2956340483
 30
0.0
 40
3.500000000000619
100
AcDbArc
 50
165.5975398118
 51
345.5975398118
  0
LINE
  5
97
330
1F
100
AcDbEntity
  8
0
  6
Continuous
 62
     7
370
    15
100
AcDbLine
 10
2221.8919321835
 20
1321.4250732158
 30
0.0
 11
2251.6049072087
 21
1341.0830724929
 31
0.0
  0
ARC
  5
98
330
1F
100
AcDbEntity
  8
0
  6
Continuous
 62
     7
370
    15
100
AcDbCircle
 10
1868.3316062967
 20
1241.4937516715
 30
0.0
 40
396.0005757743882
100
AcDbArc
 50
4.1991400412
 51
14.5655710789
  0
LINE
  5
99
330
1F
100
AcDbEntity
  8
0
  6
Continuous
 62
     7
370
    15
100
AcDbLine
 10
2263.269148761
 20
1270.4901922439
 30
0.0
 11
2232.4204966366
 21
1264.4852925037
 31
0.0
  0
ARC
  5
9A
330
1F
100
AcDbEntity
  8
0
  6
Continuous
 62
     7
370
    15
100
AcDbCircle
 10
2230.5215384585
 20
1261.5452279739
 30
0.0
 40
3.499999999999929
100
AcDbArc
 50
57.1422393575
 51
237.1422393575
  0
LINE
  5
9B
330
1F
100
AcDbEntity
  8
0
  6
Continuous
 62
     7
370
    15
100
AcDbLine
 10
2228.6226078808
 20
1258.605145285
 30
0.0
 11
2230.4643914044
 21
1249.1433102582
 31
0.0
  0
ARC
  5
9C
330
1F
100
AcDbEntity
  8
0
  6
Continuous
 62
     7
370
    15
100
AcDbCircle
 10
2233.5819685743
 20
1247.5524654309
 30
0.0
 40
3.500000000000069
100
AcDbArc
 50
152.9655582123
 51
332.9655582123
  0
LINE
  5
9D
330
1F
100
AcDbEntity
  8
0
  6
Continuous
 62
     7
370
    15
100
AcDbLine
 10
2236.6995438874
 20
1245.9616292213
 30
0.0
 11
2264.5364031136
 21
1251.3802278732
 31
0.0
  0
LWPOLYLINE
  5
9E
330
1F
100
AcDbEntity
  8
0
  6
Continuous
 62
     7
370
    15
100
AcDbPolyline
 90
        3
 70
   128
 43
0.0
 10
2265.2040347397
 20
1214.2400819753
 10
2265.1512250245
 20
1233.0696213935
 10
2264.5364031136
 20
1251.3802278732
  0
LINE
  5
9F
330
1F
100
AcDbEntity
  8
0
  6
Continuous
 62
     7
370
    15
100
AcDbLine
 10
2265.2040347397
 20
1214.2400819753
 30
0.0
 11
2221.6759547532
 21
1210.4502398466
 31
0.0
  0
ARC
  5
A0
330
1F
100
AcDbEntity
  8
0
  6
Continuous
 62
     7
370
    15
100
AcDbCircle
 10
2219.4287013119
 20
1207.7669791974
 30
0.0
 40
3.500000000000094
100
AcDbArc
 50
50.0537008496
 51
230.0537008496
  0
LINE
  5
A1
330
1F
100
AcDbEntity
  8
0
  6
Continuous
 62
     7
370
    15
100
AcDbLine
 10
2217.1814665139
 20
1205.083720753
 30
0.0
 11
2217.9621085465
 21
1196.1174238418
 31
0.0
  0
ARC
  5
A2
330
1F
100
AcDbEntity
  8
0
  6
Continuous
 62
     7
370
    15
100
AcDbCircle
 10
2220.5988758803
 20
1193.8157938786
 30
0.0
 40
3.500000000000017
100
AcDbArc
 50
138.8821547354
 51
318.8821547354
  0
LINE
  5
A3
330
1F
100
AcDbEntity
  8
0
  6
Continuous
 62
     7
370
    15
100
AcDbLine
 10
2223.235629493
 20
1191.5141571258
 30
0.0
 11
2264.6742090523
 21
1195.1220709775
 31
0.0
  0
LWPOLYLINE
  5
A4
330
1F
100
AcDbEntity
  8
0
  6
Continuous
 62
     7
370
    15
100
AcDbPolyline
 90
        3
 70
   128
 43
0.0
 10
2262.4590620339
 20
1162.8810990547
 10
2263.7806460202
 20
1179.0850836729
 10
2264.6742090523
 20
1195.1220709775
  0
LINE
  5
A5
330
1F
100
AcDbEntity
  8
0
  6
Continuous
 62
     7
370
    15
100
AcDbLine
 10
2262.4590620339
 20
1162.8810990547
 30
0.0
 11
2207.9479321778
 21
1169.7503406499
 31
0.0
  0
ARC
  5
A6
330
1F
100
AcDbEntity
  8
0
  6
Continuous
 62
     7
370
    15
100
AcDbCircle
 10
2205.1929160457
 20
1167.5916616696
 30
0.0
 40
3.500000000000487
100
AcDbArc
 50
38.0801842026
 51
218.0801842026
  0
LINE
  5
A7
330
1F
100
AcDbEntity
  8
0
  6
Continuous
 62
     7
370
    15
100
AcDbLine
 10
2202.4379000008
 20
1165.4329825138
 30
0.0
 11
2201.3337537587
 21
1156.6709060167
 31
0.0
  0
ARC
  5
A8
330
1F
100
AcDbEntity
  8
0
  6
Continuous
 62
     7
370
    15
100
AcDbCircle
 10
2203.3356556508
 20
1153.7999642205
 30
0.0
 40
3.500000000000272
100
AcDbArc
 50
124.8880815373
 51
304.8880815373
  0
LINE
  5
A9
330
1F
100
AcDbEntity
  8
0
  6
Continuous
 62
     7
370
    15
100
AcDbLine
 10
2205.3375765622
 20
1150.9290117715
 30
0.0
 11
2260.3765651524
 21
1143.9932662939
 31
0.0
  0
LWPOLYLINE
  5
AA
330
1F
100
AcDbEntity
  8
0
  6
Continuous
 62
     7
370
    15
100
AcDbPolyline
 90
        3
 70
   128
 43
0.0
 10
2251.8341466725
 20
1093.8712213133
 10
2256.6704079449
 20
1118.8983920907
 10
2260.3765651524
 20
1143.9932662939
  0
LINE
  5
AB
330
1F
100
AcDbEntity
  8
0
  6
Continuous
 62
     7
370
    15
100
AcDbLine
 10
2251.8341466725
 20
1093.8712213133
 30
0.0
 11
2204.8636898339
 21
1121.0669729804
 31
0.0
  0
ARC
  5
AC
330
1F
100
AcDbEntity
  8
0
  6
Continuous
 62
     7
370
    15
100
AcDbCircle
 10
2201.504420209
 20
1120.0844496435
 30
0.0
 40
3.500000000000248
100
AcDbArc
 50
16.3032218489
 51
196.3032218489
  0
LINE
  5
AD
330
1F
100
AcDbEntity
  8
0
  6
Continuous
 62
     7
370
    15
100
AcDbLine
 10
2198.1451436818
 20
1119.1019270514
 30
0.0
 11
2193.7613710701
 21
1111.5305576418
 31
0.0
  0
ARC
  5
AE
330
1F
100
AcDbEntity
  8
0
  6
Continuous
 62
     7
370
    15
100
AcDbCircle
 10
2194.4978944333
 20
1108.1089349274
 30
0.0
 40
3.499999999999935
100
AcDbArc
 50
102.1480587189
 51
282.1480587189
  0
LINE
  5
AF
330
1F
100
AcDbEntity
  8
0
  6
Continuous
 62
     7
370
    15
100
AcDbLine
 10
2195.2344402611
 20
1104.6873111223
 30
0.0
 11
2247.2559437096
 21
1074.567027757
 31
0.0
  0
ARC
  5
B0
330
1F
100
AcDbEntity
  8
0
  6
Continuous
 62
     7
370
    15
100
AcDbCircle
 10
1827.7426095899
 20
1180.5658967729
 30
0.0
 40
432.697582309927
100
AcDbArc
 50
335.4032978493
 51
345.8198104774
  0
LINE
  5
B1
330
1F
100
AcDbEntity
  8
0
  6
Continuous
 62
     7
370
    15
100
AcDbLine
 10
2193.046681577
 20
1000.464849541
 30
0.0
 11
2221.1772426903
 21
1000.464849541
 31
0.0
  0
LINE
  5
B2
330
1F
100
AcDbEntity
  8
0
  6
Continuous
 62
     7
370
    15
100
AcDbLine
 10
2193.046681577
 20
1000.464849541
 30
0.0
 11
2171.2996587098
 21
1052.960280696
 31
0.0
  0
ARC
  5
B3
330
1F
100
AcDbEntity
  8
0
  6
Continuous
 62
     7
370
    15
100
AcDbCircle
 10
2167.8367238774
 20
1054.2634085794
 30
0.0
 40
3.69999999999997
100
AcDbArc
 50
339.3782941455
 51
159.3782941455
  0
LINE
  5
B4
330
1F
100
AcDbEntity
  8
0
  6
Continuous
 62
     7
370
    15
100
AcDbLine
 10
2164.3738076031
 20
1055.566534767
 30
0.0
 11
2156.5591320336
 21
1052.3291941677
 31
0.0
  0
ARC
  5
B5
330
1F
100
AcDbEntity
  8
0
  6
Continuous
 62
     7
370
    15
100
AcDbCircle
 10
2155.2033735693
 20
1048.8865325934
 30
0.0
 40
3.699999999999921
100
AcDbArc
 50
68.5048496975
 51
248.5048496975
  0
LINE
  5
B6
330
1F
100
AcDbEntity
  8
0
  6
Continuous
 62
     7
370
    15
100
AcDbLine
 10
2153.8475975335
 20
1045.4438742195
 30
0.0
 11
2172.4808439553
 21
1000.464849541
 31
0.0
  0
LINE
  5
B7
330
1F
100
AcDbEntity
  8
0
  6
Continuous
 62
     7
370
    15
100
AcDbLine
 10
1671.1772307694
 20
1000.464849541
 30
0.0
 11
2172.4808439553
 21
1000.464849541
 31
0.0
  0
ARC
  5
B8
330
1F
100
AcDbEntity
  8
0
  6
Continuous
 62
     7
370
    15
100
AcDbCircle
 10
1939.0543513748
 20
910.1961721046
 30
0.0
 40
282.6775241801371
100
AcDbArc
 50
133.2949296199
 51
161.3773187504
  0
LINE
  5
B9
330
1F
100
AcDbEntity
  8
0
  6
Continuous
 62
     7
370
    15
100
AcDbLine
 10
1745.2071234524
 20
1115.9383285736
 30
0.0
 11
1745.2071234524
 21
1077.3001465891
 31
0.0
  0
ARC
  5
BA
330
1F
100
AcDbEntity
  8
0
  6
Continuous
 62
     7
370
    15
100
AcDbCircle
 10
1747.6819974237
 20
1074.8252730169
 30
0.0
 40
3.499999999999948
100
AcDbArc
 50
135.0
 51
315.0
  0
LINE
  5
BB
330
1F
100
AcDbEntity
  8
0
  6
Continuous
 62
     7
370
    15
100
AcDbLine
 10
1750.1568719685
 20
1072.3503980731
 30
0.0
 11
1759.257376188
 21
1072.3503980731
 31
0.0
  0
ARC
  5
BC
330
1F
100
AcDbEntity
  8
0
  6
Continuous
 62
     7
370
    15
100
AcDbCircle
 10
1761.7322499554
 20
1074.8252730169
 30
0.0
 40
3.499999999999948
100
AcDbArc
 50
225.0
 51
45.0
  0
LINE
  5
BD
330
1F
100
AcDbEntity
  8
0
  6
Continuous
 62
     7
370
    15
100
AcDbLine
 10
1764.2071247041
 20
1077.3001465891
 30
0.0
 11
1764.2071247041
 21
1132.3110688423
 31
0.0
  0
ARC
  5
BE
330
1F
100
AcDbEntity
  8
0
  6
Continuous
 62
     7
370
    15
100
AcDbCircle
 10
1939.0543513748
 20
910.1961721046
 30
0.0
 40
282.6775241801369
100
AcDbArc
 50
115.9841153306
 51
128.209562702
  0
LINE
  5
BF
330
1F
100
AcDbEntity
  8
0
  6
Continuous
 62
     7
370
    15
100
AcDbLine
 10
1815.2071237504
 20
1164.2993915771
 30
0.0
 11
1815.2071237504
 21
1077.3001465891
 31
0.0
  0
ARC
  5
C0
330
1F
100
AcDbEntity
  8
0
  6
Continuous
 62
     7
370
    15
100
AcDbCircle
 10
1817.6819974237
 20
1074.8252730169
 30
0.0
 40
3.499999999999948
100
AcDbArc
 50
135.0
 51
315.0
  0
LINE
  5
C1
330
1F
100
AcDbEntity
  8
0
  6
Continuous
 62
     7
370
    15
100
AcDbLine
 10
1820.1568711024
 20
1072.3503980731
 30
0.0
 11
1829.2573764861
 21
1072.3503980731
 31
0.0
  0
ARC
  5
C2
330
1F
100
AcDbEntity
  8
0
  6
Continuous
 62
     7
370
    15
100
AcDbCircle
 10
1831.7322499554
 20
1074.8252730169
 30
0.0
 40
3.499999999999948
100
AcDbArc
 50
225.0
 51
45.0
  0
LINE
  5
C3
330
1F
100
AcDbEntity
  8
0
  6
Continuous
 62
     7
370
    15
100
AcDbLine
 10
1834.2071240708
 20
1077.3001465891
 30
0.0
 11
1834.2071240708
 21
1172.7102477048
 31
0.0
  0
ARC
  5
C4
330
1F
100
AcDbEntity
  8
0
  6
Continuous
 62
     7
370
    15
100
AcDbCircle
 10
1939.0543513748
 20
910.1961721046
 30
0.0
 40
282.6775241801371
100
AcDbArc
 50
100.9813785431
 51
111.7715990745
  0
LINE
  5
C5
330
1F
100
AcDbEntity
  8
0
  6
Continuous
 62
     7
370
    15
100
AcDbLine
 10
1885.2071240485
 20
1187.6976270174
 30
0.0
 11
1885.2071240485
 21
1077.3001465891
 31
0.0
  0
ARC
  5
C6
330
1F
100
AcDbEntity
  8
0
  6
Continuous
 62
     7
370
    15
100
AcDbCircle
 10
1887.6819974237
 20
1074.8252730169
 30
0.0
 40
3.500000000000109
100
AcDbArc
 50
135.0
 51
315.0
  0
LINE
  5
C7
330
1F
100
AcDbEntity
  8
0
  6
Continuous
 62
     7
370
    15
100
AcDbLine
 10
1890.1568725646
 20
1072.3503980731
 30
0.0
 11
1899.2573767841
 21
1072.3503980731
 31
0.0
  0
ARC
  5
C8
330
1F
100
AcDbEntity
  8
0
  6
Continuous
 62
     7
370
    15
100
AcDbCircle
 10
1901.7322499554
 20
1074.8252730169
 30
0.0
 40
3.500000000000109
100
AcDbArc
 50
225.0
 51
45.0
  0
LINE
  5
C9
330
1F
100
AcDbEntity
  8
0
  6
Continuous
 62
     7
370
    15
100
AcDbLine
 10
1904.2071253002
 20
1077.3001465891
 30
0.0
 11
1904.2071253002
 21
1190.7175708507
 31
0.0
  0
ARC
  5
CA
330
1F
100
AcDbEntity
  8
0
  6
Continuous
 62
     7
370
    15
100
AcDbCircle
 10
1939.0543513748
 20
910.1961721046
 30
0.0
 40
282.6775241801371
100
AcDbArc
 50
86.7242175457
 51
97.0811819419
  0
LINE
  5
CB
330
1F
100
AcDbEntity
  8
0
  6
Continuous
 62
     7
370
    15
100
AcDbLine
 10
1955.2071168959
 20
1192.4118179773
 30
0.0
 11
1955.2071168959
 21
1077.3001465891
 31
0.0
  0
ARC
  5
CC
330
1F
100
AcDbEntity
  8
0
  6
Continuous
 62
     7
370
    15
100
AcDbCircle
 10
1957.6819974237
 20
1074.8252730169
 30
0.0
 40
3.500000000000109
100
AcDbArc
 50
135.0
 51
315.0
  0
LINE
  5
CD
330
1F
100
AcDbEntity
  8
0
  6
Continuous
 62
     7
370
    15
100
AcDbLine
 10
1960.156865412
 20
1072.3503980731
 30
0.0
 11
1969.2573770821
 21
1072.3503980731
 31
0.0
  0
ARC
  5
CE
330
1F
100
AcDbEntity
  8
0
  6
Continuous
 62
     7
370
    15
100
AcDbCircle
 10
1971.7322499554
 20
1074.8252730169
 30
0.0
 40
3.500000000000109
100
AcDbArc
 50
225.0
 51
45.0
  0
LINE
  5
CF
330
1F
100
AcDbEntity
  8
0
  6
Continuous
 62
     7
370
    15
100
AcDbLine
 10
1974.2071255982
 20
1077.3001465891
 30
0.0
 11
1974.2071255982
 21
1190.6794387792
 31
0.0
  0
ARC
  5
D0
330
1F
100
AcDbEntity
  8
0
  6
Continuous
 62
     7
370
    15
100
AcDbCircle
 10
1939.0543513748
 20
910.1961721046
 30
0.0
 40
282.6775241801371
100
AcDbArc
 50
72.2554296007
 51
82.856407112
  0
LINE
  5
D1
330
1F
100
AcDbEntity
  8
0
  6
Continuous
 62
     7
370
    15
100
AcDbLine
 10
2025.2071246445
 20
1179.4252175783
 30
0.0
 11
2025.2071246445
 21
1077.3001465891
 31
0.0
  0
ARC
  5
D2
330
1F
100
AcDbEntity
  8
0
  6
Continuous
 62
     7
370
    15
100
AcDbCircle
 10
2027.6819974237
 20
1074.8252730169
 30
0.0
 40
3.500000000000109
100
AcDbArc
 50
135.0
 51
315.0
  0
LINE
  5
D3
330
1F
100
AcDbEntity
  8
0
  6
Continuous
 62
     7
370
    15
100
AcDbLine
 10
2030.1568731606
 20
1072.3503980731
 30
0.0
 11
2039.2573699295
 21
1072.3503980731
 31
0.0
  0
ARC
  5
D4
330
1F
100
AcDbEntity
  8
0
  6
Continuous
 62
     7
370
    15
100
AcDbCircle
 10
2041.7322499554
 20
1074.8252730169
 30
0.0
 40
3.500000000000109
100
AcDbArc
 50
225.0
 51
45.0
  0
LINE
  5
D5
330
1F
100
AcDbEntity
  8
0
  6
Continuous
 62
     7
370
    15
100
AcDbLine
 10
2044.2071184456
 20
1077.3001465891
 30
0.0
 11
2044.2071184456
 21
1172.5880134796
 31
0.0
  0
ARC
  5
D6
330
1F
100
AcDbEntity
  8
0
  6
Continuous
 62
     7
370
    15
100
AcDbCircle
 10
1939.0543513748
 20
910.1961721046
 30
0.0
 40
282.6775241801371
100
AcDbArc
 50
61.4476058796
 51
68.1616978644
  0
LINE
  5
D7
330
1F
100
AcDbEntity
  8
0
  6
Continuous
 62
     7
370
    15
100
AcDbLine
 10
2074.1635188401
 20
1158.4945697282
 30
0.0
 11
2088.4665176213
 21
1082.3228735422
 31
0.0
  0
ARC
  5
D8
330
1F
100
AcDbEntity
  8
0
  6
Continuous
 62
     7
370
    15
100
AcDbCircle
 10
2091.3796328712
 20
1080.3828569129
 30
0.0
 40
3.499999999999979
100
AcDbArc
 50
146.3380858631
 51
326.3380858631
  0
LINE
  5
D9
330
1F
100
AcDbEntity
  8
0
  6
Continuous
 62
     7
370
    15
100
AcDbLine
 10
2094.2927524388
 20
1078.4428346847
 30
0.0
 11
2103.3041104615
 21
1080.1349211429
 31
0.0
  0
ARC
  5
DA
330
1F
100
AcDbEntity
  8
0
  6
Continuous
 62
     7
370
    15
100
AcDbCircle
 10
2105.2049137743
 20
1083.0737925893
 30
0.0
 40
3.500000000000485
100
AcDbArc
 50
237.1059841611
 51
57.1059841611
  0
LINE
  5
DB
330
1F
100
AcDbEntity
  8
0
  6
Continuous
 62
     7
370
    15
100
AcDbLine
 10
2107.1057245076
 20
1086.0126618241
 30
0.0
 11
2095.9689244568
 21
1145.322509477
 31
0.0
  0
ARC
  5
DC
330
1F
100
AcDbEntity
  8
0
  6
Continuous
 62
     7
370
    15
100
AcDbCircle
 10
1939.0543513748
 20
910.1961721046
 30
0.0
 40
282.6775241801369
100
AcDbArc
 50
51.3033898516
 51
56.2823271101
  0
LWPOLYLINE
  5
DD
330
1F
100
AcDbEntity
  8
0
  6
Continuous
 62
     7
370
    15
100
AcDbPolyline
 90
       48
 70
   128
 43
0.0
 10
1797.1245199382
 20
1282.7531028484
 10
1806.0049358696
 20
1283.8716138099
 10
1815.6524430901
 20
1285.2294374202
 10
1825.8904092886
 20
1286.7789197658
 10
1836.5422021538
 20
1288.4724069332
 10
1847.4311884433
 20
1290.2622152065
 10
1858.3807349145
 20
1292.1007204746
 10
1870.515793556
 20
1294.1617894863
 10
1882.2555541933
 20
1296.1569059585
 10
1893.3507576525
 20
1298.0187762474
 10
1903.5818353236
 20
1299.6869314407
 10
1912.953555578
 20
1301.1519838069
 10
1921.5732514799
 20
1302.4280000423
 10
1930.9134110749
 20
1303.708397219
 10
1939.5353421509
 20
1304.7690022682
 10
1947.6155862153
 20
1305.6329119895
 10
1955.3306922257
 20
1306.32331259
 10
1966.0689011157
 20
1307.0545125698
 10
1976.9370034277
 20
1307.5463104938
 10
1988.4225055516
 20
1307.8622151111
 10
2000.6292238772
 20
1308.0086041187
 10
2013.3769884646
 20
1307.9498637413
 10
2025.7783457577
 20
1307.6718378757
 10
2038.338623935
 20
1307.1436811183
 10
2050.8957132637
 20
1306.2564361785
 10
2063.283212477
 20
1304.8054505084
 10
2075.3344222844
 20
1302.5798130725
 10
2086.882673198
 20
1299.3687320446
 10
2095.1135381997
 20
1296.1868274902
 10
2102.8974279702
 20
1292.2430563663
 10
2110.1639792263
 20
1287.4484587406
 10
2116.8484315217
 20
1281.7411351894
 10
2122.9136213601
 20
1275.1955617164
 10
2128.3311769307
 20
1267.9291892742
 10
2133.0726668179
 20
1260.0594092105
 10
2137.1097192109
 20
1251.7036426757
 10
2140.9430727303
 20
1241.3326431011
 10
2143.6996981442
 20
1230.6394059156
 10
2145.3363522828
 20
1219.8142934535
 10
2145.8625122845
 20
1208.9797485565
 10
2145.3250572026
 20
1198.2102621292
 10
2143.7716409504
 20
1187.5792819952
 10
2141.249857837
 20
1177.1603006814
 10
2137.807391578
 20
1167.0267809127
 10
2133.4918662846
 20
1157.2522003149
 10
2128.3509358704
 20
1147.9100216125
 10
2122.4321946442
 20
1139.0737224315
 10
2115.7833561242
 20
1130.8167654966
  0
LWPOLYLINE
  5
DE
330
1F
100
AcDbEntity
  8
0
  6
Continuous
 62
     7
370
    15
100
AcDbPolyline
 90
       63
 70
   128
 43
0.0
 10
1736.5774288714
 20
1828.0299831127
 10
1732.615262264
 20
1832.2110105251
 10
1728.0081957519
 20
1835.7405591701
 10
1722.8587269723
 20
1838.6270929073
 10
1717.2693535626
 20
1840.8789563869
 10
1711.3425880611
 20
1842.5046134685
 10
1705.1809281051
 20
1843.5126472209
 10
1697.6211965024
 20
1843.9187336658
 10
1690.0479569972
 20
1843.4621620868
 10
1682.63830989
 20
1842.1574760173
 10
1675.5694076359
 20
1840.0192189907
 10
1669.0183505356
 20
1837.0621133541
 10
1664.0825197041
 20
1833.9828778003
 10
1659.731797868
 20
1830.3535509799
 10
1656.0687199175
 20
1826.1825371479
 10
1653.1957909405
 20
1821.4784193729
 10
1651.2153670132
 20
1816.24960191
 10
1650.1604542077
 20
1810.555331776
 10
1649.8926207364
 20
1803.3881116603
 10
1650.405369693
 20
1796.2169576381
 10
1651.3837948382
 20
1789.4036102985
 10
1652.6637896836
 20
1783.043794701
 10
1654.18774634
 20
1777.0455408786
 10
1657.2865769207
 20
1767.0958567356
 10
1660.6668606341
 20
1757.4458647464
 10
1664.0285178959
 20
1747.5759316181
 10
1667.0831516325
 20
1736.9890738224
 10
1669.7264686167
 20
1725.5448032115
 10
1672.0013245881
 20
1713.3874822353
 10
1674.2732301295
 20
1698.3510781024
 10
1676.1754080594
 20
1682.7852059101
 10
1677.7744814694
 20
1666.9036675189
 10
1679.0999844611
 20
1650.7916975711
 10
1680.8531060755
 20
1621.6234493946
 10
1681.9222643912
 20
1592.2197628711
 10
1682.4282035172
 20
1562.9006553386
 10
1682.4916526616
 20
1533.9862037395
 10
1682.3049709141
 20
1511.3612342571
 10
1681.9741800368
 20
1489.3640506958
 10
1681.5611049473
 20
1468.1585658287
 10
1681.1275854647
 20
1447.9087222312
 10
1680.7399913609
 20
1428.7726510261
 10
1680.6247755825
 20
1416.8200124
 10
1680.7988509476
 20
1405.1790166591
 10
1681.4242079794
 20
1393.7149275039
 10
1682.6628223002
 20
1382.2929788326
 10
1684.6766844332
 20
1370.7784343456
 10
1687.6277550995
 20
1359.0365577434
 10
1690.6465664446
 20
1349.7390974258
 10
1694.3792179167
 20
1340.2101028656
 10
1698.8091170728
 20
1330.6740749572
 10
1703.8946300685
 20
1321.434520552
 10
1709.5941007078
 20
1312.7949465011
 10
1715.7520055711
 20
1305.1748204921
 10
1722.4634587705
 20
1298.5361743663
 10
1729.7505736291
 20
1292.8996015285
 10
1737.6358881533
 20
1288.2838476394
 10
1745.9446489751
 20
1284.7761440967
 10
1754.8677399695
 20
1282.279484341
 10
1764.4262127519
 20
1280.8113325332
 10
1774.6411301136
 20
1280.3892124389
 10
1785.5335473955
 20
1281.0306478237
 10
1797.1245199382
 20
1282.7531028484
  0
LWPOLYLINE
  5
DF
330
1F
100
AcDbEntity
  8
0
  6
Continuous
 62
     7
370
    15
100
AcDbPolyline
 90
        3
 70
   128
 43
0.0
 10
1759.7370669186
 20
1779.6388793682
 10
1753.8801953137
 20
1795.6040430759
 10
1747.0079436839
 20
1810.7564378475
  0
LWPOLYLINE
  5
E0
330
1F
100
AcDbEntity
  8
0
  6
Continuous
 62
     7
370
    15
100
AcDbPolyline
 90
       63
 70
   128
 43
0.0
 10
2376.0534333685
 20
1826.3335984273
 10
2372.0912667611
 20
1830.5146258397
 10
2367.484200249
 20
1834.0441744848
 10
2362.3347314694
 20
1836.9307082219
 10
2356.7453580597
 20
1839.1825717015
 10
2350.8185925582
 20
1840.8082287832
 10
2344.6569326022
 20
1841.8162625356
 10
2337.0972009995
 20
1842.2223489805
 10
2329.5239614942
 20
1841.7657774015
 10
2322.1143143871
 20
1840.461091332
 10
2315.045412133
 20
1838.3228343053
 10
2308.4943550327
 20
1835.3657286687
 10
2303.5585242012
 20
1832.286493115
 10
2299.2078023651
 20
1828.6571662946
 10
2295.5447244146
 20
1824.4861524625
 10
2292.6717954376
 20
1819.7820346875
 10
2290.6913715103
 20
1814.5532172246
 10
2289.6364587047
 20
1808.8589470906
 10
2289.3686252334
 20
1801.691726975
 10
2289.8813741901
 20
1794.5205729528
 10
2290.8597993353
 20
1787.7072256131
 10
2292.1397941807
 20
1781.3474100156
 10
2293.6637508371
 20
1775.3491561933
 10
2296.7625814178
 20
1765.3994720502
 10
2300.1428651312
 20
1755.7494800611
 10
2303.504522393
 20
1745.8795469327
 10
2306.5591561296
 20
1735.292689137
 10
2309.2024731138
 20
1723.8484185262
 10
2311.4773290851
 20
1711.6910975499
 10
2313.7492346266
 20
1696.6546934171
 10
2315.6514125564
 20
1681.0888212247
 10
2317.2504859665
 20
1665.2072828336
 10
2318.5759889581
 20
1649.0953128858
 10
2320.3291105726
 20
1619.9270647092
 10
2321.3982688883
 20
1590.5233781858
 10
2321.9042080143
 20
1561.2042706533
 10
2321.9676571586
 20
1532.2898190542
 10
2321.7809754112
 20
1509.6648495717
 10
2321.4501845339
 20
1487.6676660104
 10
2321.0371094444
 20
1466.4621811433
 10
2320.6035899618
 20
1446.2123375459
 10
2320.215995858
 20
1427.0762663408
 10
2320.1007800796
 20
1415.1236277147
 10
2320.2748554447
 20
1403.4826319738
 10
2320.9002124765
 20
1392.0185428186
 10
2322.1388267973
 20
1380.5965941472
 10
2324.1526889303
 20
1369.0820496602
 10
2327.1037595966
 20
1357.3401730581
 10
2330.1225709417
 20
1348.0427127404
 10
2333.8552224138
 20
1338.5137181802
 10
2338.2851215699
 20
1328.9776902719
 10
2343.3706345656
 20
1319.7381358667
 10
2349.0701052048
 20
1311.0985618158
 10
2355.2280100682
 20
1303.4784358068
 10
2361.9394632676
 20
1296.839789681
 10
2369.2265781262
 20
1291.2032168432
 10
2377.1118926504
 20
1286.5874629541
 10
2385.4206534722
 20
1283.0797594114
 10
2394.3437444666
 20
1280.5830996557
 10
2403.9022172489
 20
1279.1149478479
 10
2414.1171346107
 20
1278.6928277536
 10
2425.0095518925
 20
1279.3342631383
 10
2436.6005244353
 20
1281.056718163
  0
LINE
  5
E1
330
1F
100
AcDbEntity
  8
0
  6
Continuous
 62
     7
370
    15
100
AcDbLine
 10
2376.0534333685
 20
1826.3335984273
 30
0.0
 11
2362.5124054649
 21
1823.5916655584
 31
0.0
  0
ARC
  5
E2
330
1F
100
AcDbEntity
  8
0
  6
Continuous
 62
     7
370
    15
100
AcDbCircle
 10
2360.5643241575
 20
1820.6839493747
 30
0.0
 40
3.500000000000434
100
AcDbArc
 50
56.1793084154
 51
236.1793084154
  0
LINE
  5
E3
330
1F
100
AcDbEntity
  8
0
  6
Continuous
 62
     7
370
    15
100
AcDbLine
 10
2358.6162361005
 20
1817.7762191816
 30
0.0
 11
2360.473084698
 21
1808.6060445829
 31
0.0
  0
ARC
  5
E4
330
1F
100
AcDbEntity
  8
0
  6
Continuous
 62
     7
370
    15
100
AcDbCircle
 10
2363.4756775474
 20
1806.8075888441
 30
0.0
 40
3.500000000000017
100
AcDbArc
 50
149.079691302
 51
329.079691302
  0
LINE
  5
E5
330
1F
100
AcDbEntity
  8
0
  6
Continuous
 62
     7
370
    15
100
AcDbLine
 10
2399.2130714157
 20
1777.9424946828
 30
0.0
 11
2379.875700424
 21
1772.2339790387
 31
0.0
  0
ARC
  5
E6
330
1F
100
AcDbEntity
  8
0
  6
Continuous
 62
     7
370
    15
100
AcDbCircle
 10
2378.1335877719
 20
1769.1983524005
 30
0.0
 40
3.499999999999999
100
AcDbArc
 50
60.1489460148
 51
240.1489460148
  0
LINE
  5
E7
330
1F
100
AcDbEntity
  8
0
  6
Continuous
 62
     7
370
    15
100
AcDbLine
 10
2376.3914736607
 20
1766.1627095266
 30
0.0
 11
2379.0613817671
 21
1757.1184795423
 31
0.0
  0
ARC
  5
E8
330
1F
100
AcDbEntity
  8
0
  6
Continuous
 62
     7
370
    15
100
AcDbCircle
 10
2382.2044178146
 20
1755.5785894899
 30
0.0
 40
3.500000000000213
100
AcDbArc
 50
153.8976272127
 51
333.8976272127
  0
LINE
  5
E9
330
1F
100
AcDbEntity
  8
0
  6
Continuous
 62
     7
370
    15
100
AcDbLine
 10
2385.3474515178
 20
1754.0386479421
 30
0.0
 11
2404.5359636345
 21
1759.703234963
 31
0.0
  0
ARC
  5
EA
330
1F
100
AcDbEntity
  8
0
  6
Continuous
 62
     7
370
    15
100
AcDbCircle
 10
1988.0983497659
 20
1654.76739033
 30
0.0
 40
429.4552569633028
100
AcDbArc
 50
7.890090205
 51
14.1432111127
  0
LINE
  5
EB
330
1F
100
AcDbEntity
  8
0
  6
Continuous
 62
     7
370
    15
100
AcDbLine
 10
2413.4880485633
 20
1713.7200992627
 30
0.0
 11
2392.5215634206
 21
1709.2979710622
 31
0.0
  0
ARC
  5
EC
330
1F
100
AcDbEntity
  8
0
  6
Continuous
 62
     7
370
    15
100
AcDbCircle
 10
2390.3529798799
 20
1706.5507675685
 30
0.0
 40
3.500000000000175
100
AcDbArc
 50
51.7134622492
 51
231.7134622492
  0
LINE
  5
ED
330
1F
100
AcDbEntity
  8
0
  6
Continuous
 62
     7
370
    15
100
AcDbLine
 10
2388.1844016412
 20
1703.8035553022
 30
0.0
 11
2390.135753403
 21
1694.5516627355
 31
0.0
  0
ARC
  5
EE
330
1F
100
AcDbEntity
  8
0
  6
Continuous
 62
     7
370
    15
100
AcDbCircle
 10
2393.0228919427
 20
1692.5731557615
 30
0.0
 40
3.499999999999832
100
AcDbArc
 50
145.5780163498
 51
325.5780163498
  0
LINE
  5
EF
330
1F
100
AcDbEntity
  8
0
  6
Continuous
 62
     7
370
    15
100
AcDbLine
 10
2395.9100278714
 20
1690.5946891828
 30
0.0
 11
2415.9279833236
 21
1694.8167245908
 31
0.0
  0
LWPOLYLINE
  5
F0
330
1F
100
AcDbEntity
  8
0
  6
Continuous
 62
     7
370
    15
100
AcDbPolyline
 90
        4
 70
   128
 43
0.0
 10
2420.5768289664
 20
1643.3856051488
 10
2419.2096846798
 20
1661.1361663862
 10
2417.6780203977
 20
1678.2764356656
 10
2415.9279833236
 20
1694.8167245908
  0
LINE
  5
F1
330
1F
100
AcDbEntity
  8
0
  6
Continuous
 62
     7
370
    15
100
AcDbLine
 10
2420.5768289664
 20
1643.3856051488
 30
0.0
 11
2392.6494451859
 21
1638.5323565526
 31
0.0
  0
ARC
  5
F2
330
1F
100
AcDbEntity
  8
0
  6
Continuous
 62
     7
370
    15
100
AcDbCircle
 10
2390.7253248747
 20
1635.6087013342
 30
0.0
 40
3.500000000000005
100
AcDbArc
 50
56.6502862488
 51
236.6502862488
  0
LINE
  5
F3
330
1F
100
AcDbEntity
  8
0
  6
Continuous
 62
     7
370
    15
100
AcDbLine
 10
2388.8012054065
 20
1632.6850216909
 30
0.0
 11
2390.3323891261
 21
1623.8739650769
 31
0.0
  0
ARC
  5
F4
330
1F
100
AcDbEntity
  8
0
  6
Continuous
 62
     7
370
    15
100
AcDbCircle
 10
2393.1924025373
 20
1621.8564747034
 30
0.0
 40
3.499999999999989
100
AcDbArc
 50
144.8000811299
 51
324.8000811299
  0
LINE
  5
F5
330
1F
100
AcDbEntity
  8
0
  6
Continuous
 62
     7
370
    15
100
AcDbLine
 10
2396.0524159172
 20
1619.8389690442
 30
0.0
 11
2421.8780691424
 21
1624.3269603772
 31
0.0
  0
LWPOLYLINE
  5
F6
330
1F
100
AcDbEntity
  8
0
  6
Continuous
 62
     7
370
    15
100
AcDbPolyline
 90
        4
 70
   128
 43
0.0
 10
2425.4359709719
 20
1566.7295616193
 10
2424.2186392346
 20
1586.5479867978
 10
2423.0494158962
 20
1605.7438414617
 10
2421.8780691424
 20
1624.3269603772
  0
LINE
  5
F7
330
1F
100
AcDbEntity
  8
0
  6
Continuous
 62
     7
370
    15
100
AcDbLine
 10
2425.4359709719
 20
1566.7295616193
 30
0.0
 11
2406.1443130174
 21
1564.3026989026
 31
0.0
  0
ARC
  5
F8
330
1F
100
AcDbEntity
  8
0
  6
Continuous
 62
     7
370
    15
100
AcDbCircle
 10
2404.2024903588
 20
1561.3907879849
 30
0.0
 40
3.500000000000221
100
AcDbArc
 50
56.3026065865
 51
236.3026065864
  0
LINE
  5
F9
330
1F
100
AcDbEntity
  8
0
  6
Continuous
 62
     7
370
    15
100
AcDbLine
 10
2402.2606680789
 20
1558.4788482709
 30
0.0
 11
2403.3700632551
 21
1549.6600430532
 31
0.0
  0
ARC
  5
FA
330
1F
100
AcDbEntity
  8
0
  6
Continuous
 62
     7
370
    15
100
AcDbCircle
 10
2406.189883036
 20
1547.5867370021
 30
0.0
 40
3.499999999999869
100
AcDbArc
 50
143.6743394956
 51
323.6743394956
  0
LINE
  5
FB
330
1F
100
AcDbEntity
  8
0
  6
Continuous
 62
     7
370
    15
100
AcDbLine
 10
2409.0097020068
 20
1545.5134075208
 30
0.0
 11
2426.6551653543
 21
1547.7332037015
 31
0.0
  0
LWPOLYLINE
  5
FC
330
1F
100
AcDbEntity
  8
0
  6
Continuous
 62
     7
370
    15
100
AcDbPolyline
 90
        4
 70
   128
 43
0.0
 10
2431.5315591791
 20
1483.9307826085
 10
2429.6875386187
 20
1505.8306019826
 10
2428.077876071
 20
1527.0950358434
 10
2426.6551653543
 20
1547.7332037015
  0
LINE
  5
FD
330
1F
100
AcDbEntity
  8
0
  6
Continuous
 62
     7
370
    15
100
AcDbLine
 10
2431.5315591791
 20
1483.9307826085
 30
0.0
 11
2408.365852634
 21
1479.6784382386
 31
0.0
  0
ARC
  5
FE
330
1F
100
AcDbEntity
  8
0
  6
Continuous
 62
     7
370
    15
100
AcDbCircle
 10
2406.6550949266
 20
1476.6250430067
 30
0.0
 40
3.500000000000096
100
AcDbArc
 50
60.739076212
 51
240.739076212
  0
LINE
  5
FF
330
1F
100
AcDbEntity
  8
0
  6
Continuous
 62
     7
370
    15
100
AcDbLine
 10
2404.9443374076
 20
1473.5716443582
 30
0.0
 11
2406.5995919206
 21
1464.5541470571
 31
0.0
  0
ARC
  5
100
330
1F
100
AcDbEntity
  8
0
  6
Continuous
 62
     7
370
    15
100
AcDbCircle
 10
2409.6607995635
 20
1462.8573923322
 30
0.0
 40
3.500000000000011
100
AcDbArc
 50
151.0012531859
 51
331.0012531859
  0
LINE
  5
101
330
1F
100
AcDbEntity
  8
0
  6
Continuous
 62
     7
370
    15
100
AcDbLine
 10
2412.7220059433
 20
1461.1606162114
 30
0.0
 11
2433.3256906518
 21
1464.9426501317
 31
0.0
  0
ARC
  5
102
330
1F
100
AcDbEntity
  8
0
  6
Continuous
 62
     7
370
    15
100
AcDbCircle
 10
2749.3118057169
 20
1493.4292980258
 30
0.0
 40
317.2675748042749
100
AcDbArc
 50
185.1513796184
 51
191.9095680354
  0
LINE
  5
103
330
1F
100
AcDbEntity
  8
0
  6
Continuous
 62
     7
370
    15
100
AcDbLine
 10
2438.873562465
 20
1427.9555540605
 30
0.0
 11
2411.275598655
 21
1407.3988657518
 31
0.0
  0
ARC
  5
104
330
1F
100
AcDbEntity
  8
0
  6
Continuous
 62
     7
370
    15
100
AcDbCircle
 10
2410.8518950606
 20
1403.9246029543
 30
0.0
 40
3.500000000004106
100
AcDbArc
 50
83.0468504584
 51
263.0468504584
  0
LINE
  5
105
330
1F
100
AcDbEntity
  8
0
  6
Continuous
 62
     7
370
    15
100
AcDbLine
 10
2410.4281919697
 20
1400.4503350778
 30
0.0
 11
2415.9271451333
 21
1393.0678229852
 31
0.0
  0
ARC
  5
106
330
1F
100
AcDbEntity
  8
0
  6
Continuous
 62
     7
370
    15
100
AcDbCircle
 10
2419.4091726636
 20
1392.7135810783
 30
0.0
 40
3.500000000000402
100
AcDbArc
 50
174.190831979
 51
354.190831979
  0
LINE
  5
107
330
1F
100
AcDbEntity
  8
0
  6
Continuous
 62
     7
370
    15
100
AcDbLine
 10
2422.8911990919
 20
1392.3593323751
 30
0.0
 11
2445.1208165535
 21
1408.9173238797
 31
0.0
  0
ARC
  5
108
330
1F
100
AcDbEntity
  8
0
  6
Continuous
 62
     7
370
    15
100
AcDbCircle
 10
2487.311146035
 20
1427.8334596733
 30
0.0
 40
46.236826179156
100
AcDbArc
 50
204.1491937333
 51
231.8726266925
  0
LINE
  5
109
330
1F
100
AcDbEntity
  8
0
  6
Continuous
 62
     7
370
    15
100
AcDbLine
 10
2458.7639855142
 20
1391.4617162271
 30
0.0
 11
2446.9583029547
 21
1361.0893648191
 31
0.0
  0
ARC
  5
10A
330
1F
100
AcDbEntity
  8
0
  6
Continuous
 62
     7
370
    15
100
AcDbCircle
 10
2448.5654087401
 20
1357.9801512048
 30
0.0
 40
3.499999999999875
100
AcDbArc
 50
117.3337526468
 51
297.3337526468
  0
LINE
  5
10B
330
1F
100
AcDbEntity
  8
0
  6
Continuous
 62
     7
370
    15
100
AcDbLine
 10
2450.1725141579
 20
1354.8709314389
 30
0.0
 11
2458.3203794589
 21
1351.7038684411
 31
0.0
  0
ARC
  5
10C
330
1F
100
AcDbEntity
  8
0
  6
Continuous
 62
     7
370
    15
100
AcDbCircle
 10
2461.5406454664
 20
1353.0749644403
 30
0.0
 40
3.500000000000248
100
AcDbArc
 50
203.0628071932
 51
23.0628071932
  0
LINE
  5
10D
330
1F
100
AcDbEntity
  8
0
  6
Continuous
 62
     7
370
    15
100
AcDbLine
 10
2464.7609116198
 20
1354.4460397287
 30
0.0
 11
2476.0811016583
 21
1383.5693758054
 31
0.0
  0
LWPOLYLINE
  5
10E
330
1F
100
AcDbEntity
  8
0
  6
Continuous
 62
     7
370
    15
100
AcDbPolyline
 90
        5
 70
   128
 43
0.0
 10
2508.3792875209
 20
1381.8319898172
 10
2499.7357646623
 20
1381.5084856076
 10
2491.4411785701
 20
1381.6004555745
 10
2483.5413484522
 20
1382.2411459012
 10
2476.0811016583
 20
1383.5693758054
  0
LINE
  5
10F
330
1F
100
AcDbEntity
  8
0
  6
Continuous
 62
     7
370
    15
100
AcDbLine
 10
2508.3792875209
 20
1381.8319898172
 30
0.0
 11
2508.3774211505
 21
1361.2846594377
 31
0.0
  0
ARC
  5
110
330
1F
100
AcDbEntity
  8
0
  6
Continuous
 62
     7
370
    15
100
AcDbCircle
 10
2511.0150254709
 20
1358.9840022252
 30
0.0
 40
3.500000000000387
100
AcDbArc
 50
138.903322816
 51
318.9137331299
  0
LINE
  5
111
330
1F
100
AcDbEntity
  8
0
  6
Continuous
 62
     7
370
    15
100
AcDbLine
 10
2513.653046886
 20
1356.6838067098
 30
0.0
 11
2522.1476549902
 21
1356.6838067098
 31
0.0
  0
ARC
  5
112
330
1F
100
AcDbEntity
  8
0
  6
Continuous
 62
     7
370
    15
100
AcDbCircle
 10
2524.7623291336
 20
1359.0105106753
 30
0.0
 40
3.500000000000163
100
AcDbArc
 50
221.6645639193
 51
41.6541536053
  0
LINE
  5
113
330
1F
100
AcDbEntity
  8
0
  6
Continuous
 62
     7
370
    15
100
AcDbLine
 10
2527.3774224022
 20
1361.3367240949
 30
0.0
 11
2527.3794415095
 21
1383.5060756726
 31
0.0
  0
LWPOLYLINE
  5
114
330
1F
100
AcDbEntity
  8
0
  6
Continuous
 62
     7
370
    15
100
AcDbPolyline
 90
        3
 70
   128
 43
0.0
 10
2565.3540896871
 20
1388.6882226987
 10
2546.2595107653
 20
1385.9395247026
 10
2527.3794415095
 20
1383.5060756726
  0
LINE
  5
115
330
1F
100
AcDbEntity
  8
0
  6
Continuous
 62
     7
370
    15
100
AcDbLine
 10
2565.3540896871
 20
1388.6882226987
 30
0.0
 11
2566.8218838671
 21
1370.5258827729
 31
0.0
  0
ARC
  5
116
330
1F
100
AcDbEntity
  8
0
  6
Continuous
 62
     7
370
    15
100
AcDbCircle
 10
2569.6466453976
 20
1368.4593213994
 30
0.0
 40
3.50000000000021
100
AcDbArc
 50
143.8111657445
 51
323.8111657445
  0
LINE
  5
117
330
1F
100
AcDbEntity
  8
0
  6
Continuous
 62
     7
370
    15
100
AcDbLine
 10
2572.471405814
 20
1366.3927476926
 30
0.0
 11
2581.0593547919
 21
1367.0867841764
 31
0.0
  0
ARC
  5
118
330
1F
100
AcDbEntity
  8
0
  6
Continuous
 62
     7
370
    15
100
AcDbCircle
 10
2583.4002790541
 20
1369.6887201419
 30
0.0
 40
3.500000000000304
100
AcDbArc
 50
228.0226817904
 51
48.0226817904
  0
LINE
  5
119
330
1F
100
AcDbEntity
  8
0
  6
Continuous
 62
     7
370
    15
100
AcDbLine
 10
2585.7412027815
 20
1372.2906570955
 30
0.0
 11
2584.1959598162
 21
1391.4114993139
 31
0.0
  0
LWPOLYLINE
  5
11A
330
1F
100
AcDbEntity
  8
0
  6
Continuous
 62
     7
370
    15
100
AcDbPolyline
 90
        3
 70
   128
 43
0.0
 10
2624.7595506409
 20
1397.1319358869
 10
2604.6087401607
 20
1394.3247359319
 10
2584.1959598162
 20
1391.4114993139
  0
LINE
  5
11B
330
1F
100
AcDbEntity
  8
0
  6
Continuous
 62
     7
370
    15
100
AcDbLine
 10
2624.7595506409
 20
1397.1319358869
 30
0.0
 11
2626.3245152929
 21
1376.6391437574
 31
0.0
  0
ARC
  5
11C
330
1F
100
AcDbEntity
  8
0
  6
Continuous
 62
     7
370
    15
100
AcDbCircle
 10
2629.0830963725
 20
1374.4850293013
 30
0.0
 40
3.500000000002479
100
AcDbArc
 50
142.0146339226
 51
322.0146339226
  0
LINE
  5
11D
330
1F
100
AcDbEntity
  8
0
  6
Continuous
 62
     7
370
    15
100
AcDbLine
 10
2631.8416851261
 20
1372.330920033
 30
0.0
 11
2641.059766958
 21
1373.0348806901
 31
0.0
  0
ARC
  5
11E
330
1F
100
AcDbEntity
  8
0
  6
Continuous
 62
     7
370
    15
100
AcDbCircle
 10
2643.1426210743
 20
1375.847647316
 30
0.0
 40
3.499999999999971
100
AcDbArc
 50
233.4802189287
 51
53.4802189287
  0
LINE
  5
11F
330
1F
100
AcDbEntity
  8
0
  6
Continuous
 62
     7
370
    15
100
AcDbLine
 10
2645.2254759767
 20
1378.6604266687
 30
0.0
 11
2643.6212765672
 21
1399.6670108361
 31
0.0
  0
LINE
  5
120
330
1F
100
AcDbEntity
  8
0
  6
Continuous
 62
     7
370
    15
100
AcDbLine
 10
2670.2007609108
 20
1403.0232589765
 30
0.0
 11
2643.6212765672
 21
1399.6670108361
 31
0.0
  0
LINE
  5
121
330
1F
100
AcDbEntity
  8
0
  6
Continuous
 62
     7
370
    15
100
AcDbLine
 10
2670.2007609108
 20
1403.0232589765
 30
0.0
 11
2671.4852112034
 21
1379.74582725
 31
0.0
  0
ARC
  5
122
330
1F
100
AcDbEntity
  8
0
  6
Continuous
 62
     7
370
    15
100
AcDbCircle
 10
2674.3334990744
 20
1377.71180787
 30
0.0
 40
3.50000000000029
100
AcDbArc
 50
144.4685256345
 51
324.4685256345
  0
LINE
  5
123
330
1F
100
AcDbEntity
  8
0
  6
Continuous
 62
     7
370
    15
100
AcDbLine
 10
2677.1817910173
 20
1375.6777804418
 30
0.0
 11
2685.9184461334
 21
1376.1598628087
 31
0.0
  0
ARC
  5
124
330
1F
100
AcDbEntity
  8
0
  6
Continuous
 62
     7
370
    15
100
AcDbCircle
 10
2688.1672243617
 20
1378.841845274
 30
0.0
 40
3.500000000000263
100
AcDbArc
 50
230.0208257609
 51
50.0208257609
  0
LINE
  5
125
330
1F
100
AcDbEntity
  8
0
  6
Continuous
 62
     7
370
    15
100
AcDbLine
 10
2690.4160040119
 20
1381.5238040014
 30
0.0
 11
2689.1093658903
 21
1405.2035074754
 31
0.0
  0
LWPOLYLINE
  5
126
330
1F
100
AcDbEntity
  8
0
  6
Continuous
 62
     7
370
    15
100
AcDbPolyline
 90
        3
 70
   128
 43
0.0
 10
2726.9660788276
 20
1408.8235657735
 10
2708.3722012737
 20
1407.190517716
 10
2689.1093658903
 20
1405.2035074754
  0
LINE
  5
127
330
1F
100
AcDbEntity
  8
0
  6
Continuous
 62
     7
370
    15
100
AcDbLine
 10
2726.9660788276
 20
1408.8235657735
 30
0.0
 11
2724.8870986202
 21
1385.1750057264
 31
0.0
  0
ARC
  5
128
330
1F
100
AcDbEntity
  8
0
  6
Continuous
 62
     7
370
    15
100
AcDbCircle
 10
2727.0656652702
 20
1382.4356864935
 30
0.0
 40
3.500000000002098
100
AcDbArc
 50
128.4951744607
 51
308.4951744607
  0
LINE
  5
129
330
1F
100
AcDbEntity
  8
0
  6
Continuous
 62
     7
370
    15
100
AcDbLine
 10
2729.2442279556
 20
1379.6963851972
 30
0.0
 11
2738.7616890171
 21
1378.8596849962
 31
0.0
  0
ARC
  5
12A
330
1F
100
AcDbEntity
  8
0
  6
Continuous
 62
     7
370
    15
100
AcDbCircle
 10
2741.2956766843
 20
1381.2739886511
 30
0.0
 40
3.500000000000156
100
AcDbArc
 50
223.6143235295
 51
43.6143235295
  0
LINE
  5
12B
330
1F
100
AcDbEntity
  8
0
  6
Continuous
 62
     7
370
    15
100
AcDbLine
 10
2743.8296633461
 20
1383.6882870717
 30
0.0
 11
2746.1544829109
 21
1410.1331692262
 31
0.0
  0
ARC
  5
12C
330
1F
100
AcDbEntity
  8
0
  6
Continuous
 62
     7
370
    15
100
AcDbCircle
 10
2776.3037019923
 20
958.3763900106
 30
0.0
 40
452.7617066167019
100
AcDbArc
 50
86.2055627605
 51
93.8181280651
  0
LINE
  5
12D
330
1F
100
AcDbEntity
  8
0
  6
Continuous
 62
     7
370
    15
100
AcDbLine
 10
2806.2661247948
 20
1410.1455967946
 30
0.0
 11
2791.6031437614
 21
1378.7351410909
 31
0.0
  0
ARC
  5
12E
330
1F
100
AcDbEntity
  8
0
  6
Continuous
 62
     7
370
    15
100
AcDbCircle
 10
2792.901187579
 20
1375.4847301177
 30
0.0
 40
3.499999999999994
100
AcDbArc
 50
111.7691288939
 51
291.7691288939
  0
LINE
  5
12F
330
1F
100
AcDbEntity
  8
0
  6
Continuous
 62
     7
370
    15
100
AcDbLine
 10
2794.1992240646
 20
1372.2343307061
 30
0.0
 11
2802.6962238052
 21
1368.267790608
 31
0.0
  0
ARC
  5
130
330
1F
100
AcDbEntity
  8
0
  6
Continuous
 62
     7
370
    15
100
AcDbCircle
 10
2805.8746967581
 20
1369.7331261841
 30
0.0
 40
3.500000000000192
100
AcDbArc
 50
204.7506081347
 51
24.7506081347
  0
LINE
  5
131
330
1F
100
AcDbEntity
  8
0
  6
Continuous
 62
     7
370
    15
100
AcDbLine
 10
2809.0531783798
 20
1371.1984615846
 30
0.0
 11
2826.0808544853
 21
1407.6745074315
 31
0.0
  0
LWPOLYLINE
  5
132
330
1F
100
AcDbEntity
  8
0
  6
Continuous
 62
     7
370
    15
100
AcDbPolyline
 90
       11
 70
   128
 43
0.0
 10
2885.1145165661
 20
1358.2212191148
 10
2882.0146876076
 20
1365.9703891797
 10
2878.7312763431
 20
1372.9719977899
 10
2875.1914756992
 20
1379.2401712461
 10
2870.7610922554
 20
1385.4623001142
 10
2865.6915980079
 20
1390.8713024183
 10
2859.8158317306
 20
1395.5274384542
 10
2852.9668110111
 20
1399.4909983201
 10
2845.0373666981
 20
1402.8143148942
 10
2836.0584932068
 20
1405.5316310449
 10
2826.0808544853
 20
1407.6745074315
  0
LINE
  5
133
330
1F
100
AcDbEntity
  8
0
  6
Continuous
 62
     7
370
    15
100
AcDbLine
 10
2885.1145165661
 20
1358.2212191148
 30
0.0
 11
2851.3164776066
 21
1335.8605366273
 31
0.0
  0
ARC
  5
134
330
1F
100
AcDbEntity
  8
0
  6
Continuous
 62
     7
370
    15
100
AcDbCircle
 10
2850.432238141
 20
1332.4740746201
 30
0.0
 40
3.500000000000133
100
AcDbArc
 50
75.3664456341
 51
255.3664456341
  0
LINE
  5
135
330
1F
100
AcDbEntity
  8
0
  6
Continuous
 62
     7
370
    15
100
AcDbLine
 10
2849.5480077961
 20
1329.0876012368
 30
0.0
 11
2854.5879083374
 21
1321.469799809
 31
0.0
  0
ARC
  5
136
330
1F
100
AcDbEntity
  8
0
  6
Continuous
 62
     7
370
    15
100
AcDbCircle
 10
2857.9779234707
 20
1320.5992493629
 30
0.0
 40
3.500000000000619
100
AcDbArc
 50
165.5975398118
 51
345.5975398118
  0
LINE
  5
137
330
1F
100
AcDbEntity
  8
0
  6
Continuous
 62
     7
370
    15
100
AcDbLine
 10
2861.3679366806
 20
1319.7286885305
 30
0.0
 11
2891.0809117058
 21
1339.3866878076
 31
0.0
  0
ARC
  5
138
330
1F
100
AcDbEntity
  8
0
  6
Continuous
 62
     7
370
    15
100
AcDbCircle
 10
2507.8076107938
 20
1239.7973669862
 30
0.0
 40
396.0005757743884
100
AcDbArc
 50
4.1991400412
 51
14.5655710789
  0
LINE
  5
139
330
1F
100
AcDbEntity
  8
0
  6
Continuous
 62
     7
370
    15
100
AcDbLine
 10
2902.7451532581
 20
1268.7938075586
 30
0.0
 11
2871.8965011337
 21
1262.7889078183
 31
0.0
  0
ARC
  5
13A
330
1F
100
AcDbEntity
  8
0
  6
Continuous
 62
     7
370
    15
100
AcDbCircle
 10
2869.9975429555
 20
1259.8488432886
 30
0.0
 40
3.500000000000367
100
AcDbArc
 50
57.1422393575
 51
237.1422393575
  0
LINE
  5
13B
330
1F
100
AcDbEntity
  8
0
  6
Continuous
 62
     7
370
    15
100
AcDbLine
 10
2868.0986123779
 20
1256.9087605996
 30
0.0
 11
2869.9403959015
 21
1247.4469255729
 31
0.0
  0
ARC
  5
13C
330
1F
100
AcDbEntity
  8
0
  6
Continuous
 62
     7
370
    15
100
AcDbCircle
 10
2873.0579730713
 20
1245.8560807455
 30
0.0
 40
3.500000000000069
100
AcDbArc
 50
152.9655582123
 51
332.9655582123
  0
LINE
  5
13D
330
1F
100
AcDbEntity
  8
0
  6
Continuous
 62
     7
370
    15
100
AcDbLine
 10
2876.1755483845
 20
1244.2652445359
 30
0.0
 11
2904.0124076107
 21
1249.6838431878
 31
0.0
  0
LWPOLYLINE
  5
13E
330
1F
100
AcDbEntity
  8
0
  6
Continuous
 62
     7
370
    15
100
AcDbPolyline
 90
        3
 70
   128
 43
0.0
 10
2904.6800392368
 20
1212.54369729
 10
2904.6272295215
 20
1231.3732367082
 10
2904.0124076107
 20
1249.6838431878
  0
LINE
  5
13F
330
1F
100
AcDbEntity
  8
0
  6
Continuous
 62
     7
370
    15
100
AcDbLine
 10
2904.6800392368
 20
1212.54369729
 30
0.0
 11
2861.1519592502
 21
1208.7538551612
 31
0.0
  0
ARC
  5
140
330
1F
100
AcDbEntity
  8
0
  6
Continuous
 62
     7
370
    15
100
AcDbCircle
 10
2858.904705809
 20
1206.0705945121
 30
0.0
 40
3.499999999999976
100
AcDbArc
 50
50.0537008496
 51
230.0537008496
  0
LINE
  5
141
330
1F
100
AcDbEntity
  8
0
  6
Continuous
 62
     7
370
    15
100
AcDbLine
 10
2856.657471011
 20
1203.3873360677
 30
0.0
 11
2857.4381130436
 21
1194.4210391565
 31
0.0
  0
ARC
  5
142
330
1F
100
AcDbEntity
  8
0
  6
Continuous
 62
     7
370
    15
100
AcDbCircle
 10
2860.0748803774
 20
1192.1194091932
 30
0.0
 40
3.500000000000017
100
AcDbArc
 50
138.8821547354
 51
318.8821547354
  0
LINE
  5
143
330
1F
100
AcDbEntity
  8
0
  6
Continuous
 62
     7
370
    15
100
AcDbLine
 10
2862.7116339901
 20
1189.8177724405
 30
0.0
 11
2904.1502135494
 21
1193.4256862922
 31
0.0
  0
LWPOLYLINE
  5
144
330
1F
100
AcDbEntity
  8
0
  6
Continuous
 62
     7
370
    15
100
AcDbPolyline
 90
        3
 70
   128
 43
0.0
 10
2901.935066531
 20
1161.1847143693
 10
2903.2566505173
 20
1177.3886989875
 10
2904.1502135494
 20
1193.4256862922
  0
LINE
  5
145
330
1F
100
AcDbEntity
  8
0
  6
Continuous
 62
     7
370
    15
100
AcDbLine
 10
2901.935066531
 20
1161.1847143693
 30
0.0
 11
2847.4239366749
 21
1168.0539559646
 31
0.0
  0
ARC
  5
146
330
1F
100
AcDbEntity
  8
0
  6
Continuous
 62
     7
370
    15
100
AcDbCircle
 10
2844.6689205428
 20
1165.8952769843
 30
0.0
 40
3.500000000000487
100
AcDbArc
 50
38.0801842026
 51
218.0801842026
  0
LINE
  5
147
330
1F
100
AcDbEntity
  8
0
  6
Continuous
 62
     7
370
    15
100
AcDbLine
 10
2841.9139044979
 20
1163.7365978284
 30
0.0
 11
2840.8097582557
 21
1154.9745213313
 31
0.0
  0
ARC
  5
148
330
1F
100
AcDbEntity
  8
0
  6
Continuous
 62
     7
370
    15
100
AcDbCircle
 10
2842.8116601479
 20
1152.1035795352
 30
0.0
 40
3.500000000000086
100
AcDbArc
 50
124.8880815373
 51
304.8880815373
  0
LINE
  5
149
330
1F
100
AcDbEntity
  8
0
  6
Continuous
 62
     7
370
    15
100
AcDbLine
 10
2844.8135810592
 20
1149.2326270862
 30
0.0
 11
2899.8525696495
 21
1142.2968816085
 31
0.0
  0
LWPOLYLINE
  5
14A
330
1F
100
AcDbEntity
  8
0
  6
Continuous
 62
     7
370
    15
100
AcDbPolyline
 90
        3
 70
   128
 43
0.0
 10
2891.3101511696
 20
1092.174836628
 10
2896.146412442
 20
1117.2020074053
 10
2899.8525696495
 20
1142.2968816085
  0
LINE
  5
14B
330
1F
100
AcDbEntity
  8
0
  6
Continuous
 62
     7
370
    15
100
AcDbLine
 10
2891.3101511696
 20
1092.174836628
 30
0.0
 11
2844.339694331
 21
1119.370588295
 31
0.0
  0
ARC
  5
14C
330
1F
100
AcDbEntity
  8
0
  6
Continuous
 62
     7
370
    15
100
AcDbCircle
 10
2840.9804247061
 20
1118.3880649581
 30
0.0
 40
3.500000000000312
100
AcDbArc
 50
16.3032218489
 51
196.3032218489
  0
LINE
  5
14D
330
1F
100
AcDbEntity
  8
0
  6
Continuous
 62
     7
370
    15
100
AcDbLine
 10
2837.6211481788
 20
1117.4055423661
 30
0.0
 11
2833.2373755672
 21
1109.8341729565
 31
0.0
  0
ARC
  5
14E
330
1F
100
AcDbEntity
  8
0
  6
Continuous
 62
     7
370
    15
100
AcDbCircle
 10
2833.9738989303
 20
1106.412550242
 30
0.0
 40
3.500000000000031
100
AcDbArc
 50
102.1480587189
 51
282.1480587189
  0
LINE
  5
14F
330
1F
100
AcDbEntity
  8
0
  6
Continuous
 62
     7
370
    15
100
AcDbLine
 10
2834.7104447582
 20
1102.9909264369
 30
0.0
 11
2886.7319482067
 21
1072.8706430717
 31
0.0
  0
ARC
  5
150
330
1F
100
AcDbEntity
  8
0
  6
Continuous
 62
     7
370
    15
100
AcDbCircle
 10
2467.218614087
 20
1178.8695120876
 30
0.0
 40
432.6975823099056
100
AcDbArc
 50
335.4032978493
 51
345.8198104774
  0
LINE
  5
151
330
1F
100
AcDbEntity
  8
0
  6
Continuous
 62
     7
370
    15
100
AcDbLine
 10
2832.522686074
 20
998.7684648557
 30
0.0
 11
2860.6532471874
 21
998.7684648557
 31
0.0
  0
LINE
  5
152
330
1F
100
AcDbEntity
  8
0
  6
Continuous
 62
     7
370
    15
100
AcDbLine
 10
2832.522686074
 20
998.7684648557
 30
0.0
 11
2810.7756632068
 21
1051.2638960107
 31
0.0
  0
ARC
  5
153
330
1F
100
AcDbEntity
  8
0
  6
Continuous
 62
     7
370
    15
100
AcDbCircle
 10
2807.3127283745
 20
1052.567023894
 30
0.0
 40
3.700000000000396
100
AcDbArc
 50
339.3782941455
 51
159.3782941455
  0
LINE
  5
154
330
1F
100
AcDbEntity
  8
0
  6
Continuous
 62
     7
370
    15
100
AcDbLine
 10
2803.8498121002
 20
1053.8701500817
 30
0.0
 11
2796.0351365307
 21
1050.6328094824
 31
0.0
  0
ARC
  5
155
330
1F
100
AcDbEntity
  8
0
  6
Continuous
 62
     7
370
    15
100
AcDbCircle
 10
2794.6793780664
 20
1047.1901479081
 30
0.0
 40
3.700000000000466
100
AcDbArc
 50
68.5048496975
 51
248.5048496975
  0
LINE
  5
156
330
1F
100
AcDbEntity
  8
0
  6
Continuous
 62
     7
370
    15
100
AcDbLine
 10
2793.3236020305
 20
1043.7474895342
 30
0.0
 11
2811.9568484524
 21
998.7684648557
 31
0.0
  0
LINE
  5
157
330
1F
100
AcDbEntity
  8
0
  6
Continuous
 62
     7
370
    15
100
AcDbLine
 10
2310.6532352665
 20
998.7684648557
 30
0.0
 11
2811.9568484524
 21
998.7684648557
 31
0.0
  0
ARC
  5
158
330
1F
100
AcDbEntity
  8
0
  6
Continuous
 62
     7
370
    15
100
AcDbCircle
 10
2578.5303558719
 20
908.4997874192
 30
0.0
 40
282.6775241801369
100
AcDbArc
 50
133.2949296199
 51
161.3773187504
  0
LINE
  5
159
330
1F
100
AcDbEntity
  8
0
  6
Continuous
 62
     7
370
    15
100
AcDbLine
 10
2384.6831279495
 20
1114.2419438882
 30
0.0
 11
2384.6831279495
 21
1075.6037619038
 31
0.0
  0
ARC
  5
15A
330
1F
100
AcDbEntity
  8
0
  6
Continuous
 62
     7
370
    15
100
AcDbCircle
 10
2387.1580019208
 20
1073.1288883315
 30
0.0
 40
3.500000000000109
100
AcDbArc
 50
135.0
 51
315.0
  0
LINE
  5
15B
330
1F
100
AcDbEntity
  8
0
  6
Continuous
 62
     7
370
    15
100
AcDbLine
 10
2389.6328764656
 20
1070.6540133877
 30
0.0
 11
2398.7333806851
 21
1070.6540133877
 31
0.0
  0
ARC
  5
15C
330
1F
100
AcDbEntity
  8
0
  6
Continuous
 62
     7
370
    15
100
AcDbCircle
 10
2401.2082544525
 20
1073.1288883315
 30
0.0
 40
3.500000000000109
100
AcDbArc
 50
225.0
 51
45.0
  0
LINE
  5
15D
330
1F
100
AcDbEntity
  8
0
  6
Continuous
 62
     7
370
    15
100
AcDbLine
 10
2403.6831292012
 20
1075.6037619038
 30
0.0
 11
2403.6831292012
 21
1130.6146841569
 31
0.0
  0
ARC
  5
15E
330
1F
100
AcDbEntity
  8
0
  6
Continuous
 62
     7
370
    15
100
AcDbCircle
 10
2578.5303558719
 20
908.4997874192
 30
0.0
 40
282.677524180137
100
AcDbArc
 50
115.9841153306
 51
128.209562702
  0
LINE
  5
15F
330
1F
100
AcDbEntity
  8
0
  6
Continuous
 62
     7
370
    15
100
AcDbLine
 10
2454.6831282475
 20
1162.6030068918
 30
0.0
 11
2454.6831282475
 21
1075.6037619038
 31
0.0
  0
ARC
  5
160
330
1F
100
AcDbEntity
  8
0
  6
Continuous
 62
     7
370
    15
100
AcDbCircle
 10
2457.1580019208
 20
1073.1288883315
 30
0.0
 40
3.499999999999948
100
AcDbArc
 50
135.0
 51
315.0
  0
LINE
  5
161
330
1F
100
AcDbEntity
  8
0
  6
Continuous
 62
     7
370
    15
100
AcDbLine
 10
2459.6328755995
 20
1070.6540133877
 30
0.0
 11
2468.7333809831
 21
1070.6540133877
 31
0.0
  0
ARC
  5
162
330
1F
100
AcDbEntity
  8
0
  6
Continuous
 62
     7
370
    15
100
AcDbCircle
 10
2471.2082544525
 20
1073.1288883315
 30
0.0
 40
3.499999999999948
100
AcDbArc
 50
225.0
 51
45.0
  0
LINE
  5
163
330
1F
100
AcDbEntity
  8
0
  6
Continuous
 62
     7
370
    15
100
AcDbLine
 10
2473.6831285679
 20
1075.6037619038
 30
0.0
 11
2473.6831285679
 21
1171.0138630195
 31
0.0
  0
ARC
  5
164
330
1F
100
AcDbEntity
  8
0
  6
Continuous
 62
     7
370
    15
100
AcDbCircle
 10
2578.5303558719
 20
908.4997874192
 30
0.0
 40
282.677524180137
100
AcDbArc
 50
100.9813785431
 51
111.7715990745
  0
LINE
  5
165
330
1F
100
AcDbEntity
  8
0
  6
Continuous
 62
     7
370
    15
100
AcDbLine
 10
2524.6831285456
 20
1186.001242332
 30
0.0
 11
2524.6831285456
 21
1075.6037619038
 31
0.0
  0
ARC
  5
166
330
1F
100
AcDbEntity
  8
0
  6
Continuous
 62
     7
370
    15
100
AcDbCircle
 10
2527.1580019208
 20
1073.1288883315
 30
0.0
 40
3.499999999999948
100
AcDbArc
 50
135.0
 51
315.0
  0
LINE
  5
167
330
1F
100
AcDbEntity
  8
0
  6
Continuous
 62
     7
370
    15
100
AcDbLine
 10
2529.6328770616
 20
1070.6540133877
 30
0.0
 11
2538.7333812812
 21
1070.6540133877
 31
0.0
  0
ARC
  5
168
330
1F
100
AcDbEntity
  8
0
  6
Continuous
 62
     7
370
    15
100
AcDbCircle
 10
2541.2082544525
 20
1073.1288883315
 30
0.0
 40
3.50000000000027
100
AcDbArc
 50
225.0
 51
45.0
  0
LINE
  5
169
330
1F
100
AcDbEntity
  8
0
  6
Continuous
 62
     7
370
    15
100
AcDbLine
 10
2543.6831297972
 20
1075.6037619038
 30
0.0
 11
2543.6831297972
 21
1189.0211861654
 31
0.0
  0
ARC
  5
16A
330
1F
100
AcDbEntity
  8
0
  6
Continuous
 62
     7
370
    15
100
AcDbCircle
 10
2578.5303558719
 20
908.4997874192
 30
0.0
 40
282.6775241801371
100
AcDbArc
 50
86.7242175457
 51
97.0811819419
  0
LINE
  5
16B
330
1F
100
AcDbEntity
  8
0
  6
Continuous
 62
     7
370
    15
100
AcDbLine
 10
2594.683121393
 20
1190.7154332919
 30
0.0
 11
2594.683121393
 21
1075.6037619038
 31
0.0
  0
ARC
  5
16C
330
1F
100
AcDbEntity
  8
0
  6
Continuous
 62
     7
370
    15
100
AcDbCircle
 10
2597.1580019208
 20
1073.1288883315
 30
0.0
 40
3.499999999999948
100
AcDbArc
 50
135.0
 51
315.0
  0
LINE
  5
16D
330
1F
100
AcDbEntity
  8
0
  6
Continuous
 62
     7
370
    15
100
AcDbLine
 10
2599.6328699091
 20
1070.6540133877
 30
0.0
 11
2608.7333815792
 21
1070.6540133877
 31
0.0
  0
ARC
  5
16E
330
1F
100
AcDbEntity
  8
0
  6
Continuous
 62
     7
370
    15
100
AcDbCircle
 10
2611.2082544525
 20
1073.1288883315
 30
0.0
 40
3.500000000000109
100
AcDbArc
 50
225.0
 51
45.0
  0
LINE
  5
16F
330
1F
100
AcDbEntity
  8
0
  6
Continuous
 62
     7
370
    15
100
AcDbLine
 10
2613.6831300953
 20
1075.6037619038
 30
0.0
 11
2613.6831300953
 21
1188.9830540939
 31
0.0
  0
ARC
  5
170
330
1F
100
AcDbEntity
  8
0
  6
Continuous
 62
     7
370
    15
100
AcDbCircle
 10
2578.5303558719
 20
908.4997874192
 30
0.0
 40
282.6775241801371
100
AcDbArc
 50
72.2554296007
 51
82.856407112
  0
LINE
  5
171
330
1F
100
AcDbEntity
  8
0
  6
Continuous
 62
     7
370
    15
100
AcDbLine
 10
2664.6831291416
 20
1177.7288328929
 30
0.0
 11
2664.6831291416
 21
1075.6037619038
 31
0.0
  0
ARC
  5
172
330
1F
100
AcDbEntity
  8
0
  6
Continuous
 62
     7
370
    15
100
AcDbCircle
 10
2667.1580019208
 20
1073.1288883315
 30
0.0
 40
3.500000000000109
100
AcDbArc
 50
135.0
 51
315.0
  0
LINE
  5
173
330
1F
100
AcDbEntity
  8
0
  6
Continuous
 62
     7
370
    15
100
AcDbLine
 10
2669.6328776577
 20
1070.6540133877
 30
0.0
 11
2678.7333744266
 21
1070.6540133877
 31
0.0
  0
ARC
  5
174
330
1F
100
AcDbEntity
  8
0
  6
Continuous
 62
     7
370
    15
100
AcDbCircle
 10
2681.2082544525
 20
1073.1288883315
 30
0.0
 40
3.500000000000109
100
AcDbArc
 50
225.0
 51
45.0
  0
LINE
  5
175
330
1F
100
AcDbEntity
  8
0
  6
Continuous
 62
     7
370
    15
100
AcDbLine
 10
2683.6831229427
 20
1075.6037619038
 30
0.0
 11
2683.6831229427
 21
1170.8916287942
 31
0.0
  0
ARC
  5
176
330
1F
100
AcDbEntity
  8
0
  6
Continuous
 62
     7
370
    15
100
AcDbCircle
 10
2578.5303558719
 20
908.4997874192
 30
0.0
 40
282.6775241801373
100
AcDbArc
 50
61.4476058796
 51
68.1616978644
  0
LINE
  5
177
330
1F
100
AcDbEntity
  8
0
  6
Continuous
 62
     7
370
    15
100
AcDbLine
 10
2713.6395233372
 20
1156.7981850429
 30
0.0
 11
2727.9425221184
 21
1080.6264888568
 31
0.0
  0
ARC
  5
178
330
1F
100
AcDbEntity
  8
0
  6
Continuous
 62
     7
370
    15
100
AcDbCircle
 10
2730.8556373683
 20
1078.6864722276
 30
0.0
 40
3.500000000000105
100
AcDbArc
 50
146.3380858631
 51
326.3380858631
  0
LINE
  5
179
330
1F
100
AcDbEntity
  8
0
  6
Continuous
 62
     7
370
    15
100
AcDbLine
 10
2733.7687569359
 20
1076.7464499994
 30
0.0
 11
2742.7801149586
 21
1078.4385364576
 31
0.0
  0
ARC
  5
17A
330
1F
100
AcDbEntity
  8
0
  6
Continuous
 62
     7
370
    15
100
AcDbCircle
 10
2744.6809182714
 20
1081.377407904
 30
0.0
 40
3.500000000000047
100
AcDbArc
 50
237.1059841611
 51
57.1059841611
  0
LINE
  5
17B
330
1F
100
AcDbEntity
  8
0
  6
Continuous
 62
     7
370
    15
100
AcDbLine
 10
2746.5817290047
 20
1084.3162771387
 30
0.0
 11
2735.4449289539
 21
1143.6261247916
 31
0.0
  0
ARC
  5
17C
330
1F
100
AcDbEntity
  8
0
  6
Continuous
 62
     7
370
    15
100
AcDbCircle
 10
2578.5303558719
 20
908.4997874192
 30
0.0
 40
282.6775241801369
100
AcDbArc
 50
51.3033898516
 51
56.2823271101
  0
LWPOLYLINE
  5
17D
330
1F
100
AcDbEntity
  8
0
  6
Continuous
 62
     7
370
    15
100
AcDbPolyline
 90
       48
 70
   128
 43
0.0
 10
2436.6005244353
 20
1281.056718163
 10
2445.4809403667
 20
1282.1752291246
 10
2455.1284475872
 20
1283.5330527349
 10
2465.3664137856
 20
1285.0825350805
 10
2476.0182066509
 20
1286.7760222478
 10
2486.9071929404
 20
1288.5658305211
 10
2497.8567394116
 20
1290.4043357892
 10
2509.9917980531
 20
1292.4654048009
 10
2521.7315586903
 20
1294.4605212732
 10
2532.8267621496
 20
1296.322391562
 10
2543.0578398207
 20
1297.9905467553
 10
2552.4295600751
 20
1299.4555991216
 10
2561.0492559769
 20
1300.7316153569
 10
2570.389415572
 20
1302.0120125337
 10
2579.011346648
 20
1303.0726175828
 10
2587.0915907123
 20
1303.9365273042
 10
2594.8066967228
 20
1304.6269279046
 10
2605.5449056127
 20
1305.3581278844
 10
2616.4130079248
 20
1305.8499258085
 10
2627.8985100487
 20
1306.1658304258
 10
2640.1052283743
 20
1306.3122194333
 10
2652.8529929617
 20
1306.2534790559
 10
2665.2543502548
 20
1305.9754531903
 10
2677.8146284321
 20
1305.447296433
 10
2690.3717177608
 20
1304.5600514932
 10
2702.759216974
 20
1303.1090658231
 10
2714.8104267814
 20
1300.8834283872
 10
2726.3586776951
 20
1297.6723473592
 10
2734.5895426967
 20
1294.4904428048
 10
2742.3734324673
 20
1290.546671681
 10
2749.6399837234
 20
1285.7520740552
 10
2756.3244360187
 20
1280.044750504
 10
2762.3896258571
 20
1273.4991770311
 10
2767.8071814277
 20
1266.2328045888
 10
2772.548671315
 20
1258.3630245252
 10
2776.5857237079
 20
1250.0072579904
 10
2780.4190772274
 20
1239.6362584157
 10
2783.1757026413
 20
1228.9430212302
 10
2784.8123567798
 20
1218.1179087682
 10
2785.3385167816
 20
1207.2833638711
 10
2784.8010616997
 20
1196.5138774438
 10
2783.2476454475
 20
1185.8828973098
 10
2780.725862334
 20
1175.4639159961
 10
2777.283396075
 20
1165.3303962274
 10
2772.9678707817
 20
1155.5558156295
 10
2767.8269403675
 20
1146.2136369272
 10
2761.9081991413
 20
1137.3773377462
 10
2755.2593606212
 20
1129.1203808112
  0
LINE
  5
17E
330
1F
100
AcDbEntity
  8
0
  6
Continuous
 62
     7
370
    15
100
AcDbLine
 10
2366.4782675603
 20
1805.0091426893
 30
0.0
 11
2386.4839481809
 21
1809.0600531621
 31
0.0
  0
LWPOLYLINE
  5
17F
330
1F
100
AcDbEntity
  8
0
  6
Continuous
 62
     7
370
    15
100
AcDbPolyline
 90
        3
 70
   128
 43
0.0
 10
2399.2130714157
 20
1777.9424946828
 10
2393.3561998108
 20
1793.9076583905
 10
2386.4839481809
 20
1809.0600531621
  0
ARC
  5
180
330
1F
100
AcDbEntity
  8
0
  6
Continuous
 62
     7
370
    15
100
AcDbCircle
 10
1937.0037943291
 20
830.2790693456
 30
0.0
 40
3.500000000000028
100
AcDbArc
 50
315.0
 51
135.0
  0
LINE
  5
181
330
1F
100
AcDbEntity
  8
0
  6
Continuous
 62
     7
370
    15
100
AcDbLine
 10
1934.5289199048
 20
832.7539418701
 30
0.0
 11
1925.4284156853
 21
832.7539418701
 31
0.0
  0
ARC
  5
182
330
1F
100
AcDbEntity
  8
0
  6
Continuous
 62
     7
370
    15
100
AcDbCircle
 10
1922.9535417974
 20
830.2790693456
 30
0.0
 40
3.500000000000028
100
AcDbArc
 50
45.0
 51
225.0
  0
LINE
  5
183
330
1F
100
AcDbEntity
  8
0
  6
Continuous
 62
     7
370
    15
100
AcDbLine
 10
1920.4786671692
 20
827.804193354
 30
0.0
 11
1920.4786671692
 21
760.8683933381
 31
0.0
  0
LINE
  5
184
330
1F
100
AcDbEntity
  8
0
  6
Continuous
 62
     7
370
    15
100
AcDbLine
 10
1840.4786689574
 20
760.8683933381
 30
0.0
 11
1920.4786671692
 21
760.8683933381
 31
0.0
  0
LINE
  5
185
330
1F
100
AcDbEntity
  8
0
  6
Continuous
 62
     7
370
    15
100
AcDbLine
 10
1840.4786689574
 20
760.8683933381
 30
0.0
 11
1840.4786689574
 21
827.804193354
 31
0.0
  0
ARC
  5
186
330
1F
100
AcDbEntity
  8
0
  6
Continuous
 62
     7
370
    15
100
AcDbCircle
 10
1838.0037943291
 20
830.2790693456
 30
0.0
 40
3.500000000000028
100
AcDbArc
 50
315.0
 51
135.0
  0
LINE
  5
187
330
1F
100
AcDbEntity
  8
0
  6
Continuous
 62
     7
370
    15
100
AcDbLine
 10
1835.5289204413
 20
832.7539418701
 30
0.0
 11
1826.4284162217
 21
832.7539418701
 31
0.0
  0
ARC
  5
188
330
1F
100
AcDbEntity
  8
0
  6
Continuous
 62
     7
370
    15
100
AcDbCircle
 10
1823.9535417974
 20
830.2790693456
 30
0.0
 40
3.500000000000028
100
AcDbArc
 50
45.0
 51
225.0
  0
LINE
  5
189
330
1F
100
AcDbEntity
  8
0
  6
Continuous
 62
     7
370
    15
100
AcDbLine
 10
1821.4786677057
 20
827.804193354
 30
0.0
 11
1821.4786677057
 21
760.8683933381
 31
0.0
  0
LINE
  5
18A
330
1F
100
AcDbEntity
  8
0
  6
Continuous
 62
     7
370
    15
100
AcDbLine
 10
1668.4893696004
 20
760.8683933381
 30
0.0
 11
1821.4786677057
 21
760.8683933381
 31
0.0
  0
LWPOLYLINE
  5
18B
330
1F
100
AcDbEntity
  8
0
  6
Continuous
 62
     7
370
    15
100
AcDbPolyline
 90
       27
 70
   128
 43
0.0
 10
1880.4786680633
 20
903.5704363946
 10
1868.9586473996
 20
903.1727542046
 10
1857.6132236415
 20
902.0772059325
 10
1846.1803486937
 20
900.3544230822
 10
1835.0744573766
 20
898.142718232
 10
1823.9432564372
 20
895.4316903714
 10
1812.8843335801
 20
892.2723610762
 10
1799.8053683335
 20
887.953706539
 10
1786.8555887038
 20
883.0569689039
 10
1774.134459942
 20
877.62653873
 10
1761.7106764013
 20
871.6896106366
 10
1749.6248213941
 20
865.2491276029
 10
1739.6928398305
 20
859.396696544
 10
1730.0368426734
 20
853.1395872
 10
1720.7662491495
 20
846.5007026557
 10
1711.6317926341
 20
839.2052133444
 10
1703.0577985937
 20
831.4694170717
 10
1695.1686321193
 20
823.3076413039
 10
1690.6644134218
 20
818.0284169379
 10
1686.4424376184
 20
812.512033141
 10
1682.508605569
 20
806.6964079503
 10
1678.971204012
 20
800.6627899471
 10
1675.9451954061
 20
794.5697125855
 10
1672.7155475313
 20
786.3787379924
 10
1670.3958986694
 20
778.0930646572
 10
1668.966057747
 20
769.5271088618
 10
1668.4893696004
 20
760.8683933381
  0
LINE
  5
18C
330
1F
100
AcDbEntity
  8
0
  6
Continuous
 62
     7
370
    15
100
AcDbLine
 10
1939.4786684209
 20
760.8683933381
 30
0.0
 11
1939.4786684209
 21
827.804193354
 31
0.0
  0
LWPOLYLINE
  5
18D
330
1F
100
AcDbEntity
  8
0
  6
Continuous
 62
     7
370
    15
100
AcDbPolyline
 90
       26
 70
   128
 43
0.0
 10
2092.4679665262
 20
760.8683933381
 10
2092.2542391712
 20
766.6759705048
 10
2091.6131912166
 20
772.4422016058
 10
2090.5448375636
 20
778.1670880381
 10
2089.0962658817
 20
783.6937461856
 10
2087.2440664464
 20
789.1788617584
 10
2084.9882690603
 20
794.6224328939
 10
2081.0894398385
 20
802.2845839027
 10
2076.5457181627
 20
809.6060794655
 10
2071.5201972419
 20
816.4879535202
 10
2065.8158986265
 20
823.2772950891
 10
2057.8091768915
 20
831.5568272832
 10
2049.2779938871
 20
839.2454986337
 10
2040.1199041301
 20
846.5543840889
 10
2030.8549283439
 20
853.1841938261
 10
2021.2133108074
 20
859.4282870058
 10
2011.3053946191
 20
865.2643789414
 10
1996.1741892988
 20
873.2191626791
 10
1980.6188373262
 20
880.3536300424
 10
1964.6516619617
 20
886.6916079882
 10
1948.2674254471
 20
892.2127564314
 10
1934.931109696
 20
895.9752996329
 10
1921.4613912994
 20
899.0840841893
 10
1907.8780776256
 20
901.4646191958
 10
1894.2794176185
 20
903.0050565365
 10
1880.4786680633
 20
903.5704363946
  0
LINE
  5
18E
330
1F
100
AcDbEntity
  8
0
  6
Continuous
 62
     7
370
    15
100
AcDbLine
 10
1939.4786684209
 20
760.8683933381
 30
0.0
 11
2092.4679665262
 21
760.8683933381
 31
0.0
  0
ARC
  5
18F
330
1F
100
AcDbEntity
  8
0
  6
Continuous
 62
     7
370
    15
100
AcDbCircle
 10
2436.6278138569
 20
832.1974663742
 30
0.0
 40
3.499999999999948
100
AcDbArc
 50
315.0
 51
135.0
  0
LINE
  5
190
330
1F
100
AcDbEntity
  8
0
  6
Continuous
 62
     7
370
    15
100
AcDbLine
 10
2434.1529394326
 20
834.6723388987
 30
0.0
 11
2425.0524352131
 21
834.6723388987
 31
0.0
  0
ARC
  5
191
330
1F
100
AcDbEntity
  8
0
  6
Continuous
 62
     7
370
    15
100
AcDbCircle
 10
2422.5775613253
 20
832.1974663742
 30
0.0
 40
3.499999999999948
100
AcDbArc
 50
45.0
 51
225.0
  0
LINE
  5
192
330
1F
100
AcDbEntity
  8
0
  6
Continuous
 62
     7
370
    15
100
AcDbLine
 10
2420.102686697
 20
829.7225903826
 30
0.0
 11
2420.102686697
 21
762.7867903667
 31
0.0
  0
LINE
  5
193
330
1F
100
AcDbEntity
  8
0
  6
Continuous
 62
     7
370
    15
100
AcDbLine
 10
2340.1026884852
 20
762.7867903667
 30
0.0
 11
2420.102686697
 21
762.7867903667
 31
0.0
  0
LINE
  5
194
330
1F
100
AcDbEntity
  8
0
  6
Continuous
 62
     7
370
    15
100
AcDbLine
 10
2340.1026884852
 20
762.7867903667
 30
0.0
 11
2340.1026884852
 21
829.7225903826
 31
0.0
  0
ARC
  5
195
330
1F
100
AcDbEntity
  8
0
  6
Continuous
 62
     7
370
    15
100
AcDbCircle
 10
2337.6278138569
 20
832.1974663742
 30
0.0
 40
3.50000000000027
100
AcDbArc
 50
315.0
 51
135.0
  0
LINE
  5
196
330
1F
100
AcDbEntity
  8
0
  6
Continuous
 62
     7
370
    15
100
AcDbLine
 10
2335.1529399691
 20
834.6723388987
 30
0.0
 11
2326.0524357496
 21
834.6723388987
 31
0.0
  0
ARC
  5
197
330
1F
100
AcDbEntity
  8
0
  6
Continuous
 62
     7
370
    15
100
AcDbCircle
 10
2323.5775613253
 20
832.1974663742
 30
0.0
 40
3.499999999999948
100
AcDbArc
 50
45.0
 51
225.0
  0
LINE
  5
198
330
1F
100
AcDbEntity
  8
0
  6
Continuous
 62
     7
370
    15
100
AcDbLine
 10
2321.1026872335
 20
829.7225903826
 30
0.0
 11
2321.1026872335
 21
762.7867903667
 31
0.0
  0
LINE
  5
199
330
1F
100
AcDbEntity
  8
0
  6
Continuous
 62
     7
370
    15
100
AcDbLine
 10
2144.3464542566
 20
762.7867903667
 30
0.0
 11
2321.1026872335
 21
762.7867903667
 31
0.0
  0
LWPOLYLINE
  5
19A
330
1F
100
AcDbEntity
  8
0
  6
Continuous
 62
     7
370
    15
100
AcDbPolyline
 90
       26
 70
   128
 43
0.0
 10
2380.1026875911
 20
950.466706987
 10
2366.4942840872
 20
949.9031450706
 10
2353.063396254
 20
948.3227279144
 10
2339.5581292746
 20
945.8066370445
 10
2326.4123472212
 20
942.5316002327
 10
2313.3823136626
 20
938.5258700805
 10
2300.5661452947
 20
933.8757541137
 10
2285.6962541876
 20
927.6149418312
 10
2271.1279402313
 20
920.5755438762
 10
2256.885201746
 20
912.7981063085
 10
2243.0014694867
 20
904.3077077823
 10
2229.5235032974
 20
895.1168950754
 10
2218.6227823434
 20
886.9056251007
 10
2208.1496651111
 20
878.2493244963
 10
2198.211723083
 20
869.2015405851
 10
2188.607224339
 20
859.4962354856
 10
2179.6027953563
 20
849.2780100661
 10
2171.3388497768
 20
838.5867770868
 10
2165.5315096317
 20
830.0041329222
 10
2160.4144955812
 20
821.3682543593
 10
2155.8078761039
 20
812.2914988654
 10
2151.8515731035
 20
802.8593916553
 10
2148.6131931482
 20
793.0074069756
 10
2146.2821299968
 20
783.1420708554
 10
2144.830429071
 20
772.9642834621
 10
2144.3464542566
 20
762.7867903667
  0
LWPOLYLINE
  5
19B
330
1F
100
AcDbEntity
  8
0
  6
Continuous
 62
     7
370
    15
100
AcDbPolyline
 90
       26
 70
   128
 43
0.0
 10
2615.8589209256
 20
762.7867903667
 10
2615.3761829076
 20
772.9510717201
 10
2613.9281625686
 20
783.1161856758
 10
2611.6037006316
 20
792.9665759313
 10
2608.3742762742
 20
802.804734196
 10
2604.4205511747
 20
812.2417848664
 10
2599.8143042264
 20
821.3257078188
 10
2594.6950102983
 20
829.9707990246
 10
2588.8832445083
 20
838.5635163742
 10
2580.6276584802
 20
849.2476862031
 10
2571.6242725787
 20
859.4683330613
 10
2562.010922545
 20
869.1850077468
 10
2552.0429248748
 20
878.2604035097
 10
2541.5346856055
 20
886.9434069949
 10
2530.5945063768
 20
895.1797481733
 10
2517.1676064668
 20
904.3311324077
 10
2503.313728684
 20
912.8018315988
 10
2489.0745068727
 20
920.5770488935
 10
2474.4797284541
 20
927.628233667
 10
2459.5512757836
 20
933.9100267845
 10
2446.6536576686
 20
938.5826584058
 10
2433.6152086792
 20
942.5811167913
 10
2420.5314638851
 20
945.8319541174
 10
2407.08919529
 20
948.3307745414
 10
2393.7024735672
 20
949.9038752275
 10
2380.1026875911
 20
950.466706987
  0
LINE
  5
19C
330
1F
100
AcDbEntity
  8
0
  6
Continuous
 62
     7
370
    15
100
AcDbLine
 10
2439.1026879487
 20
762.7867903667
 30
0.0
 11
2615.8589209256
 21
762.7867903667
 31
0.0
  0
LINE
  5
19D
330
1F
100
AcDbEntity
  8
0
  6
Continuous
 62
     7
370
    15
100
AcDbLine
 10
2439.1026879487
 20
762.7867903667
 30
0.0
 11
2439.1026879487
 21
829.7225903826
 31
0.0
  0
ARC
  5
19E
330
1F
100
AcDbEntity
  8
0
  6
Continuous
 62
     7
370
    15
100
AcDbCircle
 10
2961.2544234101
 20
829.2455317196
 30
0.0
 40
3.500000000000028
100
AcDbArc
 50
315.0
 51
135.0
  0
LINE
  5
19F
330
1F
100
AcDbEntity
  8
0
  6
Continuous
 62
     7
370
    15
100
AcDbLine
 10
2958.7795489858
 20
831.7204042441
 30
0.0
 11
2949.6790447663
 21
831.7204042441
 31
0.0
  0
ARC
  5
1A0
330
1F
100
AcDbEntity
  8
0
  6
Continuous
 62
     7
370
    15
100
AcDbCircle
 10
2947.2041708785
 20
829.2455317196
 30
0.0
 40
3.500000000000028
100
AcDbArc
 50
45.0
 51
225.0
  0
LINE
  5
1A1
330
1F
100
AcDbEntity
  8
0
  6
Continuous
 62
     7
370
    15
100
AcDbLine
 10
2944.7292962502
 20
826.770655728
 30
0.0
 11
2944.7292962502
 21
759.8348557121
 31
0.0
  0
LINE
  5
1A2
330
1F
100
AcDbEntity
  8
0
  6
Continuous
 62
     7
370
    15
100
AcDbLine
 10
2864.7292980384
 20
759.8348557121
 30
0.0
 11
2944.7292962502
 21
759.8348557121
 31
0.0
  0
LINE
  5
1A3
330
1F
100
AcDbEntity
  8
0
  6
Continuous
 62
     7
370
    15
100
AcDbLine
 10
2864.7292980384
 20
759.8348557121
 30
0.0
 11
2864.7292980384
 21
826.770655728
 31
0.0
  0
ARC
  5
1A4
330
1F
100
AcDbEntity
  8
0
  6
Continuous
 62
     7
370
    15
100
AcDbCircle
 10
2862.2544234101
 20
829.2455317196
 30
0.0
 40
3.500000000000028
100
AcDbArc
 50
315.0
 51
135.0
  0
LINE
  5
1A5
330
1F
100
AcDbEntity
  8
0
  6
Continuous
 62
     7
370
    15
100
AcDbLine
 10
2859.7795495223
 20
831.7204042441
 30
0.0
 11
2850.6790453028
 21
831.7204042441
 31
0.0
  0
ARC
  5
1A6
330
1F
100
AcDbEntity
  8
0
  6
Continuous
 62
     7
370
    15
100
AcDbCircle
 10
2848.2041708785
 20
829.2455317196
 30
0.0
 40
3.500000000000028
100
AcDbArc
 50
45.0
 51
225.0
  0
LINE
  5
1A7
330
1F
100
AcDbEntity
  8
0
  6
Continuous
 62
     7
370
    15
100
AcDbLine
 10
2845.7292967867
 20
826.770655728
 30
0.0
 11
2845.7292967867
 21
759.8348557121
 31
0.0
  0
LINE
  5
1A8
330
1F
100
AcDbEntity
  8
0
  6
Continuous
 62
     7
370
    15
100
AcDbLine
 10
2661.2785661053
 20
759.8348557121
 30
0.0
 11
2845.7292967867
 21
759.8348557121
 31
0.0
  0
LWPOLYLINE
  5
1A9
330
1F
100
AcDbEntity
  8
0
  6
Continuous
 62
     7
370
    15
100
AcDbPolyline
 90
       28
 70
   128
 43
0.0
 10
2904.7292971443
 20
969.0342246658
 10
2893.7905242126
 20
968.6698316699
 10
2882.9524738174
 20
967.6230548984
 10
2872.3400623928
 20
965.9823327428
 10
2861.5432695876
 20
963.721200741
 10
2851.0943481158
 20
960.9909205801
 10
2840.5367636513
 20
957.7092527515
 10
2830.4292762111
 20
954.0881662733
 10
2820.2866890858
 20
949.9896912939
 10
2804.648434503
 20
942.7631198532
 10
2789.3775978516
 20
934.6283673412
 10
2774.4960689377
 20
925.6320743925
 10
2760.0750976633
 20
915.8314316637
 10
2746.2294453214
 20
905.306145466
 10
2735.1559752058
 20
895.9887175924
 10
2724.5465123485
 20
886.1813544399
 10
2714.5054095815
 20
875.945903278
 10
2704.851215465
 20
865.0143071181
 10
2695.8609872888
 20
853.5787238842
 10
2687.662740929
 20
841.6943623787
 10
2681.9722109865
 20
832.2833626634
 10
2676.9559734892
 20
822.8292836911
 10
2672.4507564138
 20
812.9398114151
 10
2668.5861849617
 20
802.7052207953
 10
2665.4415929149
 20
792.121756739
 10
2663.1741279196
 20
781.5662882394
 10
2661.7525124382
 20
770.6708693049
 10
2661.2785661053
 20
759.8348557121
  0
LINE
  5
1AA
330
1F
100
AcDbEntity
  8
0
  6
Continuous
 62
     7
370
    15
100
AcDbLine
 10
2963.7292975019
 20
759.8348557121
 30
0.0
 11
2963.7292975019
 21
826.770655728
 31
0.0
  0
LWPOLYLINE
  5
1AB
330
1F
100
AcDbEntity
  8
0
  6
Continuous
 62
     7
370
    15
100
AcDbPolyline
 90
       27
 70
   128
 43
0.0
 10
3148.1800281833
 20
759.8348557121
 10
3147.7008068394
 20
770.7310411251
 10
3146.2633365225
 20
781.6877569175
 10
3143.9724618028
 20
792.29526586
 10
3140.7955789398
 20
802.9318525559
 10
3136.9891965221
 20
812.9831104642
 10
3132.4040943216
 20
823.0285196668
 10
3127.3263150286
 20
832.5648530489
 10
3121.5621137451
 20
842.0576303369
 10
3113.393982632
 20
853.8540898925
 10
3104.4558191131
 20
865.1956766016
 10
3094.8757731746
 20
876.0288878447
 10
3084.8647260498
 20
886.2272500164
 10
3074.2644274067
 20
896.0223942167
 10
3063.1742977928
 20
905.3501783973
 10
3049.2947602104
 20
915.8952086336
 10
3034.9047088455
 20
925.6691484815
 10
3020.0589874219
 20
934.6408843166
 10
3004.7936791014
 20
942.771330393
 10
2989.1277977656
 20
950.0085114604
 10
2978.93503098
 20
954.1240929729
 10
2968.7770062517
 20
957.7577560312
 10
2958.2435020636
 20
961.0254465705
 10
2947.8175321053
 20
963.7442677385
 10
2933.5179661791
 20
966.6051416761
 10
2919.243322445
 20
968.3974682456
 10
2904.7292971443
 20
969.0342246658
  0
LINE
  5
1AC
330
1F
100
AcDbEntity
  8
0
  6
Continuous
 62
     7
370
    15
100
AcDbLine
 10
2963.7292975019
 20
759.8348557121
 30
0.0
 11
3148.1800281833
 21
759.8348557121
 31
0.0
  0
ARC
  5
1AD
330
1F
100
AcDbEntity
  8
0
  6
Continuous
 62
     7
370
    15
100
AcDbCircle
 10
3513.5653989488
 20
824.0886668521
 30
0.0
 40
3.500000000000028
100
AcDbArc
 50
315.0
 51
135.0
  0
LINE
  5
1AE
330
1F
100
AcDbEntity
  8
0
  6
Continuous
 62
     7
370
    15
100
AcDbLine
 10
3511.0905245245
 20
826.5635393766
 30
0.0
 11
3501.9900203049
 21
826.5635393766
 31
0.0
  0
ARC
  5
1AF
330
1F
100
AcDbEntity
  8
0
  6
Continuous
 62
     7
370
    15
100
AcDbCircle
 10
3499.5151464171
 20
824.0886668521
 30
0.0
 40
3.500000000000028
100
AcDbArc
 50
45.0
 51
225.0
  0
LINE
  5
1B0
330
1F
100
AcDbEntity
  8
0
  6
Continuous
 62
     7
370
    15
100
AcDbLine
 10
3497.0402717889
 20
821.6137908605
 30
0.0
 11
3497.0402717889
 21
754.6779908446
 31
0.0
  0
LINE
  5
1B1
330
1F
100
AcDbEntity
  8
0
  6
Continuous
 62
     7
370
    15
100
AcDbLine
 10
3417.040273577
 20
754.6779908446
 30
0.0
 11
3497.0402717889
 21
754.6779908446
 31
0.0
  0
LINE
  5
1B2
330
1F
100
AcDbEntity
  8
0
  6
Continuous
 62
     7
370
    15
100
AcDbLine
 10
3417.040273577
 20
754.6779908446
 30
0.0
 11
3417.040273577
 21
821.6137908605
 31
0.0
  0
ARC
  5
1B3
330
1F
100
AcDbEntity
  8
0
  6
Continuous
 62
     7
370
    15
100
AcDbCircle
 10
3414.5653989488
 20
824.0886668521
 30
0.0
 40
3.499999999999948
100
AcDbArc
 50
315.0
 51
135.0
  0
LINE
  5
1B4
330
1F
100
AcDbEntity
  8
0
  6
Continuous
 62
     7
370
    15
100
AcDbLine
 10
3412.0905250609
 20
826.5635393766
 30
0.0
 11
3402.9900208414
 21
826.5635393766
 31
0.0
  0
ARC
  5
1B5
330
1F
100
AcDbEntity
  8
0
  6
Continuous
 62
     7
370
    15
100
AcDbCircle
 10
3400.5151464171
 20
824.0886668521
 30
0.0
 40
3.499999999999948
100
AcDbArc
 50
45.0
 51
225.0
  0
LINE
  5
1B6
330
1F
100
AcDbEntity
  8
0
  6
Continuous
 62
     7
370
    15
100
AcDbLine
 10
3398.0402723253
 20
821.6137908605
 30
0.0
 11
3398.0402723253
 21
754.6779908446
 31
0.0
  0
LINE
  5
1B7
330
1F
100
AcDbEntity
  8
0
  6
Continuous
 62
     7
370
    15
100
AcDbLine
 10
3217.80372414
 20
754.6779908446
 30
0.0
 11
3398.0402723253
 21
754.6779908446
 31
0.0
  0
LWPOLYLINE
  5
1B8
330
1F
100
AcDbEntity
  8
0
  6
Continuous
 62
     7
370
    15
100
AcDbPolyline
 90
       28
 70
   128
 43
0.0
 10
3457.0402726829
 20
967.2791458872
 10
3446.1189303845
 20
966.8978996781
 10
3435.291180417
 20
965.8010401038
 10
3424.6795960069
 20
964.0785701779
 10
3413.8846732974
 20
961.7034740952
 10
3403.5306573212
 20
958.8624485043
 10
3393.0712789595
 20
955.4516472128
 10
3383.0877915323
 20
951.7022766379
 10
3373.0736822188
 20
947.4630750922
 10
3357.6343655885
 20
939.9922140149
 10
3342.5628394187
 20
931.586245468
 10
3327.89414379
 20
922.2993947772
 10
3313.7218281925
 20
912.2078664807
 10
3300.1888916195
 20
901.4251329211
 10
3289.3841341436
 20
891.8936945704
 10
3279.0457085073
 20
881.8715162781
 10
3269.2709490955
 20
871.4198418168
 10
3259.8938271702
 20
860.2810450104
 10
3251.1926070154
 20
848.6734427718
 10
3243.2810887993
 20
836.6565726904
 10
3237.8018722236
 20
827.1760739592
 10
3232.9658940733
 20
817.6576070694
 10
3228.5557464063
 20
807.5557187406
 10
3224.8923853338
 20
797.4623687771
 10
3221.8529507816
 20
786.8788376657
 10
3219.6562812031
 20
776.3541475144
 10
3218.2669118345
 20
765.4594009948
 10
3217.80372414
 20
754.6779908446
  0
LINE
  5
1B9
330
1F
100
AcDbEntity
  8
0
  6
Continuous
 62
     7
370
    15
100
AcDbLine
 10
3516.0402730406
 20
754.6779908446
 30
0.0
 11
3516.0402730406
 21
821.6137908605
 31
0.0
  0
LWPOLYLINE
  5
1BA
330
1F
100
AcDbEntity
  8
0
  6
Continuous
 62
     7
370
    15
100
AcDbPolyline
 90
       29
 70
   128
 43
0.0
 10
3696.2768212259
 20
754.6779908446
 10
3695.8121732176
 20
765.4763054309
 10
3694.4184080065
 20
776.3888020275
 10
3692.2097131908
 20
786.950858703
 10
3689.152009815
 20
797.5730732289
 10
3685.4891851843
 20
807.6447084752
 10
3681.0824349821
 20
817.7256383208
 10
3676.2185916603
 20
827.2866480259
 10
3670.705296129
 20
836.8100099472
 10
3662.7749130428
 20
848.8337941674
 10
3654.0879532993
 20
860.4050822762
 10
3644.7677538097
 20
871.4669071344
 10
3635.0169852674
 20
881.8896658925
 10
3624.686591357
 20
891.9027693776
 10
3613.8701960743
 20
901.4432080296
 10
3602.5924459398
 20
910.509357622
 10
3590.898580879
 20
919.0713860301
 10
3578.8845494688
 20
927.062848976
 10
3566.5325075686
 20
934.4908543137
 10
3553.8557097614
 20
941.3254507092
 10
3540.9471467436
 20
947.4897630719
 10
3530.8610722721
 20
951.7548479346
 10
3520.8055228293
 20
955.5231876877
 10
3510.3320814967
 20
958.9277453927
 10
3499.9639764726
 20
961.7608882693
 10
3489.2567508221
 20
964.1061075238
 10
3478.7293430716
 20
965.8089973239
 10
3467.9473694712
 20
966.8989725617
 10
3457.0402726829
 20
967.2791458872
  0
LINE
  5
1BB
330
1F
100
AcDbEntity
  8
0
  6
Continuous
 62
     7
370
    15
100
AcDbLine
 10
3516.0402730406
 20
754.6779908446
 30
0.0
 11
3696.2768212259
 21
754.6779908446
 31
0.0
  0
ARC
  5
1BC
330
1F
100
AcDbEntity
  8
0
  6
Continuous
 62
     7
370
    15
100
AcDbCircle
 10
4045.3716535825
 20
826.8855539412
 30
0.0
 40
3.500000000000028
100
AcDbArc
 50
315.0
 51
135.0
  0
LINE
  5
1BD
330
1F
100
AcDbEntity
  8
0
  6
Continuous
 62
     7
370
    15
100
AcDbLine
 10
4042.8967791582
 20
829.3604264657
 30
0.0
 11
4033.7962749386
 21
829.3604264657
 31
0.0
  0
ARC
  5
1BE
330
1F
100
AcDbEntity
  8
0
  6
Continuous
 62
     7
370
    15
100
AcDbCircle
 10
4031.3214010508
 20
826.8855539412
 30
0.0
 40
3.500000000000028
100
AcDbArc
 50
45.0
 51
225.0
  0
LINE
  5
1BF
330
1F
100
AcDbEntity
  8
0
  6
Continuous
 62
     7
370
    15
100
AcDbLine
 10
4028.8465264226
 20
824.4106779496
 30
0.0
 11
4028.8465264226
 21
757.4748779337
 31
0.0
  0
LINE
  5
1C0
330
1F
100
AcDbEntity
  8
0
  6
Continuous
 62
     7
370
    15
100
AcDbLine
 10
3948.8465282107
 20
757.4748779337
 30
0.0
 11
4028.8465264226
 21
757.4748779337
 31
0.0
  0
LINE
  5
1C1
330
1F
100
AcDbEntity
  8
0
  6
Continuous
 62
     7
370
    15
100
AcDbLine
 10
3948.8465282107
 20
757.4748779337
 30
0.0
 11
3948.8465282107
 21
824.4106779496
 31
0.0
  0
ARC
  5
1C2
330
1F
100
AcDbEntity
  8
0
  6
Continuous
 62
     7
370
    15
100
AcDbCircle
 10
3946.3716535825
 20
826.8855539412
 30
0.0
 40
3.500000000000109
100
AcDbArc
 50
315.0
 51
135.0
  0
LINE
  5
1C3
330
1F
100
AcDbEntity
  8
0
  6
Continuous
 62
     7
370
    15
100
AcDbLine
 10
3943.8967796946
 20
829.3604264657
 30
0.0
 11
3934.7962754751
 21
829.3604264657
 31
0.0
  0
ARC
  5
1C4
330
1F
100
AcDbEntity
  8
0
  6
Continuous
 62
     7
370
    15
100
AcDbCircle
 10
3932.3214010508
 20
826.8855539412
 30
0.0
 40
3.500000000000109
100
AcDbArc
 50
45.0
 51
225.0
  0
LINE
  5
1C5
330
1F
100
AcDbEntity
  8
0
  6
Continuous
 62
     7
370
    15
100
AcDbLine
 10
3929.846526959
 20
824.4106779496
 30
0.0
 11
3929.846526959
 21
757.4748779337
 31
0.0
  0
LINE
  5
1C6
330
1F
100
AcDbEntity
  8
0
  6
Continuous
 62
     7
370
    15
100
AcDbLine
 10
3766.2675696397
 20
757.4748779337
 30
0.0
 11
3929.846526959
 21
757.4748779337
 31
0.0
  0
LWPOLYLINE
  5
1C7
330
1F
100
AcDbEntity
  8
0
  6
Continuous
 62
     7
370
    15
100
AcDbPolyline
 90
       28
 70
   128
 43
0.0
 10
3988.8465273166
 20
956.0289467375
 10
3978.6766980747
 20
955.6635404627
 10
3968.5939903343
 20
954.6134854357
 10
3958.7188045467
 20
952.9680694143
 10
3948.6620220328
 20
950.7000828783
 10
3939.062261858
 20
948.004984359
 10
3929.3558093691
 20
944.772639374
 10
3920.100407579
 20
941.2290687363
 10
3910.8097868944
 20
937.2257972757
 10
3896.4925649548
 20
930.1867718498
 10
3882.5137707377
 20
922.2809011738
 10
3868.9089360619
 20
913.5623211662
 10
3855.7662087465
 20
904.1052545111
 10
3843.2177173877
 20
894.0177644293
 10
3833.1974315429
 20
885.1129944126
 10
3823.6049431348
 20
875.7590661447
 10
3814.5282286192
 20
866.0125518839
 10
3805.8174121166
 20
855.641716222
 10
3797.7184074903
 20
844.8389853041
 10
3790.3372365022
 20
833.6620266239
 10
3785.2121162201
 20
824.8494575421
 10
3780.677901485
 20
816.009883831
 10
3776.5908705974
 20
806.7886243264
 10
3773.0654942775
 20
797.2684698801
 10
3770.1654153848
 20
787.4112493049
 10
3768.0630254532
 20
777.6427409302
 10
3766.7299079681
 20
767.6323746021
 10
3766.2675696397
 20
757.4748779337
  0
LINE
  5
1C8
330
1F
100
AcDbEntity
  8
0
  6
Continuous
 62
     7
370
    15
100
AcDbLine
 10
4047.8465276743
 20
757.4748779337
 30
0.0
 11
4047.8465276743
 21
824.4106779496
 31
0.0
  0
LWPOLYLINE
  5
1C9
330
1F
100
AcDbEntity
  8
0
  6
Continuous
 62
     7
370
    15
100
AcDbPolyline
 90
       28
 70
   128
 43
0.0
 10
4211.4254849935
 20
757.4748779337
 10
4210.9644132639
 20
767.6190650712
 10
4209.6381801153
 20
777.5961654882
 10
4207.5543570305
 20
787.306266899
 10
4204.6817856813
 20
797.1053990225
 10
4201.2232708717
 20
806.489349405
 10
4197.0674860264
 20
815.9004832308
 10
4192.5294267917
 20
824.7607881825
 10
4187.3969900394
 20
833.5951725642
 10
4180.0177413011
 20
844.7778532903
 10
4171.9208079363
 20
855.5848757426
 10
4163.2126736427
 20
865.9585351746
 10
4154.1370916153
 20
875.7089684407
 10
4144.5440071607
 20
885.0679780047
 10
4134.521232822
 20
893.9787978928
 10
4121.967540958
 20
904.074274997
 10
4108.8256630088
 20
913.5340685646
 10
4095.2166262055
 20
922.2583855192
 10
4081.2188404585
 20
930.1770711939
 10
4066.8607818866
 20
937.2360194723
 10
4057.523155489
 20
941.2573362391
 10
4048.2203605557
 20
944.8145265381
 10
4038.4733955348
 20
948.0532343189
 10
4028.8335214341
 20
950.7501656811
 10
4018.8461541171
 20
952.9931629698
 10
4009.0372840846
 20
954.6219045918
 10
3998.9962669993
 20
955.6650305788
 10
3988.8465273166
 20
956.0289467375
  0
LINE
  5
1CA
330
1F
100
AcDbEntity
  8
0
  6
Continuous
 62
     7
370
    15
100
AcDbLine
 10
4047.8465276743
 20
757.4748779337
 30
0.0
 11
4211.4254849935
 21
757.4748779337
 31
0.0
  0
ARC
  5
1CB
330
1F
100
AcDbEntity
  8
0
  6
Continuous
 62
     7
370
    15
100
AcDbCircle
 10
1805.3830614977
 20
609.8330053471
 30
0.0
 40
3.500000000000219
100
AcDbArc
 50
314.461181035
 51
134.461181035
  0
LINE
  5
1CC
330
1F
100
AcDbEntity
  8
0
  6
Continuous
 62
     7
370
    15
100
AcDbLine
 10
1802.9315716902
 20
612.3310453506
 30
0.0
 11
1794.07847145
 21
612.3310453506
 31
0.0
  0
ARC
  5
1CD
330
1F
100
AcDbEntity
  8
0
  6
Continuous
 62
     7
370
    15
100
AcDbCircle
 10
1791.4565123263
 20
610.0125688943
 30
0.0
 40
3.499999999999851
100
AcDbArc
 50
41.4847969072
 51
221.4847969072
  0
LINE
  5
1CE
330
1F
100
AcDbEntity
  8
0
  6
Continuous
 62
     7
370
    15
100
AcDbLine
 10
1788.8345516602
 20
607.6940939692
 30
0.0
 11
1788.8345516602
 21
533.9310330606
 31
0.0
  0
LINE
  5
1CF
330
1F
100
AcDbEntity
  8
0
  6
Continuous
 62
     7
370
    15
100
AcDbLine
 10
1669.709528176
 20
533.9310330606
 30
0.0
 11
1788.8345516602
 21
533.9310330606
 31
0.0
  0
LWPOLYLINE
  5
1D0
330
1F
100
AcDbEntity
  8
0
  6
Continuous
 62
     7
370
    15
100
AcDbPolyline
 90
       30
 70
   128
 43
0.0
 10
1847.8345520179
 20
716.1892411653
 10
1839.0157961602
 20
715.8414477488
 10
1830.2569988499
 20
714.8375392244
 10
1821.7315900455
 20
713.2709383612
 10
1813.0712754409
 20
711.1135212993
 10
1804.8399932067
 20
708.556324154
 10
1796.540910689
 20
705.4922439291
 10
1788.5626874248
 20
702.0961549486
 10
1780.5782205741
 20
698.2579673605
 10
1768.3288700263
 20
691.510957473
 10
1756.5603724996
 20
684.020865817
 10
1745.2765128891
 20
675.8534709483
 10
1734.4874537865
 20
667.0530988084
 10
1724.2143920938
 20
657.6486494858
 10
1717.139179198
 20
650.4956230846
 10
1710.4049123208
 20
643.081481596
 10
1704.0058023612
 20
635.383657451
 10
1697.9755408446
 20
627.4130472314
 10
1692.3756397645
 20
619.2174479539
 10
1687.1430225055
 20
610.6389599269
 10
1682.4721343199
 20
601.9227781248
 10
1679.418945996
 20
595.4453285441
 10
1676.7324007432
 20
588.9887311237
 10
1674.3706710021
 20
582.4268788338
 10
1672.3558402936
 20
575.7472530714
 10
1670.7242823521
 20
568.9640640573
 10
1669.2481584231
 20
560.1261141011
 10
1668.5587412993
 20
551.4831015707
 10
1668.6808563153
 20
542.6960645522
 10
1669.709528176
 20
533.9310330606
  0
LWPOLYLINE
  5
1D1
330
1F
100
AcDbEntity
  8
0
  6
Continuous
 62
     7
370
    15
100
AcDbPolyline
 90
       30
 70
   128
 43
0.0
 10
2025.9595758597
 20
533.9310330606
 10
2026.8564916531
 20
540.9158723777
 10
2027.1653033177
 20
547.9363251182
 10
2026.9288069884
 20
554.9199684982
 10
2026.190797178
 20
561.8629062499
 10
2024.951795427
 20
568.9306694876
 10
2022.8806979338
 20
577.298239532
 10
2020.1413280646
 20
585.7714452376
 10
2016.9597960393
 20
593.8207791976
 10
2013.2065213601
 20
601.9036322276
 10
2007.7062494437
 20
612.0545739904
 10
2001.4925844352
 20
621.9500265378
 10
1994.6600294987
 20
631.5197278005
 10
1987.3894698302
 20
640.601805397
 10
1979.6283192317
 20
649.329260911
 10
1971.4619092027
 20
657.6416633677
 10
1962.9308826606
 20
665.5267504714
 10
1953.9849332849
 20
673.0364493808
 10
1944.6963764111
 20
680.1018253369
 10
1935.0406027714
 20
686.7248866525
 10
1925.0992409269
 20
692.8240408203
 10
1914.9492330233
 20
698.32988258
 10
1907.0056251566
 20
702.1417935234
 10
1899.0675977747
 20
705.5163493091
 10
1890.7112240175
 20
708.5963661472
 10
1882.4229820947
 20
711.1625531506
 10
1873.808171911
 20
713.298895624
 10
1865.3262744973
 20
714.8504130056
 10
1856.6347633804
 20
715.8430258504
 10
1847.8345520179
 20
716.1892411653
  0
LINE
  5
1D2
330
1F
100
AcDbEntity
  8
0
  6
Continuous
 62
     7
370
    15
100
AcDbLine
 10
1906.8345523755
 20
533.9310330606
 30
0.0
 11
2025.9595758597
 21
533.9310330606
 31
0.0
  0
LINE
  5
1D3
330
1F
100
AcDbEntity
  8
0
  6
Continuous
 62
     7
370
    15
100
AcDbLine
 10
1906.8345523755
 20
533.9310330606
 30
0.0
 11
1906.8345523755
 21
607.3349664373
 31
0.0
  0
ARC
  5
1D4
330
1F
100
AcDbEntity
  8
0
  6
Continuous
 62
     7
370
    15
100
AcDbCircle
 10
1904.3830614977
 20
609.8330053471
 30
0.0
 40
3.500000000000078
100
AcDbArc
 50
314.461181035
 51
134.461181035
  0
LINE
  5
1D5
330
1F
100
AcDbEntity
  8
0
  6
Continuous
 62
     7
370
    15
100
AcDbLine
 10
1901.9315711538
 20
612.3310453506
 30
0.0
 11
1893.0784709136
 21
612.3310453506
 31
0.0
  0
ARC
  5
1D6
330
1F
100
AcDbEntity
  8
0
  6
Continuous
 62
     7
370
    15
100
AcDbCircle
 10
1890.4565123263
 20
610.0125688943
 30
0.0
 40
3.499999999999943
100
AcDbArc
 50
41.4847969072
 51
221.4847969072
  0
LINE
  5
1D7
330
1F
100
AcDbEntity
  8
0
  6
Continuous
 62
     7
370
    15
100
AcDbLine
 10
1887.8345511238
 20
607.6940939692
 30
0.0
 11
1887.8345511238
 21
533.9310330606
 31
0.0
  0
LINE
  5
1D8
330
1F
100
AcDbEntity
  8
0
  6
Continuous
 62
     7
370
    15
100
AcDbLine
 10
1807.8345529119
 20
533.9310330606
 30
0.0
 11
1887.8345511238
 21
533.9310330606
 31
0.0
  0
LINE
  5
1D9
330
1F
100
AcDbEntity
  8
0
  6
Continuous
 62
     7
370
    15
100
AcDbLine
 10
1807.8345529119
 20
533.9310330606
 30
0.0
 11
1807.8345529119
 21
607.3349664373
 31
0.0
  0
LINE
  5
1DA
330
1F
100
AcDbEntity
  8
0
  6
Continuous
 62
     7
370
    15
100
AcDbLine
 10
2207.824046437
 20
636.6482718257
 30
0.0
 11
2216.8205703537
 21
636.6482718257
 31
0.0
  0
ARC
  5
1DB
330
1F
100
AcDbEntity
  8
0
  6
Continuous
 62
     7
370
    15
100
AcDbCircle
 10
2205.1701086887
 20
634.3664670947
 30
0.0
 40
3.500000000000445
100
AcDbArc
 50
40.6882812411
 51
220.688281241
  0
LINE
  5
1DC
330
1F
100
AcDbEntity
  8
0
  6
Continuous
 62
     7
370
    15
100
AcDbLine
 10
2202.5161708634
 20
560.1503812554
 30
0.0
 11
2202.5161708634
 21
632.0846715892
 31
0.0
  0
LWPOLYLINE
  5
1DD
330
1F
100
AcDbEntity
  8
0
  6
Continuous
 62
     7
370
    15
100
AcDbPolyline
 90
       11
 70
   128
 43
0.0
 10
2122.5161726515
 20
566.6094544247
 10
2131.1578552167
 20
563.1426072092
 10
2139.9217515181
 20
560.3300139748
 10
2148.7733569856
 20
558.1833160906
 10
2157.6781698431
 20
556.7141708546
 10
2166.6016887802
 20
555.9342424479
 10
2175.5094115551
 20
555.8551698792
 10
2184.3668377887
 20
556.488635619
 10
2190.4729797433
 20
557.3544315554
 10
2196.5266155939
 20
558.5737090232
 10
2202.5161708634
 20
560.1503812554
  0
LINE
  5
1DE
330
1F
100
AcDbEntity
  8
0
  6
Continuous
 62
     7
370
    15
100
AcDbLine
 10
2122.5161726515
 20
631.1744987626
 30
0.0
 11
2122.5161726515
 21
566.6094544247
 31
0.0
  0
ARC
  5
1DF
330
1F
100
AcDbEntity
  8
0
  6
Continuous
 62
     7
370
    15
100
AcDbCircle
 10
2120.3345504526
 20
633.9113857571
 30
0.0
 40
3.500000000000153
100
AcDbArc
 50
308.5590131979
 51
128.5590131979
  0
LINE
  5
1E0
330
1F
100
AcDbEntity
  8
0
  6
Continuous
 62
     7
370
    15
100
AcDbLine
 10
2108.5480364899
 20
636.6482718257
 30
0.0
 11
2118.1529301147
 21
636.6482718257
 31
0.0
  0
ARC
  5
1E1
330
1F
100
AcDbEntity
  8
0
  6
Continuous
 62
     7
370
    15
100
AcDbCircle
 10
2106.0321036531
 20
634.2151459155
 30
0.0
 40
3.500000000000262
100
AcDbArc
 50
44.0413992908
 51
224.0413992908
  0
LINE
  5
1E2
330
1F
100
AcDbEntity
  8
0
  6
Continuous
 62
     7
370
    15
100
AcDbLine
 10
2103.5161713998
 20
576.858139287
 30
0.0
 11
2103.5161713998
 21
631.7820226629
 31
0.0
  0
LWPOLYLINE
  5
1E3
330
1F
100
AcDbEntity
  8
0
  6
Continuous
 62
     7
370
    15
100
AcDbPolyline
 90
       15
 70
   128
 43
0.0
 10
2030.7408670823
 20
690.657420345
 10
2033.0395649116
 20
679.8987888953
 10
2035.8618895452
 20
669.5258375551
 10
2039.1827474277
 20
659.5470351231
 10
2042.9770152013
 20
649.9708732103
 10
2047.2196216624
 20
640.8058328822
 10
2051.8854509036
 20
632.0603872396
 10
2056.9494093697
 20
623.7430104646
 10
2062.3863960545
 20
615.8621984703
 10
2068.4550504129
 20
608.0835765833
 10
2074.8766983788
 20
600.8031336321
 10
2081.6224913041
 20
594.0306241843
 10
2088.6635730903
 20
587.7757890407
 10
2095.9710876386
 20
582.0483758858
 10
2103.5161713998
 20
576.858139287
  0
LINE
  5
1E4
330
1F
100
AcDbEntity
  8
0
  6
Continuous
 62
     7
370
    15
100
AcDbLine
 10
2294.2914764325
 20
690.657420345
 30
0.0
 11
2030.7408670823
 21
690.657420345
 31
0.0
  0
LWPOLYLINE
  5
1E5
330
1F
100
AcDbEntity
  8
0
  6
Continuous
 62
     7
370
    15
100
AcDbPolyline
 90
       18
 70
   128
 43
0.0
 10
2221.5161721151
 20
567.8510195059
 10
2227.573784713
 20
571.2845568403
 10
2233.4828625362
 20
575.1638965902
 10
2239.2286012809
 20
579.4940363981
 10
2244.7962115447
 20
584.2799739065
 10
2250.3966490667
 20
589.7619070782
 10
2255.7704697292
 20
595.7506389983
 10
2260.9009022753
 20
602.2518481624
 10
2265.7711530964
 20
609.2712061827
 10
2270.3644360344
 20
616.8143777882
 10
2274.6639723818
 20
624.8870517992
 10
2278.6529685299
 20
633.4948895031
 10
2282.0224116485
 20
641.8603696692
 10
2285.103889827
 20
650.6846746962
 10
2287.8844539563
 20
659.9721547091
 10
2290.3512070815
 20
669.7272082593
 10
2292.4911777417
 20
679.9541663221
 10
2294.2914764325
 20
690.657420345
  0
LINE
  5
1E6
330
1F
100
AcDbEntity
  8
0
  6
Continuous
 62
     7
370
    15
100
AcDbLine
 10
2221.5161721151
 20
631.4568075473
 30
0.0
 11
2221.5161721151
 21
567.8510195059
 31
0.0
  0
ARC
  5
1E7
330
1F
100
AcDbEntity
  8
0
  6
Continuous
 62
     7
370
    15
100
AcDbCircle
 10
2219.168370643
 20
634.0525357206
 30
0.0
 40
3.500000000000386
100
AcDbArc
 50
312.1288638463
 51
132.1288638463
  0
ARC
  5
1E8
330
1F
100
AcDbEntity
  8
0
  6
Continuous
 62
     7
370
    15
100
AcDbCircle
 10
2349.7094862895
 20
673.9499253968
 30
0.0
 40
10.00000000000001
100
AcDbArc
 50
75.9091823333
 51
170.1299929852
  0
ARC
  5
1E9
330
1F
100
AcDbEntity
  8
0
  6
Continuous
 62
     7
370
    15
100
AcDbCircle
 10
2466.9768472123
 20
1137.9359355045
 30
0.0
 40
468.5756547737369
100
AcDbArc
 50
255.8141643055
 51
269.3308864498
  0
ARC
  5
1EA
330
1F
100
AcDbEntity
  8
0
  6
Continuous
 62
     7
370
    15
100
AcDbCircle
 10
2455.7681418686
 20
1139.9663843783
 30
0.0
 40
470.6091178156721
100
AcDbArc
 50
270.6984489781
 51
284.1550607472
  0
ARC
  5
1EB
330
1F
100
AcDbEntity
  8
0
  6
Continuous
 62
     7
370
    15
100
AcDbCircle
 10
2573.2884925967
 20
673.9469898565
 30
0.0
 40
10.00000000000003
100
AcDbArc
 50
9.7885771663
 51
104.0892450024
  0
LWPOLYLINE
  5
1EC
330
1F
100
AcDbEntity
  8
0
  6
Continuous
 62
     7
370
    15
100
AcDbPolyline
 90
       20
 70
   128
 43
0.0
 10
2583.1429097246
 20
675.6471209955
 10
2584.4621244263
 20
666.3804122942
 10
2585.1817983579
 20
657.4341160825
 10
2585.323985238
 20
648.8090787347
 10
2584.9107387852
 20
640.506106243
 10
2583.964112718
 20
632.5260229237
 10
2582.5061533045
 20
624.8697046759
 10
2580.5589142632
 20
617.537927967
 10
2578.1444493126
 20
610.531520847
 10
2575.1379016232
 20
603.5413971211
 10
2571.6681289863
 20
596.9102190434
 10
2567.7604782771
 20
590.6389734856
 10
2563.4403038215
 20
584.7286069368
 10
2558.7329599451
 20
579.1800655443
 10
2553.6638009738
 20
573.9943103888
 10
2547.7094087194
 20
568.717763653
 10
2541.3827184032
 20
563.881276484
 10
2534.7173321437
 20
559.4860800984
 10
2527.7468446087
 20
555.5334348956
 10
2520.504835565
 20
552.024616208
  0
LINE
  5
1ED
330
1F
100
AcDbEntity
  8
0
  6
Continuous
 62
     7
370
    15
100
AcDbLine
 10
2520.504835565
 20
552.024616208
 30
0.0
 11
2520.504835565
 21
599.7405853582
 31
0.0
  0
ARC
  5
1EE
330
1F
100
AcDbEntity
  8
0
  6
Continuous
 62
     7
370
    15
100
AcDbCircle
 10
2517.9742532099
 20
602.158473302
 30
0.0
 40
3.500000000000033
100
AcDbArc
 50
316.3046677343
 51
136.3046677341
  0
LINE
  5
1EF
330
1F
100
AcDbEntity
  8
0
  6
Continuous
 62
     7
370
    15
100
AcDbLine
 10
2515.4436710667
 20
604.5763479836
 30
0.0
 11
2506.7715901326
 21
604.5763479836
 31
0.0
  0
ARC
  5
1F0
330
1F
100
AcDbEntity
  8
0
  6
Continuous
 62
     7
370
    15
100
AcDbCircle
 10
2504.1382133477
 20
602.2708579052
 30
0.0
 40
3.499999999999982
100
AcDbArc
 50
41.2018400827
 51
221.2018400828
  0
LINE
  5
1F1
330
1F
100
AcDbEntity
  8
0
  6
Continuous
 62
     7
370
    15
100
AcDbLine
 10
2501.5048343133
 20
599.9653560661
 30
0.0
 11
2501.5048343133
 21
545.2195324139
 31
0.0
  0
ARC
  5
1F2
330
1F
100
AcDbEntity
  8
0
  6
Continuous
 62
     7
370
    15
100
AcDbCircle
 10
2461.5483302148
 20
691.306203222
 30
0.0
 40
151.4524268790625
100
AcDbArc
 50
254.6689031855
 51
285.2969762002
  0
LINE
  5
1F3
330
1F
100
AcDbEntity
  8
0
  6
Continuous
 62
     7
370
    15
100
AcDbLine
 10
2421.5048361014
 20
545.2433530966
 30
0.0
 11
2421.5048361014
 21
599.6386816204
 31
0.0
  0
ARC
  5
1F4
330
1F
100
AcDbEntity
  8
0
  6
Continuous
 62
     7
370
    15
100
AcDbCircle
 10
2419.0239431456
 20
602.1075148534
 30
0.0
 40
3.499999999999993
100
AcDbArc
 50
315.13950021
 51
135.1395002101
  0
LINE
  5
1F5
330
1F
100
AcDbEntity
  8
0
  6
Continuous
 62
     7
370
    15
100
AcDbLine
 10
2416.5430511724
 20
604.5763479836
 30
0.0
 11
2407.5196120333
 21
604.5763479836
 31
0.0
  0
ARC
  5
1F6
330
1F
100
AcDbEntity
  8
0
  6
Continuous
 62
     7
370
    15
100
AcDbCircle
 10
2405.0122232551
 20
602.134429059
 30
0.0
 40
3.500000000000575
100
AcDbArc
 50
44.2422284061
 51
224.2422284063
  0
LINE
  5
1F7
330
1F
100
AcDbEntity
  8
0
  6
Continuous
 62
     7
370
    15
100
AcDbLine
 10
2402.5048348497
 20
599.6925075684
 30
0.0
 11
2402.5048348497
 21
552.024616208
 31
0.0
  0
LWPOLYLINE
  5
1F8
330
1F
100
AcDbEntity
  8
0
  6
Continuous
 62
     7
370
    15
100
AcDbPolyline
 90
       19
 70
   128
 43
0.0
 10
2402.5048348497
 20
552.024616208
 10
2395.2496531796
 20
555.5192399507
 10
2388.2653969716
 20
559.4538458867
 10
2381.5861079287
 20
563.8283858254
 10
2375.2457905005
 20
568.6427599937
 10
2369.2784714889
 20
573.896935134
 10
2363.7568983625
 20
579.5480270927
 10
2358.6697611403
 20
585.6324435884
 10
2354.0503415655
 20
592.1500923145
 10
2349.9319288324
 20
599.1009508716
 10
2346.3478046845
 20
606.4849269531
 10
2343.3312732171
 20
614.3019577771
 10
2340.9156012725
 20
622.5519730949
 10
2339.2575192641
 20
630.4948318455
 10
2338.1579402279
 20
638.801397531
 10
2337.6425090622
 20
647.4716735428
 10
2337.7368632149
 20
656.5055529833
 10
2338.4666475844
 20
665.9030467105
 10
2339.8574921679
 20
675.6640624179
  0
ARC
  5
1F9
330
1F
100
AcDbEntity
  8
0
  6
Continuous
 62
     7
370
    15
100
AcDbCircle
 10
2660.3930804431
 20
674.3892126881
 30
0.0
 40
9.999999999999936
100
AcDbArc
 50
76.3069889597
 51
181.783273366
  0
LWPOLYLINE
  5
1FA
330
1F
100
AcDbEntity
  8
0
  6
Continuous
 62
     7
370
    15
100
AcDbPolyline
 90
       14
 70
   128
 43
0.0
 10
2662.7602790502
 20
684.1049859823
 10
2673.9853163269
 20
681.507596806
 10
2685.45322763
 20
679.0992091224
 10
2696.9789777902
 20
676.8904245511
 10
2708.4795673397
 20
674.8806996811
 10
2720.023116937
 20
673.0536681828
 10
2731.6247661617
 20
671.4143720819
 10
2739.3456687239
 20
670.4394598346
 10
2747.2650100497
 20
669.543754853
 10
2754.9601820317
 20
668.7841836573
 10
2762.962923294
 20
668.1237680488
 10
2770.6107766387
 20
667.634599508
 10
2778.7455282194
 20
667.293367742
 10
2786.30993413
 20
667.1794020164
  0
LWPOLYLINE
  5
1FB
330
1F
100
AcDbEntity
  8
0
  6
Continuous
 62
     7
370
    15
100
AcDbPolyline
 90
       14
 70
   128
 43
0.0
 10
2786.30993413
 20
667.1794020164
 10
2796.0407835451
 20
667.3640767162
 10
2806.1373428461
 20
667.8801892266
 10
2816.1863115636
 20
668.6521068219
 10
2826.0554549304
 20
669.6184597778
 10
2836.0444110838
 20
670.7781372933
 10
2845.955765715
 20
672.0904683559
 10
2855.8548976687
 20
673.5498952348
 10
2864.9400164393
 20
675.0143401598
 10
2873.9820112494
 20
676.5887529967
 10
2883.0337290672
 20
678.2840070703
 10
2892.0056735185
 20
680.0883603919
 10
2901.0892053154
 20
682.0534792987
 10
2909.8355387357
 20
684.0991269775
  0
ARC
  5
1FC
330
1F
100
AcDbEntity
  8
0
  6
Continuous
 62
     7
370
    15
100
AcDbCircle
 10
2912.2022003682
 20
674.3832227857
 30
0.0
 40
10.00000000000013
100
AcDbArc
 50
358.0961346954
 51
103.6898688656
  0
LWPOLYLINE
  5
1FD
330
1F
100
AcDbEntity
  8
0
  6
Continuous
 62
     7
370
    15
100
AcDbPolyline
 90
       17
 70
   128
 43
0.0
 10
2922.1966777948
 20
674.0509906274
 10
2921.5705757049
 20
664.5634211825
 10
2920.3522567657
 20
655.4553536403
 10
2918.5667400268
 20
646.727597528
 10
2916.2390147355
 20
638.3809032356
 10
2913.3940999416
 20
630.4160525848
 10
2910.056969991
 20
622.8337959657
 10
2906.2526439336
 20
615.6348856316
 10
2901.5580927041
 20
608.1598042063
 10
2896.361752322
 20
601.1505514605
 10
2890.6968896297
 20
594.6081217843
 10
2884.5967863706
 20
588.5335631155
 10
2878.0947168377
 20
582.9278994128
 10
2870.4639588502
 20
577.2675049492
 10
2862.4261085895
 20
572.1849808365
 10
2854.0263538268
 20
567.6817114442
 10
2845.3099344877
 20
563.759106984
  0
LINE
  5
1FE
330
1F
100
AcDbEntity
  8
0
  6
Continuous
 62
     7
370
    15
100
AcDbLine
 10
2845.3099344877
 20
563.759106984
 30
0.0
 11
2845.3099344877
 21
602.0908014054
 31
0.0
  0
ARC
  5
1FF
330
1F
100
AcDbEntity
  8
0
  6
Continuous
 62
     7
370
    15
100
AcDbCircle
 10
2842.822261727
 20
604.5528036035
 30
0.0
 40
3.500000000000288
100
AcDbArc
 50
315.2970733452
 51
135.2970733452
  0
LINE
  5
200
330
1F
100
AcDbEntity
  8
0
  6
Continuous
 62
     7
370
    15
100
AcDbLine
 10
2840.3345895019
 20
607.0148148293
 30
0.0
 11
2831.2142071334
 21
607.0148148293
 31
0.0
  0
ARC
  5
201
330
1F
100
AcDbEntity
  8
0
  6
Continuous
 62
     7
370
    15
100
AcDbCircle
 10
2828.7620708844
 20
604.5174084169
 30
0.0
 40
3.499999999999948
100
AcDbArc
 50
45.5239948536
 51
225.5239948536
  0
LINE
  5
202
330
1F
100
AcDbEntity
  8
0
  6
Continuous
 62
     7
370
    15
100
AcDbLine
 10
2826.309933236
 20
602.0200037257
 30
0.0
 11
2826.309933236
 21
557.4505231745
 31
0.0
  0
ARC
  5
203
330
1F
100
AcDbEntity
  8
0
  6
Continuous
 62
     7
370
    15
100
AcDbCircle
 10
2786.3401067685
 20
713.1927528444
 30
0.0
 40
160.7893937123201
100
AcDbArc
 50
255.5840048203
 51
284.3937937402
  0
LINE
  5
204
330
1F
100
AcDbEntity
  8
0
  6
Continuous
 62
     7
370
    15
100
AcDbLine
 10
2746.3099350241
 20
557.4660227031
 30
0.0
 11
2746.3099350241
 21
602.5490633205
 31
0.0
  0
ARC
  5
205
330
1F
100
AcDbEntity
  8
0
  6
Continuous
 62
     7
370
    15
100
AcDbCircle
 10
2743.6146995581
 20
604.7819416514
 30
0.0
 40
3.500000000000294
100
AcDbArc
 50
320.3599076207
 51
140.3599076207
  0
LINE
  5
206
330
1F
100
AcDbEntity
  8
0
  6
Continuous
 62
     7
370
    15
100
AcDbLine
 10
2740.9194660393
 20
607.0148148293
 30
0.0
 11
2732.5091612545
 21
607.0148148293
 31
0.0
  0
ARC
  5
207
330
1F
100
AcDbEntity
  8
0
  6
Continuous
 62
     7
370
    15
100
AcDbCircle
 10
2729.9095477783
 20
604.6713085882
 30
0.0
 40
3.499999999999267
100
AcDbArc
 50
42.0340742689
 51
222.0340742688
  0
LINE
  5
208
330
1F
100
AcDbEntity
  8
0
  6
Continuous
 62
     7
370
    15
100
AcDbLine
 10
2727.3099337724
 20
602.3278022642
 30
0.0
 11
2727.3099337724
 21
563.759106984
 31
0.0
  0
LWPOLYLINE
  5
209
330
1F
100
AcDbEntity
  8
0
  6
Continuous
 62
     7
370
    15
100
AcDbPolyline
 90
       18
 70
   128
 43
0.0
 10
2727.3099337724
 20
563.759106984
 10
2718.5768027809
 20
567.6731817213
 10
2710.160194805
 20
572.1653966519
 10
2702.105916014
 20
577.2356649334
 10
2694.4597427753
 20
582.8838922713
 10
2688.5267634896
 20
587.946440357
 10
2682.9242174533
 20
593.3974987531
 10
2677.677339783
 20
599.2370101856
 10
2672.8113879469
 20
605.4649136546
 10
2668.3515970615
 20
612.0812072971
 10
2664.3232171443
 20
619.0858024076
 10
2660.7514982131
 20
626.4786694176
 10
2657.9001312164
 20
633.5965390005
 10
2655.4731492904
 20
641.0405899371
 10
2653.4899984506
 20
648.8107945218
 10
2651.9701098111
 20
656.9071213233
 10
2650.9329293874
 20
665.329540773
 10
2650.3979180959
 20
674.0780251655
  0
LWPOLYLINE
  5
20A
330
1F
100
AcDbEntity
  8
0
  6
Continuous
 62
     7
370
    15
100
AcDbPolyline
 90
       16
 70
   128
 43
0.0
 10
2993.3595103772
 20
672.5170166662
 10
2995.6482244285
 20
661.8671933509
 10
2998.6174000056
 20
651.7255966877
 10
3002.233226374
 20
642.0921969867
 10
3006.4619673045
 20
632.9670833177
 10
3011.2698418649
 20
624.3502569733
 10
3016.6230691226
 20
616.241778626
 10
3022.1395907553
 20
609.0622821358
 10
3028.0825985225
 20
602.3347117746
 10
3034.4238025697
 20
596.0591591976
 10
3041.1349055918
 20
590.2356218196
 10
3048.1875879319
 20
584.8641319158
 10
3056.7551074179
 20
579.2021380814
 10
3065.6996635349
 20
574.1479262895
 10
3074.977148846
 20
569.7015301074
 10
3084.5434410127
 20
565.8630089153
  0
ARC
  5
20B
330
1F
100
AcDbEntity
  8
0
  6
Continuous
 62
     7
370
    15
100
AcDbCircle
 10
3003.2053182555
 20
674.2662775655
 30
0.0
 40
9.999999999999995
100
AcDbArc
 50
76.5020804019
 51
190.0743978151
  0
LWPOLYLINE
  5
20C
330
1F
100
AcDbEntity
  8
0
  6
Continuous
 62
     7
370
    15
100
AcDbPolyline
 90
       16
 70
   128
 43
0.0
 10
3143.5434413703
 20
665.2203726447
 10
3137.7621614935
 20
665.2972846788
 10
3131.4583528416
 20
665.5279304186
 10
3124.8788950594
 20
665.8963042182
 10
3118.8501292469
 20
666.3261833761
 10
3112.5360341372
 20
666.8570869519
 10
3106.2176195534
 20
667.4604438541
 10
3100.0876692684
 20
668.105861561
 10
3082.957666889
 20
670.1830131467
 10
3065.8606780322
 20
672.6058951759
 10
3055.7179716976
 20
674.1957917781
 10
3045.579653755
 20
675.8984972564
 10
3035.5527517946
 20
677.7006109675
 10
3025.4557324203
 20
679.6470943263
 10
3015.4694808276
 20
681.7263707046
 10
3005.5394215138
 20
683.9900740878
  0
LWPOLYLINE
  5
20D
330
1F
100
AcDbEntity
  8
0
  6
Continuous
 62
     7
370
    15
100
AcDbPolyline
 90
       14
 70
   128
 43
0.0
 10
3281.5202368053
 20
683.9835228624
 10
3268.8999069484
 20
681.143057326
 10
3256.1117602141
 20
678.5657548436
 10
3243.3265043052
 20
676.2164647009
 10
3230.4399055989
 20
674.0455279626
 10
3217.5551322849
 20
672.0582101367
 10
3204.5799349995
 20
670.2425744374
 10
3193.2247584315
 20
668.8166133814
 10
3181.8052572759
 20
667.5553339991
 10
3170.2284073086
 20
666.4852716596
 10
3163.6261777581
 20
665.9900880782
 10
3156.6830534117
 20
665.5789654338
 10
3149.8087286578
 20
665.3100282644
 10
3143.5434413703
 20
665.2203726447
  0
ARC
  5
20E
330
1F
100
AcDbEntity
  8
0
  6
Continuous
 62
     7
370
    15
100
AcDbCircle
 10
3283.8536318707
 20
674.2595726105
 30
0.0
 40
10.00000000000026
100
AcDbArc
 50
349.8188789215
 51
103.49379118
  0
LWPOLYLINE
  5
20F
330
1F
100
AcDbEntity
  8
0
  6
Continuous
 62
     7
370
    15
100
AcDbPolyline
 90
       16
 70
   128
 43
0.0
 10
3202.5434417279
 20
565.8630089153
 10
3212.0945049079
 20
569.7060185052
 10
3221.3567165287
 20
574.1583372525
 10
3230.2864310892
 20
579.2189492348
 10
3238.8400030883
 20
584.8869275995
 10
3246.3048888
 20
590.608543397
 10
3253.3843187244
 20
596.8377584791
 10
3260.0447801502
 20
603.5738538232
 10
3266.2527678164
 20
610.8160226293
 10
3271.9747764619
 20
618.5635161848
 10
3277.1772933753
 20
626.8156180522
 10
3281.576607898
 20
635.0576381316
 10
3285.4562444242
 20
643.7469190949
 10
3288.7880993636
 20
652.8828309894
 10
3291.5441138299
 20
662.4647167578
 10
3293.6961693318
 20
672.4919787223
  0
LINE
  5
210
330
1F
100
AcDbEntity
  8
0
  6
Continuous
 62
     7
370
    15
100
AcDbLine
 10
3202.5434417279
 20
565.8630089153
 30
0.0
 11
3202.5434417279
 21
613.7596657737
 31
0.0
  0
ARC
  5
211
330
1F
100
AcDbEntity
  8
0
  6
Continuous
 62
     7
370
    15
100
AcDbCircle
 10
3200.0995901649
 20
616.2651724369
 30
0.0
 40
3.500000000000148
100
AcDbArc
 50
314.2862252011
 51
134.2862252011
  0
LINE
  5
212
330
1F
100
AcDbEntity
  8
0
  6
Continuous
 62
     7
370
    15
100
AcDbLine
 10
3197.6557379218
 20
618.7706782009
 30
0.0
 11
3188.5863696785
 21
618.7706782009
 31
0.0
  0
ARC
  5
213
330
1F
100
AcDbEntity
  8
0
  6
Continuous
 62
     7
370
    15
100
AcDbCircle
 10
3186.0649053899
 20
616.3432952381
 30
0.0
 40
3.500000000000139
100
AcDbArc
 50
43.9109738515
 51
223.9109738515
  0
LINE
  5
214
330
1F
100
AcDbEntity
  8
0
  6
Continuous
 62
     7
370
    15
100
AcDbLine
 10
3183.5434404762
 20
613.9159115345
 30
0.0
 11
3183.5434404762
 21
560.192128648
 31
0.0
  0
ARC
  5
215
330
1F
100
AcDbEntity
  8
0
  6
Continuous
 62
     7
370
    15
100
AcDbCircle
 10
3143.5638282603
 20
731.6269215473
 30
0.0
 40
176.0348193096146
100
AcDbArc
 50
256.8592725368
 51
283.1270999475
  0
LINE
  5
216
330
1F
100
AcDbEntity
  8
0
  6
Continuous
 62
     7
370
    15
100
AcDbLine
 10
3103.5434422644
 20
560.2016424485
 30
0.0
 11
3103.5434422644
 21
614.2100067002
 31
0.0
  0
ARC
  5
217
330
1F
100
AcDbEntity
  8
0
  6
Continuous
 62
     7
370
    15
100
AcDbCircle
 10
3100.8882505502
 20
616.4903421628
 30
0.0
 40
3.500000000000113
100
AcDbArc
 50
319.3432138352
 51
139.3432138352
  0
LINE
  5
218
330
1F
100
AcDbEntity
  8
0
  6
Continuous
 62
     7
370
    15
100
AcDbLine
 10
3098.2330595704
 20
618.7706782009
 30
0.0
 11
3089.7073974462
 21
618.7706782009
 31
0.0
  0
ARC
  5
219
330
1F
100
AcDbEntity
  8
0
  6
Continuous
 62
     7
370
    15
100
AcDbCircle
 10
3087.1254196988
 20
616.4077652552
 30
0.0
 40
3.500000000000097
100
AcDbArc
 50
42.4634554268
 51
222.4634554268
  0
LINE
  5
21A
330
1F
100
AcDbEntity
  8
0
  6
Continuous
 62
     7
370
    15
100
AcDbLine
 10
3084.5434410127
 20
614.0448461089
 30
0.0
 11
3084.5434410127
 21
565.8630089153
 31
0.0
  0
LWPOLYLINE
  5
21B
330
1F
100
AcDbEntity
  8
0
  6
Continuous
 62
     7
370
    15
100
AcDbPolyline
 90
       15
 70
   128
 43
0.0
 10
1675.2318367978
 20
453.9950061973
 10
1678.9991185685
 20
443.5411427562
 10
1683.3516583462
 20
433.5864832172
 10
1688.260518076
 20
424.1310332746
 10
1693.6968044062
 20
415.1747872341
 10
1699.6316090842
 20
406.7177800434
 10
1706.036008956
 20
398.759982449
 10
1714.1476348658
 20
390.0221328401
 10
1722.8240892907
 20
381.9777389102
 10
1732.018038692
 20
374.6268705546
 10
1741.682156982
 20
367.969522079
 10
1751.7754063626
 20
362.0023267909
 10
1762.2446120401
 20
356.7295046398
 10
1773.0423659702
 20
352.1511433857
 10
1784.1212526579
 20
348.2672430284
  0
ARC
  5
21C
330
1F
100
AcDbEntity
  8
0
  6
Continuous
 62
     7
370
    15
100
AcDbCircle
 10
1684.74572481
 20
457.0749405484
 30
0.0
 40
9.999999999999917
100
AcDbArc
 50
77.3288115428
 51
197.938338098
  0
LWPOLYLINE
  5
21D
330
1F
100
AcDbEntity
  8
0
  6
Continuous
 62
     7
370
    15
100
AcDbPolyline
 90
       14
 70
   128
 43
0.0
 10
1843.1212530156
 20
448.1271548532
 10
1828.5626108442
 20
448.5260445411
 10
1814.1268492361
 20
449.4188601515
 10
1799.2381230612
 20
450.6544904203
 10
1784.4854109605
 20
452.1087275877
 10
1769.9131221195
 20
453.7322243148
 10
1755.2176938077
 20
455.542204963
 10
1742.3676551004
 20
457.2672372835
 10
1729.5321226736
 20
459.1333571621
 10
1716.8469802161
 20
461.140844961
 10
1709.26474786
 20
462.4338886516
 10
1701.4587298651
 20
463.8548749163
 10
1693.8414499779
 20
465.3515569943
 10
1686.9392768164
 20
466.8313828329
  0
LWPOLYLINE
  5
21E
330
1F
100
AcDbEntity
  8
0
  6
Continuous
 62
     7
370
    15
100
AcDbPolyline
 90
       15
 70
   128
 43
0.0
 10
1999.2796704789
 20
466.8260991591
 10
1992.9162786026
 20
465.4575173102
 10
1985.9407619257
 20
464.0745105917
 10
1978.5944149514
 20
462.7200789444
 10
1971.6430977602
 20
461.5162035311
 10
1964.6967799087
 20
460.3760946321
 10
1957.7570036669
 20
459.2924231903
 10
1950.8648962398
 20
458.2645870577
 10
1931.5205962081
 20
455.6062404509
 10
1912.1395201107
 20
453.2475915486
 10
1898.3130120357
 20
451.7510963788
 10
1884.5512606819
 20
450.4333058855
 10
1870.4506625106
 20
449.2984457128
 10
1856.8439363186
 20
448.4865746419
 10
1843.1212530156
 20
448.1271548532
  0
ARC
  5
21F
330
1F
100
AcDbEntity
  8
0
  6
Continuous
 62
     7
370
    15
100
AcDbCircle
 10
2001.4724701348
 20
457.0694732078
 30
0.0
 40
10.00000000000005
100
AcDbArc
 50
341.9897661679
 51
102.6667692469
  0
LWPOLYLINE
  5
220
330
1F
100
AcDbEntity
  8
0
  6
Continuous
 62
     7
370
    15
100
AcDbPolyline
 90
       15
 70
   128
 43
0.0
 10
1902.1212533732
 20
348.2672430284
 10
1913.1885618587
 20
352.1533585941
 10
1923.9746854325
 20
356.7346656064
 10
1934.4325736781
 20
362.0105854762
 10
1944.5151463767
 20
367.980393348
 10
1954.3476179858
 20
374.7716636739
 10
1963.6924490948
 20
382.2810251629
 10
1972.4999443312
 20
390.5078293306
 10
1980.7204083224
 20
399.4513163738
 10
1988.3041456957
 20
409.1108605857
 10
1993.7837497015
 20
417.2023460043
 10
1998.8154844065
 20
425.7351018205
 10
2003.375254633
 20
434.7088062485
 10
2007.4389503022
 20
444.1230854719
 10
2010.9824762364
 20
453.9776063163
  0
LINE
  5
221
330
1F
100
AcDbEntity
  8
0
  6
Continuous
 62
     7
370
    15
100
AcDbLine
 10
1902.1212533732
 20
348.2672430284
 30
0.0
 11
1902.1212533732
 21
409.574393604
 31
0.0
  0
ARC
  5
222
330
1F
100
AcDbEntity
  8
0
  6
Continuous
 62
     7
370
    15
100
AcDbCircle
 10
1899.5189710887
 20
411.9149431345
 30
0.0
 40
3.500000000000034
100
AcDbArc
 50
318.0312031248
 51
138.0312031248
  0
LINE
  5
223
330
1F
100
AcDbEntity
  8
0
  6
Continuous
 62
     7
370
    15
100
AcDbLine
 10
1896.9166875501
 20
414.2554947478
 30
0.0
 11
1888.0982436855
 21
414.2554947478
 31
0.0
  0
ARC
  5
224
330
1F
100
AcDbEntity
  8
0
  6
Continuous
 62
     7
370
    15
100
AcDbCircle
 10
1885.6097481009
 20
411.7943064113
 30
0.0
 40
3.500000000000124
100
AcDbArc
 50
44.683777986
 51
224.683777986
  0
LINE
  5
225
330
1F
100
AcDbEntity
  8
0
  6
Continuous
 62
     7
370
    15
100
AcDbLine
 10
1883.1212521215
 20
409.333138098
 30
0.0
 11
1883.1212521215
 21
343.3247861541
 31
0.0
  0
ARC
  5
226
330
1F
100
AcDbEntity
  8
0
  6
Continuous
 62
     7
370
    15
100
AcDbCircle
 10
1843.1330744037
 20
538.0363383073
 30
0.0
 40
198.7753578769001
100
AcDbArc
 50
258.3874984128
 51
281.6055443821
  0
LINE
  5
227
330
1F
100
AcDbEntity
  8
0
  6
Continuous
 62
     7
370
    15
100
AcDbLine
 10
1803.1212539096
 20
343.3296431994
 30
0.0
 11
1803.1212539096
 21
409.1953879791
 31
0.0
  0
ARC
  5
228
330
1F
100
AcDbEntity
  8
0
  6
Continuous
 62
     7
370
    15
100
AcDbCircle
 10
1800.7028132921
 20
411.7254341392
 30
0.0
 40
3.500000000000141
100
AcDbArc
 50
313.7079547046
 51
133.7079547047
  0
LINE
  5
229
330
1F
100
AcDbEntity
  8
0
  6
Continuous
 62
     7
370
    15
100
AcDbLine
 10
1798.284374239
 20
414.2554947478
 30
0.0
 11
1788.4925716241
 21
414.2554947478
 31
0.0
  0
ARC
  5
22A
330
1F
100
AcDbEntity
  8
0
  6
Continuous
 62
     7
370
    15
100
AcDbCircle
 10
1786.3069127763
 20
411.5218244299
 30
0.0
 40
3.500000000000019
100
AcDbArc
 50
51.3563931964
 51
231.3563931965
  0
LINE
  5
22B
330
1F
100
AcDbEntity
  8
0
  6
Continuous
 62
     7
370
    15
100
AcDbLine
 10
1784.1212526579
 20
408.7881754051
 30
0.0
 11
1784.1212526579
 21
348.2672430284
 31
0.0
  0
LWPOLYLINE
  5
22C
330
1F
100
AcDbEntity
  8
0
  6
Continuous
 62
     7
370
    15
100
AcDbPolyline
 90
       14
 70
   128
 43
0.0
 10
2086.4999997961
 20
440.7268923805
 10
2093.32520846
 20
427.2807017052
 10
2100.9320128309
 20
414.6090923988
 10
2109.2738616811
 20
402.7119818632
 10
2118.3041441785
 20
391.5894278414
 10
2127.9762792932
 20
381.2413725905
 10
2138.0554098236
 20
371.8320561032
 10
2148.6646342622
 20
363.1698787579
 10
2159.7597855674
 20
355.2547579566
 10
2171.2967786538
 20
348.0868175963
 10
2185.3254023539
 20
340.6347677407
 10
2199.8295072066
 20
334.2096022429
 10
2214.7379997717
 20
328.8112717707
 10
2229.9797642576
 20
324.4398008012
  0
ARC
  5
22D
330
1F
100
AcDbEntity
  8
0
  6
Continuous
 62
     7
370
    15
100
AcDbCircle
 10
2095.571036057
 20
444.9359636056
 30
0.0
 40
10.0000000000001
100
AcDbArc
 50
79.6125103765
 51
204.8918379275
  0
LWPOLYLINE
  5
22E
330
1F
100
AcDbEntity
  8
0
  6
Continuous
 62
     7
370
    15
100
AcDbPolyline
 90
       19
 70
   128
 43
0.0
 10
2288.9797646152
 20
443.7752433586
 10
2279.0956018092
 20
443.818018496
 10
2268.9703065502
 20
443.92739889
 10
2258.9233271377
 20
444.0851668397
 10
2248.8928358602
 20
444.2856273286
 10
2238.7280571806
 20
444.5304911959
 10
2228.6193217682
 20
444.81446035
 10
2212.829920982
 20
445.3419129246
 10
2197.0531526553
 20
445.9786219963
 10
2181.1093721139
 20
446.7487316325
 10
2169.5574704157
 20
447.3990956634
 10
2157.7551919567
 20
448.1588400885
 10
2145.9275442707
 20
449.0341145914
 10
2134.1468054401
 20
450.0490467959
 10
2126.6165930378
 20
450.7897138947
 10
2119.3041909086
 20
451.5942750668
 10
2111.8860948431
 20
452.5171849533
 10
2104.4424730884
 20
453.5837118634
 10
2097.3740774738
 20
454.7720672874
  0
LWPOLYLINE
  5
22F
330
1F
100
AcDbEntity
  8
0
  6
Continuous
 62
     7
370
    15
100
AcDbPolyline
 90
       19
 70
   128
 43
0.0
 10
2480.5696565258
 20
454.7691909078
 10
2470.8277243721
 20
453.1795259925
 10
2460.927035247
 20
451.8643246451
 10
2450.9350765096
 20
450.747476023
 10
2440.8606100427
 20
449.779360876
 10
2430.8395493375
 20
448.9399183557
 10
2420.7497644769
 20
448.1965400734
 10
2405.1662344085
 20
447.2082730688
 10
2389.4208330261
 20
446.3728476135
 10
2373.6896473514
 20
445.6729140425
 10
2357.7628168809
 20
445.0827658231
 10
2342.0098531591
 20
444.604494275
 10
2326.0698724138
 20
444.2213860409
 10
2319.8892693566
 20
444.1006072033
 10
2313.7621633308
 20
443.9967979283
 10
2307.4871036755
 20
443.9078504522
 10
2301.3669266897
 20
443.8399144588
 10
2294.8856251845
 20
443.7915269033
 10
2288.9797646152
 20
443.7752433586
  0
ARC
  5
230
330
1F
100
AcDbEntity
  8
0
  6
Continuous
 62
     7
370
    15
100
AcDbCircle
 10
2482.3720231129
 20
444.9329489584
 30
0.0
 40
10.00000000039544
100
AcDbArc
 50
335.0698745368
 51
100.3835475245
  0
LWPOLYLINE
  5
231
330
1F
100
AcDbEntity
  8
0
  6
Continuous
 62
     7
370
    15
100
AcDbPolyline
 90
       14
 70
   128
 43
0.0
 10
2347.9797649728
 20
324.4398008012
 10
2363.2140937792
 20
328.8126438065
 10
2378.1150091039
 20
334.2129581452
 10
2392.6116931783
 20
340.6401652526
 10
2406.6333133327
 20
348.0937856061
 10
2418.3743852722
 20
355.4022019941
 10
2429.6569931852
 20
363.4846624852
 10
2440.4346901523
 20
372.3408034211
 10
2450.6610441553
 20
381.9703188864
 10
2460.2896082746
 20
392.3728700776
 10
2469.1194105493
 20
403.341846822
 10
2477.2837865697
 20
415.0558385008
 10
2484.7387332069
 20
427.5146217966
 10
2491.4402473318
 20
440.7178166069
  0
LINE
  5
232
330
1F
100
AcDbEntity
  8
0
  6
Continuous
 62
     7
370
    15
100
AcDbLine
 10
2347.9797649728
 20
324.4398008012
 30
0.0
 11
2347.9797649728
 21
399.0344683881
 31
0.0
  0
ARC
  5
233
330
1F
100
AcDbEntity
  8
0
  6
Continuous
 62
     7
370
    15
100
AcDbCircle
 10
2345.2656350001
 20
401.2443312697
 30
0.0
 40
3.500000000000155
100
AcDbArc
 50
320.8472649547
 51
140.8472649547
  0
LINE
  5
234
330
1F
100
AcDbEntity
  8
0
  6
Continuous
 62
     7
370
    15
100
AcDbLine
 10
2342.5515066432
 20
403.4541946049
 30
0.0
 11
2333.4397557723
 21
403.4541946049
 31
0.0
  0
ARC
  5
235
330
1F
100
AcDbEntity
  8
0
  6
Continuous
 62
     7
370
    15
100
AcDbCircle
 10
2331.2097606455
 20
400.7565822818
 30
0.0
 40
3.49999999999996
100
AcDbArc
 50
50.4209863325
 51
230.4209863326
  0
LINE
  5
236
330
1F
100
AcDbEntity
  8
0
  6
Continuous
 62
     7
370
    15
100
AcDbLine
 10
2328.9797637211
 20
398.0589554187
 30
0.0
 11
2328.9797637211
 21
320.4858980127
 31
0.0
  0
ARC
  5
237
330
1F
100
AcDbEntity
  8
0
  6
Continuous
 62
     7
370
    15
100
AcDbCircle
 10
2288.9854696352
 20
561.6046294736
 30
0.0
 40
244.4131465792499
100
AcDbArc
 50
260.5794003401
 51
279.4178883413
  0
LINE
  5
238
330
1F
100
AcDbEntity
  8
0
  6
Continuous
 62
     7
370
    15
100
AcDbLine
 10
2248.9797655093
 20
320.4877908701
 30
0.0
 11
2248.9797655093
 21
398.5422608202
 31
0.0
  0
ARC
  5
239
330
1F
100
AcDbEntity
  8
0
  6
Continuous
 62
     7
370
    15
100
AcDbCircle
 10
2246.4861341659
 20
400.9982218419
 30
0.0
 40
3.500000000000266
100
AcDbArc
 50
315.4358988709
 51
135.4358988709
  0
LINE
  5
23A
330
1F
100
AcDbEntity
  8
0
  6
Continuous
 62
     7
370
    15
100
AcDbLine
 10
2243.9925033199
 20
403.4541946049
 30
0.0
 11
2234.8151389109
 21
403.4541946049
 31
0.0
  0
ARC
  5
23B
330
1F
100
AcDbEntity
  8
0
  6
Continuous
 62
     7
370
    15
100
AcDbCircle
 10
2232.3974508988
 20
400.9234263593
 30
0.0
 40
3.49999999999998
100
AcDbArc
 50
46.3091053513
 51
226.3091053513
  0
LINE
  5
23C
330
1F
100
AcDbEntity
  8
0
  6
Continuous
 62
     7
370
    15
100
AcDbLine
 10
2229.9797642576
 20
398.392642865
 30
0.0
 11
2229.9797642576
 21
324.4398008012
 31
0.0
  0
LWPOLYLINE
  5
23D
330
1F
100
AcDbEntity
  8
0
  6
Continuous
 62
     7
370
    15
100
AcDbPolyline
 90
       15
 70
   128
 43
0.0
 10
2593.6042501068
 20
435.4982720286
 10
2602.4574174022
 20
421.7497020733
 10
2612.0177491045
 20
408.7924221334
 10
2622.2432686424
 20
396.6265384358
 10
2633.0919696426
 20
385.2521842125
 10
2644.5218308305
 20
374.6694674825
 10
2656.2726332283
 20
365.0463534241
 10
2668.5037298536
 20
356.1871035209
 10
2681.1753048038
 20
348.0917447779
 10
2694.2475719785
 20
340.7604374317
 10
2707.9587264394
 20
334.0669987594
 10
2722.0034061408
 20
328.169383569
 10
2736.3392992353
 20
323.067644078
 10
2750.9241460299
 20
318.7619279167
 10
2765.715642128
 20
315.2523413121
  0
ARC
  5
23E
330
1F
100
AcDbEntity
  8
0
  6
Continuous
 62
     7
370
    15
100
AcDbCircle
 10
2602.1794404641
 20
440.6428073212
 30
0.0
 40
9.999999999999913
100
AcDbArc
 50
80.6417647667
 51
210.9609129061
  0
LWPOLYLINE
  5
23F
330
1F
100
AcDbEntity
  8
0
  6
Continuous
 62
     7
370
    15
100
AcDbPolyline
 90
       23
 70
   128
 43
0.0
 10
2824.7156424856
 20
440.399818759
 10
2818.8895995205
 20
440.4211519815
 10
2811.911973398
 20
440.4860824798
 10
2805.5435309594
 20
440.5689325983
 10
2798.9207620209
 20
440.6725956184
 10
2792.6196067071
 20
440.7843911567
 10
2786.3516381418
 20
440.9060134081
 10
2778.6667032575
 20
441.0676068788
 10
2770.6596834993
 20
441.2489870075
 10
2762.920184288
 20
441.4353129047
 10
2755.2788986301
 20
441.6290259386
 10
2741.6689230537
 20
441.9982119131
 10
2727.5934203004
 20
442.4131160586
 10
2714.3884135818
 20
442.8374328231
 10
2700.1036687231
 20
443.3431467623
 10
2688.4166879987
 20
443.8027428351
 10
2675.7982654905
 20
444.3606816767
 10
2663.8378335571
 20
444.9658852538
 10
2651.5299512481
 20
445.6919116912
 10
2639.2787678575
 20
446.5540249946
 10
2627.6862306928
 20
447.5461343186
 10
2615.6754328346
 20
448.8337112555
 10
2603.8055105543
 20
450.5097278977
  0
LWPOLYLINE
  5
240
330
1F
100
AcDbEntity
  8
0
  6
Continuous
 62
     7
370
    15
100
AcDbPolyline
 90
       22
 70
   128
 43
0.0
 10
3045.6329418754
 20
450.5109143778
 10
3034.3556387758
 20
448.9071487549
 10
3022.9183121061
 20
447.6585834097
 10
3011.7838664388
 20
446.6818335041
 10
3000.3583116865
 20
445.8522916769
 10
2988.3121980762
 20
445.1161468501
 10
2977.2417230939
 20
444.5345018256
 10
2958.7566687202
 20
443.7101596242
 10
2940.6157641148
 20
443.0283858076
 10
2922.5012941694
 20
442.4335814821
 10
2908.4774760937
 20
442.0184774889
 10
2894.8294429516
 20
441.6466520904
 10
2881.182467792
 20
441.3059578306
 10
2867.0283390617
 20
440.9874231891
 10
2861.713918153
 20
440.8786811688
 10
2856.5577475762
 20
440.7796848471
 10
2851.4239604061
 20
440.6880882687
 10
2845.8626756852
 20
440.5981714866
 10
2840.6319005823
 20
440.5242676758
 10
2834.9680725893
 20
440.4586170087
 10
2829.4486191532
 20
440.4143121705
 10
2824.7156424856
 20
440.399818759
  0
ARC
  5
241
330
1F
100
AcDbEntity
  8
0
  6
Continuous
 62
     7
370
    15
100
AcDbCircle
 10
3047.2594582917
 20
440.6440724267
 30
0.0
 40
10.00000000000004
100
AcDbArc
 50
329.0530268963
 51
99.3608066866
  0
LWPOLYLINE
  5
242
330
1F
100
AcDbEntity
  8
0
  6
Continuous
 62
     7
370
    15
100
AcDbPolyline
 90
       15
 70
   128
 43
0.0
 10
2883.7156428432
 20
315.2523413121
 10
2898.509701941
 20
318.7615678323
 10
2913.0971787905
 20
323.0666970567
 10
2927.4357168412
 20
328.1678099996
 10
2941.4829669928
 20
334.0648256468
 10
2955.1965726947
 20
340.7578376188
 10
2968.5035778617
 20
348.228420373
 10
2981.3942743873
 20
356.4912257653
 10
2993.8266260957
 20
365.5463078054
 10
3005.7585521078
 20
375.3936394884
 10
3017.1480013465
 20
386.0332478192
 10
3027.7653469181
 20
397.2540078582
 10
3037.7790017461
 20
409.2390047433
 10
3047.1491350269
 20
421.9881862569
 10
3055.8359010553
 20
435.501619015
  0
LINE
  5
243
330
1F
100
AcDbEntity
  8
0
  6
Continuous
 62
     7
370
    15
100
AcDbLine
 10
2883.7156428432
 20
315.2523413121
 30
0.0
 11
2883.7156428432
 21
392.3919264247
 31
0.0
  0
ARC
  5
244
330
1F
100
AcDbEntity
  8
0
  6
Continuous
 62
     7
370
    15
100
AcDbCircle
 10
2882.4459401911
 20
393.5962313108
 30
0.0
 40
1.750000000000228
100
AcDbArc
 50
316.5141350571
 51
136.5141350571
  0
LINE
  5
245
330
1F
100
AcDbEntity
  8
0
  6
Continuous
 62
     7
370
    15
100
AcDbLine
 10
2881.1762391066
 20
394.8005410595
 30
0.0
 11
2867.1759834921
 21
394.8005410595
 31
0.0
  0
ARC
  5
246
330
1F
100
AcDbEntity
  8
0
  6
Continuous
 62
     7
370
    15
100
AcDbCircle
 10
2865.9458125286
 20
393.5558773499
 30
0.0
 40
1.750000000000097
100
AcDbArc
 50
45.3354880746
 51
225.3354880746
  0
LINE
  5
247
330
1F
100
AcDbEntity
  8
0
  6
Continuous
 62
     7
370
    15
100
AcDbLine
 10
2864.7156415915
 20
392.311222414
 30
0.0
 11
2864.7156415915
 21
311.9457471287
 31
0.0
  0
ARC
  5
248
330
1F
100
AcDbEntity
  8
0
  6
Continuous
 62
     7
370
    15
100
AcDbCircle
 10
2824.7136340943
 20
598.8932835733
 30
0.0
 40
289.7223658529618
100
AcDbArc
 50
262.0646131479
 51
277.9361888958
  0
LINE
  5
249
330
1F
100
AcDbEntity
  8
0
  6
Continuous
 62
     7
370
    15
100
AcDbLine
 10
2784.7156433796
 20
311.9451871966
 30
0.0
 11
2784.7156433796
 21
392.4895094136
 31
0.0
  0
ARC
  5
24A
330
1F
100
AcDbEntity
  8
0
  6
Continuous
 62
     7
370
    15
100
AcDbCircle
 10
2783.4013840068
 20
393.6450194025
 30
0.0
 40
1.750000000000256
100
AcDbArc
 50
318.6774957908
 51
138.6774957908
  0
LINE
  5
24B
330
1F
100
AcDbEntity
  8
0
  6
Continuous
 62
     7
370
    15
100
AcDbLine
 10
2782.0871269738
 20
394.8005410595
 30
0.0
 11
2768.0778300798
 21
394.8005410595
 31
0.0
  0
ARC
  5
24C
330
1F
100
AcDbEntity
  8
0
  6
Continuous
 62
     7
370
    15
100
AcDbCircle
 10
2766.8967354304
 20
393.5092139249
 30
0.0
 40
1.750000000000004
100
AcDbArc
 50
47.5528186856
 51
227.5528186856
  0
LINE
  5
24D
330
1F
100
AcDbEntity
  8
0
  6
Continuous
 62
     7
370
    15
100
AcDbLine
 10
2765.715642128
 20
392.2178794232
 30
0.0
 11
2765.715642128
 21
315.2523413121
 31
0.0
  0
LWPOLYLINE
  5
24E
330
1F
100
AcDbEntity
  8
0
  6
Continuous
 62
     7
370
    15
100
AcDbPolyline
 90
       13
 70
   128
 43
0.0
 10
3128.4174542483
 20
407.6656904861
 10
3139.2847817
 20
394.9352671644
 10
3150.7745753582
 20
383.0155735532
 10
3162.846065646
 20
371.9063966179
 10
3175.4584829863
 20
361.6075879194
 10
3188.5710279997
 20
352.118939643
 10
3202.1429311093
 20
343.4403007395
 10
3216.1334078368
 20
335.5714930821
 10
3231.9577257689
 20
327.8509535826
 10
3248.1848891433
 20
321.1098776264
 10
3264.760627931
 20
315.3479901934
 10
3281.6306646522
 20
310.5650590007
 10
3298.7407069262
 20
306.7609007017
  0
ARC
  5
24F
330
1F
100
AcDbEntity
  8
0
  6
Continuous
 62
     7
370
    15
100
AcDbCircle
 10
3136.2163455448
 20
413.924877962
 30
0.0
 40
10.00000000002806
100
AcDbArc
 50
79.3027339091
 51
218.7496371484
  0
LWPOLYLINE
  5
250
330
1F
100
AcDbEntity
  8
0
  6
Continuous
 62
     7
370
    15
100
AcDbPolyline
 90
       17
 70
   128
 43
0.0
 10
3357.7407072838
 20
404.4699599471
 10
3347.9390726965
 20
404.6006979357
 10
3338.1865579244
 20
404.8841641065
 10
3328.177980667
 20
405.2715024186
 10
3318.5466970857
 20
405.7138297535
 10
3308.5606913622
 20
406.2345097741
 10
3298.5170069691
 20
406.8154727106
 10
3288.7029867228
 20
407.4335627147
 10
3261.4734168704
 20
409.3937419096
 10
3234.2424314078
 20
411.7015312391
 10
3216.1778580006
 20
413.4308670688
 10
3198.0927805956
 20
415.3402771527
 10
3179.7082792576
 20
417.5006618812
 10
3169.3748008069
 20
418.8373061298
 10
3158.3963106926
 20
420.3826525012
 10
3147.5997190531
 20
422.0690871451
 10
3138.0725424345
 20
423.7510966723
  0
LWPOLYLINE
  5
251
330
1F
100
AcDbEntity
  8
0
  6
Continuous
 62
     7
370
    15
100
AcDbPolyline
 90
       20
 70
   128
 43
0.0
 10
3577.3943285998
 20
423.7483445134
 10
3569.7607170399
 20
422.3841166899
 10
3561.2918953951
 20
421.0170179563
 10
3551.9878487643
 20
419.6469863269
 10
3543.6260919627
 20
418.5070480375
 10
3535.1779084261
 20
417.4266478585
 10
3526.2646000441
 20
416.3524374272
 10
3517.6203470286
 20
415.3660367208
 10
3509.1368030365
 20
414.4450914624
 10
3481.9164421018
 20
411.7634277371
 10
3454.700700527
 20
409.4481616438
 10
3436.5765820797
 20
408.0982935913
 10
3418.4679757412
 20
406.9070195124
 10
3400.0986810382
 20
405.8722700682
 10
3393.0443372186
 20
405.5277141905
 10
3386.1737563815
 20
405.2237849547
 10
3378.8761324789
 20
404.9396307442
 10
3371.9563796725
 20
404.7153115224
 10
3364.8534007911
 20
404.5446026338
 10
3357.7407072838
 20
404.4699599471
  0
ARC
  5
252
330
1F
100
AcDbEntity
  8
0
  6
Continuous
 62
     7
370
    15
100
AcDbCircle
 10
3579.2500989866
 20
413.922052452
 30
0.0
 40
10.00000000000009
100
AcDbArc
 50
321.2319081891
 51
100.6947801705
  0
LWPOLYLINE
  5
253
330
1F
100
AcDbEntity
  8
0
  6
Continuous
 62
     7
370
    15
100
AcDbPolyline
 90
       12
 70
   128
 43
0.0
 10
3416.7407076415
 20
306.7609007017
 10
3434.8777230438
 20
310.8281808577
 10
3452.7408774551
 20
315.996925844
 10
3470.265566891
 20
322.2671653482
 10
3487.3871873673
 20
329.6388993704
 10
3504.0410976466
 20
338.1120956129
 10
3520.1627086457
 20
347.6867566856
 10
3534.8174940403
 20
357.7231612546
 10
3548.8874535616
 20
368.7387272688
 10
3562.3184661921
 20
380.7334250405
 10
3575.0563513096
 20
393.7073139452
 10
3587.0469729956
 20
407.660366905
  0
LINE
  5
254
330
1F
100
AcDbEntity
  8
0
  6
Continuous
 62
     7
370
    15
100
AcDbLine
 10
3416.7407076415
 20
306.7609007017
 30
0.0
 11
3416.7407076415
 21
367.7690473308
 31
0.0
  0
ARC
  5
255
330
1F
100
AcDbEntity
  8
0
  6
Continuous
 62
     7
370
    15
100
AcDbCircle
 10
3415.0094902964
 20
370.2191350028
 30
0.0
 40
2.999999999999928
100
AcDbArc
 50
305.2448882215
 51
125.2448882215
  0
LINE
  5
256
330
1F
100
AcDbEntity
  8
0
  6
Continuous
 62
     7
370
    15
100
AcDbLine
 10
3413.2782738265
 20
372.6692255178
 30
0.0
 11
3400.6065982934
 21
372.6692255178
 31
0.0
  0
ARC
  5
257
330
1F
100
AcDbEntity
  8
0
  6
Continuous
 62
     7
370
    15
100
AcDbCircle
 10
3399.1736532003
 20
370.0335612723
 30
0.0
 40
3.000000000000089
100
AcDbArc
 50
61.4680568073
 51
241.4680568073
  0
LINE
  5
258
330
1F
100
AcDbEntity
  8
0
  6
Continuous
 62
     7
370
    15
100
AcDbLine
 10
3397.7407063898
 20
367.3978954061
 30
0.0
 11
3397.7407063898
 21
303.710146561
 31
0.0
  0
ARC
  5
259
330
1F
100
AcDbEntity
  8
0
  6
Continuous
 62
     7
370
    15
100
AcDbCircle
 10
3357.743494538
 20
614.3859494563
 30
0.0
 40
313.2398944268365
100
AcDbArc
 50
262.6629173421
 51
277.3360545888
  0
LINE
  5
25A
330
1F
100
AcDbEntity
  8
0
  6
Continuous
 62
     7
370
    15
100
AcDbLine
 10
3317.7407081779
 20
303.7108642886
 30
0.0
 11
3317.7407081779
 21
368.7632888844
 31
0.0
  0
ARC
  5
25B
330
1F
100
AcDbEntity
  8
0
  6
Continuous
 62
     7
370
    15
100
AcDbCircle
 10
3315.4634442113
 20
370.7162489771
 30
0.0
 40
3.000000000000103
100
AcDbArc
 50
319.3838366063
 51
139.3838366063
  0
LINE
  5
25C
330
1F
100
AcDbEntity
  8
0
  6
Continuous
 62
     7
370
    15
100
AcDbLine
 10
3313.1861794349
 20
372.6692255178
 30
0.0
 11
3302.5968964752
 21
372.6692255178
 31
0.0
  0
ARC
  5
25D
330
1F
100
AcDbEntity
  8
0
  6
Continuous
 62
     7
370
    15
100
AcDbCircle
 10
3300.6688011728
 20
370.3708551626
 30
0.0
 40
3.000000000000119
100
AcDbArc
 50
50.0067047352
 51
230.0067047352
  0
LINE
  5
25E
330
1F
100
AcDbEntity
  8
0
  6
Continuous
 62
     7
370
    15
100
AcDbLine
 10
3298.7407069262
 20
368.0724989515
 30
0.0
 11
3298.7407069262
 21
306.7609007017
 31
0.0
  0
LWPOLYLINE
  5
25F
330
1F
100
AcDbEntity
  8
0
  6
Continuous
 62
     7
370
    15
100
AcDbPolyline
 90
       12
 70
   128
 43
0.0
 10
3695.5049164641
 20
387.9815223304
 10
3708.120626961
 20
375.4270003278
 10
3721.3760592091
 20
363.7936955413
 10
3735.2229930509
 20
353.0811318578
 10
3749.613163625
 20
343.2887711875
 10
3764.4983358729
 20
334.4161663535
 10
3779.8302896369
 20
326.462809844
 10
3794.6519903887
 20
319.8054388461
 10
3809.7875468481
 20
313.9644308068
 10
3825.1965247143
 20
308.9393683065
 10
3840.8384896863
 20
304.7298033473
 10
3856.6730149138
 20
301.3353780237
  0
ARC
  5
260
330
1F
100
AcDbEntity
  8
0
  6
Continuous
 62
     7
370
    15
100
AcDbCircle
 10
3702.7785173136
 20
394.8440879028
 30
0.0
 40
10.00000000035007
100
AcDbArc
 50
79.085302192
 51
223.3344356582
  0
LWPOLYLINE
  5
261
330
1F
100
AcDbEntity
  8
0
  6
Continuous
 62
     7
370
    15
100
AcDbPolyline
 90
       17
 70
   128
 43
0.0
 10
3915.6730152715
 20
385.6761190417
 10
3906.2451018069
 20
385.7851524225
 10
3896.8502987224
 20
386.0286799461
 10
3887.2348383117
 20
386.3676892771
 10
3877.9097847689
 20
386.7647525929
 10
3868.3403074789
 20
387.2346745472
 10
3858.7146081078
 20
387.7664700622
 10
3849.2487721193
 20
388.3437234983
 10
3823.1091104496
 20
390.210366433
 10
3796.9976343263
 20
392.4741321976
 10
3783.818272506
 20
393.7746844953
 10
3770.3644461978
 20
395.2194307134
 10
3757.3120422709
 20
396.7443771513
 10
3743.7247760642
 20
398.4783476914
 10
3730.907974397
 20
400.2775046773
 10
3717.7644945729
 20
402.3294120304
 10
3704.6719916213
 20
404.6632004824
  0
LWPOLYLINE
  5
262
330
1F
100
AcDbEntity
  8
0
  6
Continuous
 62
     7
370
    15
100
AcDbPolyline
 90
       18
 70
   128
 43
0.0
 10
4126.6370840419
 20
404.6560663796
 10
4112.0842076886
 20
402.0830493767
 10
4097.5156404126
 20
399.8517280497
 10
4082.9877235043
 20
397.8685299686
 10
4068.0627949584
 20
396.0308392232
 10
4053.2968170989
 20
394.378860894
 10
4038.4966634262
 20
392.8716137541
 10
4023.6536689151
 20
391.4979052473
 10
4008.860094105
 20
390.259705086
 10
3991.4493165958
 20
388.9659281645
 10
3974.0667469848
 20
387.8505807711
 10
3956.4709119547
 20
386.907156164
 10
3949.6775656987
 20
386.5971882934
 10
3943.0106204051
 20
386.3250069721
 10
3936.0174272257
 20
386.0768837262
 10
3929.3402038563
 20
385.8825452493
 10
3922.5108428906
 20
385.7378743952
 10
3915.6730152715
 20
385.6761190417
  0
ARC
  5
263
330
1F
100
AcDbEntity
  8
0
  6
Continuous
 62
     7
370
    15
100
AcDbCircle
 10
4128.5297335389
 20
394.8367968387
 30
0.0
 40
10.00000000000085
100
AcDbArc
 50
316.6302161292
 51
100.9098527718
  0
LWPOLYLINE
  5
264
330
1F
100
AcDbEntity
  8
0
  6
Continuous
 62
     7
370
    15
100
AcDbPolyline
 90
       12
 70
   128
 43
0.0
 10
3974.6730156291
 20
301.3353780237
 10
3991.4552845109
 20
304.9636302724
 10
4008.017940079
 20
309.509667003
 10
4024.3129931438
 20
314.9734609213
 10
4040.2924396146
 20
321.3550393214
 10
4055.9082903016
 20
328.6543443312
 10
4071.1125411141
 20
336.8713751297
 10
4085.0278861869
 20
345.459442277
 10
4098.4944380868
 20
354.863305357
 10
4111.4719785798
 20
365.0829949477
 10
4123.9202745307
 20
376.1184804711
 10
4135.7991077054
 20
387.9697627482
  0
LINE
  5
265
330
1F
100
AcDbEntity
  8
0
  6
Continuous
 62
     7
370
    15
100
AcDbLine
 10
3974.6730156291
 20
301.3353780237
 30
0.0
 11
3974.6730156291
 21
352.6354762783
 31
0.0
  0
ARC
  5
266
330
1F
100
AcDbEntity
  8
0
  6
Continuous
 62
     7
370
    15
100
AcDbCircle
 10
3972.5389254917
 20
354.743940723
 30
0.0
 40
3.00000000000013
100
AcDbArc
 50
315.3459424235
 51
135.3459424235
  0
LINE
  5
267
330
1F
100
AcDbEntity
  8
0
  6
Continuous
 62
     7
370
    15
100
AcDbLine
 10
3970.4048350501
 20
356.8524133968
 30
0.0
 11
3959.5311671543
 21
356.8524133968
 31
0.0
  0
ARC
  5
268
330
1F
100
AcDbEntity
  8
0
  6
Continuous
 62
     7
370
    15
100
AcDbCircle
 10
3957.6020919601
 20
354.5548801558
 30
0.0
 40
3.000000000000123
100
AcDbArc
 50
49.9822001304
 51
229.9822001304
  0
LINE
  5
269
330
1F
100
AcDbEntity
  8
0
  6
Continuous
 62
     7
370
    15
100
AcDbLine
 10
3955.6730143774
 20
352.2573364047
 30
0.0
 11
3955.6730143774
 21
298.3609400392
 31
0.0
  0
ARC
  5
26A
330
1F
100
AcDbEntity
  8
0
  6
Continuous
 62
     7
370
    15
100
AcDbCircle
 10
3915.6790754456
 20
616.9588100692
 30
0.0
 40
321.0982994955615
100
AcDbArc
 50
262.8428446592
 51
277.1549756449
  0
LINE
  5
26B
330
1F
100
AcDbEntity
  8
0
  6
Continuous
 62
     7
370
    15
100
AcDbLine
 10
3875.6730161655
 20
298.3624617539
 30
0.0
 11
3875.6730161655
 21
352.5566184099
 31
0.0
  0
ARC
  5
26C
330
1F
100
AcDbEntity
  8
0
  6
Continuous
 62
     7
370
    15
100
AcDbCircle
 10
3873.5786025665
 20
354.704523373
 30
0.0
 40
2.999999999999836
100
AcDbArc
 50
314.2777711782
 51
134.2777711782
  0
LINE
  5
26D
330
1F
100
AcDbEntity
  8
0
  6
Continuous
 62
     7
370
    15
100
AcDbLine
 10
3871.4841917205
 20
356.8524133968
 30
0.0
 11
3861.2333402086
 21
356.8524133968
 31
0.0
  0
ARC
  5
26E
330
1F
100
AcDbEntity
  8
0
  6
Continuous
 62
     7
370
    15
100
AcDbCircle
 10
3858.9531786706
 20
354.9028361699
 30
0.0
 40
3.000000000000024
100
AcDbArc
 50
40.5310002395
 51
220.5310002395
  0
LINE
  5
26F
330
1F
100
AcDbEntity
  8
0
  6
Continuous
 62
     7
370
    15
100
AcDbLine
 10
3856.6730149138
 20
352.953264306
 30
0.0
 11
3856.6730149138
 21
301.3353780237
 31
0.0
  0
LWPOLYLINE
  5
270
330
1F
100
AcDbEntity
  8
0
  6
Continuous
 62
     7
370
    15
100
AcDbPolyline
 90
       12
 70
   128
 43
0.0
 10
1671.0580693608
 20
243.6300010539
 10
1683.2627909308
 20
232.2970420613
 10
1696.0136400586
 20
221.7834924717
 10
1709.2702494984
 20
212.0887854159
 10
1722.9922520047
 20
203.2123209045
 10
1737.1392803316
 20
195.1535332027
 10
1751.6709523325
 20
187.9118840221
 10
1765.6882660513
 20
181.8319340752
 10
1779.9778016334
 20
176.4774212935
 10
1794.5057036405
 20
171.8478393736
 10
1809.2381464367
 20
167.9427391746
 10
1824.1412745838
 20
164.7616132588
  0
ARC
  5
271
330
1F
100
AcDbEntity
  8
0
  6
Continuous
 62
     7
370
    15
100
AcDbCircle
 10
1678.0765433942
 20
250.7532773882
 30
0.0
 40
10.00000000000002
100
AcDbArc
 50
79.1064969085
 51
225.4246052535
  0
LWPOLYLINE
  5
272
330
1F
100
AcDbEntity
  8
0
  6
Continuous
 62
     7
370
    15
100
AcDbPolyline
 90
       18
 70
   128
 43
0.0
 10
1883.1412749415
 20
243.1078982346
 10
1877.6683494498
 20
243.1425396784
 10
1871.3080113803
 20
243.2464342942
 10
1865.3732905214
 20
243.385269781
 10
1859.3144727921
 20
243.5605387368
 10
1853.3754622614
 20
243.7605861903
 10
1847.4792385524
 20
243.9839778407
 10
1833.2613365774
 20
244.6178953484
 10
1819.1616566902
 20
245.3705624572
 10
1794.0000550871
 20
247.0133572924
 10
1768.8806610232
 20
249.0498504103
 10
1756.2136011248
 20
250.2382115835
 10
1743.2580249434
 20
251.5758677749
 10
1730.697180522
 20
253.002594447
 10
1717.6008777743
 20
254.6429081205
 10
1705.2534179812
 20
256.3579744429
 10
1692.586372984
 20
258.327306976
 10
1679.9663858538
 20
260.5730841924
  0
LWPOLYLINE
  5
273
330
1F
100
AcDbEntity
  8
0
  6
Continuous
 62
     7
370
    15
100
AcDbPolyline
 90
       19
 70
   128
 43
0.0
 10
2086.2643675928
 20
260.5631012485
 10
2072.2697483425
 20
258.0930055187
 10
2058.2385765438
 20
255.954381229
 10
2044.2427502995
 20
254.0674528409
 10
2029.8888938551
 20
252.3389966844
 10
2015.6668381815
 20
250.8003947576
 10
2001.4378087645
 20
249.4162010207
 10
1987.1311591988
 20
248.167434746
 10
1972.9183198934
 20
247.0598948378
 10
1956.127587152
 20
245.9143351768
 10
1939.3908860212
 20
244.9430593117
 10
1922.4589424258
 20
244.1343791514
 10
1916.8392302518
 20
243.9068937436
 10
1911.2914608841
 20
243.7036474105
 10
1905.603547958
 20
243.518365795
 10
1899.9323355084
 20
243.3600729928
 10
1894.2276578446
 20
243.231549593
 10
1888.2886072671
 20
243.138833361
 10
1883.1412749415
 20
243.1078982346
  0
ARC
  5
274
330
1F
100
AcDbEntity
  8
0
  6
Continuous
 62
     7
370
    15
100
AcDbCircle
 10
2088.1529112482
 20
250.7430614883
 30
0.0
 40
9.999999999999963
100
AcDbArc
 50
314.5325578665
 51
100.8859671938
  0
LWPOLYLINE
  5
275
330
1F
100
AcDbEntity
  8
0
  6
Continuous
 62
     7
370
    15
100
AcDbPolyline
 90
       12
 70
   128
 43
0.0
 10
1942.1412752991
 20
164.7616132588
 10
1957.9344945078
 20
168.1609902067
 10
1973.5331269031
 20
172.3757410973
 10
1988.8970883613
 20
177.4058670652
 10
2003.9862649565
 20
183.25133726
 10
2018.760557664
 20
189.9121813974
 10
2033.1798451071
 20
197.3883114647
 10
2046.4140133982
 20
205.1840157361
 10
2059.2633293991
 20
213.704500021
 10
2071.6941760903
 20
222.9497654542
 10
2083.6729662543
 20
232.9197811852
 10
2095.1660530691
 20
243.6145483486
  0
LINE
  5
276
330
1F
100
AcDbEntity
  8
0
  6
Continuous
 62
     7
370
    15
100
AcDbLine
 10
1942.1412752991
 20
164.7616132588
 30
0.0
 11
1942.1412752991
 21
212.3292126515
 31
0.0
  0
ARC
  5
277
330
1F
100
AcDbEntity
  8
0
  6
Continuous
 62
     7
370
    15
100
AcDbCircle
 10
1940.1119216254
 20
214.5386667526
 30
0.0
 40
3.000000000000049
100
AcDbArc
 50
312.5669384947
 51
132.5669384947
  0
LINE
  5
278
330
1F
100
AcDbEntity
  8
0
  6
Continuous
 62
     7
370
    15
100
AcDbLine
 10
1938.0825677936
 20
216.7481367381
 30
0.0
 11
1927.1999815529
 21
216.7481367381
 31
0.0
  0
ARC
  5
279
330
1F
100
AcDbEntity
  8
0
  6
Continuous
 62
     7
370
    15
100
AcDbCircle
 10
1925.1706282575
 20
214.5386667526
 30
0.0
 40
2.999999999999966
100
AcDbArc
 50
47.4330615053
 51
227.4330615053
  0
LINE
  5
27A
330
1F
100
AcDbEntity
  8
0
  6
Continuous
 62
     7
370
    15
100
AcDbLine
 10
1923.1412740474
 20
212.3292126515
 30
0.0
 11
1923.1412740474
 21
161.7776947759
 31
0.0
  0
ARC
  5
27B
330
1F
100
AcDbEntity
  8
0
  6
Continuous
 62
     7
370
    15
100
AcDbCircle
 10
1883.1492255353
 20
479.4363389509
 30
0.0
 40
320.1661727343144
100
AcDbArc
 50
262.8215569111
 51
277.1755749981
  0
LINE
  5
27C
330
1F
100
AcDbEntity
  8
0
  6
Continuous
 62
     7
370
    15
100
AcDbLine
 10
1843.1412758355
 20
161.7796970809
 30
0.0
 11
1843.1412758355
 21
212.3247600352
 31
0.0
  0
ARC
  5
27D
330
1F
100
AcDbEntity
  8
0
  6
Continuous
 62
     7
370
    15
100
AcDbCircle
 10
1841.1143403579
 20
214.5364476269
 30
0.0
 40
3.000000000000178
100
AcDbArc
 50
312.5042474193
 51
132.5042474193
  0
LINE
  5
27E
330
1F
100
AcDbEntity
  8
0
  6
Continuous
 62
     7
370
    15
100
AcDbLine
 10
1839.0874074822
 20
216.7481367381
 30
0.0
 11
1828.1951429372
 21
216.7481367381
 31
0.0
  0
ARC
  5
27F
330
1F
100
AcDbEntity
  8
0
  6
Continuous
 62
     7
370
    15
100
AcDbCircle
 10
1826.1682095251
 20
214.5364476269
 30
0.0
 40
2.999999999999983
100
AcDbArc
 50
47.4957525807
 51
227.4957525807
  0
LINE
  5
280
330
1F
100
AcDbEntity
  8
0
  6
Continuous
 62
     7
370
    15
100
AcDbLine
 10
1824.1412745838
 20
212.3247600352
 30
0.0
 11
1824.1412745838
 21
164.7616132588
 31
0.0
  0
ARC
  5
281
330
1F
100
AcDbEntity
  8
0
  6
Continuous
 62
     7
370
    15
100
AcDbCircle
 10
2421.4665814395
 20
204.6234000049
 30
0.0
 40
3.00000000000004
100
AcDbArc
 50
320.948861305
 51
140.948861305
  0
LINE
  5
282
330
1F
100
AcDbEntity
  8
0
  6
Continuous
 62
     7
370
    15
100
AcDbLine
 10
2419.1368299765
 20
206.5134531679
 30
0.0
 11
2409.3702177746
 21
206.5134531679
 31
0.0
  0
ARC
  5
283
330
1F
100
AcDbEntity
  8
0
  6
Continuous
 62
     7
370
    15
100
AcDbCircle
 10
2407.0832756476
 20
204.5718196366
 30
0.0
 40
3.000000000000146
100
AcDbArc
 50
40.3313683656
 51
220.3313683656
  0
LINE
  5
284
330
1F
100
AcDbEntity
  8
0
  6
Continuous
 62
     7
370
    15
100
AcDbLine
 10
2404.7963324231
 20
202.6301978502
 30
0.0
 11
2404.7963324231
 21
151.3607443784
 31
0.0
  0
ARC
  5
285
330
1F
100
AcDbEntity
  8
0
  6
Continuous
 62
     7
370
    15
100
AcDbCircle
 10
2364.7872219049
 20
456.0836608218
 30
0.0
 40
307.3382252995412
100
AcDbArc
 50
262.5234661795
 51
277.4799601688
  0
LINE
  5
286
330
1F
100
AcDbEntity
  8
0
  6
Continuous
 62
     7
370
    15
100
AcDbLine
 10
2324.7963342113
 20
151.3583523361
 30
0.0
 11
2324.7963342113
 21
202.2097511092
 31
0.0
  0
ARC
  5
287
330
1F
100
AcDbEntity
  8
0
  6
Continuous
 62
     7
370
    15
100
AcDbCircle
 10
2322.7059810131
 20
204.3615985685
 30
0.0
 40
3.000000000000414
100
AcDbArc
 50
314.1695580743
 51
134.1695580743
  0
LINE
  5
288
330
1F
100
AcDbEntity
  8
0
  6
Continuous
 62
     7
370
    15
100
AcDbLine
 10
2320.6156271738
 20
206.5134531679
 30
0.0
 11
2309.8629976851
 21
206.5134531679
 31
0.0
  0
ARC
  5
289
330
1F
100
AcDbEntity
  8
0
  6
Continuous
 62
     7
370
    15
100
AcDbCircle
 10
2307.8296653023
 20
204.307639647
 30
0.0
 40
2.999999999999993
100
AcDbArc
 50
47.3298011498
 51
227.3298011498
  0
LINE
  5
28A
330
1F
100
AcDbEntity
  8
0
  6
Continuous
 62
     7
370
    15
100
AcDbLine
 10
2305.7963329596
 20
202.101843657
 30
0.0
 11
2305.7963329596
 21
154.4716067799
 31
0.0
  0
LWPOLYLINE
  5
28B
330
1F
100
AcDbEntity
  8
0
  6
Continuous
 62
     7
370
    15
100
AcDbPolyline
 90
       11
 70
   128
 43
0.0
 10
2162.1874797386
 20
229.0042938462
 10
2173.6570674223
 20
218.3994549011
 10
2185.6305974764
 20
208.5457508417
 10
2198.0716365618
 20
199.4431519623
 10
2210.9437960428
 20
191.091717674
 10
2224.2106425804
 20
183.4914182712
 10
2237.8357577366
 20
176.642313165
 10
2254.3043422741
 20
169.5344885214
 10
2271.1603793544
 20
163.4700657037
 10
2288.3442494315
 20
158.4491053232
 10
2305.7963329596
 20
154.4716067799
  0
ARC
  5
28C
330
1F
100
AcDbEntity
  8
0
  6
Continuous
 62
     7
370
    15
100
AcDbCircle
 10
2169.1864516807
 20
236.1467236002
 30
0.0
 40
10.00000000000011
100
AcDbArc
 50
79.1055609263
 51
225.5812739219
  0
LWPOLYLINE
  5
28D
330
1F
100
AcDbEntity
  8
0
  6
Continuous
 62
     7
370
    15
100
AcDbPolyline
 90
       18
 70
   128
 43
0.0
 10
2364.7963333172
 20
230.5064435951
 10
2357.5794834872
 20
230.557870704
 10
2349.6663303343
 20
230.6971426556
 10
2341.9867812884
 20
230.8884697322
 10
2334.4487122488
 20
231.1192637062
 10
2326.8733251137
 20
231.3884782842
 10
2319.141675089
 20
231.6993735691
 10
2311.4214244527
 20
232.0440545009
 10
2303.7941719634
 20
232.4170507683
 10
2279.7783616227
 20
233.8059718811
 10
2255.8154615802
 20
235.5402613529
 10
2243.7933090371
 20
236.5587273683
 10
2231.3830781025
 20
237.7289335406
 10
2219.4592732233
 20
238.9825290316
 10
2206.929676537
 20
240.4575600662
 10
2195.1897817892
 20
242.0163695916
 10
2183.1080544037
 20
243.8439160067
 10
2171.0764545244
 20
245.9664808711
  0
LWPOLYLINE
  5
28E
330
1F
100
AcDbEntity
  8
0
  6
Continuous
 62
     7
370
    15
100
AcDbPolyline
 90
       18
 70
   128
 43
0.0
 10
2558.5751760048
 20
245.9778718772
 10
2543.370344047
 20
243.3475252236
 10
2528.1529355091
 20
241.1630085043
 10
2512.4948102278
 20
239.2473189915
 10
2497.1442747158
 20
237.6233581195
 10
2481.5112578911
 20
236.1831602256
 10
2465.9768495006
 20
234.9345276522
 10
2450.4705894036
 20
233.8486382702
 10
2434.4089332265
 20
232.877203851
 10
2418.4520396632
 20
232.0572107335
 10
2402.2653329415
 20
231.3713460164
 10
2396.9088684065
 20
231.1787338022
 10
2391.6299495143
 20
231.0069310357
 10
2386.2100674999
 20
230.8501382446
 10
2380.8011080367
 20
230.7163978159
 10
2375.3845201102
 20
230.6088795356
 10
2369.7460981314
 20
230.532067433
 10
2364.7963333172
 20
230.5064435951
  0
ARC
  5
28F
330
1F
100
AcDbEntity
  8
0
  6
Continuous
 62
     7
370
    15
100
AcDbCircle
 10
2560.4669229018
 20
236.1584281973
 30
0.0
 40
9.99999999999995
100
AcDbArc
 50
314.4654373234
 51
100.9046454221
  0
LWPOLYLINE
  5
290
330
1F
100
AcDbEntity
  8
0
  6
Continuous
 62
     7
370
    15
100
AcDbPolyline
 90
       12
 70
   128
 43
0.0
 10
2423.7963336748
 20
154.4716067799
 10
2438.6287781638
 20
157.7770545604
 10
2453.2748687309
 20
161.832769766
 10
2467.6979187173
 20
166.6393216022
 10
2481.8612489146
 20
172.1973362845
 10
2495.7281577629
 20
178.5074133239
 10
2509.2619735045
 20
185.5701201252
 10
2521.6843712372
 20
192.9191737724
 10
2533.7472933573
 20
200.9383353231
 10
2545.4199987692
 20
209.628142477
 10
2556.6717165751
 20
218.9891026276
 10
2567.4717056793
 20
229.0216952637
  0
LINE
  5
291
330
1F
100
AcDbEntity
  8
0
  6
Continuous
 62
     7
370
    15
100
AcDbLine
 10
2423.7963336748
 20
154.4716067799
 30
0.0
 11
2423.7963336748
 21
202.7333509233
 31
0.0
  0
LINE
  5
292
330
1F
100
AcDbEntity
  8
0
  6
Continuous
 62
     7
370
    15
100
AcDbLine
 10
2659.2165258677
 20
227.8428252094
 30
0.0
 11
2659.2165258677
 21
227.8410966747
 31
0.0
  0
LINE
  5
293
330
1F
100
AcDbEntity
  8
0
  6
Continuous
 62
     7
370
    15
100
AcDbLine
 10
3057.830992058
 20
227.8522129409
 30
0.0
 11
3057.830992058
 21
227.8539414756
 31
0.0
  0
LINE
  5
294
330
1F
100
AcDbEntity
  8
0
  6
Continuous
 62
     7
370
    15
100
AcDbLine
 10
2898.4996926934
 20
139.4572134368
 30
0.0
 11
2898.4996926934
 21
139.4589419715
 31
0.0
  0
ARC
  5
295
330
1F
100
AcDbEntity
  8
0
  6
Continuous
 62
     7
370
    15
100
AcDbCircle
 10
2858.4920616939
 20
420.0959612618
 30
0.0
 40
283.476131832943
100
AcDbArc
 50
261.8897449443
 51
278.1133713296
  0
LINE
  5
296
330
1F
100
AcDbEntity
  8
0
  6
Continuous
 62
     7
370
    15
100
AcDbLine
 10
2818.4996944816
 20
139.456766402
 30
0.0
 11
2818.4996944816
 21
139.4550378673
 31
0.0
  0
ARC
  5
297
330
1F
100
AcDbEntity
  8
0
  6
Continuous
 62
     7
370
    15
100
AcDbCircle
 10
2858.4920616939
 20
420.0976897965
 30
0.0
 40
283.476131832943
100
AcDbArc
 50
261.8897449443
 51
278.1133713296
  0
LWPOLYLINE
  5
298
330
1F
100
AcDbEntity
  8
0
  6
Continuous
 62
     7
370
    15
100
AcDbPolyline
 90
       12
 70
   128
 43
0.0
 10
2661.7873487026
 20
221.1489851825
 10
2672.4471327812
 20
210.0414808147
 10
2683.6781677754
 20
199.7160787933
 10
2695.4392668755
 20
190.1727791183
 10
2707.6892134697
 20
181.4116115921
 10
2720.3868207485
 20
173.4325762146
 10
2733.4908721001
 20
166.2356729858
 10
2746.181371525
 20
160.1664002292
 10
2759.1620412619
 20
154.7924156539
 10
2772.398340419
 20
150.1137788646
 10
2785.8557355554
 20
146.1304302566
 10
2799.4996932299
 20
142.8423996322
  0
ARC
  5
299
330
1F
100
AcDbEntity
  8
0
  6
Continuous
 62
     7
370
    15
100
AcDbCircle
 10
2669.2165249983
 20
227.842820437
 30
0.0
 40
10.00000000000013
100
AcDbArc
 50
78.0545426574
 51
222.0194221584
  0
LWPOLYLINE
  5
29A
330
1F
100
AcDbEntity
  8
0
  6
Continuous
 62
     7
370
    15
100
AcDbPolyline
 90
       17
 70
   128
 43
0.0
 10
2858.4996935875
 20
221.9232495182
 10
2851.5020631217
 20
221.976387059
 10
2843.8743426428
 20
222.1207793109
 10
2836.4488248677
 20
222.3207528942
 10
2829.1966308803
 20
222.5611682289
 10
2821.8841505201
 20
222.8422637336
 10
2814.3828053922
 20
223.1679435127
 10
2806.9309581966
 20
223.5260780208
 10
2799.5764006824
 20
223.9116306655
 10
2776.334541753
 20
225.3372545593
 10
2753.1338137538
 20
227.0885880344
 10
2739.5039898307
 20
228.2908733242
 10
2725.5814102442
 20
229.6770389431
 10
2711.7991474421
 20
231.2397535198
 10
2698.195206836
 20
233.0194290035
 10
2684.8292675764
 20
235.0782032363
 10
2671.2863323242
 20
237.6262719982
  0
LWPOLYLINE
  5
29B
330
1F
100
AcDbEntity
  8
0
  6
Continuous
 62
     7
370
    15
100
AcDbPolyline
 90
       18
 70
   128
 43
0.0
 10
3045.7604852469
 20
237.6372392528
 10
3031.1752286703
 20
234.9119658821
 10
3016.432928756
 20
232.6891298645
 10
3001.2611624748
 20
230.7712610118
 10
2986.4659485371
 20
229.1637535446
 10
2971.3149395735
 20
227.7284140937
 10
2956.3077640683
 20
226.4795775764
 10
2941.297287956
 20
225.3804977291
 10
2925.7782948167
 20
224.3879015796
 10
2910.3445065171
 20
223.5399957054
 10
2894.6789604575
 20
222.8244717472
 10
2889.5049066247
 20
222.6232464664
 10
2884.4247990252
 20
222.4442239158
 10
2879.2002842725
 20
222.2806389682
 10
2873.9700204656
 20
222.1408660762
 10
2868.7449497134
 20
222.0291073673
 10
2863.3063136564
 20
221.9497139804
 10
2858.4996935875
 20
221.9232495182
  0
ARC
  5
29C
330
1F
100
AcDbEntity
  8
0
  6
Continuous
 62
     7
370
    15
100
AcDbCircle
 10
3047.8309936538
 20
227.8539338662
 30
0.0
 40
10.00000000000012
100
AcDbArc
 50
318.0220407822
 51
101.9496183748
  0
LWPOLYLINE
  5
29D
330
1F
100
AcDbEntity
  8
0
  6
Continuous
 62
     7
370
    15
100
AcDbPolyline
 90
       12
 70
   128
 43
0.0
 10
2917.4996939451
 20
142.8423996322
 10
2931.9722530396
 20
146.350013768
 10
2946.2327984125
 20
150.6389851921
 10
2960.2398750336
 20
155.709820544
 10
2973.9520651252
 20
161.5630264633
 10
2987.3279062063
 20
168.199169194
 10
3000.3259804995
 20
175.6187851779
 10
3012.1980634482
 20
183.3324606769
 10
3023.6627486498
 20
191.7435403221
 10
3034.6852865965
 20
200.8524413459
 10
3045.2309575827
 20
210.6596107833
 10
3055.2650121004
 20
221.1654956691
  0
LINE
  5
29E
330
1F
100
AcDbEntity
  8
0
  6
Continuous
 62
     7
370
    15
100
AcDbLine
 10
2917.4996939451
 20
142.8423996322
 30
0.0
 11
2917.4996939451
 21
191.4446230285
 31
0.0
  0
ARC
  5
29F
330
1F
100
AcDbEntity
  8
0
  6
Continuous
 62
     7
370
    15
100
AcDbCircle
 10
2915.1206191666
 20
193.2721777055
 30
0.0
 40
3.00000000000006
100
AcDbArc
 50
322.4690897647
 51
142.4690897647
  0
LINE
  5
2A0
330
1F
100
AcDbEntity
  8
0
  6
Continuous
 62
     7
370
    15
100
AcDbLine
 10
2912.7415445597
 20
195.0997586601
 30
0.0
 11
2903.2578420789
 21
195.0997586601
 31
0.0
  0
ARC
  5
2A1
330
1F
100
AcDbEntity
  8
0
  6
Continuous
 62
     7
370
    15
100
AcDbCircle
 10
2900.8787680084
 20
193.2721777055
 30
0.0
 40
3.000000000000129
100
AcDbArc
 50
37.5309102353
 51
217.5309102353
  0
LINE
  5
2A2
330
1F
100
AcDbEntity
  8
0
  6
Continuous
 62
     7
370
    15
100
AcDbLine
 10
2898.4996926934
 20
191.4446230285
 30
0.0
 11
2898.4996926934
 21
139.4589419715
 31
0.0
  0
LINE
  5
2A3
330
1F
100
AcDbEntity
  8
0
  6
Continuous
 62
     7
370
    15
100
AcDbLine
 10
2818.4996944816
 20
139.456766402
 30
0.0
 11
2818.4996944816
 21
191.4446230285
 31
0.0
  0
ARC
  5
2A4
330
1F
100
AcDbEntity
  8
0
  6
Continuous
 62
     7
370
    15
100
AcDbCircle
 10
2816.1206191666
 20
193.2721777055
 30
0.0
 40
3.000000000000129
100
AcDbArc
 50
322.4690897647
 51
142.4690897647
  0
LINE
  5
2A5
330
1F
100
AcDbEntity
  8
0
  6
Continuous
 62
     7
370
    15
100
AcDbLine
 10
2813.7415450961
 20
195.0997586601
 30
0.0
 11
2804.2578426153
 21
195.0997586601
 31
0.0
  0
ARC
  5
2A6
330
1F
100
AcDbEntity
  8
0
  6
Continuous
 62
     7
370
    15
100
AcDbCircle
 10
2801.8787680084
 20
193.2721777055
 30
0.0
 40
3.00000000000049
100
AcDbArc
 50
37.5309102353
 51
217.5309102353
  0
LINE
  5
2A7
330
1F
100
AcDbEntity
  8
0
  6
Continuous
 62
     7
370
    15
100
AcDbLine
 10
2799.4996932299
 20
191.4446230285
 30
0.0
 11
2799.4996932299
 21
142.8423996322
 31
0.0
  0
LINE
  5
2A8
330
1F
100
AcDbEntity
  8
0
  6
Continuous
 62
     7
370
    15
100
AcDbLine
 10
2661.7873487026
 20
221.1489851825
 30
0.0
 11
2661.7873487026
 21
221.1472566478
 31
0.0
  0
LINE
  5
2A9
330
1F
100
AcDbEntity
  8
0
  6
Continuous
 62
     7
370
    15
100
AcDbLine
 10
2799.4996932299
 20
142.8406710975
 30
0.0
 11
2799.4996932299
 21
142.8423996322
 31
0.0
  0
LWPOLYLINE
  5
2AA
330
1F
100
AcDbEntity
  8
0
  6
Continuous
 62
     7
370
    15
100
AcDbPolyline
 90
       12
 70
   128
 43
0.0
 10
2661.7873487026
 20
221.1472566478
 10
2672.4471327812
 20
210.03975228
 10
2683.6781677754
 20
199.7143502586
 10
2695.4392668755
 20
190.1710505836
 10
2707.6892134697
 20
181.4098830574
 10
2720.3868207485
 20
173.4308476799
 10
2733.4908721001
 20
166.2339444511
 10
2746.181371525
 20
160.1646716945
 10
2759.1620412619
 20
154.7906871192
 10
2772.398340419
 20
150.1120503299
 10
2785.8557355554
 20
146.1287017219
 10
2799.4996932299
 20
142.8406710975
  0
LINE
  5
2AB
330
1F
100
AcDbEntity
  8
0
  6
Continuous
 62
     7
370
    15
100
AcDbLine
 10
3055.2650121004
 20
221.1654956691
 30
0.0
 11
3055.2650121004
 21
221.1637671344
 31
0.0
  0
LWPOLYLINE
  5
2AC
330
1F
100
AcDbEntity
  8
0
  6
Continuous
 62
     7
370
    15
100
AcDbPolyline
 90
       12
 70
   128
 43
0.0
 10
2917.4996939451
 20
142.8406710975
 10
2931.9722530396
 20
146.3482852333
 10
2946.2327984125
 20
150.6372566574
 10
2960.2398750336
 20
155.7080920093
 10
2973.9520651252
 20
161.5612979286
 10
2987.3279062063
 20
168.1974406593
 10
3000.3259804995
 20
175.6170566432
 10
3012.1980634482
 20
183.3307321422
 10
3023.6627486498
 20
191.7418117874
 10
3034.6852865965
 20
200.8507128112
 10
3045.2309575827
 20
210.6578822486
 10
3055.2650121004
 20
221.1637671344
  0
LINE
  5
2AD
330
1F
100
AcDbEntity
  8
0
  6
Continuous
 62
     7
370
    15
100
AcDbLine
 10
2917.4996939451
 20
142.8423996322
 30
0.0
 11
2917.4996939451
 21
142.8406710975
 31
0.0
  0
ARC
  5
2AE
330
1F
100
AcDbEntity
  8
0
  6
Continuous
 62
     7
370
    15
100
AcDbCircle
 10
2669.2165249983
 20
227.8410943416
 30
0.0
 40
10.00000000000013
100
AcDbArc
 50
180.0000000022
 51
222.0194221584
  0
ARC
  5
2AF
330
1F
100
AcDbEntity
  8
0
  6
Continuous
 62
     7
370
    15
100
AcDbCircle
 10
3047.8309936538
 20
227.8522077708
 30
0.0
 40
10.00000000000004
100
AcDbArc
 50
318.0220407822
 51
0.0000000022
  0
LINE
  5
2B0
330
1F
100
AcDbEntity
  8
0
  6
Continuous
 62
     7
370
    15
100
AcDbLine
 10
2804.2578426153
 20
195.0997586601
 30
0.0
 11
2804.2578426153
 21
195.0980301254
 31
0.0
  0
ARC
  5
2B1
330
1F
100
AcDbEntity
  8
0
  6
Continuous
 62
     7
370
    15
100
AcDbCircle
 10
2801.8787680084
 20
193.2704516101
 30
0.0
 40
3.000000000000129
100
AcDbArc
 50
37.5309102353
 51
179.9999999816
  0
ARC
  5
2B2
330
1F
100
AcDbEntity
  8
0
  6
Continuous
 62
     7
370
    15
100
AcDbCircle
 10
2816.1206191666
 20
193.2704516101
 30
0.0
 40
3.00000000000049
100
AcDbArc
 50
359.9999999816
 51
142.4690897647
  0
LINE
  5
2B3
330
1F
100
AcDbEntity
  8
0
  6
Continuous
 62
     7
370
    15
100
AcDbLine
 10
2813.7415450961
 20
195.0997586601
 30
0.0
 11
2813.7415450961
 21
195.0980301254
 31
0.0
  0
LINE
  5
2B4
330
1F
100
AcDbEntity
  8
0
  6
Continuous
 62
     7
370
    15
100
AcDbLine
 10
2903.2578420789
 20
195.0997586601
 30
0.0
 11
2903.2578420789
 21
195.0980301254
 31
0.0
  0
ARC
  5
2B5
330
1F
100
AcDbEntity
  8
0
  6
Continuous
 62
     7
370
    15
100
AcDbCircle
 10
2900.8787680084
 20
193.2704516101
 30
0.0
 40
3.0
100
AcDbArc
 50
37.5309102353
 51
179.9999999816
  0
ARC
  5
2B6
330
1F
100
AcDbEntity
  8
0
  6
Continuous
 62
     7
370
    15
100
AcDbCircle
 10
2915.1206191666
 20
193.2704516101
 30
0.0
 40
3.0
100
AcDbArc
 50
359.9999999816
 51
142.4690897647
  0
LINE
  5
2B7
330
1F
100
AcDbEntity
  8
0
  6
Continuous
 62
     7
370
    15
100
AcDbLine
 10
2912.7415445597
 20
195.0997586601
 30
0.0
 11
2912.7415445597
 21
195.0980301254
 31
0.0
  0
LINE
  5
2B8
330
1F
100
AcDbEntity
  8
0
  6
Continuous
 62
     7
370
    15
100
AcDbLine
 10
2804.2578426153
 20
195.0980301254
 30
0.0
 11
2813.7415450961
 21
195.0980301254
 31
0.0
  0
LINE
  5
2B9
330
1F
100
AcDbEntity
  8
0
  6
Continuous
 62
     7
370
    15
100
AcDbLine
 10
2903.2578420789
 20
195.0980301254
 30
0.0
 11
2912.7415445597
 21
195.0980301254
 31
0.0
  0
ARC
  5
2BA
330
1F
100
AcDbEntity
  8
0
  6
Continuous
 62
     7
370
    15
100
AcDbCircle
 10
3153.9846070722
 20
221.5175998496
 30
0.0
 40
10.00000000082265
100
AcDbArc
 50
78.1250601832
 51
178.2791217567
  0
LWPOLYLINE
  5
2BB
330
1F
100
AcDbEntity
  8
0
  6
Continuous
 62
     7
370
    15
100
AcDbPolyline
 90
       16
 70
   128
 43
0.0
 10
3324.2964155979
 20
217.1299698821
 10
3312.4823763973
 20
217.2362871932
 10
3300.6507892169
 20
217.4965889709
 10
3288.8072066016
 20
217.875585105
 10
3276.9502371557
 20
218.363645045
 10
3265.13311714
 20
218.9560052831
 10
3253.2465167351
 20
219.6603701976
 10
3241.4968319244
 20
220.4697108972
 10
3229.5562930412
 20
221.4158049652
 10
3219.1187895841
 20
222.3551516363
 10
3208.3068646497
 20
223.4507929152
 10
3197.9850240059
 20
224.6293068217
 10
3187.154383213
 20
226.0271720319
 10
3176.9470281906
 20
227.522904308
 10
3166.048840434
 20
229.3534795445
 10
3156.0423679657
 20
231.3036039856
  0
LWPOLYLINE
  5
2BC
330
1F
100
AcDbEntity
  8
0
  6
Continuous
 62
     7
370
    15
100
AcDbPolyline
 90
       16
 70
   128
 43
0.0
 10
3492.5504632301
 20
231.3036039856
 10
3481.3496328897
 20
229.1393147139
 10
3469.3831361837
 20
227.1746714387
 10
3457.8108794994
 20
225.5390138074
 10
3445.9807135172
 20
224.0837268586
 10
3434.1906987138
 20
222.816958292
 10
3422.3951034255
 20
221.7061001587
 10
3410.4902602739
 20
220.7254761291
 10
3398.7284608192
 20
219.8815056228
 10
3388.033904881
 20
219.2139119243
 10
3377.4384565658
 20
218.6409267662
 10
3366.8024249382
 20
218.1515246253
 10
3356.0812219984
 20
217.7448427666
 10
3345.556522534
 20
217.4339515462
 10
3334.9291922531
 20
217.2175824966
 10
3324.2964155979
 20
217.1299698821
  0
ARC
  5
2BD
330
1F
100
AcDbEntity
  8
0
  6
Continuous
 62
     7
370
    15
100
AcDbCircle
 10
3494.6082241236
 20
221.5175998496
 30
0.0
 40
10.00000000082317
100
AcDbArc
 50
1.7208782433
 51
101.8749398214
  0
LWPOLYLINE
  5
2BE
330
1F
100
AcDbEntity
  8
0
  6
Continuous
 62
     7
370
    15
100
AcDbPolyline
 90
       19
 70
   128
 43
0.0
 10
3383.2964159555
 20
114.8615704259
 10
3396.3289417333
 20
118.2584780447
 10
3409.682550282
 20
122.3630784715
 10
3423.1002859778
 20
127.2207774002
 10
3436.325215549
 20
132.8770374297
 10
3445.5909512944
 20
137.4734379175
 10
3454.527006299
 20
142.5250323303
 10
3463.0372233696
 20
148.0488855897
 10
3471.025497467
 20
154.061949482
 10
3478.3956415958
 20
160.581234048
 10
3485.0515432663
 20
167.623718852
 10
3489.5168997354
 20
173.259165277
 10
3493.4858538217
 20
179.2056299759
 10
3496.9178445644
 20
185.4703334324
 10
3499.7723110027
 20
192.0604100978
 10
3502.0086921758
 20
198.9830235508
 10
3503.586427123
 20
206.2453654852
 10
3504.4649548835
 20
213.8545986363
 10
3504.6037144966
 20
221.8179144237
  0
LINE
  5
2BF
330
1F
100
AcDbEntity
  8
0
  6
Continuous
 62
     7
370
    15
100
AcDbLine
 10
3383.2964159555
 20
176.4764104389
 30
0.0
 11
3383.2964159555
 21
114.8615704259
 31
0.0
  0
ARC
  5
2C0
330
1F
100
AcDbEntity
  8
0
  6
Continuous
 62
     7
370
    15
100
AcDbCircle
 10
3381.3225103802
 20
178.7355464249
 30
0.0
 40
3.000000000000008
100
AcDbArc
 50
311.1451153165
 51
131.1451153165
  0
LINE
  5
2C1
330
1F
100
AcDbEntity
  8
0
  6
Continuous
 62
     7
370
    15
100
AcDbLine
 10
3368.2442277677
 20
180.9946967905
 30
0.0
 11
3379.3486066169
 21
180.9946967905
 31
0.0
  0
ARC
  5
2C2
330
1F
100
AcDbEntity
  8
0
  6
Continuous
 62
     7
370
    15
100
AcDbCircle
 10
3366.2703208156
 20
178.7355464249
 30
0.0
 40
3.000000000000307
100
AcDbArc
 50
48.8548846835
 51
228.8548846835
  0
LINE
  5
2C3
330
1F
100
AcDbEntity
  8
0
  6
Continuous
 62
     7
370
    15
100
AcDbLine
 10
3364.2964147038
 20
110.9722837935
 30
0.0
 11
3364.2964147038
 21
176.4764104389
 31
0.0
  0
ARC
  5
2C4
330
1F
100
AcDbEntity
  8
0
  6
Continuous
 62
     7
370
    15
100
AcDbCircle
 10
3325.3062831159
 20
346.5760939792
 30
0.0
 40
238.8082614468924
100
AcDbArc
 50
269.757708051
 51
279.3967272947
  0
ARC
  5
2C5
330
1F
100
AcDbEntity
  8
0
  6
Continuous
 62
     7
370
    15
100
AcDbCircle
 10
3323.2865480799
 20
346.5760939793
 30
0.0
 40
238.8082614469365
100
AcDbArc
 50
260.6032727053
 51
270.242291949
  0
LINE
  5
2C6
330
1F
100
AcDbEntity
  8
0
  6
Continuous
 62
     7
370
    15
100
AcDbLine
 10
3284.296416492
 20
176.9191942268
 30
0.0
 11
3284.296416492
 21
110.9722837935
 31
0.0
  0
ARC
  5
2C7
330
1F
100
AcDbEntity
  8
0
  6
Continuous
 62
     7
370
    15
100
AcDbCircle
 10
3282.0946890972
 20
178.9569390755
 30
0.0
 40
3.000000000000258
100
AcDbArc
 50
317.2150942113
 51
137.2150942113
  0
LINE
  5
2C8
330
1F
100
AcDbEntity
  8
0
  6
Continuous
 62
     7
370
    15
100
AcDbLine
 10
3269.6998685605
 20
180.9946967905
 30
0.0
 11
3279.8929631717
 21
180.9946967905
 31
0.0
  0
ARC
  5
2C9
330
1F
100
AcDbEntity
  8
0
  6
Continuous
 62
     7
370
    15
100
AcDbCircle
 10
3267.4981420986
 20
178.9569390755
 30
0.0
 40
2.999999999999924
100
AcDbArc
 50
42.7849057887
 51
222.7849057887
  0
LINE
  5
2CA
330
1F
100
AcDbEntity
  8
0
  6
Continuous
 62
     7
370
    15
100
AcDbLine
 10
3265.2964152403
 20
114.8615704259
 30
0.0
 11
3265.2964152403
 21
176.9191942268
 31
0.0
  0
LWPOLYLINE
  5
2CB
330
1F
100
AcDbEntity
  8
0
  6
Continuous
 62
     7
370
    15
100
AcDbPolyline
 90
       19
 70
   128
 43
0.0
 10
3143.9891166992
 20
221.8179144237
 10
3144.1278763122
 20
213.8545986363
 10
3145.0064040727
 20
206.2453654852
 10
3146.5841390199
 20
198.9830235508
 10
3148.8205201931
 20
192.0604100978
 10
3151.6749866314
 20
185.4703334324
 10
3155.1069773741
 20
179.2056299759
 10
3159.0759314604
 20
173.259165277
 10
3163.5412879295
 20
167.623718852
 10
3170.1971896
 20
160.581234048
 10
3177.5673337288
 20
154.061949482
 10
3185.5556078262
 20
148.0488855897
 10
3194.0658248968
 20
142.5250323303
 10
3203.0018799014
 20
137.4734379175
 10
3212.2676156468
 20
132.8770374297
 10
3225.492545218
 20
127.2207774002
 10
3238.9102809138
 20
122.3630784715
 10
3252.2638894624
 20
118.2584780447
 10
3265.2964152403
 20
114.8615704259
  0
LWPOLYLINE
  5
2CC
330
1F
100
AcDbEntity
  8
0
  6
Continuous
 62
     7
370
    15
100
AcDbPolyline
 90
       15
 70
   128
 43
0.0
 10
3592.6935542253
 20
220.6215245358
 10
3596.7180002359
 20
208.4698179129
 10
3601.0225433735
 20
196.660798116
 10
3605.6403387216
 20
185.2450429148
 10
3610.6045711664
 20
174.2731092886
 10
3615.9484106926
 20
163.7955512293
 10
3621.7050347356
 20
153.8629494941
 10
3627.9076132802
 20
144.5258966677
 10
3633.1155244139
 20
137.6403426781
 10
3638.6353168515
 20
131.1781865753
 10
3644.4830763963
 20
125.1639617336
 10
3650.6748963026
 20
119.6221778721
 10
3657.2268698243
 20
114.5773683651
 10
3664.1550902156
 20
110.0540784145
 10
3671.4756358293
 20
106.0768235918
  0
ARC
  5
2CD
330
1F
100
AcDbEntity
  8
0
  6
Continuous
 62
     7
370
    15
100
AcDbCircle
 10
3602.2273091494
 20
223.6393822844
 30
0.0
 40
10.0000000000002
100
AcDbArc
 50
80.432385781
 51
197.5649275358
  0
LWPOLYLINE
  5
2CE
330
1F
100
AcDbEntity
  8
0
  6
Continuous
 62
     7
370
    15
100
AcDbPolyline
 90
        7
 70
   128
 43
0.0
 10
3730.475636187
 20
222.4731693366
 10
3707.4923440692
 20
222.8574097546
 10
3684.2124666897
 20
224.0101132058
 10
3660.6360021857
 20
225.9312796903
 10
3641.903573635
 20
227.9798696871
 10
3622.9880470661
 20
230.5028675576
 10
3603.889422479
 20
233.5002925983
  0
LWPOLYLINE
  5
2CF
330
1F
100
AcDbEntity
  8
0
  6
Continuous
 62
     7
370
    15
100
AcDbPolyline
 90
        7
 70
   128
 43
0.0
 10
3857.0618498949
 20
233.5002925983
 10
3832.7862862376
 20
229.7677311526
 10
3808.8073152927
 20
226.8036505427
 10
3785.1249258844
 20
224.6080166573
 10
3766.7254004506
 20
223.4220043805
 10
3748.5089693097
 20
222.7103821748
 10
3730.475636187
 20
222.4731693366
  0
ARC
  5
2D0
330
1F
100
AcDbEntity
  8
0
  6
Continuous
 62
     7
370
    15
100
AcDbCircle
 10
3858.7239632245
 20
223.6393822844
 30
0.0
 40
10.00000000000018
100
AcDbArc
 50
342.4350724642
 51
99.567614219
  0
LWPOLYLINE
  5
2D1
330
1F
100
AcDbEntity
  8
0
  6
Continuous
 62
     7
370
    15
100
AcDbPolyline
 90
       15
 70
   128
 43
0.0
 10
3789.4756365446
 20
106.0768235918
 10
3796.7806476978
 20
110.0447979186
 10
3803.694995108
 20
114.5564886817
 10
3810.2346751717
 20
119.5875116405
 10
3816.4156693844
 20
125.1135062093
 10
3822.2539592413
 20
131.1101236301
 10
3827.6698905853
 20
137.4341392703
 10
3832.785816851
 20
144.1655071864
 10
3837.6168776182
 20
151.2811424088
 10
3842.1782199172
 20
158.7579658201
 10
3848.2565749315
 20
170.0199311913
 10
3853.8595531014
 20
181.9045569659
 10
3859.0312916664
 20
194.344581771
 10
3863.8159651188
 20
207.2726610728
 10
3868.2577181486
 20
220.6215245358
  0
LINE
  5
2D2
330
1F
100
AcDbEntity
  8
0
  6
Continuous
 62
     7
370
    15
100
AcDbLine
 10
3789.4756365446
 20
106.0768235918
 30
0.0
 11
3789.4756365446
 21
185.1400606504
 31
0.0
  0
ARC
  5
2D3
330
1F
100
AcDbEntity
  8
0
  6
Continuous
 62
     7
370
    15
100
AcDbCircle
 10
3787.4649579506
 20
187.3665260041
 30
0.0
 40
3.000000000000086
100
AcDbArc
 50
312.0845160684
 51
132.0845160684
  0
LINE
  5
2D4
330
1F
100
AcDbEntity
  8
0
  6
Continuous
 62
     7
370
    15
100
AcDbLine
 10
3785.4542787996
 20
189.5930018276
 30
0.0
 11
3774.4969930378
 21
189.5930018276
 31
0.0
  0
ARC
  5
2D5
330
1F
100
AcDbEntity
  8
0
  6
Continuous
 62
     7
370
    15
100
AcDbCircle
 10
3772.4863144233
 20
187.3665260041
 30
0.0
 40
3.000000000000086
100
AcDbArc
 50
47.9154839316
 51
227.9154839316
  0
LINE
  5
2D6
330
1F
100
AcDbEntity
  8
0
  6
Continuous
 62
     7
370
    15
100
AcDbLine
 10
3770.4756352929
 20
185.1400606504
 30
0.0
 11
3770.4756352929
 21
98.8603189014
 31
0.0
  0
ARC
  5
2D7
330
1F
100
AcDbEntity
  8
0
  6
Continuous
 62
     7
370
    15
100
AcDbCircle
 10
3731.5512347418
 20
240.656126012
 30
0.0
 40
147.0413542933517
100
AcDbArc
 50
269.5808811232
 51
285.350159543
  0
ARC
  5
2D8
330
1F
100
AcDbEntity
  8
0
  6
Continuous
 62
     7
370
    15
100
AcDbCircle
 10
3729.4352066966
 20
240.9245095237
 30
0.0
 40
147.3094780447366
100
AcDbArc
 50
254.664282628
 51
270.4046767058
  0
LINE
  5
2D9
330
1F
100
AcDbEntity
  8
0
  6
Continuous
 62
     7
370
    15
100
AcDbLine
 10
3690.475637081
 20
98.8603189014
 30
0.0
 11
3690.475637081
 21
185.3644913002
 31
0.0
  0
ARC
  5
2DA
330
1F
100
AcDbEntity
  8
0
  6
Continuous
 62
     7
370
    15
100
AcDbCircle
 10
3688.3472683566
 20
187.47874762
 30
0.0
 40
3.000000000000189
100
AcDbArc
 50
315.1906666197
 51
135.1906666197
  0
LINE
  5
2DB
330
1F
100
AcDbEntity
  8
0
  6
Continuous
 62
     7
370
    15
100
AcDbLine
 10
3686.2189005939
 20
189.5930018276
 30
0.0
 11
3675.7323723165
 21
189.5930018276
 31
0.0
  0
ARC
  5
2DC
330
1F
100
AcDbEntity
  8
0
  6
Continuous
 62
     7
370
    15
100
AcDbCircle
 10
3673.6040040174
 20
187.47874762
 30
0.0
 40
3.000000000000229
100
AcDbArc
 50
44.8093333803
 51
224.8093333803
  0
LINE
  5
2DD
330
1F
100
AcDbEntity
  8
0
  6
Continuous
 62
     7
370
    15
100
AcDbLine
 10
3671.4756358293
 20
185.3644913002
 30
0.0
 11
3671.4756358293
 21
106.0768235918
 31
0.0
  0
ARC
  5
2DE
330
1F
100
AcDbEntity
  8
0
  6
Continuous
 62
     7
370
    15
100
AcDbCircle
 10
1684.4878763085
 20
43.6443928095
 30
0.0
 40
9.999999999999961
100
AcDbArc
 50
75.4938197109
 51
171.9293277497
  0
LWPOLYLINE
  5
2DF
330
1F
100
AcDbEntity
  8
0
  6
Continuous
 62
     7
370
    15
100
AcDbPolyline
 90
       11
 70
   128
 43
0.0
 10
1783.4778892407
 20
42.6495244717
 10
1772.4824918965
 20
42.7663395582
 10
1761.6082782457
 20
43.1167442822
 10
1750.5851107249
 20
43.7197072055
 10
1739.732114465
 20
44.573392066
 10
1728.8177663991
 20
45.7126547493
 10
1720.2805670509
 20
46.8179696597
 10
1711.9981589326
 20
48.0881000924
 10
1703.396508337
 20
49.6338599923
 10
1695.0228082547
 20
51.3860851361
 10
1686.9927214989
 20
53.3255983408
  0
LWPOLYLINE
  5
2E0
330
1F
100
AcDbEntity
  8
0
  6
Continuous
 62
     7
370
    15
100
AcDbPolyline
 90
       11
 70
   128
 43
0.0
 10
1879.9630569825
 20
53.3255983408
 10
1871.4354800591
 20
51.2746177318
 10
1862.5211062441
 20
49.4342435455
 10
1853.4709083447
 20
47.8449409844
 10
1844.6295241425
 20
46.5349549553
 10
1835.5009312341
 20
45.4102871019
 10
1826.4577666828
 20
44.504268263
 10
1815.7821426699
 20
43.6809629621
 10
1804.9613403687
 20
43.1002088797
 10
1794.278279745
 20
42.7622057076
 10
1783.4778892407
 20
42.6495244717
  0
ARC
  5
2E1
330
1F
100
AcDbEntity
  8
0
  6
Continuous
 62
     7
370
    15
100
AcDbCircle
 10
1882.4679021729
 20
43.6443928095
 30
0.0
 40
10.00000000000008
100
AcDbArc
 50
8.0706722503
 51
104.5061802878
  0
LWPOLYLINE
  5
2E2
330
1F
100
AcDbEntity
  8
0
  6
Continuous
 62
     7
370
    15
100
AcDbPolyline
 90
       18
 70
   128
 43
0.0
 10
1842.4778895983
 20
-50.3469228879
 10
1848.1183963427
 20
-46.9890155035
 10
1853.6120223412
 20
-43.2147813984
 10
1858.9180501709
 20
-39.0381875914
 10
1863.9957773099
 20
-34.473219191
 10
1868.8044863352
 20
-29.5338686338
 10
1873.226078094
 20
-24.3318120606
 10
1877.3103448162
 20
-18.7953587705
 10
1881.0187148461
 20
-12.9377287738
 10
1884.312616528
 20
-6.7721894824
 10
1886.8719356665
 20
-1.0178323547
 10
1889.0426548729
 20
4.9620042643
 10
1890.7973038563
 20
11.1579138396
 10
1892.1084495792
 20
17.5604426654
 10
1892.9486292014
 20
24.1601803116
 10
1893.2903873334
 20
30.9476894454
 10
1893.1062834868
 20
37.9135562036
 10
1892.3688622722
 20
45.0483376415
  0
LINE
  5
2E3
330
1F
100
AcDbEntity
  8
0
  6
Continuous
 62
     7
370
    15
100
AcDbLine
 10
1842.4778895983
 20
12.150999796
 30
0.0
 11
1842.4778895983
 21
-50.3469228879
 31
0.0
  0
ARC
  5
2E4
330
1F
100
AcDbEntity
  8
0
  6
Continuous
 62
     7
370
    15
100
AcDbCircle
 10
1840.30716732
 20
14.2217379861
 30
0.0
 40
2.999999999999969
100
AcDbArc
 50
316.3503481659
 51
136.3503481659
  0
LINE
  5
2E5
330
1F
100
AcDbEntity
  8
0
  6
Continuous
 62
     7
370
    15
100
AcDbLine
 10
1827.8193342099
 20
16.2924779147
 30
0.0
 11
1838.1364437351
 21
16.2924779147
 31
0.0
  0
ARC
  5
2E6
330
1F
100
AcDbEntity
  8
0
  6
Continuous
 62
     7
370
    15
100
AcDbCircle
 10
1825.6486111615
 20
14.2217379861
 30
0.0
 40
3.000000000000048
100
AcDbArc
 50
43.6496518341
 51
223.6496518341
  0
LINE
  5
2E7
330
1F
100
AcDbEntity
  8
0
  6
Continuous
 62
     7
370
    15
100
AcDbLine
 10
1823.4778883466
 20
-58.3177261734
 30
0.0
 11
1823.4778883466
 21
12.150999796
 31
0.0
  0
ARC
  5
2E8
330
1F
100
AcDbEntity
  8
0
  6
Continuous
 62
     7
370
    15
100
AcDbCircle
 10
1786.2578586738
 20
75.4234426466
 30
0.0
 40
138.8237402110709
100
AcDbArc
 50
268.8525653982
 51
285.5518303208
  0
ARC
  5
2E9
330
1F
100
AcDbEntity
  8
0
  6
Continuous
 62
     7
370
    15
100
AcDbCircle
 10
1780.9299858533
 20
77.2598680209
 30
0.0
 40
140.6554070102567
100
AcDbArc
 50
254.5576626992
 51
271.0379415818
  0
LINE
  5
2EA
330
1F
100
AcDbEntity
  8
0
  6
Continuous
 62
     7
370
    15
100
AcDbLine
 10
1743.4778901348
 20
12.141364603
 30
0.0
 11
1743.4778901348
 21
-58.3177261734
 31
0.0
  0
ARC
  5
2EB
330
1F
100
AcDbEntity
  8
0
  6
Continuous
 62
     7
370
    15
100
AcDbCircle
 10
1741.3117717514
 20
14.2169219588
 30
0.0
 40
3.000000000000001
100
AcDbArc
 50
316.2230951624
 51
136.2230951624
  0
LINE
  5
2EC
330
1F
100
AcDbEntity
  8
0
  6
Continuous
 62
     7
370
    15
100
AcDbLine
 10
1728.8101258287
 20
16.2924779147
 30
0.0
 11
1739.1456531891
 21
16.2924779147
 31
0.0
  0
ARC
  5
2ED
330
1F
100
AcDbEntity
  8
0
  6
Continuous
 62
     7
370
    15
100
AcDbCircle
 10
1726.64400673
 20
14.2169219588
 30
0.0
 40
3.000000000000103
100
AcDbArc
 50
43.7769048376
 51
223.7769048376
  0
LINE
  5
2EE
330
1F
100
AcDbEntity
  8
0
  6
Continuous
 62
     7
370
    15
100
AcDbLine
 10
1724.4778888831
 20
-50.3469228879
 30
0.0
 11
1724.4778888831
 21
12.141364603
 31
0.0
  0
LWPOLYLINE
  5
2EF
330
1F
100
AcDbEntity
  8
0
  6
Continuous
 62
     7
370
    15
100
AcDbPolyline
 90
       18
 70
   128
 43
0.0
 10
1674.5869162092
 20
45.0483376415
 10
1673.8728525648
 20
38.2642191291
 10
1673.6596989045
 20
31.6322290205
 10
1673.9239188442
 20
25.1604537609
 10
1674.6419312963
 20
18.8569854069
 10
1675.7901924262
 20
12.7299157844
 10
1677.3451434979
 20
6.7873296221
 10
1679.6678172955
 20
0.0314302524
 10
1682.4840920577
 20
-6.4437336811
 10
1685.7554110298
 20
-12.6249094226
 10
1689.4432025561
 20
-18.4988569251
 10
1693.5955228815
 20
-24.1622309816
 10
1698.1003599772
 20
-29.4778402625
 10
1702.9167207489
 20
-34.4316244306
 10
1708.0036270032
 20
-39.0094923502
 10
1713.320115448
 20
-43.1973783035
 10
1718.8251929888
 20
-46.981214625
 10
1724.4778888831
 20
-50.3469228879
  0
ARC
  5
2F0
330
1F
100
AcDbEntity
  8
0
  6
Continuous
 62
     7
370
    15
100
AcDbCircle
 10
2036.2800258809
 20
13.6121676506
 30
0.0
 40
3.00000000000023
100
AcDbArc
 50
314.2278174376
 51
134.2278174375
  0
LINE
  5
2F1
330
1F
100
AcDbEntity
  8
0
  6
Continuous
 62
     7
370
    15
100
AcDbLine
 10
2034.1874855016
 20
15.761883066
 30
0.0
 11
2023.5576453064
 21
15.761883066
 31
0.0
  0
ARC
  5
2F2
330
1F
100
AcDbEntity
  8
0
  6
Continuous
 62
     7
370
    15
100
AcDbCircle
 10
2021.4651043908
 20
13.6121676506
 30
0.0
 40
3.000000000000163
100
AcDbArc
 50
45.7721825625
 51
225.7721825624
  0
LINE
  5
2F3
330
1F
100
AcDbEntity
  8
0
  6
Continuous
 62
     7
370
    15
100
AcDbLine
 10
2019.3725647782
 20
11.4624519774
 30
0.0
 11
2019.3725647782
 21
-47.4615425132
 31
0.0
  0
LWPOLYLINE
  5
2F4
330
1F
100
AcDbEntity
  8
0
  6
Continuous
 62
     7
370
    15
100
AcDbPolyline
 90
       17
 70
   128
 43
0.0
 10
1958.9393036817
 20
41.0784981484
 10
1958.7362753604
 20
34.6582490936
 10
1959.0706797694
 20
28.4066206862
 10
1959.9133478855
 20
22.3286956165
 10
1961.2350808834
 20
16.4295825428
 10
1963.0067171906
 20
10.7143715479
 10
1965.1990579818
 20
5.1881564578
 10
1968.2833152269
 20
-1.0753156228
 10
1971.8636395787
 20
-7.0608386509
 10
1975.8922802661
 20
-12.7600806345
 10
1980.3214492653
 20
-18.1646948916
 10
1986.0502677415
 20
-24.2030412227
 10
1992.1984272455
 20
-29.7979377425
 10
1998.6853422974
 20
-34.9353080616
 10
2005.4303976153
 20
-39.6010831832
 10
2012.3530077194
 20
-43.7811868126
 10
2019.3725647782
 20
-47.4615425132
  0
ARC
  5
2F5
330
1F
100
AcDbEntity
  8
0
  6
Continuous
 62
     7
370
    15
100
AcDbCircle
 10
1968.9120037613
 20
40.3401157466
 30
0.0
 40
10.00000000008019
100
AcDbArc
 50
75.4817068091
 51
175.76552082
  0
LWPOLYLINE
  5
2F6
330
1F
100
AcDbEntity
  8
0
  6
Continuous
 62
     7
370
    15
100
AcDbPolyline
 90
       10
 70
   128
 43
0.0
 10
2078.3725651358
 20
38.6243978513
 10
2063.1326008965
 20
38.8071503302
 10
2048.1585758184
 20
39.3608786014
 10
2033.0873215948
 20
40.3278523485
 10
2017.9064283525
 20
41.7680625765
 10
2008.4166126703
 20
42.936818564
 10
1999.2586942767
 20
44.2857523252
 10
1989.6423565601
 20
45.9639263371
 10
1980.3096698974
 20
47.8840322426
 10
1971.4188920711
 20
50.0207933471
  0
LWPOLYLINE
  5
2F7
330
1F
100
AcDbEntity
  8
0
  6
Continuous
 62
     7
370
    15
100
AcDbPolyline
 90
       11
 70
   128
 43
0.0
 10
2185.3262382005
 20
50.0207933472
 10
2177.2621767972
 20
48.0693889487
 10
2168.8327091192
 20
46.2969757627
 10
2160.0378277157
 20
44.7035630767
 10
2151.6975136851
 20
43.406543269
 10
2143.1939201807
 20
42.2770407109
 10
2134.4155865167
 20
41.2964045916
 10
2125.8099386846
 20
40.5021175969
 10
2110.0295903538
 20
39.4350012963
 10
2094.329175577
 20
38.8249638665
 10
2078.3725651358
 20
38.6243978513
  0
ARC
  5
2F8
330
1F
100
AcDbEntity
  8
0
  6
Continuous
 62
     7
370
    15
100
AcDbCircle
 10
2187.8331265103
 20
40.3401157467
 30
0.0
 40
10.00000000008006
100
AcDbArc
 50
4.23447918
 51
104.5182931909
  0
LWPOLYLINE
  5
2F9
330
1F
100
AcDbEntity
  8
0
  6
Continuous
 62
     7
370
    15
100
AcDbPolyline
 90
       17
 70
   128
 43
0.0
 10
2137.3725654934
 20
-47.4615425132
 10
2144.8744507884
 20
-43.5082871851
 10
2152.2591682528
 20
-38.9849613095
 10
2159.4282212113
 20
-33.9087536776
 10
2166.2831353401
 20
-28.2968679595
 10
2171.3845925783
 20
-23.5229251208
 10
2176.1835487937
 20
-18.4372469857
 10
2180.6322159623
 20
-13.0481655461
 10
2184.6828358625
 20
-7.3640275783
 10
2188.287627921
 20
-1.3931649325
 10
2191.3988264655
 20
4.8560755203
 10
2193.9686583732
 20
11.3753470981
 10
2195.949357972
 20
18.1563103695
 10
2197.0611932133
 20
23.6623646263
 10
2197.7566676591
 20
29.3207785225
 10
2198.0126025532
 20
35.1275080827
 10
2197.8058265899
 20
41.0784981484
  0
LINE
  5
2FA
330
1F
100
AcDbEntity
  8
0
  6
Continuous
 62
     7
370
    15
100
AcDbLine
 10
2137.3725654934
 20
-47.4615425132
 30
0.0
 11
2137.3725654934
 21
11.5727562631
 31
0.0
  0
ARC
  5
2FB
330
1F
100
AcDbEntity
  8
0
  6
Continuous
 62
     7
370
    15
100
AcDbCircle
 10
2135.2248231538
 20
13.6673183477
 30
0.0
 40
3.000000000000398
100
AcDbArc
 50
315.7181544428
 51
135.7181544428
  0
LINE
  5
2FC
330
1F
100
AcDbEntity
  8
0
  6
Continuous
 62
     7
370
    15
100
AcDbLine
 10
2133.0770822619
 20
15.761883066
 30
0.0
 11
2122.6680474733
 21
15.761883066
 31
0.0
  0
ARC
  5
2FD
330
1F
100
AcDbEntity
  8
0
  6
Continuous
 62
     7
370
    15
100
AcDbCircle
 10
2120.5203071178
 20
13.6673183477
 30
0.0
 40
2.99999999999991
100
AcDbArc
 50
44.2818455572
 51
224.2818455572
  0
LINE
  5
2FE
330
1F
100
AcDbEntity
  8
0
  6
Continuous
 62
     7
370
    15
100
AcDbLine
 10
2118.3725642417
 20
11.5727562631
 30
0.0
 11
2118.3725642417
 21
-54.8187274013
 31
0.0
  0
ARC
  5
2FF
330
1F
100
AcDbEntity
  8
0
  6
Continuous
 62
     7
370
    15
100
AcDbCircle
 10
2080.5369991364
 20
81.7714139286
 30
0.0
 40
141.7335411797684
100
AcDbArc
 50
269.1249936121
 51
285.4827689227
  0
ARC
  5
300
330
1F
100
AcDbEntity
  8
0
  6
Continuous
 62
     7
370
    15
100
AcDbCircle
 10
2076.388165251
 20
83.176045096
 30
0.0
 40
143.1354010044911
100
AcDbArc
 50
254.5978750643
 51
270.7943624009
  0
LINE
  5
301
330
1F
100
AcDbEntity
  8
0
  6
Continuous
 62
     7
370
    15
100
AcDbLine
 10
2038.3725660299
 20
-54.8187274013
 30
0.0
 11
2038.3725660299
 21
11.4624519774
 31
0.0
  0
ARC
  5
302
330
1F
100
AcDbEntity
  8
0
  6
Continuous
 62
     7
370
    15
100
AcDbCircle
 10
2289.4477034028
 20
39.1443739671
 30
0.0
 40
10.00000000000009
100
AcDbArc
 50
70.6637965177
 51
214.2685955392
  0
LWPOLYLINE
  5
303
330
1F
100
AcDbEntity
  8
0
  6
Continuous
 62
     7
370
    15
100
AcDbPolyline
 90
       13
 70
   128
 43
0.0
 10
2431.8844009415
 20
30.8405158705
 10
2418.4303241075
 20
30.9512563319
 10
2405.3521197513
 20
31.2834520238
 10
2392.2847736851
 20
31.8566012742
 10
2378.9190467671
 20
32.7180124949
 10
2366.0749946014
 20
33.8397157206
 10
2353.07745675
 20
35.3072982549
 10
2342.9314051048
 20
36.7177609978
 10
2332.631715037
 20
38.4217755718
 10
2322.4950064198
 20
40.4074894729
 10
2312.4649901167
 20
42.7235110641
 10
2302.3986596838
 20
45.4695149962
 10
2292.7588153855
 20
48.5802905205
  0
LWPOLYLINE
  5
304
330
1F
100
AcDbEntity
  8
0
  6
Continuous
 62
     7
370
    15
100
AcDbPolyline
 90
       14
 70
   128
 43
0.0
 10
2564.0537668244
 20
46.2838993873
 10
2555.6108359472
 20
43.842666219
 10
2546.6758985297
 20
41.6077932177
 10
2537.248969473
 20
39.579261808
 10
2527.8051424996
 20
37.8379369387
 10
2518.564030923
 20
36.3797909677
 10
2509.3216974512
 20
35.1352737541
 10
2499.9603633062
 20
34.0702853354
 10
2490.8974025623
 20
33.2082517783
 10
2479.2657945529
 20
32.3222995311
 10
2467.2295604125
 20
31.64215852
 10
2455.6433525161
 20
31.1936021804
 10
2443.9126918317
 20
30.9287878509
 10
2431.8844009415
 20
30.8405158705
  0
ARC
  5
305
330
1F
100
AcDbEntity
  8
0
  6
Continuous
 62
     7
370
    15
100
AcDbCircle
 10
2567.0183706217
 20
36.7334437536
 30
0.0
 40
10.00000000000003
100
AcDbArc
 50
322.2687128556
 51
107.2450875191
  0
LWPOLYLINE
  5
306
330
1F
100
AcDbEntity
  8
0
  6
Continuous
 62
     7
370
    15
100
AcDbPolyline
 90
       12
 70
   128
 43
0.0
 10
2490.8844012991
 20
-53.1724302964
 10
2498.6173290984
 20
-48.3981408635
 10
2506.2170479671
 20
-43.0104869911
 10
2513.6714507119
 20
-37.088878719
 10
2520.9684375898
 20
-30.712720358
 10
2528.095908858
 20
-23.9614423583
 10
2535.0417647735
 20
-16.9144694409
 10
2541.7939055935
 20
-9.6512014407
 10
2550.7395718471
 20
0.5430616508
 10
2559.264652826
 20
10.7896265277
 10
2567.3376996294
 20
20.8820404605
 10
2574.9272633568
 20
30.6138572544
  0
LINE
  5
307
330
1F
100
AcDbEntity
  8
0
  6
Continuous
 62
     7
370
    15
100
AcDbLine
 10
2490.8844012991
 20
-4.7295304958
 30
0.0
 11
2490.8844012991
 21
-53.1724302964
 31
0.0
  0
ARC
  5
308
330
1F
100
AcDbEntity
  8
0
  6
Continuous
 62
     7
370
    15
100
AcDbCircle
 10
2488.8516180298
 20
-2.5232173188
 30
0.0
 40
3.000000000000254
100
AcDbArc
 50
312.6559382856
 51
132.6559382856
  0
LINE
  5
309
330
1F
100
AcDbEntity
  8
0
  6
Continuous
 62
     7
370
    15
100
AcDbLine
 10
2475.9499658123
 20
-0.3169169066
 30
0.0
 11
2486.8188355342
 21
-0.3169169066
 31
0.0
  0
ARC
  5
30A
330
1F
100
AcDbEntity
  8
0
  6
Continuous
 62
     7
370
    15
100
AcDbCircle
 10
2473.9171838532
 20
-2.5232173188
 30
0.0
 40
3.000000000000004
100
AcDbArc
 50
47.3440617144
 51
227.3440617145
  0
LINE
  5
30B
330
1F
100
AcDbEntity
  8
0
  6
Continuous
 62
     7
370
    15
100
AcDbLine
 10
2471.8844000474
 20
-61.8724312164
 30
0.0
 11
2471.8844000474
 21
-4.7295304958
 31
0.0
  0
LWPOLYLINE
  5
30C
330
1F
100
AcDbEntity
  8
0
  6
Continuous
 62
     7
370
    15
100
AcDbPolyline
 90
       10
 70
   128
 43
0.0
 10
2391.8844018356
 20
-61.1389529527
 10
2400.657615088
 20
-63.8153679821
 10
2409.5357530043
 20
-65.8940919289
 10
2418.4937834964
 20
-67.3505829608
 10
2427.5066795983
 20
-68.1602596783
 10
2436.5494106189
 20
-68.2985700439
 10
2445.4354861975
 20
-67.7571606751
 10
2454.3024845646
 20
-66.5211758822
 10
2463.1266933159
 20
-64.5673421391
 10
2471.8844000474
 20
-61.8724312164
  0
LINE
  5
30D
330
1F
100
AcDbEntity
  8
0
  6
Continuous
 62
     7
370
    15
100
AcDbLine
 10
2391.8844018356
 20
-4.564617569
 30
0.0
 11
2391.8844018356
 21
-61.1389529527
 31
0.0
  0
ARC
  5
30E
330
1F
100
AcDbEntity
  8
0
  6
Continuous
 62
     7
370
    15
100
AcDbCircle
 10
2389.7656169152
 20
-2.4407632583
 30
0.0
 40
3.000000000000186
100
AcDbArc
 50
314.9315362542
 51
134.9315362543
  0
LINE
  5
30F
330
1F
100
AcDbEntity
  8
0
  6
Continuous
 62
     7
370
    15
100
AcDbLine
 10
2377.1219704524
 20
-0.3169169066
 30
0.0
 11
2387.646831967
 21
-0.3169169066
 31
0.0
  0
ARC
  5
310
330
1F
100
AcDbEntity
  8
0
  6
Continuous
 62
     7
370
    15
100
AcDbCircle
 10
2375.0031849678
 20
-2.4407632583
 30
0.0
 40
3.000000000000115
100
AcDbArc
 50
45.0684637457
 51
225.0684637458
  0
LINE
  5
311
330
1F
100
AcDbEntity
  8
0
  6
Continuous
 62
     7
370
    15
100
AcDbLine
 10
2372.8844005839
 20
-53.1724302964
 30
0.0
 11
2372.8844005839
 21
-4.564617569
 31
0.0
  0
LWPOLYLINE
  5
312
330
1F
100
AcDbEntity
  8
0
  6
Continuous
 62
     7
370
    15
100
AcDbPolyline
 90
       11
 70
   128
 43
0.0
 10
2281.1836380736
 20
33.5136393733
 10
2289.6132994667
 20
21.6356732268
 10
2298.5358465687
 20
10.0762513826
 10
2307.9389114157
 20
-1.06563991
 10
2317.8101632968
 20
-11.6910107314
 10
2328.1372342483
 20
-21.7008507517
 10
2336.5630883948
 20
-29.0694327463
 10
2345.2567238585
 20
-35.9488961466
 10
2354.2121503726
 20
-42.2912273994
 10
2363.4233702198
 20
-48.0484084751
 10
2372.8844005839
 20
-53.1724302964
  0
ARC
  5
313
330
1F
100
AcDbEntity
  8
0
  6
Continuous
 62
     7
370
    15
100
AcDbCircle
 10
2673.0927757301
 20
33.5060033658
 30
0.0
 40
10.0
100
AcDbArc
 50
71.239487419
 51
213.3866034252
  0
LWPOLYLINE
  5
314
330
1F
100
AcDbEntity
  8
0
  6
Continuous
 62
     7
370
    15
100
AcDbPolyline
 90
       15
 70
   128
 43
0.0
 10
2830.6773203183
 20
24.4612270018
 10
2817.8076456059
 20
24.5422220365
 10
2805.2987671215
 20
24.7851679586
 10
2793.1506867278
 20
25.1900697786
 10
2780.296341585
 20
25.8172572103
 10
2767.7502306867
 20
26.6476250228
 10
2755.6714462806
 20
27.6747278039
 10
2742.8927543331
 20
29.0356364956
 10
2732.9719933439
 20
30.3123529621
 10
2723.4394895602
 20
31.7448291462
 10
2714.2952504326
 20
33.3330563924
 10
2703.982730465
 20
35.4125597203
 10
2694.1950815488
 20
37.7162208632
 10
2684.9704730082
 20
40.2369428501
 10
2676.3089048434
 20
42.9747152029
  0
LWPOLYLINE
  5
315
330
1F
100
AcDbEntity
  8
0
  6
Continuous
 62
     7
370
    15
100
AcDbPolyline
 90
       15
 70
   128
 43
0.0
 10
2985.0255745221
 20
42.9678642762
 10
2976.3936447669
 20
40.2397290587
 10
2967.2024595309
 20
37.7271314974
 10
2957.4520188142
 20
35.4300469904
 10
2947.1656205822
 20
33.3528437076
 10
2938.044537859
 20
31.7657591939
 10
2928.7096085716
 20
30.3580012052
 10
2919.0013530422
 20
29.0998637098
 10
2908.9197638202
 20
27.9913467079
 10
2899.7226404715
 20
27.138311513
 10
2886.1485282648
 20
26.1268119494
 10
2872.0079521406
 20
25.3535160588
 10
2858.521121623
 20
24.8533765107
 10
2844.8177641947
 20
24.5592778196
 10
2830.6773203183
 20
24.4612270018
  0
ARC
  5
316
330
1F
100
AcDbEntity
  8
0
  6
Continuous
 62
     7
370
    15
100
AcDbCircle
 10
2988.2407071222
 20
33.4988149775
 30
0.0
 40
10.00000000000016
100
AcDbArc
 50
326.6006272771
 51
108.7544441808
  0
LWPOLYLINE
  5
317
330
1F
100
AcDbEntity
  8
0
  6
Continuous
 62
     7
370
    15
100
AcDbPolyline
 90
       13
 70
   128
 43
0.0
 10
2889.6773206759
 20
-61.7018073368
 10
2900.1775058676
 20
-57.5320809573
 10
2910.3752943445
 20
-52.6850486706
 10
2920.2603297997
 20
-47.2048637787
 10
2929.8222559262
 20
-41.1356668309
 10
2939.0507089663
 20
-34.5216279892
 10
2947.9353400636
 20
-27.4068855234
 10
2956.4657854605
 20
-19.8355972944
 10
2965.4278206397
 20
-11.0325747034
 10
2973.9349680711
 20
-1.7893180811
 10
2981.9734590817
 20
7.8353851864
 10
2989.5294653941
 20
17.7827846156
 10
2996.5892481375
 20
27.9940964655
  0
LINE
  5
318
330
1F
100
AcDbEntity
  8
0
  6
Continuous
 62
     7
370
    15
100
AcDbLine
 10
2889.6773206759
 20
-5.073740742
 30
0.0
 11
2889.6773206759
 21
-61.7018073368
 31
0.0
  0
ARC
  5
319
330
1F
100
AcDbEntity
  8
0
  6
Continuous
 62
     7
370
    15
100
AcDbCircle
 10
2887.5563091408
 20
-2.952112527
 30
0.0
 40
3.000000000000104
100
AcDbArc
 50
314.9916501909
 51
134.9916501909
  0
LINE
  5
31A
330
1F
100
AcDbEntity
  8
0
  6
Continuous
 62
     7
370
    15
100
AcDbLine
 10
2874.9193410147
 20
-0.830476249
 30
0.0
 11
2885.4352990855
 21
-0.830476249
 31
0.0
  0
ARC
  5
31B
330
1F
100
AcDbEntity
  8
0
  6
Continuous
 62
     7
370
    15
100
AcDbCircle
 10
2872.7983314958
 20
-2.952112527
 30
0.0
 40
3.00000000000021
100
AcDbArc
 50
45.008349809
 51
225.0083498091
  0
LINE
  5
31C
330
1F
100
AcDbEntity
  8
0
  6
Continuous
 62
     7
370
    15
100
AcDbLine
 10
2870.6773194242
 20
-67.26815872
 30
0.0
 11
2870.6773194242
 21
-5.073740742
 31
0.0
  0
ARC
  5
31D
330
1F
100
AcDbEntity
  8
0
  6
Continuous
 62
     7
370
    15
100
AcDbCircle
 10
2830.6739769578
 20
107.0774471275
 30
0.0
 40
178.8760959067142
100
AcDbArc
 50
257.0794461335
 51
282.9227513363
  0
LINE
  5
31E
330
1F
100
AcDbEntity
  8
0
  6
Continuous
 62
     7
370
    15
100
AcDbLine
 10
2790.6773212124
 20
-5.0049389531
 30
0.0
 11
2790.6773212124
 21
-67.2696928433
 31
0.0
  0
ARC
  5
31F
330
1F
100
AcDbEntity
  8
0
  6
Continuous
 62
     7
370
    15
100
AcDbCircle
 10
2788.5224474628
 20
-2.9177116021
 30
0.0
 40
3.000000000000143
100
AcDbArc
 50
315.9135579283
 51
135.9135579283
  0
LINE
  5
320
330
1F
100
AcDbEntity
  8
0
  6
Continuous
 62
     7
370
    15
100
AcDbLine
 10
2775.9870673288
 20
-0.8304762491
 30
0.0
 11
2786.3675738443
 21
-0.8304762491
 31
0.0
  0
ARC
  5
321
330
1F
100
AcDbEntity
  8
0
  6
Continuous
 62
     7
370
    15
100
AcDbCircle
 10
2773.8321931738
 20
-2.9177116021
 30
0.0
 40
2.999999999999968
100
AcDbArc
 50
44.0864420718
 51
224.0864420717
  0
LINE
  5
322
330
1F
100
AcDbEntity
  8
0
  6
Continuous
 62
     7
370
    15
100
AcDbLine
 10
2771.6773199607
 20
-61.7018073368
 30
0.0
 11
2771.6773199607
 21
-5.0049389531
 31
0.0
  0
LWPOLYLINE
  5
323
330
1F
100
AcDbEntity
  8
0
  6
Continuous
 62
     7
370
    15
100
AcDbPolyline
 90
       12
 70
   128
 43
0.0
 10
2664.7430109549
 20
28.0031508424
 10
2672.230486827
 20
17.2010217107
 10
2680.2812265921
 20
6.692258154
 10
2688.8780343104
 20
-3.4519113291
 10
2698.0036991406
 20
-13.1602791969
 10
2707.641002791
 20
-22.3616365418
 10
2717.7727269698
 20
-30.9847844778
 10
2727.7628826667
 20
-38.5215938997
 10
2738.1628500987
 20
-45.4213896666
 10
2748.9581974912
 20
-51.624479957
 10
2760.1344930697
 20
-57.071187981
 10
2771.6773199607
 20
-61.7018073368
  0
ARC
  5
324
330
1F
100
AcDbEntity
  8
0
  6
Continuous
 62
     7
370
    15
100
AcDbCircle
 10
3102.8065132468
 20
21.7377056408
 30
0.0
 40
10.00000000000032
100
AcDbArc
 50
71.6852919265
 51
212.7274277378
  0
LWPOLYLINE
  5
325
330
1F
100
AcDbEntity
  8
0
  6
Continuous
 62
     7
370
    15
100
AcDbPolyline
 90
       15
 70
   128
 43
0.0
 10
3274.4637488378
 20
11.6431788251
 10
3260.3848132295
 20
11.7275199208
 10
3246.7263082964
 20
11.9804808737
 10
3233.4882340384
 20
12.402099008
 10
3219.4405964566
 20
13.0589361383
 10
3205.7375594032
 20
13.93056565
 10
3192.5614981902
 20
15.0099316123
 10
3178.6070524705
 20
16.4452155609
 10
3167.7703245533
 20
17.7950736343
 10
3157.3609246862
 20
19.3116515664
 10
3147.3788379682
 20
20.9949529299
 10
3136.1346452487
 20
23.199044137
 10
3125.4608987821
 20
25.643527148
 10
3115.3989641917
 20
28.3208998061
 10
3105.94887128
 20
31.2311585385
  0
LWPOLYLINE
  5
326
330
1F
100
AcDbEntity
  8
0
  6
Continuous
 62
     7
370
    15
100
AcDbPolyline
 90
       16
 70
   128
 43
0.0
 10
3442.9116009725
 20
31.2089758285
 10
3433.4776460183
 20
28.3063095629
 10
3423.4347104085
 20
25.6356043824
 10
3412.7827792418
 20
23.1968638598
 10
3401.5475272191
 20
20.9947216827
 10
3391.5979548347
 20
19.3166441357
 10
3381.4114241851
 20
17.8296218403
 10
3370.8140089167
 20
16.5022563272
 10
3359.8056941283
 20
15.3345307205
 10
3349.7868089927
 20
14.4397470623
 10
3337.4956308854
 20
13.539035127
 10
3324.7622161162
 20
12.8125972044
 10
3312.1386340809
 20
12.2798062967
 10
3299.9332065684
 20
11.9261319107
 10
3287.3749111769
 20
11.7139215626
 10
3274.4637488378
 20
11.6431788251
  0
ARC
  5
327
330
1F
100
AcDbEntity
  8
0
  6
Continuous
 62
     7
370
    15
100
AcDbCircle
 10
3446.0509790175
 20
21.7145462607
 30
0.0
 40
10.00000000009375
100
AcDbArc
 50
327.207609764
 51
108.2966767871
  0
LWPOLYLINE
  5
328
330
1F
100
AcDbEntity
  8
0
  6
Continuous
 62
     7
370
    15
100
AcDbPolyline
 90
       13
 70
   128
 43
0.0
 10
3333.4637491954
 20
-77.0776450846
 10
3345.2669366253
 20
-72.9270225709
 10
3356.8361609233
 20
-68.0419643389
 10
3368.1327535761
 20
-62.4674009277
 10
3379.1180237186
 20
-56.2481953734
 10
3389.7532953871
 20
-49.4292256109
 10
3399.9998926175
 20
-42.055419595
 10
3409.8191319955
 20
-34.1716358005
 10
3420.0805186284
 20
-24.9640737139
 10
3429.7265320075
 20
-15.2535076037
 10
3438.7056588185
 20
-5.0997021952
 10
3446.9664304507
 20
5.4375752019
 10
3454.4573633922
 20
16.2985874565
  0
LINE
  5
329
330
1F
100
AcDbEntity
  8
0
  6
Continuous
 62
     7
370
    15
100
AcDbLine
 10
3333.4637491954
 20
-17.6066874711
 30
0.0
 11
3333.4637491954
 21
-77.0776450846
 31
0.0
  0
ARC
  5
32A
330
1F
100
AcDbEntity
  8
0
  6
Continuous
 62
     7
370
    15
100
AcDbCircle
 10
3331.2668290391
 20
-15.5637730004
 30
0.0
 40
3.000000000001287
100
AcDbArc
 50
317.0801145788
 51
137.0801145791
  0
LINE
  5
32B
330
1F
100
AcDbEntity
  8
0
  6
Continuous
 62
     7
370
    15
100
AcDbLine
 10
3318.857590015
 20
-13.5208436893
 30
0.0
 11
3329.0699108494
 21
-13.5208436893
 31
0.0
  0
ARC
  5
32C
330
1F
100
AcDbEntity
  8
0
  6
Continuous
 62
     7
370
    15
100
AcDbCircle
 10
3316.6606686364
 20
-15.5637730004
 30
0.0
 40
3.000000000000336
100
AcDbArc
 50
42.9198854209
 51
222.919885421
  0
LINE
  5
32D
330
1F
100
AcDbEntity
  8
0
  6
Continuous
 62
     7
370
    15
100
AcDbLine
 10
3314.4637479437
 20
-82.0522799361
 30
0.0
 11
3314.4637479437
 21
-17.6066874711
 31
0.0
  0
ARC
  5
32E
330
1F
100
AcDbEntity
  8
0
  6
Continuous
 62
     7
370
    15
100
AcDbCircle
 10
3274.457678218
 20
109.7501776172
 30
0.0
 40
195.9302639675214
100
AcDbArc
 50
258.2218183801
 51
281.7818084618
  0
LINE
  5
32F
330
1F
100
AcDbEntity
  8
0
  6
Continuous
 62
     7
370
    15
100
AcDbLine
 10
3234.4637497318
 20
-17.7329308467
 30
0.0
 11
3234.4637497318
 21
-82.0548119493
 31
0.0
  0
ARC
  5
330
330
1F
100
AcDbEntity
  8
0
  6
Continuous
 62
     7
370
    15
100
AcDbCircle
 10
3232.3272578656
 20
-15.626888232
 30
0.0
 40
3.00000000000137
100
AcDbArc
 50
315.4112302242
 51
135.4112302243
  0
LINE
  5
331
330
1F
100
AcDbEntity
  8
0
  6
Continuous
 62
     7
370
    15
100
AcDbLine
 10
3219.7367309583
 20
-13.5208436893
 30
0.0
 11
3230.1907672537
 21
-13.5208436893
 31
0.0
  0
ARC
  5
332
330
1F
100
AcDbEntity
  8
0
  6
Continuous
 62
     7
370
    15
100
AcDbCircle
 10
3217.6002398099
 20
-15.626888232
 30
0.0
 40
3.000000000000401
100
AcDbArc
 50
44.5887697757
 51
224.5887697757
  0
LINE
  5
333
330
1F
100
AcDbEntity
  8
0
  6
Continuous
 62
     7
370
    15
100
AcDbLine
 10
3215.4637484801
 20
-77.0776450846
 30
0.0
 11
3215.4637484801
 21
-17.7329308467
 31
0.0
  0
LWPOLYLINE
  5
334
330
1F
100
AcDbEntity
  8
0
  6
Continuous
 62
     7
370
    15
100
AcDbPolyline
 90
       12
 70
   128
 43
0.0
 10
3094.3939893496
 20
16.331275954
 10
3102.319022919
 20
4.8677826778
 10
3111.1237167371
 20
-6.2451879261
 10
3120.7444428456
 20
-16.9337475637
 10
3131.1175583852
 20
-27.1239618752
 10
3142.1794204963
 20
-36.7419185453
 10
3153.8664161218
 20
-45.7137169655
 10
3165.4009579671
 20
-53.5145926067
 10
3177.3813053024
 20
-60.6133790212
 10
3189.7541119707
 20
-66.9481204877
 10
3202.4660392654
 20
-72.4568658464
 10
3215.4637484801
 20
-77.0776450846
  0
ARC
  5
335
330
1F
100
AcDbEntity
  8
0
  6
Continuous
 62
     7
370
    15
100
AcDbCircle
 10
3551.5762386127
 20
-3.7342606017
 30
0.0
 40
10.00000000021855
100
AcDbArc
 50
67.813986492
 51
184.3013189056
  0
LWPOLYLINE
  5
336
330
1F
100
AcDbEntity
  8
0
  6
Continuous
 62
     7
370
    15
100
AcDbPolyline
 90
       15
 70
   128
 43
0.0
 10
3742.6403218169
 20
-19.9865691248
 10
3725.9372004528
 20
-19.8678727115
 10
3709.8071255941
 20
-19.5113863675
 10
3694.2501009662
 20
-18.9171100928
 10
3679.2661228437
 20
-18.0850202291
 10
3664.8551875014
 20
-17.0151404347
 10
3651.0173061152
 20
-15.7074588804
 10
3636.2377309461
 20
-13.965981152
 10
3624.161271121
 20
-12.2409974175
 10
3612.2721635957
 20
-10.2370444112
 10
3600.935971107
 20
-8.0018709725
 10
3589.0568697114
 20
-5.2631649563
 10
3577.8425091167
 20
-2.2363363009
 10
3566.1663764377
 20
1.4682783118
 10
3555.3523802419
 20
5.5253653056
  0
LWPOLYLINE
  5
337
330
1F
100
AcDbEntity
  8
0
  6
Continuous
 62
     7
370
    15
100
AcDbPolyline
 90
       21
 70
   128
 43
0.0
 10
3933.180859055
 20
6.88728312
 10
3926.6973638196
 20
4.2412081689
 10
3919.8727661033
 20
1.7314855789
 10
3912.7070361037
 20
-0.6418573404
 10
3905.200173821
 20
-2.8788360695
 10
3897.3522090573
 20
-4.9794660886
 10
3889.1630971093
 20
-6.9437127859
 10
3881.7946219106
 20
-8.5347527716
 10
3870.5784135718
 20
-10.6732208636
 10
3858.8249215145
 20
-12.5911889781
 10
3855.6578436155
 20
-13.0570842981
 10
3852.4539076943
 20
-13.5078491206
 10
3849.2131212015
 20
-13.9434862213
 10
3845.9354841371
 20
-14.3640192584
 10
3842.620996501
 20
-14.7694054421
 10
3839.2696433921
 20
-15.1596875623
 10
3821.8023234267
 20
-16.8975720903
 10
3803.4057335217
 20
-18.2492148949
 10
3784.0798699517
 20
-19.2145850153
 10
3763.8247308542
 20
-19.793701583
 10
3742.6403218169
 20
-19.9865691248
  0
ARC
  5
338
330
1F
100
AcDbEntity
  8
0
  6
Continuous
 62
     7
370
    15
100
AcDbCircle
 10
3937.1308281774
 20
-2.2995391064
 30
0.0
 40
10.00000000000008
100
AcDbArc
 50
12.5557740253
 51
113.2658082306
  0
LWPOLYLINE
  5
339
330
1F
100
AcDbEntity
  8
0
  6
Continuous
 62
     7
370
    15
100
AcDbPolyline
 90
       20
 70
   128
 43
0.0
 10
3801.6403221746
 20
-106.1360295014
 10
3815.519628789
 20
-102.158291304
 10
3829.8083001037
 20
-97.4531700813
 10
3844.2711063881
 20
-92.0782981292
 10
3858.6728253622
 20
-86.0913160707
 10
3872.7782123942
 20
-79.5498061096
 10
3883.6599790711
 20
-73.9728174415
 10
3894.0841161866
 20
-68.1089136537
 10
3903.9312803407
 20
-61.9873799976
 10
3913.0820536275
 20
-55.6374443302
 10
3921.4170479436
 20
-49.0883581668
 10
3928.8168751855
 20
-42.3693803249
 10
3933.6812400479
 20
-37.2362420181
 10
3937.9020386596
 20
-32.0363380547
 10
3941.4289199967
 20
-26.7819961402
 10
3944.2115181346
 20
-21.4855575604
 10
3946.1994522472
 20
-16.1593472451
 10
3947.3423713107
 20
-10.8157402164
 10
3947.5899094005
 20
-5.4670614043
 10
3946.8916707892
 20
-0.1256366142
  0
LINE
  5
33A
330
1F
100
AcDbEntity
  8
0
  6
Continuous
 62
     7
370
    15
100
AcDbLine
 10
3801.6403221746
 20
-50.0507738963
 30
0.0
 11
3801.6403221746
 21
-106.1360295014
 31
0.0
  0
ARC
  5
33B
330
1F
100
AcDbEntity
  8
0
  6
Continuous
 62
     7
370
    15
100
AcDbCircle
 10
3799.6450562709
 20
-47.8104805455
 30
0.0
 40
3.000000000000185
100
AcDbArc
 50
311.6891164055
 51
131.6891164055
  0
LINE
  5
33C
330
1F
100
AcDbEntity
  8
0
  6
Continuous
 62
     7
370
    15
100
AcDbLine
 10
3786.6308518906
 20
-45.5701839941
 30
0.0
 11
3797.6497912068
 21
-45.5701839941
 31
0.0
  0
ARC
  5
33D
330
1F
100
AcDbEntity
  8
0
  6
Continuous
 62
     7
370
    15
100
AcDbCircle
 10
3784.6355873629
 20
-47.8104805455
 30
0.0
 40
2.999999999999898
100
AcDbArc
 50
48.3108835945
 51
228.3108835945
  0
LINE
  5
33E
330
1F
100
AcDbEntity
  8
0
  6
Continuous
 62
     7
370
    15
100
AcDbLine
 10
3782.6403209229
 20
-110.5096929392
 30
0.0
 11
3782.6403209229
 21
-50.0507738963
 31
0.0
  0
ARC
  5
33F
330
1F
100
AcDbEntity
  8
0
  6
Continuous
 62
     7
370
    15
100
AcDbCircle
 10
3742.5670630537
 20
89.363043766
 30
0.0
 40
203.8503786463656
100
AcDbArc
 50
258.7048597726
 51
281.3371380504
  0
LINE
  5
340
330
1F
100
AcDbEntity
  8
0
  6
Continuous
 62
     7
370
    15
100
AcDbLine
 10
3702.640322711
 20
-49.8755823095
 30
0.0
 11
3702.640322711
 21
-110.5390129515
 31
0.0
  0
ARC
  5
341
330
1F
100
AcDbEntity
  8
0
  6
Continuous
 62
     7
370
    15
100
AcDbCircle
 10
3700.5508530419
 20
-47.7228876332
 30
0.0
 40
3.000000000000146
100
AcDbArc
 50
314.146037584
 51
134.146037584
  0
LINE
  5
342
330
1F
100
AcDbEntity
  8
0
  6
Continuous
 62
     7
370
    15
100
AcDbLine
 10
3687.8192589839
 20
-45.5701839942
 30
0.0
 11
3698.4613851864
 21
-45.5701839942
 31
0.0
  0
ARC
  5
343
330
1F
100
AcDbEntity
  8
0
  6
Continuous
 62
     7
370
    15
100
AcDbCircle
 10
3685.729790592
 20
-47.7228876332
 30
0.0
 40
3.0000000000001
100
AcDbArc
 50
45.853962416
 51
225.853962416
  0
LINE
  5
344
330
1F
100
AcDbEntity
  8
0
  6
Continuous
 62
     7
370
    15
100
AcDbLine
 10
3683.6403214593
 20
-106.1360295014
 30
0.0
 11
3683.6403214593
 21
-49.8755823095
 31
0.0
  0
LWPOLYLINE
  5
345
330
1F
100
AcDbEntity
  8
0
  6
Continuous
 62
     7
370
    15
100
AcDbPolyline
 90
       18
 70
   128
 43
0.0
 10
3541.6044050117
 20
-4.4842754391
 10
3542.6183098216
 20
-11.146454183
 10
3544.6089708467
 20
-17.6968481992
 10
3547.514935698
 20
-24.1248357639
 10
3551.2747370858
 20
-30.4198396939
 10
3555.8269077201
 20
-36.5712765283
 10
3561.1099654098
 20
-42.5685381234
 10
3567.0624577661
 20
-48.4010264134
 10
3574.7710966725
 20
-54.9832156513
 10
3583.2096391578
 20
-61.3099052672
 10
3592.2804528136
 20
-67.3642698846
 10
3601.8859350343
 20
-73.1294750735
 10
3611.9284832139
 20
-78.5887128377
 10
3622.3104872961
 20
-83.7251605763
 10
3637.6175039668
 20
-90.5029380707
 10
3653.1341799755
 20
-96.5305409869
 10
3668.5714774985
 20
-101.758184146
 10
3683.6403214593
 20
-106.1360295014
  0
ENDSEC
  0
SECTION
  2
OBJECTS
  0
DICTIONARY
  5
C
330
0
100
AcDbDictionary
281
     1
  3
ACAD_GROUP
350
D
  3
ACAD_LAYOUT
350
1A
  3
ACAD_MLEADERSTYLE
350
347
  3
ACAD_MLINESTYLE
350
17
  3
ACAD_PLOTSETTINGS
350
19
  3
ACAD_PLOTSTYLENAME
350
E
  3
ACAD_TABLESTYLE
350
346
  3
ACAD_VISUALSTYLE
350
2A
  3
AcDbVariableDictionary
350
348
  0
DICTIONARY
  5
D
102
{ACAD_REACTORS
330
C
102
}
330
C
100
AcDbDictionary
281
     1
  0
DICTIONARY
  5
1A
102
{ACAD_REACTORS
330
C
102
}
330
C
100
AcDbDictionary
281
     1
  3
Layout1
350
1E
  3
Layout2
350
26
  3
Model
350
22
  0
DICTIONARY
  5
347
102
{ACAD_REACTORS
330
C
102
}
330
C
100
AcDbDictionary
281
     1
  0
DICTIONARY
  5
17
102
{ACAD_REACTORS
330
C
102
}
330
C
100
AcDbDictionary
281
     1
  3
Standard
350
18
  0
DICTIONARY
  5
19
102
{ACAD_REACTORS
330
C
102
}
330
C
100
AcDbDictionary
281
     1
  0
ACDBDICTIONARYWDFLT
  5
E
102
{ACAD_REACTORS
330
C
102
}
330
C
100
AcDbDictionary
281
     1
  3
Normal
350
F
100
AcDbDictionaryWithDefault
340
F
  0
DICTIONARY
  5
346
102
{ACAD_REACTORS
330
C
102
}
330
C
100
AcDbDictionary
281
     1
  0
DICTIONARY
  5
2A
102
{ACAD_REACTORS
330
C
102
}
330
C
100
AcDbDictionary
281
     1
  3
2dWireframe
350
2F
  3
3D Hidden
350
31
  3
3dWireframe
350
30
  3
Basic
350
32
  3
Brighten
350
36
  3
ColorChange
350
3A
  3
Conceptual
350
34
  3
Dim
350
35
  3
Facepattern
350
39
  3
Flat
350
2B
  3
FlatWithEdges
350
2C
  3
Gouraud
350
2D
  3
GouraudWithEdges
350
2E
  3
Linepattern
350
38
  3
Realistic
350
33
  3
Thicken
350
37
  0
DICTIONARY
  5
348
102
{ACAD_REACTORS
330
C
102
}
330
C
100
AcDbDictionary
281
     1
  3
PSOLHEIGHT
350
34A
  3
PSOLWIDTH
350
349
  0
LAYOUT
  5
1E
102
{ACAD_REACTORS
330
1A
102
}
330
1A
100
AcDbPlotSettings
  1

  2
none_device
  4

  6

 40
0.0
 41
0.0
 42
0.0
 43
0.0
 44
0.0
 45
0.0
 46
0.0
 47
0.0
 48
0.0
 49
0.0
140
0.0
141
0.0
142
1.0
143
1.0
 70
   688
 72
     0
 73
     0
 74
     5
  7

 75
    16
147
1.0
148
0.0
149
0.0
100
AcDbLayout
  1
Layout1
 70
     1
 71
     1
 10
0.0
 20
0.0
 11
420.0
 21
297.0
 12
0.0
 22
0.0
 32
0.0
 14
1.0000000000E 20
 24
1.0000000000E 20
 34
1.0000000000E 20
 15
-1.0000000000E 20
 25
-1.0000000000E 20
 35
-1.0000000000E 20
146
0.0
 13
0.0
 23
0.0
 33
0.0
 16
1.0
 26
0.0
 36
0.0
 17
0.0
 27
1.0
 37
0.0
 76
     0
330
1B
  0
LAYOUT
  5
26
102
{ACAD_REACTORS
330
1A
102
}
330
1A
100
AcDbPlotSettings
  1

  2
none_device
  4

  6

 40
0.0
 41
0.0
 42
0.0
 43
0.0
 44
0.0
 45
0.0
 46
0.0
 47
0.0
 48
0.0
 49
0.0
140
0.0
141
0.0
142
1.0
143
1.0
 70
   688
 72
     0
 73
     0
 74
     5
  7

 75
    16
147
1.0
148
0.0
149
0.0
100
AcDbLayout
  1
Layout2
 70
     1
 71
     2
 10
0.0
 20
0.0
 11
0.0
 21
0.0
 12
0.0
 22
0.0
 32
0.0
 14
0.0
 24
0.0
 34
0.0
 15
0.0
 25
0.0
 35
0.0
146
0.0
 13
0.0
 23
0.0
 33
0.0
 16
1.0
 26
0.0
 36
0.0
 17
0.0
 27
1.0
 37
0.0
 76
     0
330
23
  0
LAYOUT
  5
22
102
{ACAD_REACTORS
330
1A
102
}
330
1A
100
AcDbPlotSettings
  1

  2
none_device
  4

  6

 40
0.0
 41
0.0
 42
0.0
 43
0.0
 44
0.0
 45
0.0
 46
0.0
 47
0.0
 48
0.0
 49
0.0
140
0.0
141
0.0
142
1.0
143
1.0
 70
  1712
 72
     0
 73
     0
 74
     0
  7

 75
     0
147
1.0
148
0.0
149
0.0
100
AcDbLayout
  1
Model
 70
     1
 71
     0
 10
0.0
 20
0.0
 11
297.0
 21
210.0
 12
0.0
 22
0.0
 32
0.0
 14
0.0
 24
0.0
 34
0.0
 15
297.0
 25
210.0
 35
0.0
146
0.0
 13
0.0
 23
0.0
 33
0.0
 16
1.0
 26
0.0
 36
0.0
 17
0.0
 27
1.0
 37
0.0
 76
     0
330
1F
331
29
  0
MLINESTYLE
  5
18
102
{ACAD_REACTORS
330
17
102
}
330
17
100
AcDbMlineStyle
  2
Standard
 70
     0
  3

 62
   256
 51
90.0
 52
90.0
 71
     2
 49
0.5
 62
   256
  6
BYLAYER
 49
-0.5
 62
   256
  6
BYLAYER
  0
ACDBPLACEHOLDER
  5
F
102
{ACAD_REACTORS
330
E
102
}
330
E
  0
VISUALSTYLE
  5
2F
102
{ACAD_REACTORS
330
2A
102
}
330
2A
100
AcDbVisualStyle
  2
2dWireframe
 70
     4
 71
     0
 72
     2
 73
     0
 90
        0
 40
-0.6
 41
-30.0
 62
     5
 63
     7
 74
     1
 91
        4
 64
     7
 65
   257
 75
     1
175
     1
 42
1.0
 92
        0
 66
   257
 43
1.0
 76
     1
 77
     6
 78
     2
 67
     7
 79
     5
170
     0
171
     0
290
     0
174
     0
 93
        1
 44
0.0
173
     0
291
     0
 45
0.0
1001
ACAD
1000
AcDbSavedByObjectVersion
1070
     0
  0
VISUALSTYLE
  5
31
102
{ACAD_REACTORS
330
2A
102
}
330
2A
100
AcDbVisualStyle
  2
3D Hidden
 70
     6
 71
     1
 72
     2
 73
     2
 90
        0
 40
-0.6
 41
-30.0
 62
     5
 63
     7
 74
     2
 91
        2
 64
     7
 65
   257
 75
     2
175
     1
 42
40.0
 92
        0
 66
   257
 43
1.0
 76
     1
 77
     6
 78
     2
 67
     7
 79
     3
170
     0
171
     0
290
     0
174
     0
 93
        1
 44
0.0
173
     0
291
     0
 45
0.0
1001
ACAD
1000
AcDbSavedByObjectVersion
1070
     0
  0
VISUALSTYLE
  5
30
102
{ACAD_REACTORS
330
2A
102
}
330
2A
100
AcDbVisualStyle
  2
3dWireframe
 70
     5
 71
     0
 72
     2
 73
     0
 90
        0
 40
-0.6
 41
-30.0
 62
     5
 63
     7
 74
     1
 91
        4
 64
     7
 65
   257
 75
     1
175
     1
 42
1.0
 92
        0
 66
   257
 43
1.0
 76
     1
 77
     6
 78
     2
 67
     7
 79
     5
170
     0
171
     0
290
     0
174
     0
 93
        1
 44
0.0
173
     0
291
     0
 45
0.0
1001
ACAD
1000
AcDbSavedByObjectVersion
1070
     0
  0
VISUALSTYLE
  5
32
102
{ACAD_REACTORS
330
2A
102
}
330
2A
100
AcDbVisualStyle
  2
Basic
 70
     7
 71
     1
 72
     0
 73
     1
 90
        0
 40
-0.6
 41
-30.0
 62
     5
 63
     7
 74
     0
 91
        4
 64
     7
 65
   257
 75
     1
175
     1
 42
1.0
 92
        8
 66
     7
 43
1.0
 76
     1
 77
     6
 78
     2
 67
     7
 79
     5
170
     0
171
     0
290
     0
174
     0
 93
        1
 44
0.0
173
     0
291
     1
 45
0.0
1001
ACAD
1000
AcDbSavedByObjectVersion
1070
     0
  0
VISUALSTYLE
  5
36
102
{ACAD_REACTORS
330
2A
102
}
330
2A
100
AcDbVisualStyle
  2
Brighten
 70
    12
 71
     2
 72
     2
 73
     0
 90
        0
 40
-0.6
 41
-30.0
 62
     5
 63
     7
 74
     1
 91
        4
 64
     7
 65
   257
 75
     1
175
     1
 42
1.0
 92
        8
 66
     7
 43
1.0
 76
     1
 77
     6
 78
     2
 67
     7
 79
     5
170
     0
171
     0
290
     0
174
     0
 93
        1
 44
50.0
173
     0
291
     1
 45
0.0
1001
ACAD
1000
AcDbSavedByObjectVersion
1070
     0
  0
VISUALSTYLE
  5
3A
102
{ACAD_REACTORS
330
2A
102
}
330
2A
100
AcDbVisualStyle
  2
ColorChange
 70
    16
 71
     2
 72
     2
 73
     3
 90
        0
 40
-0.6
 41
-30.0
 62
     5
 63
     8
 74
     1
 91
        4
 64
     7
 65
   257
 75
     1
175
     1
 42
1.0
 92
        8
 66
     8
 43
1.0
 76
     1
 77
     6
 78
     2
 67
     7
 79
     5
170
     0
171
     0
290
     0
174
     0
 93
        1
 44
0.0
173
     0
291
     1
 45
0.0
1001
ACAD
1000
AcDbSavedByObjectVersion
1070
     0
  0
VISUALSTYLE
  5
34
102
{ACAD_REACTORS
330
2A
102
}
330
2A
100
AcDbVisualStyle
  2
Conceptual
 70
     9
 71
     3
 72
     2
 73
     0
 90
        0
 40
-0.6
 41
-30.0
 62
     5
 63
     7
 74
     2
 91
        2
 64
     7
 65
   257
 75
     1
175
     1
 42
40.0
 92
        8
 66
     7
 43
1.0
 76
     1
 77
     6
 78
     2
 67
     7
 79
     3
170
     0
171
     0
290
     0
174
     0
 93
        1
 44
0.0
173
     0
291
     0
 45
0.0
1001
ACAD
1000
AcDbSavedByObjectVersion
1070
     0
  0
VISUALSTYLE
  5
35
102
{ACAD_REACTORS
330
2A
102
}
330
2A
100
AcDbVisualStyle
  2
Dim
 70
    11
 71
     2
 72
     2
 73
     0
 90
        0
 40
-0.6
 41
-30.0
 62
     5
 63
     7
 74
     1
 91
        4
 64
     7
 65
   257
 75
     1
175
     1
 42
1.0
 92
        8
 66
     7
 43
1.0
 76
     1
 77
     6
 78
     2
 67
     7
 79
     5
170
     0
171
     0
290
     0
174
     0
 93
        1
 44
-50.0
173
     0
291
     1
 45
0.0
1001
ACAD
1000
AcDbSavedByObjectVersion
1070
     0
  0
VISUALSTYLE
  5
39
102
{ACAD_REACTORS
330
2A
102
}
330
2A
100
AcDbVisualStyle
  2
Facepattern
 70
    15
 71
     2
 72
     2
 73
     0
 90
        0
 40
-0.6
 41
-30.0
 62
     5
 63
     7
 74
     1
 91
        4
 64
     7
 65
   257
 75
     1
175
     1
 42
1.0
 92
        8
 66
     7
 43
1.0
 76
     1
 77
     6
 78
     2
 67
     7
 79
     5
170
     0
171
     0
290
     0
174
     0
 93
        1
 44
0.0
173
     0
291
     1
 45
0.0
1001
ACAD
1000
AcDbSavedByObjectVersion
1070
     0
  0
VISUALSTYLE
  5
2B
102
{ACAD_REACTORS
330
2A
102
}
330
2A
100
AcDbVisualStyle
  2
Flat
 70
     0
 71
     2
 72
     1
 73
     1
 90
        2
 40
-0.6
 41
30.0
 62
     5
 63
     7
 74
     0
 91
        4
 64
     7
 65
   257
 75
     1
175
     1
 42
1.0
 92
        8
 66
     7
 43
1.0
 76
     1
 77
     6
 78
     2
 67
     7
 79
     5
170
     0
171
     0
290
     0
174
     0
 93
       13
 44
0.0
173
     0
291
     1
 45
0.0
1001
ACAD
1000
AcDbSavedByObjectVersion
1070
     0
  0
VISUALSTYLE
  5
2C
102
{ACAD_REACTORS
330
2A
102
}
330
2A
100
AcDbVisualStyle
  2
FlatWithEdges
 70
     1
 71
     2
 72
     1
 73
     1
 90
        2
 40
-0.6
 41
30.0
 62
     5
 63
     7
 74
     1
 91
        4
 64
     7
 65
   257
 75
     1
175
     1
 42
1.0
 92
        0
 66
   257
 43
1.0
 76
     1
 77
     6
 78
     2
 67
     7
 79
     5
170
     0
171
     0
290
     0
174
     0
 93
       13
 44
0.0
173
     0
291
     1
 45
0.0
1001
ACAD
1000
AcDbSavedByObjectVersion
1070
     0
  0
VISUALSTYLE
  5
2D
102
{ACAD_REACTORS
330
2A
102
}
330
2A
100
AcDbVisualStyle
  2
Gouraud
 70
     2
 71
     2
 72
     2
 73
     1
 90
        2
 40
-0.6
 41
30.0
 62
     5
 63
     7
 74
     0
 91
        4
 64
     7
 65
   257
 75
     1
175
     1
 42
1.0
 92
        0
 66
     7
 43
1.0
 76
     1
 77
     6
 78
     2
 67
     7
 79
     5
170
     0
171
     0
290
     0
174
     0
 93
       13
 44
0.0
173
     0
291
     1
 45
0.0
1001
ACAD
1000
AcDbSavedByObjectVersion
1070
     0
  0
VISUALSTYLE
  5
2E
102
{ACAD_REACTORS
330
2A
102
}
330
2A
100
AcDbVisualStyle
  2
GouraudWithEdges
 70
     3
 71
     2
 72
     2
 73
     1
 90
        2
 40
-0.6
 41
30.0
 62
     5
 63
     7
 74
     1
 91
        4
 64
     7
 65
   257
 75
     1
175
     1
 42
1.0
 92
        0
 66
   257
 43
1.0
 76
     1
 77
     6
 78
     2
 67
     7
 79
     5
170
     0
171
     0
290
     0
174
     0
 93
       13
 44
0.0
173
     0
291
     1
 45
0.0
1001
ACAD
1000
AcDbSavedByObjectVersion
1070
     0
  0
VISUALSTYLE
  5
38
102
{ACAD_REACTORS
330
2A
102
}
330
2A
100
AcDbVisualStyle
  2
Linepattern
 70
    14
 71
     2
 72
     2
 73
     0
 90
        0
 40
-0.6
 41
-30.0
 62
     5
 63
     7
 74
     1
 91
        4
 64
     7
 65
   257
 75
     7
175
     7
 42
1.0
 92
        8
 66
     7
 43
1.0
 76
     1
 77
     6
 78
     2
 67
     7
 79
     5
170
     0
171
     0
290
     0
174
     0
 93
        1
 44
0.0
173
     0
291
     1
 45
0.0
1001
ACAD
1000
AcDbSavedByObjectVersion
1070
     0
  0
VISUALSTYLE
  5
33
102
{ACAD_REACTORS
330
2A
102
}
330
2A
100
AcDbVisualStyle
  2
Realistic
 70
     8
 71
     2
 72
     2
 73
     0
 90
        0
 40
-0.6
 41
-30.0
 62
     5
 63
     7
 74
     1
 91
        0
 64
     7
 65
   257
 75
     1
175
     1
 42
1.0
 92
        8
 66
     8
 43
1.0
 76
     1
 77
     6
 78
     2
 67
     7
 79
     5
170
     0
171
     0
290
     0
174
     0
 93
       13
 44
0.0
173
     0
291
     0
 45
0.0
1001
ACAD
1000
AcDbSavedByObjectVersion
1070
     0
  0
VISUALSTYLE
  5
37
102
{ACAD_REACTORS
330
2A
102
}
330
2A
100
AcDbVisualStyle
  2
Thicken
 70
    13
 71
     2
 72
     2
 73
     0
 90
        0
 40
-0.6
 41
-30.0
 62
     5
 63
     7
 74
     1
 91
        4
 64
     7
 65
   257
 75
     1
175
     1
 42
1.0
 92
       12
 66
     7
 43
1.0
 76
     1
 77
     6
 78
     2
 67
     7
 79
     5
170
     0
171
     0
290
     0
174
     0
 93
        1
 44
0.0
173
     0
291
     1
 45
0.0
1001
ACAD
1000
AcDbSavedByObjectVersion
1070
     0
  0
DICTIONARYVAR
  5
34A
102
{ACAD_REACTORS
330
348
102
}
330
348
100
DictionaryVariables
280
     0
  1
80.000000
  0
DICTIONARYVAR
  5
349
102
{ACAD_REACTORS
330
348
102
}
330
348
100
DictionaryVariables
280
     0
  1
5.000000
  0
ENDSEC
  0
EOF
