  0
SECTION
  2
ENTITIES
  0
POLYLINE
  5
3E8
  100
AcDbEntity
  8
Layer 1
  62
0
  100
AcDb2dPolyline
 66
     1
  10
0
  20
0
  30
0
  70
1
  0
VERTEX
  5
3E9
  100
AcDbEntity
  8
Layer 1
  62
0
  100
AcDb2dVertex
  10
4.49100
  20
1.45400
  30
0.00000
  42
-0.0191
  70
32
  0
VERTEX
  5
3EA
  100
AcDbEntity
  8
Layer 1
  62
0
  100
AcDb2dVertex
  10
4.48899
  20
1.37901
  30
0.00000
  70
32
  0
VERTEX
  5
3EB
  100
AcDbEntity
  8
Layer 1
  62
0
  100
AcDb2dVertex
  10
4.48800
  20
1.37000
  30
0.00000
  42
-0.1083
  70
32
  0
VERTEX
  5
3EC
  100
AcDbEntity
  8
Layer 1
  62
0
  100
AcDb2dVertex
  10
4.47829
  20
1.34708
  30
0.00000
  42
-0.2443
  70
32
  0
VERTEX
  5
3ED
  100
AcDbEntity
  8
Layer 1
  62
0
  100
AcDb2dVertex
  10
4.45800
  20
1.33700
  30
0.00000
  42
-0.1261
  70
32
  0
VERTEX
  5
3EE
  100
AcDbEntity
  8
Layer 1
  62
0
  100
AcDb2dVertex
  10
4.41200
  20
1.34900
  30
0.00000
  42
0.0679
  70
32
  0
VERTEX
  5
3EF
  100
AcDbEntity
  8
Layer 1
  62
0
  100
AcDb2dVertex
  10
4.38650
  20
1.35936
  30
0.00000
  42
0.0507
  70
32
  0
VERTEX
  5
3F0
  100
AcDbEntity
  8
Layer 1
  62
0
  100
AcDb2dVertex
  10
4.38100
  20
1.36000
  30
0.00000
  42
0.2249
  70
32
  0
VERTEX
  5
3F1
  100
AcDbEntity
  8
Layer 1
  62
0
  100
AcDb2dVertex
  10
4.35930
  20
1.34949
  30
0.00000
  42
0.0850
  70
32
  0
VERTEX
  5
3F2
  100
AcDbEntity
  8
Layer 1
  62
0
  100
AcDb2dVertex
  10
4.34800
  20
1.33000
  30
0.00000
  42
0.0124
  70
32
  0
VERTEX
  5
3F3
  100
AcDbEntity
  8
Layer 1
  62
0
  100
AcDb2dVertex
  10
4.33779
  20
1.29817
  30
0.00000
  70
32
  0
VERTEX
  5
3F4
  100
AcDbEntity
  8
Layer 1
  62
0
  100
AcDb2dVertex
  10
4.33500
  20
1.28900
  30
0.00000
  42
-0.0754
  70
32
  0
VERTEX
  5
3F5
  100
AcDbEntity
  8
Layer 1
  62
0
  100
AcDb2dVertex
  10
4.31052
  20
1.25254
  30
0.00000
  42
-0.0661
  70
32
  0
VERTEX
  5
3F6
  100
AcDbEntity
  8
Layer 1
  62
0
  100
AcDb2dVertex
  10
4.29500
  20
1.24000
  30
0.00000
  42
-0.0795
  70
32
  0
VERTEX
  5
3F7
  100
AcDbEntity
  8
Layer 1
  62
0
  100
AcDb2dVertex
  10
4.24139
  20
1.21887
  30
0.00000
  42
-0.0503
  70
32
  0
VERTEX
  5
3F8
  100
AcDbEntity
  8
Layer 1
  62
0
  100
AcDb2dVertex
  10
4.16180
  20
1.20932
  30
0.00000
  70
32
  0
VERTEX
  5
3F9
  100
AcDbEntity
  8
Layer 1
  62
0
  100
AcDb2dVertex
  10
4.14100
  20
1.20900
  30
0.00000
  42
-0.0537
  70
32
  0
VERTEX
  5
3FA
  100
AcDbEntity
  8
Layer 1
  62
0
  100
AcDb2dVertex
  10
4.01103
  20
1.22194
  30
0.00000
  42
-0.0763
  70
32
  0
VERTEX
  5
3FB
  100
AcDbEntity
  8
Layer 1
  62
0
  100
AcDb2dVertex
  10
3.89698
  20
1.26465
  30
0.00000
  42
-0.0198
  70
32
  0
VERTEX
  5
3FC
  100
AcDbEntity
  8
Layer 1
  62
0
  100
AcDb2dVertex
  10
3.87400
  20
1.27900
  30
0.00000
  42
-0.0400
  70
32
  0
VERTEX
  5
3FD
  100
AcDbEntity
  8
Layer 1
  62
0
  100
AcDb2dVertex
  10
3.84092
  20
1.30570
  30
0.00000
  42
-0.1056
  70
32
  0
VERTEX
  5
3FE
  100
AcDbEntity
  8
Layer 1
  62
0
  100
AcDb2dVertex
  10
3.83162
  20
1.31861
  30
0.00000
  42
-0.0830
  70
32
  0
VERTEX
  5
3FF
  100
AcDbEntity
  8
Layer 1
  62
0
  100
AcDb2dVertex
  10
3.83100
  20
1.32200
  30
0.00000
  42
-0.2150
  70
32
  0
VERTEX
  5
400
  100
AcDbEntity
  8
Layer 1
  62
0
  100
AcDb2dVertex
  10
3.83593
  20
1.33532
  30
0.00000
  42
-0.1821
  70
32
  0
VERTEX
  5
401
  100
AcDbEntity
  8
Layer 1
  62
0
  100
AcDb2dVertex
  10
3.84981
  20
1.33998
  30
0.00000
  70
32
  0
VERTEX
  5
402
  100
AcDbEntity
  8
Layer 1
  62
0
  100
AcDb2dVertex
  10
3.85100
  20
1.34000
  30
0.00000
  42
0.0798
  70
32
  0
VERTEX
  5
403
  100
AcDbEntity
  8
Layer 1
  62
0
  100
AcDb2dVertex
  10
3.85538
  20
1.33749
  30
0.00000
  42
0.0073
  70
32
  0
VERTEX
  5
404
  100
AcDbEntity
  8
Layer 1
  62
0
  100
AcDb2dVertex
  10
3.89400
  20
1.31900
  30
0.00000
  42
0.0496
  70
32
  0
VERTEX
  5
405
  100
AcDbEntity
  8
Layer 1
  62
0
  100
AcDb2dVertex
  10
3.99800
  20
1.27700
  30
0.00000
  42
0.0621
  70
32
  0
VERTEX
  5
406
  100
AcDbEntity
  8
Layer 1
  62
0
  100
AcDb2dVertex
  10
4.13599
  20
1.25515
  30
0.00000
  70
32
  0
VERTEX
  5
407
  100
AcDbEntity
  8
Layer 1
  62
0
  100
AcDb2dVertex
  10
4.14800
  20
1.25500
  30
0.00000
  42
0.0731
  70
32
  0
VERTEX
  5
408
  100
AcDbEntity
  8
Layer 1
  62
0
  100
AcDb2dVertex
  10
4.20436
  20
1.26227
  30
0.00000
  42
0.1231
  70
32
  0
VERTEX
  5
409
  100
AcDbEntity
  8
Layer 1
  62
0
  100
AcDb2dVertex
  10
4.24571
  20
1.28575
  30
0.00000
  42
0.0340
  70
32
  0
VERTEX
  5
40A
  100
AcDbEntity
  8
Layer 1
  62
0
  100
AcDb2dVertex
  10
4.25300
  20
1.29400
  30
0.00000
  42
0.0806
  70
32
  0
VERTEX
  5
40B
  100
AcDbEntity
  8
Layer 1
  62
0
  100
AcDb2dVertex
  10
4.27199
  20
1.33006
  30
0.00000
  42
0.0473
  70
32
  0
VERTEX
  5
40C
  100
AcDbEntity
  8
Layer 1
  62
0
  100
AcDb2dVertex
  10
4.28784
  20
1.39613
  30
0.00000
  42
0.0140
  70
32
  0
VERTEX
  5
40D
  100
AcDbEntity
  8
Layer 1
  62
0
  100
AcDb2dVertex
  10
4.29300
  20
1.43700
  30
0.00000
  70
32
  0
VERTEX
  5
40E
  100
AcDbEntity
  8
Layer 1
  62
0
  100
AcDb2dVertex
  10
4.35800
  20
1.43500
  30
0.00000
  70
32
  0
VERTEX
  5
40F
  100
AcDbEntity
  8
Layer 1
  62
0
  100
AcDb2dVertex
  10
4.29300
  20
1.43700
  30
0.00000
  42
0.0467
  70
32
  0
VERTEX
  5
410
  100
AcDbEntity
  8
Layer 1
  62
0
  100
AcDb2dVertex
  10
4.27467
  20
1.51202
  30
0.00000
  42
0.0748
  70
32
  0
VERTEX
  5
411
  100
AcDbEntity
  8
Layer 1
  62
0
  100
AcDb2dVertex
  10
4.25221
  20
1.55544
  30
0.00000
  70
32
  0
VERTEX
  5
412
  100
AcDbEntity
  8
Layer 1
  62
0
  100
AcDb2dVertex
  10
4.25100
  20
1.55700
  30
0.00000
  42
0.1546
  70
32
  0
VERTEX
  5
413
  100
AcDbEntity
  8
Layer 1
  62
0
  100
AcDb2dVertex
  10
4.19389
  20
1.59607
  30
0.00000
  42
0.0776
  70
32
  0
VERTEX
  5
414
  100
AcDbEntity
  8
Layer 1
  62
0
  100
AcDb2dVertex
  10
4.13800
  20
1.60400
  30
0.00000
  42
0.0660
  70
32
  0
VERTEX
  5
415
  100
AcDbEntity
  8
Layer 1
  62
0
  100
AcDb2dVertex
  10
3.99431
  20
1.58390
  30
0.00000
  42
0.0168
  70
32
  0
VERTEX
  5
416
  100
AcDbEntity
  8
Layer 1
  62
0
  100
AcDb2dVertex
  10
3.94900
  20
1.57000
  30
0.00000
  70
32
  0
VERTEX
  5
417
  100
AcDbEntity
  8
Layer 1
  62
0
  100
AcDb2dVertex
  10
3.87563
  20
1.54525
  30
0.00000
  70
32
  0
VERTEX
  5
418
  100
AcDbEntity
  8
Layer 1
  62
0
  100
AcDb2dVertex
  10
3.85830
  20
1.53906
  30
0.00000
  70
32
  0
VERTEX
  5
419
  100
AcDbEntity
  8
Layer 1
  62
0
  100
AcDb2dVertex
  10
3.85451
  20
1.53752
  30
0.00000
  70
32
  0
VERTEX
  5
41A
  100
AcDbEntity
  8
Layer 1
  62
0
  100
AcDb2dVertex
  10
3.85385
  20
1.53713
  30
0.00000
  70
32
  0
VERTEX
  5
41B
  100
AcDbEntity
  8
Layer 1
  62
0
  100
AcDb2dVertex
  10
3.85400
  20
1.53700
  30
0.00000
  42
-0.2807
  70
32
  0
VERTEX
  5
41C
  100
AcDbEntity
  8
Layer 1
  62
0
  100
AcDb2dVertex
  10
3.84227
  20
1.54429
  30
0.00000
  42
-0.0626
  70
32
  0
VERTEX
  5
41D
  100
AcDbEntity
  8
Layer 1
  62
0
  100
AcDb2dVertex
  10
3.83900
  20
1.55200
  30
0.00000
  42
-0.1775
  70
32
  0
VERTEX
  5
41E
  100
AcDbEntity
  8
Layer 1
  62
0
  100
AcDb2dVertex
  10
3.84322
  20
1.56034
  30
0.00000
  42
-0.0640
  70
32
  0
VERTEX
  5
41F
  100
AcDbEntity
  8
Layer 1
  62
0
  100
AcDb2dVertex
  10
3.86381
  20
1.57637
  30
0.00000
  70
32
  0
VERTEX
  5
420
  100
AcDbEntity
  8
Layer 1
  62
0
  100
AcDb2dVertex
  10
3.87300
  20
1.58200
  30
0.00000
  42
-0.1254
  70
32
  0
VERTEX
  5
421
  100
AcDbEntity
  8
Layer 1
  62
0
  100
AcDb2dVertex
  10
4.11514
  20
1.65797
  30
0.00000
  42
-0.0150
  70
32
  0
VERTEX
  5
422
  100
AcDbEntity
  8
Layer 1
  62
0
  100
AcDb2dVertex
  10
4.15000
  20
1.65900
  30
0.00000
  42
-0.0403
  70
32
  0
VERTEX
  5
423
  100
AcDbEntity
  8
Layer 1
  62
0
  100
AcDb2dVertex
  10
4.23147
  20
1.65341
  30
0.00000
  42
-0.0665
  70
32
  0
VERTEX
  5
424
  100
AcDbEntity
  8
Layer 1
  62
0
  100
AcDb2dVertex
  10
4.27904
  20
1.63988
  30
0.00000
  42
-0.0430
  70
32
  0
VERTEX
  5
425
  100
AcDbEntity
  8
Layer 1
  62
0
  100
AcDb2dVertex
  10
4.29300
  20
1.63200
  30
0.00000
  42
-0.1563
  70
32
  0
VERTEX
  5
426
  100
AcDbEntity
  8
Layer 1
  62
0
  100
AcDb2dVertex
  10
4.33228
  20
1.58092
  30
0.00000
  70
32
  0
VERTEX
  5
427
  100
AcDbEntity
  8
Layer 1
  62
0
  100
AcDb2dVertex
  10
4.33300
  20
1.57900
  30
0.00000
  42
-0.0201
  70
32
  0
VERTEX
  5
428
  100
AcDbEntity
  8
Layer 1
  62
0
  100
AcDb2dVertex
  10
4.33902
  20
1.55360
  30
0.00000
  70
32
  0
VERTEX
  5
429
  100
AcDbEntity
  8
Layer 1
  62
0
  100
AcDb2dVertex
  10
4.34068
  20
1.54605
  30
0.00000
  70
32
  0
VERTEX
  5
42A
  100
AcDbEntity
  8
Layer 1
  62
0
  100
AcDb2dVertex
  10
4.34600
  20
1.52200
  30
0.00000
  42
0.3190
  70
32
  0
VERTEX
  5
42B
  100
AcDbEntity
  8
Layer 1
  62
0
  100
AcDb2dVertex
  10
4.35878
  20
1.50971
  30
0.00000
  42
0.0538
  70
32
  0
VERTEX
  5
42C
  100
AcDbEntity
  8
Layer 1
  62
0
  100
AcDb2dVertex
  10
4.36600
  20
1.50900
  30
0.00000
  70
32
  0
VERTEX
  5
42D
  100
AcDbEntity
  8
Layer 1
  62
0
  100
AcDb2dVertex
  10
4.37503
  20
1.51113
  30
0.00000
  70
32
  0
VERTEX
  5
42E
  100
AcDbEntity
  8
Layer 1
  62
0
  100
AcDb2dVertex
  10
4.39900
  20
1.51700
  30
0.00000
  42
-0.0588
  70
32
  0
VERTEX
  5
42F
  100
AcDbEntity
  8
Layer 1
  62
0
  100
AcDb2dVertex
  10
4.45300
  20
1.52600
  30
0.00000
  42
-0.1215
  70
32
  0
VERTEX
  5
430
  100
AcDbEntity
  8
Layer 1
  62
0
  100
AcDb2dVertex
  10
4.47661
  20
1.52000
  30
0.00000
  42
-0.2172
  70
32
  0
VERTEX
  5
431
  100
AcDbEntity
  8
Layer 1
  62
0
  100
AcDb2dVertex
  10
4.49100
  20
1.49900
  30
0.00000
  70
32
  0
VERTEX
  5
432
  100
AcDbEntity
  8
Layer 1
  62
0
  100
AcDb2dVertex
  10
4.49100
  20
1.45400
  30
0.00000
  70
32
  0
SEQEND
  5
433
  100
AcDbEntity
  8
Layer 1
  62
0
  0
POLYLINE
  5
434
  100
AcDbEntity
  8
Layer 1
  62
0
  100
AcDb2dPolyline
 66
     1
  10
0
  20
0
  30
0
  70
1
  0
VERTEX
  5
435
  100
AcDbEntity
  8
Layer 1
  62
0
  100
AcDb2dVertex
  10
4.10100
  20
1.13200
  30
0.00000
  42
-0.1581
  70
32
  0
VERTEX
  5
436
  100
AcDbEntity
  8
Layer 1
  62
0
  100
AcDb2dVertex
  10
4.09571
  20
1.11915
  30
0.00000
  42
-0.0740
  70
32
  0
VERTEX
  5
437
  100
AcDbEntity
  8
Layer 1
  62
0
  100
AcDb2dVertex
  10
4.07346
  20
1.09875
  30
0.00000
  70
32
  0
VERTEX
  5
438
  100
AcDbEntity
  8
Layer 1
  62
0
  100
AcDb2dVertex
  10
4.07100
  20
1.09700
  30
0.00000
  42
-0.1104
  70
32
  0
VERTEX
  5
439
  100
AcDbEntity
  8
Layer 1
  62
0
  100
AcDb2dVertex
  10
3.88516
  20
1.02543
  30
0.00000
  42
-0.0386
  70
32
  0
VERTEX
  5
43A
  100
AcDbEntity
  8
Layer 1
  62
0
  100
AcDb2dVertex
  10
3.79900
  20
1.01900
  30
0.00000
  42
-0.0507
  70
32
  0
VERTEX
  5
43B
  100
AcDbEntity
  8
Layer 1
  62
0
  100
AcDb2dVertex
  10
3.71511
  20
1.02650
  30
0.00000
  42
-0.0763
  70
32
  0
VERTEX
  5
43C
  100
AcDbEntity
  8
Layer 1
  62
0
  100
AcDb2dVertex
  10
3.66036
  20
1.04584
  30
0.00000
  42
-0.0687
  70
32
  0
VERTEX
  5
43D
  100
AcDbEntity
  8
Layer 1
  62
0
  100
AcDb2dVertex
  10
3.63600
  20
1.06400
  30
0.00000
  42
-0.0966
  70
32
  0
VERTEX
  5
43E
  100
AcDbEntity
  8
Layer 1
  62
0
  100
AcDb2dVertex
  10
3.61706
  20
1.09210
  30
0.00000
  42
-0.0571
  70
32
  0
VERTEX
  5
43F
  100
AcDbEntity
  8
Layer 1
  62
0
  100
AcDb2dVertex
  10
3.60100
  20
1.14500
  30
0.00000
  42
0.1077
  70
32
  0
VERTEX
  5
440
  100
AcDbEntity
  8
Layer 1
  62
0
  100
AcDb2dVertex
  10
3.59051
  20
1.17345
  30
0.00000
  42
0.2606
  70
32
  0
VERTEX
  5
441
  100
AcDbEntity
  8
Layer 1
  62
0
  100
AcDb2dVertex
  10
3.56100
  20
1.18900
  30
0.00000
  42
0.0259
  70
32
  0
VERTEX
  5
442
  100
AcDbEntity
  8
Layer 1
  62
0
  100
AcDb2dVertex
  10
3.53910
  20
1.18391
  30
0.00000
  70
32
  0
VERTEX
  5
443
  100
AcDbEntity
  8
Layer 1
  62
0
  100
AcDb2dVertex
  10
3.52400
  20
1.18000
  30
0.00000
  70
32
  0
VERTEX
  5
444
  100
AcDbEntity
  8
Layer 1
  62
0
  100
AcDb2dVertex
  10
3.50598
  20
1.17585
  30
0.00000
  42
-0.0225
  70
32
  0
VERTEX
  5
445
  100
AcDbEntity
  8
Layer 1
  62
0
  100
AcDb2dVertex
  10
3.48800
  20
1.17200
  30
0.00000
  42
-0.1440
  70
32
  0
VERTEX
  5
446
  100
AcDbEntity
  8
Layer 1
  62
0
  100
AcDb2dVertex
  10
3.46689
  20
1.17717
  30
0.00000
  42
-0.2079
  70
32
  0
VERTEX
  5
447
  100
AcDbEntity
  8
Layer 1
  62
0
  100
AcDb2dVertex
  10
3.45508
  20
1.19564
  30
0.00000
  42
-0.0517
  70
32
  0
VERTEX
  5
448
  100
AcDbEntity
  8
Layer 1
  62
0
  100
AcDb2dVertex
  10
3.45400
  20
1.20700
  30
0.00000
  70
32
  0
VERTEX
  5
449
  100
AcDbEntity
  8
Layer 1
  62
0
  100
AcDb2dVertex
  10
3.45600
  20
1.29700
  30
0.00000
  42
-0.0961
  70
32
  0
VERTEX
  5
44A
  100
AcDbEntity
  8
Layer 1
  62
0
  100
AcDb2dVertex
  10
3.46069
  20
1.32142
  30
0.00000
  42
-0.2127
  70
32
  0
VERTEX
  5
44B
  100
AcDbEntity
  8
Layer 1
  62
0
  100
AcDb2dVertex
  10
3.47152
  20
1.33226
  30
0.00000
  42
-0.1550
  70
32
  0
VERTEX
  5
44C
  100
AcDbEntity
  8
Layer 1
  62
0
  100
AcDb2dVertex
  10
3.48400
  20
1.33200
  30
0.00000
  70
32
  0
VERTEX
  5
44D
  100
AcDbEntity
  8
Layer 1
  62
0
  100
AcDb2dVertex
  10
3.57600
  20
1.31500
  30
0.00000
  42
0.1252
  70
32
  0
VERTEX
  5
44E
  100
AcDbEntity
  8
Layer 1
  62
0
  100
AcDb2dVertex
  10
3.59196
  20
1.32545
  30
0.00000
  42
0.2075
  70
32
  0
VERTEX
  5
44F
  100
AcDbEntity
  8
Layer 1
  62
0
  100
AcDb2dVertex
  10
3.59600
  20
1.33900
  30
0.00000
  42
-0.0912
  70
32
  0
VERTEX
  5
450
  100
AcDbEntity
  8
Layer 1
  62
0
  100
AcDb2dVertex
  10
3.60526
  20
1.39844
  30
0.00000
  42
-0.1742
  70
32
  0
VERTEX
  5
451
  100
AcDbEntity
  8
Layer 1
  62
0
  100
AcDb2dVertex
  10
3.65679
  20
1.46025
  30
0.00000
  42
-0.0818
  70
32
  0
VERTEX
  5
452
  100
AcDbEntity
  8
Layer 1
  62
0
  100
AcDb2dVertex
  10
3.71555
  20
1.48282
  30
0.00000
  42
-0.0528
  70
32
  0
VERTEX
  5
453
  100
AcDbEntity
  8
Layer 1
  62
0
  100
AcDb2dVertex
  10
3.79600
  20
1.49100
  30
0.00000
  42
-0.0765
  70
32
  0
VERTEX
  5
454
  100
AcDbEntity
  8
Layer 1
  62
0
  100
AcDb2dVertex
  10
3.92976
  20
1.47015
  30
0.00000
  42
-0.0899
  70
32
  0
VERTEX
  5
455
  100
AcDbEntity
  8
Layer 1
  62
0
  100
AcDb2dVertex
  10
4.05100
  20
1.40500
  30
0.00000
  42
-0.0404
  70
32
  0
VERTEX
  5
456
  100
AcDbEntity
  8
Layer 1
  62
0
  100
AcDb2dVertex
  10
4.08513
  20
1.37436
  30
0.00000
  42
-0.0982
  70
32
  0
VERTEX
  5
457
  100
AcDbEntity
  8
Layer 1
  62
0
  100
AcDb2dVertex
  10
4.09443
  20
1.36032
  30
0.00000
  42
-0.0772
  70
32
  0
VERTEX
  5
458
  100
AcDbEntity
  8
Layer 1
  62
0
  100
AcDb2dVertex
  10
4.09500
  20
1.35700
  30
0.00000
  42
-0.1934
  70
32
  0
VERTEX
  5
459
  100
AcDbEntity
  8
Layer 1
  62
0
  100
AcDb2dVertex
  10
4.09011
  20
1.34224
  30
0.00000
  42
-0.2112
  70
32
  0
VERTEX
  5
45A
  100
AcDbEntity
  8
Layer 1
  62
0
  100
AcDb2dVertex
  10
4.07600
  20
1.33700
  30
0.00000
  70
32
  0
VERTEX
  5
45B
  100
AcDbEntity
  8
Layer 1
  62
0
  100
AcDb2dVertex
  10
4.07686
  20
1.33719
  30
0.00000
  70
32
  0
VERTEX
  5
45C
  100
AcDbEntity
  8
Layer 1
  62
0
  100
AcDb2dVertex
  10
4.07683
  20
1.33770
  30
0.00000
  42
0.0783
  70
32
  0
VERTEX
  5
45D
  100
AcDbEntity
  8
Layer 1
  62
0
  100
AcDb2dVertex
  10
4.06901
  20
1.34286
  30
0.00000
  42
0.0158
  70
32
  0
VERTEX
  5
45E
  100
AcDbEntity
  8
Layer 1
  62
0
  100
AcDb2dVertex
  10
4.00569
  20
1.37305
  30
0.00000
  70
32
  0
VERTEX
  5
45F
  100
AcDbEntity
  8
Layer 1
  62
0
  100
AcDb2dVertex
  10
3.97900
  20
1.38500
  30
0.00000
  42
0.0442
  70
32
  0
VERTEX
  5
460
  100
AcDbEntity
  8
Layer 1
  62
0
  100
AcDb2dVertex
  10
3.87238
  20
1.42181
  30
0.00000
  42
0.0583
  70
32
  0
VERTEX
  5
461
  100
AcDbEntity
  8
Layer 1
  62
0
  100
AcDb2dVertex
  10
3.79300
  20
1.43200
  30
0.00000
  42
0.0852
  70
32
  0
VERTEX
  5
462
  100
AcDbEntity
  8
Layer 1
  62
0
  100
AcDb2dVertex
  10
3.73979
  20
1.42392
  30
0.00000
  42
0.1632
  70
32
  0
VERTEX
  5
463
  100
AcDbEntity
  8
Layer 1
  62
0
  100
AcDb2dVertex
  10
3.68900
  20
1.38500
  30
0.00000
  42
0.0806
  70
32
  0
VERTEX
  5
464
  100
AcDbEntity
  8
Layer 1
  62
0
  100
AcDb2dVertex
  10
3.66985
  20
1.34714
  30
0.00000
  42
0.0473
  70
32
  0
VERTEX
  5
465
  100
AcDbEntity
  8
Layer 1
  62
0
  100
AcDb2dVertex
  10
3.65508
  20
1.28045
  30
0.00000
  42
0.0125
  70
32
  0
VERTEX
  5
466
  100
AcDbEntity
  8
Layer 1
  62
0
  100
AcDb2dVertex
  10
3.65100
  20
1.24400
  30
0.00000
  70
32
  0
VERTEX
  5
467
  100
AcDbEntity
  8
Layer 1
  62
0
  100
AcDb2dVertex
  10
3.58900
  20
1.24700
  30
0.00000
  70
32
  0
VERTEX
  5
468
  100
AcDbEntity
  8
Layer 1
  62
0
  100
AcDb2dVertex
  10
3.65100
  20
1.24400
  30
0.00000
  70
32
  0
VERTEX
  5
469
  100
AcDbEntity
  8
Layer 1
  62
0
  100
AcDb2dVertex
  10
3.64963
  20
1.22763
  30
0.00000
  42
0.0173
  70
32
  0
VERTEX
  5
46A
  100
AcDbEntity
  8
Layer 1
  62
0
  100
AcDb2dVertex
  10
3.64900
  20
1.21200
  30
0.00000
  42
0.1081
  70
32
  0
VERTEX
  5
46B
  100
AcDbEntity
  8
Layer 1
  62
0
  100
AcDb2dVertex
  10
3.66040
  20
1.15480
  30
0.00000
  42
0.1443
  70
32
  0
VERTEX
  5
46C
  100
AcDbEntity
  8
Layer 1
  62
0
  100
AcDb2dVertex
  10
3.70393
  20
1.10533
  30
0.00000
  70
32
  0
VERTEX
  5
46D
  100
AcDbEntity
  8
Layer 1
  62
0
  100
AcDb2dVertex
  10
3.70600
  20
1.10400
  30
0.00000
  42
0.1092
  70
32
  0
VERTEX
  5
46E
  100
AcDbEntity
  8
Layer 1
  62
0
  100
AcDb2dVertex
  10
3.78261
  20
1.07647
  30
0.00000
  42
0.0352
  70
32
  0
VERTEX
  5
46F
  100
AcDbEntity
  8
Layer 1
  62
0
  100
AcDb2dVertex
  10
3.81900
  20
1.07400
  30
0.00000
  42
0.0645
  70
32
  0
VERTEX
  5
470
  100
AcDbEntity
  8
Layer 1
  62
0
  100
AcDb2dVertex
  10
3.92789
  20
1.08913
  30
0.00000
  42
0.0275
  70
32
  0
VERTEX
  5
471
  100
AcDbEntity
  8
Layer 1
  62
0
  100
AcDb2dVertex
  10
3.99500
  20
1.11100
  30
0.00000
  42
0.0129
  70
32
  0
VERTEX
  5
472
  100
AcDbEntity
  8
Layer 1
  62
0
  100
AcDb2dVertex
  10
4.07549
  20
1.14351
  30
0.00000
  42
0.0667
  70
32
  0
VERTEX
  5
473
  100
AcDbEntity
  8
Layer 1
  62
0
  100
AcDb2dVertex
  10
4.08464
  20
1.14848
  30
0.00000
  70
32
  0
VERTEX
  5
474
  100
AcDbEntity
  8
Layer 1
  62
0
  100
AcDb2dVertex
  10
4.08468
  20
1.14887
  30
0.00000
  70
32
  0
VERTEX
  5
475
  100
AcDbEntity
  8
Layer 1
  62
0
  100
AcDb2dVertex
  10
4.08400
  20
1.14900
  30
0.00000
  42
-0.1847
  70
32
  0
VERTEX
  5
476
  100
AcDbEntity
  8
Layer 1
  62
0
  100
AcDb2dVertex
  10
4.09629
  20
1.14530
  30
0.00000
  42
-0.2075
  70
32
  0
VERTEX
  5
477
  100
AcDbEntity
  8
Layer 1
  62
0
  100
AcDb2dVertex
  10
4.10097
  20
1.13354
  30
0.00000
  70
32
  0
VERTEX
  5
478
  100
AcDbEntity
  8
Layer 1
  62
0
  100
AcDb2dVertex
  10
4.10100
  20
1.13200
  30
0.00000
  70
32
  0
SEQEND
  5
479
  100
AcDbEntity
  8
Layer 1
  62
0
  0
POLYLINE
  5
47A
  100
AcDbEntity
  8
Layer 1
  62
0
  100
AcDb2dPolyline
 66
     1
  10
0
  20
0
  30
0
  70
1
  0
VERTEX
  5
47B
  100
AcDbEntity
  8
Layer 1
  62
0
  100
AcDb2dVertex
  10
4.48100
  20
0.84200
  30
0.00000
  42
-0.0447
  70
32
  0
VERTEX
  5
47C
  100
AcDbEntity
  8
Layer 1
  62
0
  100
AcDb2dVertex
  10
4.47727
  20
0.78982
  30
0.00000
  42
-0.0911
  70
32
  0
VERTEX
  5
47D
  100
AcDbEntity
  8
Layer 1
  62
0
  100
AcDb2dVertex
  10
4.46887
  20
0.76532
  30
0.00000
  70
32
  0
VERTEX
  5
47E
  100
AcDbEntity
  8
Layer 1
  62
0
  100
AcDb2dVertex
  10
4.46800
  20
0.76400
  30
0.00000
  42
-0.0162
  70
32
  0
VERTEX
  5
47F
  100
AcDbEntity
  8
Layer 1
  62
0
  100
AcDb2dVertex
  10
4.40488
  20
0.77262
  30
0.00000
  42
-0.1226
  70
32
  0
VERTEX
  5
480
  100
AcDbEntity
  8
Layer 1
  62
0
  100
AcDb2dVertex
  10
4.40104
  20
0.77377
  30
0.00000
  42
-0.1336
  70
32
  0
VERTEX
  5
481
  100
AcDbEntity
  8
Layer 1
  62
0
  100
AcDb2dVertex
  10
4.40300
  20
0.77400
  30
0.00000
  42
0.1343
  70
32
  0
VERTEX
  5
482
  100
AcDbEntity
  8
Layer 1
  62
0
  100
AcDb2dVertex
  10
4.35781
  20
0.76275
  30
0.00000
  42
0.1247
  70
32
  0
VERTEX
  5
483
  100
AcDbEntity
  8
Layer 1
  62
0
  100
AcDb2dVertex
  10
4.33000
  20
0.73500
  30
0.00000
  70
32
  0
VERTEX
  5
484
  100
AcDbEntity
  8
Layer 1
  62
0
  100
AcDb2dVertex
  10
4.30904
  20
0.70316
  30
0.00000
  42
-0.0073
  70
32
  0
VERTEX
  5
485
  100
AcDbEntity
  8
Layer 1
  62
0
  100
AcDb2dVertex
  10
4.28500
  20
0.66700
  30
0.00000
  42
-0.1090
  70
32
  0
VERTEX
  5
486
  100
AcDbEntity
  8
Layer 1
  62
0
  100
AcDb2dVertex
  10
4.23751
  20
0.64017
  30
0.00000
  42
-0.0676
  70
32
  0
VERTEX
  5
487
  100
AcDbEntity
  8
Layer 1
  62
0
  100
AcDb2dVertex
  10
4.17228
  20
0.62938
  30
0.00000
  70
32
  0
VERTEX
  5
488
  100
AcDbEntity
  8
Layer 1
  62
0
  100
AcDb2dVertex
  10
4.15500
  20
0.62900
  30
0.00000
  42
-0.0371
  70
32
  0
VERTEX
  5
489
  100
AcDbEntity
  8
Layer 1
  62
0
  100
AcDb2dVertex
  10
4.06611
  20
0.63679
  30
0.00000
  42
-0.0090
  70
32
  0
VERTEX
  5
48A
  100
AcDbEntity
  8
Layer 1
  62
0
  100
AcDb2dVertex
  10
4.02400
  20
0.64400
  30
0.00000
  42
-0.0382
  70
32
  0
VERTEX
  5
48B
  100
AcDbEntity
  8
Layer 1
  62
0
  100
AcDb2dVertex
  10
3.96028
  20
0.66034
  30
0.00000
  42
-0.0732
  70
32
  0
VERTEX
  5
48C
  100
AcDbEntity
  8
Layer 1
  62
0
  100
AcDb2dVertex
  10
3.93190
  20
0.67452
  30
0.00000
  42
-0.1550
  70
32
  0
VERTEX
  5
48D
  100
AcDbEntity
  8
Layer 1
  62
0
  100
AcDb2dVertex
  10
3.92172
  20
0.68735
  30
0.00000
  42
-0.0762
  70
32
  0
VERTEX
  5
48E
  100
AcDbEntity
  8
Layer 1
  62
0
  100
AcDb2dVertex
  10
3.92100
  20
0.69200
  30
0.00000
  42
-0.2312
  70
32
  0
VERTEX
  5
48F
  100
AcDbEntity
  8
Layer 1
  62
0
  100
AcDb2dVertex
  10
3.92703
  20
0.70670
  30
0.00000
  42
-0.1561
  70
32
  0
VERTEX
  5
490
  100
AcDbEntity
  8
Layer 1
  62
0
  100
AcDb2dVertex
  10
3.94255
  20
0.71197
  30
0.00000
  70
32
  0
VERTEX
  5
491
  100
AcDbEntity
  8
Layer 1
  62
0
  100
AcDb2dVertex
  10
3.94300
  20
0.71200
  30
0.00000
  70
32
  0
VERTEX
  5
492
  100
AcDbEntity
  8
Layer 1
  62
0
  100
AcDb2dVertex
  10
4.13600
  20
0.68500
  30
0.00000
  42
0.0150
  70
32
  0
VERTEX
  5
493
  100
AcDbEntity
  8
Layer 1
  62
0
  100
AcDb2dVertex
  10
4.15618
  20
0.68690
  30
0.00000
  70
32
  0
VERTEX
  5
494
  100
AcDbEntity
  8
Layer 1
  62
0
  100
AcDb2dVertex
  10
4.18600
  20
0.69000
  30
0.00000
  42
0.1549
  70
32
  0
VERTEX
  5
495
  100
AcDbEntity
  8
Layer 1
  62
0
  100
AcDb2dVertex
  10
4.23031
  20
0.71218
  30
0.00000
  42
0.0756
  70
32
  0
VERTEX
  5
496
  100
AcDbEntity
  8
Layer 1
  62
0
  100
AcDb2dVertex
  10
4.25700
  20
0.74700
  30
0.00000
  42
0.0880
  70
32
  0
VERTEX
  5
497
  100
AcDbEntity
  8
Layer 1
  62
0
  100
AcDb2dVertex
  10
4.28111
  20
0.80500
  30
0.00000
  42
0.0781
  70
32
  0
VERTEX
  5
498
  100
AcDbEntity
  8
Layer 1
  62
0
  100
AcDb2dVertex
  10
4.28300
  20
0.84000
  30
0.00000
  42
0.0549
  70
32
  0
VERTEX
  5
499
  100
AcDbEntity
  8
Layer 1
  62
0
  100
AcDb2dVertex
  10
4.26881
  20
0.90383
  30
0.00000
  42
0.0896
  70
32
  0
VERTEX
  5
49A
  100
AcDbEntity
  8
Layer 1
  62
0
  100
AcDb2dVertex
  10
4.24755
  20
0.94254
  30
0.00000
  42
0.0438
  70
32
  0
VERTEX
  5
49B
  100
AcDbEntity
  8
Layer 1
  62
0
  100
AcDb2dVertex
  10
4.23800
  20
0.95200
  30
0.00000
  42
0.1112
  70
32
  0
VERTEX
  5
49C
  100
AcDbEntity
  8
Layer 1
  62
0
  100
AcDb2dVertex
  10
4.20213
  20
0.96897
  30
0.00000
  42
0.0613
  70
32
  0
VERTEX
  5
49D
  100
AcDbEntity
  8
Layer 1
  62
0
  100
AcDb2dVertex
  10
4.15600
  20
0.97400
  30
0.00000
  42
0.0442
  70
32
  0
VERTEX
  5
49E
  100
AcDbEntity
  8
Layer 1
  62
0
  100
AcDb2dVertex
  10
4.08345
  20
0.96631
  30
0.00000
  42
0.0171
  70
32
  0
VERTEX
  5
49F
  100
AcDbEntity
  8
Layer 1
  62
0
  100
AcDb2dVertex
  10
4.01900
  20
0.95200
  30
0.00000
  70
32
  0
VERTEX
  5
4A0
  100
AcDbEntity
  8
Layer 1
  62
0
  100
AcDb2dVertex
  10
3.94980
  20
0.93363
  30
0.00000
  70
32
  0
VERTEX
  5
4A1
  100
AcDbEntity
  8
Layer 1
  62
0
  100
AcDb2dVertex
  10
3.93600
  20
0.93000
  30
0.00000
  42
-0.1186
  70
32
  0
VERTEX
  5
4A2
  100
AcDbEntity
  8
Layer 1
  62
0
  100
AcDb2dVertex
  10
3.91713
  20
0.93357
  30
0.00000
  42
-0.3002
  70
32
  0
VERTEX
  5
4A3
  100
AcDbEntity
  8
Layer 1
  62
0
  100
AcDb2dVertex
  10
3.90900
  20
0.94700
  30
0.00000
  42
-0.1771
  70
32
  0
VERTEX
  5
4A4
  100
AcDbEntity
  8
Layer 1
  62
0
  100
AcDb2dVertex
  10
3.91367
  20
0.95677
  30
0.00000
  42
-0.0709
  70
32
  0
VERTEX
  5
4A5
  100
AcDbEntity
  8
Layer 1
  62
0
  100
AcDb2dVertex
  10
3.93436
  20
0.97299
  30
0.00000
  70
32
  0
VERTEX
  5
4A6
  100
AcDbEntity
  8
Layer 1
  62
0
  100
AcDb2dVertex
  10
3.93600
  20
0.97400
  30
0.00000
  42
-0.0848
  70
32
  0
VERTEX
  5
4A7
  100
AcDbEntity
  8
Layer 1
  62
0
  100
AcDb2dVertex
  10
4.02555
  20
1.01083
  30
0.00000
  42
-0.0580
  70
32
  0
VERTEX
  5
4A8
  100
AcDbEntity
  8
Layer 1
  62
0
  100
AcDb2dVertex
  10
4.13000
  20
1.02200
  30
0.00000
  42
-0.0431
  70
32
  0
VERTEX
  5
4A9
  100
AcDbEntity
  8
Layer 1
  62
0
  100
AcDb2dVertex
  10
4.21920
  20
1.01532
  30
0.00000
  42
-0.0575
  70
32
  0
VERTEX
  5
4AA
  100
AcDbEntity
  8
Layer 1
  62
0
  100
AcDb2dVertex
  10
4.27300
  20
1.00000
  30
0.00000
  42
-0.1327
  70
32
  0
VERTEX
  5
4AB
  100
AcDbEntity
  8
Layer 1
  62
0
  100
AcDb2dVertex
  10
4.29824
  20
0.98278
  30
0.00000
  42
-0.0690
  70
32
  0
VERTEX
  5
4AC
  100
AcDbEntity
  8
Layer 1
  62
0
  100
AcDb2dVertex
  10
4.32166
  20
0.94674
  30
0.00000
  70
32
  0
VERTEX
  5
4AD
  100
AcDbEntity
  8
Layer 1
  62
0
  100
AcDb2dVertex
  10
4.32300
  20
0.94400
  30
0.00000
  42
0.0914
  70
32
  0
VERTEX
  5
4AE
  100
AcDbEntity
  8
Layer 1
  62
0
  100
AcDb2dVertex
  10
4.34139
  20
0.91541
  30
0.00000
  42
0.1719
  70
32
  0
VERTEX
  5
4AF
  100
AcDbEntity
  8
Layer 1
  62
0
  100
AcDb2dVertex
  10
4.36274
  20
0.90418
  30
0.00000
  70
32
  0
VERTEX
  5
4B0
  100
AcDbEntity
  8
Layer 1
  62
0
  100
AcDb2dVertex
  10
4.36600
  20
0.90400
  30
0.00000
  70
32
  0
VERTEX
  5
4B1
  100
AcDbEntity
  8
Layer 1
  62
0
  100
AcDb2dVertex
  10
4.40400
  20
0.90700
  30
0.00000
  70
32
  0
VERTEX
  5
4B2
  100
AcDbEntity
  8
Layer 1
  62
0
  100
AcDb2dVertex
  10
4.44100
  20
0.91000
  30
0.00000
  42
-0.1172
  70
32
  0
VERTEX
  5
4B3
  100
AcDbEntity
  8
Layer 1
  62
0
  100
AcDb2dVertex
  10
4.46502
  20
0.90530
  30
0.00000
  42
-0.2115
  70
32
  0
VERTEX
  5
4B4
  100
AcDbEntity
  8
Layer 1
  62
0
  100
AcDb2dVertex
  10
4.48000
  20
0.88700
  30
0.00000
  42
-0.0461
  70
32
  0
VERTEX
  5
4B5
  100
AcDbEntity
  8
Layer 1
  62
0
  100
AcDb2dVertex
  10
4.48090
  20
0.87178
  30
0.00000
  70
32
  0
VERTEX
  5
4B6
  100
AcDbEntity
  8
Layer 1
  62
0
  100
AcDb2dVertex
  10
4.48100
  20
0.84200
  30
0.00000
  70
32
  0
SEQEND
  5
4B7
  100
AcDbEntity
  8
Layer 1
  62
0
  0
POLYLINE
  5
4B8
  100
AcDbEntity
  8
Layer 1
  62
0
  100
AcDb2dPolyline
 66
     1
  10
0
  20
0
  30
0
  70
1
  0
VERTEX
  5
4B9
  100
AcDbEntity
  8
Layer 1
  62
0
  100
AcDb2dVertex
  10
3.47100
  20
1.48400
  30
0.00000
  42
-0.1093
  70
32
  0
VERTEX
  5
4BA
  100
AcDbEntity
  8
Layer 1
  62
0
  100
AcDb2dVertex
  10
3.46609
  20
1.44250
  30
0.00000
  42
-0.1808
  70
32
  0
VERTEX
  5
4BB
  100
AcDbEntity
  8
Layer 1
  62
0
  100
AcDb2dVertex
  10
3.43398
  20
1.40593
  30
0.00000
  42
-0.0280
  70
32
  0
VERTEX
  5
4BC
  100
AcDbEntity
  8
Layer 1
  62
0
  100
AcDb2dVertex
  10
3.42400
  20
1.40100
  30
0.00000
  42
0.0801
  70
32
  0
VERTEX
  5
4BD
  100
AcDbEntity
  8
Layer 1
  62
0
  100
AcDb2dVertex
  10
3.38898
  20
1.37999
  30
0.00000
  42
0.1479
  70
32
  0
VERTEX
  5
4BE
  100
AcDbEntity
  8
Layer 1
  62
0
  100
AcDb2dVertex
  10
3.37241
  20
1.35486
  30
0.00000
  42
0.0657
  70
32
  0
VERTEX
  5
4BF
  100
AcDbEntity
  8
Layer 1
  62
0
  100
AcDb2dVertex
  10
3.37100
  20
1.34400
  30
0.00000
  42
0.0909
  70
32
  0
VERTEX
  5
4C0
  100
AcDbEntity
  8
Layer 1
  62
0
  100
AcDb2dVertex
  10
3.37455
  20
1.33368
  30
0.00000
  42
0.0152
  70
32
  0
VERTEX
  5
4C1
  100
AcDbEntity
  8
Layer 1
  62
0
  100
AcDb2dVertex
  10
3.38600
  20
1.31200
  30
0.00000
  42
-0.0614
  70
32
  0
VERTEX
  5
4C2
  100
AcDbEntity
  8
Layer 1
  62
0
  100
AcDb2dVertex
  10
3.40259
  20
1.27353
  30
0.00000
  70
32
  0
VERTEX
  5
4C3
  100
AcDbEntity
  8
Layer 1
  62
0
  100
AcDb2dVertex
  10
3.40400
  20
1.26700
  30
0.00000
  42
-0.0830
  70
32
  0
VERTEX
  5
4C4
  100
AcDbEntity
  8
Layer 1
  62
0
  100
AcDb2dVertex
  10
3.40590
  20
1.25425
  30
0.00000
  70
32
  0
VERTEX
  5
4C5
  100
AcDbEntity
  8
Layer 1
  62
0
  100
AcDb2dVertex
  10
3.40600
  20
1.24900
  30
0.00000
  42
-0.0592
  70
32
  0
VERTEX
  5
4C6
  100
AcDbEntity
  8
Layer 1
  62
0
  100
AcDb2dVertex
  10
3.40373
  20
1.22251
  30
0.00000
  70
32
  0
VERTEX
  5
4C7
  100
AcDbEntity
  8
Layer 1
  62
0
  100
AcDb2dVertex
  10
3.40300
  20
1.22000
  30
0.00000
  42
-0.0608
  70
32
  0
VERTEX
  5
4C8
  100
AcDbEntity
  8
Layer 1
  62
0
  100
AcDb2dVertex
  10
3.38000
  20
1.18600
  30
0.00000
  42
0.0520
  70
32
  0
VERTEX
  5
4C9
  100
AcDbEntity
  8
Layer 1
  62
0
  100
AcDb2dVertex
  10
3.36611
  20
1.16516
  30
0.00000
  42
0.1068
  70
32
  0
VERTEX
  5
4CA
  100
AcDbEntity
  8
Layer 1
  62
0
  100
AcDb2dVertex
  10
3.36400
  20
1.15700
  30
0.00000
  42
0.1518
  70
32
  0
VERTEX
  5
4CB
  100
AcDbEntity
  8
Layer 1
  62
0
  100
AcDb2dVertex
  10
3.37000
  20
1.14095
  30
0.00000
  42
0.0688
  70
32
  0
VERTEX
  5
4CC
  100
AcDbEntity
  8
Layer 1
  62
0
  100
AcDb2dVertex
  10
3.39253
  20
1.11819
  30
0.00000
  70
32
  0
VERTEX
  5
4CD
  100
AcDbEntity
  8
Layer 1
  62
0
  100
AcDb2dVertex
  10
3.39400
  20
1.11700
  30
0.00000
  42
-0.0371
  70
32
  0
VERTEX
  5
4CE
  100
AcDbEntity
  8
Layer 1
  62
0
  100
AcDb2dVertex
  10
3.43320
  20
1.08653
  30
0.00000
  42
-0.0587
  70
32
  0
VERTEX
  5
4CF
  100
AcDbEntity
  8
Layer 1
  62
0
  100
AcDb2dVertex
  10
3.44400
  20
1.07400
  30
0.00000
  42
-0.1337
  70
32
  0
VERTEX
  5
4D0
  100
AcDbEntity
  8
Layer 1
  62
0
  100
AcDb2dVertex
  10
3.44750
  20
1.06251
  30
0.00000
  42
-0.0252
  70
32
  0
VERTEX
  5
4D1
  100
AcDbEntity
  8
Layer 1
  62
0
  100
AcDb2dVertex
  10
3.44800
  20
1.05000
  30
0.00000
  42
-0.1004
  70
32
  0
VERTEX
  5
4D2
  100
AcDbEntity
  8
Layer 1
  62
0
  100
AcDb2dVertex
  10
3.44100
  20
1.01400
  30
0.00000
  42
-0.1005
  70
32
  0
VERTEX
  5
4D3
  100
AcDbEntity
  8
Layer 1
  62
0
  100
AcDb2dVertex
  10
3.42386
  20
0.97788
  30
0.00000
  42
-0.2090
  70
32
  0
VERTEX
  5
4D4
  100
AcDbEntity
  8
Layer 1
  62
0
  100
AcDb2dVertex
  10
3.38065
  20
0.95451
  30
0.00000
  42
-0.0274
  70
32
  0
VERTEX
  5
4D5
  100
AcDbEntity
  8
Layer 1
  62
0
  100
AcDb2dVertex
  10
3.37100
  20
0.95400
  30
0.00000
  42
-0.0998
  70
32
  0
VERTEX
  5
4D6
  100
AcDbEntity
  8
Layer 1
  62
0
  100
AcDb2dVertex
  10
3.34251
  20
0.96090
  30
0.00000
  42
-0.0340
  70
32
  0
VERTEX
  5
4D7
  100
AcDbEntity
  8
Layer 1
  62
0
  100
AcDb2dVertex
  10
3.32300
  20
0.97100
  30
0.00000
  42
0.1272
  70
32
  0
VERTEX
  5
4D8
  100
AcDbEntity
  8
Layer 1
  62
0
  100
AcDb2dVertex
  10
3.25891
  20
0.98890
  30
0.00000
  70
32
  0
VERTEX
  5
4D9
  100
AcDbEntity
  8
Layer 1
  62
0
  100
AcDb2dVertex
  10
3.25300
  20
0.98900
  30
0.00000
  42
0.0114
  70
32
  0
VERTEX
  5
4DA
  100
AcDbEntity
  8
Layer 1
  62
0
  100
AcDb2dVertex
  10
3.21800
  20
0.98600
  30
0.00000
  42
-0.0234
  70
32
  0
VERTEX
  5
4DB
  100
AcDbEntity
  8
Layer 1
  62
0
  100
AcDb2dVertex
  10
3.18300
  20
0.98400
  30
0.00000
  42
-0.1556
  70
32
  0
VERTEX
  5
4DC
  100
AcDbEntity
  8
Layer 1
  62
0
  100
AcDb2dVertex
  10
3.12691
  20
1.00213
  30
0.00000
  70
32
  0
VERTEX
  5
4DD
  100
AcDbEntity
  8
Layer 1
  62
0
  100
AcDb2dVertex
  10
3.11900
  20
1.00800
  30
0.00000
  42
-0.1439
  70
32
  0
VERTEX
  5
4DE
  100
AcDbEntity
  8
Layer 1
  62
0
  100
AcDb2dVertex
  10
3.09283
  20
1.04353
  30
0.00000
  42
-0.0837
  70
32
  0
VERTEX
  5
4DF
  100
AcDbEntity
  8
Layer 1
  62
0
  100
AcDb2dVertex
  10
3.08900
  20
1.06700
  30
0.00000
  42
-0.1060
  70
32
  0
VERTEX
  5
4E0
  100
AcDbEntity
  8
Layer 1
  62
0
  100
AcDb2dVertex
  10
3.09600
  20
1.09700
  30
0.00000
  42
0.0246
  70
32
  0
VERTEX
  5
4E1
  100
AcDbEntity
  8
Layer 1
  62
0
  100
AcDb2dVertex
  10
3.11992
  20
1.14612
  30
0.00000
  42
0.0778
  70
32
  0
VERTEX
  5
4E2
  100
AcDbEntity
  8
Layer 1
  62
0
  100
AcDb2dVertex
  10
3.12300
  20
1.15700
  30
0.00000
  42
0.1278
  70
32
  0
VERTEX
  5
4E3
  100
AcDbEntity
  8
Layer 1
  62
0
  100
AcDb2dVertex
  10
3.11847
  20
1.17819
  30
0.00000
  70
32
  0
VERTEX
  5
4E4
  100
AcDbEntity
  8
Layer 1
  62
0
  100
AcDb2dVertex
  10
3.11800
  20
1.17900
  30
0.00000
  42
-0.0261
  70
32
  0
VERTEX
  5
4E5
  100
AcDbEntity
  8
Layer 1
  62
0
  100
AcDb2dVertex
  10
3.09200
  20
1.21000
  30
0.00000
  42
-0.1492
  70
32
  0
VERTEX
  5
4E6
  100
AcDbEntity
  8
Layer 1
  62
0
  100
AcDb2dVertex
  10
3.08001
  20
1.23749
  30
0.00000
  42
-0.0375
  70
32
  0
VERTEX
  5
4E7
  100
AcDbEntity
  8
Layer 1
  62
0
  100
AcDb2dVertex
  10
3.07900
  20
1.25200
  30
0.00000
  70
32
  0
VERTEX
  5
4E8
  100
AcDbEntity
  8
Layer 1
  62
0
  100
AcDb2dVertex
  10
3.07900
  20
1.26500
  30
0.00000
  70
32
  0
VERTEX
  5
4E9
  100
AcDbEntity
  8
Layer 1
  62
0
  100
AcDb2dVertex
  10
3.08026
  20
1.27528
  30
0.00000
  70
32
  0
VERTEX
  5
4EA
  100
AcDbEntity
  8
Layer 1
  62
0
  100
AcDb2dVertex
  10
3.08100
  20
1.28200
  30
0.00000
  70
32
  0
VERTEX
  5
4EB
  100
AcDbEntity
  8
Layer 1
  62
0
  100
AcDb2dVertex
  10
3.22600
  20
1.27000
  30
0.00000
  70
32
  0
VERTEX
  5
4EC
  100
AcDbEntity
  8
Layer 1
  62
0
  100
AcDb2dVertex
  10
3.08100
  20
1.28200
  30
0.00000
  70
32
  0
VERTEX
  5
4ED
  100
AcDbEntity
  8
Layer 1
  62
0
  100
AcDb2dVertex
  10
3.08100
  20
1.29800
  30
0.00000
  70
32
  0
VERTEX
  5
4EE
  100
AcDbEntity
  8
Layer 1
  62
0
  100
AcDb2dVertex
  10
3.08100
  20
1.31500
  30
0.00000
  42
-0.0711
  70
32
  0
VERTEX
  5
4EF
  100
AcDbEntity
  8
Layer 1
  62
0
  100
AcDb2dVertex
  10
3.08400
  20
1.33400
  30
0.00000
  42
-0.0881
  70
32
  0
VERTEX
  5
4F0
  100
AcDbEntity
  8
Layer 1
  62
0
  100
AcDb2dVertex
  10
3.09749
  20
1.34991
  30
0.00000
  42
-0.0250
  70
32
  0
VERTEX
  5
4F1
  100
AcDbEntity
  8
Layer 1
  62
0
  100
AcDb2dVertex
  10
3.11000
  20
1.36000
  30
0.00000
  42
0.0651
  70
32
  0
VERTEX
  5
4F2
  100
AcDbEntity
  8
Layer 1
  62
0
  100
AcDb2dVertex
  10
3.13146
  20
1.38099
  30
0.00000
  42
0.0930
  70
32
  0
VERTEX
  5
4F3
  100
AcDbEntity
  8
Layer 1
  62
0
  100
AcDb2dVertex
  10
3.13600
  20
1.39000
  30
0.00000
  42
0.0230
  70
32
  0
VERTEX
  5
4F4
  100
AcDbEntity
  8
Layer 1
  62
0
  100
AcDb2dVertex
  10
3.13900
  20
1.40500
  30
0.00000
  42
0.0415
  70
32
  0
VERTEX
  5
4F5
  100
AcDbEntity
  8
Layer 1
  62
0
  100
AcDb2dVertex
  10
3.13517
  20
1.42218
  30
0.00000
  70
32
  0
VERTEX
  5
4F6
  100
AcDbEntity
  8
Layer 1
  62
0
  100
AcDb2dVertex
  10
3.12900
  20
1.44400
  30
0.00000
  70
32
  0
VERTEX
  5
4F7
  100
AcDbEntity
  8
Layer 1
  62
0
  100
AcDb2dVertex
  10
3.12176
  20
1.47034
  30
0.00000
  42
-0.0324
  70
32
  0
VERTEX
  5
4F8
  100
AcDbEntity
  8
Layer 1
  62
0
  100
AcDb2dVertex
  10
3.11900
  20
1.48100
  30
0.00000
  42
-0.1673
  70
32
  0
VERTEX
  5
4F9
  100
AcDbEntity
  8
Layer 1
  62
0
  100
AcDb2dVertex
  10
3.13470
  20
1.52553
  30
0.00000
  42
-0.0481
  70
32
  0
VERTEX
  5
4FA
  100
AcDbEntity
  8
Layer 1
  62
0
  100
AcDb2dVertex
  10
3.15000
  20
1.54200
  30
0.00000
  42
-0.1002
  70
32
  0
VERTEX
  5
4FB
  100
AcDbEntity
  8
Layer 1
  62
0
  100
AcDb2dVertex
  10
3.18924
  20
1.56508
  30
0.00000
  42
-0.0783
  70
32
  0
VERTEX
  5
4FC
  100
AcDbEntity
  8
Layer 1
  62
0
  100
AcDb2dVertex
  10
3.21400
  20
1.56900
  30
0.00000
  42
-0.0554
  70
32
  0
VERTEX
  5
4FD
  100
AcDbEntity
  8
Layer 1
  62
0
  100
AcDb2dVertex
  10
3.23460
  20
1.56512
  30
0.00000
  42
-0.0102
  70
32
  0
VERTEX
  5
4FE
  100
AcDbEntity
  8
Layer 1
  62
0
  100
AcDb2dVertex
  10
3.26900
  20
1.55500
  30
0.00000
  42
0.0305
  70
32
  0
VERTEX
  5
4FF
  100
AcDbEntity
  8
Layer 1
  62
0
  100
AcDb2dVertex
  10
3.31887
  20
1.54304
  30
0.00000
  42
0.0359
  70
32
  0
VERTEX
  5
500
  100
AcDbEntity
  8
Layer 1
  62
0
  100
AcDb2dVertex
  10
3.33100
  20
1.54200
  30
0.00000
  42
0.0132
  70
32
  0
VERTEX
  5
501
  100
AcDbEntity
  8
Layer 1
  62
0
  100
AcDb2dVertex
  10
3.38200
  20
1.55200
  30
0.00000
  42
-0.0153
  70
32
  0
VERTEX
  5
502
  100
AcDbEntity
  8
Layer 1
  62
0
  100
AcDb2dVertex
  10
3.43343
  20
1.56196
  30
0.00000
  70
32
  0
VERTEX
  5
503
  100
AcDbEntity
  8
Layer 1
  62
0
  100
AcDb2dVertex
  10
3.43400
  20
1.56200
  30
0.00000
  42
-0.1150
  70
32
  0
VERTEX
  5
504
  100
AcDbEntity
  8
Layer 1
  62
0
  100
AcDb2dVertex
  10
3.45678
  20
1.55768
  30
0.00000
  42
-0.2565
  70
32
  0
VERTEX
  5
505
  100
AcDbEntity
  8
Layer 1
  62
0
  100
AcDb2dVertex
  10
3.47045
  20
1.53825
  30
0.00000
  42
-0.0401
  70
32
  0
VERTEX
  5
506
  100
AcDbEntity
  8
Layer 1
  62
0
  100
AcDb2dVertex
  10
3.47100
  20
1.53100
  30
0.00000
  70
32
  0
VERTEX
  5
507
  100
AcDbEntity
  8
Layer 1
  62
0
  100
AcDb2dVertex
  10
3.47100
  20
1.48400
  30
0.00000
  70
32
  0
SEQEND
  5
508
  100
AcDbEntity
  8
Layer 1
  62
0
  0
POLYLINE
  5
509
  100
AcDbEntity
  8
Layer 1
  62
0
  100
AcDb2dPolyline
 66
     1
  10
0
  20
0
  30
0
  70
1
  0
VERTEX
  5
50A
  100
AcDbEntity
  8
Layer 1
  62
0
  100
AcDb2dVertex
  10
4.46300
  20
0.21900
  30
0.00000
  42
-0.0682
  70
32
  0
VERTEX
  5
50B
  100
AcDbEntity
  8
Layer 1
  62
0
  100
AcDb2dVertex
  10
4.45591
  20
0.17636
  30
0.00000
  42
-0.0403
  70
32
  0
VERTEX
  5
50C
  100
AcDbEntity
  8
Layer 1
  62
0
  100
AcDb2dVertex
  10
4.42762
  20
0.10461
  30
0.00000
  70
32
  0
VERTEX
  5
50D
  100
AcDbEntity
  8
Layer 1
  62
0
  100
AcDb2dVertex
  10
4.42000
  20
0.08900
  30
0.00000
  70
32
  0
VERTEX
  5
50E
  100
AcDbEntity
  8
Layer 1
  62
0
  100
AcDb2dVertex
  10
4.21300
  20
0.23000
  30
0.00000
  70
32
  0
VERTEX
  5
50F
  100
AcDbEntity
  8
Layer 1
  62
0
  100
AcDb2dVertex
  10
4.42000
  20
0.08900
  30
0.00000
  42
-0.0397
  70
32
  0
VERTEX
  5
510
  100
AcDbEntity
  8
Layer 1
  62
0
  100
AcDb2dVertex
  10
4.39159
  20
0.05908
  30
0.00000
  70
32
  0
VERTEX
  5
511
  100
AcDbEntity
  8
Layer 1
  62
0
  100
AcDb2dVertex
  10
4.37600
  20
0.04500
  30
0.00000
  42
-0.0337
  70
32
  0
VERTEX
  5
512
  100
AcDbEntity
  8
Layer 1
  62
0
  100
AcDb2dVertex
  10
4.33837
  20
0.01458
  30
0.00000
  42
-0.0920
  70
32
  0
VERTEX
  5
513
  100
AcDbEntity
  8
Layer 1
  62
0
  100
AcDb2dVertex
  10
4.32319
  20
0.00722
  30
0.00000
  70
32
  0
VERTEX
  5
514
  100
AcDbEntity
  8
Layer 1
  62
0
  100
AcDb2dVertex
  10
4.32100
  20
0.00700
  30
0.00000
  42
-0.1960
  70
32
  0
VERTEX
  5
515
  100
AcDbEntity
  8
Layer 1
  62
0
  100
AcDb2dVertex
  10
4.30567
  20
0.01398
  30
0.00000
  42
-0.0841
  70
32
  0
VERTEX
  5
516
  100
AcDbEntity
  8
Layer 1
  62
0
  100
AcDb2dVertex
  10
4.29045
  20
0.03610
  30
0.00000
  70
32
  0
VERTEX
  5
517
  100
AcDbEntity
  8
Layer 1
  62
0
  100
AcDb2dVertex
  10
4.29000
  20
0.03700
  30
0.00000
  42
0.1367
  70
32
  0
VERTEX
  5
518
  100
AcDbEntity
  8
Layer 1
  62
0
  100
AcDb2dVertex
  10
4.27196
  20
0.06024
  30
0.00000
  42
0.1556
  70
32
  0
VERTEX
  5
519
  100
AcDbEntity
  8
Layer 1
  62
0
  100
AcDb2dVertex
  10
4.25000
  20
0.06700
  30
0.00000
  42
0.0736
  70
32
  0
VERTEX
  5
51A
  100
AcDbEntity
  8
Layer 1
  62
0
  100
AcDb2dVertex
  10
4.24582
  20
0.06609
  30
0.00000
  70
32
  0
VERTEX
  5
51B
  100
AcDbEntity
  8
Layer 1
  62
0
  100
AcDb2dVertex
  10
4.24200
  20
0.06500
  30
0.00000
  42
-0.0660
  70
32
  0
VERTEX
  5
51C
  100
AcDbEntity
  8
Layer 1
  62
0
  100
AcDb2dVertex
  10
4.23300
  20
0.06400
  30
0.00000
  42
-0.2276
  70
32
  0
VERTEX
  5
51D
  100
AcDbEntity
  8
Layer 1
  62
0
  100
AcDb2dVertex
  10
4.19188
  20
0.08277
  30
0.00000
  42
-0.0718
  70
32
  0
VERTEX
  5
51E
  100
AcDbEntity
  8
Layer 1
  62
0
  100
AcDb2dVertex
  10
4.17600
  20
0.10800
  30
0.00000
  42
0.0848
  70
32
  0
VERTEX
  5
51F
  100
AcDbEntity
  8
Layer 1
  62
0
  100
AcDb2dVertex
  10
4.15640
  20
0.13899
  30
0.00000
  42
0.1536
  70
32
  0
VERTEX
  5
520
  100
AcDbEntity
  8
Layer 1
  62
0
  100
AcDb2dVertex
  10
4.13573
  20
0.15143
  30
0.00000
  42
0.0499
  70
32
  0
VERTEX
  5
521
  100
AcDbEntity
  8
Layer 1
  62
0
  100
AcDb2dVertex
  10
4.13000
  20
0.15200
  30
0.00000
  70
32
  0
VERTEX
  5
522
  100
AcDbEntity
  8
Layer 1
  62
0
  100
AcDb2dVertex
  10
4.12926
  20
0.15123
  30
0.00000
  70
32
  0
VERTEX
  5
523
  100
AcDbEntity
  8
Layer 1
  62
0
  100
AcDb2dVertex
  10
4.11254
  20
0.13946
  30
0.00000
  70
32
  0
VERTEX
  5
524
  100
AcDbEntity
  8
Layer 1
  62
0
  100
AcDb2dVertex
  10
4.08600
  20
0.12100
  30
0.00000
  42
-0.0891
  70
32
  0
VERTEX
  5
525
  100
AcDbEntity
  8
Layer 1
  62
0
  100
AcDb2dVertex
  10
4.03042
  20
0.09414
  30
0.00000
  42
-0.0643
  70
32
  0
VERTEX
  5
526
  100
AcDbEntity
  8
Layer 1
  62
0
  100
AcDb2dVertex
  10
3.99900
  20
0.09000
  30
0.00000
  42
-0.0154
  70
32
  0
VERTEX
  5
527
  100
AcDbEntity
  8
Layer 1
  62
0
  100
AcDb2dVertex
  10
3.97400
  20
0.09300
  30
0.00000
  70
32
  0
VERTEX
  5
528
  100
AcDbEntity
  8
Layer 1
  62
0
  100
AcDb2dVertex
  10
3.95458
  20
0.09456
  30
0.00000
  70
32
  0
VERTEX
  5
529
  100
AcDbEntity
  8
Layer 1
  62
0
  100
AcDb2dVertex
  10
3.94900
  20
0.09500
  30
0.00000
  42
0.0982
  70
32
  0
VERTEX
  5
52A
  100
AcDbEntity
  8
Layer 1
  62
0
  100
AcDb2dVertex
  10
3.85670
  20
0.07574
  30
0.00000
  42
0.0422
  70
32
  0
VERTEX
  5
52B
  100
AcDbEntity
  8
Layer 1
  62
0
  100
AcDb2dVertex
  10
3.80700
  20
0.05000
  30
0.00000
  42
0.0104
  70
32
  0
VERTEX
  5
52C
  100
AcDbEntity
  8
Layer 1
  62
0
  100
AcDb2dVertex
  10
3.74113
  20
0.00777
  30
0.00000
  70
32
  0
VERTEX
  5
52D
  100
AcDbEntity
  8
Layer 1
  62
0
  100
AcDb2dVertex
  10
3.73841
  20
0.00569
  30
0.00000
  70
32
  0
VERTEX
  5
52E
  100
AcDbEntity
  8
Layer 1
  62
0
  100
AcDb2dVertex
  10
3.73792
  20
0.00517
  30
0.00000
  70
32
  0
VERTEX
  5
52F
  100
AcDbEntity
  8
Layer 1
  62
0
  100
AcDb2dVertex
  10
3.73800
  20
0.00500
  30
0.00000
  42
-0.1728
  70
32
  0
VERTEX
  5
530
  100
AcDbEntity
  8
Layer 1
  62
0
  100
AcDb2dVertex
  10
3.72436
  20
0.00885
  30
0.00000
  42
-0.1985
  70
32
  0
VERTEX
  5
531
  100
AcDbEntity
  8
Layer 1
  62
0
  100
AcDb2dVertex
  10
3.71833
  20
0.02140
  30
0.00000
  70
32
  0
VERTEX
  5
532
  100
AcDbEntity
  8
Layer 1
  62
0
  100
AcDb2dVertex
  10
3.71800
  20
0.02700
  30
0.00000
  42
-0.1239
  70
32
  0
VERTEX
  5
533
  100
AcDbEntity
  8
Layer 1
  62
0
  100
AcDb2dVertex
  10
3.72572
  20
0.05346
  30
0.00000
  42
-0.0661
  70
32
  0
VERTEX
  5
534
  100
AcDbEntity
  8
Layer 1
  62
0
  100
AcDb2dVertex
  10
3.75237
  20
0.08825
  30
0.00000
  42
-0.0198
  70
32
  0
VERTEX
  5
535
  100
AcDbEntity
  8
Layer 1
  62
0
  100
AcDb2dVertex
  10
3.77400
  20
0.10900
  30
0.00000
  42
-0.0289
  70
32
  0
VERTEX
  5
536
  100
AcDbEntity
  8
Layer 1
  62
0
  100
AcDb2dVertex
  10
3.82201
  20
0.14260
  30
0.00000
  42
-0.0761
  70
32
  0
VERTEX
  5
537
  100
AcDbEntity
  8
Layer 1
  62
0
  100
AcDb2dVertex
  10
3.84271
  20
0.15177
  30
0.00000
  70
32
  0
VERTEX
  5
538
  100
AcDbEntity
  8
Layer 1
  62
0
  100
AcDb2dVertex
  10
3.84400
  20
0.15200
  30
0.00000
  42
0.0192
  70
32
  0
VERTEX
  5
539
  100
AcDbEntity
  8
Layer 1
  62
0
  100
AcDb2dVertex
  10
3.92306
  20
0.16644
  30
0.00000
  70
32
  0
VERTEX
  5
53A
  100
AcDbEntity
  8
Layer 1
  62
0
  100
AcDb2dVertex
  10
3.94900
  20
0.17200
  30
0.00000
  42
0.1609
  70
32
  0
VERTEX
  5
53B
  100
AcDbEntity
  8
Layer 1
  62
0
  100
AcDb2dVertex
  10
3.97483
  20
0.18808
  30
0.00000
  42
0.1415
  70
32
  0
VERTEX
  5
53C
  100
AcDbEntity
  8
Layer 1
  62
0
  100
AcDb2dVertex
  10
3.98538
  20
0.21586
  30
0.00000
  42
0.0292
  70
32
  0
VERTEX
  5
53D
  100
AcDbEntity
  8
Layer 1
  62
0
  100
AcDb2dVertex
  10
3.98600
  20
0.22700
  30
0.00000
  42
0.1210
  70
32
  0
VERTEX
  5
53E
  100
AcDbEntity
  8
Layer 1
  62
0
  100
AcDb2dVertex
  10
3.97944
  20
0.24932
  30
0.00000
  42
0.0395
  70
32
  0
VERTEX
  5
53F
  100
AcDbEntity
  8
Layer 1
  62
0
  100
AcDb2dVertex
  10
3.96800
  20
0.26700
  30
0.00000
  70
32
  0
VERTEX
  5
540
  100
AcDbEntity
  8
Layer 1
  62
0
  100
AcDb2dVertex
  10
3.95977
  20
0.27525
  30
0.00000
  42
-0.0111
  70
32
  0
VERTEX
  5
541
  100
AcDbEntity
  8
Layer 1
  62
0
  100
AcDb2dVertex
  10
3.93600
  20
0.30000
  30
0.00000
  42
-0.1250
  70
32
  0
VERTEX
  5
542
  100
AcDbEntity
  8
Layer 1
  62
0
  100
AcDb2dVertex
  10
3.91785
  20
0.34461
  30
0.00000
  42
-0.0399
  70
32
  0
VERTEX
  5
543
  100
AcDbEntity
  8
Layer 1
  62
0
  100
AcDb2dVertex
  10
3.91600
  20
0.36900
  30
0.00000
  42
-0.1111
  70
32
  0
VERTEX
  5
544
  100
AcDbEntity
  8
Layer 1
  62
0
  100
AcDb2dVertex
  10
3.92546
  20
0.41584
  30
0.00000
  42
-0.1628
  70
32
  0
VERTEX
  5
545
  100
AcDbEntity
  8
Layer 1
  62
0
  100
AcDb2dVertex
  10
3.96378
  20
0.45542
  30
0.00000
  42
-0.0319
  70
32
  0
VERTEX
  5
546
  100
AcDbEntity
  8
Layer 1
  62
0
  100
AcDb2dVertex
  10
3.97800
  20
0.46200
  30
0.00000
  42
0.0393
  70
32
  0
VERTEX
  5
547
  100
AcDbEntity
  8
Layer 1
  62
0
  100
AcDb2dVertex
  10
4.02282
  20
0.47358
  30
0.00000
  70
32
  0
VERTEX
  5
548
  100
AcDbEntity
  8
Layer 1
  62
0
  100
AcDb2dVertex
  10
4.03900
  20
0.47900
  30
0.00000
  42
0.0632
  70
32
  0
VERTEX
  5
549
  100
AcDbEntity
  8
Layer 1
  62
0
  100
AcDb2dVertex
  10
4.05039
  20
0.48890
  30
0.00000
  42
0.0127
  70
32
  0
VERTEX
  5
54A
  100
AcDbEntity
  8
Layer 1
  62
0
  100
AcDb2dVertex
  10
4.06900
  20
0.50900
  30
0.00000
  42
-0.0844
  70
32
  0
VERTEX
  5
54B
  100
AcDbEntity
  8
Layer 1
  62
0
  100
AcDb2dVertex
  10
4.09441
  20
0.52689
  30
0.00000
  42
-0.1019
  70
32
  0
VERTEX
  5
54C
  100
AcDbEntity
  8
Layer 1
  62
0
  100
AcDb2dVertex
  10
4.10800
  20
0.53000
  30
0.00000
  42
-0.1688
  70
32
  0
VERTEX
  5
54D
  100
AcDbEntity
  8
Layer 1
  62
0
  100
AcDb2dVertex
  10
4.12595
  20
0.52481
  30
0.00000
  42
-0.1849
  70
32
  0
VERTEX
  5
54E
  100
AcDbEntity
  8
Layer 1
  62
0
  100
AcDb2dVertex
  10
4.13500
  20
0.50846
  30
0.00000
  42
-0.0483
  70
32
  0
VERTEX
  5
54F
  100
AcDbEntity
  8
Layer 1
  62
0
  100
AcDb2dVertex
  10
4.13600
  20
0.49700
  30
0.00000
  42
-0.0284
  70
32
  0
VERTEX
  5
550
  100
AcDbEntity
  8
Layer 1
  62
0
  100
AcDb2dVertex
  10
4.13300
  20
0.46100
  30
0.00000
  42
0.0275
  70
32
  0
VERTEX
  5
551
  100
AcDbEntity
  8
Layer 1
  62
0
  100
AcDb2dVertex
  10
4.13000
  20
0.42700
  30
0.00000
  42
0.1132
  70
32
  0
VERTEX
  5
552
  100
AcDbEntity
  8
Layer 1
  62
0
  100
AcDb2dVertex
  10
4.13450
  20
0.40297
  30
0.00000
  42
0.2469
  70
32
  0
VERTEX
  5
553
  100
AcDbEntity
  8
Layer 1
  62
0
  100
AcDb2dVertex
  10
4.15477
  20
0.38794
  30
0.00000
  42
0.0499
  70
32
  0
VERTEX
  5
554
  100
AcDbEntity
  8
Layer 1
  62
0
  100
AcDb2dVertex
  10
4.16500
  20
0.38700
  30
0.00000
  42
0.1528
  70
32
  0
VERTEX
  5
555
  100
AcDbEntity
  8
Layer 1
  62
0
  100
AcDb2dVertex
  10
4.17910
  20
0.39250
  30
0.00000
  42
0.0674
  70
32
  0
VERTEX
  5
556
  100
AcDbEntity
  8
Layer 1
  62
0
  100
AcDb2dVertex
  10
4.20101
  20
0.41457
  30
0.00000
  42
0.0165
  70
32
  0
VERTEX
  5
557
  100
AcDbEntity
  8
Layer 1
  62
0
  100
AcDb2dVertex
  10
4.21400
  20
0.43200
  30
0.00000
  42
-0.1065
  70
32
  0
VERTEX
  5
558
  100
AcDbEntity
  8
Layer 1
  62
0
  100
AcDb2dVertex
  10
4.24661
  20
0.46513
  30
0.00000
  42
-0.1433
  70
32
  0
VERTEX
  5
559
  100
AcDbEntity
  8
Layer 1
  62
0
  100
AcDb2dVertex
  10
4.28800
  20
0.47700
  30
0.00000
  42
-0.1124
  70
32
  0
VERTEX
  5
55A
  100
AcDbEntity
  8
Layer 1
  62
0
  100
AcDb2dVertex
  10
4.32202
  20
0.47030
  30
0.00000
  42
-0.1382
  70
32
  0
VERTEX
  5
55B
  100
AcDbEntity
  8
Layer 1
  62
0
  100
AcDb2dVertex
  10
4.34500
  20
0.45000
  30
0.00000
  70
32
  0
VERTEX
  5
55C
  100
AcDbEntity
  8
Layer 1
  62
0
  100
AcDb2dVertex
  10
4.34613
  20
0.44586
  30
0.00000
  42
0.0070
  70
32
  0
VERTEX
  5
55D
  100
AcDbEntity
  8
Layer 1
  62
0
  100
AcDb2dVertex
  10
4.35800
  20
0.40400
  30
0.00000
  42
0.0978
  70
32
  0
VERTEX
  5
55E
  100
AcDbEntity
  8
Layer 1
  62
0
  100
AcDb2dVertex
  10
4.40073
  20
0.32474
  30
0.00000
  42
0.0270
  70
32
  0
VERTEX
  5
55F
  100
AcDbEntity
  8
Layer 1
  62
0
  100
AcDb2dVertex
  10
4.42300
  20
0.30000
  30
0.00000
  42
-0.0991
  70
32
  0
VERTEX
  5
560
  100
AcDbEntity
  8
Layer 1
  62
0
  100
AcDb2dVertex
  10
4.45511
  20
0.25556
  30
0.00000
  42
-0.1032
  70
32
  0
VERTEX
  5
561
  100
AcDbEntity
  8
Layer 1
  62
0
  100
AcDb2dVertex
  10
4.46300
  20
0.21900
  30
0.00000
  70
32
  0
SEQEND
  5
562
  100
AcDbEntity
  8
Layer 1
  62
0
  0
POLYLINE
  5
563
  100
AcDbEntity
  8
Layer 1
  62
0
  100
AcDb2dPolyline
 66
     1
  10
0
  20
0
  30
0
  70
1
  0
VERTEX
  5
564
  100
AcDbEntity
  8
Layer 1
  62
0
  100
AcDb2dVertex
  10
3.99300
  20
0.55200
  30
0.00000
  42
-0.1675
  70
32
  0
VERTEX
  5
565
  100
AcDbEntity
  8
Layer 1
  62
0
  100
AcDb2dVertex
  10
3.98794
  20
0.54060
  30
0.00000
  42
-0.0730
  70
32
  0
VERTEX
  5
566
  100
AcDbEntity
  8
Layer 1
  62
0
  100
AcDb2dVertex
  10
3.96628
  20
0.52227
  30
0.00000
  70
32
  0
VERTEX
  5
567
  100
AcDbEntity
  8
Layer 1
  62
0
  100
AcDb2dVertex
  10
3.95800
  20
0.51700
  30
0.00000
  42
-0.0707
  70
32
  0
VERTEX
  5
568
  100
AcDbEntity
  8
Layer 1
  62
0
  100
AcDb2dVertex
  10
3.82807
  20
0.46400
  30
0.00000
  42
-0.0601
  70
32
  0
VERTEX
  5
569
  100
AcDbEntity
  8
Layer 1
  62
0
  100
AcDb2dVertex
  10
3.72900
  20
0.45200
  30
0.00000
  42
-0.0635
  70
32
  0
VERTEX
  5
56A
  100
AcDbEntity
  8
Layer 1
  62
0
  100
AcDb2dVertex
  10
3.64459
  20
0.46170
  30
0.00000
  42
-0.0888
  70
32
  0
VERTEX
  5
56B
  100
AcDbEntity
  8
Layer 1
  62
0
  100
AcDb2dVertex
  10
3.58100
  20
0.49000
  30
0.00000
  42
-0.0694
  70
32
  0
VERTEX
  5
56C
  100
AcDbEntity
  8
Layer 1
  62
0
  100
AcDb2dVertex
  10
3.54051
  20
0.53104
  30
0.00000
  42
-0.0227
  70
32
  0
VERTEX
  5
56D
  100
AcDbEntity
  8
Layer 1
  62
0
  100
AcDb2dVertex
  10
3.52100
  20
0.55900
  30
0.00000
  42
0.0722
  70
32
  0
VERTEX
  5
56E
  100
AcDbEntity
  8
Layer 1
  62
0
  100
AcDb2dVertex
  10
3.49653
  20
0.58715
  30
0.00000
  42
0.1406
  70
32
  0
VERTEX
  5
56F
  100
AcDbEntity
  8
Layer 1
  62
0
  100
AcDb2dVertex
  10
3.47617
  20
0.59681
  30
0.00000
  70
32
  0
VERTEX
  5
570
  100
AcDbEntity
  8
Layer 1
  62
0
  100
AcDb2dVertex
  10
3.47300
  20
0.59700
  30
0.00000
  42
0.0176
  70
32
  0
VERTEX
  5
571
  100
AcDbEntity
  8
Layer 1
  62
0
  100
AcDb2dVertex
  10
3.43658
  20
0.58614
  30
0.00000
  70
32
  0
VERTEX
  5
572
  100
AcDbEntity
  8
Layer 1
  62
0
  100
AcDb2dVertex
  10
3.43300
  20
0.58500
  30
0.00000
  42
-0.0275
  70
32
  0
VERTEX
  5
573
  100
AcDbEntity
  8
Layer 1
  62
0
  100
AcDb2dVertex
  10
3.39234
  20
0.57415
  30
0.00000
  70
32
  0
VERTEX
  5
574
  100
AcDbEntity
  8
Layer 1
  62
0
  100
AcDb2dVertex
  10
3.39100
  20
0.57400
  30
0.00000
  42
-0.2670
  70
32
  0
VERTEX
  5
575
  100
AcDbEntity
  8
Layer 1
  62
0
  100
AcDb2dVertex
  10
3.37386
  20
0.58371
  30
0.00000
  42
-0.0994
  70
32
  0
VERTEX
  5
576
  100
AcDbEntity
  8
Layer 1
  62
0
  100
AcDb2dVertex
  10
3.36588
  20
0.60610
  30
0.00000
  42
-0.0448
  70
32
  0
VERTEX
  5
577
  100
AcDbEntity
  8
Layer 1
  62
0
  100
AcDb2dVertex
  10
3.36300
  20
0.64500
  30
0.00000
  70
32
  0
VERTEX
  5
578
  100
AcDbEntity
  8
Layer 1
  62
0
  100
AcDb2dVertex
  10
3.36300
  20
0.65700
  30
0.00000
  42
0.0188
  70
32
  0
VERTEX
  5
579
  100
AcDbEntity
  8
Layer 1
  62
0
  100
AcDb2dVertex
  10
3.36400
  20
0.70700
  30
0.00000
  42
-0.0269
  70
32
  0
VERTEX
  5
57A
  100
AcDbEntity
  8
Layer 1
  62
0
  100
AcDb2dVertex
  10
3.36900
  20
0.73400
  30
0.00000
  42
-0.1189
  70
32
  0
VERTEX
  5
57B
  100
AcDbEntity
  8
Layer 1
  62
0
  100
AcDb2dVertex
  10
3.37694
  20
0.74995
  30
0.00000
  42
-0.2155
  70
32
  0
VERTEX
  5
57C
  100
AcDbEntity
  8
Layer 1
  62
0
  100
AcDb2dVertex
  10
3.38900
  20
0.75500
  30
0.00000
  42
-0.0310
  70
32
  0
VERTEX
  5
57D
  100
AcDbEntity
  8
Layer 1
  62
0
  100
AcDb2dVertex
  10
3.40817
  20
0.75075
  30
0.00000
  70
32
  0
VERTEX
  5
57E
  100
AcDbEntity
  8
Layer 1
  62
0
  100
AcDb2dVertex
  10
3.41815
  20
0.74824
  30
0.00000
  70
32
  0
VERTEX
  5
57F
  100
AcDbEntity
  8
Layer 1
  62
0
  100
AcDb2dVertex
  10
3.43500
  20
0.74400
  30
0.00000
  70
32
  0
VERTEX
  5
580
  100
AcDbEntity
  8
Layer 1
  62
0
  100
AcDb2dVertex
  10
3.45662
  20
0.73802
  30
0.00000
  42
0.0126
  70
32
  0
VERTEX
  5
581
  100
AcDbEntity
  8
Layer 1
  62
0
  100
AcDb2dVertex
  10
3.47900
  20
0.73200
  30
0.00000
  42
0.1975
  70
32
  0
VERTEX
  5
582
  100
AcDbEntity
  8
Layer 1
  62
0
  100
AcDb2dVertex
  10
3.50514
  20
0.74153
  30
0.00000
  42
0.0762
  70
32
  0
VERTEX
  5
583
  100
AcDbEntity
  8
Layer 1
  62
0
  100
AcDb2dVertex
  10
3.51400
  20
0.75300
  30
0.00000
  70
32
  0
VERTEX
  5
584
  100
AcDbEntity
  8
Layer 1
  62
0
  100
AcDb2dVertex
  10
3.52085
  20
0.76693
  30
0.00000
  42
-0.0101
  70
32
  0
VERTEX
  5
585
  100
AcDbEntity
  8
Layer 1
  62
0
  100
AcDb2dVertex
  10
3.53400
  20
0.79300
  30
0.00000
  42
-0.0538
  70
32
  0
VERTEX
  5
586
  100
AcDbEntity
  8
Layer 1
  62
0
  100
AcDb2dVertex
  10
3.55309
  20
0.82231
  30
0.00000
  42
-0.0166
  70
32
  0
VERTEX
  5
587
  100
AcDbEntity
  8
Layer 1
  62
0
  100
AcDb2dVertex
  10
3.57800
  20
0.85200
  30
0.00000
  42
-0.0889
  70
32
  0
VERTEX
  5
588
  100
AcDbEntity
  8
Layer 1
  62
0
  100
AcDb2dVertex
  10
3.61195
  20
0.86932
  30
0.00000
  42
-0.0544
  70
32
  0
VERTEX
  5
589
  100
AcDbEntity
  8
Layer 1
  62
0
  100
AcDb2dVertex
  10
3.67347
  20
0.88128
  30
0.00000
  42
-0.0246
  70
32
  0
VERTEX
  5
58A
  100
AcDbEntity
  8
Layer 1
  62
0
  100
AcDb2dVertex
  10
3.73400
  20
0.88400
  30
0.00000
  42
-0.0389
  70
32
  0
VERTEX
  5
58B
  100
AcDbEntity
  8
Layer 1
  62
0
  100
AcDb2dVertex
  10
3.78744
  20
0.87847
  30
0.00000
  42
-0.0142
  70
32
  0
VERTEX
  5
58C
  100
AcDbEntity
  8
Layer 1
  62
0
  100
AcDb2dVertex
  10
3.86900
  20
0.86200
  30
0.00000
  42
-0.0358
  70
32
  0
VERTEX
  5
58D
  100
AcDbEntity
  8
Layer 1
  62
0
  100
AcDb2dVertex
  10
3.94153
  20
0.84062
  30
0.00000
  42
-0.0654
  70
32
  0
VERTEX
  5
58E
  100
AcDbEntity
  8
Layer 1
  62
0
  100
AcDb2dVertex
  10
3.97574
  20
0.82277
  30
0.00000
  42
-0.1287
  70
32
  0
VERTEX
  5
58F
  100
AcDbEntity
  8
Layer 1
  62
0
  100
AcDb2dVertex
  10
3.98922
  20
0.80730
  30
0.00000
  42
-0.1035
  70
32
  0
VERTEX
  5
590
  100
AcDbEntity
  8
Layer 1
  62
0
  100
AcDb2dVertex
  10
3.99100
  20
0.79900
  30
0.00000
  42
-0.1873
  70
32
  0
VERTEX
  5
591
  100
AcDbEntity
  8
Layer 1
  62
0
  100
AcDb2dVertex
  10
3.98722
  20
0.78661
  30
0.00000
  42
-0.2049
  70
32
  0
VERTEX
  5
592
  100
AcDbEntity
  8
Layer 1
  62
0
  100
AcDb2dVertex
  10
3.97551
  20
0.78203
  30
0.00000
  70
32
  0
VERTEX
  5
593
  100
AcDbEntity
  8
Layer 1
  62
0
  100
AcDb2dVertex
  10
3.97400
  20
0.78200
  30
0.00000
  70
32
  0
VERTEX
  5
594
  100
AcDbEntity
  8
Layer 1
  62
0
  100
AcDb2dVertex
  10
3.97441
  20
0.78206
  30
0.00000
  42
0.1170
  70
32
  0
VERTEX
  5
595
  100
AcDbEntity
  8
Layer 1
  62
0
  100
AcDb2dVertex
  10
3.97094
  20
0.78339
  30
0.00000
  42
0.0062
  70
32
  0
VERTEX
  5
596
  100
AcDbEntity
  8
Layer 1
  62
0
  100
AcDb2dVertex
  10
3.91730
  20
0.79736
  30
0.00000
  70
32
  0
VERTEX
  5
597
  100
AcDbEntity
  8
Layer 1
  62
0
  100
AcDb2dVertex
  10
3.90300
  20
0.80100
  30
0.00000
  42
0.0630
  70
32
  0
VERTEX
  5
598
  100
AcDbEntity
  8
Layer 1
  62
0
  100
AcDb2dVertex
  10
3.74900
  20
0.82000
  30
0.00000
  42
0.0545
  70
32
  0
VERTEX
  5
599
  100
AcDbEntity
  8
Layer 1
  62
0
  100
AcDb2dVertex
  10
3.67146
  20
0.81253
  30
0.00000
  42
0.0839
  70
32
  0
VERTEX
  5
59A
  100
AcDbEntity
  8
Layer 1
  62
0
  100
AcDb2dVertex
  10
3.61753
  20
0.79165
  30
0.00000
  42
0.2092
  70
32
  0
VERTEX
  5
59B
  100
AcDbEntity
  8
Layer 1
  62
0
  100
AcDb2dVertex
  10
3.56838
  20
0.72260
  30
0.00000
  42
0.0823
  70
32
  0
VERTEX
  5
59C
  100
AcDbEntity
  8
Layer 1
  62
0
  100
AcDb2dVertex
  10
3.56600
  20
0.66500
  30
0.00000
  70
32
  0
VERTEX
  5
59D
  100
AcDbEntity
  8
Layer 1
  62
0
  100
AcDb2dVertex
  10
3.49800
  20
0.66500
  30
0.00000
  70
32
  0
VERTEX
  5
59E
  100
AcDbEntity
  8
Layer 1
  62
0
  100
AcDb2dVertex
  10
3.56600
  20
0.66500
  30
0.00000
  42
0.1140
  70
32
  0
VERTEX
  5
59F
  100
AcDbEntity
  8
Layer 1
  62
0
  100
AcDb2dVertex
  10
3.57992
  20
0.59981
  30
0.00000
  42
0.1236
  70
32
  0
VERTEX
  5
5A0
  100
AcDbEntity
  8
Layer 1
  62
0
  100
AcDb2dVertex
  10
3.62300
  20
0.54900
  30
0.00000
  42
0.1570
  70
32
  0
VERTEX
  5
5A1
  100
AcDbEntity
  8
Layer 1
  62
0
  100
AcDb2dVertex
  10
3.71539
  20
0.51421
  30
0.00000
  70
32
  0
VERTEX
  5
5A2
  100
AcDbEntity
  8
Layer 1
  62
0
  100
AcDb2dVertex
  10
3.72400
  20
0.51400
  30
0.00000
  42
0.0570
  70
32
  0
VERTEX
  5
5A3
  100
AcDbEntity
  8
Layer 1
  62
0
  100
AcDb2dVertex
  10
3.82317
  20
0.52642
  30
0.00000
  42
0.0222
  70
32
  0
VERTEX
  5
5A4
  100
AcDbEntity
  8
Layer 1
  62
0
  100
AcDb2dVertex
  10
3.88200
  20
0.54300
  30
0.00000
  42
0.0044
  70
32
  0
VERTEX
  5
5A5
  100
AcDbEntity
  8
Layer 1
  62
0
  100
AcDb2dVertex
  10
3.97300
  20
0.57200
  30
0.00000
  42
-0.1948
  70
32
  0
VERTEX
  5
5A6
  100
AcDbEntity
  8
Layer 1
  62
0
  100
AcDb2dVertex
  10
3.98759
  20
0.56715
  30
0.00000
  42
-0.2036
  70
32
  0
VERTEX
  5
5A7
  100
AcDbEntity
  8
Layer 1
  62
0
  100
AcDb2dVertex
  10
3.99299
  20
0.55281
  30
0.00000
  70
32
  0
VERTEX
  5
5A8
  100
AcDbEntity
  8
Layer 1
  62
0
  100
AcDb2dVertex
  10
3.99300
  20
0.55200
  30
0.00000
  70
32
  0
SEQEND
  5
5A9
  100
AcDbEntity
  8
Layer 1
  62
0
  0
POLYLINE
  5
5AA
  100
AcDbEntity
  8
Layer 1
  62
0
  100
AcDb2dPolyline
 66
     1
  10
0
  20
0
  30
0
  70
1
  0
VERTEX
  5
5AB
  100
AcDbEntity
  8
Layer 1
  62
0
  100
AcDb2dVertex
  10
3.03900
  20
1.44400
  30
0.00000
  42
-0.0385
  70
32
  0
VERTEX
  5
5AC
  100
AcDbEntity
  8
Layer 1
  62
0
  100
AcDb2dVertex
  10
3.03491
  20
1.37867
  30
0.00000
  42
-0.0731
  70
32
  0
VERTEX
  5
5AD
  100
AcDbEntity
  8
Layer 1
  62
0
  100
AcDb2dVertex
  10
3.02647
  20
1.34879
  30
0.00000
  42
-0.1563
  70
32
  0
VERTEX
  5
5AE
  100
AcDbEntity
  8
Layer 1
  62
0
  100
AcDb2dVertex
  10
3.01603
  20
1.33673
  30
0.00000
  42
-0.1236
  70
32
  0
VERTEX
  5
5AF
  100
AcDbEntity
  8
Layer 1
  62
0
  100
AcDb2dVertex
  10
3.00900
  20
1.33500
  30
0.00000
  42
-0.0319
  70
32
  0
VERTEX
  5
5B0
  100
AcDbEntity
  8
Layer 1
  62
0
  100
AcDb2dVertex
  10
2.99262
  20
1.34005
  30
0.00000
  70
32
  0
VERTEX
  5
5B1
  100
AcDbEntity
  8
Layer 1
  62
0
  100
AcDb2dVertex
  10
2.98624
  20
1.34220
  30
0.00000
  70
32
  0
VERTEX
  5
5B2
  100
AcDbEntity
  8
Layer 1
  62
0
  100
AcDb2dVertex
  10
2.96600
  20
1.34900
  30
0.00000
  42
0.0198
  70
32
  0
VERTEX
  5
5B3
  100
AcDbEntity
  8
Layer 1
  62
0
  100
AcDb2dVertex
  10
2.92440
  20
1.36179
  30
0.00000
  70
32
  0
VERTEX
  5
5B4
  100
AcDbEntity
  8
Layer 1
  62
0
  100
AcDb2dVertex
  10
2.92300
  20
1.36200
  30
0.00000
  42
0.2047
  70
32
  0
VERTEX
  5
5B5
  100
AcDbEntity
  8
Layer 1
  62
0
  100
AcDb2dVertex
  10
2.91387
  20
1.35714
  30
0.00000
  42
0.0805
  70
32
  0
VERTEX
  5
5B6
  100
AcDbEntity
  8
Layer 1
  62
0
  100
AcDb2dVertex
  10
2.90177
  20
1.33741
  30
0.00000
  42
0.0240
  70
32
  0
VERTEX
  5
5B7
  100
AcDbEntity
  8
Layer 1
  62
0
  100
AcDb2dVertex
  10
2.89300
  20
1.31500
  30
0.00000
  42
-0.0473
  70
32
  0
VERTEX
  5
5B8
  100
AcDbEntity
  8
Layer 1
  62
0
  100
AcDb2dVertex
  10
2.86199
  20
1.25321
  30
0.00000
  42
-0.0450
  70
32
  0
VERTEX
  5
5B9
  100
AcDbEntity
  8
Layer 1
  62
0
  100
AcDb2dVertex
  10
2.84400
  20
1.23000
  30
0.00000
  42
-0.1331
  70
32
  0
VERTEX
  5
5BA
  100
AcDbEntity
  8
Layer 1
  62
0
  100
AcDb2dVertex
  10
2.77709
  20
1.19221
  30
0.00000
  42
-0.0661
  70
32
  0
VERTEX
  5
5BB
  100
AcDbEntity
  8
Layer 1
  62
0
  100
AcDb2dVertex
  10
2.71800
  20
1.18500
  30
0.00000
  42
-0.1006
  70
32
  0
VERTEX
  5
5BC
  100
AcDbEntity
  8
Layer 1
  62
0
  100
AcDb2dVertex
  10
2.56760
  20
1.21618
  30
0.00000
  42
-0.0634
  70
32
  0
VERTEX
  5
5BD
  100
AcDbEntity
  8
Layer 1
  62
0
  100
AcDb2dVertex
  10
2.45299
  20
1.28363
  30
0.00000
  70
32
  0
VERTEX
  5
5BE
  100
AcDbEntity
  8
Layer 1
  62
0
  100
AcDb2dVertex
  10
2.43600
  20
1.29700
  30
0.00000
  70
32
  0
VERTEX
  5
5BF
  100
AcDbEntity
  8
Layer 1
  62
0
  100
AcDb2dVertex
  10
2.43600
  20
1.31400
  30
0.00000
  70
32
  0
VERTEX
  5
5C0
  100
AcDbEntity
  8
Layer 1
  62
0
  100
AcDb2dVertex
  10
2.44750
  20
1.31763
  30
0.00000
  42
-0.0652
  70
32
  0
VERTEX
  5
5C1
  100
AcDbEntity
  8
Layer 1
  62
0
  100
AcDb2dVertex
  10
2.45600
  20
1.31900
  30
0.00000
  42
-0.0422
  70
32
  0
VERTEX
  5
5C2
  100
AcDbEntity
  8
Layer 1
  62
0
  100
AcDb2dVertex
  10
2.46983
  20
1.31402
  30
0.00000
  42
-0.0053
  70
32
  0
VERTEX
  5
5C3
  100
AcDbEntity
  8
Layer 1
  62
0
  100
AcDb2dVertex
  10
2.55400
  20
1.27800
  30
0.00000
  42
0.0400
  70
32
  0
VERTEX
  5
5C4
  100
AcDbEntity
  8
Layer 1
  62
0
  100
AcDb2dVertex
  10
2.64481
  20
1.24575
  30
0.00000
  42
0.0615
  70
32
  0
VERTEX
  5
5C5
  100
AcDbEntity
  8
Layer 1
  62
0
  100
AcDb2dVertex
  10
2.70600
  20
1.23700
  30
0.00000
  42
0.0894
  70
32
  0
VERTEX
  5
5C6
  100
AcDbEntity
  8
Layer 1
  62
0
  100
AcDb2dVertex
  10
2.76213
  20
1.24607
  30
0.00000
  42
0.1871
  70
32
  0
VERTEX
  5
5C7
  100
AcDbEntity
  8
Layer 1
  62
0
  100
AcDb2dVertex
  10
2.82073
  20
1.29746
  30
0.00000
  42
0.0829
  70
32
  0
VERTEX
  5
5C8
  100
AcDbEntity
  8
Layer 1
  62
0
  100
AcDb2dVertex
  10
2.83904
  20
1.35373
  30
0.00000
  42
0.0494
  70
32
  0
VERTEX
  5
5C9
  100
AcDbEntity
  8
Layer 1
  62
0
  100
AcDb2dVertex
  10
2.84300
  20
1.42400
  30
0.00000
  42
-0.0236
  70
32
  0
VERTEX
  5
5CA
  100
AcDbEntity
  8
Layer 1
  62
0
  100
AcDb2dVertex
  10
2.84102
  20
1.48223
  30
0.00000
  70
32
  0
VERTEX
  5
5CB
  100
AcDbEntity
  8
Layer 1
  62
0
  100
AcDb2dVertex
  10
2.84100
  20
1.50200
  30
0.00000
  42
0.1006
  70
32
  0
VERTEX
  5
5CC
  100
AcDbEntity
  8
Layer 1
  62
0
  100
AcDb2dVertex
  10
2.83128
  20
1.54793
  30
0.00000
  42
0.1832
  70
32
  0
VERTEX
  5
5CD
  100
AcDbEntity
  8
Layer 1
  62
0
  100
AcDb2dVertex
  10
2.78983
  20
1.58885
  30
0.00000
  42
0.0864
  70
32
  0
VERTEX
  5
5CE
  100
AcDbEntity
  8
Layer 1
  62
0
  100
AcDb2dVertex
  10
2.74087
  20
1.60101
  30
0.00000
  42
0.0228
  70
32
  0
VERTEX
  5
5CF
  100
AcDbEntity
  8
Layer 1
  62
0
  100
AcDb2dVertex
  10
2.71800
  20
1.60200
  30
0.00000
  42
0.0644
  70
32
  0
VERTEX
  5
5D0
  100
AcDbEntity
  8
Layer 1
  62
0
  100
AcDb2dVertex
  10
2.64400
  20
1.59200
  30
0.00000
  42
0.0492
  70
32
  0
VERTEX
  5
5D1
  100
AcDbEntity
  8
Layer 1
  62
0
  100
AcDb2dVertex
  10
2.53217
  20
1.55321
  30
0.00000
  70
32
  0
VERTEX
  5
5D2
  100
AcDbEntity
  8
Layer 1
  62
0
  100
AcDb2dVertex
  10
2.52300
  20
1.54900
  30
0.00000
  70
32
  0
VERTEX
  5
5D3
  100
AcDbEntity
  8
Layer 1
  62
0
  100
AcDb2dVertex
  10
2.52102
  20
1.54806
  30
0.00000
  70
32
  0
VERTEX
  5
5D4
  100
AcDbEntity
  8
Layer 1
  62
0
  100
AcDb2dVertex
  10
2.47686
  20
1.52727
  30
0.00000
  70
32
  0
VERTEX
  5
5D5
  100
AcDbEntity
  8
Layer 1
  62
0
  100
AcDb2dVertex
  10
2.46535
  20
1.52223
  30
0.00000
  70
32
  0
VERTEX
  5
5D6
  100
AcDbEntity
  8
Layer 1
  62
0
  100
AcDb2dVertex
  10
2.46227
  20
1.52113
  30
0.00000
  42
-0.1810
  70
32
  0
VERTEX
  5
5D7
  100
AcDbEntity
  8
Layer 1
  62
0
  100
AcDb2dVertex
  10
2.46100
  20
1.52100
  30
0.00000
  42
-0.1702
  70
32
  0
VERTEX
  5
5D8
  100
AcDbEntity
  8
Layer 1
  62
0
  100
AcDb2dVertex
  10
2.45062
  20
1.52334
  30
0.00000
  70
32
  0
VERTEX
  5
5D9
  100
AcDbEntity
  8
Layer 1
  62
0
  100
AcDb2dVertex
  10
2.44471
  20
1.52659
  30
0.00000
  70
32
  0
VERTEX
  5
5DA
  100
AcDbEntity
  8
Layer 1
  62
0
  100
AcDb2dVertex
  10
2.44400
  20
1.52700
  30
0.00000
  42
-0.1017
  70
32
  0
VERTEX
  5
5DB
  100
AcDbEntity
  8
Layer 1
  62
0
  100
AcDb2dVertex
  10
2.43499
  20
1.53679
  30
0.00000
  42
-0.1136
  70
32
  0
VERTEX
  5
5DC
  100
AcDbEntity
  8
Layer 1
  62
0
  100
AcDb2dVertex
  10
2.43400
  20
1.54100
  30
0.00000
  42
-0.1607
  70
32
  0
VERTEX
  5
5DD
  100
AcDbEntity
  8
Layer 1
  62
0
  100
AcDb2dVertex
  10
2.43864
  20
1.55157
  30
0.00000
  42
-0.0704
  70
32
  0
VERTEX
  5
5DE
  100
AcDbEntity
  8
Layer 1
  62
0
  100
AcDb2dVertex
  10
2.45987
  20
1.57047
  30
0.00000
  70
32
  0
VERTEX
  5
5DF
  100
AcDbEntity
  8
Layer 1
  62
0
  100
AcDb2dVertex
  10
2.46800
  20
1.57600
  30
0.00000
  42
-0.0527
  70
32
  0
VERTEX
  5
5E0
  100
AcDbEntity
  8
Layer 1
  62
0
  100
AcDb2dVertex
  10
2.54728
  20
1.61622
  30
0.00000
  42
-0.0214
  70
32
  0
VERTEX
  5
5E1
  100
AcDbEntity
  8
Layer 1
  62
0
  100
AcDb2dVertex
  10
2.60800
  20
1.63700
  30
0.00000
  42
-0.0600
  70
32
  0
VERTEX
  5
5E2
  100
AcDbEntity
  8
Layer 1
  62
0
  100
AcDb2dVertex
  10
2.73607
  20
1.66049
  30
0.00000
  70
32
  0
VERTEX
  5
5E3
  100
AcDbEntity
  8
Layer 1
  62
0
  100
AcDb2dVertex
  10
2.74900
  20
1.66100
  30
0.00000
  42
-0.0708
  70
32
  0
VERTEX
  5
5E4
  100
AcDbEntity
  8
Layer 1
  62
0
  100
AcDb2dVertex
  10
2.81037
  20
1.65229
  30
0.00000
  42
-0.1190
  70
32
  0
VERTEX
  5
5E5
  100
AcDbEntity
  8
Layer 1
  62
0
  100
AcDb2dVertex
  10
2.85713
  20
1.62568
  30
0.00000
  42
-0.0695
  70
32
  0
VERTEX
  5
5E6
  100
AcDbEntity
  8
Layer 1
  62
0
  100
AcDb2dVertex
  10
2.87400
  20
1.60400
  30
0.00000
  42
-0.1231
  70
32
  0
VERTEX
  5
5E7
  100
AcDbEntity
  8
Layer 1
  62
0
  100
AcDb2dVertex
  10
2.89900
  20
1.52900
  30
0.00000
  42
0.2019
  70
32
  0
VERTEX
  5
5E8
  100
AcDbEntity
  8
Layer 1
  62
0
  100
AcDb2dVertex
  10
2.91300
  20
1.49798
  30
0.00000
  42
0.0625
  70
32
  0
VERTEX
  5
5E9
  100
AcDbEntity
  8
Layer 1
  62
0
  100
AcDb2dVertex
  10
2.92300
  20
1.49100
  30
0.00000
  70
32
  0
VERTEX
  5
5EA
  100
AcDbEntity
  8
Layer 1
  62
0
  100
AcDb2dVertex
  10
3.00900
  20
1.50600
  30
0.00000
  42
-0.0647
  70
32
  0
VERTEX
  5
5EB
  100
AcDbEntity
  8
Layer 1
  62
0
  100
AcDb2dVertex
  10
3.03117
  20
1.49859
  30
0.00000
  42
-0.1686
  70
32
  0
VERTEX
  5
5EC
  100
AcDbEntity
  8
Layer 1
  62
0
  100
AcDb2dVertex
  10
3.03700
  20
1.49300
  30
0.00000
  42
-0.0328
  70
32
  0
VERTEX
  5
5ED
  100
AcDbEntity
  8
Layer 1
  62
0
  100
AcDb2dVertex
  10
3.03882
  20
1.46341
  30
0.00000
  70
32
  0
VERTEX
  5
5EE
  100
AcDbEntity
  8
Layer 1
  62
0
  100
AcDb2dVertex
  10
3.03900
  20
1.44400
  30
0.00000
  70
32
  0
SEQEND
  5
5EF
  100
AcDbEntity
  8
Layer 1
  62
0
  0
POLYLINE
  5
5F0
  100
AcDbEntity
  8
Layer 1
  62
0
  100
AcDb2dPolyline
 66
     1
  10
0
  20
0
  30
0
  70
1
  0
VERTEX
  5
5F1
  100
AcDbEntity
  8
Layer 1
  62
0
  100
AcDb2dVertex
  10
3.33400
  20
0.79900
  30
0.00000
  42
-0.0488
  70
32
  0
VERTEX
  5
5F2
  100
AcDbEntity
  8
Layer 1
  62
0
  100
AcDb2dVertex
  10
3.32755
  20
0.74626
  30
0.00000
  70
32
  0
VERTEX
  5
5F3
  100
AcDbEntity
  8
Layer 1
  62
0
  100
AcDb2dVertex
  10
3.32600
  20
0.73900
  30
0.00000
  42
-0.0316
  70
32
  0
VERTEX
  5
5F4
  100
AcDbEntity
  8
Layer 1
  62
0
  100
AcDb2dVertex
  10
3.31582
  20
0.69935
  30
0.00000
  42
-0.1116
  70
32
  0
VERTEX
  5
5F5
  100
AcDbEntity
  8
Layer 1
  62
0
  100
AcDb2dVertex
  10
3.31068
  20
0.68990
  30
0.00000
  42
-0.1311
  70
32
  0
VERTEX
  5
5F6
  100
AcDbEntity
  8
Layer 1
  62
0
  100
AcDb2dVertex
  10
3.30900
  20
0.68900
  30
0.00000
  42
0.0357
  70
32
  0
VERTEX
  5
5F7
  100
AcDbEntity
  8
Layer 1
  62
0
  100
AcDb2dVertex
  10
3.27819
  20
0.68223
  30
0.00000
  70
32
  0
VERTEX
  5
5F8
  100
AcDbEntity
  8
Layer 1
  62
0
  100
AcDb2dVertex
  10
3.27398
  20
0.68111
  30
0.00000
  70
32
  0
VERTEX
  5
5F9
  100
AcDbEntity
  8
Layer 1
  62
0
  100
AcDb2dVertex
  10
3.26600
  20
0.67900
  30
0.00000
  42
0.1406
  70
32
  0
VERTEX
  5
5FA
  100
AcDbEntity
  8
Layer 1
  62
0
  100
AcDb2dVertex
  10
3.26319
  20
0.67573
  30
0.00000
  70
32
  0
VERTEX
  5
5FB
  100
AcDbEntity
  8
Layer 1
  62
0
  100
AcDb2dVertex
  10
3.25600
  20
0.66400
  30
0.00000
  42
-0.0982
  70
32
  0
VERTEX
  5
5FC
  100
AcDbEntity
  8
Layer 1
  62
0
  100
AcDb2dVertex
  10
3.24573
  20
0.65131
  30
0.00000
  42
-0.1603
  70
32
  0
VERTEX
  5
5FD
  100
AcDbEntity
  8
Layer 1
  62
0
  100
AcDb2dVertex
  10
3.23900
  20
0.64900
  30
0.00000
  42
-0.0618
  70
32
  0
VERTEX
  5
5FE
  100
AcDbEntity
  8
Layer 1
  62
0
  100
AcDb2dVertex
  10
3.22544
  20
0.65303
  30
0.00000
  70
32
  0
VERTEX
  5
5FF
  100
AcDbEntity
  8
Layer 1
  62
0
  100
AcDb2dVertex
  10
3.21800
  20
0.65600
  30
0.00000
  70
32
  0
VERTEX
  5
600
  100
AcDbEntity
  8
Layer 1
  62
0
  100
AcDb2dVertex
  10
3.20939
  20
0.65935
  30
0.00000
  70
32
  0
VERTEX
  5
601
  100
AcDbEntity
  8
Layer 1
  62
0
  100
AcDb2dVertex
  10
3.20042
  20
0.66278
  30
0.00000
  42
0.0662
  70
32
  0
VERTEX
  5
602
  100
AcDbEntity
  8
Layer 1
  62
0
  100
AcDb2dVertex
  10
3.19600
  20
0.66400
  30
0.00000
  70
32
  0
VERTEX
  5
603
  100
AcDbEntity
  8
Layer 1
  62
0
  100
AcDb2dVertex
  10
3.19211
  20
0.66278
  30
0.00000
  42
-0.0154
  70
32
  0
VERTEX
  5
604
  100
AcDbEntity
  8
Layer 1
  62
0
  100
AcDb2dVertex
  10
3.17400
  20
0.65700
  30
0.00000
  42
-0.0487
  70
32
  0
VERTEX
  5
605
  100
AcDbEntity
  8
Layer 1
  62
0
  100
AcDb2dVertex
  10
3.15160
  20
0.65004
  30
0.00000
  70
32
  0
VERTEX
  5
606
  100
AcDbEntity
  8
Layer 1
  62
0
  100
AcDb2dVertex
  10
3.15100
  20
0.65000
  30
0.00000
  42
-0.2038
  70
32
  0
VERTEX
  5
607
  100
AcDbEntity
  8
Layer 1
  62
0
  100
AcDb2dVertex
  10
3.13974
  20
0.65556
  30
0.00000
  42
-0.0541
  70
32
  0
VERTEX
  5
608
  100
AcDbEntity
  8
Layer 1
  62
0
  100
AcDb2dVertex
  10
3.13100
  20
0.66700
  30
0.00000
  42
0.1656
  70
32
  0
VERTEX
  5
609
  100
AcDbEntity
  8
Layer 1
  62
0
  100
AcDb2dVertex
  10
3.11382
  20
0.68212
  30
0.00000
  42
0.0907
  70
32
  0
VERTEX
  5
60A
  100
AcDbEntity
  8
Layer 1
  62
0
  100
AcDb2dVertex
  10
3.10300
  20
0.68400
  30
0.00000
  70
32
  0
VERTEX
  5
60B
  100
AcDbEntity
  8
Layer 1
  62
0
  100
AcDb2dVertex
  10
3.09573
  20
0.68343
  30
0.00000
  70
32
  0
VERTEX
  5
60C
  100
AcDbEntity
  8
Layer 1
  62
0
  100
AcDb2dVertex
  10
3.07900
  20
0.68200
  30
0.00000
  70
32
  0
VERTEX
  5
60D
  100
AcDbEntity
  8
Layer 1
  62
0
  100
AcDb2dVertex
  10
3.05600
  20
0.68200
  30
0.00000
  42
-0.0666
  70
32
  0
VERTEX
  5
60E
  100
AcDbEntity
  8
Layer 1
  62
0
  100
AcDb2dVertex
  10
2.98828
  20
0.69222
  30
0.00000
  42
-0.0281
  70
32
  0
VERTEX
  5
60F
  100
AcDbEntity
  8
Layer 1
  62
0
  100
AcDb2dVertex
  10
2.93900
  20
0.70900
  30
0.00000
  42
-0.0594
  70
32
  0
VERTEX
  5
610
  100
AcDbEntity
  8
Layer 1
  62
0
  100
AcDb2dVertex
  10
2.89128
  20
0.73408
  30
0.00000
  42
-0.1034
  70
32
  0
VERTEX
  5
611
  100
AcDbEntity
  8
Layer 1
  62
0
  100
AcDb2dVertex
  10
2.86760
  20
0.75856
  30
0.00000
  42
-0.1359
  70
32
  0
VERTEX
  5
612
  100
AcDbEntity
  8
Layer 1
  62
0
  100
AcDb2dVertex
  10
2.86100
  20
0.78200
  30
0.00000
  42
-0.0462
  70
32
  0
VERTEX
  5
613
  100
AcDbEntity
  8
Layer 1
  62
0
  100
AcDb2dVertex
  10
2.86566
  20
0.80073
  30
0.00000
  70
32
  0
VERTEX
  5
614
  100
AcDbEntity
  8
Layer 1
  62
0
  100
AcDb2dVertex
  10
2.86800
  20
0.80800
  30
0.00000
  70
32
  0
VERTEX
  5
615
  100
AcDbEntity
  8
Layer 1
  62
0
  100
AcDb2dVertex
  10
2.87250
  20
0.82550
  30
0.00000
  42
0.0470
  70
32
  0
VERTEX
  5
616
  100
AcDbEntity
  8
Layer 1
  62
0
  100
AcDb2dVertex
  10
2.87400
  20
0.83400
  30
0.00000
  42
0.0117
  70
32
  0
VERTEX
  5
617
  100
AcDbEntity
  8
Layer 1
  62
0
  100
AcDb2dVertex
  10
2.85854
  20
0.89586
  30
0.00000
  70
32
  0
VERTEX
  5
618
  100
AcDbEntity
  8
Layer 1
  62
0
  100
AcDb2dVertex
  10
2.85100
  20
0.92400
  30
0.00000
  42
0.1560
  70
32
  0
VERTEX
  5
619
  100
AcDbEntity
  8
Layer 1
  62
0
  100
AcDb2dVertex
  10
2.84240
  20
0.94030
  30
0.00000
  42
0.1845
  70
32
  0
VERTEX
  5
61A
  100
AcDbEntity
  8
Layer 1
  62
0
  100
AcDb2dVertex
  10
2.83300
  20
0.94400
  30
0.00000
  42
0.1196
  70
32
  0
VERTEX
  5
61B
  100
AcDbEntity
  8
Layer 1
  62
0
  100
AcDb2dVertex
  10
2.81983
  20
0.93940
  30
0.00000
  42
0.0292
  70
32
  0
VERTEX
  5
61C
  100
AcDbEntity
  8
Layer 1
  62
0
  100
AcDb2dVertex
  10
2.80700
  20
0.93100
  30
0.00000
  42
-0.1133
  70
32
  0
VERTEX
  5
61D
  100
AcDbEntity
  8
Layer 1
  62
0
  100
AcDb2dVertex
  10
2.77939
  20
0.91945
  30
0.00000
  42
-0.0349
  70
32
  0
VERTEX
  5
61E
  100
AcDbEntity
  8
Layer 1
  62
0
  100
AcDb2dVertex
  10
2.77300
  20
0.91900
  30
0.00000
  42
-0.0738
  70
32
  0
VERTEX
  5
61F
  100
AcDbEntity
  8
Layer 1
  62
0
  100
AcDb2dVertex
  10
2.76400
  20
0.92000
  30
0.00000
  70
32
  0
VERTEX
  5
620
  100
AcDbEntity
  8
Layer 1
  62
0
  100
AcDb2dVertex
  10
2.76100
  20
0.92109
  30
0.00000
  42
0.0710
  70
32
  0
VERTEX
  5
621
  100
AcDbEntity
  8
Layer 1
  62
0
  100
AcDb2dVertex
  10
2.75800
  20
0.92200
  30
0.00000
  42
0.0908
  70
32
  0
VERTEX
  5
622
  100
AcDbEntity
  8
Layer 1
  62
0
  100
AcDb2dVertex
  10
2.73498
  20
0.91871
  30
0.00000
  42
0.1292
  70
32
  0
VERTEX
  5
623
  100
AcDbEntity
  8
Layer 1
  62
0
  100
AcDb2dVertex
  10
2.72800
  20
0.91400
  30
0.00000
  42
-0.0142
  70
32
  0
VERTEX
  5
624
  100
AcDbEntity
  8
Layer 1
  62
0
  100
AcDb2dVertex
  10
2.66100
  20
0.83900
  30
0.00000
  42
-0.1011
  70
32
  0
VERTEX
  5
625
  100
AcDbEntity
  8
Layer 1
  62
0
  100
AcDb2dVertex
  10
2.61300
  20
0.80700
  30
0.00000
  42
0.0823
  70
32
  0
VERTEX
  5
626
  100
AcDbEntity
  8
Layer 1
  62
0
  100
AcDb2dVertex
  10
2.59194
  20
0.79466
  30
0.00000
  42
0.0919
  70
32
  0
VERTEX
  5
627
  100
AcDbEntity
  8
Layer 1
  62
0
  100
AcDb2dVertex
  10
2.58600
  20
0.78700
  30
0.00000
  42
-0.0563
  70
32
  0
VERTEX
  5
628
  100
AcDbEntity
  8
Layer 1
  62
0
  100
AcDb2dVertex
  10
2.56526
  20
0.73689
  30
0.00000
  42
-0.0156
  70
32
  0
VERTEX
  5
629
  100
AcDbEntity
  8
Layer 1
  62
0
  100
AcDb2dVertex
  10
2.55100
  20
0.71200
  30
0.00000
  42
-0.1417
  70
32
  0
VERTEX
  5
62A
  100
AcDbEntity
  8
Layer 1
  62
0
  100
AcDb2dVertex
  10
2.52914
  20
0.70444
  30
0.00000
  42
-0.0242
  70
32
  0
VERTEX
  5
62B
  100
AcDbEntity
  8
Layer 1
  62
0
  100
AcDb2dVertex
  10
2.51900
  20
0.70400
  30
0.00000
  42
-0.1963
  70
32
  0
VERTEX
  5
62C
  100
AcDbEntity
  8
Layer 1
  62
0
  100
AcDb2dVertex
  10
2.47543
  20
0.72163
  30
0.00000
  42
-0.0842
  70
32
  0
VERTEX
  5
62D
  100
AcDbEntity
  8
Layer 1
  62
0
  100
AcDb2dVertex
  10
2.45100
  20
0.75500
  30
0.00000
  42
-0.0832
  70
32
  0
VERTEX
  5
62E
  100
AcDbEntity
  8
Layer 1
  62
0
  100
AcDb2dVertex
  10
2.43187
  20
0.82038
  30
0.00000
  42
-0.0261
  70
32
  0
VERTEX
  5
62F
  100
AcDbEntity
  8
Layer 1
  62
0
  100
AcDb2dVertex
  10
2.43100
  20
0.83700
  30
0.00000
  42
-0.1451
  70
32
  0
VERTEX
  5
630
  100
AcDbEntity
  8
Layer 1
  62
0
  100
AcDb2dVertex
  10
2.43739
  20
0.86213
  30
0.00000
  42
-0.1862
  70
32
  0
VERTEX
  5
631
  100
AcDbEntity
  8
Layer 1
  62
0
  100
AcDb2dVertex
  10
2.45942
  20
0.87750
  30
0.00000
  70
32
  0
VERTEX
  5
632
  100
AcDbEntity
  8
Layer 1
  62
0
  100
AcDb2dVertex
  10
2.46600
  20
0.87900
  30
0.00000
  42
0.0354
  70
32
  0
VERTEX
  5
633
  100
AcDbEntity
  8
Layer 1
  62
0
  100
AcDb2dVertex
  10
2.53691
  20
0.88539
  30
0.00000
  42
0.0094
  70
32
  0
VERTEX
  5
634
  100
AcDbEntity
  8
Layer 1
  62
0
  100
AcDb2dVertex
  10
2.57600
  20
0.89200
  30
0.00000
  42
0.1066
  70
32
  0
VERTEX
  5
635
  100
AcDbEntity
  8
Layer 1
  62
0
  100
AcDb2dVertex
  10
2.62762
  20
0.92256
  30
0.00000
  42
0.1332
  70
32
  0
VERTEX
  5
636
  100
AcDbEntity
  8
Layer 1
  62
0
  100
AcDb2dVertex
  10
2.66116
  20
0.97904
  30
0.00000
  70
32
  0
VERTEX
  5
637
  100
AcDbEntity
  8
Layer 1
  62
0
  100
AcDb2dVertex
  10
2.66400
  20
0.99000
  30
0.00000
  42
0.0482
  70
32
  0
VERTEX
  5
638
  100
AcDbEntity
  8
Layer 1
  62
0
  100
AcDb2dVertex
  10
2.66600
  20
1.01400
  30
0.00000
  70
32
  0
VERTEX
  5
639
  100
AcDbEntity
  8
Layer 1
  62
0
  100
AcDb2dVertex
  10
2.79400
  20
1.00900
  30
0.00000
  70
32
  0
VERTEX
  5
63A
  100
AcDbEntity
  8
Layer 1
  62
0
  100
AcDb2dVertex
  10
2.66600
  20
1.01400
  30
0.00000
  70
32
  0
VERTEX
  5
63B
  100
AcDbEntity
  8
Layer 1
  62
0
  100
AcDb2dVertex
  10
2.67099
  20
1.04394
  30
0.00000
  70
32
  0
VERTEX
  5
63C
  100
AcDbEntity
  8
Layer 1
  62
0
  100
AcDb2dVertex
  10
2.67600
  20
1.07400
  30
0.00000
  42
-0.0904
  70
32
  0
VERTEX
  5
63D
  100
AcDbEntity
  8
Layer 1
  62
0
  100
AcDb2dVertex
  10
2.68880
  20
1.10403
  30
0.00000
  42
-0.1901
  70
32
  0
VERTEX
  5
63E
  100
AcDbEntity
  8
Layer 1
  62
0
  100
AcDb2dVertex
  10
2.71009
  20
1.11915
  30
0.00000
  42
-0.0557
  70
32
  0
VERTEX
  5
63F
  100
AcDbEntity
  8
Layer 1
  62
0
  100
AcDb2dVertex
  10
2.71800
  20
1.12000
  30
0.00000
  70
32
  0
VERTEX
  5
640
  100
AcDbEntity
  8
Layer 1
  62
0
  100
AcDb2dVertex
  10
2.72400
  20
1.11902
  30
0.00000
  70
32
  0
VERTEX
  5
641
  100
AcDbEntity
  8
Layer 1
  62
0
  100
AcDb2dVertex
  10
2.74800
  20
1.11500
  30
0.00000
  70
32
  0
VERTEX
  5
642
  100
AcDbEntity
  8
Layer 1
  62
0
  100
AcDb2dVertex
  10
2.77063
  20
1.11050
  30
0.00000
  70
32
  0
VERTEX
  5
643
  100
AcDbEntity
  8
Layer 1
  62
0
  100
AcDb2dVertex
  10
2.77900
  20
1.10900
  30
0.00000
  42
0.0179
  70
32
  0
VERTEX
  5
644
  100
AcDbEntity
  8
Layer 1
  62
0
  100
AcDb2dVertex
  10
2.81600
  20
1.11500
  30
0.00000
  42
-0.0207
  70
32
  0
VERTEX
  5
645
  100
AcDbEntity
  8
Layer 1
  62
0
  100
AcDb2dVertex
  10
2.85100
  20
1.12200
  30
0.00000
  42
-0.2704
  70
32
  0
VERTEX
  5
646
  100
AcDbEntity
  8
Layer 1
  62
0
  100
AcDb2dVertex
  10
2.87707
  20
1.10758
  30
0.00000
  42
-0.0717
  70
32
  0
VERTEX
  5
647
  100
AcDbEntity
  8
Layer 1
  62
0
  100
AcDb2dVertex
  10
2.88400
  20
1.09200
  30
0.00000
  42
0.0925
  70
32
  0
VERTEX
  5
648
  100
AcDbEntity
  8
Layer 1
  62
0
  100
AcDb2dVertex
  10
2.89651
  20
1.06830
  30
0.00000
  42
0.1797
  70
32
  0
VERTEX
  5
649
  100
AcDbEntity
  8
Layer 1
  62
0
  100
AcDb2dVertex
  10
2.91200
  20
1.05900
  30
0.00000
  42
0.0436
  70
32
  0
VERTEX
  5
64A
  100
AcDbEntity
  8
Layer 1
  62
0
  100
AcDb2dVertex
  10
2.93928
  20
1.05478
  30
0.00000
  70
32
  0
VERTEX
  5
64B
  100
AcDbEntity
  8
Layer 1
  62
0
  100
AcDb2dVertex
  10
2.94900
  20
1.05400
  30
0.00000
  42
-0.1519
  70
32
  0
VERTEX
  5
64C
  100
AcDbEntity
  8
Layer 1
  62
0
  100
AcDb2dVertex
  10
2.96855
  20
1.04261
  30
0.00000
  42
-0.1721
  70
32
  0
VERTEX
  5
64D
  100
AcDbEntity
  8
Layer 1
  62
0
  100
AcDb2dVertex
  10
2.97596
  20
1.02113
  30
0.00000
  70
32
  0
VERTEX
  5
64E
  100
AcDbEntity
  8
Layer 1
  62
0
  100
AcDb2dVertex
  10
2.97600
  20
1.01900
  30
0.00000
  70
32
  0
VERTEX
  5
64F
  100
AcDbEntity
  8
Layer 1
  62
0
  100
AcDb2dVertex
  10
2.97594
  20
1.01947
  30
0.00000
  70
32
  0
VERTEX
  5
650
  100
AcDbEntity
  8
Layer 1
  62
0
  100
AcDb2dVertex
  10
2.97552
  20
1.01883
  30
0.00000
  42
0.0179
  70
32
  0
VERTEX
  5
651
  100
AcDbEntity
  8
Layer 1
  62
0
  100
AcDb2dVertex
  10
2.96641
  20
0.98255
  30
0.00000
  70
32
  0
VERTEX
  5
652
  100
AcDbEntity
  8
Layer 1
  62
0
  100
AcDb2dVertex
  10
2.96100
  20
0.95900
  30
0.00000
  70
32
  0
VERTEX
  5
653
  100
AcDbEntity
  8
Layer 1
  62
0
  100
AcDb2dVertex
  10
2.96100
  20
0.93400
  30
0.00000
  42
0.0759
  70
32
  0
VERTEX
  5
654
  100
AcDbEntity
  8
Layer 1
  62
0
  100
AcDb2dVertex
  10
2.97055
  20
0.87857
  30
0.00000
  42
0.0192
  70
32
  0
VERTEX
  5
655
  100
AcDbEntity
  8
Layer 1
  62
0
  100
AcDb2dVertex
  10
2.97900
  20
0.85500
  30
0.00000
  42
-0.0386
  70
32
  0
VERTEX
  5
656
  100
AcDbEntity
  8
Layer 1
  62
0
  100
AcDb2dVertex
  10
2.98527
  20
0.83517
  30
0.00000
  70
32
  0
VERTEX
  5
657
  100
AcDbEntity
  8
Layer 1
  62
0
  100
AcDb2dVertex
  10
2.99100
  20
0.81500
  30
0.00000
  42
0.2143
  70
32
  0
VERTEX
  5
658
  100
AcDbEntity
  8
Layer 1
  62
0
  100
AcDb2dVertex
  10
2.99851
  20
0.80824
  30
0.00000
  42
0.0968
  70
32
  0
VERTEX
  5
659
  100
AcDbEntity
  8
Layer 1
  62
0
  100
AcDb2dVertex
  10
3.01900
  20
0.80500
  30
0.00000
  70
32
  0
VERTEX
  5
65A
  100
AcDbEntity
  8
Layer 1
  62
0
  100
AcDb2dVertex
  10
3.02201
  20
0.80563
  30
0.00000
  70
32
  0
VERTEX
  5
65B
  100
AcDbEntity
  8
Layer 1
  62
0
  100
AcDb2dVertex
  10
3.02800
  20
0.80700
  30
0.00000
  70
32
  0
VERTEX
  5
65C
  100
AcDbEntity
  8
Layer 1
  62
0
  100
AcDb2dVertex
  10
3.03800
  20
0.80700
  30
0.00000
  70
32
  0
VERTEX
  5
65D
  100
AcDbEntity
  8
Layer 1
  62
0
  100
AcDb2dVertex
  10
3.03819
  20
0.80658
  30
0.00000
  42
0.0235
  70
32
  0
VERTEX
  5
65E
  100
AcDbEntity
  8
Layer 1
  62
0
  100
AcDb2dVertex
  10
3.06133
  20
0.78806
  30
0.00000
  70
32
  0
VERTEX
  5
65F
  100
AcDbEntity
  8
Layer 1
  62
0
  100
AcDb2dVertex
  10
3.07200
  20
0.78000
  30
0.00000
  42
0.0976
  70
32
  0
VERTEX
  5
660
  100
AcDbEntity
  8
Layer 1
  62
0
  100
AcDb2dVertex
  10
3.12084
  20
0.75691
  30
0.00000
  42
0.0579
  70
32
  0
VERTEX
  5
661
  100
AcDbEntity
  8
Layer 1
  62
0
  100
AcDb2dVertex
  10
3.14600
  20
0.75400
  30
0.00000
  42
0.0351
  70
32
  0
VERTEX
  5
662
  100
AcDbEntity
  8
Layer 1
  62
0
  100
AcDb2dVertex
  10
3.15900
  20
0.75500
  30
0.00000
  70
32
  0
VERTEX
  5
663
  100
AcDbEntity
  8
Layer 1
  62
0
  100
AcDb2dVertex
  10
3.16801
  20
0.75626
  30
0.00000
  70
32
  0
VERTEX
  5
664
  100
AcDbEntity
  8
Layer 1
  62
0
  100
AcDb2dVertex
  10
3.17400
  20
0.75700
  30
0.00000
  42
-0.1328
  70
32
  0
VERTEX
  5
665
  100
AcDbEntity
  8
Layer 1
  62
0
  100
AcDb2dVertex
  10
3.18310
  20
0.75321
  30
0.00000
  42
-0.0212
  70
32
  0
VERTEX
  5
666
  100
AcDbEntity
  8
Layer 1
  62
0
  100
AcDb2dVertex
  10
3.19300
  20
0.74600
  30
0.00000
  42
0.1111
  70
32
  0
VERTEX
  5
667
  100
AcDbEntity
  8
Layer 1
  62
0
  100
AcDb2dVertex
  10
3.21246
  20
0.73572
  30
0.00000
  42
0.0552
  70
32
  0
VERTEX
  5
668
  100
AcDbEntity
  8
Layer 1
  62
0
  100
AcDb2dVertex
  10
3.21900
  20
0.73500
  30
0.00000
  42
0.2143
  70
32
  0
VERTEX
  5
669
  100
AcDbEntity
  8
Layer 1
  62
0
  100
AcDb2dVertex
  10
3.25961
  20
0.75288
  30
0.00000
  42
0.0779
  70
32
  0
VERTEX
  5
66A
  100
AcDbEntity
  8
Layer 1
  62
0
  100
AcDb2dVertex
  10
3.27700
  20
0.77900
  30
0.00000
  42
-0.0541
  70
32
  0
VERTEX
  5
66B
  100
AcDbEntity
  8
Layer 1
  62
0
  100
AcDb2dVertex
  10
3.29601
  20
0.81213
  30
0.00000
  42
-0.1204
  70
32
  0
VERTEX
  5
66C
  100
AcDbEntity
  8
Layer 1
  62
0
  100
AcDb2dVertex
  10
3.30825
  20
0.82294
  30
0.00000
  42
-0.1034
  70
32
  0
VERTEX
  5
66D
  100
AcDbEntity
  8
Layer 1
  62
0
  100
AcDb2dVertex
  10
3.31300
  20
0.82400
  30
0.00000
  42
-0.2205
  70
32
  0
VERTEX
  5
66E
  100
AcDbEntity
  8
Layer 1
  62
0
  100
AcDb2dVertex
  10
3.32829
  20
0.81804
  30
0.00000
  42
-0.1690
  70
32
  0
VERTEX
  5
66F
  100
AcDbEntity
  8
Layer 1
  62
0
  100
AcDb2dVertex
  10
3.33391
  20
0.80209
  30
0.00000
  70
32
  0
VERTEX
  5
670
  100
AcDbEntity
  8
Layer 1
  62
0
  100
AcDb2dVertex
  10
3.33400
  20
0.79900
  30
0.00000
  70
32
  0
SEQEND
  5
671
  100
AcDbEntity
  8
Layer 1
  62
0
  0
POLYLINE
  5
672
  100
AcDbEntity
  8
Layer 1
  62
0
  100
AcDb2dPolyline
 66
     1
  10
0
  20
0
  30
0
  70
1
  0
VERTEX
  5
673
  100
AcDbEntity
  8
Layer 1
  62
0
  100
AcDb2dVertex
  10
3.76900
  20
0.30000
  30
0.00000
  42
-0.0533
  70
32
  0
VERTEX
  5
674
  100
AcDbEntity
  8
Layer 1
  62
0
  100
AcDb2dVertex
  10
3.76428
  20
0.24658
  30
0.00000
  42
-0.0960
  70
32
  0
VERTEX
  5
675
  100
AcDbEntity
  8
Layer 1
  62
0
  100
AcDb2dVertex
  10
3.75323
  20
0.21872
  30
0.00000
  42
-0.2278
  70
32
  0
VERTEX
  5
676
  100
AcDbEntity
  8
Layer 1
  62
0
  100
AcDb2dVertex
  10
3.72996
  20
0.20421
  30
0.00000
  70
32
  0
VERTEX
  5
677
  100
AcDbEntity
  8
Layer 1
  62
0
  100
AcDb2dVertex
  10
3.72600
  20
0.20400
  30
0.00000
  42
-0.1698
  70
32
  0
VERTEX
  5
678
  100
AcDbEntity
  8
Layer 1
  62
0
  100
AcDb2dVertex
  10
3.70498
  20
0.21218
  30
0.00000
  42
-0.0659
  70
32
  0
VERTEX
  5
679
  100
AcDbEntity
  8
Layer 1
  62
0
  100
AcDb2dVertex
  10
3.69000
  20
0.22800
  30
0.00000
  42
0.0545
  70
32
  0
VERTEX
  5
67A
  100
AcDbEntity
  8
Layer 1
  62
0
  100
AcDb2dVertex
  10
3.67012
  20
0.25230
  30
0.00000
  70
32
  0
VERTEX
  5
67B
  100
AcDbEntity
  8
Layer 1
  62
0
  100
AcDb2dVertex
  10
3.66800
  20
0.25400
  30
0.00000
  70
32
  0
VERTEX
  5
67C
  100
AcDbEntity
  8
Layer 1
  62
0
  100
AcDb2dVertex
  10
3.66650
  20
0.25408
  30
0.00000
  42
-0.0242
  70
32
  0
VERTEX
  5
67D
  100
AcDbEntity
  8
Layer 1
  62
0
  100
AcDb2dVertex
  10
3.60900
  20
0.25900
  30
0.00000
  42
-0.0604
  70
32
  0
VERTEX
  5
67E
  100
AcDbEntity
  8
Layer 1
  62
0
  100
AcDb2dVertex
  10
3.55434
  20
0.26956
  30
0.00000
  42
-0.0559
  70
32
  0
VERTEX
  5
67F
  100
AcDbEntity
  8
Layer 1
  62
0
  100
AcDb2dVertex
  10
3.53400
  20
0.27900
  30
0.00000
  42
-0.0124
  70
32
  0
VERTEX
  5
680
  100
AcDbEntity
  8
Layer 1
  62
0
  100
AcDb2dVertex
  10
3.50800
  20
0.30700
  30
0.00000
  42
0.0565
  70
32
  0
VERTEX
  5
681
  100
AcDbEntity
  8
Layer 1
  62
0
  100
AcDb2dVertex
  10
3.48305
  20
0.32542
  30
0.00000
  42
0.1185
  70
32
  0
VERTEX
  5
682
  100
AcDbEntity
  8
Layer 1
  62
0
  100
AcDb2dVertex
  10
3.47100
  20
0.32900
  30
0.00000
  42
0.2117
  70
32
  0
VERTEX
  5
683
  100
AcDbEntity
  8
Layer 1
  62
0
  100
AcDb2dVertex
  10
3.45488
  20
0.32119
  30
0.00000
  42
0.0430
  70
32
  0
VERTEX
  5
684
  100
AcDbEntity
  8
Layer 1
  62
0
  100
AcDb2dVertex
  10
3.45000
  20
0.31500
  30
0.00000
  42
-0.1182
  70
32
  0
VERTEX
  5
685
  100
AcDbEntity
  8
Layer 1
  62
0
  100
AcDb2dVertex
  10
3.43520
  20
0.30004
  30
0.00000
  70
32
  0
VERTEX
  5
686
  100
AcDbEntity
  8
Layer 1
  62
0
  100
AcDb2dVertex
  10
3.43300
  20
0.29900
  30
0.00000
  42
-0.0263
  70
32
  0
VERTEX
  5
687
  100
AcDbEntity
  8
Layer 1
  62
0
  100
AcDb2dVertex
  10
3.40446
  20
0.29536
  30
0.00000
  70
32
  0
VERTEX
  5
688
  100
AcDbEntity
  8
Layer 1
  62
0
  100
AcDb2dVertex
  10
3.39100
  20
0.29400
  30
0.00000
  42
0.1588
  70
32
  0
VERTEX
  5
689
  100
AcDbEntity
  8
Layer 1
  62
0
  100
AcDb2dVertex
  10
3.37788
  20
0.28801
  30
0.00000
  42
0.1986
  70
32
  0
VERTEX
  5
68A
  100
AcDbEntity
  8
Layer 1
  62
0
  100
AcDb2dVertex
  10
3.37400
  20
0.27700
  30
0.00000
  42
-0.0555
  70
32
  0
VERTEX
  5
68B
  100
AcDbEntity
  8
Layer 1
  62
0
  100
AcDb2dVertex
  10
3.36826
  20
0.23730
  30
0.00000
  42
-0.0106
  70
32
  0
VERTEX
  5
68C
  100
AcDbEntity
  8
Layer 1
  62
0
  100
AcDb2dVertex
  10
3.36300
  20
0.21700
  30
0.00000
  42
-0.1120
  70
32
  0
VERTEX
  5
68D
  100
AcDbEntity
  8
Layer 1
  62
0
  100
AcDb2dVertex
  10
3.35092
  20
0.20705
  30
0.00000
  42
-0.0212
  70
32
  0
VERTEX
  5
68E
  100
AcDbEntity
  8
Layer 1
  62
0
  100
AcDb2dVertex
  10
3.33500
  20
0.19900
  30
0.00000
  42
0.0952
  70
32
  0
VERTEX
  5
68F
  100
AcDbEntity
  8
Layer 1
  62
0
  100
AcDb2dVertex
  10
3.31310
  20
0.18606
  30
0.00000
  42
0.0981
  70
32
  0
VERTEX
  5
690
  100
AcDbEntity
  8
Layer 1
  62
0
  100
AcDb2dVertex
  10
3.30800
  20
0.17900
  30
0.00000
  42
-0.0774
  70
32
  0
VERTEX
  5
691
  100
AcDbEntity
  8
Layer 1
  62
0
  100
AcDb2dVertex
  10
3.30367
  20
0.14364
  30
0.00000
  42
-0.0239
  70
32
  0
VERTEX
  5
692
  100
AcDbEntity
  8
Layer 1
  62
0
  100
AcDb2dVertex
  10
3.29600
  20
0.11900
  30
0.00000
  42
-0.1434
  70
32
  0
VERTEX
  5
693
  100
AcDbEntity
  8
Layer 1
  62
0
  100
AcDb2dVertex
  10
3.27964
  20
0.11104
  30
0.00000
  42
-0.0393
  70
32
  0
VERTEX
  5
694
  100
AcDbEntity
  8
Layer 1
  62
0
  100
AcDb2dVertex
  10
3.26400
  20
0.10900
  30
0.00000
  42
0.0950
  70
32
  0
VERTEX
  5
695
  100
AcDbEntity
  8
Layer 1
  62
0
  100
AcDb2dVertex
  10
3.24499
  20
0.10363
  30
0.00000
  42
0.2101
  70
32
  0
VERTEX
  5
696
  100
AcDbEntity
  8
Layer 1
  62
0
  100
AcDb2dVertex
  10
3.23800
  20
0.09500
  30
0.00000
  42
-0.0277
  70
32
  0
VERTEX
  5
697
  100
AcDbEntity
  8
Layer 1
  62
0
  100
AcDb2dVertex
  10
3.23900
  20
0.06900
  30
0.00000
  42
-0.1120
  70
32
  0
VERTEX
  5
698
  100
AcDbEntity
  8
Layer 1
  62
0
  100
AcDb2dVertex
  10
3.23453
  20
0.05002
  30
0.00000
  42
-0.2915
  70
32
  0
VERTEX
  5
699
  100
AcDbEntity
  8
Layer 1
  62
0
  100
AcDb2dVertex
  10
3.22100
  20
0.04200
  30
0.00000
  70
32
  0
VERTEX
  5
69A
  100
AcDbEntity
  8
Layer 1
  62
0
  100
AcDb2dVertex
  10
3.22123
  20
0.04206
  30
0.00000
  42
0.1458
  70
32
  0
VERTEX
  5
69B
  100
AcDbEntity
  8
Layer 1
  62
0
  100
AcDb2dVertex
  10
3.21848
  20
0.04391
  30
0.00000
  42
0.0193
  70
32
  0
VERTEX
  5
69C
  100
AcDbEntity
  8
Layer 1
  62
0
  100
AcDb2dVertex
  10
3.19100
  20
0.05600
  30
0.00000
  42
0.0988
  70
32
  0
VERTEX
  5
69D
  100
AcDbEntity
  8
Layer 1
  62
0
  100
AcDb2dVertex
  10
3.12400
  20
0.07000
  30
0.00000
  42
0.0591
  70
32
  0
VERTEX
  5
69E
  100
AcDbEntity
  8
Layer 1
  62
0
  100
AcDb2dVertex
  10
3.07100
  20
0.06400
  30
0.00000
  42
-0.0278
  70
32
  0
VERTEX
  5
69F
  100
AcDbEntity
  8
Layer 1
  62
0
  100
AcDb2dVertex
  10
3.04400
  20
0.05700
  30
0.00000
  70
32
  0
VERTEX
  5
6A0
  100
AcDbEntity
  8
Layer 1
  62
0
  100
AcDb2dVertex
  10
3.03801
  20
0.05774
  30
0.00000
  70
32
  0
VERTEX
  5
6A1
  100
AcDbEntity
  8
Layer 1
  62
0
  100
AcDb2dVertex
  10
3.02900
  20
0.05900
  30
0.00000
  42
0.0385
  70
32
  0
VERTEX
  5
6A2
  100
AcDbEntity
  8
Layer 1
  62
0
  100
AcDb2dVertex
  10
3.01600
  20
0.06200
  30
0.00000
  42
0.1887
  70
32
  0
VERTEX
  5
6A3
  100
AcDbEntity
  8
Layer 1
  62
0
  100
AcDb2dVertex
  10
2.99695
  20
0.05392
  30
0.00000
  42
0.0508
  70
32
  0
VERTEX
  5
6A4
  100
AcDbEntity
  8
Layer 1
  62
0
  100
AcDb2dVertex
  10
2.98800
  20
0.04400
  30
0.00000
  42
-0.1093
  70
32
  0
VERTEX
  5
6A5
  100
AcDbEntity
  8
Layer 1
  62
0
  100
AcDb2dVertex
  10
2.97398
  20
0.02819
  30
0.00000
  42
-0.1468
  70
32
  0
VERTEX
  5
6A6
  100
AcDbEntity
  8
Layer 1
  62
0
  100
AcDb2dVertex
  10
2.96400
  20
0.02500
  30
0.00000
  42
-0.1508
  70
32
  0
VERTEX
  5
6A7
  100
AcDbEntity
  8
Layer 1
  62
0
  100
AcDb2dVertex
  10
2.94447
  20
0.03202
  30
0.00000
  42
-0.0786
  70
32
  0
VERTEX
  5
6A8
  100
AcDbEntity
  8
Layer 1
  62
0
  100
AcDb2dVertex
  10
2.92003
  20
0.05665
  30
0.00000
  42
-0.0213
  70
32
  0
VERTEX
  5
6A9
  100
AcDbEntity
  8
Layer 1
  62
0
  100
AcDb2dVertex
  10
2.90800
  20
0.07400
  30
0.00000
  42
-0.0489
  70
32
  0
VERTEX
  5
6AA
  100
AcDbEntity
  8
Layer 1
  62
0
  100
AcDb2dVertex
  10
2.88186
  20
0.11941
  30
0.00000
  42
-0.0898
  70
32
  0
VERTEX
  5
6AB
  100
AcDbEntity
  8
Layer 1
  62
0
  100
AcDb2dVertex
  10
2.87601
  20
0.14136
  30
0.00000
  70
32
  0
VERTEX
  5
6AC
  100
AcDbEntity
  8
Layer 1
  62
0
  100
AcDb2dVertex
  10
2.87600
  20
0.14200
  30
0.00000
  42
-0.2001
  70
32
  0
VERTEX
  5
6AD
  100
AcDbEntity
  8
Layer 1
  62
0
  100
AcDb2dVertex
  10
2.87910
  20
0.15185
  30
0.00000
  42
-0.2024
  70
32
  0
VERTEX
  5
6AE
  100
AcDbEntity
  8
Layer 1
  62
0
  100
AcDb2dVertex
  10
2.88900
  20
0.15500
  30
0.00000
  42
-0.1325
  70
32
  0
VERTEX
  5
6AF
  100
AcDbEntity
  8
Layer 1
  62
0
  100
AcDb2dVertex
  10
2.90485
  20
0.14950
  30
0.00000
  42
-0.0500
  70
32
  0
VERTEX
  5
6B0
  100
AcDbEntity
  8
Layer 1
  62
0
  100
AcDb2dVertex
  10
2.92100
  20
0.13700
  30
0.00000
  42
0.0845
  70
32
  0
VERTEX
  5
6B1
  100
AcDbEntity
  8
Layer 1
  62
0
  100
AcDb2dVertex
  10
2.94367
  20
0.12115
  30
0.00000
  42
0.0981
  70
32
  0
VERTEX
  5
6B2
  100
AcDbEntity
  8
Layer 1
  62
0
  100
AcDb2dVertex
  10
2.95300
  20
0.11900
  30
0.00000
  42
0.1375
  70
32
  0
VERTEX
  5
6B3
  100
AcDbEntity
  8
Layer 1
  62
0
  100
AcDb2dVertex
  10
2.97210
  20
0.12535
  30
0.00000
  42
0.0371
  70
32
  0
VERTEX
  5
6B4
  100
AcDbEntity
  8
Layer 1
  62
0
  100
AcDb2dVertex
  10
2.98400
  20
0.13400
  30
0.00000
  42
-0.1735
  70
32
  0
VERTEX
  5
6B5
  100
AcDbEntity
  8
Layer 1
  62
0
  100
AcDb2dVertex
  10
3.02800
  20
0.14900
  30
0.00000
  70
32
  0
VERTEX
  5
6B6
  100
AcDbEntity
  8
Layer 1
  62
0
  100
AcDb2dVertex
  10
3.03900
  20
0.14900
  30
0.00000
  42
0.0871
  70
32
  0
VERTEX
  5
6B7
  100
AcDbEntity
  8
Layer 1
  62
0
  100
AcDb2dVertex
  10
3.05100
  20
0.14700
  30
0.00000
  42
0.1145
  70
32
  0
VERTEX
  5
6B8
  100
AcDbEntity
  8
Layer 1
  62
0
  100
AcDb2dVertex
  10
3.08460
  20
0.15372
  30
0.00000
  42
0.0837
  70
32
  0
VERTEX
  5
6B9
  100
AcDbEntity
  8
Layer 1
  62
0
  100
AcDb2dVertex
  10
3.09900
  20
0.16400
  30
0.00000
  42
-0.0800
  70
32
  0
VERTEX
  5
6BA
  100
AcDbEntity
  8
Layer 1
  62
0
  100
AcDb2dVertex
  10
3.12088
  20
0.17825
  30
0.00000
  42
-0.0917
  70
32
  0
VERTEX
  5
6BB
  100
AcDbEntity
  8
Layer 1
  62
0
  100
AcDb2dVertex
  10
3.12900
  20
0.18000
  30
0.00000
  42
-0.0666
  70
32
  0
VERTEX
  5
6BC
  100
AcDbEntity
  8
Layer 1
  62
0
  100
AcDb2dVertex
  10
3.14080
  20
0.17655
  30
0.00000
  70
32
  0
VERTEX
  5
6BD
  100
AcDbEntity
  8
Layer 1
  62
0
  100
AcDb2dVertex
  10
3.15500
  20
0.17100
  30
0.00000
  42
0.0337
  70
32
  0
VERTEX
  5
6BE
  100
AcDbEntity
  8
Layer 1
  62
0
  100
AcDb2dVertex
  10
3.18011
  20
0.16210
  30
0.00000
  70
32
  0
VERTEX
  5
6BF
  100
AcDbEntity
  8
Layer 1
  62
0
  100
AcDb2dVertex
  10
3.18100
  20
0.16200
  30
0.00000
  42
0.2110
  70
32
  0
VERTEX
  5
6C0
  100
AcDbEntity
  8
Layer 1
  62
0
  100
AcDb2dVertex
  10
3.19210
  20
0.16584
  30
0.00000
  42
0.1817
  70
32
  0
VERTEX
  5
6C1
  100
AcDbEntity
  8
Layer 1
  62
0
  100
AcDb2dVertex
  10
3.19596
  20
0.17729
  30
0.00000
  70
32
  0
VERTEX
  5
6C2
  100
AcDbEntity
  8
Layer 1
  62
0
  100
AcDb2dVertex
  10
3.19600
  20
0.17900
  30
0.00000
  42
-0.0364
  70
32
  0
VERTEX
  5
6C3
  100
AcDbEntity
  8
Layer 1
  62
0
  100
AcDb2dVertex
  10
3.20066
  20
0.22321
  30
0.00000
  70
32
  0
VERTEX
  5
6C4
  100
AcDbEntity
  8
Layer 1
  62
0
  100
AcDb2dVertex
  10
3.20300
  20
0.23700
  30
0.00000
  70
32
  0
VERTEX
  5
6C5
  100
AcDbEntity
  8
Layer 1
  62
0
  100
AcDb2dVertex
  10
3.20900
  20
0.27900
  30
0.00000
  42
0.0321
  70
32
  0
VERTEX
  5
6C6
  100
AcDbEntity
  8
Layer 1
  62
0
  100
AcDb2dVertex
  10
3.20500
  20
0.29800
  30
0.00000
  42
-0.0557
  70
32
  0
VERTEX
  5
6C7
  100
AcDbEntity
  8
Layer 1
  62
0
  100
AcDb2dVertex
  10
3.20100
  20
0.31900
  30
0.00000
  42
-0.1260
  70
32
  0
VERTEX
  5
6C8
  100
AcDbEntity
  8
Layer 1
  62
0
  100
AcDb2dVertex
  10
3.20567
  20
0.34119
  30
0.00000
  42
-0.2522
  70
32
  0
VERTEX
  5
6C9
  100
AcDbEntity
  8
Layer 1
  62
0
  100
AcDb2dVertex
  10
3.22518
  20
0.35374
  30
0.00000
  70
32
  0
VERTEX
  5
6CA
  100
AcDbEntity
  8
Layer 1
  62
0
  100
AcDb2dVertex
  10
3.22800
  20
0.35400
  30
0.00000
  42
0.0973
  70
32
  0
VERTEX
  5
6CB
  100
AcDbEntity
  8
Layer 1
  62
0
  100
AcDb2dVertex
  10
3.25092
  20
0.36038
  30
0.00000
  42
0.1768
  70
32
  0
VERTEX
  5
6CC
  100
AcDbEntity
  8
Layer 1
  62
0
  100
AcDb2dVertex
  10
3.25900
  20
0.36900
  30
0.00000
  42
-0.0153
  70
32
  0
VERTEX
  5
6CD
  100
AcDbEntity
  8
Layer 1
  62
0
  100
AcDb2dVertex
  10
3.25800
  20
0.41900
  30
0.00000
  42
-0.1487
  70
32
  0
VERTEX
  5
6CE
  100
AcDbEntity
  8
Layer 1
  62
0
  100
AcDb2dVertex
  10
3.26289
  20
0.43841
  30
0.00000
  42
-0.2038
  70
32
  0
VERTEX
  5
6CF
  100
AcDbEntity
  8
Layer 1
  62
0
  100
AcDb2dVertex
  10
3.27998
  20
0.44898
  30
0.00000
  42
-0.0508
  70
32
  0
VERTEX
  5
6D0
  100
AcDbEntity
  8
Layer 1
  62
0
  100
AcDb2dVertex
  10
3.29100
  20
0.45000
  30
0.00000
  42
-0.0351
  70
32
  0
VERTEX
  5
6D1
  100
AcDbEntity
  8
Layer 1
  62
0
  100
AcDb2dVertex
  10
3.30400
  20
0.44900
  30
0.00000
  70
32
  0
VERTEX
  5
6D2
  100
AcDbEntity
  8
Layer 1
  62
0
  100
AcDb2dVertex
  10
3.31800
  20
0.44900
  30
0.00000
  42
0.1495
  70
32
  0
VERTEX
  5
6D3
  100
AcDbEntity
  8
Layer 1
  62
0
  100
AcDb2dVertex
  10
3.34841
  20
0.45923
  30
0.00000
  42
0.0691
  70
32
  0
VERTEX
  5
6D4
  100
AcDbEntity
  8
Layer 1
  62
0
  100
AcDb2dVertex
  10
3.37000
  20
0.47900
  30
0.00000
  42
-0.0598
  70
32
  0
VERTEX
  5
6D5
  100
AcDbEntity
  8
Layer 1
  62
0
  100
AcDb2dVertex
  10
3.39467
  20
0.50310
  30
0.00000
  42
-0.1349
  70
32
  0
VERTEX
  5
6D6
  100
AcDbEntity
  8
Layer 1
  62
0
  100
AcDb2dVertex
  10
3.40822
  20
0.50898
  30
0.00000
  70
32
  0
VERTEX
  5
6D7
  100
AcDbEntity
  8
Layer 1
  62
0
  100
AcDb2dVertex
  10
3.40900
  20
0.50900
  30
0.00000
  42
-0.1697
  70
32
  0
VERTEX
  5
6D8
  100
AcDbEntity
  8
Layer 1
  62
0
  100
AcDb2dVertex
  10
3.41844
  20
0.50455
  30
0.00000
  42
-0.0696
  70
32
  0
VERTEX
  5
6D9
  100
AcDbEntity
  8
Layer 1
  62
0
  100
AcDb2dVertex
  10
3.43556
  20
0.48374
  30
0.00000
  42
-0.0148
  70
32
  0
VERTEX
  5
6DA
  100
AcDbEntity
  8
Layer 1
  62
0
  100
AcDb2dVertex
  10
3.44400
  20
0.47000
  30
0.00000
  70
32
  0
VERTEX
  5
6DB
  100
AcDbEntity
  8
Layer 1
  62
0
  100
AcDb2dVertex
  10
3.45299
  20
0.45379
  30
0.00000
  42
0.0090
  70
32
  0
VERTEX
  5
6DC
  100
AcDbEntity
  8
Layer 1
  62
0
  100
AcDb2dVertex
  10
3.47100
  20
0.42200
  30
0.00000
  70
32
  0
VERTEX
  5
6DD
  100
AcDbEntity
  8
Layer 1
  62
0
  100
AcDb2dVertex
  10
3.36300
  20
0.34700
  30
0.00000
  70
32
  0
VERTEX
  5
6DE
  100
AcDbEntity
  8
Layer 1
  62
0
  100
AcDb2dVertex
  10
3.47100
  20
0.42200
  30
0.00000
  42
-0.0584
  70
32
  0
VERTEX
  5
6DF
  100
AcDbEntity
  8
Layer 1
  62
0
  100
AcDb2dVertex
  10
3.47839
  20
0.41602
  30
0.00000
  42
-0.0066
  70
32
  0
VERTEX
  5
6E0
  100
AcDbEntity
  8
Layer 1
  62
0
  100
AcDb2dVertex
  10
3.50200
  20
0.39400
  30
0.00000
  42
0.0467
  70
32
  0
VERTEX
  5
6E1
  100
AcDbEntity
  8
Layer 1
  62
0
  100
AcDb2dVertex
  10
3.54400
  20
0.36000
  30
0.00000
  42
0.0721
  70
32
  0
VERTEX
  5
6E2
  100
AcDbEntity
  8
Layer 1
  62
0
  100
AcDb2dVertex
  10
3.59321
  20
0.35216
  30
0.00000
  70
32
  0
VERTEX
  5
6E3
  100
AcDbEntity
  8
Layer 1
  62
0
  100
AcDb2dVertex
  10
3.60300
  20
0.35200
  30
0.00000
  42
0.0755
  70
32
  0
VERTEX
  5
6E4
  100
AcDbEntity
  8
Layer 1
  62
0
  100
AcDb2dVertex
  10
3.64732
  20
0.35998
  30
0.00000
  42
0.0244
  70
32
  0
VERTEX
  5
6E5
  100
AcDbEntity
  8
Layer 1
  62
0
  100
AcDb2dVertex
  10
3.67400
  20
0.37000
  30
0.00000
  70
32
  0
VERTEX
  5
6E6
  100
AcDbEntity
  8
Layer 1
  62
0
  100
AcDb2dVertex
  10
3.68773
  20
0.37570
  30
0.00000
  70
32
  0
VERTEX
  5
6E7
  100
AcDbEntity
  8
Layer 1
  62
0
  100
AcDb2dVertex
  10
3.71177
  20
0.38553
  30
0.00000
  42
-0.0648
  70
32
  0
VERTEX
  5
6E8
  100
AcDbEntity
  8
Layer 1
  62
0
  100
AcDb2dVertex
  10
3.72300
  20
0.38900
  30
0.00000
  42
-0.2704
  70
32
  0
VERTEX
  5
6E9
  100
AcDbEntity
  8
Layer 1
  62
0
  100
AcDb2dVertex
  10
3.75468
  20
0.37170
  30
0.00000
  42
-0.0966
  70
32
  0
VERTEX
  5
6EA
  100
AcDbEntity
  8
Layer 1
  62
0
  100
AcDb2dVertex
  10
3.76564
  20
0.34177
  30
0.00000
  42
-0.0466
  70
32
  0
VERTEX
  5
6EB
  100
AcDbEntity
  8
Layer 1
  62
0
  100
AcDb2dVertex
  10
3.76900
  20
0.30000
  30
0.00000
  70
32
  0
SEQEND
  5
6EC
  100
AcDbEntity
  8
Layer 1
  62
0
  0
POLYLINE
  5
6ED
  100
AcDbEntity
  8
Layer 1
  62
0
  100
AcDb2dPolyline
 66
     1
  10
0
  20
0
  30
0
  70
1
  0
VERTEX
  5
6EE
  100
AcDbEntity
  8
Layer 1
  62
0
  100
AcDb2dVertex
  10
3.19800
  20
0.49700
  30
0.00000
  42
-0.2651
  70
32
  0
VERTEX
  5
6EF
  100
AcDbEntity
  8
Layer 1
  62
0
  100
AcDb2dVertex
  10
3.19044
  20
0.48155
  30
0.00000
  42
-0.1388
  70
32
  0
VERTEX
  5
6F0
  100
AcDbEntity
  8
Layer 1
  62
0
  100
AcDb2dVertex
  10
3.17300
  20
0.47703
  30
0.00000
  70
32
  0
VERTEX
  5
6F1
  100
AcDbEntity
  8
Layer 1
  62
0
  100
AcDb2dVertex
  10
3.17100
  20
0.47700
  30
0.00000
  70
32
  0
VERTEX
  5
6F2
  100
AcDbEntity
  8
Layer 1
  62
0
  100
AcDb2dVertex
  10
3.10400
  20
0.47700
  30
0.00000
  42
0.0334
  70
32
  0
VERTEX
  5
6F3
  100
AcDbEntity
  8
Layer 1
  62
0
  100
AcDb2dVertex
  10
3.07624
  20
0.47276
  30
0.00000
  42
0.0074
  70
32
  0
VERTEX
  5
6F4
  100
AcDbEntity
  8
Layer 1
  62
0
  100
AcDb2dVertex
  10
3.04900
  20
0.46700
  30
0.00000
  42
0.0746
  70
32
  0
VERTEX
  5
6F5
  100
AcDbEntity
  8
Layer 1
  62
0
  100
AcDb2dVertex
  10
3.00813
  20
0.44999
  30
0.00000
  42
0.0465
  70
32
  0
VERTEX
  5
6F6
  100
AcDbEntity
  8
Layer 1
  62
0
  100
AcDb2dVertex
  10
2.94810
  20
0.40616
  30
0.00000
  42
0.0187
  70
32
  0
VERTEX
  5
6F7
  100
AcDbEntity
  8
Layer 1
  62
0
  100
AcDb2dVertex
  10
2.90400
  20
0.36500
  30
0.00000
  42
-0.1011
  70
32
  0
VERTEX
  5
6F8
  100
AcDbEntity
  8
Layer 1
  62
0
  100
AcDb2dVertex
  10
2.88269
  20
0.35398
  30
0.00000
  42
-0.0413
  70
32
  0
VERTEX
  5
6F9
  100
AcDbEntity
  8
Layer 1
  62
0
  100
AcDb2dVertex
  10
2.85100
  20
0.34700
  30
0.00000
  70
32
  0
VERTEX
  5
6FA
  100
AcDbEntity
  8
Layer 1
  62
0
  100
AcDb2dVertex
  10
2.81013
  20
0.33937
  30
0.00000
  42
0.0331
  70
32
  0
VERTEX
  5
6FB
  100
AcDbEntity
  8
Layer 1
  62
0
  100
AcDb2dVertex
  10
2.78800
  20
0.33400
  30
0.00000
  42
0.1881
  70
32
  0
VERTEX
  5
6FC
  100
AcDbEntity
  8
Layer 1
  62
0
  100
AcDb2dVertex
  10
2.77243
  20
0.32123
  30
0.00000
  42
0.1224
  70
32
  0
VERTEX
  5
6FD
  100
AcDbEntity
  8
Layer 1
  62
0
  100
AcDb2dVertex
  10
2.76900
  20
0.30500
  30
0.00000
  42
0.0462
  70
32
  0
VERTEX
  5
6FE
  100
AcDbEntity
  8
Layer 1
  62
0
  100
AcDb2dVertex
  10
2.77366
  20
0.28627
  30
0.00000
  70
32
  0
VERTEX
  5
6FF
  100
AcDbEntity
  8
Layer 1
  62
0
  100
AcDb2dVertex
  10
2.77600
  20
0.27900
  30
0.00000
  42
0.0119
  70
32
  0
VERTEX
  5
700
  100
AcDbEntity
  8
Layer 1
  62
0
  100
AcDb2dVertex
  10
2.78170
  20
0.25951
  30
0.00000
  70
32
  0
VERTEX
  5
701
  100
AcDbEntity
  8
Layer 1
  62
0
  100
AcDb2dVertex
  10
2.78300
  20
0.25500
  30
0.00000
  42
-0.1130
  70
32
  0
VERTEX
  5
702
  100
AcDbEntity
  8
Layer 1
  62
0
  100
AcDb2dVertex
  10
2.77884
  20
0.24295
  30
0.00000
  42
-0.0420
  70
32
  0
VERTEX
  5
703
  100
AcDbEntity
  8
Layer 1
  62
0
  100
AcDb2dVertex
  10
2.75591
  20
0.21024
  30
0.00000
  42
-0.0098
  70
32
  0
VERTEX
  5
704
  100
AcDbEntity
  8
Layer 1
  62
0
  100
AcDb2dVertex
  10
2.73400
  20
0.18400
  30
0.00000
  42
0.1546
  70
32
  0
VERTEX
  5
705
  100
AcDbEntity
  8
Layer 1
  62
0
  100
AcDb2dVertex
  10
2.72816
  20
0.16663
  30
0.00000
  70
32
  0
VERTEX
  5
706
  100
AcDbEntity
  8
Layer 1
  62
0
  100
AcDb2dVertex
  10
2.72800
  20
0.16200
  30
0.00000
  42
0.0518
  70
32
  0
VERTEX
  5
707
  100
AcDbEntity
  8
Layer 1
  62
0
  100
AcDb2dVertex
  10
2.73200
  20
0.14600
  30
0.00000
  42
-0.0518
  70
32
  0
VERTEX
  5
708
  100
AcDbEntity
  8
Layer 1
  62
0
  100
AcDb2dVertex
  10
2.73600
  20
0.13000
  30
0.00000
  42
-0.1876
  70
32
  0
VERTEX
  5
709
  100
AcDbEntity
  8
Layer 1
  62
0
  100
AcDb2dVertex
  10
2.72860
  20
0.10806
  30
0.00000
  42
-0.1558
  70
32
  0
VERTEX
  5
70A
  100
AcDbEntity
  8
Layer 1
  62
0
  100
AcDb2dVertex
  10
2.70851
  20
0.09711
  30
0.00000
  42
-0.0581
  70
32
  0
VERTEX
  5
70B
  100
AcDbEntity
  8
Layer 1
  62
0
  100
AcDb2dVertex
  10
2.68800
  20
0.09500
  30
0.00000
  42
-0.0397
  70
32
  0
VERTEX
  5
70C
  100
AcDbEntity
  8
Layer 1
  62
0
  100
AcDb2dVertex
  10
2.66037
  20
0.09902
  30
0.00000
  42
-0.0129
  70
32
  0
VERTEX
  5
70D
  100
AcDbEntity
  8
Layer 1
  62
0
  100
AcDb2dVertex
  10
2.59600
  20
0.11400
  30
0.00000
  70
32
  0
VERTEX
  5
70E
  100
AcDbEntity
  8
Layer 1
  62
0
  100
AcDb2dVertex
  10
2.69100
  20
0.35900
  30
0.00000
  70
32
  0
VERTEX
  5
70F
  100
AcDbEntity
  8
Layer 1
  62
0
  100
AcDb2dVertex
  10
2.59600
  20
0.11400
  30
0.00000
  42
-0.0409
  70
32
  0
VERTEX
  5
710
  100
AcDbEntity
  8
Layer 1
  62
0
  100
AcDb2dVertex
  10
2.52119
  20
0.16008
  30
0.00000
  42
-0.0648
  70
32
  0
VERTEX
  5
711
  100
AcDbEntity
  8
Layer 1
  62
0
  100
AcDb2dVertex
  10
2.48197
  20
0.19725
  30
0.00000
  42
-0.1086
  70
32
  0
VERTEX
  5
712
  100
AcDbEntity
  8
Layer 1
  62
0
  100
AcDb2dVertex
  10
2.46544
  20
0.22964
  30
0.00000
  42
-0.0569
  70
32
  0
VERTEX
  5
713
  100
AcDbEntity
  8
Layer 1
  62
0
  100
AcDb2dVertex
  10
2.46400
  20
0.24200
  30
0.00000
  70
32
  0
VERTEX
  5
714
  100
AcDbEntity
  8
Layer 1
  62
0
  100
AcDb2dVertex
  10
2.46400
  20
0.34900
  30
0.00000
  42
0.0094
  70
32
  0
VERTEX
  5
715
  100
AcDbEntity
  8
Layer 1
  62
0
  100
AcDb2dVertex
  10
2.45200
  20
0.39700
  30
0.00000
  42
-0.0216
  70
32
  0
VERTEX
  5
716
  100
AcDbEntity
  8
Layer 1
  62
0
  100
AcDb2dVertex
  10
2.43947
  20
0.44511
  30
0.00000
  70
32
  0
VERTEX
  5
717
  100
AcDbEntity
  8
Layer 1
  62
0
  100
AcDb2dVertex
  10
2.43900
  20
0.44900
  30
0.00000
  42
-0.1899
  70
32
  0
VERTEX
  5
718
  100
AcDbEntity
  8
Layer 1
  62
0
  100
AcDb2dVertex
  10
2.45813
  20
0.49718
  30
0.00000
  42
-0.0285
  70
32
  0
VERTEX
  5
719
  100
AcDbEntity
  8
Layer 1
  62
0
  100
AcDb2dVertex
  10
2.46600
  20
0.50500
  30
0.00000
  42
-0.1213
  70
32
  0
VERTEX
  5
71A
  100
AcDbEntity
  8
Layer 1
  62
0
  100
AcDb2dVertex
  10
2.50307
  20
0.52722
  30
0.00000
  42
-0.0700
  70
32
  0
VERTEX
  5
71B
  100
AcDbEntity
  8
Layer 1
  62
0
  100
AcDb2dVertex
  10
2.52300
  20
0.53000
  30
0.00000
  42
-0.0249
  70
32
  0
VERTEX
  5
71C
  100
AcDbEntity
  8
Layer 1
  62
0
  100
AcDb2dVertex
  10
2.55010
  20
0.52243
  30
0.00000
  70
32
  0
VERTEX
  5
71D
  100
AcDbEntity
  8
Layer 1
  62
0
  100
AcDb2dVertex
  10
2.56100
  20
0.51900
  30
0.00000
  42
0.0266
  70
32
  0
VERTEX
  5
71E
  100
AcDbEntity
  8
Layer 1
  62
0
  100
AcDb2dVertex
  10
2.60020
  20
0.50907
  30
0.00000
  70
32
  0
VERTEX
  5
71F
  100
AcDbEntity
  8
Layer 1
  62
0
  100
AcDb2dVertex
  10
2.60100
  20
0.50900
  30
0.00000
  42
0.1393
  70
32
  0
VERTEX
  5
720
  100
AcDbEntity
  8
Layer 1
  62
0
  100
AcDb2dVertex
  10
2.62373
  20
0.51441
  30
0.00000
  42
0.2018
  70
32
  0
VERTEX
  5
721
  100
AcDbEntity
  8
Layer 1
  62
0
  100
AcDb2dVertex
  10
2.63724
  20
0.53412
  30
0.00000
  42
0.0618
  70
32
  0
VERTEX
  5
722
  100
AcDbEntity
  8
Layer 1
  62
0
  100
AcDb2dVertex
  10
2.63900
  20
0.55000
  30
0.00000
  42
0.1177
  70
32
  0
VERTEX
  5
723
  100
AcDbEntity
  8
Layer 1
  62
0
  100
AcDb2dVertex
  10
2.63600
  20
0.56600
  30
0.00000
  42
0.0835
  70
32
  0
VERTEX
  5
724
  100
AcDbEntity
  8
Layer 1
  62
0
  100
AcDb2dVertex
  10
2.62822
  20
0.57355
  30
0.00000
  42
0.0119
  70
32
  0
VERTEX
  5
725
  100
AcDbEntity
  8
Layer 1
  62
0
  100
AcDb2dVertex
  10
2.59600
  20
0.59700
  30
0.00000
  42
-0.0708
  70
32
  0
VERTEX
  5
726
  100
AcDbEntity
  8
Layer 1
  62
0
  100
AcDb2dVertex
  10
2.57211
  20
0.61808
  30
0.00000
  42
-0.1493
  70
32
  0
VERTEX
  5
727
  100
AcDbEntity
  8
Layer 1
  62
0
  100
AcDb2dVertex
  10
2.56602
  20
0.63126
  30
0.00000
  70
32
  0
VERTEX
  5
728
  100
AcDbEntity
  8
Layer 1
  62
0
  100
AcDb2dVertex
  10
2.56600
  20
0.63200
  30
0.00000
  42
-0.1749
  70
32
  0
VERTEX
  5
729
  100
AcDbEntity
  8
Layer 1
  62
0
  100
AcDb2dVertex
  10
2.57481
  20
0.65444
  30
0.00000
  42
-0.0389
  70
32
  0
VERTEX
  5
72A
  100
AcDbEntity
  8
Layer 1
  62
0
  100
AcDb2dVertex
  10
2.58200
  20
0.66200
  30
0.00000
  42
-0.1493
  70
32
  0
VERTEX
  5
72B
  100
AcDbEntity
  8
Layer 1
  62
0
  100
AcDb2dVertex
  10
2.60698
  20
0.67642
  30
0.00000
  42
-0.0473
  70
32
  0
VERTEX
  5
72C
  100
AcDbEntity
  8
Layer 1
  62
0
  100
AcDb2dVertex
  10
2.61300
  20
0.67700
  30
0.00000
  42
-0.0154
  70
32
  0
VERTEX
  5
72D
  100
AcDbEntity
  8
Layer 1
  62
0
  100
AcDb2dVertex
  10
2.63800
  20
0.67400
  30
0.00000
  42
0.0319
  70
32
  0
VERTEX
  5
72E
  100
AcDbEntity
  8
Layer 1
  62
0
  100
AcDb2dVertex
  10
2.66300
  20
0.67000
  30
0.00000
  42
0.0266
  70
32
  0
VERTEX
  5
72F
  100
AcDbEntity
  8
Layer 1
  62
0
  100
AcDb2dVertex
  10
2.67379
  20
0.67242
  30
0.00000
  70
32
  0
VERTEX
  5
730
  100
AcDbEntity
  8
Layer 1
  62
0
  100
AcDb2dVertex
  10
2.70600
  20
0.68000
  30
0.00000
  42
-0.0193
  70
32
  0
VERTEX
  5
731
  100
AcDbEntity
  8
Layer 1
  62
0
  100
AcDb2dVertex
  10
2.74819
  20
0.68993
  30
0.00000
  70
32
  0
VERTEX
  5
732
  100
AcDbEntity
  8
Layer 1
  62
0
  100
AcDb2dVertex
  10
2.74900
  20
0.69000
  30
0.00000
  42
-0.1451
  70
32
  0
VERTEX
  5
733
  100
AcDbEntity
  8
Layer 1
  62
0
  100
AcDb2dVertex
  10
2.79054
  20
0.67688
  30
0.00000
  42
-0.0648
  70
32
  0
VERTEX
  5
734
  100
AcDbEntity
  8
Layer 1
  62
0
  100
AcDb2dVertex
  10
2.81600
  20
0.65500
  30
0.00000
  42
-0.0840
  70
32
  0
VERTEX
  5
735
  100
AcDbEntity
  8
Layer 1
  62
0
  100
AcDb2dVertex
  10
2.84228
  20
0.61803
  30
0.00000
  42
-0.1076
  70
32
  0
VERTEX
  5
736
  100
AcDbEntity
  8
Layer 1
  62
0
  100
AcDb2dVertex
  10
2.84900
  20
0.58900
  30
0.00000
  70
32
  0
VERTEX
  5
737
  100
AcDbEntity
  8
Layer 1
  62
0
  100
AcDb2dVertex
  10
2.84900
  20
0.51700
  30
0.00000
  42
0.1219
  70
32
  0
VERTEX
  5
738
  100
AcDbEntity
  8
Layer 1
  62
0
  100
AcDb2dVertex
  10
2.85427
  20
0.49161
  30
0.00000
  42
0.2323
  70
32
  0
VERTEX
  5
739
  100
AcDbEntity
  8
Layer 1
  62
0
  100
AcDb2dVertex
  10
2.87699
  20
0.47517
  30
0.00000
  42
0.0527
  70
32
  0
VERTEX
  5
73A
  100
AcDbEntity
  8
Layer 1
  62
0
  100
AcDb2dVertex
  10
2.88900
  20
0.47400
  30
0.00000
  42
0.0876
  70
32
  0
VERTEX
  5
73B
  100
AcDbEntity
  8
Layer 1
  62
0
  100
AcDb2dVertex
  10
2.90246
  20
0.47794
  30
0.00000
  42
0.0341
  70
32
  0
VERTEX
  5
73C
  100
AcDbEntity
  8
Layer 1
  62
0
  100
AcDb2dVertex
  10
2.94716
  20
0.50225
  30
0.00000
  70
32
  0
VERTEX
  5
73D
  100
AcDbEntity
  8
Layer 1
  62
0
  100
AcDb2dVertex
  10
2.95800
  20
0.50900
  30
0.00000
  42
-0.1346
  70
32
  0
VERTEX
  5
73E
  100
AcDbEntity
  8
Layer 1
  62
0
  100
AcDb2dVertex
  10
3.07122
  20
0.54390
  30
0.00000
  70
32
  0
VERTEX
  5
73F
  100
AcDbEntity
  8
Layer 1
  62
0
  100
AcDb2dVertex
  10
3.07800
  20
0.54400
  30
0.00000
  42
-0.0455
  70
32
  0
VERTEX
  5
740
  100
AcDbEntity
  8
Layer 1
  62
0
  100
AcDb2dVertex
  10
3.11677
  20
0.53911
  30
0.00000
  70
32
  0
VERTEX
  5
741
  100
AcDbEntity
  8
Layer 1
  62
0
  100
AcDb2dVertex
  10
3.14100
  20
0.53400
  30
0.00000
  42
-0.0647
  70
32
  0
VERTEX
  5
742
  100
AcDbEntity
  8
Layer 1
  62
0
  100
AcDb2dVertex
  10
3.17882
  20
0.52069
  30
0.00000
  42
-0.1220
  70
32
  0
VERTEX
  5
743
  100
AcDbEntity
  8
Layer 1
  62
0
  100
AcDb2dVertex
  10
3.19474
  20
0.50739
  30
0.00000
  42
-0.1481
  70
32
  0
VERTEX
  5
744
  100
AcDbEntity
  8
Layer 1
  62
0
  100
AcDb2dVertex
  10
3.19800
  20
0.49700
  30
0.00000
  70
32
  0
SEQEND
  5
745
  100
AcDbEntity
  8
Layer 1
  62
0
  0
POLYLINE
  5
746
  100
AcDbEntity
  8
Layer 1
  62
0
  100
AcDb2dPolyline
 66
     1
  10
0
  20
0
  30
0
  70
1
  0
VERTEX
  5
747
  100
AcDbEntity
  8
Layer 1
  62
0
  100
AcDb2dVertex
  10
1.56200
  20
1.23900
  30
0.00000
  42
-0.1424
  70
32
  0
VERTEX
  5
748
  100
AcDbEntity
  8
Layer 1
  62
0
  100
AcDb2dVertex
  10
1.55809
  20
1.23009
  30
0.00000
  42
-0.0512
  70
32
  0
VERTEX
  5
749
  100
AcDbEntity
  8
Layer 1
  62
0
  100
AcDb2dVertex
  10
1.53643
  20
1.20725
  30
0.00000
  42
-0.0146
  70
32
  0
VERTEX
  5
74A
  100
AcDbEntity
  8
Layer 1
  62
0
  100
AcDb2dVertex
  10
1.50900
  20
1.18400
  30
0.00000
  42
-0.0562
  70
32
  0
VERTEX
  5
74B
  100
AcDbEntity
  8
Layer 1
  62
0
  100
AcDb2dVertex
  10
1.50185
  20
1.16937
  30
0.00000
  70
32
  0
VERTEX
  5
74C
  100
AcDbEntity
  8
Layer 1
  62
0
  100
AcDb2dVertex
  10
1.49700
  20
1.16100
  30
0.00000
  42
0.0643
  70
32
  0
VERTEX
  5
74D
  100
AcDbEntity
  8
Layer 1
  62
0
  100
AcDb2dVertex
  10
1.48616
  20
1.14270
  30
0.00000
  70
32
  0
VERTEX
  5
74E
  100
AcDbEntity
  8
Layer 1
  62
0
  100
AcDb2dVertex
  10
1.48600
  20
1.14200
  30
0.00000
  42
0.0601
  70
32
  0
VERTEX
  5
74F
  100
AcDbEntity
  8
Layer 1
  62
0
  100
AcDb2dVertex
  10
1.49029
  20
1.12898
  30
0.00000
  70
32
  0
VERTEX
  5
750
  100
AcDbEntity
  8
Layer 1
  62
0
  100
AcDb2dVertex
  10
1.49600
  20
1.11600
  30
0.00000
  70
32
  0
VERTEX
  5
751
  100
AcDbEntity
  8
Layer 1
  62
0
  100
AcDb2dVertex
  10
1.50125
  20
1.10327
  30
0.00000
  70
32
  0
VERTEX
  5
752
  100
AcDbEntity
  8
Layer 1
  62
0
  100
AcDb2dVertex
  10
1.50474
  20
1.09474
  30
0.00000
  42
-0.0772
  70
32
  0
VERTEX
  5
753
  100
AcDbEntity
  8
Layer 1
  62
0
  100
AcDb2dVertex
  10
1.50600
  20
1.09000
  30
0.00000
  42
-0.1184
  70
32
  0
VERTEX
  5
754
  100
AcDbEntity
  8
Layer 1
  62
0
  100
AcDb2dVertex
  10
1.50035
  20
1.07150
  30
0.00000
  42
-0.0600
  70
32
  0
VERTEX
  5
755
  100
AcDbEntity
  8
Layer 1
  62
0
  100
AcDb2dVertex
  10
1.47631
  20
1.03893
  30
0.00000
  42
-0.0170
  70
32
  0
VERTEX
  5
756
  100
AcDbEntity
  8
Layer 1
  62
0
  100
AcDb2dVertex
  10
1.45700
  20
1.01900
  30
0.00000
  70
32
  0
VERTEX
  5
757
  100
AcDbEntity
  8
Layer 1
  62
0
  100
AcDb2dVertex
  10
1.29200
  20
1.18700
  30
0.00000
  70
32
  0
VERTEX
  5
758
  100
AcDbEntity
  8
Layer 1
  62
0
  100
AcDb2dVertex
  10
1.45700
  20
1.01900
  30
0.00000
  42
-0.0771
  70
32
  0
VERTEX
  5
759
  100
AcDbEntity
  8
Layer 1
  62
0
  100
AcDb2dVertex
  10
1.42542
  20
0.98710
  30
0.00000
  42
-0.1377
  70
32
  0
VERTEX
  5
75A
  100
AcDbEntity
  8
Layer 1
  62
0
  100
AcDb2dVertex
  10
1.39429
  20
0.97511
  30
0.00000
  70
32
  0
VERTEX
  5
75B
  100
AcDbEntity
  8
Layer 1
  62
0
  100
AcDb2dVertex
  10
1.39100
  20
0.97500
  30
0.00000
  42
-0.0350
  70
32
  0
VERTEX
  5
75C
  100
AcDbEntity
  8
Layer 1
  62
0
  100
AcDb2dVertex
  10
1.37100
  20
0.97900
  30
0.00000
  42
0.0195
  70
32
  0
VERTEX
  5
75D
  100
AcDbEntity
  8
Layer 1
  62
0
  100
AcDb2dVertex
  10
1.34900
  20
0.98200
  30
0.00000
  42
0.0966
  70
32
  0
VERTEX
  5
75E
  100
AcDbEntity
  8
Layer 1
  62
0
  100
AcDb2dVertex
  10
1.33497
  20
0.97778
  30
0.00000
  42
0.0360
  70
32
  0
VERTEX
  5
75F
  100
AcDbEntity
  8
Layer 1
  62
0
  100
AcDb2dVertex
  10
1.30400
  20
0.96000
  30
0.00000
  70
32
  0
VERTEX
  5
760
  100
AcDbEntity
  8
Layer 1
  62
0
  100
AcDb2dVertex
  10
1.13900
  20
1.16000
  30
0.00000
  70
32
  0
VERTEX
  5
761
  100
AcDbEntity
  8
Layer 1
  62
0
  100
AcDb2dVertex
  10
1.30400
  20
0.96000
  30
0.00000
  42
-0.0726
  70
32
  0
VERTEX
  5
762
  100
AcDbEntity
  8
Layer 1
  62
0
  100
AcDb2dVertex
  10
1.26907
  20
0.93274
  30
0.00000
  42
-0.1231
  70
32
  0
VERTEX
  5
763
  100
AcDbEntity
  8
Layer 1
  62
0
  100
AcDb2dVertex
  10
1.24200
  20
0.92500
  30
0.00000
  42
-0.2209
  70
32
  0
VERTEX
  5
764
  100
AcDbEntity
  8
Layer 1
  62
0
  100
AcDb2dVertex
  10
1.21943
  20
0.93581
  30
0.00000
  42
-0.0996
  70
32
  0
VERTEX
  5
765
  100
AcDbEntity
  8
Layer 1
  62
0
  100
AcDb2dVertex
  10
1.20529
  20
0.96194
  30
0.00000
  42
-0.0248
  70
32
  0
VERTEX
  5
766
  100
AcDbEntity
  8
Layer 1
  62
0
  100
AcDb2dVertex
  10
1.20100
  20
0.97700
  30
0.00000
  42
0.0935
  70
32
  0
VERTEX
  5
767
  100
AcDbEntity
  8
Layer 1
  62
0
  100
AcDb2dVertex
  10
1.18623
  20
1.01026
  30
0.00000
  42
0.1842
  70
32
  0
VERTEX
  5
768
  100
AcDbEntity
  8
Layer 1
  62
0
  100
AcDb2dVertex
  10
1.16072
  20
1.02794
  30
0.00000
  42
0.0563
  70
32
  0
VERTEX
  5
769
  100
AcDbEntity
  8
Layer 1
  62
0
  100
AcDb2dVertex
  10
1.15100
  20
1.02900
  30
0.00000
  42
0.0975
  70
32
  0
VERTEX
  5
76A
  100
AcDbEntity
  8
Layer 1
  62
0
  100
AcDb2dVertex
  10
1.12701
  20
1.02297
  30
0.00000
  42
0.0272
  70
32
  0
VERTEX
  5
76B
  100
AcDbEntity
  8
Layer 1
  62
0
  100
AcDb2dVertex
  10
1.11300
  20
1.01600
  30
0.00000
  42
-0.0507
  70
32
  0
VERTEX
  5
76C
  100
AcDbEntity
  8
Layer 1
  62
0
  100
AcDb2dVertex
  10
1.08545
  20
1.00465
  30
0.00000
  42
-0.0568
  70
32
  0
VERTEX
  5
76D
  100
AcDbEntity
  8
Layer 1
  62
0
  100
AcDb2dVertex
  10
1.08100
  20
1.00400
  30
0.00000
  42
-0.1335
  70
32
  0
VERTEX
  5
76E
  100
AcDbEntity
  8
Layer 1
  62
0
  100
AcDb2dVertex
  10
1.05717
  20
1.00944
  30
0.00000
  42
-0.2102
  70
32
  0
VERTEX
  5
76F
  100
AcDbEntity
  8
Layer 1
  62
0
  100
AcDb2dVertex
  10
1.04262
  20
1.03015
  30
0.00000
  42
-0.0601
  70
32
  0
VERTEX
  5
770
  100
AcDbEntity
  8
Layer 1
  62
0
  100
AcDb2dVertex
  10
1.04100
  20
1.04500
  30
0.00000
  42
-0.0347
  70
32
  0
VERTEX
  5
771
  100
AcDbEntity
  8
Layer 1
  62
0
  100
AcDb2dVertex
  10
1.04200
  20
1.06200
  30
0.00000
  70
32
  0
VERTEX
  5
772
  100
AcDbEntity
  8
Layer 1
  62
0
  100
AcDb2dVertex
  10
1.04200
  20
1.07700
  30
0.00000
  42
0.1317
  70
32
  0
VERTEX
  5
773
  100
AcDbEntity
  8
Layer 1
  62
0
  100
AcDb2dVertex
  10
1.03740
  20
1.09794
  30
0.00000
  42
0.2592
  70
32
  0
VERTEX
  5
774
  100
AcDbEntity
  8
Layer 1
  62
0
  100
AcDb2dVertex
  10
1.01889
  20
1.10889
  30
0.00000
  70
32
  0
VERTEX
  5
775
  100
AcDbEntity
  8
Layer 1
  62
0
  100
AcDb2dVertex
  10
1.01600
  20
1.10900
  30
0.00000
  42
0.0437
  70
32
  0
VERTEX
  5
776
  100
AcDbEntity
  8
Layer 1
  62
0
  100
AcDb2dVertex
  10
1.00184
  20
1.10482
  30
0.00000
  70
32
  0
VERTEX
  5
777
  100
AcDbEntity
  8
Layer 1
  62
0
  100
AcDb2dVertex
  10
0.98800
  20
1.10000
  30
0.00000
  70
32
  0
VERTEX
  5
778
  100
AcDbEntity
  8
Layer 1
  62
0
  100
AcDb2dVertex
  10
0.98373
  20
1.09874
  30
0.00000
  70
32
  0
VERTEX
  5
779
  100
AcDbEntity
  8
Layer 1
  62
0
  100
AcDb2dVertex
  10
0.96665
  20
1.09378
  30
0.00000
  42
-0.0417
  70
32
  0
VERTEX
  5
77A
  100
AcDbEntity
  8
Layer 1
  62
0
  100
AcDb2dVertex
  10
0.95900
  20
1.09200
  30
0.00000
  42
-0.1622
  70
32
  0
VERTEX
  5
77B
  100
AcDbEntity
  8
Layer 1
  62
0
  100
AcDb2dVertex
  10
0.93865
  20
1.09771
  30
0.00000
  42
-0.1807
  70
32
  0
VERTEX
  5
77C
  100
AcDbEntity
  8
Layer 1
  62
0
  100
AcDb2dVertex
  10
0.92769
  20
1.11582
  30
0.00000
  42
-0.0586
  70
32
  0
VERTEX
  5
77D
  100
AcDbEntity
  8
Layer 1
  62
0
  100
AcDb2dVertex
  10
0.92600
  20
1.13200
  30
0.00000
  42
-0.0208
  70
32
  0
VERTEX
  5
77E
  100
AcDbEntity
  8
Layer 1
  62
0
  100
AcDb2dVertex
  10
0.93300
  20
1.16500
  30
0.00000
  70
32
  0
VERTEX
  5
77F
  100
AcDbEntity
  8
Layer 1
  62
0
  100
AcDb2dVertex
  10
0.93583
  20
1.17683
  30
0.00000
  42
0.0212
  70
32
  0
VERTEX
  5
780
  100
AcDbEntity
  8
Layer 1
  62
0
  100
AcDb2dVertex
  10
0.94100
  20
1.20000
  30
0.00000
  42
0.3316
  70
32
  0
VERTEX
  5
781
  100
AcDbEntity
  8
Layer 1
  62
0
  100
AcDb2dVertex
  10
0.92916
  20
1.21685
  30
0.00000
  42
0.0758
  70
32
  0
VERTEX
  5
782
  100
AcDbEntity
  8
Layer 1
  62
0
  100
AcDb2dVertex
  10
0.91900
  20
1.21900
  30
0.00000
  42
-0.0299
  70
32
  0
VERTEX
  5
783
  100
AcDbEntity
  8
Layer 1
  62
0
  100
AcDb2dVertex
  10
0.87503
  20
1.22576
  30
0.00000
  70
32
  0
VERTEX
  5
784
  100
AcDbEntity
  8
Layer 1
  62
0
  100
AcDb2dVertex
  10
0.87100
  20
1.22700
  30
0.00000
  42
-0.1563
  70
32
  0
VERTEX
  5
785
  100
AcDbEntity
  8
Layer 1
  62
0
  100
AcDb2dVertex
  10
0.85983
  20
1.23660
  30
0.00000
  42
-0.0464
  70
32
  0
VERTEX
  5
786
  100
AcDbEntity
  8
Layer 1
  62
0
  100
AcDb2dVertex
  10
0.85400
  20
1.24700
  30
0.00000
  42
-0.0785
  70
32
  0
VERTEX
  5
787
  100
AcDbEntity
  8
Layer 1
  62
0
  100
AcDb2dVertex
  10
0.84626
  20
1.26621
  30
0.00000
  70
32
  0
VERTEX
  5
788
  100
AcDbEntity
  8
Layer 1
  62
0
  100
AcDb2dVertex
  10
0.84600
  20
1.26900
  30
0.00000
  42
-0.1516
  70
32
  0
VERTEX
  5
789
  100
AcDbEntity
  8
Layer 1
  62
0
  100
AcDb2dVertex
  10
0.85100
  20
1.28600
  30
0.00000
  42
-0.0758
  70
32
  0
VERTEX
  5
78A
  100
AcDbEntity
  8
Layer 1
  62
0
  100
AcDb2dVertex
  10
0.86375
  20
1.30136
  30
0.00000
  42
-0.0265
  70
32
  0
VERTEX
  5
78B
  100
AcDbEntity
  8
Layer 1
  62
0
  100
AcDb2dVertex
  10
0.88200
  20
1.31700
  30
0.00000
  42
0.0907
  70
32
  0
VERTEX
  5
78C
  100
AcDbEntity
  8
Layer 1
  62
0
  100
AcDb2dVertex
  10
0.90064
  20
1.33538
  30
0.00000
  42
0.1391
  70
32
  0
VERTEX
  5
78D
  100
AcDbEntity
  8
Layer 1
  62
0
  100
AcDb2dVertex
  10
0.90400
  20
1.34500
  30
0.00000
  42
0.1723
  70
32
  0
VERTEX
  5
78E
  100
AcDbEntity
  8
Layer 1
  62
0
  100
AcDb2dVertex
  10
0.89611
  20
1.36486
  30
0.00000
  42
0.0510
  70
32
  0
VERTEX
  5
78F
  100
AcDbEntity
  8
Layer 1
  62
0
  100
AcDb2dVertex
  10
0.88600
  20
1.37500
  30
0.00000
  70
32
  0
VERTEX
  5
790
  100
AcDbEntity
  8
Layer 1
  62
0
  100
AcDb2dVertex
  10
0.86875
  20
1.38962
  30
0.00000
  70
32
  0
VERTEX
  5
791
  100
AcDbEntity
  8
Layer 1
  62
0
  100
AcDb2dVertex
  10
0.85200
  20
1.40400
  30
0.00000
  42
-0.1695
  70
32
  0
VERTEX
  5
792
  100
AcDbEntity
  8
Layer 1
  62
0
  100
AcDb2dVertex
  10
0.84920
  20
1.41213
  30
0.00000
  70
32
  0
VERTEX
  5
793
  100
AcDbEntity
  8
Layer 1
  62
0
  100
AcDb2dVertex
  10
0.84900
  20
1.41700
  30
0.00000
  42
-0.2606
  70
32
  0
VERTEX
  5
794
  100
AcDbEntity
  8
Layer 1
  62
0
  100
AcDb2dVertex
  10
0.86240
  20
1.44226
  30
0.00000
  42
-0.0766
  70
32
  0
VERTEX
  5
795
  100
AcDbEntity
  8
Layer 1
  62
0
  100
AcDb2dVertex
  10
0.88100
  20
1.45100
  30
0.00000
  42
-0.0175
  70
32
  0
VERTEX
  5
796
  100
AcDbEntity
  8
Layer 1
  62
0
  100
AcDb2dVertex
  10
0.93100
  20
1.46200
  30
0.00000
  42
0.2551
  70
32
  0
VERTEX
  5
797
  100
AcDbEntity
  8
Layer 1
  62
0
  100
AcDb2dVertex
  10
0.94658
  20
1.48536
  30
0.00000
  42
0.0331
  70
32
  0
VERTEX
  5
798
  100
AcDbEntity
  8
Layer 1
  62
0
  100
AcDb2dVertex
  10
0.94700
  20
1.49200
  30
0.00000
  42
0.0301
  70
32
  0
VERTEX
  5
799
  100
AcDbEntity
  8
Layer 1
  62
0
  100
AcDb2dVertex
  10
0.94162
  20
1.51752
  30
0.00000
  70
32
  0
VERTEX
  5
79A
  100
AcDbEntity
  8
Layer 1
  62
0
  100
AcDb2dVertex
  10
0.94100
  20
1.52000
  30
0.00000
  70
32
  0
VERTEX
  5
79B
  100
AcDbEntity
  8
Layer 1
  62
0
  100
AcDb2dVertex
  10
0.93837
  20
1.53462
  30
0.00000
  42
-0.0208
  70
32
  0
VERTEX
  5
79C
  100
AcDbEntity
  8
Layer 1
  62
0
  100
AcDb2dVertex
  10
0.93600
  20
1.54900
  30
0.00000
  42
-0.1425
  70
32
  0
VERTEX
  5
79D
  100
AcDbEntity
  8
Layer 1
  62
0
  100
AcDb2dVertex
  10
0.94099
  20
1.56967
  30
0.00000
  42
-0.2135
  70
32
  0
VERTEX
  5
79E
  100
AcDbEntity
  8
Layer 1
  62
0
  100
AcDb2dVertex
  10
0.95909
  20
1.58112
  30
0.00000
  42
-0.0482
  70
32
  0
VERTEX
  5
79F
  100
AcDbEntity
  8
Layer 1
  62
0
  100
AcDb2dVertex
  10
0.96900
  20
1.58200
  30
0.00000
  42
-0.1577
  70
32
  0
VERTEX
  5
7A0
  100
AcDbEntity
  8
Layer 1
  62
0
  100
AcDb2dVertex
  10
0.99554
  20
1.57261
  30
0.00000
  70
32
  0
VERTEX
  5
7A1
  100
AcDbEntity
  8
Layer 1
  62
0
  100
AcDb2dVertex
  10
0.99900
  20
1.57000
  30
0.00000
  42
0.0838
  70
32
  0
VERTEX
  5
7A2
  100
AcDbEntity
  8
Layer 1
  62
0
  100
AcDb2dVertex
  10
1.01824
  20
1.55982
  30
0.00000
  42
0.0658
  70
32
  0
VERTEX
  5
7A3
  100
AcDbEntity
  8
Layer 1
  62
0
  100
AcDb2dVertex
  10
1.02400
  20
1.55900
  30
0.00000
  42
0.2067
  70
32
  0
VERTEX
  5
7A4
  100
AcDbEntity
  8
Layer 1
  62
0
  100
AcDb2dVertex
  10
1.03657
  20
1.56522
  30
0.00000
  42
0.0916
  70
32
  0
VERTEX
  5
7A5
  100
AcDbEntity
  8
Layer 1
  62
0
  100
AcDb2dVertex
  10
1.04924
  20
1.58641
  30
0.00000
  42
0.0277
  70
32
  0
VERTEX
  5
7A6
  100
AcDbEntity
  8
Layer 1
  62
0
  100
AcDb2dVertex
  10
1.05600
  20
1.60600
  30
0.00000
  42
-0.0989
  70
32
  0
VERTEX
  5
7A7
  100
AcDbEntity
  8
Layer 1
  62
0
  100
AcDb2dVertex
  10
1.06966
  20
1.63719
  30
0.00000
  42
-0.2100
  70
32
  0
VERTEX
  5
7A8
  100
AcDbEntity
  8
Layer 1
  62
0
  100
AcDb2dVertex
  10
1.09656
  20
1.65366
  30
0.00000
  70
32
  0
VERTEX
  5
7A9
  100
AcDbEntity
  8
Layer 1
  62
0
  100
AcDb2dVertex
  10
1.10200
  20
1.65400
  30
0.00000
  42
-0.1500
  70
32
  0
VERTEX
  5
7AA
  100
AcDbEntity
  8
Layer 1
  62
0
  100
AcDb2dVertex
  10
1.12368
  20
1.64647
  30
0.00000
  42
-0.0628
  70
32
  0
VERTEX
  5
7AB
  100
AcDbEntity
  8
Layer 1
  62
0
  100
AcDb2dVertex
  10
1.14600
  20
1.62600
  30
0.00000
  42
0.0340
  70
32
  0
VERTEX
  5
7AC
  100
AcDbEntity
  8
Layer 1
  62
0
  100
AcDb2dVertex
  10
1.16945
  20
1.60193
  30
0.00000
  42
0.1348
  70
32
  0
VERTEX
  5
7AD
  100
AcDbEntity
  8
Layer 1
  62
0
  100
AcDb2dVertex
  10
1.17837
  20
1.59704
  30
0.00000
  70
32
  0
VERTEX
  5
7AE
  100
AcDbEntity
  8
Layer 1
  62
0
  100
AcDb2dVertex
  10
1.17900
  20
1.59700
  30
0.00000
  42
0.2010
  70
32
  0
VERTEX
  5
7AF
  100
AcDbEntity
  8
Layer 1
  62
0
  100
AcDb2dVertex
  10
1.19682
  20
1.60516
  30
0.00000
  42
0.0922
  70
32
  0
VERTEX
  5
7B0
  100
AcDbEntity
  8
Layer 1
  62
0
  100
AcDb2dVertex
  10
1.21100
  20
1.62700
  30
0.00000
  42
-0.1642
  70
32
  0
VERTEX
  5
7B1
  100
AcDbEntity
  8
Layer 1
  62
0
  100
AcDb2dVertex
  10
1.22981
  20
1.65068
  30
0.00000
  42
-0.1399
  70
32
  0
VERTEX
  5
7B2
  100
AcDbEntity
  8
Layer 1
  62
0
  100
AcDb2dVertex
  10
1.25400
  20
1.65700
  30
0.00000
  42
-0.1975
  70
32
  0
VERTEX
  5
7B3
  100
AcDbEntity
  8
Layer 1
  62
0
  100
AcDb2dVertex
  10
1.27761
  20
1.64846
  30
0.00000
  42
-0.1412
  70
32
  0
VERTEX
  5
7B4
  100
AcDbEntity
  8
Layer 1
  62
0
  100
AcDb2dVertex
  10
1.28917
  20
1.62705
  30
0.00000
  42
-0.0485
  70
32
  0
VERTEX
  5
7B5
  100
AcDbEntity
  8
Layer 1
  62
0
  100
AcDb2dVertex
  10
1.29200
  20
1.60800
  30
0.00000
  42
0.0609
  70
32
  0
VERTEX
  5
7B6
  100
AcDbEntity
  8
Layer 1
  62
0
  100
AcDb2dVertex
  10
1.29804
  20
1.57557
  30
0.00000
  42
0.1428
  70
32
  0
VERTEX
  5
7B7
  100
AcDbEntity
  8
Layer 1
  62
0
  100
AcDb2dVertex
  10
1.30670
  20
1.56207
  30
0.00000
  42
0.1693
  70
32
  0
VERTEX
  5
7B8
  100
AcDbEntity
  8
Layer 1
  62
0
  100
AcDb2dVertex
  10
1.31600
  20
1.55900
  30
0.00000
  70
32
  0
VERTEX
  5
7B9
  100
AcDbEntity
  8
Layer 1
  62
0
  100
AcDb2dVertex
  10
1.32425
  20
1.56125
  30
0.00000
  70
32
  0
VERTEX
  5
7BA
  100
AcDbEntity
  8
Layer 1
  62
0
  100
AcDb2dVertex
  10
1.34600
  20
1.56800
  30
0.00000
  70
32
  0
VERTEX
  5
7BB
  100
AcDbEntity
  8
Layer 1
  62
0
  100
AcDb2dVertex
  10
1.35303
  20
1.57011
  30
0.00000
  42
-0.0160
  70
32
  0
VERTEX
  5
7BC
  100
AcDbEntity
  8
Layer 1
  62
0
  100
AcDb2dVertex
  10
1.37700
  20
1.57700
  30
0.00000
  42
-0.1427
  70
32
  0
VERTEX
  5
7BD
  100
AcDbEntity
  8
Layer 1
  62
0
  100
AcDb2dVertex
  10
1.39819
  20
1.57185
  30
0.00000
  42
-0.2018
  70
32
  0
VERTEX
  5
7BE
  100
AcDbEntity
  8
Layer 1
  62
0
  100
AcDb2dVertex
  10
1.41050
  20
1.55327
  30
0.00000
  42
-0.0585
  70
32
  0
VERTEX
  5
7BF
  100
AcDbEntity
  8
Layer 1
  62
0
  100
AcDb2dVertex
  10
1.41200
  20
1.53900
  30
0.00000
  42
-0.1047
  70
32
  0
VERTEX
  5
7C0
  100
AcDbEntity
  8
Layer 1
  62
0
  100
AcDb2dVertex
  10
1.40612
  20
1.51632
  30
0.00000
  70
32
  0
VERTEX
  5
7C1
  100
AcDbEntity
  8
Layer 1
  62
0
  100
AcDb2dVertex
  10
1.40200
  20
1.50800
  30
0.00000
  42
0.0394
  70
32
  0
VERTEX
  5
7C2
  100
AcDbEntity
  8
Layer 1
  62
0
  100
AcDb2dVertex
  10
1.39258
  20
1.48497
  30
0.00000
  42
0.0599
  70
32
  0
VERTEX
  5
7C3
  100
AcDbEntity
  8
Layer 1
  62
0
  100
AcDb2dVertex
  10
1.39200
  20
1.48100
  30
0.00000
  42
0.2587
  70
32
  0
VERTEX
  5
7C4
  100
AcDbEntity
  8
Layer 1
  62
0
  100
AcDb2dVertex
  10
1.40271
  20
1.46142
  30
0.00000
  42
0.0991
  70
32
  0
VERTEX
  5
7C5
  100
AcDbEntity
  8
Layer 1
  62
0
  100
AcDb2dVertex
  10
1.42665
  20
1.45208
  30
0.00000
  42
0.0207
  70
32
  0
VERTEX
  5
7C6
  100
AcDbEntity
  8
Layer 1
  62
0
  100
AcDb2dVertex
  10
1.43900
  20
1.45000
  30
0.00000
  42
-0.0764
  70
32
  0
VERTEX
  5
7C7
  100
AcDbEntity
  8
Layer 1
  62
0
  100
AcDb2dVertex
  10
1.47026
  20
1.44303
  30
0.00000
  42
-0.1552
  70
32
  0
VERTEX
  5
7C8
  100
AcDbEntity
  8
Layer 1
  62
0
  100
AcDb2dVertex
  10
1.48365
  20
1.43256
  30
0.00000
  42
-0.1385
  70
32
  0
VERTEX
  5
7C9
  100
AcDbEntity
  8
Layer 1
  62
0
  100
AcDb2dVertex
  10
1.48600
  20
1.42400
  30
0.00000
  42
-0.1092
  70
32
  0
VERTEX
  5
7CA
  100
AcDbEntity
  8
Layer 1
  62
0
  100
AcDb2dVertex
  10
1.47944
  20
1.40015
  30
0.00000
  42
-0.0416
  70
32
  0
VERTEX
  5
7CB
  100
AcDbEntity
  8
Layer 1
  62
0
  100
AcDb2dVertex
  10
1.46800
  20
1.38100
  30
0.00000
  42
0.0518
  70
32
  0
VERTEX
  5
7CC
  100
AcDbEntity
  8
Layer 1
  62
0
  100
AcDb2dVertex
  10
1.45306
  20
1.35364
  30
0.00000
  42
0.0865
  70
32
  0
VERTEX
  5
7CD
  100
AcDbEntity
  8
Layer 1
  62
0
  100
AcDb2dVertex
  10
1.45100
  20
1.34400
  30
0.00000
  42
0.1077
  70
32
  0
VERTEX
  5
7CE
  100
AcDbEntity
  8
Layer 1
  62
0
  100
AcDb2dVertex
  10
1.45571
  20
1.32846
  30
0.00000
  42
0.0328
  70
32
  0
VERTEX
  5
7CF
  100
AcDbEntity
  8
Layer 1
  62
0
  100
AcDb2dVertex
  10
1.46600
  20
1.31100
  30
0.00000
  42
0.0699
  70
32
  0
VERTEX
  5
7D0
  100
AcDbEntity
  8
Layer 1
  62
0
  100
AcDb2dVertex
  10
1.48700
  20
1.28819
  30
0.00000
  42
0.0451
  70
32
  0
VERTEX
  5
7D1
  100
AcDbEntity
  8
Layer 1
  62
0
  100
AcDb2dVertex
  10
1.49200
  20
1.28500
  30
0.00000
  42
-0.0420
  70
32
  0
VERTEX
  5
7D2
  100
AcDbEntity
  8
Layer 1
  62
0
  100
AcDb2dVertex
  10
1.54400
  20
1.28000
  30
0.00000
  42
-0.2336
  70
32
  0
VERTEX
  5
7D3
  100
AcDbEntity
  8
Layer 1
  62
0
  100
AcDb2dVertex
  10
1.55703
  20
1.26840
  30
0.00000
  42
-0.0989
  70
32
  0
VERTEX
  5
7D4
  100
AcDbEntity
  8
Layer 1
  62
0
  100
AcDb2dVertex
  10
1.56190
  20
1.24422
  30
0.00000
  70
32
  0
VERTEX
  5
7D5
  100
AcDbEntity
  8
Layer 1
  62
0
  100
AcDb2dVertex
  10
1.56200
  20
1.23900
  30
0.00000
  70
32
  0
SEQEND
  5
7D6
  100
AcDbEntity
  8
Layer 1
  62
0
  0
POLYLINE
  5
7D7
  100
AcDbEntity
  8
Layer 1
  62
0
  100
AcDb2dPolyline
 66
     1
  10
0
  20
0
  30
0
  70
1
  0
VERTEX
  5
7D8
  100
AcDbEntity
  8
Layer 1
  62
0
  100
AcDb2dVertex
  10
2.05600
  20
0.47900
  30
0.00000
  42
-0.1236
  70
32
  0
VERTEX
  5
7D9
  100
AcDbEntity
  8
Layer 1
  62
0
  100
AcDb2dVertex
  10
2.04402
  20
0.43467
  30
0.00000
  42
-0.0458
  70
32
  0
VERTEX
  5
7DA
  100
AcDbEntity
  8
Layer 1
  62
0
  100
AcDb2dVertex
  10
2.02700
  20
0.40900
  30
0.00000
  42
0.0169
  70
32
  0
VERTEX
  5
7DB
  100
AcDbEntity
  8
Layer 1
  62
0
  100
AcDb2dVertex
  10
1.99868
  20
0.37227
  30
0.00000
  42
0.0979
  70
32
  0
VERTEX
  5
7DC
  100
AcDbEntity
  8
Layer 1
  62
0
  100
AcDb2dVertex
  10
1.99700
  20
0.36900
  30
0.00000
  70
32
  0
VERTEX
  5
7DD
  100
AcDbEntity
  8
Layer 1
  62
0
  100
AcDb2dVertex
  10
1.99700
  20
0.30500
  30
0.00000
  42
-0.0466
  70
32
  0
VERTEX
  5
7DE
  100
AcDbEntity
  8
Layer 1
  62
0
  100
AcDb2dVertex
  10
1.99348
  20
0.25696
  30
0.00000
  42
-0.0808
  70
32
  0
VERTEX
  5
7DF
  100
AcDbEntity
  8
Layer 1
  62
0
  100
AcDb2dVertex
  10
1.98600
  20
0.23500
  30
0.00000
  42
0.0045
  70
32
  0
VERTEX
  5
7E0
  100
AcDbEntity
  8
Layer 1
  62
0
  100
AcDb2dVertex
  10
1.84200
  20
0.29400
  30
0.00000
  70
32
  0
VERTEX
  5
7E1
  100
AcDbEntity
  8
Layer 1
  62
0
  100
AcDb2dVertex
  10
1.98600
  20
0.23500
  30
0.00000
  42
-0.0819
  70
32
  0
VERTEX
  5
7E2
  100
AcDbEntity
  8
Layer 1
  62
0
  100
AcDb2dVertex
  10
1.97023
  20
0.21538
  30
0.00000
  42
-0.0244
  70
32
  0
VERTEX
  5
7E3
  100
AcDbEntity
  8
Layer 1
  62
0
  100
AcDb2dVertex
  10
1.95000
  20
0.19800
  30
0.00000
  42
-0.0265
  70
32
  0
VERTEX
  5
7E4
  100
AcDbEntity
  8
Layer 1
  62
0
  100
AcDb2dVertex
  10
1.91284
  20
0.17208
  30
0.00000
  70
32
  0
VERTEX
  5
7E5
  100
AcDbEntity
  8
Layer 1
  62
0
  100
AcDb2dVertex
  10
1.90900
  20
0.17000
  30
0.00000
  42
0.2148
  70
32
  0
VERTEX
  5
7E6
  100
AcDbEntity
  8
Layer 1
  62
0
  100
AcDb2dVertex
  10
1.88768
  20
0.15166
  30
0.00000
  42
0.0671
  70
32
  0
VERTEX
  5
7E7
  100
AcDbEntity
  8
Layer 1
  62
0
  100
AcDb2dVertex
  10
1.88200
  20
0.13500
  30
0.00000
  70
32
  0
VERTEX
  5
7E8
  100
AcDbEntity
  8
Layer 1
  62
0
  100
AcDb2dVertex
  10
1.88025
  20
0.11412
  30
0.00000
  42
-0.0294
  70
32
  0
VERTEX
  5
7E9
  100
AcDbEntity
  8
Layer 1
  62
0
  100
AcDb2dVertex
  10
1.87700
  20
0.09400
  30
0.00000
  42
-0.1514
  70
32
  0
VERTEX
  5
7EA
  100
AcDbEntity
  8
Layer 1
  62
0
  100
AcDb2dVertex
  10
1.85335
  20
0.05387
  30
0.00000
  42
-0.0411
  70
32
  0
VERTEX
  5
7EB
  100
AcDbEntity
  8
Layer 1
  62
0
  100
AcDb2dVertex
  10
1.83600
  20
0.04000
  30
0.00000
  42
-0.0838
  70
32
  0
VERTEX
  5
7EC
  100
AcDbEntity
  8
Layer 1
  62
0
  100
AcDb2dVertex
  10
1.79403
  20
0.02118
  30
0.00000
  42
-0.0576
  70
32
  0
VERTEX
  5
7ED
  100
AcDbEntity
  8
Layer 1
  62
0
  100
AcDb2dVertex
  10
1.77600
  20
0.01900
  30
0.00000
  42
-0.1159
  70
32
  0
VERTEX
  5
7EE
  100
AcDbEntity
  8
Layer 1
  62
0
  100
AcDb2dVertex
  10
1.74068
  20
0.02822
  30
0.00000
  42
-0.0616
  70
32
  0
VERTEX
  5
7EF
  100
AcDbEntity
  8
Layer 1
  62
0
  100
AcDb2dVertex
  10
1.69971
  20
0.05653
  30
0.00000
  70
32
  0
VERTEX
  5
7F0
  100
AcDbEntity
  8
Layer 1
  62
0
  100
AcDb2dVertex
  10
1.69800
  20
0.05800
  30
0.00000
  42
0.0793
  70
32
  0
VERTEX
  5
7F1
  100
AcDbEntity
  8
Layer 1
  62
0
  100
AcDb2dVertex
  10
1.65279
  20
0.08836
  30
0.00000
  42
0.1044
  70
32
  0
VERTEX
  5
7F2
  100
AcDbEntity
  8
Layer 1
  62
0
  100
AcDb2dVertex
  10
1.61400
  20
0.09700
  30
0.00000
  70
32
  0
VERTEX
  5
7F3
  100
AcDbEntity
  8
Layer 1
  62
0
  100
AcDb2dVertex
  10
1.60800
  20
0.09637
  30
0.00000
  70
32
  0
VERTEX
  5
7F4
  100
AcDbEntity
  8
Layer 1
  62
0
  100
AcDb2dVertex
  10
1.59600
  20
0.09500
  30
0.00000
  70
32
  0
VERTEX
  5
7F5
  100
AcDbEntity
  8
Layer 1
  62
0
  100
AcDb2dVertex
  10
1.57900
  20
0.09500
  30
0.00000
  42
-0.0966
  70
32
  0
VERTEX
  5
7F6
  100
AcDbEntity
  8
Layer 1
  62
0
  100
AcDb2dVertex
  10
1.54867
  20
0.09991
  30
0.00000
  42
-0.2790
  70
32
  0
VERTEX
  5
7F7
  100
AcDbEntity
  8
Layer 1
  62
0
  100
AcDb2dVertex
  10
1.52673
  20
0.12756
  30
0.00000
  42
-0.0411
  70
32
  0
VERTEX
  5
7F8
  100
AcDbEntity
  8
Layer 1
  62
0
  100
AcDb2dVertex
  10
1.52600
  20
0.13700
  30
0.00000
  70
32
  0
VERTEX
  5
7F9
  100
AcDbEntity
  8
Layer 1
  62
0
  100
AcDb2dVertex
  10
1.53040
  20
0.15038
  30
0.00000
  70
32
  0
VERTEX
  5
7FA
  100
AcDbEntity
  8
Layer 1
  62
0
  100
AcDb2dVertex
  10
1.54600
  20
0.19900
  30
0.00000
  70
32
  0
VERTEX
  5
7FB
  100
AcDbEntity
  8
Layer 1
  62
0
  100
AcDb2dVertex
  10
1.67200
  20
0.15400
  30
0.00000
  70
32
  0
VERTEX
  5
7FC
  100
AcDbEntity
  8
Layer 1
  62
0
  100
AcDb2dVertex
  10
1.54600
  20
0.19900
  30
0.00000
  42
-0.0968
  70
32
  0
VERTEX
  5
7FD
  100
AcDbEntity
  8
Layer 1
  62
0
  100
AcDb2dVertex
  10
1.56998
  20
0.23576
  30
0.00000
  42
-0.2031
  70
32
  0
VERTEX
  5
7FE
  100
AcDbEntity
  8
Layer 1
  62
0
  100
AcDb2dVertex
  10
1.61600
  20
0.25500
  30
0.00000
  70
32
  0
VERTEX
  5
7FF
  100
AcDbEntity
  8
Layer 1
  62
0
  100
AcDb2dVertex
  10
1.62900
  20
0.25500
  30
0.00000
  42
0.0329
  70
32
  0
VERTEX
  5
800
  100
AcDbEntity
  8
Layer 1
  62
0
  100
AcDb2dVertex
  10
1.64400
  20
0.25400
  30
0.00000
  42
0.1028
  70
32
  0
VERTEX
  5
801
  100
AcDbEntity
  8
Layer 1
  62
0
  100
AcDb2dVertex
  10
1.66795
  20
0.25800
  30
0.00000
  42
0.2832
  70
32
  0
VERTEX
  5
802
  100
AcDbEntity
  8
Layer 1
  62
0
  100
AcDb2dVertex
  10
1.68200
  20
0.27700
  30
0.00000
  42
-0.0418
  70
32
  0
VERTEX
  5
803
  100
AcDbEntity
  8
Layer 1
  62
0
  100
AcDb2dVertex
  10
1.68506
  20
0.32479
  30
0.00000
  42
-0.0102
  70
32
  0
VERTEX
  5
804
  100
AcDbEntity
  8
Layer 1
  62
0
  100
AcDb2dVertex
  10
1.69200
  20
0.37000
  30
0.00000
  42
-0.1223
  70
32
  0
VERTEX
  5
805
  100
AcDbEntity
  8
Layer 1
  62
0
  100
AcDb2dVertex
  10
1.71386
  20
0.40286
  30
0.00000
  42
-0.0421
  70
32
  0
VERTEX
  5
806
  100
AcDbEntity
  8
Layer 1
  62
0
  100
AcDb2dVertex
  10
1.73400
  20
0.41900
  30
0.00000
  42
0.1471
  70
32
  0
VERTEX
  5
807
  100
AcDbEntity
  8
Layer 1
  62
0
  100
AcDb2dVertex
  10
1.75633
  20
0.44236
  30
0.00000
  42
0.1131
  70
32
  0
VERTEX
  5
808
  100
AcDbEntity
  8
Layer 1
  62
0
  100
AcDb2dVertex
  10
1.76100
  20
0.46400
  30
0.00000
  42
0.1324
  70
32
  0
VERTEX
  5
809
  100
AcDbEntity
  8
Layer 1
  62
0
  100
AcDb2dVertex
  10
1.75400
  20
0.49200
  30
0.00000
  42
-0.0444
  70
32
  0
VERTEX
  5
80A
  100
AcDbEntity
  8
Layer 1
  62
0
  100
AcDb2dVertex
  10
1.73612
  20
0.52171
  30
0.00000
  70
32
  0
VERTEX
  5
80B
  100
AcDbEntity
  8
Layer 1
  62
0
  100
AcDb2dVertex
  10
1.73600
  20
0.52200
  30
0.00000
  42
-0.0787
  70
32
  0
VERTEX
  5
80C
  100
AcDbEntity
  8
Layer 1
  62
0
  100
AcDb2dVertex
  10
1.73101
  20
0.54344
  30
0.00000
  70
32
  0
VERTEX
  5
80D
  100
AcDbEntity
  8
Layer 1
  62
0
  100
AcDb2dVertex
  10
1.73100
  20
0.54400
  30
0.00000
  42
-0.0523
  70
32
  0
VERTEX
  5
80E
  100
AcDbEntity
  8
Layer 1
  62
0
  100
AcDb2dVertex
  10
1.73496
  20
0.56583
  30
0.00000
  42
-0.0133
  70
32
  0
VERTEX
  5
80F
  100
AcDbEntity
  8
Layer 1
  62
0
  100
AcDb2dVertex
  10
1.74600
  20
0.60400
  30
0.00000
  42
0.0030
  70
32
  0
VERTEX
  5
810
  100
AcDbEntity
  8
Layer 1
  62
0
  100
AcDb2dVertex
  10
1.86100
  20
0.55200
  30
0.00000
  70
32
  0
VERTEX
  5
811
  100
AcDbEntity
  8
Layer 1
  62
0
  100
AcDb2dVertex
  10
1.74600
  20
0.60400
  30
0.00000
  42
-0.0432
  70
32
  0
VERTEX
  5
812
  100
AcDbEntity
  8
Layer 1
  62
0
  100
AcDb2dVertex
  10
1.77861
  20
0.65255
  30
0.00000
  42
-0.0825
  70
32
  0
VERTEX
  5
813
  100
AcDbEntity
  8
Layer 1
  62
0
  100
AcDb2dVertex
  10
1.79909
  20
0.67124
  30
0.00000
  42
-0.1329
  70
32
  0
VERTEX
  5
814
  100
AcDbEntity
  8
Layer 1
  62
0
  100
AcDb2dVertex
  10
1.81100
  20
0.67500
  30
0.00000
  42
-0.1705
  70
32
  0
VERTEX
  5
815
  100
AcDbEntity
  8
Layer 1
  62
0
  100
AcDb2dVertex
  10
1.83313
  20
0.66635
  30
0.00000
  42
-0.0718
  70
32
  0
VERTEX
  5
816
  100
AcDbEntity
  8
Layer 1
  62
0
  100
AcDb2dVertex
  10
1.84900
  20
0.64900
  30
0.00000
  42
0.0360
  70
32
  0
VERTEX
  5
817
  100
AcDbEntity
  8
Layer 1
  62
0
  100
AcDb2dVertex
  10
1.89085
  20
0.59891
  30
0.00000
  70
32
  0
VERTEX
  5
818
  100
AcDbEntity
  8
Layer 1
  62
0
  100
AcDb2dVertex
  10
1.89600
  20
0.59400
  30
0.00000
  42
0.0525
  70
32
  0
VERTEX
  5
819
  100
AcDbEntity
  8
Layer 1
  62
0
  100
AcDb2dVertex
  10
1.91429
  20
0.58514
  30
0.00000
  42
0.0160
  70
32
  0
VERTEX
  5
81A
  100
AcDbEntity
  8
Layer 1
  62
0
  100
AcDb2dVertex
  10
1.99749
  20
0.55614
  30
0.00000
  70
32
  0
VERTEX
  5
81B
  100
AcDbEntity
  8
Layer 1
  62
0
  100
AcDb2dVertex
  10
2.00100
  20
0.55500
  30
0.00000
  42
-0.1255
  70
32
  0
VERTEX
  5
81C
  100
AcDbEntity
  8
Layer 1
  62
0
  100
AcDb2dVertex
  10
2.03594
  20
0.53499
  30
0.00000
  42
-0.1595
  70
32
  0
VERTEX
  5
81D
  100
AcDbEntity
  8
Layer 1
  62
0
  100
AcDb2dVertex
  10
2.05471
  20
0.49611
  30
0.00000
  42
-0.0398
  70
32
  0
VERTEX
  5
81E
  100
AcDbEntity
  8
Layer 1
  62
0
  100
AcDb2dVertex
  10
2.05600
  20
0.47900
  30
0.00000
  70
32
  0
SEQEND
  5
81F
  100
AcDbEntity
  8
Layer 1
  62
0
  0
POLYLINE
  5
820
  100
AcDbEntity
  8
Layer 1
  62
0
  100
AcDb2dPolyline
 66
     1
  10
0
  20
0
  30
0
  70
1
  0
VERTEX
  5
821
  100
AcDbEntity
  8
Layer 1
  62
0
  100
AcDb2dVertex
  10
0.77900
  20
1.49100
  30
0.00000
  42
-0.0975
  70
32
  0
VERTEX
  5
822
  100
AcDbEntity
  8
Layer 1
  62
0
  100
AcDb2dVertex
  10
0.77028
  20
1.44128
  30
0.00000
  42
-0.1734
  70
32
  0
VERTEX
  5
823
  100
AcDbEntity
  8
Layer 1
  62
0
  100
AcDb2dVertex
  10
0.72861
  20
1.39480
  30
0.00000
  42
-0.0256
  70
32
  0
VERTEX
  5
824
  100
AcDbEntity
  8
Layer 1
  62
0
  100
AcDb2dVertex
  10
0.71700
  20
1.38900
  30
0.00000
  42
0.0148
  70
32
  0
VERTEX
  5
825
  100
AcDbEntity
  8
Layer 1
  62
0
  100
AcDb2dVertex
  10
0.63900
  20
1.37700
  30
0.00000
  42
0.1971
  70
32
  0
VERTEX
  5
826
  100
AcDbEntity
  8
Layer 1
  62
0
  100
AcDb2dVertex
  10
0.60976
  20
1.35603
  30
0.00000
  42
0.0999
  70
32
  0
VERTEX
  5
827
  100
AcDbEntity
  8
Layer 1
  62
0
  100
AcDb2dVertex
  10
0.59625
  20
1.32032
  30
0.00000
  70
32
  0
VERTEX
  5
828
  100
AcDbEntity
  8
Layer 1
  62
0
  100
AcDb2dVertex
  10
0.59600
  20
1.31900
  30
0.00000
  42
-0.0724
  70
32
  0
VERTEX
  5
829
  100
AcDbEntity
  8
Layer 1
  62
0
  100
AcDb2dVertex
  10
0.58632
  20
1.28669
  30
0.00000
  42
-0.1508
  70
32
  0
VERTEX
  5
82A
  100
AcDbEntity
  8
Layer 1
  62
0
  100
AcDb2dVertex
  10
0.57322
  20
1.27179
  30
0.00000
  42
-0.1285
  70
32
  0
VERTEX
  5
82B
  100
AcDbEntity
  8
Layer 1
  62
0
  100
AcDb2dVertex
  10
0.56200
  20
1.26900
  30
0.00000
  42
-0.2032
  70
32
  0
VERTEX
  5
82C
  100
AcDbEntity
  8
Layer 1
  62
0
  100
AcDb2dVertex
  10
0.54894
  20
1.27531
  30
0.00000
  42
-0.0854
  70
32
  0
VERTEX
  5
82D
  100
AcDbEntity
  8
Layer 1
  62
0
  100
AcDb2dVertex
  10
0.53549
  20
1.29638
  30
0.00000
  42
-0.0232
  70
32
  0
VERTEX
  5
82E
  100
AcDbEntity
  8
Layer 1
  62
0
  100
AcDb2dVertex
  10
0.52800
  20
1.31500
  30
0.00000
  42
0.0946
  70
32
  0
VERTEX
  5
82F
  100
AcDbEntity
  8
Layer 1
  62
0
  100
AcDb2dVertex
  10
0.51177
  20
1.34539
  30
0.00000
  42
0.2307
  70
32
  0
VERTEX
  5
830
  100
AcDbEntity
  8
Layer 1
  62
0
  100
AcDb2dVertex
  10
0.47500
  20
1.36200
  30
0.00000
  42
0.0638
  70
32
  0
VERTEX
  5
831
  100
AcDbEntity
  8
Layer 1
  62
0
  100
AcDb2dVertex
  10
0.46102
  20
1.35824
  30
0.00000
  42
0.0186
  70
32
  0
VERTEX
  5
832
  100
AcDbEntity
  8
Layer 1
  62
0
  100
AcDb2dVertex
  10
0.39113
  20
1.32895
  30
0.00000
  70
32
  0
VERTEX
  5
833
  100
AcDbEntity
  8
Layer 1
  62
0
  100
AcDb2dVertex
  10
0.37800
  20
1.32300
  30
0.00000
  42
-0.0830
  70
32
  0
VERTEX
  5
834
  100
AcDbEntity
  8
Layer 1
  62
0
  100
AcDb2dVertex
  10
0.23951
  20
1.28663
  30
0.00000
  42
-0.0248
  70
32
  0
VERTEX
  5
835
  100
AcDbEntity
  8
Layer 1
  62
0
  100
AcDb2dVertex
  10
0.18500
  20
1.28400
  30
0.00000
  42
-0.0800
  70
32
  0
VERTEX
  5
836
  100
AcDbEntity
  8
Layer 1
  62
0
  100
AcDb2dVertex
  10
0.10894
  20
1.29515
  30
0.00000
  42
-0.0327
  70
32
  0
VERTEX
  5
837
  100
AcDbEntity
  8
Layer 1
  62
0
  100
AcDb2dVertex
  10
0.08700
  20
1.30400
  30
0.00000
  42
-0.0957
  70
32
  0
VERTEX
  5
838
  100
AcDbEntity
  8
Layer 1
  62
0
  100
AcDb2dVertex
  10
0.05411
  20
1.32739
  30
0.00000
  42
-0.2228
  70
32
  0
VERTEX
  5
839
  100
AcDbEntity
  8
Layer 1
  62
0
  100
AcDb2dVertex
  10
0.03850
  20
1.37606
  30
0.00000
  70
32
  0
VERTEX
  5
83A
  100
AcDbEntity
  8
Layer 1
  62
0
  100
AcDb2dVertex
  10
0.03900
  20
1.38000
  30
0.00000
  42
-0.1378
  70
32
  0
VERTEX
  5
83B
  100
AcDbEntity
  8
Layer 1
  62
0
  100
AcDb2dVertex
  10
0.03223
  20
1.41890
  30
0.00000
  42
-0.0284
  70
32
  0
VERTEX
  5
83C
  100
AcDbEntity
  8
Layer 1
  62
0
  100
AcDb2dVertex
  10
0.03400
  20
1.43200
  30
0.00000
  42
-0.1245
  70
32
  0
VERTEX
  5
83D
  100
AcDbEntity
  8
Layer 1
  62
0
  100
AcDb2dVertex
  10
0.08000
  20
1.55100
  30
0.00000
  70
32
  0
VERTEX
  5
83E
  100
AcDbEntity
  8
Layer 1
  62
0
  100
AcDb2dVertex
  10
0.20500
  20
1.47900
  30
0.00000
  70
32
  0
VERTEX
  5
83F
  100
AcDbEntity
  8
Layer 1
  62
0
  100
AcDb2dVertex
  10
0.08000
  20
1.55100
  30
0.00000
  42
0.0155
  70
32
  0
VERTEX
  5
840
  100
AcDbEntity
  8
Layer 1
  62
0
  100
AcDb2dVertex
  10
0.11700
  20
1.60700
  30
0.00000
  42
-0.0747
  70
32
  0
VERTEX
  5
841
  100
AcDbEntity
  8
Layer 1
  62
0
  100
AcDb2dVertex
  10
0.14390
  20
1.63657
  30
0.00000
  42
-0.1349
  70
32
  0
VERTEX
  5
842
  100
AcDbEntity
  8
Layer 1
  62
0
  100
AcDb2dVertex
  10
0.16645
  20
1.64679
  30
0.00000
  70
32
  0
VERTEX
  5
843
  100
AcDbEntity
  8
Layer 1
  62
0
  100
AcDb2dVertex
  10
0.17000
  20
1.64700
  30
0.00000
  42
-0.2235
  70
32
  0
VERTEX
  5
844
  100
AcDbEntity
  8
Layer 1
  62
0
  100
AcDb2dVertex
  10
0.19303
  20
1.63600
  30
0.00000
  42
-0.0916
  70
32
  0
VERTEX
  5
845
  100
AcDbEntity
  8
Layer 1
  62
0
  100
AcDb2dVertex
  10
0.20700
  20
1.61100
  30
0.00000
  42
0.1410
  70
32
  0
VERTEX
  5
846
  100
AcDbEntity
  8
Layer 1
  62
0
  100
AcDb2dVertex
  10
0.22455
  20
1.58563
  30
0.00000
  42
0.1647
  70
32
  0
VERTEX
  5
847
  100
AcDbEntity
  8
Layer 1
  62
0
  100
AcDb2dVertex
  10
0.25472
  20
1.57595
  30
0.00000
  70
32
  0
VERTEX
  5
848
  100
AcDbEntity
  8
Layer 1
  62
0
  100
AcDb2dVertex
  10
0.25900
  20
1.57600
  30
0.00000
  42
0.1925
  70
32
  0
VERTEX
  5
849
  100
AcDbEntity
  8
Layer 1
  62
0
  100
AcDb2dVertex
  10
0.30001
  20
1.59084
  30
0.00000
  42
0.0885
  70
32
  0
VERTEX
  5
84A
  100
AcDbEntity
  8
Layer 1
  62
0
  100
AcDb2dVertex
  10
0.32400
  20
1.62100
  30
0.00000
  42
-0.0690
  70
32
  0
VERTEX
  5
84B
  100
AcDbEntity
  8
Layer 1
  62
0
  100
AcDb2dVertex
  10
0.34602
  20
1.65386
  30
0.00000
  42
-0.1265
  70
32
  0
VERTEX
  5
84C
  100
AcDbEntity
  8
Layer 1
  62
0
  100
AcDb2dVertex
  10
0.36357
  20
1.66598
  30
0.00000
  42
-0.0758
  70
32
  0
VERTEX
  5
84D
  100
AcDbEntity
  8
Layer 1
  62
0
  100
AcDb2dVertex
  10
0.37000
  20
1.66700
  30
0.00000
  42
-0.1825
  70
32
  0
VERTEX
  5
84E
  100
AcDbEntity
  8
Layer 1
  62
0
  100
AcDb2dVertex
  10
0.39209
  20
1.65807
  30
0.00000
  42
-0.0436
  70
32
  0
VERTEX
  5
84F
  100
AcDbEntity
  8
Layer 1
  62
0
  100
AcDb2dVertex
  10
0.40000
  20
1.65000
  30
0.00000
  42
0.2171
  70
32
  0
VERTEX
  5
850
  100
AcDbEntity
  8
Layer 1
  62
0
  100
AcDb2dVertex
  10
0.43203
  20
1.63651
  30
0.00000
  42
0.0322
  70
32
  0
VERTEX
  5
851
  100
AcDbEntity
  8
Layer 1
  62
0
  100
AcDb2dVertex
  10
0.44000
  20
1.63700
  30
0.00000
  70
32
  0
VERTEX
  5
852
  100
AcDbEntity
  8
Layer 1
  62
0
  100
AcDb2dVertex
  10
0.58900
  20
1.65900
  30
0.00000
  42
-0.1637
  70
32
  0
VERTEX
  5
853
  100
AcDbEntity
  8
Layer 1
  62
0
  100
AcDb2dVertex
  10
0.62132
  20
1.65156
  30
0.00000
  42
-0.0665
  70
32
  0
VERTEX
  5
854
  100
AcDbEntity
  8
Layer 1
  62
0
  100
AcDb2dVertex
  10
0.64000
  20
1.63700
  30
0.00000
  42
-0.0779
  70
32
  0
VERTEX
  5
855
  100
AcDbEntity
  8
Layer 1
  62
0
  100
AcDb2dVertex
  10
0.65326
  20
1.61655
  30
0.00000
  42
-0.0327
  70
32
  0
VERTEX
  5
856
  100
AcDbEntity
  8
Layer 1
  62
0
  100
AcDb2dVertex
  10
0.67000
  20
1.57400
  30
0.00000
  42
0.0541
  70
32
  0
VERTEX
  5
857
  100
AcDbEntity
  8
Layer 1
  62
0
  100
AcDb2dVertex
  10
0.68430
  20
1.54242
  30
0.00000
  42
0.1311
  70
32
  0
VERTEX
  5
858
  100
AcDbEntity
  8
Layer 1
  62
0
  100
AcDb2dVertex
  10
0.69351
  20
1.53286
  30
0.00000
  42
0.1140
  70
32
  0
VERTEX
  5
859
  100
AcDbEntity
  8
Layer 1
  62
0
  100
AcDb2dVertex
  10
0.69700
  20
1.53200
  30
0.00000
  42
0.2012
  70
32
  0
VERTEX
  5
85A
  100
AcDbEntity
  8
Layer 1
  62
0
  100
AcDb2dVertex
  10
0.70653
  20
1.53690
  30
0.00000
  42
0.0623
  70
32
  0
VERTEX
  5
85B
  100
AcDbEntity
  8
Layer 1
  62
0
  100
AcDb2dVertex
  10
0.71600
  20
1.55000
  30
0.00000
  42
-0.0620
  70
32
  0
VERTEX
  5
85C
  100
AcDbEntity
  8
Layer 1
  62
0
  100
AcDb2dVertex
  10
0.72767
  20
1.56593
  30
0.00000
  42
-0.1914
  70
32
  0
VERTEX
  5
85D
  100
AcDbEntity
  8
Layer 1
  62
0
  100
AcDb2dVertex
  10
0.73400
  20
1.56900
  30
0.00000
  42
-0.2056
  70
32
  0
VERTEX
  5
85E
  100
AcDbEntity
  8
Layer 1
  62
0
  100
AcDb2dVertex
  10
0.75344
  20
1.56006
  30
0.00000
  42
-0.0980
  70
32
  0
VERTEX
  5
85F
  100
AcDbEntity
  8
Layer 1
  62
0
  100
AcDb2dVertex
  10
0.76844
  20
1.53540
  30
0.00000
  70
32
  0
VERTEX
  5
860
  100
AcDbEntity
  8
Layer 1
  62
0
  100
AcDb2dVertex
  10
0.76900
  20
1.53400
  30
0.00000
  42
-0.0694
  70
32
  0
VERTEX
  5
861
  100
AcDbEntity
  8
Layer 1
  62
0
  100
AcDb2dVertex
  10
0.77872
  20
1.49701
  30
0.00000
  70
32
  0
VERTEX
  5
862
  100
AcDbEntity
  8
Layer 1
  62
0
  100
AcDb2dVertex
  10
0.77900
  20
1.49100
  30
0.00000
  70
32
  0
SEQEND
  5
863
  100
AcDbEntity
  8
Layer 1
  62
0
  0
POLYLINE
  5
864
  100
AcDbEntity
  8
Layer 1
  62
0
  100
AcDb2dPolyline
 66
     1
  10
0
  20
0
  30
0
  70
1
  0
VERTEX
  5
865
  100
AcDbEntity
  8
Layer 1
  62
0
  100
AcDb2dVertex
  10
1.92400
  20
1.52100
  30
0.00000
  70
32
  0
VERTEX
  5
866
  100
AcDbEntity
  8
Layer 1
  62
0
  100
AcDb2dVertex
  10
1.92381
  20
1.52189
  30
0.00000
  42
0.0763
  70
32
  0
VERTEX
  5
867
  100
AcDbEntity
  8
Layer 1
  62
0
  100
AcDb2dVertex
  10
1.92163
  20
1.51530
  30
0.00000
  42
0.0081
  70
32
  0
VERTEX
  5
868
  100
AcDbEntity
  8
Layer 1
  62
0
  100
AcDb2dVertex
  10
1.91200
  20
1.47400
  30
0.00000
  42
-0.0728
  70
32
  0
VERTEX
  5
869
  100
AcDbEntity
  8
Layer 1
  62
0
  100
AcDb2dVertex
  10
1.91529
  20
1.44126
  30
0.00000
  42
-0.0159
  70
32
  0
VERTEX
  5
86A
  100
AcDbEntity
  8
Layer 1
  62
0
  100
AcDb2dVertex
  10
1.91400
  20
1.41700
  30
0.00000
  42
-0.0809
  70
32
  0
VERTEX
  5
86B
  100
AcDbEntity
  8
Layer 1
  62
0
  100
AcDb2dVertex
  10
1.90410
  20
1.40917
  30
0.00000
  42
-0.0253
  70
32
  0
VERTEX
  5
86C
  100
AcDbEntity
  8
Layer 1
  62
0
  100
AcDb2dVertex
  10
1.88400
  20
1.39800
  30
0.00000
  42
0.1009
  70
32
  0
VERTEX
  5
86D
  100
AcDbEntity
  8
Layer 1
  62
0
  100
AcDb2dVertex
  10
1.86328
  20
1.38153
  30
0.00000
  42
0.1701
  70
32
  0
VERTEX
  5
86E
  100
AcDbEntity
  8
Layer 1
  62
0
  100
AcDb2dVertex
  10
1.85700
  20
1.36400
  30
0.00000
  42
0.3059
  70
32
  0
VERTEX
  5
86F
  100
AcDbEntity
  8
Layer 1
  62
0
  100
AcDb2dVertex
  10
1.87133
  20
1.34153
  30
0.00000
  42
0.0445
  70
32
  0
VERTEX
  5
870
  100
AcDbEntity
  8
Layer 1
  62
0
  100
AcDb2dVertex
  10
1.87800
  20
1.33900
  30
0.00000
  70
32
  0
VERTEX
  5
871
  100
AcDbEntity
  8
Layer 1
  62
0
  100
AcDb2dVertex
  10
1.88497
  20
1.33654
  30
0.00000
  70
32
  0
VERTEX
  5
872
  100
AcDbEntity
  8
Layer 1
  62
0
  100
AcDb2dVertex
  10
1.89549
  20
1.33266
  30
0.00000
  70
32
  0
VERTEX
  5
873
  100
AcDbEntity
  8
Layer 1
  62
0
  100
AcDb2dVertex
  10
1.89812
  20
1.33125
  30
0.00000
  42
-0.2346
  70
32
  0
VERTEX
  5
874
  100
AcDbEntity
  8
Layer 1
  62
0
  100
AcDb2dVertex
  10
1.89900
  20
1.33000
  30
0.00000
  42
-0.2071
  70
32
  0
VERTEX
  5
875
  100
AcDbEntity
  8
Layer 1
  62
0
  100
AcDb2dVertex
  10
1.90600
  20
1.31500
  30
0.00000
  42
-0.1478
  70
32
  0
VERTEX
  5
876
  100
AcDbEntity
  8
Layer 1
  62
0
  100
AcDb2dVertex
  10
1.90385
  20
1.30482
  30
0.00000
  42
-0.0943
  70
32
  0
VERTEX
  5
877
  100
AcDbEntity
  8
Layer 1
  62
0
  100
AcDb2dVertex
  10
1.90200
  20
1.30300
  30
0.00000
  42
-0.0519
  70
32
  0
VERTEX
  5
878
  100
AcDbEntity
  8
Layer 1
  62
0
  100
AcDb2dVertex
  10
1.88970
  20
1.29602
  30
0.00000
  70
32
  0
VERTEX
  5
879
  100
AcDbEntity
  8
Layer 1
  62
0
  100
AcDb2dVertex
  10
1.87100
  20
1.28700
  30
0.00000
  42
0.1654
  70
32
  0
VERTEX
  5
87A
  100
AcDbEntity
  8
Layer 1
  62
0
  100
AcDb2dVertex
  10
1.85478
  20
1.27538
  30
0.00000
  42
0.1483
  70
32
  0
VERTEX
  5
87B
  100
AcDbEntity
  8
Layer 1
  62
0
  100
AcDb2dVertex
  10
1.85100
  20
1.26200
  30
0.00000
  42
0.2224
  70
32
  0
VERTEX
  5
87C
  100
AcDbEntity
  8
Layer 1
  62
0
  100
AcDb2dVertex
  10
1.85891
  20
1.24645
  30
0.00000
  70
32
  0
VERTEX
  5
87D
  100
AcDbEntity
  8
Layer 1
  62
0
  100
AcDb2dVertex
  10
1.86200
  20
1.24400
  30
0.00000
  70
32
  0
VERTEX
  5
87E
  100
AcDbEntity
  8
Layer 1
  62
0
  100
AcDb2dVertex
  10
1.90600
  20
1.21700
  30
0.00000
  42
-0.1786
  70
32
  0
VERTEX
  5
87F
  100
AcDbEntity
  8
Layer 1
  62
0
  100
AcDb2dVertex
  10
1.90185
  20
1.20880
  30
0.00000
  42
-0.0611
  70
32
  0
VERTEX
  5
880
  100
AcDbEntity
  8
Layer 1
  62
0
  100
AcDb2dVertex
  10
1.88185
  20
1.19303
  30
0.00000
  70
32
  0
VERTEX
  5
881
  100
AcDbEntity
  8
Layer 1
  62
0
  100
AcDb2dVertex
  10
1.86900
  20
1.18500
  30
0.00000
  42
0.0518
  70
32
  0
VERTEX
  5
882
  100
AcDbEntity
  8
Layer 1
  62
0
  100
AcDb2dVertex
  10
1.83611
  20
1.16211
  30
0.00000
  42
0.1077
  70
32
  0
VERTEX
  5
883
  100
AcDbEntity
  8
Layer 1
  62
0
  100
AcDb2dVertex
  10
1.82600
  20
1.14900
  30
0.00000
  70
32
  0
VERTEX
  5
884
  100
AcDbEntity
  8
Layer 1
  62
0
  100
AcDb2dVertex
  10
1.76400
  20
1.18000
  30
0.00000
  70
32
  0
VERTEX
  5
885
  100
AcDbEntity
  8
Layer 1
  62
0
  100
AcDb2dVertex
  10
1.82600
  20
1.14900
  30
0.00000
  42
0.5658
  70
32
  0
VERTEX
  5
886
  100
AcDbEntity
  8
Layer 1
  62
0
  100
AcDb2dVertex
  10
1.82481
  20
1.14971
  30
0.00000
  42
0.1270
  70
32
  0
VERTEX
  5
887
  100
AcDbEntity
  8
Layer 1
  62
0
  100
AcDb2dVertex
  10
1.82314
  20
1.14375
  30
0.00000
  42
0.0308
  70
32
  0
VERTEX
  5
888
  100
AcDbEntity
  8
Layer 1
  62
0
  100
AcDb2dVertex
  10
1.82200
  20
1.11900
  30
0.00000
  42
-0.0565
  70
32
  0
VERTEX
  5
889
  100
AcDbEntity
  8
Layer 1
  62
0
  100
AcDb2dVertex
  10
1.81743
  20
1.09156
  30
0.00000
  42
-0.0245
  70
32
  0
VERTEX
  5
88A
  100
AcDbEntity
  8
Layer 1
  62
0
  100
AcDb2dVertex
  10
1.79400
  20
1.01900
  30
0.00000
  70
32
  0
VERTEX
  5
88B
  100
AcDbEntity
  8
Layer 1
  62
0
  100
AcDb2dVertex
  10
1.74100
  20
1.03900
  30
0.00000
  70
32
  0
VERTEX
  5
88C
  100
AcDbEntity
  8
Layer 1
  62
0
  100
AcDb2dVertex
  10
1.79400
  20
1.01900
  30
0.00000
  42
-0.0337
  70
32
  0
VERTEX
  5
88D
  100
AcDbEntity
  8
Layer 1
  62
0
  100
AcDb2dVertex
  10
1.79003
  20
0.99615
  30
0.00000
  42
-0.0081
  70
32
  0
VERTEX
  5
88E
  100
AcDbEntity
  8
Layer 1
  62
0
  100
AcDb2dVertex
  10
1.76600
  20
0.89500
  30
0.00000
  70
32
  0
VERTEX
  5
88F
  100
AcDbEntity
  8
Layer 1
  62
0
  100
AcDb2dVertex
  10
1.69400
  20
0.92200
  30
0.00000
  70
32
  0
VERTEX
  5
890
  100
AcDbEntity
  8
Layer 1
  62
0
  100
AcDb2dVertex
  10
1.76600
  20
0.89500
  30
0.00000
  42
-0.0566
  70
32
  0
VERTEX
  5
891
  100
AcDbEntity
  8
Layer 1
  62
0
  100
AcDb2dVertex
  10
1.75920
  20
0.86116
  30
0.00000
  42
-0.0276
  70
32
  0
VERTEX
  5
892
  100
AcDbEntity
  8
Layer 1
  62
0
  100
AcDb2dVertex
  10
1.73067
  20
0.78453
  30
0.00000
  70
32
  0
VERTEX
  5
893
  100
AcDbEntity
  8
Layer 1
  62
0
  100
AcDb2dVertex
  10
1.72400
  20
0.76900
  30
0.00000
  70
32
  0
VERTEX
  5
894
  100
AcDbEntity
  8
Layer 1
  62
0
  100
AcDb2dVertex
  10
1.66400
  20
0.80200
  30
0.00000
  70
32
  0
VERTEX
  5
895
  100
AcDbEntity
  8
Layer 1
  62
0
  100
AcDb2dVertex
  10
1.72400
  20
0.76900
  30
0.00000
  42
0.0065
  70
32
  0
VERTEX
  5
896
  100
AcDbEntity
  8
Layer 1
  62
0
  100
AcDb2dVertex
  10
1.65200
  20
0.65500
  30
0.00000
  42
0.0766
  70
32
  0
VERTEX
  5
897
  100
AcDbEntity
  8
Layer 1
  62
0
  100
AcDb2dVertex
  10
1.66079
  20
0.61832
  30
0.00000
  42
0.0364
  70
32
  0
VERTEX
  5
898
  100
AcDbEntity
  8
Layer 1
  62
0
  100
AcDb2dVertex
  10
1.68200
  20
0.57400
  30
0.00000
  42
-0.2835
  70
32
  0
VERTEX
  5
899
  100
AcDbEntity
  8
Layer 1
  62
0
  100
AcDb2dVertex
  10
1.67488
  20
0.56257
  30
0.00000
  42
-0.0676
  70
32
  0
VERTEX
  5
89A
  100
AcDbEntity
  8
Layer 1
  62
0
  100
AcDb2dVertex
  10
1.66600
  20
0.55900
  30
0.00000
  42
-0.0240
  70
32
  0
VERTEX
  5
89B
  100
AcDbEntity
  8
Layer 1
  62
0
  100
AcDb2dVertex
  10
1.63100
  20
0.55400
  30
0.00000
  42
0.1183
  70
32
  0
VERTEX
  5
89C
  100
AcDbEntity
  8
Layer 1
  62
0
  100
AcDb2dVertex
  10
1.61156
  20
0.54559
  30
0.00000
  42
0.2341
  70
32
  0
VERTEX
  5
89D
  100
AcDbEntity
  8
Layer 1
  62
0
  100
AcDb2dVertex
  10
1.60400
  20
0.52900
  30
0.00000
  42
0.0886
  70
32
  0
VERTEX
  5
89E
  100
AcDbEntity
  8
Layer 1
  62
0
  100
AcDb2dVertex
  10
1.60763
  20
0.51920
  30
0.00000
  42
0.0168
  70
32
  0
VERTEX
  5
89F
  100
AcDbEntity
  8
Layer 1
  62
0
  100
AcDb2dVertex
  10
1.62400
  20
0.49000
  30
0.00000
  42
-0.1821
  70
32
  0
VERTEX
  5
8A0
  100
AcDbEntity
  8
Layer 1
  62
0
  100
AcDb2dVertex
  10
1.62600
  20
0.48500
  30
0.00000
  42
-0.2484
  70
32
  0
VERTEX
  5
8A1
  100
AcDbEntity
  8
Layer 1
  62
0
  100
AcDb2dVertex
  10
1.62015
  20
0.47502
  30
0.00000
  42
-0.0869
  70
32
  0
VERTEX
  5
8A2
  100
AcDbEntity
  8
Layer 1
  62
0
  100
AcDb2dVertex
  10
1.60090
  20
0.46678
  30
0.00000
  70
32
  0
VERTEX
  5
8A3
  100
AcDbEntity
  8
Layer 1
  62
0
  100
AcDb2dVertex
  10
1.59400
  20
0.46500
  30
0.00000
  42
0.0488
  70
32
  0
VERTEX
  5
8A4
  100
AcDbEntity
  8
Layer 1
  62
0
  100
AcDb2dVertex
  10
1.56456
  20
0.45724
  30
0.00000
  42
0.1213
  70
32
  0
VERTEX
  5
8A5
  100
AcDbEntity
  8
Layer 1
  62
0
  100
AcDb2dVertex
  10
1.55800
  20
0.45300
  30
0.00000
  42
0.1627
  70
32
  0
VERTEX
  5
8A6
  100
AcDbEntity
  8
Layer 1
  62
0
  100
AcDb2dVertex
  10
1.55400
  20
0.43900
  30
0.00000
  42
0.0822
  70
32
  0
VERTEX
  5
8A7
  100
AcDbEntity
  8
Layer 1
  62
0
  100
AcDb2dVertex
  10
1.55745
  20
0.42719
  30
0.00000
  70
32
  0
VERTEX
  5
8A8
  100
AcDbEntity
  8
Layer 1
  62
0
  100
AcDb2dVertex
  10
1.56100
  20
0.41900
  30
0.00000
  70
32
  0
VERTEX
  5
8A9
  100
AcDbEntity
  8
Layer 1
  62
0
  100
AcDb2dVertex
  10
1.56550
  20
0.40538
  30
0.00000
  70
32
  0
VERTEX
  5
8AA
  100
AcDbEntity
  8
Layer 1
  62
0
  100
AcDb2dVertex
  10
1.56700
  20
0.40000
  30
0.00000
  42
-0.2237
  70
32
  0
VERTEX
  5
8AB
  100
AcDbEntity
  8
Layer 1
  62
0
  100
AcDb2dVertex
  10
1.56130
  20
0.38549
  30
0.00000
  42
-0.1623
  70
32
  0
VERTEX
  5
8AC
  100
AcDbEntity
  8
Layer 1
  62
0
  100
AcDb2dVertex
  10
1.54618
  20
0.38015
  30
0.00000
  70
32
  0
VERTEX
  5
8AD
  100
AcDbEntity
  8
Layer 1
  62
0
  100
AcDb2dVertex
  10
1.54200
  20
0.38000
  30
0.00000
  70
32
  0
VERTEX
  5
8AE
  100
AcDbEntity
  8
Layer 1
  62
0
  100
AcDb2dVertex
  10
1.52411
  20
0.38282
  30
0.00000
  70
32
  0
VERTEX
  5
8AF
  100
AcDbEntity
  8
Layer 1
  62
0
  100
AcDb2dVertex
  10
1.52300
  20
0.38300
  30
0.00000
  70
32
  0
VERTEX
  5
8B0
  100
AcDbEntity
  8
Layer 1
  62
0
  100
AcDb2dVertex
  10
1.50778
  20
0.38460
  30
0.00000
  70
32
  0
VERTEX
  5
8B1
  100
AcDbEntity
  8
Layer 1
  62
0
  100
AcDb2dVertex
  10
1.50400
  20
0.38500
  30
0.00000
  42
0.1303
  70
32
  0
VERTEX
  5
8B2
  100
AcDbEntity
  8
Layer 1
  62
0
  100
AcDb2dVertex
  10
1.48584
  20
0.38116
  30
0.00000
  42
0.2677
  70
32
  0
VERTEX
  5
8B3
  100
AcDbEntity
  8
Layer 1
  62
0
  100
AcDb2dVertex
  10
1.47705
  20
0.36579
  30
0.00000
  70
32
  0
VERTEX
  5
8B4
  100
AcDbEntity
  8
Layer 1
  62
0
  100
AcDb2dVertex
  10
1.47700
  20
0.36400
  30
0.00000
  42
0.0499
  70
32
  0
VERTEX
  5
8B5
  100
AcDbEntity
  8
Layer 1
  62
0
  100
AcDb2dVertex
  10
1.48025
  20
0.34967
  30
0.00000
  70
32
  0
VERTEX
  5
8B6
  100
AcDbEntity
  8
Layer 1
  62
0
  100
AcDb2dVertex
  10
1.48300
  20
0.34000
  30
0.00000
  42
-0.0232
  70
32
  0
VERTEX
  5
8B7
  100
AcDbEntity
  8
Layer 1
  62
0
  100
AcDb2dVertex
  10
1.48900
  20
0.31900
  30
0.00000
  42
-0.1637
  70
32
  0
VERTEX
  5
8B8
  100
AcDbEntity
  8
Layer 1
  62
0
  100
AcDb2dVertex
  10
1.48584
  20
0.30671
  30
0.00000
  42
-0.2324
  70
32
  0
VERTEX
  5
8B9
  100
AcDbEntity
  8
Layer 1
  62
0
  100
AcDb2dVertex
  10
1.47509
  20
0.30202
  30
0.00000
  70
32
  0
VERTEX
  5
8BA
  100
AcDbEntity
  8
Layer 1
  62
0
  100
AcDb2dVertex
  10
1.47400
  20
0.30200
  30
0.00000
  42
-0.0495
  70
32
  0
VERTEX
  5
8BB
  100
AcDbEntity
  8
Layer 1
  62
0
  100
AcDb2dVertex
  10
1.46105
  20
0.30617
  30
0.00000
  70
32
  0
VERTEX
  5
8BC
  100
AcDbEntity
  8
Layer 1
  62
0
  100
AcDb2dVertex
  10
1.45100
  20
0.31000
  30
0.00000
  70
32
  0
VERTEX
  5
8BD
  100
AcDbEntity
  8
Layer 1
  62
0
  100
AcDb2dVertex
  10
1.44607
  20
0.31211
  30
0.00000
  70
32
  0
VERTEX
  5
8BE
  100
AcDbEntity
  8
Layer 1
  62
0
  100
AcDb2dVertex
  10
1.43349
  20
0.31728
  30
0.00000
  42
0.0768
  70
32
  0
VERTEX
  5
8BF
  100
AcDbEntity
  8
Layer 1
  62
0
  100
AcDb2dVertex
  10
1.42700
  20
0.31900
  30
0.00000
  42
0.2261
  70
32
  0
VERTEX
  5
8C0
  100
AcDbEntity
  8
Layer 1
  62
0
  100
AcDb2dVertex
  10
1.41038
  20
0.31224
  30
0.00000
  42
0.1582
  70
32
  0
VERTEX
  5
8C1
  100
AcDbEntity
  8
Layer 1
  62
0
  100
AcDb2dVertex
  10
1.40421
  20
0.29505
  30
0.00000
  70
32
  0
VERTEX
  5
8C2
  100
AcDbEntity
  8
Layer 1
  62
0
  100
AcDb2dVertex
  10
1.40400
  20
0.29000
  30
0.00000
  70
32
  0
VERTEX
  5
8C3
  100
AcDbEntity
  8
Layer 1
  62
0
  100
AcDb2dVertex
  10
1.40400
  20
0.27900
  30
0.00000
  70
32
  0
VERTEX
  5
8C4
  100
AcDbEntity
  8
Layer 1
  62
0
  100
AcDb2dVertex
  10
1.40400
  20
0.26900
  30
0.00000
  42
-0.1337
  70
32
  0
VERTEX
  5
8C5
  100
AcDbEntity
  8
Layer 1
  62
0
  100
AcDb2dVertex
  10
1.40037
  20
0.25213
  30
0.00000
  42
-0.2807
  70
32
  0
VERTEX
  5
8C6
  100
AcDbEntity
  8
Layer 1
  62
0
  100
AcDb2dVertex
  10
1.38700
  20
0.24500
  30
0.00000
  42
-0.2099
  70
32
  0
VERTEX
  5
8C7
  100
AcDbEntity
  8
Layer 1
  62
0
  100
AcDb2dVertex
  10
1.36804
  20
0.25384
  30
0.00000
  42
-0.0401
  70
32
  0
VERTEX
  5
8C8
  100
AcDbEntity
  8
Layer 1
  62
0
  100
AcDb2dVertex
  10
1.36300
  20
0.26000
  30
0.00000
  42
0.1874
  70
32
  0
VERTEX
  5
8C9
  100
AcDbEntity
  8
Layer 1
  62
0
  100
AcDb2dVertex
  10
1.34358
  20
0.27424
  30
0.00000
  42
0.0582
  70
32
  0
VERTEX
  5
8CA
  100
AcDbEntity
  8
Layer 1
  62
0
  100
AcDb2dVertex
  10
1.33700
  20
0.27500
  30
0.00000
  42
0.3058
  70
32
  0
VERTEX
  5
8CB
  100
AcDbEntity
  8
Layer 1
  62
0
  100
AcDb2dVertex
  10
1.31603
  20
0.26187
  30
0.00000
  42
0.0936
  70
32
  0
VERTEX
  5
8CC
  100
AcDbEntity
  8
Layer 1
  62
0
  100
AcDb2dVertex
  10
1.31100
  20
0.24200
  30
0.00000
  42
-0.0915
  70
32
  0
VERTEX
  5
8CD
  100
AcDbEntity
  8
Layer 1
  62
0
  100
AcDb2dVertex
  10
1.30440
  20
0.21894
  30
0.00000
  42
-0.2263
  70
32
  0
VERTEX
  5
8CE
  100
AcDbEntity
  8
Layer 1
  62
0
  100
AcDb2dVertex
  10
1.29251
  20
0.20934
  30
0.00000
  70
32
  0
VERTEX
  5
8CF
  100
AcDbEntity
  8
Layer 1
  62
0
  100
AcDb2dVertex
  10
1.28900
  20
0.20900
  30
0.00000
  42
-0.1204
  70
32
  0
VERTEX
  5
8D0
  100
AcDbEntity
  8
Layer 1
  62
0
  100
AcDb2dVertex
  10
1.28354
  20
0.21241
  30
0.00000
  42
-0.0220
  70
32
  0
VERTEX
  5
8D1
  100
AcDbEntity
  8
Layer 1
  62
0
  100
AcDb2dVertex
  10
1.26800
  20
0.22700
  30
0.00000
  42
0.0705
  70
32
  0
VERTEX
  5
8D2
  100
AcDbEntity
  8
Layer 1
  62
0
  100
AcDb2dVertex
  10
1.24858
  20
0.24270
  30
0.00000
  42
0.1193
  70
32
  0
VERTEX
  5
8D3
  100
AcDbEntity
  8
Layer 1
  62
0
  100
AcDb2dVertex
  10
1.24100
  20
0.24500
  30
0.00000
  42
0.2887
  70
32
  0
VERTEX
  5
8D4
  100
AcDbEntity
  8
Layer 1
  62
0
  100
AcDb2dVertex
  10
1.22294
  20
0.23428
  30
0.00000
  42
0.0960
  70
32
  0
VERTEX
  5
8D5
  100
AcDbEntity
  8
Layer 1
  62
0
  100
AcDb2dVertex
  10
1.21620
  20
0.21153
  30
0.00000
  70
32
  0
VERTEX
  5
8D6
  100
AcDbEntity
  8
Layer 1
  62
0
  100
AcDb2dVertex
  10
1.21600
  20
0.21000
  30
0.00000
  42
-0.0719
  70
32
  0
VERTEX
  5
8D7
  100
AcDbEntity
  8
Layer 1
  62
0
  100
AcDb2dVertex
  10
1.20874
  20
0.18479
  30
0.00000
  42
-0.1825
  70
32
  0
VERTEX
  5
8D8
  100
AcDbEntity
  8
Layer 1
  62
0
  100
AcDb2dVertex
  10
1.20015
  20
0.17577
  30
0.00000
  42
-0.0951
  70
32
  0
VERTEX
  5
8D9
  100
AcDbEntity
  8
Layer 1
  62
0
  100
AcDb2dVertex
  10
1.19600
  20
0.17500
  30
0.00000
  42
-0.1824
  70
32
  0
VERTEX
  5
8DA
  100
AcDbEntity
  8
Layer 1
  62
0
  100
AcDb2dVertex
  10
1.17989
  20
0.18192
  30
0.00000
  42
-0.0743
  70
32
  0
VERTEX
  5
8DB
  100
AcDbEntity
  8
Layer 1
  62
0
  100
AcDb2dVertex
  10
1.16600
  20
0.19900
  30
0.00000
  42
0.0949
  70
32
  0
VERTEX
  5
8DC
  100
AcDbEntity
  8
Layer 1
  62
0
  100
AcDb2dVertex
  10
1.14989
  20
0.21876
  30
0.00000
  42
0.1674
  70
32
  0
VERTEX
  5
8DD
  100
AcDbEntity
  8
Layer 1
  62
0
  100
AcDb2dVertex
  10
1.13600
  20
0.22400
  30
0.00000
  42
0.2413
  70
32
  0
VERTEX
  5
8DE
  100
AcDbEntity
  8
Layer 1
  62
0
  100
AcDb2dVertex
  10
1.11492
  20
0.21321
  30
0.00000
  42
0.0832
  70
32
  0
VERTEX
  5
8DF
  100
AcDbEntity
  8
Layer 1
  62
0
  100
AcDb2dVertex
  10
1.10500
  20
0.19400
  30
0.00000
  42
-0.0817
  70
32
  0
VERTEX
  5
8E0
  100
AcDbEntity
  8
Layer 1
  62
0
  100
AcDb2dVertex
  10
1.09347
  20
0.17098
  30
0.00000
  42
-0.1843
  70
32
  0
VERTEX
  5
8E1
  100
AcDbEntity
  8
Layer 1
  62
0
  100
AcDb2dVertex
  10
1.08356
  20
0.16413
  30
0.00000
  70
32
  0
VERTEX
  5
8E2
  100
AcDbEntity
  8
Layer 1
  62
0
  100
AcDb2dVertex
  10
1.08200
  20
0.16400
  30
0.00000
  42
-0.1706
  70
32
  0
VERTEX
  5
8E3
  100
AcDbEntity
  8
Layer 1
  62
0
  100
AcDb2dVertex
  10
1.07221
  20
0.16862
  30
0.00000
  42
-0.0646
  70
32
  0
VERTEX
  5
8E4
  100
AcDbEntity
  8
Layer 1
  62
0
  100
AcDb2dVertex
  10
1.05900
  20
0.18400
  30
0.00000
  42
0.1029
  70
32
  0
VERTEX
  5
8E5
  100
AcDbEntity
  8
Layer 1
  62
0
  100
AcDb2dVertex
  10
1.04334
  20
0.20130
  30
0.00000
  42
0.1479
  70
32
  0
VERTEX
  5
8E6
  100
AcDbEntity
  8
Layer 1
  62
0
  100
AcDb2dVertex
  10
1.03200
  20
0.20500
  30
0.00000
  42
0.2035
  70
32
  0
VERTEX
  5
8E7
  100
AcDbEntity
  8
Layer 1
  62
0
  100
AcDb2dVertex
  10
1.01779
  20
0.19829
  30
0.00000
  42
0.0847
  70
32
  0
VERTEX
  5
8E8
  100
AcDbEntity
  8
Layer 1
  62
0
  100
AcDb2dVertex
  10
1.00400
  20
0.17700
  30
0.00000
  42
-0.0614
  70
32
  0
VERTEX
  5
8E9
  100
AcDbEntity
  8
Layer 1
  62
0
  100
AcDb2dVertex
  10
0.99082
  20
0.15459
  30
0.00000
  42
-0.1735
  70
32
  0
VERTEX
  5
8EA
  100
AcDbEntity
  8
Layer 1
  62
0
  100
AcDb2dVertex
  10
0.98298
  20
0.14908
  30
0.00000
  70
32
  0
VERTEX
  5
8EB
  100
AcDbEntity
  8
Layer 1
  62
0
  100
AcDb2dVertex
  10
0.98200
  20
0.14900
  30
0.00000
  42
-0.1885
  70
32
  0
VERTEX
  5
8EC
  100
AcDbEntity
  8
Layer 1
  62
0
  100
AcDb2dVertex
  10
0.96960
  20
0.15463
  30
0.00000
  42
-0.0685
  70
32
  0
VERTEX
  5
8ED
  100
AcDbEntity
  8
Layer 1
  62
0
  100
AcDb2dVertex
  10
0.95600
  20
0.17200
  30
0.00000
  42
0.0960
  70
32
  0
VERTEX
  5
8EE
  100
AcDbEntity
  8
Layer 1
  62
0
  100
AcDb2dVertex
  10
0.93857
  20
0.19099
  30
0.00000
  42
0.1486
  70
32
  0
VERTEX
  5
8EF
  100
AcDbEntity
  8
Layer 1
  62
0
  100
AcDb2dVertex
  10
0.92700
  20
0.19500
  30
0.00000
  42
0.2222
  70
32
  0
VERTEX
  5
8F0
  100
AcDbEntity
  8
Layer 1
  62
0
  100
AcDb2dVertex
  10
0.90848
  20
0.18605
  30
0.00000
  42
0.0520
  70
32
  0
VERTEX
  5
8F1
  100
AcDbEntity
  8
Layer 1
  62
0
  100
AcDb2dVertex
  10
0.90200
  20
0.17700
  30
0.00000
  42
-0.1221
  70
32
  0
VERTEX
  5
8F2
  100
AcDbEntity
  8
Layer 1
  62
0
  100
AcDb2dVertex
  10
0.89026
  20
0.16183
  30
0.00000
  42
-0.1553
  70
32
  0
VERTEX
  5
8F3
  100
AcDbEntity
  8
Layer 1
  62
0
  100
AcDb2dVertex
  10
0.88200
  20
0.15900
  30
0.00000
  42
-0.1404
  70
32
  0
VERTEX
  5
8F4
  100
AcDbEntity
  8
Layer 1
  62
0
  100
AcDb2dVertex
  10
0.87292
  20
0.16300
  30
0.00000
  42
-0.0575
  70
32
  0
VERTEX
  5
8F5
  100
AcDbEntity
  8
Layer 1
  62
0
  100
AcDb2dVertex
  10
0.85300
  20
0.18200
  30
0.00000
  42
0.0429
  70
32
  0
VERTEX
  5
8F6
  100
AcDbEntity
  8
Layer 1
  62
0
  100
AcDb2dVertex
  10
0.83177
  20
0.20230
  30
0.00000
  42
0.1398
  70
32
  0
VERTEX
  5
8F7
  100
AcDbEntity
  8
Layer 1
  62
0
  100
AcDb2dVertex
  10
0.82600
  20
0.20500
  30
0.00000
  42
0.1419
  70
32
  0
VERTEX
  5
8F8
  100
AcDbEntity
  8
Layer 1
  62
0
  100
AcDb2dVertex
  10
0.81181
  20
0.19971
  30
0.00000
  42
0.0595
  70
32
  0
VERTEX
  5
8F9
  100
AcDbEntity
  8
Layer 1
  62
0
  100
AcDb2dVertex
  10
0.79400
  20
0.18400
  30
0.00000
  42
-0.0570
  70
32
  0
VERTEX
  5
8FA
  100
AcDbEntity
  8
Layer 1
  62
0
  100
AcDb2dVertex
  10
0.77363
  20
0.16416
  30
0.00000
  42
-0.1291
  70
32
  0
VERTEX
  5
8FB
  100
AcDbEntity
  8
Layer 1
  62
0
  100
AcDb2dVertex
  10
0.76900
  20
0.16200
  30
0.00000
  42
-0.1981
  70
32
  0
VERTEX
  5
8FC
  100
AcDbEntity
  8
Layer 1
  62
0
  100
AcDb2dVertex
  10
0.75629
  20
0.16809
  30
0.00000
  42
-0.0857
  70
32
  0
VERTEX
  5
8FD
  100
AcDbEntity
  8
Layer 1
  62
0
  100
AcDb2dVertex
  10
0.74236
  20
0.18924
  30
0.00000
  70
32
  0
VERTEX
  5
8FE
  100
AcDbEntity
  8
Layer 1
  62
0
  100
AcDb2dVertex
  10
0.74200
  20
0.19000
  30
0.00000
  42
0.0807
  70
32
  0
VERTEX
  5
8FF
  100
AcDbEntity
  8
Layer 1
  62
0
  100
AcDb2dVertex
  10
0.72789
  20
0.21213
  30
0.00000
  42
0.1924
  70
32
  0
VERTEX
  5
900
  100
AcDbEntity
  8
Layer 1
  62
0
  100
AcDb2dVertex
  10
0.71471
  20
0.21898
  30
0.00000
  70
32
  0
VERTEX
  5
901
  100
AcDbEntity
  8
Layer 1
  62
0
  100
AcDb2dVertex
  10
0.71400
  20
0.21900
  30
0.00000
  42
0.1666
  70
32
  0
VERTEX
  5
902
  100
AcDbEntity
  8
Layer 1
  62
0
  100
AcDb2dVertex
  10
0.70500
  20
0.21486
  30
0.00000
  42
0.0395
  70
32
  0
VERTEX
  5
903
  100
AcDbEntity
  8
Layer 1
  62
0
  100
AcDb2dVertex
  10
0.69400
  20
0.20400
  30
0.00000
  42
-0.0751
  70
32
  0
VERTEX
  5
904
  100
AcDbEntity
  8
Layer 1
  62
0
  100
AcDb2dVertex
  10
0.67803
  20
0.19115
  30
0.00000
  42
-0.1100
  70
32
  0
VERTEX
  5
905
  100
AcDbEntity
  8
Layer 1
  62
0
  100
AcDb2dVertex
  10
0.67400
  20
0.19000
  30
0.00000
  42
-0.1973
  70
32
  0
VERTEX
  5
906
  100
AcDbEntity
  8
Layer 1
  62
0
  100
AcDb2dVertex
  10
0.65996
  20
0.19662
  30
0.00000
  42
-0.0835
  70
32
  0
VERTEX
  5
907
  100
AcDbEntity
  8
Layer 1
  62
0
  100
AcDb2dVertex
  10
0.64800
  20
0.21400
  30
0.00000
  42
0.0881
  70
32
  0
VERTEX
  5
908
  100
AcDbEntity
  8
Layer 1
  62
0
  100
AcDb2dVertex
  10
0.63520
  20
0.23367
  30
0.00000
  42
0.1975
  70
32
  0
VERTEX
  5
909
  100
AcDbEntity
  8
Layer 1
  62
0
  100
AcDb2dVertex
  10
0.62400
  20
0.23900
  30
0.00000
  42
0.1662
  70
32
  0
VERTEX
  5
90A
  100
AcDbEntity
  8
Layer 1
  62
0
  100
AcDb2dVertex
  10
0.61267
  20
0.23404
  30
0.00000
  42
0.0504
  70
32
  0
VERTEX
  5
90B
  100
AcDbEntity
  8
Layer 1
  62
0
  100
AcDb2dVertex
  10
0.59900
  20
0.22000
  30
0.00000
  42
-0.0664
  70
32
  0
VERTEX
  5
90C
  100
AcDbEntity
  8
Layer 1
  62
0
  100
AcDb2dVertex
  10
0.58333
  20
0.20440
  30
0.00000
  42
-0.1451
  70
32
  0
VERTEX
  5
90D
  100
AcDbEntity
  8
Layer 1
  62
0
  100
AcDb2dVertex
  10
0.57700
  20
0.20200
  30
0.00000
  42
-0.1858
  70
32
  0
VERTEX
  5
90E
  100
AcDbEntity
  8
Layer 1
  62
0
  100
AcDb2dVertex
  10
0.55611
  20
0.21074
  30
0.00000
  42
-0.0659
  70
32
  0
VERTEX
  5
90F
  100
AcDbEntity
  8
Layer 1
  62
0
  100
AcDb2dVertex
  10
0.54400
  20
0.22500
  30
0.00000
  42
0.0966
  70
32
  0
VERTEX
  5
910
  100
AcDbEntity
  8
Layer 1
  62
0
  100
AcDb2dVertex
  10
0.52730
  20
0.24428
  30
0.00000
  42
0.1580
  70
32
  0
VERTEX
  5
911
  100
AcDbEntity
  8
Layer 1
  62
0
  100
AcDb2dVertex
  10
0.51400
  20
0.24900
  30
0.00000
  42
0.2929
  70
32
  0
VERTEX
  5
912
  100
AcDbEntity
  8
Layer 1
  62
0
  100
AcDb2dVertex
  10
0.49023
  20
0.23500
  30
0.00000
  42
0.0534
  70
32
  0
VERTEX
  5
913
  100
AcDbEntity
  8
Layer 1
  62
0
  100
AcDb2dVertex
  10
0.48600
  20
0.22500
  30
0.00000
  42
-0.0937
  70
32
  0
VERTEX
  5
914
  100
AcDbEntity
  8
Layer 1
  62
0
  100
AcDb2dVertex
  10
0.47662
  20
0.20631
  30
0.00000
  42
-0.2184
  70
32
  0
VERTEX
  5
915
  100
AcDbEntity
  8
Layer 1
  62
0
  100
AcDb2dVertex
  10
0.46900
  20
0.20200
  30
0.00000
  42
-0.0841
  70
32
  0
VERTEX
  5
916
  100
AcDbEntity
  8
Layer 1
  62
0
  100
AcDb2dVertex
  10
0.46136
  20
0.20571
  30
0.00000
  70
32
  0
VERTEX
  5
917
  100
AcDbEntity
  8
Layer 1
  62
0
  100
AcDb2dVertex
  10
0.44500
  20
0.21600
  30
0.00000
  42
0.0763
  70
32
  0
VERTEX
  5
918
  100
AcDbEntity
  8
Layer 1
  62
0
  100
AcDb2dVertex
  10
0.42386
  20
0.22865
  30
0.00000
  42
0.0836
  70
32
  0
VERTEX
  5
919
  100
AcDbEntity
  8
Layer 1
  62
0
  100
AcDb2dVertex
  10
0.41700
  20
0.23000
  30
0.00000
  42
0.2781
  70
32
  0
VERTEX
  5
91A
  100
AcDbEntity
  8
Layer 1
  62
0
  100
AcDb2dVertex
  10
0.40253
  20
0.22127
  30
0.00000
  42
0.0926
  70
32
  0
VERTEX
  5
91B
  100
AcDbEntity
  8
Layer 1
  62
0
  100
AcDb2dVertex
  10
0.39700
  20
0.20500
  30
0.00000
  42
-0.1079
  70
32
  0
VERTEX
  5
91C
  100
AcDbEntity
  8
Layer 1
  62
0
  100
AcDb2dVertex
  10
0.38986
  20
0.18577
  30
0.00000
  42
-0.2480
  70
32
  0
VERTEX
  5
91D
  100
AcDbEntity
  8
Layer 1
  62
0
  100
AcDb2dVertex
  10
0.38000
  20
0.18000
  30
0.00000
  42
-0.0919
  70
32
  0
VERTEX
  5
91E
  100
AcDbEntity
  8
Layer 1
  62
0
  100
AcDb2dVertex
  10
0.36773
  20
0.18382
  30
0.00000
  70
32
  0
VERTEX
  5
91F
  100
AcDbEntity
  8
Layer 1
  62
0
  100
AcDb2dVertex
  10
0.35900
  20
0.18800
  30
0.00000
  42
0.1104
  70
32
  0
VERTEX
  5
920
  100
AcDbEntity
  8
Layer 1
  62
0
  100
AcDb2dVertex
  10
0.33400
  20
0.19500
  30
0.00000
  42
0.1928
  70
32
  0
VERTEX
  5
921
  100
AcDbEntity
  8
Layer 1
  62
0
  100
AcDb2dVertex
  10
0.32018
  20
0.19053
  30
0.00000
  42
0.1289
  70
32
  0
VERTEX
  5
922
  100
AcDbEntity
  8
Layer 1
  62
0
  100
AcDb2dVertex
  10
0.31500
  20
0.18200
  30
0.00000
  42
-0.0790
  70
32
  0
VERTEX
  5
923
  100
AcDbEntity
  8
Layer 1
  62
0
  100
AcDb2dVertex
  10
0.30727
  20
0.15849
  30
0.00000
  42
-0.0876
  70
32
  0
VERTEX
  5
924
  100
AcDbEntity
  8
Layer 1
  62
0
  100
AcDb2dVertex
  10
0.30200
  20
0.15200
  30
0.00000
  42
0.0085
  70
32
  0
VERTEX
  5
925
  100
AcDbEntity
  8
Layer 1
  62
0
  100
AcDb2dVertex
  10
0.22200
  20
0.10700
  30
0.00000
  42
0.0364
  70
32
  0
VERTEX
  5
926
  100
AcDbEntity
  8
Layer 1
  62
0
  100
AcDb2dVertex
  10
0.19760
  20
0.08699
  30
0.00000
  42
0.0123
  70
32
  0
VERTEX
  5
927
  100
AcDbEntity
  8
Layer 1
  62
0
  100
AcDb2dVertex
  10
0.15900
  20
0.05000
  30
0.00000
  42
-0.0164
  70
32
  0
VERTEX
  5
928
  100
AcDbEntity
  8
Layer 1
  62
0
  100
AcDb2dVertex
  10
0.11210
  20
0.00749
  30
0.00000
  42
-0.0764
  70
32
  0
VERTEX
  5
929
  100
AcDbEntity
  8
Layer 1
  62
0
  100
AcDb2dVertex
  10
0.10107
  20
0.00019
  30
0.00000
  70
32
  0
VERTEX
  5
92A
  100
AcDbEntity
  8
Layer 1
  62
0
  100
AcDb2dVertex
  10
0.10000
  20
0.00000
  30
0.00000
  42
-0.3250
  70
32
  0
VERTEX
  5
92B
  100
AcDbEntity
  8
Layer 1
  62
0
  100
AcDb2dVertex
  10
0.08512
  20
0.01003
  30
0.00000
  42
-0.1013
  70
32
  0
VERTEX
  5
92C
  100
AcDbEntity
  8
Layer 1
  62
0
  100
AcDb2dVertex
  10
0.08200
  20
0.02900
  30
0.00000
  42
-0.0850
  70
32
  0
VERTEX
  5
92D
  100
AcDbEntity
  8
Layer 1
  62
0
  100
AcDb2dVertex
  10
0.08726
  20
0.05198
  30
0.00000
  42
-0.0407
  70
32
  0
VERTEX
  5
92E
  100
AcDbEntity
  8
Layer 1
  62
0
  100
AcDb2dVertex
  10
0.11172
  20
0.10110
  30
0.00000
  70
32
  0
VERTEX
  5
92F
  100
AcDbEntity
  8
Layer 1
  62
0
  100
AcDb2dVertex
  10
0.12000
  20
0.11500
  30
0.00000
  42
-0.0213
  70
32
  0
VERTEX
  5
930
  100
AcDbEntity
  8
Layer 1
  62
0
  100
AcDb2dVertex
  10
0.15666
  20
0.16736
  30
0.00000
  42
-0.0708
  70
32
  0
VERTEX
  5
931
  100
AcDbEntity
  8
Layer 1
  62
0
  100
AcDb2dVertex
  10
0.16888
  20
0.17992
  30
0.00000
  70
32
  0
VERTEX
  5
932
  100
AcDbEntity
  8
Layer 1
  62
0
  100
AcDb2dVertex
  10
0.16900
  20
0.18000
  30
0.00000
  42
-0.0977
  70
32
  0
VERTEX
  5
933
  100
AcDbEntity
  8
Layer 1
  62
0
  100
AcDb2dVertex
  10
0.20429
  20
0.19193
  30
0.00000
  70
32
  0
VERTEX
  5
934
  100
AcDbEntity
  8
Layer 1
  62
0
  100
AcDb2dVertex
  10
0.20500
  20
0.19200
  30
0.00000
  42
0.1918
  70
32
  0
VERTEX
  5
935
  100
AcDbEntity
  8
Layer 1
  62
0
  100
AcDb2dVertex
  10
0.21579
  20
0.19718
  30
0.00000
  42
0.0521
  70
32
  0
VERTEX
  5
936
  100
AcDbEntity
  8
Layer 1
  62
0
  100
AcDb2dVertex
  10
0.22400
  20
0.20700
  30
0.00000
  42
0.0713
  70
32
  0
VERTEX
  5
937
  100
AcDbEntity
  8
Layer 1
  62
0
  100
AcDb2dVertex
  10
0.22601
  20
0.21543
  30
0.00000
  42
0.0099
  70
32
  0
VERTEX
  5
938
  100
AcDbEntity
  8
Layer 1
  62
0
  100
AcDb2dVertex
  10
0.23000
  20
0.24400
  30
0.00000
  42
-0.1556
  70
32
  0
VERTEX
  5
939
  100
AcDbEntity
  8
Layer 1
  62
0
  100
AcDb2dVertex
  10
0.23833
  20
0.26108
  30
0.00000
  42
-0.1978
  70
32
  0
VERTEX
  5
93A
  100
AcDbEntity
  8
Layer 1
  62
0
  100
AcDb2dVertex
  10
0.25500
  20
0.26700
  30
0.00000
  42
-0.0604
  70
32
  0
VERTEX
  5
93B
  100
AcDbEntity
  8
Layer 1
  62
0
  100
AcDb2dVertex
  10
0.27000
  20
0.26400
  30
0.00000
  70
32
  0
VERTEX
  5
93C
  100
AcDbEntity
  8
Layer 1
  62
0
  100
AcDb2dVertex
  10
0.28051
  20
0.26248
  30
0.00000
  70
32
  0
VERTEX
  5
93D
  100
AcDbEntity
  8
Layer 1
  62
0
  100
AcDb2dVertex
  10
0.28400
  20
0.26200
  30
0.00000
  42
0.1448
  70
32
  0
VERTEX
  5
93E
  100
AcDbEntity
  8
Layer 1
  62
0
  100
AcDb2dVertex
  10
0.30195
  20
0.26631
  30
0.00000
  42
0.2165
  70
32
  0
VERTEX
  5
93F
  100
AcDbEntity
  8
Layer 1
  62
0
  100
AcDb2dVertex
  10
0.31135
  20
0.28191
  30
0.00000
  42
0.0434
  70
32
  0
VERTEX
  5
940
  100
AcDbEntity
  8
Layer 1
  62
0
  100
AcDb2dVertex
  10
0.31200
  20
0.29000
  30
0.00000
  70
32
  0
VERTEX
  5
941
  100
AcDbEntity
  8
Layer 1
  62
0
  100
AcDb2dVertex
  10
0.31200
  20
0.30000
  30
0.00000
  70
32
  0
VERTEX
  5
942
  100
AcDbEntity
  8
Layer 1
  62
0
  100
AcDb2dVertex
  10
0.31200
  20
0.31000
  30
0.00000
  42
-0.1663
  70
32
  0
VERTEX
  5
943
  100
AcDbEntity
  8
Layer 1
  62
0
  100
AcDb2dVertex
  10
0.31584
  20
0.32411
  30
0.00000
  42
-0.2402
  70
32
  0
VERTEX
  5
944
  100
AcDbEntity
  8
Layer 1
  62
0
  100
AcDb2dVertex
  10
0.32700
  20
0.32900
  30
0.00000
  70
32
  0
VERTEX
  5
945
  100
AcDbEntity
  8
Layer 1
  62
0
  100
AcDb2dVertex
  10
0.33243
  20
0.32717
  30
0.00000
  70
32
  0
VERTEX
  5
946
  100
AcDbEntity
  8
Layer 1
  62
0
  100
AcDb2dVertex
  10
0.34700
  20
0.32200
  30
0.00000
  42
0.0573
  70
32
  0
VERTEX
  5
947
  100
AcDbEntity
  8
Layer 1
  62
0
  100
AcDb2dVertex
  10
0.36854
  20
0.31503
  30
0.00000
  70
32
  0
VERTEX
  5
948
  100
AcDbEntity
  8
Layer 1
  62
0
  100
AcDb2dVertex
  10
0.36900
  20
0.31500
  30
0.00000
  42
0.3058
  70
32
  0
VERTEX
  5
949
  100
AcDbEntity
  8
Layer 1
  62
0
  100
AcDb2dVertex
  10
0.38997
  20
0.32813
  30
0.00000
  42
0.0936
  70
32
  0
VERTEX
  5
94A
  100
AcDbEntity
  8
Layer 1
  62
0
  100
AcDb2dVertex
  10
0.39500
  20
0.34800
  30
0.00000
  42
-0.1054
  70
32
  0
VERTEX
  5
94B
  100
AcDbEntity
  8
Layer 1
  62
0
  100
AcDb2dVertex
  10
0.39985
  20
0.37009
  30
0.00000
  42
-0.2576
  70
32
  0
VERTEX
  5
94C
  100
AcDbEntity
  8
Layer 1
  62
0
  100
AcDb2dVertex
  10
0.41262
  20
0.37985
  30
0.00000
  70
32
  0
VERTEX
  5
94D
  100
AcDbEntity
  8
Layer 1
  62
0
  100
AcDb2dVertex
  10
0.41500
  20
0.38000
  30
0.00000
  42
-0.2517
  70
32
  0
VERTEX
  5
94E
  100
AcDbEntity
  8
Layer 1
  62
0
  100
AcDb2dVertex
  10
0.43858
  20
0.36788
  30
0.00000
  42
-0.0463
  70
32
  0
VERTEX
  5
94F
  100
AcDbEntity
  8
Layer 1
  62
0
  100
AcDb2dVertex
  10
0.44400
  20
0.35900
  30
0.00000
  42
0.1310
  70
32
  0
VERTEX
  5
950
  100
AcDbEntity
  8
Layer 1
  62
0
  100
AcDb2dVertex
  10
0.45543
  20
0.34292
  30
0.00000
  42
0.1656
  70
32
  0
VERTEX
  5
951
  100
AcDbEntity
  8
Layer 1
  62
0
  100
AcDb2dVertex
  10
0.46700
  20
0.33900
  30
0.00000
  42
0.2198
  70
32
  0
VERTEX
  5
952
  100
AcDbEntity
  8
Layer 1
  62
0
  100
AcDb2dVertex
  10
0.47652
  20
0.34417
  30
0.00000
  42
0.0783
  70
32
  0
VERTEX
  5
953
  100
AcDbEntity
  8
Layer 1
  62
0
  100
AcDb2dVertex
  10
0.48736
  20
0.36339
  30
0.00000
  70
32
  0
VERTEX
  5
954
  100
AcDbEntity
  8
Layer 1
  62
0
  100
AcDb2dVertex
  10
0.49000
  20
0.37000
  30
0.00000
  42
-0.0882
  70
32
  0
VERTEX
  5
955
  100
AcDbEntity
  8
Layer 1
  62
0
  100
AcDb2dVertex
  10
0.50174
  20
0.39356
  30
0.00000
  42
-0.1968
  70
32
  0
VERTEX
  5
956
  100
AcDbEntity
  8
Layer 1
  62
0
  100
AcDb2dVertex
  10
0.51502
  20
0.40188
  30
0.00000
  70
32
  0
VERTEX
  5
957
  100
AcDbEntity
  8
Layer 1
  62
0
  100
AcDb2dVertex
  10
0.51700
  20
0.40200
  30
0.00000
  42
-0.2478
  70
32
  0
VERTEX
  5
958
  100
AcDbEntity
  8
Layer 1
  62
0
  100
AcDb2dVertex
  10
0.53712
  20
0.39111
  30
0.00000
  42
-0.0912
  70
32
  0
VERTEX
  5
959
  100
AcDbEntity
  8
Layer 1
  62
0
  100
AcDb2dVertex
  10
0.54500
  20
0.37400
  30
0.00000
  42
0.1016
  70
32
  0
VERTEX
  5
95A
  100
AcDbEntity
  8
Layer 1
  62
0
  100
AcDb2dVertex
  10
0.55452
  20
0.35266
  30
0.00000
  42
0.2387
  70
32
  0
VERTEX
  5
95B
  100
AcDbEntity
  8
Layer 1
  62
0
  100
AcDb2dVertex
  10
0.56900
  20
0.34500
  30
0.00000
  42
0.2221
  70
32
  0
VERTEX
  5
95C
  100
AcDbEntity
  8
Layer 1
  62
0
  100
AcDb2dVertex
  10
0.58310
  20
0.35219
  30
0.00000
  42
0.0941
  70
32
  0
VERTEX
  5
95D
  100
AcDbEntity
  8
Layer 1
  62
0
  100
AcDb2dVertex
  10
0.59460
  20
0.37381
  30
0.00000
  70
32
  0
VERTEX
  5
95E
  100
AcDbEntity
  8
Layer 1
  62
0
  100
AcDb2dVertex
  10
0.59600
  20
0.37800
  30
0.00000
  42
-0.0703
  70
32
  0
VERTEX
  5
95F
  100
AcDbEntity
  8
Layer 1
  62
0
  100
AcDb2dVertex
  10
0.60852
  20
0.40255
  30
0.00000
  42
-0.1692
  70
32
  0
VERTEX
  5
960
  100
AcDbEntity
  8
Layer 1
  62
0
  100
AcDb2dVertex
  10
0.61796
  20
0.40976
  30
0.00000
  70
32
  0
VERTEX
  5
961
  100
AcDbEntity
  8
Layer 1
  62
0
  100
AcDb2dVertex
  10
0.62000
  20
0.41000
  30
0.00000
  42
-0.2438
  70
32
  0
VERTEX
  5
962
  100
AcDbEntity
  8
Layer 1
  62
0
  100
AcDb2dVertex
  10
0.63628
  20
0.40138
  30
0.00000
  42
-0.0876
  70
32
  0
VERTEX
  5
963
  100
AcDbEntity
  8
Layer 1
  62
0
  100
AcDb2dVertex
  10
0.64600
  20
0.38100
  30
0.00000
  42
0.0875
  70
32
  0
VERTEX
  5
964
  100
AcDbEntity
  8
Layer 1
  62
0
  100
AcDb2dVertex
  10
0.65540
  20
0.35844
  30
0.00000
  42
0.1952
  70
32
  0
VERTEX
  5
965
  100
AcDbEntity
  8
Layer 1
  62
0
  100
AcDb2dVertex
  10
0.66376
  20
0.35211
  30
0.00000
  70
32
  0
VERTEX
  5
966
  100
AcDbEntity
  8
Layer 1
  62
0
  100
AcDb2dVertex
  10
0.66500
  20
0.35200
  30
0.00000
  42
0.2340
  70
32
  0
VERTEX
  5
967
  100
AcDbEntity
  8
Layer 1
  62
0
  100
AcDb2dVertex
  10
0.68745
  20
0.36301
  30
0.00000
  42
0.0702
  70
32
  0
VERTEX
  5
968
  100
AcDbEntity
  8
Layer 1
  62
0
  100
AcDb2dVertex
  10
0.69700
  20
0.37900
  30
0.00000
  42
-0.0694
  70
32
  0
VERTEX
  5
969
  100
AcDbEntity
  8
Layer 1
  62
0
  100
AcDb2dVertex
  10
0.70901
  20
0.40091
  30
0.00000
  42
-0.1847
  70
32
  0
VERTEX
  5
96A
  100
AcDbEntity
  8
Layer 1
  62
0
  100
AcDb2dVertex
  10
0.71782
  20
0.40691
  30
0.00000
  70
32
  0
VERTEX
  5
96B
  100
AcDbEntity
  8
Layer 1
  62
0
  100
AcDb2dVertex
  10
0.71900
  20
0.40700
  30
0.00000
  42
-0.2651
  70
32
  0
VERTEX
  5
96C
  100
AcDbEntity
  8
Layer 1
  62
0
  100
AcDb2dVertex
  10
0.73160
  20
0.39948
  30
0.00000
  42
-0.1072
  70
32
  0
VERTEX
  5
96D
  100
AcDbEntity
  8
Layer 1
  62
0
  100
AcDb2dVertex
  10
0.73831
  20
0.37890
  30
0.00000
  70
32
  0
VERTEX
  5
96E
  100
AcDbEntity
  8
Layer 1
  62
0
  100
AcDb2dVertex
  10
0.73900
  20
0.37300
  30
0.00000
  42
0.0907
  70
32
  0
VERTEX
  5
96F
  100
AcDbEntity
  8
Layer 1
  62
0
  100
AcDb2dVertex
  10
0.74452
  20
0.34940
  30
0.00000
  42
0.2089
  70
32
  0
VERTEX
  5
970
  100
AcDbEntity
  8
Layer 1
  62
0
  100
AcDb2dVertex
  10
0.75461
  20
0.33965
  30
0.00000
  42
0.0768
  70
32
  0
VERTEX
  5
971
  100
AcDbEntity
  8
Layer 1
  62
0
  100
AcDb2dVertex
  10
0.75900
  20
0.33900
  30
0.00000
  42
0.2240
  70
32
  0
VERTEX
  5
972
  100
AcDbEntity
  8
Layer 1
  62
0
  100
AcDb2dVertex
  10
0.77395
  20
0.34657
  30
0.00000
  42
0.0946
  70
32
  0
VERTEX
  5
973
  100
AcDbEntity
  8
Layer 1
  62
0
  100
AcDb2dVertex
  10
0.78544
  20
0.36836
  30
0.00000
  70
32
  0
VERTEX
  5
974
  100
AcDbEntity
  8
Layer 1
  62
0
  100
AcDb2dVertex
  10
0.78600
  20
0.37000
  30
0.00000
  42
-0.1063
  70
32
  0
VERTEX
  5
975
  100
AcDbEntity
  8
Layer 1
  62
0
  100
AcDb2dVertex
  10
0.79747
  20
0.39356
  30
0.00000
  42
-0.2256
  70
32
  0
VERTEX
  5
976
  100
AcDbEntity
  8
Layer 1
  62
0
  100
AcDb2dVertex
  10
0.81400
  20
0.40200
  30
0.00000
  42
-0.2493
  70
32
  0
VERTEX
  5
977
  100
AcDbEntity
  8
Layer 1
  62
0
  100
AcDb2dVertex
  10
0.82819
  20
0.39419
  30
0.00000
  42
-0.0950
  70
32
  0
VERTEX
  5
978
  100
AcDbEntity
  8
Layer 1
  62
0
  100
AcDb2dVertex
  10
0.83717
  20
0.37307
  30
0.00000
  70
32
  0
VERTEX
  5
979
  100
AcDbEntity
  8
Layer 1
  62
0
  100
AcDb2dVertex
  10
0.83900
  20
0.36500
  30
0.00000
  42
0.1401
  70
32
  0
VERTEX
  5
97A
  100
AcDbEntity
  8
Layer 1
  62
0
  100
AcDb2dVertex
  10
0.84932
  20
0.34095
  30
0.00000
  42
0.2009
  70
32
  0
VERTEX
  5
97B
  100
AcDbEntity
  8
Layer 1
  62
0
  100
AcDb2dVertex
  10
0.87444
  20
0.32918
  30
0.00000
  70
32
  0
VERTEX
  5
97C
  100
AcDbEntity
  8
Layer 1
  62
0
  100
AcDb2dVertex
  10
0.87900
  20
0.32900
  30
0.00000
  42
0.0199
  70
32
  0
VERTEX
  5
97D
  100
AcDbEntity
  8
Layer 1
  62
0
  100
AcDb2dVertex
  10
0.96248
  20
0.33378
  30
0.00000
  42
0.0092
  70
32
  0
VERTEX
  5
97E
  100
AcDbEntity
  8
Layer 1
  62
0
  100
AcDb2dVertex
  10
1.12900
  20
0.35200
  30
0.00000
  42
0.2976
  70
32
  0
VERTEX
  5
97F
  100
AcDbEntity
  8
Layer 1
  62
0
  100
AcDb2dVertex
  10
1.14504
  20
0.36619
  30
0.00000
  42
0.0803
  70
32
  0
VERTEX
  5
980
  100
AcDbEntity
  8
Layer 1
  62
0
  100
AcDb2dVertex
  10
1.14700
  20
0.38000
  30
0.00000
  42
0.1062
  70
32
  0
VERTEX
  5
981
  100
AcDbEntity
  8
Layer 1
  62
0
  100
AcDb2dVertex
  10
1.14391
  20
0.39875
  30
0.00000
  42
0.3190
  70
32
  0
VERTEX
  5
982
  100
AcDbEntity
  8
Layer 1
  62
0
  100
AcDb2dVertex
  10
1.13100
  20
0.40700
  30
0.00000
  70
32
  0
VERTEX
  5
983
  100
AcDbEntity
  8
Layer 1
  62
0
  100
AcDb2dVertex
  10
1.12409
  20
0.40631
  30
0.00000
  70
32
  0
VERTEX
  5
984
  100
AcDbEntity
  8
Layer 1
  62
0
  100
AcDb2dVertex
  10
1.11300
  20
0.40500
  30
0.00000
  42
-0.0272
  70
32
  0
VERTEX
  5
985
  100
AcDbEntity
  8
Layer 1
  62
0
  100
AcDb2dVertex
  10
1.09700
  20
0.40400
  30
0.00000
  42
-0.0660
  70
32
  0
VERTEX
  5
986
  100
AcDbEntity
  8
Layer 1
  62
0
  100
AcDb2dVertex
  10
1.01399
  20
0.41394
  30
0.00000
  42
-0.1034
  70
32
  0
VERTEX
  5
987
  100
AcDbEntity
  8
Layer 1
  62
0
  100
AcDb2dVertex
  10
0.94430
  20
0.44815
  30
0.00000
  42
-0.0313
  70
32
  0
VERTEX
  5
988
  100
AcDbEntity
  8
Layer 1
  62
0
  100
AcDb2dVertex
  10
0.92900
  20
0.46200
  30
0.00000
  42
-0.0556
  70
32
  0
VERTEX
  5
989
  100
AcDbEntity
  8
Layer 1
  62
0
  100
AcDb2dVertex
  10
0.90703
  20
0.48803
  30
0.00000
  42
-0.1348
  70
32
  0
VERTEX
  5
98A
  100
AcDbEntity
  8
Layer 1
  62
0
  100
AcDb2dVertex
  10
0.90200
  20
0.50200
  30
0.00000
  42
-0.2004
  70
32
  0
VERTEX
  5
98B
  100
AcDbEntity
  8
Layer 1
  62
0
  100
AcDb2dVertex
  10
0.90750
  20
0.51776
  30
0.00000
  42
-0.1857
  70
32
  0
VERTEX
  5
98C
  100
AcDbEntity
  8
Layer 1
  62
0
  100
AcDb2dVertex
  10
0.92293
  20
0.52390
  30
0.00000
  70
32
  0
VERTEX
  5
98D
  100
AcDbEntity
  8
Layer 1
  62
0
  100
AcDb2dVertex
  10
0.92600
  20
0.52400
  30
0.00000
  70
32
  0
VERTEX
  5
98E
  100
AcDbEntity
  8
Layer 1
  62
0
  100
AcDb2dVertex
  10
0.96600
  20
0.49400
  30
0.00000
  42
0.0875
  70
32
  0
VERTEX
  5
98F
  100
AcDbEntity
  8
Layer 1
  62
0
  100
AcDb2dVertex
  10
1.01701
  20
0.46844
  30
0.00000
  42
0.0687
  70
32
  0
VERTEX
  5
990
  100
AcDbEntity
  8
Layer 1
  62
0
  100
AcDb2dVertex
  10
1.04900
  20
0.46400
  30
0.00000
  42
0.1502
  70
32
  0
VERTEX
  5
991
  100
AcDbEntity
  8
Layer 1
  62
0
  100
AcDb2dVertex
  10
1.14553
  20
0.49421
  30
0.00000
  70
32
  0
VERTEX
  5
992
  100
AcDbEntity
  8
Layer 1
  62
0
  100
AcDb2dVertex
  10
1.15100
  20
0.49800
  30
0.00000
  70
32
  0
VERTEX
  5
993
  100
AcDbEntity
  8
Layer 1
  62
0
  100
AcDb2dVertex
  10
1.16595
  20
0.50841
  30
0.00000
  70
32
  0
VERTEX
  5
994
  100
AcDbEntity
  8
Layer 1
  62
0
  100
AcDb2dVertex
  10
1.19136
  20
0.52618
  30
0.00000
  70
32
  0
VERTEX
  5
995
  100
AcDbEntity
  8
Layer 1
  62
0
  100
AcDb2dVertex
  10
1.19740
  20
0.53055
  30
0.00000
  42
0.1524
  70
32
  0
VERTEX
  5
996
  100
AcDbEntity
  8
Layer 1
  62
0
  100
AcDb2dVertex
  10
1.19900
  20
0.53200
  30
0.00000
  70
32
  0
VERTEX
  5
997
  100
AcDbEntity
  8
Layer 1
  62
0
  100
AcDb2dVertex
  10
1.29400
  20
0.45200
  30
0.00000
  70
32
  0
VERTEX
  5
998
  100
AcDbEntity
  8
Layer 1
  62
0
  100
AcDb2dVertex
  10
1.19900
  20
0.53200
  30
0.00000
  42
0.0100
  70
32
  0
VERTEX
  5
999
  100
AcDbEntity
  8
Layer 1
  62
0
  100
AcDb2dVertex
  10
1.27600
  20
0.60700
  30
0.00000
  42
0.0775
  70
32
  0
VERTEX
  5
99A
  100
AcDbEntity
  8
Layer 1
  62
0
  100
AcDb2dVertex
  10
1.30560
  20
0.64583
  30
0.00000
  42
0.1186
  70
32
  0
VERTEX
  5
99B
  100
AcDbEntity
  8
Layer 1
  62
0
  100
AcDb2dVertex
  10
1.31400
  20
0.67700
  30
0.00000
  42
0.1134
  70
32
  0
VERTEX
  5
99C
  100
AcDbEntity
  8
Layer 1
  62
0
  100
AcDb2dVertex
  10
1.30400
  20
0.72400
  30
0.00000
  42
0.0210
  70
32
  0
VERTEX
  5
99D
  100
AcDbEntity
  8
Layer 1
  62
0
  100
AcDb2dVertex
  10
1.28925
  20
0.75101
  30
0.00000
  70
32
  0
VERTEX
  5
99E
  100
AcDbEntity
  8
Layer 1
  62
0
  100
AcDb2dVertex
  10
1.27900
  20
0.76900
  30
0.00000
  42
-0.0958
  70
32
  0
VERTEX
  5
99F
  100
AcDbEntity
  8
Layer 1
  62
0
  100
AcDb2dVertex
  10
1.26664
  20
0.79737
  30
0.00000
  42
-0.0450
  70
32
  0
VERTEX
  5
9A0
  100
AcDbEntity
  8
Layer 1
  62
0
  100
AcDb2dVertex
  10
1.26600
  20
0.80400
  30
0.00000
  42
-0.1923
  70
32
  0
VERTEX
  5
9A1
  100
AcDbEntity
  8
Layer 1
  62
0
  100
AcDb2dVertex
  10
1.27466
  20
0.82400
  30
0.00000
  42
-0.0900
  70
32
  0
VERTEX
  5
9A2
  100
AcDbEntity
  8
Layer 1
  62
0
  100
AcDb2dVertex
  10
1.29932
  20
0.84130
  30
0.00000
  42
-0.0247
  70
32
  0
VERTEX
  5
9A3
  100
AcDbEntity
  8
Layer 1
  62
0
  100
AcDb2dVertex
  10
1.31700
  20
0.84900
  30
0.00000
  42
-0.0623
  70
32
  0
VERTEX
  5
9A4
  100
AcDbEntity
  8
Layer 1
  62
0
  100
AcDb2dVertex
  10
1.36867
  20
0.86391
  30
0.00000
  42
-0.0338
  70
32
  0
VERTEX
  5
9A5
  100
AcDbEntity
  8
Layer 1
  62
0
  100
AcDb2dVertex
  10
1.38400
  20
0.86500
  30
0.00000
  42
-0.0881
  70
32
  0
VERTEX
  5
9A6
  100
AcDbEntity
  8
Layer 1
  62
0
  100
AcDb2dVertex
  10
1.41175
  20
0.86103
  30
0.00000
  42
-0.1956
  70
32
  0
VERTEX
  5
9A7
  100
AcDbEntity
  8
Layer 1
  62
0
  100
AcDb2dVertex
  10
1.42650
  20
0.84879
  30
0.00000
  42
-0.1160
  70
32
  0
VERTEX
  5
9A8
  100
AcDbEntity
  8
Layer 1
  62
0
  100
AcDb2dVertex
  10
1.42900
  20
0.83700
  30
0.00000
  42
-0.1563
  70
32
  0
VERTEX
  5
9A9
  100
AcDbEntity
  8
Layer 1
  62
0
  100
AcDb2dVertex
  10
1.42334
  20
0.82243
  30
0.00000
  42
-0.0514
  70
32
  0
VERTEX
  5
9AA
  100
AcDbEntity
  8
Layer 1
  62
0
  100
AcDb2dVertex
  10
1.41100
  20
0.80900
  30
0.00000
  42
0.0274
  70
32
  0
VERTEX
  5
9AB
  100
AcDbEntity
  8
Layer 1
  62
0
  100
AcDb2dVertex
  10
1.37700
  20
0.77400
  30
0.00000
  42
0.0933
  70
32
  0
VERTEX
  5
9AC
  100
AcDbEntity
  8
Layer 1
  62
0
  100
AcDb2dVertex
  10
1.36532
  20
0.74103
  30
0.00000
  42
0.0451
  70
32
  0
VERTEX
  5
9AD
  100
AcDbEntity
  8
Layer 1
  62
0
  100
AcDb2dVertex
  10
1.36200
  20
0.69900
  30
0.00000
  42
0.0974
  70
32
  0
VERTEX
  5
9AE
  100
AcDbEntity
  8
Layer 1
  62
0
  100
AcDb2dVertex
  10
1.37600
  20
0.62500
  30
0.00000
  42
0.1100
  70
32
  0
VERTEX
  5
9AF
  100
AcDbEntity
  8
Layer 1
  62
0
  100
AcDb2dVertex
  10
1.39521
  20
0.59661
  30
0.00000
  42
0.1902
  70
32
  0
VERTEX
  5
9B0
  100
AcDbEntity
  8
Layer 1
  62
0
  100
AcDb2dVertex
  10
1.42900
  20
0.58400
  30
0.00000
  42
0.2061
  70
32
  0
VERTEX
  5
9B1
  100
AcDbEntity
  8
Layer 1
  62
0
  100
AcDb2dVertex
  10
1.45315
  20
0.59475
  30
0.00000
  42
0.0937
  70
32
  0
VERTEX
  5
9B2
  100
AcDbEntity
  8
Layer 1
  62
0
  100
AcDb2dVertex
  10
1.46979
  20
0.62110
  30
0.00000
  70
32
  0
VERTEX
  5
9B3
  100
AcDbEntity
  8
Layer 1
  62
0
  100
AcDb2dVertex
  10
1.47100
  20
0.62400
  30
0.00000
  42
0.0694
  70
32
  0
VERTEX
  5
9B4
  100
AcDbEntity
  8
Layer 1
  62
0
  100
AcDb2dVertex
  10
1.48340
  20
0.66581
  30
0.00000
  42
0.0305
  70
32
  0
VERTEX
  5
9B5
  100
AcDbEntity
  8
Layer 1
  62
0
  100
AcDb2dVertex
  10
1.48400
  20
0.67500
  30
0.00000
  42
0.0544
  70
32
  0
VERTEX
  5
9B6
  100
AcDbEntity
  8
Layer 1
  62
0
  100
AcDb2dVertex
  10
1.48207
  20
0.70056
  30
0.00000
  70
32
  0
VERTEX
  5
9B7
  100
AcDbEntity
  8
Layer 1
  62
0
  100
AcDb2dVertex
  10
1.48100
  20
0.70400
  30
0.00000
  70
32
  0
VERTEX
  5
9B8
  100
AcDbEntity
  8
Layer 1
  62
0
  100
AcDb2dVertex
  10
1.47305
  20
0.72409
  30
0.00000
  70
32
  0
VERTEX
  5
9B9
  100
AcDbEntity
  8
Layer 1
  62
0
  100
AcDb2dVertex
  10
1.47150
  20
0.72810
  30
0.00000
  70
32
  0
VERTEX
  5
9BA
  100
AcDbEntity
  8
Layer 1
  62
0
  100
AcDb2dVertex
  10
1.47100
  20
0.72900
  30
0.00000
  42
-0.2504
  70
32
  0
VERTEX
  5
9BB
  100
AcDbEntity
  8
Layer 1
  62
0
  100
AcDb2dVertex
  10
1.47837
  20
0.74226
  30
0.00000
  42
-0.0930
  70
32
  0
VERTEX
  5
9BC
  100
AcDbEntity
  8
Layer 1
  62
0
  100
AcDb2dVertex
  10
1.49900
  20
0.75100
  30
0.00000
  42
0.1162
  70
32
  0
VERTEX
  5
9BD
  100
AcDbEntity
  8
Layer 1
  62
0
  100
AcDb2dVertex
  10
1.51952
  20
0.76082
  30
0.00000
  42
0.2237
  70
32
  0
VERTEX
  5
9BE
  100
AcDbEntity
  8
Layer 1
  62
0
  100
AcDb2dVertex
  10
1.52700
  20
0.77700
  30
0.00000
  42
0.1274
  70
32
  0
VERTEX
  5
9BF
  100
AcDbEntity
  8
Layer 1
  62
0
  100
AcDb2dVertex
  10
1.52082
  20
0.79849
  30
0.00000
  70
32
  0
VERTEX
  5
9C0
  100
AcDbEntity
  8
Layer 1
  62
0
  100
AcDb2dVertex
  10
1.52000
  20
0.80000
  30
0.00000
  42
-0.1279
  70
32
  0
VERTEX
  5
9C1
  100
AcDbEntity
  8
Layer 1
  62
0
  100
AcDb2dVertex
  10
1.51200
  20
0.82700
  30
0.00000
  42
-0.0984
  70
32
  0
VERTEX
  5
9C2
  100
AcDbEntity
  8
Layer 1
  62
0
  100
AcDb2dVertex
  10
1.53233
  20
0.83557
  30
0.00000
  42
-0.0178
  70
32
  0
VERTEX
  5
9C3
  100
AcDbEntity
  8
Layer 1
  62
0
  100
AcDb2dVertex
  10
1.54900
  20
0.83900
  30
0.00000
  42
0.2359
  70
32
  0
VERTEX
  5
9C4
  100
AcDbEntity
  8
Layer 1
  62
0
  100
AcDb2dVertex
  10
1.56115
  20
0.84547
  30
0.00000
  42
0.1461
  70
32
  0
VERTEX
  5
9C5
  100
AcDbEntity
  8
Layer 1
  62
0
  100
AcDb2dVertex
  10
1.56400
  20
0.85700
  30
0.00000
  42
0.0232
  70
32
  0
VERTEX
  5
9C6
  100
AcDbEntity
  8
Layer 1
  62
0
  100
AcDb2dVertex
  10
1.55800
  20
0.87800
  30
0.00000
  42
-0.0232
  70
32
  0
VERTEX
  5
9C7
  100
AcDbEntity
  8
Layer 1
  62
0
  100
AcDb2dVertex
  10
1.55200
  20
0.89900
  30
0.00000
  42
-0.0955
  70
32
  0
VERTEX
  5
9C8
  100
AcDbEntity
  8
Layer 1
  62
0
  100
AcDb2dVertex
  10
1.55400
  20
0.91200
  30
0.00000
  42
-0.1311
  70
32
  0
VERTEX
  5
9C9
  100
AcDbEntity
  8
Layer 1
  62
0
  100
AcDb2dVertex
  10
1.55981
  20
0.91578
  30
0.00000
  42
-0.0423
  70
32
  0
VERTEX
  5
9CA
  100
AcDbEntity
  8
Layer 1
  62
0
  100
AcDb2dVertex
  10
1.57900
  20
0.92200
  30
0.00000
  42
0.1899
  70
32
  0
VERTEX
  5
9CB
  100
AcDbEntity
  8
Layer 1
  62
0
  100
AcDb2dVertex
  10
1.59417
  20
0.93339
  30
0.00000
  42
0.1301
  70
32
  0
VERTEX
  5
9CC
  100
AcDbEntity
  8
Layer 1
  62
0
  100
AcDb2dVertex
  10
1.59700
  20
0.94500
  30
0.00000
  42
0.0927
  70
32
  0
VERTEX
  5
9CD
  100
AcDbEntity
  8
Layer 1
  62
0
  100
AcDb2dVertex
  10
1.59291
  20
0.95950
  30
0.00000
  70
32
  0
VERTEX
  5
9CE
  100
AcDbEntity
  8
Layer 1
  62
0
  100
AcDb2dVertex
  10
1.58800
  20
0.97000
  30
0.00000
  42
-0.1053
  70
32
  0
VERTEX
  5
9CF
  100
AcDbEntity
  8
Layer 1
  62
0
  100
AcDb2dVertex
  10
1.58079
  20
0.99113
  30
0.00000
  42
-0.0627
  70
32
  0
VERTEX
  5
9D0
  100
AcDbEntity
  8
Layer 1
  62
0
  100
AcDb2dVertex
  10
1.58100
  20
0.99500
  30
0.00000
  42
0.0188
  70
32
  0
VERTEX
  5
9D1
  100
AcDbEntity
  8
Layer 1
  62
0
  100
AcDb2dVertex
  10
1.60700
  20
1.01400
  30
0.00000
  42
0.0975
  70
32
  0
VERTEX
  5
9D2
  100
AcDbEntity
  8
Layer 1
  62
0
  100
AcDb2dVertex
  10
1.62393
  20
1.03060
  30
0.00000
  42
0.1381
  70
32
  0
VERTEX
  5
9D3
  100
AcDbEntity
  8
Layer 1
  62
0
  100
AcDb2dVertex
  10
1.62700
  20
1.04000
  30
0.00000
  70
32
  0
VERTEX
  5
9D4
  100
AcDbEntity
  8
Layer 1
  62
0
  100
AcDb2dVertex
  10
1.62700
  20
1.04500
  30
0.00000
  42
0.0233
  70
32
  0
VERTEX
  5
9D5
  100
AcDbEntity
  8
Layer 1
  62
0
  100
AcDb2dVertex
  10
1.60482
  20
1.07831
  30
0.00000
  70
32
  0
VERTEX
  5
9D6
  100
AcDbEntity
  8
Layer 1
  62
0
  100
AcDb2dVertex
  10
1.60421
  20
1.07897
  30
0.00000
  70
32
  0
VERTEX
  5
9D7
  100
AcDbEntity
  8
Layer 1
  62
0
  100
AcDb2dVertex
  10
1.60400
  20
1.07900
  30
0.00000
  42
-0.1838
  70
32
  0
VERTEX
  5
9D8
  100
AcDbEntity
  8
Layer 1
  62
0
  100
AcDb2dVertex
  10
1.60855
  20
1.08790
  30
0.00000
  42
-0.0796
  70
32
  0
VERTEX
  5
9D9
  100
AcDbEntity
  8
Layer 1
  62
0
  100
AcDb2dVertex
  10
1.62700
  20
1.10100
  30
0.00000
  70
32
  0
VERTEX
  5
9DA
  100
AcDbEntity
  8
Layer 1
  62
0
  100
AcDb2dVertex
  10
1.62889
  20
1.10206
  30
0.00000
  70
32
  0
VERTEX
  5
9DB
  100
AcDbEntity
  8
Layer 1
  62
0
  100
AcDb2dVertex
  10
1.64614
  20
1.11194
  30
0.00000
  70
32
  0
VERTEX
  5
9DC
  100
AcDbEntity
  8
Layer 1
  62
0
  100
AcDb2dVertex
  10
1.65091
  20
1.11503
  30
0.00000
  42
0.1000
  70
32
  0
VERTEX
  5
9DD
  100
AcDbEntity
  8
Layer 1
  62
0
  100
AcDb2dVertex
  10
1.65300
  20
1.11700
  30
0.00000
  42
0.1564
  70
32
  0
VERTEX
  5
9DE
  100
AcDbEntity
  8
Layer 1
  62
0
  100
AcDb2dVertex
  10
1.65583
  20
1.12594
  30
0.00000
  70
32
  0
VERTEX
  5
9DF
  100
AcDbEntity
  8
Layer 1
  62
0
  100
AcDb2dVertex
  10
1.65600
  20
1.13000
  30
0.00000
  42
-0.0171
  70
32
  0
VERTEX
  5
9E0
  100
AcDbEntity
  8
Layer 1
  62
0
  100
AcDb2dVertex
  10
1.64800
  20
1.14500
  30
0.00000
  42
-0.0916
  70
32
  0
VERTEX
  5
9E1
  100
AcDbEntity
  8
Layer 1
  62
0
  100
AcDb2dVertex
  10
1.64103
  20
1.16618
  30
0.00000
  70
32
  0
VERTEX
  5
9E2
  100
AcDbEntity
  8
Layer 1
  62
0
  100
AcDb2dVertex
  10
1.64100
  20
1.16700
  30
0.00000
  70
32
  0
VERTEX
  5
9E3
  100
AcDbEntity
  8
Layer 1
  62
0
  100
AcDb2dVertex
  10
1.64100
  20
1.25900
  30
0.00000
  42
0.2034
  70
32
  0
VERTEX
  5
9E4
  100
AcDbEntity
  8
Layer 1
  62
0
  100
AcDb2dVertex
  10
1.59554
  20
1.32892
  30
0.00000
  42
0.0208
  70
32
  0
VERTEX
  5
9E5
  100
AcDbEntity
  8
Layer 1
  62
0
  100
AcDb2dVertex
  10
1.58600
  20
1.33500
  30
0.00000
  42
-0.1073
  70
32
  0
VERTEX
  5
9E6
  100
AcDbEntity
  8
Layer 1
  62
0
  100
AcDb2dVertex
  10
1.55230
  20
1.36582
  30
0.00000
  42
-0.1530
  70
32
  0
VERTEX
  5
9E7
  100
AcDbEntity
  8
Layer 1
  62
0
  100
AcDb2dVertex
  10
1.53900
  20
1.41000
  30
0.00000
  42
-0.0740
  70
32
  0
VERTEX
  5
9E8
  100
AcDbEntity
  8
Layer 1
  62
0
  100
AcDb2dVertex
  10
1.54325
  20
1.42869
  30
0.00000
  42
-0.0285
  70
32
  0
VERTEX
  5
9E9
  100
AcDbEntity
  8
Layer 1
  62
0
  100
AcDb2dVertex
  10
1.56692
  20
1.48353
  30
0.00000
  70
32
  0
VERTEX
  5
9EA
  100
AcDbEntity
  8
Layer 1
  62
0
  100
AcDb2dVertex
  10
1.57600
  20
1.50200
  30
0.00000
  70
32
  0
VERTEX
  5
9EB
  100
AcDbEntity
  8
Layer 1
  62
0
  100
AcDb2dVertex
  10
1.68100
  20
1.42500
  30
0.00000
  70
32
  0
VERTEX
  5
9EC
  100
AcDbEntity
  8
Layer 1
  62
0
  100
AcDb2dVertex
  10
1.57600
  20
1.50200
  30
0.00000
  42
-0.0577
  70
32
  0
VERTEX
  5
9ED
  100
AcDbEntity
  8
Layer 1
  62
0
  100
AcDb2dVertex
  10
1.61031
  20
1.54773
  30
0.00000
  42
-0.0109
  70
32
  0
VERTEX
  5
9EE
  100
AcDbEntity
  8
Layer 1
  62
0
  100
AcDb2dVertex
  10
1.62400
  20
1.56200
  30
0.00000
  42
0.0267
  70
32
  0
VERTEX
  5
9EF
  100
AcDbEntity
  8
Layer 1
  62
0
  100
AcDb2dVertex
  10
1.66400
  20
1.56900
  30
0.00000
  42
0.1557
  70
32
  0
VERTEX
  5
9F0
  100
AcDbEntity
  8
Layer 1
  62
0
  100
AcDb2dVertex
  10
1.67998
  20
1.58123
  30
0.00000
  42
0.0775
  70
32
  0
VERTEX
  5
9F1
  100
AcDbEntity
  8
Layer 1
  62
0
  100
AcDb2dVertex
  10
1.69499
  20
1.61103
  30
0.00000
  70
32
  0
VERTEX
  5
9F2
  100
AcDbEntity
  8
Layer 1
  62
0
  100
AcDb2dVertex
  10
1.69700
  20
1.61700
  30
0.00000
  42
-0.0781
  70
32
  0
VERTEX
  5
9F3
  100
AcDbEntity
  8
Layer 1
  62
0
  100
AcDb2dVertex
  10
1.70957
  20
1.64635
  30
0.00000
  42
-0.1571
  70
32
  0
VERTEX
  5
9F4
  100
AcDbEntity
  8
Layer 1
  62
0
  100
AcDb2dVertex
  10
1.72293
  20
1.65793
  30
0.00000
  42
-0.0878
  70
32
  0
VERTEX
  5
9F5
  100
AcDbEntity
  8
Layer 1
  62
0
  100
AcDb2dVertex
  10
1.72900
  20
1.65900
  30
0.00000
  42
-0.0788
  70
32
  0
VERTEX
  5
9F6
  100
AcDbEntity
  8
Layer 1
  62
0
  100
AcDb2dVertex
  10
1.73983
  20
1.65545
  30
0.00000
  42
-0.0111
  70
32
  0
VERTEX
  5
9F7
  100
AcDbEntity
  8
Layer 1
  62
0
  100
AcDb2dVertex
  10
1.78600
  20
1.63300
  30
0.00000
  70
32
  0
VERTEX
  5
9F8
  100
AcDbEntity
  8
Layer 1
  62
0
  100
AcDb2dVertex
  10
1.82437
  20
1.61350
  30
0.00000
  42
0.0332
  70
32
  0
VERTEX
  5
9F9
  100
AcDbEntity
  8
Layer 1
  62
0
  100
AcDb2dVertex
  10
1.84100
  20
1.60600
  30
0.00000
  70
32
  0
VERTEX
  5
9FA
  100
AcDbEntity
  8
Layer 1
  62
0
  100
AcDb2dVertex
  10
1.77200
  20
1.50100
  30
0.00000
  70
32
  0
VERTEX
  5
9FB
  100
AcDbEntity
  8
Layer 1
  62
0
  100
AcDb2dVertex
  10
1.84100
  20
1.60600
  30
0.00000
  42
-0.0568
  70
32
  0
VERTEX
  5
9FC
  100
AcDbEntity
  8
Layer 1
  62
0
  100
AcDb2dVertex
  10
1.89123
  20
1.57602
  30
0.00000
  42
-0.0966
  70
32
  0
VERTEX
  5
9FD
  100
AcDbEntity
  8
Layer 1
  62
0
  100
AcDb2dVertex
  10
1.91671
  20
1.54769
  30
0.00000
  42
-0.1305
  70
32
  0
VERTEX
  5
9FE
  100
AcDbEntity
  8
Layer 1
  62
0
  100
AcDb2dVertex
  10
1.92400
  20
1.52100
  30
0.00000
  70
32
  0
SEQEND
  5
9FF
  100
AcDbEntity
  8
Layer 1
  62
0
  0
POLYLINE
  5
A00
  100
AcDbEntity
  8
Layer 1
  62
0
  100
AcDb2dPolyline
 66
     1
  10
0
  20
0
  30
0
  70
1
  0
VERTEX
  5
A01
  100
AcDbEntity
  8
Layer 1
  62
0
  100
AcDb2dVertex
  10
0.99200
  20
0.97000
  30
0.00000
  42
-0.0961
  70
32
  0
VERTEX
  5
A02
  100
AcDbEntity
  8
Layer 1
  62
0
  100
AcDb2dVertex
  10
0.98917
  20
0.95368
  30
0.00000
  42
-0.0389
  70
32
  0
VERTEX
  5
A03
  100
AcDbEntity
  8
Layer 1
  62
0
  100
AcDb2dVertex
  10
0.97046
  20
0.91161
  30
0.00000
  70
32
  0
VERTEX
  5
A04
  100
AcDbEntity
  8
Layer 1
  62
0
  100
AcDb2dVertex
  10
0.96700
  20
0.90500
  30
0.00000
  42
-0.0440
  70
32
  0
VERTEX
  5
A05
  100
AcDbEntity
  8
Layer 1
  62
0
  100
AcDb2dVertex
  10
0.94291
  20
0.86505
  30
0.00000
  42
-0.0978
  70
32
  0
VERTEX
  5
A06
  100
AcDbEntity
  8
Layer 1
  62
0
  100
AcDb2dVertex
  10
0.92828
  20
0.85111
  30
0.00000
  42
-0.1276
  70
32
  0
VERTEX
  5
A07
  100
AcDbEntity
  8
Layer 1
  62
0
  100
AcDb2dVertex
  10
0.92100
  20
0.84900
  30
0.00000
  42
-0.0218
  70
32
  0
VERTEX
  5
A08
  100
AcDbEntity
  8
Layer 1
  62
0
  100
AcDb2dVertex
  10
0.89333
  20
0.85321
  30
0.00000
  70
32
  0
VERTEX
  5
A09
  100
AcDbEntity
  8
Layer 1
  62
0
  100
AcDb2dVertex
  10
0.88300
  20
0.85500
  30
0.00000
  42
0.0219
  70
32
  0
VERTEX
  5
A0A
  100
AcDbEntity
  8
Layer 1
  62
0
  100
AcDb2dVertex
  10
0.84636
  20
0.86199
  30
0.00000
  70
32
  0
VERTEX
  5
A0B
  100
AcDbEntity
  8
Layer 1
  62
0
  100
AcDb2dVertex
  10
0.84600
  20
0.86200
  30
0.00000
  42
0.0422
  70
32
  0
VERTEX
  5
A0C
  100
AcDbEntity
  8
Layer 1
  62
0
  100
AcDb2dVertex
  10
0.82745
  20
0.85836
  30
0.00000
  70
32
  0
VERTEX
  5
A0D
  100
AcDbEntity
  8
Layer 1
  62
0
  100
AcDb2dVertex
  10
0.82600
  20
0.85800
  30
0.00000
  42
-0.0403
  70
32
  0
VERTEX
  5
A0E
  100
AcDbEntity
  8
Layer 1
  62
0
  100
AcDb2dVertex
  10
0.80700
  20
0.85400
  30
0.00000
  42
-0.1724
  70
32
  0
VERTEX
  5
A0F
  100
AcDbEntity
  8
Layer 1
  62
0
  100
AcDb2dVertex
  10
0.79781
  20
0.85847
  30
0.00000
  42
-0.0789
  70
32
  0
VERTEX
  5
A10
  100
AcDbEntity
  8
Layer 1
  62
0
  100
AcDb2dVertex
  10
0.78200
  20
0.87900
  30
0.00000
  42
0.1037
  70
32
  0
VERTEX
  5
A11
  100
AcDbEntity
  8
Layer 1
  62
0
  100
AcDb2dVertex
  10
0.76411
  20
0.89904
  30
0.00000
  42
0.1513
  70
32
  0
VERTEX
  5
A12
  100
AcDbEntity
  8
Layer 1
  62
0
  100
AcDb2dVertex
  10
0.74900
  20
0.90400
  30
0.00000
  42
0.0299
  70
32
  0
VERTEX
  5
A13
  100
AcDbEntity
  8
Layer 1
  62
0
  100
AcDb2dVertex
  10
0.73500
  20
0.90100
  30
0.00000
  42
-0.0584
  70
32
  0
VERTEX
  5
A14
  100
AcDbEntity
  8
Layer 1
  62
0
  100
AcDb2dVertex
  10
0.71900
  20
0.89900
  30
0.00000
  42
-0.0487
  70
32
  0
VERTEX
  5
A15
  100
AcDbEntity
  8
Layer 1
  62
0
  100
AcDb2dVertex
  10
0.71046
  20
0.90620
  30
0.00000
  42
-0.0054
  70
32
  0
VERTEX
  5
A16
  100
AcDbEntity
  8
Layer 1
  62
0
  100
AcDb2dVertex
  10
0.68000
  20
0.93500
  30
0.00000
  42
0.0177
  70
32
  0
VERTEX
  5
A17
  100
AcDbEntity
  8
Layer 1
  62
0
  100
AcDb2dVertex
  10
0.64137
  20
0.97057
  30
0.00000
  42
0.0480
  70
32
  0
VERTEX
  5
A18
  100
AcDbEntity
  8
Layer 1
  62
0
  100
AcDb2dVertex
  10
0.63500
  20
0.97500
  30
0.00000
  42
0.1187
  70
32
  0
VERTEX
  5
A19
  100
AcDbEntity
  8
Layer 1
  62
0
  100
AcDb2dVertex
  10
0.60023
  20
0.98471
  30
0.00000
  70
32
  0
VERTEX
  5
A1A
  100
AcDbEntity
  8
Layer 1
  62
0
  100
AcDb2dVertex
  10
0.59100
  20
0.98500
  30
0.00000
  42
-0.0421
  70
32
  0
VERTEX
  5
A1B
  100
AcDbEntity
  8
Layer 1
  62
0
  100
AcDb2dVertex
  10
0.56568
  20
0.98638
  30
0.00000
  70
32
  0
VERTEX
  5
A1C
  100
AcDbEntity
  8
Layer 1
  62
0
  100
AcDb2dVertex
  10
0.56400
  20
0.98700
  30
0.00000
  42
-0.1093
  70
32
  0
VERTEX
  5
A1D
  100
AcDbEntity
  8
Layer 1
  62
0
  100
AcDb2dVertex
  10
0.55392
  20
0.99693
  30
0.00000
  42
-0.0366
  70
32
  0
VERTEX
  5
A1E
  100
AcDbEntity
  8
Layer 1
  62
0
  100
AcDb2dVertex
  10
0.54000
  20
1.02000
  30
0.00000
  42
0.1198
  70
32
  0
VERTEX
  5
A1F
  100
AcDbEntity
  8
Layer 1
  62
0
  100
AcDb2dVertex
  10
0.52526
  20
1.03894
  30
0.00000
  42
0.1617
  70
32
  0
VERTEX
  5
A20
  100
AcDbEntity
  8
Layer 1
  62
0
  100
AcDb2dVertex
  10
0.51000
  20
1.04400
  30
0.00000
  70
32
  0
VERTEX
  5
A21
  100
AcDbEntity
  8
Layer 1
  62
0
  100
AcDb2dVertex
  10
0.50760
  20
1.04341
  30
0.00000
  42
-0.0266
  70
32
  0
VERTEX
  5
A22
  100
AcDbEntity
  8
Layer 1
  62
0
  100
AcDb2dVertex
  10
0.49300
  20
1.04000
  30
0.00000
  70
32
  0
VERTEX
  5
A23
  100
AcDbEntity
  8
Layer 1
  62
0
  100
AcDb2dVertex
  10
0.48181
  20
1.03674
  30
0.00000
  42
-0.0529
  70
32
  0
VERTEX
  5
A24
  100
AcDbEntity
  8
Layer 1
  62
0
  100
AcDb2dVertex
  10
0.47500
  20
1.03500
  30
0.00000
  42
-0.0214
  70
32
  0
VERTEX
  5
A25
  100
AcDbEntity
  8
Layer 1
  62
0
  100
AcDb2dVertex
  10
0.46301
  20
1.03690
  30
0.00000
  70
32
  0
VERTEX
  5
A26
  100
AcDbEntity
  8
Layer 1
  62
0
  100
AcDb2dVertex
  10
0.44500
  20
1.04000
  30
0.00000
  42
-0.0142
  70
32
  0
VERTEX
  5
A27
  100
AcDbEntity
  8
Layer 1
  62
0
  100
AcDb2dVertex
  10
0.41999
  20
1.04332
  30
0.00000
  70
32
  0
VERTEX
  5
A28
  100
AcDbEntity
  8
Layer 1
  62
0
  100
AcDb2dVertex
  10
0.41500
  20
1.04400
  30
0.00000
  42
0.1219
  70
32
  0
VERTEX
  5
A29
  100
AcDbEntity
  8
Layer 1
  62
0
  100
AcDb2dVertex
  10
0.39688
  20
1.03839
  30
0.00000
  42
0.0518
  70
32
  0
VERTEX
  5
A2A
  100
AcDbEntity
  8
Layer 1
  62
0
  100
AcDb2dVertex
  10
0.36594
  20
1.01581
  30
0.00000
  70
32
  0
VERTEX
  5
A2B
  100
AcDbEntity
  8
Layer 1
  62
0
  100
AcDb2dVertex
  10
0.36500
  20
1.01500
  30
0.00000
  42
-0.1136
  70
32
  0
VERTEX
  5
A2C
  100
AcDbEntity
  8
Layer 1
  62
0
  100
AcDb2dVertex
  10
0.32328
  20
0.99049
  30
0.00000
  42
-0.0721
  70
32
  0
VERTEX
  5
A2D
  100
AcDbEntity
  8
Layer 1
  62
0
  100
AcDb2dVertex
  10
0.29900
  20
0.98700
  30
0.00000
  42
-0.0720
  70
32
  0
VERTEX
  5
A2E
  100
AcDbEntity
  8
Layer 1
  62
0
  100
AcDb2dVertex
  10
0.27671
  20
0.99171
  30
0.00000
  42
-0.0224
  70
32
  0
VERTEX
  5
A2F
  100
AcDbEntity
  8
Layer 1
  62
0
  100
AcDb2dVertex
  10
0.25500
  20
1.00000
  30
0.00000
  42
0.0658
  70
32
  0
VERTEX
  5
A30
  100
AcDbEntity
  8
Layer 1
  62
0
  100
AcDb2dVertex
  10
0.20661
  20
1.01168
  30
0.00000
  70
32
  0
VERTEX
  5
A31
  100
AcDbEntity
  8
Layer 1
  62
0
  100
AcDb2dVertex
  10
0.19900
  20
1.01200
  30
0.00000
  42
0.0665
  70
32
  0
VERTEX
  5
A32
  100
AcDbEntity
  8
Layer 1
  62
0
  100
AcDb2dVertex
  10
0.15496
  20
1.00489
  30
0.00000
  42
0.0157
  70
32
  0
VERTEX
  5
A33
  100
AcDbEntity
  8
Layer 1
  62
0
  100
AcDb2dVertex
  10
0.13300
  20
0.99800
  30
0.00000
  42
-0.0483
  70
32
  0
VERTEX
  5
A34
  100
AcDbEntity
  8
Layer 1
  62
0
  100
AcDb2dVertex
  10
0.08898
  20
0.98487
  30
0.00000
  42
-0.0396
  70
32
  0
VERTEX
  5
A35
  100
AcDbEntity
  8
Layer 1
  62
0
  100
AcDb2dVertex
  10
0.08000
  20
0.98400
  30
0.00000
  42
-0.1565
  70
32
  0
VERTEX
  5
A36
  100
AcDbEntity
  8
Layer 1
  62
0
  100
AcDb2dVertex
  10
0.05641
  20
0.99050
  30
0.00000
  42
-0.1747
  70
32
  0
VERTEX
  5
A37
  100
AcDbEntity
  8
Layer 1
  62
0
  100
AcDb2dVertex
  10
0.04279
  20
1.01116
  30
0.00000
  42
-0.0694
  70
32
  0
VERTEX
  5
A38
  100
AcDbEntity
  8
Layer 1
  62
0
  100
AcDb2dVertex
  10
0.04000
  20
1.03400
  30
0.00000
  70
32
  0
VERTEX
  5
A39
  100
AcDbEntity
  8
Layer 1
  62
0
  100
AcDb2dVertex
  10
0.05500
  20
1.12900
  30
0.00000
  70
32
  0
VERTEX
  5
A3A
  100
AcDbEntity
  8
Layer 1
  62
0
  100
AcDb2dVertex
  10
0.18900
  20
1.08000
  30
0.00000
  70
32
  0
VERTEX
  5
A3B
  100
AcDbEntity
  8
Layer 1
  62
0
  100
AcDb2dVertex
  10
0.05500
  20
1.12900
  30
0.00000
  42
-0.0866
  70
32
  0
VERTEX
  5
A3C
  100
AcDbEntity
  8
Layer 1
  62
0
  100
AcDb2dVertex
  10
0.07434
  20
1.18529
  30
0.00000
  42
-0.0314
  70
32
  0
VERTEX
  5
A3D
  100
AcDbEntity
  8
Layer 1
  62
0
  100
AcDb2dVertex
  10
0.08400
  20
1.20000
  30
0.00000
  42
-0.1253
  70
32
  0
VERTEX
  5
A3E
  100
AcDbEntity
  8
Layer 1
  62
0
  100
AcDb2dVertex
  10
0.11139
  20
1.22378
  30
0.00000
  42
-0.1117
  70
32
  0
VERTEX
  5
A3F
  100
AcDbEntity
  8
Layer 1
  62
0
  100
AcDb2dVertex
  10
0.13500
  20
1.22900
  30
0.00000
  42
-0.1258
  70
32
  0
VERTEX
  5
A40
  100
AcDbEntity
  8
Layer 1
  62
0
  100
AcDb2dVertex
  10
0.14465
  20
1.22512
  30
0.00000
  42
-0.0327
  70
32
  0
VERTEX
  5
A41
  100
AcDbEntity
  8
Layer 1
  62
0
  100
AcDb2dVertex
  10
0.17200
  20
1.20400
  30
0.00000
  42
0.0595
  70
32
  0
VERTEX
  5
A42
  100
AcDbEntity
  8
Layer 1
  62
0
  100
AcDb2dVertex
  10
0.23188
  20
1.16013
  30
0.00000
  70
32
  0
VERTEX
  5
A43
  100
AcDbEntity
  8
Layer 1
  62
0
  100
AcDb2dVertex
  10
0.23400
  20
1.15900
  30
0.00000
  42
0.1169
  70
32
  0
VERTEX
  5
A44
  100
AcDbEntity
  8
Layer 1
  62
0
  100
AcDb2dVertex
  10
0.34000
  20
1.13500
  30
0.00000
  42
0.1089
  70
32
  0
VERTEX
  5
A45
  100
AcDbEntity
  8
Layer 1
  62
0
  100
AcDb2dVertex
  10
0.42825
  20
1.15521
  30
0.00000
  42
0.0143
  70
32
  0
VERTEX
  5
A46
  100
AcDbEntity
  8
Layer 1
  62
0
  100
AcDb2dVertex
  10
0.44200
  20
1.16200
  30
0.00000
  42
-0.0216
  70
32
  0
VERTEX
  5
A47
  100
AcDbEntity
  8
Layer 1
  62
0
  100
AcDb2dVertex
  10
0.49283
  20
1.18633
  30
0.00000
  42
-0.0742
  70
32
  0
VERTEX
  5
A48
  100
AcDbEntity
  8
Layer 1
  62
0
  100
AcDb2dVertex
  10
0.50200
  20
1.18900
  30
0.00000
  42
-0.2171
  70
32
  0
VERTEX
  5
A49
  100
AcDbEntity
  8
Layer 1
  62
0
  100
AcDb2dVertex
  10
0.52791
  20
1.17843
  30
0.00000
  42
-0.1112
  70
32
  0
VERTEX
  5
A4A
  100
AcDbEntity
  8
Layer 1
  62
0
  100
AcDb2dVertex
  10
0.53800
  20
1.16000
  30
0.00000
  42
0.1131
  70
32
  0
VERTEX
  5
A4B
  100
AcDbEntity
  8
Layer 1
  62
0
  100
AcDb2dVertex
  10
0.54936
  20
1.13804
  30
0.00000
  42
0.2168
  70
32
  0
VERTEX
  5
A4C
  100
AcDbEntity
  8
Layer 1
  62
0
  100
AcDb2dVertex
  10
0.56700
  20
1.13000
  30
0.00000
  42
0.0164
  70
32
  0
VERTEX
  5
A4D
  100
AcDbEntity
  8
Layer 1
  62
0
  100
AcDb2dVertex
  10
0.58500
  20
1.13300
  30
0.00000
  42
-0.0488
  70
32
  0
VERTEX
  5
A4E
  100
AcDbEntity
  8
Layer 1
  62
0
  100
AcDb2dVertex
  10
0.60200
  20
1.13500
  30
0.00000
  42
-0.1069
  70
32
  0
VERTEX
  5
A4F
  100
AcDbEntity
  8
Layer 1
  62
0
  100
AcDb2dVertex
  10
0.61988
  20
1.13208
  30
0.00000
  42
-0.1903
  70
32
  0
VERTEX
  5
A50
  100
AcDbEntity
  8
Layer 1
  62
0
  100
AcDb2dVertex
  10
0.62700
  20
1.12500
  30
0.00000
  70
32
  0
VERTEX
  5
A51
  100
AcDbEntity
  8
Layer 1
  62
0
  100
AcDb2dVertex
  10
0.62982
  20
1.11763
  30
0.00000
  42
0.0097
  70
32
  0
VERTEX
  5
A52
  100
AcDbEntity
  8
Layer 1
  62
0
  100
AcDb2dVertex
  10
0.65000
  20
1.06700
  30
0.00000
  42
0.1352
  70
32
  0
VERTEX
  5
A53
  100
AcDbEntity
  8
Layer 1
  62
0
  100
AcDb2dVertex
  10
0.68661
  20
1.02768
  30
0.00000
  42
0.1087
  70
32
  0
VERTEX
  5
A54
  100
AcDbEntity
  8
Layer 1
  62
0
  100
AcDb2dVertex
  10
0.72900
  20
1.01400
  30
0.00000
  42
-0.0853
  70
32
  0
VERTEX
  5
A55
  100
AcDbEntity
  8
Layer 1
  62
0
  100
AcDb2dVertex
  10
0.75853
  20
1.01069
  30
0.00000
  42
-0.0178
  70
32
  0
VERTEX
  5
A56
  100
AcDbEntity
  8
Layer 1
  62
0
  100
AcDb2dVertex
  10
0.77100
  20
1.00700
  30
0.00000
  42
-0.0966
  70
32
  0
VERTEX
  5
A57
  100
AcDbEntity
  8
Layer 1
  62
0
  100
AcDb2dVertex
  10
0.77615
  20
0.99644
  30
0.00000
  42
-0.0290
  70
32
  0
VERTEX
  5
A58
  100
AcDbEntity
  8
Layer 1
  62
0
  100
AcDb2dVertex
  10
0.78200
  20
0.97400
  30
0.00000
  42
0.1447
  70
32
  0
VERTEX
  5
A59
  100
AcDbEntity
  8
Layer 1
  62
0
  100
AcDb2dVertex
  10
0.79088
  20
0.95759
  30
0.00000
  42
0.1926
  70
32
  0
VERTEX
  5
A5A
  100
AcDbEntity
  8
Layer 1
  62
0
  100
AcDb2dVertex
  10
0.80700
  20
0.95200
  30
0.00000
  42
0.0303
  70
32
  0
VERTEX
  5
A5B
  100
AcDbEntity
  8
Layer 1
  62
0
  100
AcDb2dVertex
  10
0.82800
  20
0.95600
  30
0.00000
  42
-0.0423
  70
32
  0
VERTEX
  5
A5C
  100
AcDbEntity
  8
Layer 1
  62
0
  100
AcDb2dVertex
  10
0.85073
  20
0.96000
  30
0.00000
  70
32
  0
VERTEX
  5
A5D
  100
AcDbEntity
  8
Layer 1
  62
0
  100
AcDb2dVertex
  10
0.85100
  20
0.96000
  30
0.00000
  42
-0.0494
  70
32
  0
VERTEX
  5
A5E
  100
AcDbEntity
  8
Layer 1
  62
0
  100
AcDb2dVertex
  10
0.86256
  20
0.95425
  30
0.00000
  70
32
  0
VERTEX
  5
A5F
  100
AcDbEntity
  8
Layer 1
  62
0
  100
AcDb2dVertex
  10
0.87500
  20
0.94700
  30
0.00000
  42
0.0391
  70
32
  0
VERTEX
  5
A60
  100
AcDbEntity
  8
Layer 1
  62
0
  100
AcDb2dVertex
  10
0.89781
  20
0.93475
  30
0.00000
  42
0.0814
  70
32
  0
VERTEX
  5
A61
  100
AcDbEntity
  8
Layer 1
  62
0
  100
AcDb2dVertex
  10
0.90100
  20
0.93400
  30
0.00000
  42
0.1208
  70
32
  0
VERTEX
  5
A62
  100
AcDbEntity
  8
Layer 1
  62
0
  100
AcDb2dVertex
  10
0.91225
  20
0.93815
  30
0.00000
  42
0.0483
  70
32
  0
VERTEX
  5
A63
  100
AcDbEntity
  8
Layer 1
  62
0
  100
AcDb2dVertex
  10
0.93700
  20
0.95700
  30
0.00000
  42
-0.0642
  70
32
  0
VERTEX
  5
A64
  100
AcDbEntity
  8
Layer 1
  62
0
  100
AcDb2dVertex
  10
0.96399
  20
0.97651
  30
0.00000
  42
-0.1116
  70
32
  0
VERTEX
  5
A65
  100
AcDbEntity
  8
Layer 1
  62
0
  100
AcDb2dVertex
  10
0.97600
  20
0.98000
  30
0.00000
  42
-0.2122
  70
32
  0
VERTEX
  5
A66
  100
AcDbEntity
  8
Layer 1
  62
0
  100
AcDb2dVertex
  10
0.98974
  20
0.97282
  30
0.00000
  70
32
  0
VERTEX
  5
A67
  100
AcDbEntity
  8
Layer 1
  62
0
  100
AcDb2dVertex
  10
0.99200
  20
0.97000
  30
0.00000
  70
32
  0
SEQEND
  5
A68
  100
AcDbEntity
  8
Layer 1
  62
0
  0
POLYLINE
  5
A69
  100
AcDbEntity
  8
Layer 1
  62
0
  100
AcDb2dPolyline
 66
     1
  10
0
  20
0
  30
0
  70
1
  0
VERTEX
  5
A6A
  100
AcDbEntity
  8
Layer 1
  62
0
  100
AcDb2dVertex
  10
1.11100
  20
0.71700
  30
0.00000
  70
32
  0
VERTEX
  5
A6B
  100
AcDbEntity
  8
Layer 1
  62
0
  100
AcDb2dVertex
  10
1.11100
  20
0.62500
  30
0.00000
  42
-0.1101
  70
32
  0
VERTEX
  5
A6C
  100
AcDbEntity
  8
Layer 1
  62
0
  100
AcDb2dVertex
  10
1.10685
  20
0.61267
  30
0.00000
  42
-0.0217
  70
32
  0
VERTEX
  5
A6D
  100
AcDbEntity
  8
Layer 1
  62
0
  100
AcDb2dVertex
  10
1.10000
  20
0.60100
  30
0.00000
  42
-0.1338
  70
32
  0
VERTEX
  5
A6E
  100
AcDbEntity
  8
Layer 1
  62
0
  100
AcDb2dVertex
  10
1.08322
  20
0.58577
  30
0.00000
  42
-0.0739
  70
32
  0
VERTEX
  5
A6F
  100
AcDbEntity
  8
Layer 1
  62
0
  100
AcDb2dVertex
  10
1.07700
  20
0.58400
  30
0.00000
  42
-0.0968
  70
32
  0
VERTEX
  5
A70
  100
AcDbEntity
  8
Layer 1
  62
0
  100
AcDb2dVertex
  10
1.05513
  20
0.57703
  30
0.00000
  70
32
  0
VERTEX
  5
A71
  100
AcDbEntity
  8
Layer 1
  62
0
  100
AcDb2dVertex
  10
1.05400
  20
0.57700
  30
0.00000
  42
-0.1209
  70
32
  0
VERTEX
  5
A72
  100
AcDbEntity
  8
Layer 1
  62
0
  100
AcDb2dVertex
  10
1.03776
  20
0.58216
  30
0.00000
  42
-0.0485
  70
32
  0
VERTEX
  5
A73
  100
AcDbEntity
  8
Layer 1
  62
0
  100
AcDb2dVertex
  10
1.01400
  20
0.59900
  30
0.00000
  42
0.0451
  70
32
  0
VERTEX
  5
A74
  100
AcDbEntity
  8
Layer 1
  62
0
  100
AcDb2dVertex
  10
0.96937
  20
0.63388
  30
0.00000
  70
32
  0
VERTEX
  5
A75
  100
AcDbEntity
  8
Layer 1
  62
0
  100
AcDb2dVertex
  10
0.96400
  20
0.63700
  30
0.00000
  42
0.0850
  70
32
  0
VERTEX
  5
A76
  100
AcDbEntity
  8
Layer 1
  62
0
  100
AcDb2dVertex
  10
0.89992
  20
0.65793
  30
0.00000
  42
0.0404
  70
32
  0
VERTEX
  5
A77
  100
AcDbEntity
  8
Layer 1
  62
0
  100
AcDb2dVertex
  10
0.84600
  20
0.66200
  30
0.00000
  42
0.0802
  70
32
  0
VERTEX
  5
A78
  100
AcDbEntity
  8
Layer 1
  62
0
  100
AcDb2dVertex
  10
0.76100
  20
0.64900
  30
0.00000
  42
-0.0129
  70
32
  0
VERTEX
  5
A79
  100
AcDbEntity
  8
Layer 1
  62
0
  100
AcDb2dVertex
  10
0.71700
  20
0.63700
  30
0.00000
  42
-0.0795
  70
32
  0
VERTEX
  5
A7A
  100
AcDbEntity
  8
Layer 1
  62
0
  100
AcDb2dVertex
  10
0.69848
  20
0.64142
  30
0.00000
  70
32
  0
VERTEX
  5
A7B
  100
AcDbEntity
  8
Layer 1
  62
0
  100
AcDb2dVertex
  10
0.68700
  20
0.64600
  30
0.00000
  70
32
  0
VERTEX
  5
A7C
  100
AcDbEntity
  8
Layer 1
  62
0
  100
AcDb2dVertex
  10
0.66700
  20
0.65500
  30
0.00000
  42
0.3140
  70
32
  0
VERTEX
  5
A7D
  100
AcDbEntity
  8
Layer 1
  62
0
  100
AcDb2dVertex
  10
0.64509
  20
0.64067
  30
0.00000
  70
32
  0
VERTEX
  5
A7E
  100
AcDbEntity
  8
Layer 1
  62
0
  100
AcDb2dVertex
  10
0.64400
  20
0.63800
  30
0.00000
  70
32
  0
VERTEX
  5
A7F
  100
AcDbEntity
  8
Layer 1
  62
0
  100
AcDb2dVertex
  10
0.64275
  20
0.63498
  30
0.00000
  42
-0.0394
  70
32
  0
VERTEX
  5
A80
  100
AcDbEntity
  8
Layer 1
  62
0
  100
AcDb2dVertex
  10
0.63000
  20
0.60800
  30
0.00000
  42
-0.2071
  70
32
  0
VERTEX
  5
A81
  100
AcDbEntity
  8
Layer 1
  62
0
  100
AcDb2dVertex
  10
0.61755
  20
0.59742
  30
0.00000
  42
-0.0727
  70
32
  0
VERTEX
  5
A82
  100
AcDbEntity
  8
Layer 1
  62
0
  100
AcDb2dVertex
  10
0.59900
  20
0.59400
  30
0.00000
  42
0.0713
  70
32
  0
VERTEX
  5
A83
  100
AcDbEntity
  8
Layer 1
  62
0
  100
AcDb2dVertex
  10
0.55304
  20
0.58834
  30
0.00000
  70
32
  0
VERTEX
  5
A84
  100
AcDbEntity
  8
Layer 1
  62
0
  100
AcDb2dVertex
  10
0.54900
  20
0.58700
  30
0.00000
  42
0.0803
  70
32
  0
VERTEX
  5
A85
  100
AcDbEntity
  8
Layer 1
  62
0
  100
AcDb2dVertex
  10
0.51738
  20
0.56508
  30
0.00000
  42
0.0462
  70
32
  0
VERTEX
  5
A86
  100
AcDbEntity
  8
Layer 1
  62
0
  100
AcDb2dVertex
  10
0.47362
  20
0.51506
  30
0.00000
  70
32
  0
VERTEX
  5
A87
  100
AcDbEntity
  8
Layer 1
  62
0
  100
AcDb2dVertex
  10
0.46200
  20
0.49900
  30
0.00000
  42
-0.0406
  70
32
  0
VERTEX
  5
A88
  100
AcDbEntity
  8
Layer 1
  62
0
  100
AcDb2dVertex
  10
0.44600
  20
0.50300
  30
0.00000
  42
0.0791
  70
32
  0
VERTEX
  5
A89
  100
AcDbEntity
  8
Layer 1
  62
0
  100
AcDb2dVertex
  10
0.42500
  20
0.50700
  30
0.00000
  42
0.1950
  70
32
  0
VERTEX
  5
A8A
  100
AcDbEntity
  8
Layer 1
  62
0
  100
AcDb2dVertex
  10
0.40524
  20
0.49831
  30
0.00000
  42
0.0477
  70
32
  0
VERTEX
  5
A8B
  100
AcDbEntity
  8
Layer 1
  62
0
  100
AcDb2dVertex
  10
0.39800
  20
0.49000
  30
0.00000
  42
-0.1462
  70
32
  0
VERTEX
  5
A8C
  100
AcDbEntity
  8
Layer 1
  62
0
  100
AcDb2dVertex
  10
0.38077
  20
0.47563
  30
0.00000
  42
-0.0913
  70
32
  0
VERTEX
  5
A8D
  100
AcDbEntity
  8
Layer 1
  62
0
  100
AcDb2dVertex
  10
0.37200
  20
0.47400
  30
0.00000
  42
-0.1618
  70
32
  0
VERTEX
  5
A8E
  100
AcDbEntity
  8
Layer 1
  62
0
  100
AcDb2dVertex
  10
0.35411
  20
0.48087
  30
0.00000
  42
-0.0642
  70
32
  0
VERTEX
  5
A8F
  100
AcDbEntity
  8
Layer 1
  62
0
  100
AcDb2dVertex
  10
0.33900
  20
0.49600
  30
0.00000
  42
0.0990
  70
32
  0
VERTEX
  5
A90
  100
AcDbEntity
  8
Layer 1
  62
0
  100
AcDb2dVertex
  10
0.31763
  20
0.51522
  30
0.00000
  42
0.1244
  70
32
  0
VERTEX
  5
A91
  100
AcDbEntity
  8
Layer 1
  62
0
  100
AcDb2dVertex
  10
0.30400
  20
0.51900
  30
0.00000
  42
-0.0393
  70
32
  0
VERTEX
  5
A92
  100
AcDbEntity
  8
Layer 1
  62
0
  100
AcDb2dVertex
  10
0.25944
  20
0.52403
  30
0.00000
  70
32
  0
VERTEX
  5
A93
  100
AcDbEntity
  8
Layer 1
  62
0
  100
AcDb2dVertex
  10
0.25400
  20
0.52500
  30
0.00000
  42
-0.1277
  70
32
  0
VERTEX
  5
A94
  100
AcDbEntity
  8
Layer 1
  62
0
  100
AcDb2dVertex
  10
0.24033
  20
0.53840
  30
0.00000
  42
-0.0654
  70
32
  0
VERTEX
  5
A95
  100
AcDbEntity
  8
Layer 1
  62
0
  100
AcDb2dVertex
  10
0.22500
  20
0.57200
  30
0.00000
  42
-0.0547
  70
32
  0
VERTEX
  5
A96
  100
AcDbEntity
  8
Layer 1
  62
0
  100
AcDb2dVertex
  10
0.21433
  20
0.62329
  30
0.00000
  70
32
  0
VERTEX
  5
A97
  100
AcDbEntity
  8
Layer 1
  62
0
  100
AcDb2dVertex
  10
0.21400
  20
0.63200
  30
0.00000
  42
-0.1176
  70
32
  0
VERTEX
  5
A98
  100
AcDbEntity
  8
Layer 1
  62
0
  100
AcDb2dVertex
  10
0.22035
  20
0.66300
  30
0.00000
  42
-0.0805
  70
32
  0
VERTEX
  5
A99
  100
AcDbEntity
  8
Layer 1
  62
0
  100
AcDb2dVertex
  10
0.22900
  20
0.67500
  30
0.00000
  42
-0.2465
  70
32
  0
VERTEX
  5
A9A
  100
AcDbEntity
  8
Layer 1
  62
0
  100
AcDb2dVertex
  10
0.24690
  20
0.66922
  30
0.00000
  42
-0.0909
  70
32
  0
VERTEX
  5
A9B
  100
AcDbEntity
  8
Layer 1
  62
0
  100
AcDb2dVertex
  10
0.25900
  20
0.65200
  30
0.00000
  42
0.0322
  70
32
  0
VERTEX
  5
A9C
  100
AcDbEntity
  8
Layer 1
  62
0
  100
AcDb2dVertex
  10
0.28119
  20
0.61797
  30
0.00000
  42
0.0555
  70
32
  0
VERTEX
  5
A9D
  100
AcDbEntity
  8
Layer 1
  62
0
  100
AcDb2dVertex
  10
0.28500
  20
0.61400
  30
0.00000
  70
32
  0
VERTEX
  5
A9E
  100
AcDbEntity
  8
Layer 1
  62
0
  100
AcDb2dVertex
  10
0.31009
  20
0.60800
  30
0.00000
  70
32
  0
VERTEX
  5
A9F
  100
AcDbEntity
  8
Layer 1
  62
0
  100
AcDb2dVertex
  10
0.33500
  20
0.60200
  30
0.00000
  42
-0.0655
  70
32
  0
VERTEX
  5
AA0
  100
AcDbEntity
  8
Layer 1
  62
0
  100
AcDb2dVertex
  10
0.35476
  20
0.59352
  30
0.00000
  70
32
  0
VERTEX
  5
AA1
  100
AcDbEntity
  8
Layer 1
  62
0
  100
AcDb2dVertex
  10
0.36100
  20
0.59000
  30
0.00000
  70
32
  0
VERTEX
  5
AA2
  100
AcDbEntity
  8
Layer 1
  62
0
  100
AcDb2dVertex
  10
0.36883
  20
0.58636
  30
0.00000
  70
32
  0
VERTEX
  5
AA3
  100
AcDbEntity
  8
Layer 1
  62
0
  100
AcDb2dVertex
  10
0.37898
  20
0.58171
  30
0.00000
  42
0.0726
  70
32
  0
VERTEX
  5
AA4
  100
AcDbEntity
  8
Layer 1
  62
0
  100
AcDb2dVertex
  10
0.38400
  20
0.58000
  30
0.00000
  42
0.1608
  70
32
  0
VERTEX
  5
AA5
  100
AcDbEntity
  8
Layer 1
  62
0
  100
AcDb2dVertex
  10
0.39199
  20
0.58400
  30
0.00000
  42
0.0658
  70
32
  0
VERTEX
  5
AA6
  100
AcDbEntity
  8
Layer 1
  62
0
  100
AcDb2dVertex
  10
0.40900
  20
0.60400
  30
0.00000
  42
-0.0729
  70
32
  0
VERTEX
  5
AA7
  100
AcDbEntity
  8
Layer 1
  62
0
  100
AcDb2dVertex
  10
0.42621
  20
0.62277
  30
0.00000
  42
-0.1596
  70
32
  0
VERTEX
  5
AA8
  100
AcDbEntity
  8
Layer 1
  62
0
  100
AcDb2dVertex
  10
0.43700
  20
0.62700
  30
0.00000
  70
32
  0
VERTEX
  5
AA9
  100
AcDbEntity
  8
Layer 1
  62
0
  100
AcDb2dVertex
  10
0.44124
  20
0.62638
  30
0.00000
  70
32
  0
VERTEX
  5
AAA
  100
AcDbEntity
  8
Layer 1
  62
0
  100
AcDb2dVertex
  10
0.45000
  20
0.62500
  30
0.00000
  70
32
  0
VERTEX
  5
AAB
  100
AcDbEntity
  8
Layer 1
  62
0
  100
AcDb2dVertex
  10
0.46400
  20
0.62500
  30
0.00000
  42
0.1801
  70
32
  0
VERTEX
  5
AAC
  100
AcDbEntity
  8
Layer 1
  62
0
  100
AcDb2dVertex
  10
0.51493
  20
0.64418
  30
0.00000
  42
0.0925
  70
32
  0
VERTEX
  5
AAD
  100
AcDbEntity
  8
Layer 1
  62
0
  100
AcDb2dVertex
  10
0.54608
  20
0.68354
  30
0.00000
  70
32
  0
VERTEX
  5
AAE
  100
AcDbEntity
  8
Layer 1
  62
0
  100
AcDb2dVertex
  10
0.55100
  20
0.69300
  30
0.00000
  42
-0.0290
  70
32
  0
VERTEX
  5
AAF
  100
AcDbEntity
  8
Layer 1
  62
0
  100
AcDb2dVertex
  10
0.58065
  20
0.74527
  30
0.00000
  42
-0.0743
  70
32
  0
VERTEX
  5
AB0
  100
AcDbEntity
  8
Layer 1
  62
0
  100
AcDb2dVertex
  10
0.59189
  20
0.75866
  30
0.00000
  42
-0.1538
  70
32
  0
VERTEX
  5
AB1
  100
AcDbEntity
  8
Layer 1
  62
0
  100
AcDb2dVertex
  10
0.59500
  20
0.76000
  30
0.00000
  70
32
  0
VERTEX
  5
AB2
  100
AcDbEntity
  8
Layer 1
  62
0
  100
AcDb2dVertex
  10
0.60125
  20
0.75925
  30
0.00000
  70
32
  0
VERTEX
  5
AB3
  100
AcDbEntity
  8
Layer 1
  62
0
  100
AcDb2dVertex
  10
0.61500
  20
0.75700
  30
0.00000
  42
0.0195
  70
32
  0
VERTEX
  5
AB4
  100
AcDbEntity
  8
Layer 1
  62
0
  100
AcDb2dVertex
  10
0.63700
  20
0.75400
  30
0.00000
  42
0.2119
  70
32
  0
VERTEX
  5
AB5
  100
AcDbEntity
  8
Layer 1
  62
0
  100
AcDb2dVertex
  10
0.65035
  20
0.76064
  30
0.00000
  42
0.0903
  70
32
  0
VERTEX
  5
AB6
  100
AcDbEntity
  8
Layer 1
  62
0
  100
AcDb2dVertex
  10
0.66277
  20
0.78187
  30
0.00000
  70
32
  0
VERTEX
  5
AB7
  100
AcDbEntity
  8
Layer 1
  62
0
  100
AcDb2dVertex
  10
0.66400
  20
0.78500
  30
0.00000
  42
-0.1256
  70
32
  0
VERTEX
  5
AB8
  100
AcDbEntity
  8
Layer 1
  62
0
  100
AcDb2dVertex
  10
0.67898
  20
0.80804
  30
0.00000
  42
-0.1848
  70
32
  0
VERTEX
  5
AB9
  100
AcDbEntity
  8
Layer 1
  62
0
  100
AcDb2dVertex
  10
0.70500
  20
0.81700
  30
0.00000
  42
-0.0939
  70
32
  0
VERTEX
  5
ABA
  100
AcDbEntity
  8
Layer 1
  62
0
  100
AcDb2dVertex
  10
0.72436
  20
0.81200
  30
0.00000
  42
-0.0397
  70
32
  0
VERTEX
  5
ABB
  100
AcDbEntity
  8
Layer 1
  62
0
  100
AcDb2dVertex
  10
0.75600
  20
0.79500
  30
0.00000
  42
0.1315
  70
32
  0
VERTEX
  5
ABC
  100
AcDbEntity
  8
Layer 1
  62
0
  100
AcDb2dVertex
  10
0.82348
  20
0.77405
  30
0.00000
  70
32
  0
VERTEX
  5
ABD
  100
AcDbEntity
  8
Layer 1
  62
0
  100
AcDb2dVertex
  10
0.82700
  20
0.77400
  30
0.00000
  42
0.0869
  70
32
  0
VERTEX
  5
ABE
  100
AcDbEntity
  8
Layer 1
  62
0
  100
AcDb2dVertex
  10
0.93643
  20
0.79404
  30
0.00000
  42
0.0279
  70
32
  0
VERTEX
  5
ABF
  100
AcDbEntity
  8
Layer 1
  62
0
  100
AcDb2dVertex
  10
0.98100
  20
0.81300
  30
0.00000
  42
-0.0123
  70
32
  0
VERTEX
  5
AC0
  100
AcDbEntity
  8
Layer 1
  62
0
  100
AcDb2dVertex
  10
1.05680
  20
0.84945
  30
0.00000
  42
-0.0580
  70
32
  0
VERTEX
  5
AC1
  100
AcDbEntity
  8
Layer 1
  62
0
  100
AcDb2dVertex
  10
1.06400
  20
0.85200
  30
0.00000
  42
-0.2583
  70
32
  0
VERTEX
  5
AC2
  100
AcDbEntity
  8
Layer 1
  62
0
  100
AcDb2dVertex
  10
1.09014
  20
0.83808
  30
0.00000
  42
-0.0966
  70
32
  0
VERTEX
  5
AC3
  100
AcDbEntity
  8
Layer 1
  62
0
  100
AcDb2dVertex
  10
1.10118
  20
0.81093
  30
0.00000
  42
-0.0239
  70
32
  0
VERTEX
  5
AC4
  100
AcDbEntity
  8
Layer 1
  62
0
  100
AcDb2dVertex
  10
1.10400
  20
0.79500
  30
0.00000
  70
32
  0
VERTEX
  5
AC5
  100
AcDbEntity
  8
Layer 1
  62
0
  100
AcDb2dVertex
  10
1.10448
  20
0.78905
  30
0.00000
  42
0.0079
  70
32
  0
VERTEX
  5
AC6
  100
AcDbEntity
  8
Layer 1
  62
0
  100
AcDb2dVertex
  10
1.11100
  20
0.71700
  30
0.00000
  70
32
  0
SEQEND
  5
AC7
  100
AcDbEntity
  8
Layer 1
  62
0
  0
POLYLINE
  5
AC8
  100
AcDbEntity
  8
Layer 1
  62
0
  100
AcDb2dPolyline
 66
     1
  10
0
  20
0
  30
0
  70
1
  0
VERTEX
  5
AC9
  100
AcDbEntity
  8
Layer 1
  62
0
  100
AcDb2dVertex
  10
0.42700
  20
0.80700
  30
0.00000
  42
-0.0118
  70
32
  0
VERTEX
  5
ACA
  100
AcDbEntity
  8
Layer 1
  62
0
  100
AcDb2dVertex
  10
0.42200
  20
0.74400
  30
0.00000
  42
-0.0527
  70
32
  0
VERTEX
  5
ACB
  100
AcDbEntity
  8
Layer 1
  62
0
  100
AcDb2dVertex
  10
0.41441
  20
0.70342
  30
0.00000
  42
-0.1128
  70
32
  0
VERTEX
  5
ACC
  100
AcDbEntity
  8
Layer 1
  62
0
  100
AcDb2dVertex
  10
0.40627
  20
0.68833
  30
0.00000
  42
-0.2029
  70
32
  0
VERTEX
  5
ACD
  100
AcDbEntity
  8
Layer 1
  62
0
  100
AcDb2dVertex
  10
0.39900
  20
0.68500
  30
0.00000
  42
-0.2075
  70
32
  0
VERTEX
  5
ACE
  100
AcDbEntity
  8
Layer 1
  62
0
  100
AcDb2dVertex
  10
0.38449
  20
0.69202
  30
0.00000
  42
-0.0870
  70
32
  0
VERTEX
  5
ACF
  100
AcDbEntity
  8
Layer 1
  62
0
  100
AcDb2dVertex
  10
0.37200
  20
0.71200
  30
0.00000
  42
0.0588
  70
32
  0
VERTEX
  5
AD0
  100
AcDbEntity
  8
Layer 1
  62
0
  100
AcDb2dVertex
  10
0.36015
  20
0.73369
  30
0.00000
  42
0.1875
  70
32
  0
VERTEX
  5
AD1
  100
AcDbEntity
  8
Layer 1
  62
0
  100
AcDb2dVertex
  10
0.35286
  20
0.73894
  30
0.00000
  70
32
  0
VERTEX
  5
AD2
  100
AcDbEntity
  8
Layer 1
  62
0
  100
AcDb2dVertex
  10
0.35200
  20
0.73900
  30
0.00000
  70
32
  0
VERTEX
  5
AD3
  100
AcDbEntity
  8
Layer 1
  62
0
  100
AcDb2dVertex
  10
0.17900
  20
0.73900
  30
0.00000
  42
0.0604
  70
32
  0
VERTEX
  5
AD4
  100
AcDbEntity
  8
Layer 1
  62
0
  100
AcDb2dVertex
  10
0.09614
  20
0.73002
  30
0.00000
  70
32
  0
VERTEX
  5
AD5
  100
AcDbEntity
  8
Layer 1
  62
0
  100
AcDb2dVertex
  10
0.08500
  20
0.72700
  30
0.00000
  42
0.0938
  70
32
  0
VERTEX
  5
AD6
  100
AcDbEntity
  8
Layer 1
  62
0
  100
AcDb2dVertex
  10
0.07208
  20
0.71816
  30
0.00000
  42
0.0227
  70
32
  0
VERTEX
  5
AD7
  100
AcDbEntity
  8
Layer 1
  62
0
  100
AcDb2dVertex
  10
0.05800
  20
0.70400
  30
0.00000
  42
-0.0773
  70
32
  0
VERTEX
  5
AD8
  100
AcDbEntity
  8
Layer 1
  62
0
  100
AcDb2dVertex
  10
0.03974
  20
0.68720
  30
0.00000
  42
-0.1356
  70
32
  0
VERTEX
  5
AD9
  100
AcDbEntity
  8
Layer 1
  62
0
  100
AcDb2dVertex
  10
0.03000
  20
0.68400
  30
0.00000
  42
-0.2493
  70
32
  0
VERTEX
  5
ADA
  100
AcDbEntity
  8
Layer 1
  62
0
  100
AcDb2dVertex
  10
0.01628
  20
0.69156
  30
0.00000
  42
-0.0841
  70
32
  0
VERTEX
  5
ADB
  100
AcDbEntity
  8
Layer 1
  62
0
  100
AcDb2dVertex
  10
0.00900
  20
0.70700
  30
0.00000
  42
-0.0790
  70
32
  0
VERTEX
  5
ADC
  100
AcDbEntity
  8
Layer 1
  62
0
  100
AcDb2dVertex
  10
0.00008
  20
0.74205
  30
0.00000
  70
32
  0
VERTEX
  5
ADD
  100
AcDbEntity
  8
Layer 1
  62
0
  100
AcDb2dVertex
  10
0.00000
  20
0.74500
  30
0.00000
  70
32
  0
VERTEX
  5
ADE
  100
AcDbEntity
  8
Layer 1
  62
0
  100
AcDb2dVertex
  10
0.00000
  20
0.81400
  30
0.00000
  70
32
  0
VERTEX
  5
ADF
  100
AcDbEntity
  8
Layer 1
  62
0
  100
AcDb2dVertex
  10
0.00000
  20
0.86400
  30
0.00000
  42
-0.0804
  70
32
  0
VERTEX
  5
AE0
  100
AcDbEntity
  8
Layer 1
  62
0
  100
AcDb2dVertex
  10
0.00455
  20
0.89820
  30
0.00000
  42
-0.1574
  70
32
  0
VERTEX
  5
AE1
  100
AcDbEntity
  8
Layer 1
  62
0
  100
AcDb2dVertex
  10
0.01705
  20
0.91667
  30
0.00000
  42
-0.1607
  70
32
  0
VERTEX
  5
AE2
  100
AcDbEntity
  8
Layer 1
  62
0
  100
AcDb2dVertex
  10
0.03500
  20
0.92200
  30
0.00000
  42
-0.2320
  70
32
  0
VERTEX
  5
AE3
  100
AcDbEntity
  8
Layer 1
  62
0
  100
AcDb2dVertex
  10
0.05622
  20
0.91173
  30
0.00000
  42
-0.0618
  70
32
  0
VERTEX
  5
AE4
  100
AcDbEntity
  8
Layer 1
  62
0
  100
AcDb2dVertex
  10
0.06500
  20
0.89800
  30
0.00000
  42
0.1005
  70
32
  0
VERTEX
  5
AE5
  100
AcDbEntity
  8
Layer 1
  62
0
  100
AcDb2dVertex
  10
0.07677
  20
0.87964
  30
0.00000
  42
0.2251
  70
32
  0
VERTEX
  5
AE6
  100
AcDbEntity
  8
Layer 1
  62
0
  100
AcDb2dVertex
  10
0.08900
  20
0.87500
  30
0.00000
  70
32
  0
VERTEX
  5
AE7
  100
AcDbEntity
  8
Layer 1
  62
0
  100
AcDb2dVertex
  10
0.32000
  20
0.88000
  30
0.00000
  42
0.0803
  70
32
  0
VERTEX
  5
AE8
  100
AcDbEntity
  8
Layer 1
  62
0
  100
AcDb2dVertex
  10
0.33338
  20
0.88615
  30
0.00000
  42
0.0198
  70
32
  0
VERTEX
  5
AE9
  100
AcDbEntity
  8
Layer 1
  62
0
  100
AcDb2dVertex
  10
0.36000
  20
0.90400
  30
0.00000
  42
-0.0218
  70
32
  0
VERTEX
  5
AEA
  100
AcDbEntity
  8
Layer 1
  62
0
  100
AcDb2dVertex
  10
0.39118
  20
0.92468
  30
0.00000
  70
32
  0
VERTEX
  5
AEB
  100
AcDbEntity
  8
Layer 1
  62
0
  100
AcDb2dVertex
  10
0.39200
  20
0.92500
  30
0.00000
  42
-0.2095
  70
32
  0
VERTEX
  5
AEC
  100
AcDbEntity
  8
Layer 1
  62
0
  100
AcDb2dVertex
  10
0.41382
  20
0.91662
  30
0.00000
  42
-0.1439
  70
32
  0
VERTEX
  5
AED
  100
AcDbEntity
  8
Layer 1
  62
0
  100
AcDb2dVertex
  10
0.42355
  20
0.89616
  30
0.00000
  42
-0.0632
  70
32
  0
VERTEX
  5
AEE
  100
AcDbEntity
  8
Layer 1
  62
0
  100
AcDb2dVertex
  10
0.42500
  20
0.87000
  30
0.00000
  70
32
  0
VERTEX
  5
AEF
  100
AcDbEntity
  8
Layer 1
  62
0
  100
AcDb2dVertex
  10
0.42700
  20
0.80700
  30
0.00000
  70
32
  0
VERTEX
  5
AF0
  100
AcDbEntity
  8
Layer 1
  62
0
  100
AcDb2dVertex
  10
0.31500
  20
0.80900
  30
0.00000
  70
32
  0
VERTEX
  5
AF1
  100
AcDbEntity
  8
Layer 1
  62
0
  100
AcDb2dVertex
  10
0.42700
  20
0.80700
  30
0.00000
  70
32
  0
SEQEND
  5
AF2
  100
AcDbEntity
  8
Layer 1
  62
0
  0
POLYLINE
  5
AF3
  100
AcDbEntity
  8
Layer 1
  62
0
  100
AcDb2dPolyline
 66
     1
  10
0
  20
0
  30
0
  70
1
  0
VERTEX
  5
AF4
  100
AcDbEntity
  8
Layer 1
  62
0
  100
AcDb2dVertex
  10
0.68000
  20
1.47700
  30
0.00000
  42
0.0529
  70
32
  0
VERTEX
  5
AF5
  100
AcDbEntity
  8
Layer 1
  62
0
  100
AcDb2dVertex
  10
0.60595
  20
1.50503
  30
0.00000
  42
0.0525
  70
32
  0
VERTEX
  5
AF6
  100
AcDbEntity
  8
Layer 1
  62
0
  100
AcDb2dVertex
  10
0.56500
  20
1.51100
  30
0.00000
  42
0.2691
  70
32
  0
VERTEX
  5
AF7
  100
AcDbEntity
  8
Layer 1
  62
0
  100
AcDb2dVertex
  10
0.53969
  20
1.49568
  30
0.00000
  42
0.0970
  70
32
  0
VERTEX
  5
AF8
  100
AcDbEntity
  8
Layer 1
  62
0
  100
AcDb2dVertex
  10
0.53092
  20
1.46829
  30
0.00000
  42
0.0372
  70
32
  0
VERTEX
  5
AF9
  100
AcDbEntity
  8
Layer 1
  62
0
  100
AcDb2dVertex
  10
0.52900
  20
1.43900
  30
0.00000
  42
0.0691
  70
32
  0
VERTEX
  5
AFA
  100
AcDbEntity
  8
Layer 1
  62
0
  100
AcDb2dVertex
  10
0.53289
  20
1.40413
  30
0.00000
  42
0.1410
  70
32
  0
VERTEX
  5
AFB
  100
AcDbEntity
  8
Layer 1
  62
0
  100
AcDb2dVertex
  10
0.54246
  20
1.38723
  30
0.00000
  42
0.1891
  70
32
  0
VERTEX
  5
AFC
  100
AcDbEntity
  8
Layer 1
  62
0
  100
AcDb2dVertex
  10
0.55700
  20
1.38200
  30
0.00000
  42
0.1372
  70
32
  0
VERTEX
  5
AFD
  100
AcDbEntity
  8
Layer 1
  62
0
  100
AcDb2dVertex
  10
0.57513
  20
1.38826
  30
0.00000
  42
0.0464
  70
32
  0
VERTEX
  5
AFE
  100
AcDbEntity
  8
Layer 1
  62
0
  100
AcDb2dVertex
  10
0.58900
  20
1.39900
  30
0.00000
  70
32
  0
VERTEX
  5
AFF
  100
AcDbEntity
  8
Layer 1
  62
0
  100
AcDb2dVertex
  10
0.60825
  20
1.41812
  30
0.00000
  42
-0.0406
  70
32
  0
VERTEX
  5
B00
  100
AcDbEntity
  8
Layer 1
  62
0
  100
AcDb2dVertex
  10
0.61700
  20
1.42600
  30
0.00000
  42
-0.0547
  70
32
  0
VERTEX
  5
B01
  100
AcDbEntity
  8
Layer 1
  62
0
  100
AcDb2dVertex
  10
0.62837
  20
1.43138
  30
0.00000
  42
-0.0064
  70
32
  0
VERTEX
  5
B02
  100
AcDbEntity
  8
Layer 1
  62
0
  100
AcDb2dVertex
  10
0.66900
  20
1.44700
  30
0.00000
  42
0.1737
  70
32
  0
VERTEX
  5
B03
  100
AcDbEntity
  8
Layer 1
  62
0
  100
AcDb2dVertex
  10
0.67433
  20
1.45277
  30
0.00000
  42
0.0365
  70
32
  0
VERTEX
  5
B04
  100
AcDbEntity
  8
Layer 1
  62
0
  100
AcDb2dVertex
  10
0.67800
  20
1.46100
  30
0.00000
  42
0.0779
  70
32
  0
VERTEX
  5
B05
  100
AcDbEntity
  8
Layer 1
  62
0
  100
AcDb2dVertex
  10
0.68103
  20
1.47410
  30
0.00000
  42
0.1908
  70
32
  0
VERTEX
  5
B06
  100
AcDbEntity
  8
Layer 1
  62
0
  100
AcDb2dVertex
  10
0.68000
  20
1.47700
  30
0.00000
  70
32
  0
SEQEND
  5
B07
  100
AcDbEntity
  8
Layer 1
  62
0
 0
ENDSEC
 0
EOF
