  0
SECTION
  2
ENTITIES
  0
POLYLINE
  5
3E8
  100
AcDbEntity
  8
Layer 1
  62
0
  100
AcDb2dPolyline
 66
     1
  10
0
  20
0
  30
0
  70
1
  0
VERTEX
  5
3E9
  100
AcDbEntity
  8
Layer 1
  62
0
  100
AcDb2dVertex
  10
2.00200
  20
1.49700
  30
0.00000
  42
-0.1795
  70
32
  0
VERTEX
  5
3EA
  100
AcDbEntity
  8
Layer 1
  62
0
  100
AcDb2dVertex
  10
1.99319
  20
1.47012
  30
0.00000
  42
-0.1410
  70
32
  0
VERTEX
  5
3EB
  100
AcDbEntity
  8
Layer 1
  62
0
  100
AcDb2dVertex
  10
1.97100
  20
1.45600
  30
0.00000
  70
32
  0
VERTEX
  5
3EC
  100
AcDbEntity
  8
Layer 1
  62
0
  100
AcDb2dVertex
  10
1.97200
  20
1.44100
  30
0.00000
  42
0.0771
  70
32
  0
VERTEX
  5
3ED
  100
AcDbEntity
  8
Layer 1
  62
0
  100
AcDb2dVertex
  10
1.98320
  20
1.41198
  30
0.00000
  42
0.0176
  70
32
  0
VERTEX
  5
3EE
  100
AcDbEntity
  8
Layer 1
  62
0
  100
AcDb2dVertex
  10
1.99200
  20
1.39700
  30
0.00000
  42
-0.1228
  70
32
  0
VERTEX
  5
3EF
  100
AcDbEntity
  8
Layer 1
  62
0
  100
AcDb2dVertex
  10
1.99600
  20
1.36700
  30
0.00000
  70
32
  0
VERTEX
  5
3F0
  100
AcDbEntity
  8
Layer 1
  62
0
  100
AcDb2dVertex
  10
1.92600
  20
1.36900
  30
0.00000
  70
32
  0
VERTEX
  5
3F1
  100
AcDbEntity
  8
Layer 1
  62
0
  100
AcDb2dVertex
  10
1.99600
  20
1.36700
  30
0.00000
  42
-0.0639
  70
32
  0
VERTEX
  5
3F2
  100
AcDbEntity
  8
Layer 1
  62
0
  100
AcDb2dVertex
  10
1.98018
  20
1.33369
  30
0.00000
  42
-0.1300
  70
32
  0
VERTEX
  5
3F3
  100
AcDbEntity
  8
Layer 1
  62
0
  100
AcDb2dVertex
  10
1.96730
  20
1.32147
  30
0.00000
  42
-0.1105
  70
32
  0
VERTEX
  5
3F4
  100
AcDbEntity
  8
Layer 1
  62
0
  100
AcDb2dVertex
  10
1.96100
  20
1.32000
  30
0.00000
  42
-0.0371
  70
32
  0
VERTEX
  5
3F5
  100
AcDbEntity
  8
Layer 1
  62
0
  100
AcDb2dVertex
  10
1.95341
  20
1.32318
  30
0.00000
  70
32
  0
VERTEX
  5
3F6
  100
AcDbEntity
  8
Layer 1
  62
0
  100
AcDb2dVertex
  10
1.93800
  20
1.33000
  30
0.00000
  42
0.1192
  70
32
  0
VERTEX
  5
3F7
  100
AcDbEntity
  8
Layer 1
  62
0
  100
AcDb2dVertex
  10
1.89200
  20
1.34000
  30
0.00000
  42
-0.2677
  70
32
  0
VERTEX
  5
3F8
  100
AcDbEntity
  8
Layer 1
  62
0
  100
AcDb2dVertex
  10
1.88749
  20
1.34350
  30
0.00000
  42
-0.0697
  70
32
  0
VERTEX
  5
3F9
  100
AcDbEntity
  8
Layer 1
  62
0
  100
AcDb2dVertex
  10
1.88200
  20
1.36000
  30
0.00000
  42
-0.0642
  70
32
  0
VERTEX
  5
3FA
  100
AcDbEntity
  8
Layer 1
  62
0
  100
AcDb2dVertex
  10
1.88084
  20
1.38279
  30
0.00000
  42
-0.0787
  70
32
  0
VERTEX
  5
3FB
  100
AcDbEntity
  8
Layer 1
  62
0
  100
AcDb2dVertex
  10
1.88200
  20
1.38700
  30
0.00000
  70
32
  0
VERTEX
  5
3FC
  100
AcDbEntity
  8
Layer 1
  62
0
  100
AcDb2dVertex
  10
1.88600
  20
1.39900
  30
0.00000
  70
32
  0
VERTEX
  5
3FD
  100
AcDbEntity
  8
Layer 1
  62
0
  100
AcDb2dVertex
  10
1.91600
  20
1.39900
  30
0.00000
  70
32
  0
VERTEX
  5
3FE
  100
AcDbEntity
  8
Layer 1
  62
0
  100
AcDb2dVertex
  10
1.88600
  20
1.39900
  30
0.00000
  70
32
  0
VERTEX
  5
3FF
  100
AcDbEntity
  8
Layer 1
  62
0
  100
AcDb2dVertex
  10
1.88200
  20
1.49600
  30
0.00000
  70
32
  0
VERTEX
  5
400
  100
AcDbEntity
  8
Layer 1
  62
0
  100
AcDb2dVertex
  10
1.91600
  20
1.49600
  30
0.00000
  70
32
  0
VERTEX
  5
401
  100
AcDbEntity
  8
Layer 1
  62
0
  100
AcDb2dVertex
  10
1.88200
  20
1.49600
  30
0.00000
  70
32
  0
VERTEX
  5
402
  100
AcDbEntity
  8
Layer 1
  62
0
  100
AcDb2dVertex
  10
1.88100
  20
1.59100
  30
0.00000
  70
32
  0
VERTEX
  5
403
  100
AcDbEntity
  8
Layer 1
  62
0
  100
AcDb2dVertex
  10
1.91200
  20
1.59100
  30
0.00000
  70
32
  0
VERTEX
  5
404
  100
AcDbEntity
  8
Layer 1
  62
0
  100
AcDb2dVertex
  10
1.88100
  20
1.59100
  30
0.00000
  42
-0.0273
  70
32
  0
VERTEX
  5
405
  100
AcDbEntity
  8
Layer 1
  62
0
  100
AcDb2dVertex
  10
1.87408
  20
1.62933
  30
0.00000
  70
32
  0
VERTEX
  5
406
  100
AcDbEntity
  8
Layer 1
  62
0
  100
AcDb2dVertex
  10
1.87400
  20
1.63100
  30
0.00000
  70
32
  0
VERTEX
  5
407
  100
AcDbEntity
  8
Layer 1
  62
0
  100
AcDb2dVertex
  10
1.87438
  20
1.63210
  30
0.00000
  70
32
  0
VERTEX
  5
408
  100
AcDbEntity
  8
Layer 1
  62
0
  100
AcDb2dVertex
  10
1.87550
  20
1.63719
  30
0.00000
  70
32
  0
VERTEX
  5
409
  100
AcDbEntity
  8
Layer 1
  62
0
  100
AcDb2dVertex
  10
1.87700
  20
1.64400
  30
0.00000
  42
0.0361
  70
32
  0
VERTEX
  5
40A
  100
AcDbEntity
  8
Layer 1
  62
0
  100
AcDb2dVertex
  10
1.90357
  20
1.65221
  30
0.00000
  70
32
  0
VERTEX
  5
40B
  100
AcDbEntity
  8
Layer 1
  62
0
  100
AcDb2dVertex
  10
1.91400
  20
1.65600
  30
0.00000
  42
-0.0581
  70
32
  0
VERTEX
  5
40C
  100
AcDbEntity
  8
Layer 1
  62
0
  100
AcDb2dVertex
  10
1.95031
  20
1.66592
  30
0.00000
  70
32
  0
VERTEX
  5
40D
  100
AcDbEntity
  8
Layer 1
  62
0
  100
AcDb2dVertex
  10
1.95100
  20
1.66600
  30
0.00000
  42
-0.2291
  70
32
  0
VERTEX
  5
40E
  100
AcDbEntity
  8
Layer 1
  62
0
  100
AcDb2dVertex
  10
1.96994
  20
1.65492
  30
0.00000
  42
-0.1009
  70
32
  0
VERTEX
  5
40F
  100
AcDbEntity
  8
Layer 1
  62
0
  100
AcDb2dVertex
  10
1.98039
  20
1.62998
  30
0.00000
  70
32
  0
VERTEX
  5
410
  100
AcDbEntity
  8
Layer 1
  62
0
  100
AcDb2dVertex
  10
1.98200
  20
1.62200
  30
0.00000
  70
32
  0
VERTEX
  5
411
  100
AcDbEntity
  8
Layer 1
  62
0
  100
AcDb2dVertex
  10
1.91400
  20
1.61400
  30
0.00000
  70
32
  0
VERTEX
  5
412
  100
AcDbEntity
  8
Layer 1
  62
0
  100
AcDb2dVertex
  10
1.98200
  20
1.62200
  30
0.00000
  42
0.0538
  70
32
  0
VERTEX
  5
413
  100
AcDbEntity
  8
Layer 1
  62
0
  100
AcDb2dVertex
  10
1.96757
  20
1.57311
  30
0.00000
  42
0.0167
  70
32
  0
VERTEX
  5
414
  100
AcDbEntity
  8
Layer 1
  62
0
  100
AcDb2dVertex
  10
1.96200
  20
1.53900
  30
0.00000
  42
-0.1176
  70
32
  0
VERTEX
  5
415
  100
AcDbEntity
  8
Layer 1
  62
0
  100
AcDb2dVertex
  10
1.98776
  20
1.52867
  30
0.00000
  42
-0.2199
  70
32
  0
VERTEX
  5
416
  100
AcDbEntity
  8
Layer 1
  62
0
  100
AcDb2dVertex
  10
2.00179
  20
1.50194
  30
0.00000
  70
32
  0
VERTEX
  5
417
  100
AcDbEntity
  8
Layer 1
  62
0
  100
AcDb2dVertex
  10
2.00200
  20
1.49700
  30
0.00000
  70
32
  0
SEQEND
  5
418
  100
AcDbEntity
  8
Layer 1
  62
0
  0
POLYLINE
  5
419
  100
AcDbEntity
  8
Layer 1
  62
0
  100
AcDb2dPolyline
 66
     1
  10
0
  20
0
  30
0
  70
1
  0
VERTEX
  5
41A
  100
AcDbEntity
  8
Layer 1
  62
0
  100
AcDb2dVertex
  10
1.86400
  20
1.43000
  30
0.00000
  42
-0.2353
  70
32
  0
VERTEX
  5
41B
  100
AcDbEntity
  8
Layer 1
  62
0
  100
AcDb2dVertex
  10
1.86005
  20
1.42404
  30
0.00000
  42
-0.0452
  70
32
  0
VERTEX
  5
41C
  100
AcDbEntity
  8
Layer 1
  62
0
  100
AcDb2dVertex
  10
1.85500
  20
1.42100
  30
0.00000
  42
-0.0362
  70
32
  0
VERTEX
  5
41D
  100
AcDbEntity
  8
Layer 1
  62
0
  100
AcDb2dVertex
  10
1.83700
  20
1.41400
  30
0.00000
  42
-0.0106
  70
32
  0
VERTEX
  5
41E
  100
AcDbEntity
  8
Layer 1
  62
0
  100
AcDb2dVertex
  10
1.82484
  20
1.39316
  30
0.00000
  70
32
  0
VERTEX
  5
41F
  100
AcDbEntity
  8
Layer 1
  62
0
  100
AcDb2dVertex
  10
1.81700
  20
1.38000
  30
0.00000
  42
-0.2324
  70
32
  0
VERTEX
  5
420
  100
AcDbEntity
  8
Layer 1
  62
0
  100
AcDb2dVertex
  10
1.77518
  20
1.35541
  30
0.00000
  42
-0.0255
  70
32
  0
VERTEX
  5
421
  100
AcDbEntity
  8
Layer 1
  62
0
  100
AcDb2dVertex
  10
1.76700
  20
1.35500
  30
0.00000
  42
-0.1935
  70
32
  0
VERTEX
  5
422
  100
AcDbEntity
  8
Layer 1
  62
0
  100
AcDb2dVertex
  10
1.72664
  20
1.37137
  30
0.00000
  42
-0.0738
  70
32
  0
VERTEX
  5
423
  100
AcDbEntity
  8
Layer 1
  62
0
  100
AcDb2dVertex
  10
1.70800
  20
1.39500
  30
0.00000
  42
0.0505
  70
32
  0
VERTEX
  5
424
  100
AcDbEntity
  8
Layer 1
  62
0
  100
AcDb2dVertex
  10
1.68637
  20
1.42478
  30
0.00000
  42
0.1231
  70
32
  0
VERTEX
  5
425
  100
AcDbEntity
  8
Layer 1
  62
0
  100
AcDb2dVertex
  10
1.67417
  20
1.43350
  30
0.00000
  42
0.0740
  70
32
  0
VERTEX
  5
426
  100
AcDbEntity
  8
Layer 1
  62
0
  100
AcDb2dVertex
  10
1.67100
  20
1.43400
  30
0.00000
  42
0.0558
  70
32
  0
VERTEX
  5
427
  100
AcDbEntity
  8
Layer 1
  62
0
  100
AcDb2dVertex
  10
1.65038
  20
1.42997
  30
0.00000
  42
0.0200
  70
32
  0
VERTEX
  5
428
  100
AcDbEntity
  8
Layer 1
  62
0
  100
AcDb2dVertex
  10
1.57230
  20
1.40371
  30
0.00000
  70
32
  0
VERTEX
  5
429
  100
AcDbEntity
  8
Layer 1
  62
0
  100
AcDb2dVertex
  10
1.56500
  20
1.40100
  30
0.00000
  42
-0.0257
  70
32
  0
VERTEX
  5
42A
  100
AcDbEntity
  8
Layer 1
  62
0
  100
AcDb2dVertex
  10
1.48072
  20
1.37529
  30
0.00000
  42
-0.0533
  70
32
  0
VERTEX
  5
42B
  100
AcDbEntity
  8
Layer 1
  62
0
  100
AcDb2dVertex
  10
1.43788
  20
1.36900
  30
0.00000
  70
32
  0
VERTEX
  5
42C
  100
AcDbEntity
  8
Layer 1
  62
0
  100
AcDb2dVertex
  10
1.43700
  20
1.36900
  30
0.00000
  42
-0.2075
  70
32
  0
VERTEX
  5
42D
  100
AcDbEntity
  8
Layer 1
  62
0
  100
AcDb2dVertex
  10
1.42560
  20
1.37290
  30
0.00000
  42
-0.1964
  70
32
  0
VERTEX
  5
42E
  100
AcDbEntity
  8
Layer 1
  62
0
  100
AcDb2dVertex
  10
1.42200
  20
1.38400
  30
0.00000
  42
-0.0430
  70
32
  0
VERTEX
  5
42F
  100
AcDbEntity
  8
Layer 1
  62
0
  100
AcDb2dVertex
  10
1.43219
  20
1.38938
  30
0.00000
  70
32
  0
VERTEX
  5
430
  100
AcDbEntity
  8
Layer 1
  62
0
  100
AcDb2dVertex
  10
1.48154
  20
1.41280
  30
0.00000
  70
32
  0
VERTEX
  5
431
  100
AcDbEntity
  8
Layer 1
  62
0
  100
AcDb2dVertex
  10
1.53700
  20
1.43900
  30
0.00000
  42
0.0349
  70
32
  0
VERTEX
  5
432
  100
AcDbEntity
  8
Layer 1
  62
0
  100
AcDb2dVertex
  10
1.60806
  20
1.47638
  30
0.00000
  42
0.0620
  70
32
  0
VERTEX
  5
433
  100
AcDbEntity
  8
Layer 1
  62
0
  100
AcDb2dVertex
  10
1.63990
  20
1.50165
  30
0.00000
  42
0.1207
  70
32
  0
VERTEX
  5
434
  100
AcDbEntity
  8
Layer 1
  62
0
  100
AcDb2dVertex
  10
1.65121
  20
1.52013
  30
0.00000
  42
0.0648
  70
32
  0
VERTEX
  5
435
  100
AcDbEntity
  8
Layer 1
  62
0
  100
AcDb2dVertex
  10
1.65200
  20
1.52600
  30
0.00000
  42
0.0717
  70
32
  0
VERTEX
  5
436
  100
AcDbEntity
  8
Layer 1
  62
0
  100
AcDb2dVertex
  10
1.64900
  20
1.54000
  30
0.00000
  42
-0.0817
  70
32
  0
VERTEX
  5
437
  100
AcDbEntity
  8
Layer 1
  62
0
  100
AcDb2dVertex
  10
1.64600
  20
1.55400
  30
0.00000
  42
-0.2187
  70
32
  0
VERTEX
  5
438
  100
AcDbEntity
  8
Layer 1
  62
0
  100
AcDb2dVertex
  10
1.65547
  20
1.57368
  30
0.00000
  42
-0.0931
  70
32
  0
VERTEX
  5
439
  100
AcDbEntity
  8
Layer 1
  62
0
  100
AcDb2dVertex
  10
1.67700
  20
1.58600
  30
0.00000
  42
0.0177
  70
32
  0
VERTEX
  5
43A
  100
AcDbEntity
  8
Layer 1
  62
0
  100
AcDb2dVertex
  10
1.72700
  20
1.59900
  30
0.00000
  70
32
  0
VERTEX
  5
43B
  100
AcDbEntity
  8
Layer 1
  62
0
  100
AcDb2dVertex
  10
1.75200
  20
1.51600
  30
0.00000
  70
32
  0
VERTEX
  5
43C
  100
AcDbEntity
  8
Layer 1
  62
0
  100
AcDb2dVertex
  10
1.72700
  20
1.59900
  30
0.00000
  42
0.0519
  70
32
  0
VERTEX
  5
43D
  100
AcDbEntity
  8
Layer 1
  62
0
  100
AcDb2dVertex
  10
1.76796
  20
1.61011
  30
0.00000
  70
32
  0
VERTEX
  5
43E
  100
AcDbEntity
  8
Layer 1
  62
0
  100
AcDb2dVertex
  10
1.78600
  20
1.61700
  30
0.00000
  42
0.1022
  70
32
  0
VERTEX
  5
43F
  100
AcDbEntity
  8
Layer 1
  62
0
  100
AcDb2dVertex
  10
1.79539
  20
1.63737
  30
0.00000
  70
32
  0
VERTEX
  5
440
  100
AcDbEntity
  8
Layer 1
  62
0
  100
AcDb2dVertex
  10
1.79700
  20
1.64400
  30
0.00000
  42
-0.1714
  70
32
  0
VERTEX
  5
441
  100
AcDbEntity
  8
Layer 1
  62
0
  100
AcDb2dVertex
  10
1.80432
  20
1.65967
  30
0.00000
  42
-0.1916
  70
32
  0
VERTEX
  5
442
  100
AcDbEntity
  8
Layer 1
  62
0
  100
AcDb2dVertex
  10
1.81600
  20
1.66400
  30
0.00000
  42
-0.1948
  70
32
  0
VERTEX
  5
443
  100
AcDbEntity
  8
Layer 1
  62
0
  100
AcDb2dVertex
  10
1.83059
  20
1.65915
  30
0.00000
  42
-0.2036
  70
32
  0
VERTEX
  5
444
  100
AcDbEntity
  8
Layer 1
  62
0
  100
AcDb2dVertex
  10
1.83599
  20
1.64481
  30
0.00000
  70
32
  0
VERTEX
  5
445
  100
AcDbEntity
  8
Layer 1
  62
0
  100
AcDb2dVertex
  10
1.83600
  20
1.64400
  30
0.00000
  42
-0.0774
  70
32
  0
VERTEX
  5
446
  100
AcDbEntity
  8
Layer 1
  62
0
  100
AcDb2dVertex
  10
1.83256
  20
1.62769
  30
0.00000
  70
32
  0
VERTEX
  5
447
  100
AcDbEntity
  8
Layer 1
  62
0
  100
AcDb2dVertex
  10
1.83200
  20
1.62600
  30
0.00000
  42
0.0598
  70
32
  0
VERTEX
  5
448
  100
AcDbEntity
  8
Layer 1
  62
0
  100
AcDb2dVertex
  10
1.82900
  20
1.60700
  30
0.00000
  42
0.1506
  70
32
  0
VERTEX
  5
449
  100
AcDbEntity
  8
Layer 1
  62
0
  100
AcDb2dVertex
  10
1.84500
  20
1.55900
  30
0.00000
  42
-0.0543
  70
32
  0
VERTEX
  5
44A
  100
AcDbEntity
  8
Layer 1
  62
0
  100
AcDb2dVertex
  10
1.85907
  20
1.53006
  30
0.00000
  42
-0.0753
  70
32
  0
VERTEX
  5
44B
  100
AcDbEntity
  8
Layer 1
  62
0
  100
AcDb2dVertex
  10
1.86100
  20
1.51900
  30
0.00000
  42
-0.2405
  70
32
  0
VERTEX
  5
44C
  100
AcDbEntity
  8
Layer 1
  62
0
  100
AcDb2dVertex
  10
1.84500
  20
1.48500
  30
0.00000
  42
0.1373
  70
32
  0
VERTEX
  5
44D
  100
AcDbEntity
  8
Layer 1
  62
0
  100
AcDb2dVertex
  10
1.83059
  20
1.47032
  30
0.00000
  42
0.1112
  70
32
  0
VERTEX
  5
44E
  100
AcDbEntity
  8
Layer 1
  62
0
  100
AcDb2dVertex
  10
1.82900
  20
1.46400
  30
0.00000
  42
0.1770
  70
32
  0
VERTEX
  5
44F
  100
AcDbEntity
  8
Layer 1
  62
0
  100
AcDb2dVertex
  10
1.83339
  20
1.44916
  30
0.00000
  42
0.1904
  70
32
  0
VERTEX
  5
450
  100
AcDbEntity
  8
Layer 1
  62
0
  100
AcDb2dVertex
  10
1.84716
  20
1.44245
  30
0.00000
  42
0.0353
  70
32
  0
VERTEX
  5
451
  100
AcDbEntity
  8
Layer 1
  62
0
  100
AcDb2dVertex
  10
1.85400
  20
1.44200
  30
0.00000
  70
32
  0
VERTEX
  5
452
  100
AcDbEntity
  8
Layer 1
  62
0
  100
AcDb2dVertex
  10
1.86400
  20
1.43000
  30
0.00000
  70
32
  0
SEQEND
  5
453
  100
AcDbEntity
  8
Layer 1
  62
0
  0
POLYLINE
  5
454
  100
AcDbEntity
  8
Layer 1
  62
0
  100
AcDb2dPolyline
 66
     1
  10
0
  20
0
  30
0
  70
1
  0
VERTEX
  5
455
  100
AcDbEntity
  8
Layer 1
  62
0
  100
AcDb2dVertex
  10
1.59200
  20
1.54700
  30
0.00000
  42
-0.1731
  70
32
  0
VERTEX
  5
456
  100
AcDbEntity
  8
Layer 1
  62
0
  100
AcDb2dVertex
  10
1.58878
  20
1.53518
  30
0.00000
  42
-0.1573
  70
32
  0
VERTEX
  5
457
  100
AcDbEntity
  8
Layer 1
  62
0
  100
AcDb2dVertex
  10
1.58200
  20
1.53100
  30
0.00000
  42
-0.1520
  70
32
  0
VERTEX
  5
458
  100
AcDbEntity
  8
Layer 1
  62
0
  100
AcDb2dVertex
  10
1.56815
  20
1.52891
  30
0.00000
  42
-0.0444
  70
32
  0
VERTEX
  5
459
  100
AcDbEntity
  8
Layer 1
  62
0
  100
AcDb2dVertex
  10
1.55700
  20
1.53100
  30
0.00000
  42
0.0203
  70
32
  0
VERTEX
  5
45A
  100
AcDbEntity
  8
Layer 1
  62
0
  100
AcDb2dVertex
  10
1.53700
  20
1.53200
  30
0.00000
  42
0.1408
  70
32
  0
VERTEX
  5
45B
  100
AcDbEntity
  8
Layer 1
  62
0
  100
AcDb2dVertex
  10
1.52641
  20
1.52761
  30
0.00000
  42
0.0459
  70
32
  0
VERTEX
  5
45C
  100
AcDbEntity
  8
Layer 1
  62
0
  100
AcDb2dVertex
  10
1.51400
  20
1.51700
  30
0.00000
  42
-0.1611
  70
32
  0
VERTEX
  5
45D
  100
AcDbEntity
  8
Layer 1
  62
0
  100
AcDb2dVertex
  10
1.48758
  20
1.50252
  30
0.00000
  42
-0.0396
  70
32
  0
VERTEX
  5
45E
  100
AcDbEntity
  8
Layer 1
  62
0
  100
AcDb2dVertex
  10
1.48100
  20
1.50200
  30
0.00000
  42
-0.1020
  70
32
  0
VERTEX
  5
45F
  100
AcDbEntity
  8
Layer 1
  62
0
  100
AcDb2dVertex
  10
1.46351
  20
1.50690
  30
0.00000
  42
-0.0229
  70
32
  0
VERTEX
  5
460
  100
AcDbEntity
  8
Layer 1
  62
0
  100
AcDb2dVertex
  10
1.44800
  20
1.51500
  30
0.00000
  42
-0.0871
  70
32
  0
VERTEX
  5
461
  100
AcDbEntity
  8
Layer 1
  62
0
  100
AcDb2dVertex
  10
1.43057
  20
1.52984
  30
0.00000
  42
-0.1609
  70
32
  0
VERTEX
  5
462
  100
AcDbEntity
  8
Layer 1
  62
0
  100
AcDb2dVertex
  10
1.42700
  20
1.53900
  30
0.00000
  42
-0.3426
  70
32
  0
VERTEX
  5
463
  100
AcDbEntity
  8
Layer 1
  62
0
  100
AcDb2dVertex
  10
1.43514
  20
1.54858
  30
0.00000
  70
32
  0
VERTEX
  5
464
  100
AcDbEntity
  8
Layer 1
  62
0
  100
AcDb2dVertex
  10
1.43700
  20
1.54900
  30
0.00000
  70
32
  0
VERTEX
  5
465
  100
AcDbEntity
  8
Layer 1
  62
0
  100
AcDb2dVertex
  10
1.47400
  20
1.53700
  30
0.00000
  42
0.1881
  70
32
  0
VERTEX
  5
466
  100
AcDbEntity
  8
Layer 1
  62
0
  100
AcDb2dVertex
  10
1.48786
  20
1.54327
  30
0.00000
  42
0.0846
  70
32
  0
VERTEX
  5
467
  100
AcDbEntity
  8
Layer 1
  62
0
  100
AcDb2dVertex
  10
1.50360
  20
1.56524
  30
0.00000
  70
32
  0
VERTEX
  5
468
  100
AcDbEntity
  8
Layer 1
  62
0
  100
AcDb2dVertex
  10
1.50700
  20
1.57200
  30
0.00000
  70
32
  0
VERTEX
  5
469
  100
AcDbEntity
  8
Layer 1
  62
0
  100
AcDb2dVertex
  10
1.53400
  20
1.56200
  30
0.00000
  70
32
  0
VERTEX
  5
46A
  100
AcDbEntity
  8
Layer 1
  62
0
  100
AcDb2dVertex
  10
1.50700
  20
1.57200
  30
0.00000
  42
0.0749
  70
32
  0
VERTEX
  5
46B
  100
AcDbEntity
  8
Layer 1
  62
0
  100
AcDb2dVertex
  10
1.51200
  20
1.60200
  30
0.00000
  42
0.3231
  70
32
  0
VERTEX
  5
46C
  100
AcDbEntity
  8
Layer 1
  62
0
  100
AcDb2dVertex
  10
1.49900
  20
1.62200
  30
0.00000
  42
0.0733
  70
32
  0
VERTEX
  5
46D
  100
AcDbEntity
  8
Layer 1
  62
0
  100
AcDb2dVertex
  10
1.47200
  20
1.63200
  30
0.00000
  70
32
  0
VERTEX
  5
46E
  100
AcDbEntity
  8
Layer 1
  62
0
  100
AcDb2dVertex
  10
1.46700
  20
1.64200
  30
0.00000
  42
-0.3090
  70
32
  0
VERTEX
  5
46F
  100
AcDbEntity
  8
Layer 1
  62
0
  100
AcDb2dVertex
  10
1.47308
  20
1.65069
  30
0.00000
  42
-0.1021
  70
32
  0
VERTEX
  5
470
  100
AcDbEntity
  8
Layer 1
  62
0
  100
AcDb2dVertex
  10
1.49083
  20
1.65396
  30
0.00000
  70
32
  0
VERTEX
  5
471
  100
AcDbEntity
  8
Layer 1
  62
0
  100
AcDb2dVertex
  10
1.49400
  20
1.65400
  30
0.00000
  42
-0.1738
  70
32
  0
VERTEX
  5
472
  100
AcDbEntity
  8
Layer 1
  62
0
  100
AcDb2dVertex
  10
1.52705
  20
1.64196
  30
0.00000
  42
-0.0314
  70
32
  0
VERTEX
  5
473
  100
AcDbEntity
  8
Layer 1
  62
0
  100
AcDb2dVertex
  10
1.53600
  20
1.63400
  30
0.00000
  42
-0.1645
  70
32
  0
VERTEX
  5
474
  100
AcDbEntity
  8
Layer 1
  62
0
  100
AcDb2dVertex
  10
1.54983
  20
1.60253
  30
0.00000
  42
-0.0645
  70
32
  0
VERTEX
  5
475
  100
AcDbEntity
  8
Layer 1
  62
0
  100
AcDb2dVertex
  10
1.54900
  20
1.58900
  30
0.00000
  42
0.1441
  70
32
  0
VERTEX
  5
476
  100
AcDbEntity
  8
Layer 1
  62
0
  100
AcDb2dVertex
  10
1.55717
  20
1.57925
  30
0.00000
  42
0.0399
  70
32
  0
VERTEX
  5
477
  100
AcDbEntity
  8
Layer 1
  62
0
  100
AcDb2dVertex
  10
1.57200
  20
1.57000
  30
0.00000
  42
-0.1310
  70
32
  0
VERTEX
  5
478
  100
AcDbEntity
  8
Layer 1
  62
0
  100
AcDb2dVertex
  10
1.58808
  20
1.55857
  30
0.00000
  42
-0.1656
  70
32
  0
VERTEX
  5
479
  100
AcDbEntity
  8
Layer 1
  62
0
  100
AcDb2dVertex
  10
1.59200
  20
1.54700
  30
0.00000
  70
32
  0
SEQEND
  5
47A
  100
AcDbEntity
  8
Layer 1
  62
0
  0
POLYLINE
  5
47B
  100
AcDbEntity
  8
Layer 1
  62
0
  100
AcDb2dPolyline
 66
     1
  10
0
  20
0
  30
0
  70
1
  0
VERTEX
  5
47C
  100
AcDbEntity
  8
Layer 1
  62
0
  100
AcDb2dVertex
  10
2.00700
  20
1.29500
  30
0.00000
  70
32
  0
VERTEX
  5
47D
  100
AcDbEntity
  8
Layer 1
  62
0
  100
AcDb2dVertex
  10
2.00700
  20
1.26400
  30
0.00000
  70
32
  0
VERTEX
  5
47E
  100
AcDbEntity
  8
Layer 1
  62
0
  100
AcDb2dVertex
  10
1.96400
  20
1.26200
  30
0.00000
  70
32
  0
VERTEX
  5
47F
  100
AcDbEntity
  8
Layer 1
  62
0
  100
AcDb2dVertex
  10
2.00700
  20
1.26400
  30
0.00000
  70
32
  0
VERTEX
  5
480
  100
AcDbEntity
  8
Layer 1
  62
0
  100
AcDb2dVertex
  10
2.00700
  20
1.23000
  30
0.00000
  42
-0.3191
  70
32
  0
VERTEX
  5
481
  100
AcDbEntity
  8
Layer 1
  62
0
  100
AcDb2dVertex
  10
2.00101
  20
1.22164
  30
0.00000
  42
-0.1027
  70
32
  0
VERTEX
  5
482
  100
AcDbEntity
  8
Layer 1
  62
0
  100
AcDb2dVertex
  10
1.98400
  20
1.21900
  30
0.00000
  42
-0.0695
  70
32
  0
VERTEX
  5
483
  100
AcDbEntity
  8
Layer 1
  62
0
  100
AcDb2dVertex
  10
1.91226
  20
1.23015
  30
0.00000
  42
-0.0274
  70
32
  0
VERTEX
  5
484
  100
AcDbEntity
  8
Layer 1
  62
0
  100
AcDb2dVertex
  10
1.86700
  20
1.24600
  30
0.00000
  42
-0.0150
  70
32
  0
VERTEX
  5
485
  100
AcDbEntity
  8
Layer 1
  62
0
  100
AcDb2dVertex
  10
1.81497
  20
1.27003
  30
0.00000
  42
-0.1098
  70
32
  0
VERTEX
  5
486
  100
AcDbEntity
  8
Layer 1
  62
0
  100
AcDb2dVertex
  10
1.80994
  20
1.27350
  30
0.00000
  70
32
  0
VERTEX
  5
487
  100
AcDbEntity
  8
Layer 1
  62
0
  100
AcDb2dVertex
  10
1.81012
  20
1.27387
  30
0.00000
  70
32
  0
VERTEX
  5
488
  100
AcDbEntity
  8
Layer 1
  62
0
  100
AcDb2dVertex
  10
1.81100
  20
1.27400
  30
0.00000
  42
0.2448
  70
32
  0
VERTEX
  5
489
  100
AcDbEntity
  8
Layer 1
  62
0
  100
AcDb2dVertex
  10
1.78863
  20
1.26228
  30
0.00000
  70
32
  0
VERTEX
  5
48A
  100
AcDbEntity
  8
Layer 1
  62
0
  100
AcDb2dVertex
  10
1.78700
  20
1.26000
  30
0.00000
  42
-0.1449
  70
32
  0
VERTEX
  5
48B
  100
AcDbEntity
  8
Layer 1
  62
0
  100
AcDb2dVertex
  10
1.77635
  20
1.26474
  30
0.00000
  70
32
  0
VERTEX
  5
48C
  100
AcDbEntity
  8
Layer 1
  62
0
  100
AcDb2dVertex
  10
1.77600
  20
1.26500
  30
0.00000
  42
0.1751
  70
32
  0
VERTEX
  5
48D
  100
AcDbEntity
  8
Layer 1
  62
0
  100
AcDb2dVertex
  10
1.76400
  20
1.27000
  30
0.00000
  42
0.2220
  70
32
  0
VERTEX
  5
48E
  100
AcDbEntity
  8
Layer 1
  62
0
  100
AcDb2dVertex
  10
1.75284
  20
1.26419
  30
0.00000
  42
0.0430
  70
32
  0
VERTEX
  5
48F
  100
AcDbEntity
  8
Layer 1
  62
0
  100
AcDb2dVertex
  10
1.74900
  20
1.25900
  30
0.00000
  42
-0.1273
  70
32
  0
VERTEX
  5
490
  100
AcDbEntity
  8
Layer 1
  62
0
  100
AcDb2dVertex
  10
1.73904
  20
1.24620
  30
0.00000
  70
32
  0
VERTEX
  5
491
  100
AcDbEntity
  8
Layer 1
  62
0
  100
AcDb2dVertex
  10
1.73700
  20
1.24500
  30
0.00000
  42
0.0463
  70
32
  0
VERTEX
  5
492
  100
AcDbEntity
  8
Layer 1
  62
0
  100
AcDb2dVertex
  10
1.68444
  20
1.23512
  30
0.00000
  42
0.0223
  70
32
  0
VERTEX
  5
493
  100
AcDbEntity
  8
Layer 1
  62
0
  100
AcDb2dVertex
  10
1.60400
  20
1.20900
  30
0.00000
  70
32
  0
VERTEX
  5
494
  100
AcDbEntity
  8
Layer 1
  62
0
  100
AcDb2dVertex
  10
1.57700
  20
1.21500
  30
0.00000
  42
0.2899
  70
32
  0
VERTEX
  5
495
  100
AcDbEntity
  8
Layer 1
  62
0
  100
AcDb2dVertex
  10
1.56400
  20
1.20600
  30
0.00000
  42
-0.2057
  70
32
  0
VERTEX
  5
496
  100
AcDbEntity
  8
Layer 1
  62
0
  100
AcDb2dVertex
  10
1.55543
  20
1.19752
  30
0.00000
  42
-0.0778
  70
32
  0
VERTEX
  5
497
  100
AcDbEntity
  8
Layer 1
  62
0
  100
AcDb2dVertex
  10
1.55200
  20
1.19700
  30
0.00000
  42
-0.1040
  70
32
  0
VERTEX
  5
498
  100
AcDbEntity
  8
Layer 1
  62
0
  100
AcDb2dVertex
  10
1.53782
  20
1.20199
  30
0.00000
  70
32
  0
VERTEX
  5
499
  100
AcDbEntity
  8
Layer 1
  62
0
  100
AcDb2dVertex
  10
1.53600
  20
1.20300
  30
0.00000
  42
0.1089
  70
32
  0
VERTEX
  5
49A
  100
AcDbEntity
  8
Layer 1
  62
0
  100
AcDb2dVertex
  10
1.51600
  20
1.20900
  30
0.00000
  42
0.1071
  70
32
  0
VERTEX
  5
49B
  100
AcDbEntity
  8
Layer 1
  62
0
  100
AcDb2dVertex
  10
1.49900
  20
1.20500
  30
0.00000
  42
-0.0604
  70
32
  0
VERTEX
  5
49C
  100
AcDbEntity
  8
Layer 1
  62
0
  100
AcDb2dVertex
  10
1.48400
  20
1.20200
  30
0.00000
  42
-0.2079
  70
32
  0
VERTEX
  5
49D
  100
AcDbEntity
  8
Layer 1
  62
0
  100
AcDb2dVertex
  10
1.45644
  20
1.21442
  30
0.00000
  42
-0.0605
  70
32
  0
VERTEX
  5
49E
  100
AcDbEntity
  8
Layer 1
  62
0
  100
AcDb2dVertex
  10
1.44700
  20
1.22700
  30
0.00000
  42
-0.1020
  70
32
  0
VERTEX
  5
49F
  100
AcDbEntity
  8
Layer 1
  62
0
  100
AcDb2dVertex
  10
1.43256
  20
1.26619
  30
0.00000
  42
-0.0313
  70
32
  0
VERTEX
  5
4A0
  100
AcDbEntity
  8
Layer 1
  62
0
  100
AcDb2dVertex
  10
1.43200
  20
1.27500
  30
0.00000
  70
32
  0
VERTEX
  5
4A1
  100
AcDbEntity
  8
Layer 1
  62
0
  100
AcDb2dVertex
  10
1.44100
  20
1.28500
  30
0.00000
  42
0.0121
  70
32
  0
VERTEX
  5
4A2
  100
AcDbEntity
  8
Layer 1
  62
0
  100
AcDb2dVertex
  10
1.45728
  20
1.27002
  30
0.00000
  70
32
  0
VERTEX
  5
4A3
  100
AcDbEntity
  8
Layer 1
  62
0
  100
AcDb2dVertex
  10
1.46400
  20
1.26400
  30
0.00000
  42
-0.1009
  70
32
  0
VERTEX
  5
4A4
  100
AcDbEntity
  8
Layer 1
  62
0
  100
AcDb2dVertex
  10
1.47534
  20
1.25814
  30
0.00000
  42
-0.0161
  70
32
  0
VERTEX
  5
4A5
  100
AcDbEntity
  8
Layer 1
  62
0
  100
AcDb2dVertex
  10
1.49600
  20
1.24200
  30
0.00000
  70
32
  0
VERTEX
  5
4A6
  100
AcDbEntity
  8
Layer 1
  62
0
  100
AcDb2dVertex
  10
1.50400
  20
1.23900
  30
0.00000
  42
0.2134
  70
32
  0
VERTEX
  5
4A7
  100
AcDbEntity
  8
Layer 1
  62
0
  100
AcDb2dVertex
  10
1.51792
  20
1.24568
  30
0.00000
  70
32
  0
VERTEX
  5
4A8
  100
AcDbEntity
  8
Layer 1
  62
0
  100
AcDb2dVertex
  10
1.52000
  20
1.24800
  30
0.00000
  42
-0.1488
  70
32
  0
VERTEX
  5
4A9
  100
AcDbEntity
  8
Layer 1
  62
0
  100
AcDb2dVertex
  10
1.53157
  20
1.25666
  30
0.00000
  70
32
  0
VERTEX
  5
4AA
  100
AcDbEntity
  8
Layer 1
  62
0
  100
AcDb2dVertex
  10
1.53400
  20
1.25700
  30
0.00000
  42
-0.1789
  70
32
  0
VERTEX
  5
4AB
  100
AcDbEntity
  8
Layer 1
  62
0
  100
AcDb2dVertex
  10
1.54413
  20
1.25184
  30
0.00000
  70
32
  0
VERTEX
  5
4AC
  100
AcDbEntity
  8
Layer 1
  62
0
  100
AcDb2dVertex
  10
1.54500
  20
1.25100
  30
0.00000
  42
0.1461
  70
32
  0
VERTEX
  5
4AD
  100
AcDbEntity
  8
Layer 1
  62
0
  100
AcDb2dVertex
  10
1.55373
  20
1.24523
  30
0.00000
  70
32
  0
VERTEX
  5
4AE
  100
AcDbEntity
  8
Layer 1
  62
0
  100
AcDb2dVertex
  10
1.55600
  20
1.24500
  30
0.00000
  42
0.2003
  70
32
  0
VERTEX
  5
4AF
  100
AcDbEntity
  8
Layer 1
  62
0
  100
AcDb2dVertex
  10
1.56203
  20
1.24884
  30
0.00000
  42
0.0507
  70
32
  0
VERTEX
  5
4B0
  100
AcDbEntity
  8
Layer 1
  62
0
  100
AcDb2dVertex
  10
1.56700
  20
1.25600
  30
0.00000
  42
-0.1923
  70
32
  0
VERTEX
  5
4B1
  100
AcDbEntity
  8
Layer 1
  62
0
  100
AcDb2dVertex
  10
1.58330
  20
1.26579
  30
0.00000
  42
-0.0535
  70
32
  0
VERTEX
  5
4B2
  100
AcDbEntity
  8
Layer 1
  62
0
  100
AcDb2dVertex
  10
1.59600
  20
1.26700
  30
0.00000
  42
0.1352
  70
32
  0
VERTEX
  5
4B3
  100
AcDbEntity
  8
Layer 1
  62
0
  100
AcDb2dVertex
  10
1.67162
  20
1.28844
  30
0.00000
  42
0.0165
  70
32
  0
VERTEX
  5
4B4
  100
AcDbEntity
  8
Layer 1
  62
0
  100
AcDb2dVertex
  10
1.68200
  20
1.29500
  30
0.00000
  42
0.0166
  70
32
  0
VERTEX
  5
4B5
  100
AcDbEntity
  8
Layer 1
  62
0
  100
AcDb2dVertex
  10
1.72019
  20
1.31959
  30
0.00000
  70
32
  0
VERTEX
  5
4B6
  100
AcDbEntity
  8
Layer 1
  62
0
  100
AcDb2dVertex
  10
1.72221
  20
1.32140
  30
0.00000
  70
32
  0
VERTEX
  5
4B7
  100
AcDbEntity
  8
Layer 1
  62
0
  100
AcDb2dVertex
  10
1.72239
  20
1.32185
  30
0.00000
  70
32
  0
VERTEX
  5
4B8
  100
AcDbEntity
  8
Layer 1
  62
0
  100
AcDb2dVertex
  10
1.72200
  20
1.32200
  30
0.00000
  42
-0.2573
  70
32
  0
VERTEX
  5
4B9
  100
AcDbEntity
  8
Layer 1
  62
0
  100
AcDb2dVertex
  10
1.73600
  20
1.31500
  30
0.00000
  42
0.2397
  70
32
  0
VERTEX
  5
4BA
  100
AcDbEntity
  8
Layer 1
  62
0
  100
AcDb2dVertex
  10
1.74700
  20
1.30900
  30
0.00000
  42
0.3012
  70
32
  0
VERTEX
  5
4BB
  100
AcDbEntity
  8
Layer 1
  62
0
  100
AcDb2dVertex
  10
1.75999
  20
1.31725
  30
0.00000
  42
0.0425
  70
32
  0
VERTEX
  5
4BC
  100
AcDbEntity
  8
Layer 1
  62
0
  100
AcDb2dVertex
  10
1.76200
  20
1.32200
  30
0.00000
  42
-0.1994
  70
32
  0
VERTEX
  5
4BD
  100
AcDbEntity
  8
Layer 1
  62
0
  100
AcDb2dVertex
  10
1.76856
  20
1.33297
  30
0.00000
  42
-0.1474
  70
32
  0
VERTEX
  5
4BE
  100
AcDbEntity
  8
Layer 1
  62
0
  100
AcDb2dVertex
  10
1.77600
  20
1.33500
  30
0.00000
  42
0.0927
  70
32
  0
VERTEX
  5
4BF
  100
AcDbEntity
  8
Layer 1
  62
0
  100
AcDb2dVertex
  10
1.90179
  20
1.30513
  30
0.00000
  42
0.0476
  70
32
  0
VERTEX
  5
4C0
  100
AcDbEntity
  8
Layer 1
  62
0
  100
AcDb2dVertex
  10
1.99200
  20
1.30900
  30
0.00000
  70
32
  0
VERTEX
  5
4C1
  100
AcDbEntity
  8
Layer 1
  62
0
  100
AcDb2dVertex
  10
2.00700
  20
1.29500
  30
0.00000
  70
32
  0
SEQEND
  5
4C2
  100
AcDbEntity
  8
Layer 1
  62
0
  0
POLYLINE
  5
4C3
  100
AcDbEntity
  8
Layer 1
  62
0
  100
AcDb2dPolyline
 66
     1
  10
0
  20
0
  30
0
  70
1
  0
VERTEX
  5
4C4
  100
AcDbEntity
  8
Layer 1
  62
0
  100
AcDb2dVertex
  10
1.41400
  20
1.61900
  30
0.00000
  42
-0.1207
  70
32
  0
VERTEX
  5
4C5
  100
AcDbEntity
  8
Layer 1
  62
0
  100
AcDb2dVertex
  10
1.41153
  20
1.60514
  30
0.00000
  42
-0.1789
  70
32
  0
VERTEX
  5
4C6
  100
AcDbEntity
  8
Layer 1
  62
0
  100
AcDb2dVertex
  10
1.40700
  20
1.60100
  30
0.00000
  42
-0.3166
  70
32
  0
VERTEX
  5
4C7
  100
AcDbEntity
  8
Layer 1
  62
0
  100
AcDb2dVertex
  10
1.40069
  20
1.59889
  30
0.00000
  42
-0.0619
  70
32
  0
VERTEX
  5
4C8
  100
AcDbEntity
  8
Layer 1
  62
0
  100
AcDb2dVertex
  10
1.39400
  20
1.60100
  30
0.00000
  42
0.0232
  70
32
  0
VERTEX
  5
4C9
  100
AcDbEntity
  8
Layer 1
  62
0
  100
AcDb2dVertex
  10
1.37400
  20
1.60200
  30
0.00000
  42
0.3492
  70
32
  0
VERTEX
  5
4CA
  100
AcDbEntity
  8
Layer 1
  62
0
  100
AcDb2dVertex
  10
1.35893
  20
1.59123
  30
0.00000
  42
0.0853
  70
32
  0
VERTEX
  5
4CB
  100
AcDbEntity
  8
Layer 1
  62
0
  100
AcDb2dVertex
  10
1.35700
  20
1.57800
  30
0.00000
  42
-0.1347
  70
32
  0
VERTEX
  5
4CC
  100
AcDbEntity
  8
Layer 1
  62
0
  100
AcDb2dVertex
  10
1.35340
  20
1.56133
  30
0.00000
  42
-0.2741
  70
32
  0
VERTEX
  5
4CD
  100
AcDbEntity
  8
Layer 1
  62
0
  100
AcDb2dVertex
  10
1.33950
  20
1.55400
  30
0.00000
  70
32
  0
VERTEX
  5
4CE
  100
AcDbEntity
  8
Layer 1
  62
0
  100
AcDb2dVertex
  10
1.33900
  20
1.55400
  30
0.00000
  42
-0.2813
  70
32
  0
VERTEX
  5
4CF
  100
AcDbEntity
  8
Layer 1
  62
0
  100
AcDb2dVertex
  10
1.32567
  20
1.56215
  30
0.00000
  42
-0.0819
  70
32
  0
VERTEX
  5
4D0
  100
AcDbEntity
  8
Layer 1
  62
0
  100
AcDb2dVertex
  10
1.32100
  20
1.57500
  30
0.00000
  42
0.0923
  70
32
  0
VERTEX
  5
4D1
  100
AcDbEntity
  8
Layer 1
  62
0
  100
AcDb2dVertex
  10
1.31387
  20
1.59202
  30
0.00000
  42
0.2689
  70
32
  0
VERTEX
  5
4D2
  100
AcDbEntity
  8
Layer 1
  62
0
  100
AcDb2dVertex
  10
1.30651
  20
1.59607
  30
0.00000
  70
32
  0
VERTEX
  5
4D3
  100
AcDbEntity
  8
Layer 1
  62
0
  100
AcDb2dVertex
  10
1.30600
  20
1.59600
  30
0.00000
  70
32
  0
VERTEX
  5
4D4
  100
AcDbEntity
  8
Layer 1
  62
0
  100
AcDb2dVertex
  10
1.29397
  20
1.59357
  30
0.00000
  70
32
  0
VERTEX
  5
4D5
  100
AcDbEntity
  8
Layer 1
  62
0
  100
AcDb2dVertex
  10
1.28159
  20
1.59112
  30
0.00000
  70
32
  0
VERTEX
  5
4D6
  100
AcDbEntity
  8
Layer 1
  62
0
  100
AcDb2dVertex
  10
1.27907
  20
1.59075
  30
0.00000
  70
32
  0
VERTEX
  5
4D7
  100
AcDbEntity
  8
Layer 1
  62
0
  100
AcDb2dVertex
  10
1.27873
  20
1.59079
  30
0.00000
  70
32
  0
VERTEX
  5
4D8
  100
AcDbEntity
  8
Layer 1
  62
0
  100
AcDb2dVertex
  10
1.27900
  20
1.59100
  30
0.00000
  42
-0.3325
  70
32
  0
VERTEX
  5
4D9
  100
AcDbEntity
  8
Layer 1
  62
0
  100
AcDb2dVertex
  10
1.26505
  20
1.59907
  30
0.00000
  42
-0.1080
  70
32
  0
VERTEX
  5
4DA
  100
AcDbEntity
  8
Layer 1
  62
0
  100
AcDb2dVertex
  10
1.26104
  20
1.61898
  30
0.00000
  70
32
  0
VERTEX
  5
4DB
  100
AcDbEntity
  8
Layer 1
  62
0
  100
AcDb2dVertex
  10
1.26100
  20
1.62200
  30
0.00000
  42
-0.1516
  70
32
  0
VERTEX
  5
4DC
  100
AcDbEntity
  8
Layer 1
  62
0
  100
AcDb2dVertex
  10
1.26455
  20
1.63659
  30
0.00000
  42
-0.2579
  70
32
  0
VERTEX
  5
4DD
  100
AcDbEntity
  8
Layer 1
  62
0
  100
AcDb2dVertex
  10
1.27600
  20
1.64200
  30
0.00000
  70
32
  0
VERTEX
  5
4DE
  100
AcDbEntity
  8
Layer 1
  62
0
  100
AcDb2dVertex
  10
1.33600
  20
1.63600
  30
0.00000
  70
32
  0
VERTEX
  5
4DF
  100
AcDbEntity
  8
Layer 1
  62
0
  100
AcDb2dVertex
  10
1.39200
  20
1.64700
  30
0.00000
  42
-0.1965
  70
32
  0
VERTEX
  5
4E0
  100
AcDbEntity
  8
Layer 1
  62
0
  100
AcDb2dVertex
  10
1.40694
  20
1.64198
  30
0.00000
  42
-0.1704
  70
32
  0
VERTEX
  5
4E1
  100
AcDbEntity
  8
Layer 1
  62
0
  100
AcDb2dVertex
  10
1.41344
  20
1.62745
  30
0.00000
  42
-0.0360
  70
32
  0
VERTEX
  5
4E2
  100
AcDbEntity
  8
Layer 1
  62
0
  100
AcDb2dVertex
  10
1.41400
  20
1.61900
  30
0.00000
  70
32
  0
SEQEND
  5
4E3
  100
AcDbEntity
  8
Layer 1
  62
0
  0
POLYLINE
  5
4E4
  100
AcDbEntity
  8
Layer 1
  62
0
  100
AcDb2dPolyline
 66
     1
  10
0
  20
0
  30
0
  70
1
  0
VERTEX
  5
4E5
  100
AcDbEntity
  8
Layer 1
  62
0
  100
AcDb2dVertex
  10
2.01400
  20
1.16400
  30
0.00000
  42
-0.1167
  70
32
  0
VERTEX
  5
4E6
  100
AcDbEntity
  8
Layer 1
  62
0
  100
AcDb2dVertex
  10
2.01008
  20
1.14337
  30
0.00000
  42
-0.2712
  70
32
  0
VERTEX
  5
4E7
  100
AcDbEntity
  8
Layer 1
  62
0
  100
AcDb2dVertex
  10
1.99263
  20
1.13195
  30
0.00000
  42
-0.0512
  70
32
  0
VERTEX
  5
4E8
  100
AcDbEntity
  8
Layer 1
  62
0
  100
AcDb2dVertex
  10
1.98400
  20
1.13200
  30
0.00000
  70
32
  0
VERTEX
  5
4E9
  100
AcDbEntity
  8
Layer 1
  62
0
  100
AcDb2dVertex
  10
1.89200
  20
1.13900
  30
0.00000
  42
0.1885
  70
32
  0
VERTEX
  5
4EA
  100
AcDbEntity
  8
Layer 1
  62
0
  100
AcDb2dVertex
  10
1.88068
  20
1.13669
  30
0.00000
  42
0.2180
  70
32
  0
VERTEX
  5
4EB
  100
AcDbEntity
  8
Layer 1
  62
0
  100
AcDb2dVertex
  10
1.87610
  20
1.12654
  30
0.00000
  70
32
  0
VERTEX
  5
4EC
  100
AcDbEntity
  8
Layer 1
  62
0
  100
AcDb2dVertex
  10
1.87600
  20
1.12400
  30
0.00000
  42
0.2718
  70
32
  0
VERTEX
  5
4ED
  100
AcDbEntity
  8
Layer 1
  62
0
  100
AcDb2dVertex
  10
1.88082
  20
1.11685
  30
0.00000
  42
0.0931
  70
32
  0
VERTEX
  5
4EE
  100
AcDbEntity
  8
Layer 1
  62
0
  100
AcDb2dVertex
  10
1.89851
  20
1.11141
  30
0.00000
  42
0.0322
  70
32
  0
VERTEX
  5
4EF
  100
AcDbEntity
  8
Layer 1
  62
0
  100
AcDb2dVertex
  10
1.92800
  20
1.10900
  30
0.00000
  42
-0.0733
  70
32
  0
VERTEX
  5
4F0
  100
AcDbEntity
  8
Layer 1
  62
0
  100
AcDb2dVertex
  10
1.96230
  20
1.10391
  30
0.00000
  42
-0.1434
  70
32
  0
VERTEX
  5
4F1
  100
AcDbEntity
  8
Layer 1
  62
0
  100
AcDb2dVertex
  10
1.97743
  20
1.09437
  30
0.00000
  42
-0.1721
  70
32
  0
VERTEX
  5
4F2
  100
AcDbEntity
  8
Layer 1
  62
0
  100
AcDb2dVertex
  10
1.98100
  20
1.08400
  30
0.00000
  70
32
  0
VERTEX
  5
4F3
  100
AcDbEntity
  8
Layer 1
  62
0
  100
AcDb2dVertex
  10
1.97900
  20
1.06900
  30
0.00000
  70
32
  0
VERTEX
  5
4F4
  100
AcDbEntity
  8
Layer 1
  62
0
  100
AcDb2dVertex
  10
1.88400
  20
1.07000
  30
0.00000
  70
32
  0
VERTEX
  5
4F5
  100
AcDbEntity
  8
Layer 1
  62
0
  100
AcDb2dVertex
  10
1.97900
  20
1.06900
  30
0.00000
  70
32
  0
VERTEX
  5
4F6
  100
AcDbEntity
  8
Layer 1
  62
0
  100
AcDb2dVertex
  10
1.97900
  20
1.05200
  30
0.00000
  42
-0.3355
  70
32
  0
VERTEX
  5
4F7
  100
AcDbEntity
  8
Layer 1
  62
0
  100
AcDb2dVertex
  10
1.96871
  20
1.03431
  30
0.00000
  42
-0.1050
  70
32
  0
VERTEX
  5
4F8
  100
AcDbEntity
  8
Layer 1
  62
0
  100
AcDb2dVertex
  10
1.94703
  20
1.03004
  30
0.00000
  70
32
  0
VERTEX
  5
4F9
  100
AcDbEntity
  8
Layer 1
  62
0
  100
AcDb2dVertex
  10
1.94400
  20
1.03000
  30
0.00000
  42
-0.0557
  70
32
  0
VERTEX
  5
4FA
  100
AcDbEntity
  8
Layer 1
  62
0
  100
AcDb2dVertex
  10
1.91200
  20
1.03400
  30
0.00000
  70
32
  0
VERTEX
  5
4FB
  100
AcDbEntity
  8
Layer 1
  62
0
  100
AcDb2dVertex
  10
1.89100
  20
1.03700
  30
0.00000
  42
0.1435
  70
32
  0
VERTEX
  5
4FC
  100
AcDbEntity
  8
Layer 1
  62
0
  100
AcDb2dVertex
  10
1.87718
  20
1.03494
  30
0.00000
  42
0.2640
  70
32
  0
VERTEX
  5
4FD
  100
AcDbEntity
  8
Layer 1
  62
0
  100
AcDb2dVertex
  10
1.87109
  20
1.02429
  30
0.00000
  70
32
  0
VERTEX
  5
4FE
  100
AcDbEntity
  8
Layer 1
  62
0
  100
AcDb2dVertex
  10
1.87100
  20
1.02200
  30
0.00000
  42
0.3461
  70
32
  0
VERTEX
  5
4FF
  100
AcDbEntity
  8
Layer 1
  62
0
  100
AcDb2dVertex
  10
1.88215
  20
1.00620
  30
0.00000
  42
0.0878
  70
32
  0
VERTEX
  5
500
  100
AcDbEntity
  8
Layer 1
  62
0
  100
AcDb2dVertex
  10
1.89700
  20
1.00400
  30
0.00000
  42
0.0226
  70
32
  0
VERTEX
  5
501
  100
AcDbEntity
  8
Layer 1
  62
0
  100
AcDb2dVertex
  10
1.92200
  20
1.00500
  30
0.00000
  70
32
  0
VERTEX
  5
502
  100
AcDbEntity
  8
Layer 1
  62
0
  100
AcDb2dVertex
  10
1.93402
  20
1.00599
  30
0.00000
  42
-0.0178
  70
32
  0
VERTEX
  5
503
  100
AcDbEntity
  8
Layer 1
  62
0
  100
AcDb2dVertex
  10
1.94900
  20
1.00700
  30
0.00000
  42
-0.1106
  70
32
  0
VERTEX
  5
504
  100
AcDbEntity
  8
Layer 1
  62
0
  100
AcDb2dVertex
  10
1.97670
  20
1.00182
  30
0.00000
  42
-0.2430
  70
32
  0
VERTEX
  5
505
  100
AcDbEntity
  8
Layer 1
  62
0
  100
AcDb2dVertex
  10
1.99563
  20
0.97742
  30
0.00000
  42
-0.0554
  70
32
  0
VERTEX
  5
506
  100
AcDbEntity
  8
Layer 1
  62
0
  100
AcDb2dVertex
  10
1.99700
  20
0.96400
  30
0.00000
  42
-0.1387
  70
32
  0
VERTEX
  5
507
  100
AcDbEntity
  8
Layer 1
  62
0
  100
AcDb2dVertex
  10
1.99256
  20
0.94470
  30
0.00000
  42
-0.2425
  70
32
  0
VERTEX
  5
508
  100
AcDbEntity
  8
Layer 1
  62
0
  100
AcDb2dVertex
  10
1.97582
  20
0.93496
  30
0.00000
  42
-0.0516
  70
32
  0
VERTEX
  5
509
  100
AcDbEntity
  8
Layer 1
  62
0
  100
AcDb2dVertex
  10
1.96700
  20
0.93500
  30
0.00000
  70
32
  0
VERTEX
  5
50A
  100
AcDbEntity
  8
Layer 1
  62
0
  100
AcDb2dVertex
  10
1.84400
  20
0.94700
  30
0.00000
  42
0.1997
  70
32
  0
VERTEX
  5
50B
  100
AcDbEntity
  8
Layer 1
  62
0
  100
AcDb2dVertex
  10
1.82930
  20
0.94225
  30
0.00000
  42
0.0602
  70
32
  0
VERTEX
  5
50C
  100
AcDbEntity
  8
Layer 1
  62
0
  100
AcDb2dVertex
  10
1.81900
  20
0.93200
  30
0.00000
  42
-0.0906
  70
32
  0
VERTEX
  5
50D
  100
AcDbEntity
  8
Layer 1
  62
0
  100
AcDb2dVertex
  10
1.80281
  20
0.91706
  30
0.00000
  42
-0.1252
  70
32
  0
VERTEX
  5
50E
  100
AcDbEntity
  8
Layer 1
  62
0
  100
AcDb2dVertex
  10
1.79600
  20
0.91500
  30
0.00000
  42
-0.0279
  70
32
  0
VERTEX
  5
50F
  100
AcDbEntity
  8
Layer 1
  62
0
  100
AcDb2dVertex
  10
1.78200
  20
0.91900
  30
0.00000
  42
0.0125
  70
32
  0
VERTEX
  5
510
  100
AcDbEntity
  8
Layer 1
  62
0
  100
AcDb2dVertex
  10
1.76200
  20
0.94200
  30
0.00000
  70
32
  0
VERTEX
  5
511
  100
AcDbEntity
  8
Layer 1
  62
0
  100
AcDb2dVertex
  10
1.74401
  20
0.94959
  30
0.00000
  70
32
  0
VERTEX
  5
512
  100
AcDbEntity
  8
Layer 1
  62
0
  100
AcDb2dVertex
  10
1.72900
  20
0.95600
  30
0.00000
  42
-0.2968
  70
32
  0
VERTEX
  5
513
  100
AcDbEntity
  8
Layer 1
  62
0
  100
AcDb2dVertex
  10
1.71477
  20
0.97615
  30
0.00000
  42
-0.0793
  70
32
  0
VERTEX
  5
514
  100
AcDbEntity
  8
Layer 1
  62
0
  100
AcDb2dVertex
  10
1.71600
  20
0.99000
  30
0.00000
  70
32
  0
VERTEX
  5
515
  100
AcDbEntity
  8
Layer 1
  62
0
  100
AcDb2dVertex
  10
1.84700
  20
0.98400
  30
0.00000
  70
32
  0
VERTEX
  5
516
  100
AcDbEntity
  8
Layer 1
  62
0
  100
AcDb2dVertex
  10
1.71600
  20
0.99000
  30
0.00000
  42
-0.1548
  70
32
  0
VERTEX
  5
517
  100
AcDbEntity
  8
Layer 1
  62
0
  100
AcDb2dVertex
  10
1.70427
  20
0.99664
  30
0.00000
  42
-0.0703
  70
32
  0
VERTEX
  5
518
  100
AcDbEntity
  8
Layer 1
  62
0
  100
AcDb2dVertex
  10
1.68700
  20
1.02000
  30
0.00000
  42
0.0523
  70
32
  0
VERTEX
  5
519
  100
AcDbEntity
  8
Layer 1
  62
0
  100
AcDb2dVertex
  10
1.66790
  20
1.04780
  30
0.00000
  42
0.0883
  70
32
  0
VERTEX
  5
51A
  100
AcDbEntity
  8
Layer 1
  62
0
  100
AcDb2dVertex
  10
1.65900
  20
1.05500
  30
0.00000
  42
-0.1073
  70
32
  0
VERTEX
  5
51B
  100
AcDbEntity
  8
Layer 1
  62
0
  100
AcDb2dVertex
  10
1.65320
  20
1.08799
  30
0.00000
  70
32
  0
VERTEX
  5
51C
  100
AcDbEntity
  8
Layer 1
  62
0
  100
AcDb2dVertex
  10
1.65400
  20
1.09400
  30
0.00000
  42
-0.0678
  70
32
  0
VERTEX
  5
51D
  100
AcDbEntity
  8
Layer 1
  62
0
  100
AcDb2dVertex
  10
1.66987
  20
1.12384
  30
0.00000
  42
-0.0710
  70
32
  0
VERTEX
  5
51E
  100
AcDbEntity
  8
Layer 1
  62
0
  100
AcDb2dVertex
  10
1.67700
  20
1.13100
  30
0.00000
  42
0.0809
  70
32
  0
VERTEX
  5
51F
  100
AcDbEntity
  8
Layer 1
  62
0
  100
AcDb2dVertex
  10
1.69050
  20
1.14167
  30
0.00000
  70
32
  0
VERTEX
  5
520
  100
AcDbEntity
  8
Layer 1
  62
0
  100
AcDb2dVertex
  10
1.69200
  20
1.14400
  30
0.00000
  42
0.0117
  70
32
  0
VERTEX
  5
521
  100
AcDbEntity
  8
Layer 1
  62
0
  100
AcDb2dVertex
  10
1.70400
  20
1.16900
  30
0.00000
  42
-0.2476
  70
32
  0
VERTEX
  5
522
  100
AcDbEntity
  8
Layer 1
  62
0
  100
AcDb2dVertex
  10
1.72025
  20
1.17969
  30
0.00000
  42
-0.0562
  70
32
  0
VERTEX
  5
523
  100
AcDbEntity
  8
Layer 1
  62
0
  100
AcDb2dVertex
  10
1.73200
  20
1.18000
  30
0.00000
  70
32
  0
VERTEX
  5
524
  100
AcDbEntity
  8
Layer 1
  62
0
  100
AcDb2dVertex
  10
1.86600
  20
1.17000
  30
0.00000
  70
32
  0
VERTEX
  5
525
  100
AcDbEntity
  8
Layer 1
  62
0
  100
AcDb2dVertex
  10
1.73200
  20
1.18000
  30
0.00000
  70
32
  0
VERTEX
  5
526
  100
AcDbEntity
  8
Layer 1
  62
0
  100
AcDb2dVertex
  10
1.73900
  20
1.19500
  30
0.00000
  70
32
  0
VERTEX
  5
527
  100
AcDbEntity
  8
Layer 1
  62
0
  100
AcDb2dVertex
  10
1.75400
  20
1.21400
  30
0.00000
  42
0.0925
  70
32
  0
VERTEX
  5
528
  100
AcDbEntity
  8
Layer 1
  62
0
  100
AcDb2dVertex
  10
1.78390
  20
1.21858
  30
0.00000
  42
0.1484
  70
32
  0
VERTEX
  5
529
  100
AcDbEntity
  8
Layer 1
  62
0
  100
AcDb2dVertex
  10
1.79800
  20
1.22900
  30
0.00000
  42
-0.1152
  70
32
  0
VERTEX
  5
52A
  100
AcDbEntity
  8
Layer 1
  62
0
  100
AcDb2dVertex
  10
1.81175
  20
1.24252
  30
0.00000
  42
-0.1192
  70
32
  0
VERTEX
  5
52B
  100
AcDbEntity
  8
Layer 1
  62
0
  100
AcDb2dVertex
  10
1.81700
  20
1.24400
  30
0.00000
  42
-0.2013
  70
32
  0
VERTEX
  5
52C
  100
AcDbEntity
  8
Layer 1
  62
0
  100
AcDb2dVertex
  10
1.83078
  20
1.23750
  30
0.00000
  42
-0.0573
  70
32
  0
VERTEX
  5
52D
  100
AcDbEntity
  8
Layer 1
  62
0
  100
AcDb2dVertex
  10
1.83900
  20
1.22700
  30
0.00000
  42
0.0559
  70
32
  0
VERTEX
  5
52E
  100
AcDbEntity
  8
Layer 1
  62
0
  100
AcDb2dVertex
  10
1.85152
  20
1.21005
  30
0.00000
  42
0.0931
  70
32
  0
VERTEX
  5
52F
  100
AcDbEntity
  8
Layer 1
  62
0
  100
AcDb2dVertex
  10
1.85600
  20
1.20700
  30
0.00000
  42
0.0573
  70
32
  0
VERTEX
  5
530
  100
AcDbEntity
  8
Layer 1
  62
0
  100
AcDb2dVertex
  10
1.89288
  20
1.20067
  30
0.00000
  70
32
  0
VERTEX
  5
531
  100
AcDbEntity
  8
Layer 1
  62
0
  100
AcDb2dVertex
  10
1.90400
  20
1.20000
  30
0.00000
  42
0.0109
  70
32
  0
VERTEX
  5
532
  100
AcDbEntity
  8
Layer 1
  62
0
  100
AcDb2dVertex
  10
1.93038
  20
1.20063
  30
0.00000
  70
32
  0
VERTEX
  5
533
  100
AcDbEntity
  8
Layer 1
  62
0
  100
AcDb2dVertex
  10
1.95600
  20
1.20200
  30
0.00000
  42
-0.0804
  70
32
  0
VERTEX
  5
534
  100
AcDbEntity
  8
Layer 1
  62
0
  100
AcDb2dVertex
  10
1.99049
  20
1.19557
  30
0.00000
  42
-0.1568
  70
32
  0
VERTEX
  5
535
  100
AcDbEntity
  8
Layer 1
  62
0
  100
AcDb2dVertex
  10
2.00916
  20
1.18150
  30
0.00000
  42
-0.1478
  70
32
  0
VERTEX
  5
536
  100
AcDbEntity
  8
Layer 1
  62
0
  100
AcDb2dVertex
  10
2.01400
  20
1.16400
  30
0.00000
  70
32
  0
SEQEND
  5
537
  100
AcDbEntity
  8
Layer 1
  62
0
  0
POLYLINE
  5
538
  100
AcDbEntity
  8
Layer 1
  62
0
  100
AcDb2dPolyline
 66
     1
  10
0
  20
0
  30
0
  70
1
  0
VERTEX
  5
539
  100
AcDbEntity
  8
Layer 1
  62
0
  100
AcDb2dVertex
  10
1.24200
  20
1.59600
  30
0.00000
  42
-0.2175
  70
32
  0
VERTEX
  5
53A
  100
AcDbEntity
  8
Layer 1
  62
0
  100
AcDb2dVertex
  10
1.23401
  20
1.57964
  30
0.00000
  42
-0.0955
  70
32
  0
VERTEX
  5
53B
  100
AcDbEntity
  8
Layer 1
  62
0
  100
AcDb2dVertex
  10
1.21136
  20
1.56706
  30
0.00000
  42
-0.0452
  70
32
  0
VERTEX
  5
53C
  100
AcDbEntity
  8
Layer 1
  62
0
  100
AcDb2dVertex
  10
1.17100
  20
1.55700
  30
0.00000
  70
32
  0
VERTEX
  5
53D
  100
AcDbEntity
  8
Layer 1
  62
0
  100
AcDb2dVertex
  10
1.16100
  20
1.57400
  30
0.00000
  70
32
  0
VERTEX
  5
53E
  100
AcDbEntity
  8
Layer 1
  62
0
  100
AcDb2dVertex
  10
1.17100
  20
1.55700
  30
0.00000
  42
-0.0303
  70
32
  0
VERTEX
  5
53F
  100
AcDbEntity
  8
Layer 1
  62
0
  100
AcDb2dVertex
  10
1.13063
  20
1.51235
  30
0.00000
  42
-0.0743
  70
32
  0
VERTEX
  5
540
  100
AcDbEntity
  8
Layer 1
  62
0
  100
AcDb2dVertex
  10
1.11236
  20
1.49867
  30
0.00000
  42
-0.1076
  70
32
  0
VERTEX
  5
541
  100
AcDbEntity
  8
Layer 1
  62
0
  100
AcDb2dVertex
  10
1.10600
  20
1.49700
  30
0.00000
  42
-0.2012
  70
32
  0
VERTEX
  5
542
  100
AcDbEntity
  8
Layer 1
  62
0
  100
AcDb2dVertex
  10
1.09647
  20
1.50190
  30
0.00000
  42
-0.0623
  70
32
  0
VERTEX
  5
543
  100
AcDbEntity
  8
Layer 1
  62
0
  100
AcDb2dVertex
  10
1.08700
  20
1.51500
  30
0.00000
  42
-0.0394
  70
32
  0
VERTEX
  5
544
  100
AcDbEntity
  8
Layer 1
  62
0
  100
AcDb2dVertex
  10
1.07758
  20
1.53803
  30
0.00000
  42
-0.0599
  70
32
  0
VERTEX
  5
545
  100
AcDbEntity
  8
Layer 1
  62
0
  100
AcDb2dVertex
  10
1.07700
  20
1.54200
  30
0.00000
  42
-0.2120
  70
32
  0
VERTEX
  5
546
  100
AcDbEntity
  8
Layer 1
  62
0
  100
AcDb2dVertex
  10
1.08116
  20
1.54933
  30
0.00000
  42
-0.0584
  70
32
  0
VERTEX
  5
547
  100
AcDbEntity
  8
Layer 1
  62
0
  100
AcDb2dVertex
  10
1.09600
  20
1.55900
  30
0.00000
  70
32
  0
VERTEX
  5
548
  100
AcDbEntity
  8
Layer 1
  62
0
  100
AcDb2dVertex
  10
1.10811
  20
1.56498
  30
0.00000
  70
32
  0
VERTEX
  5
549
  100
AcDbEntity
  8
Layer 1
  62
0
  100
AcDb2dVertex
  10
1.11769
  20
1.56976
  30
0.00000
  42
0.1271
  70
32
  0
VERTEX
  5
54A
  100
AcDbEntity
  8
Layer 1
  62
0
  100
AcDb2dVertex
  10
1.12100
  20
1.57200
  30
0.00000
  70
32
  0
VERTEX
  5
54B
  100
AcDbEntity
  8
Layer 1
  62
0
  100
AcDb2dVertex
  10
1.12400
  20
1.58100
  30
0.00000
  70
32
  0
VERTEX
  5
54C
  100
AcDbEntity
  8
Layer 1
  62
0
  100
AcDb2dVertex
  10
1.11400
  20
1.62100
  30
0.00000
  42
-0.1969
  70
32
  0
VERTEX
  5
54D
  100
AcDbEntity
  8
Layer 1
  62
0
  100
AcDb2dVertex
  10
1.11577
  20
1.63302
  30
0.00000
  42
-0.2107
  70
32
  0
VERTEX
  5
54E
  100
AcDbEntity
  8
Layer 1
  62
0
  100
AcDb2dVertex
  10
1.12633
  20
1.63861
  30
0.00000
  42
-0.0376
  70
32
  0
VERTEX
  5
54F
  100
AcDbEntity
  8
Layer 1
  62
0
  100
AcDb2dVertex
  10
1.13200
  20
1.63900
  30
0.00000
  42
-0.1583
  70
32
  0
VERTEX
  5
550
  100
AcDbEntity
  8
Layer 1
  62
0
  100
AcDb2dVertex
  10
1.14736
  20
1.63288
  30
0.00000
  42
-0.0502
  70
32
  0
VERTEX
  5
551
  100
AcDbEntity
  8
Layer 1
  62
0
  100
AcDb2dVertex
  10
1.15800
  20
1.62300
  30
0.00000
  42
0.0770
  70
32
  0
VERTEX
  5
552
  100
AcDbEntity
  8
Layer 1
  62
0
  100
AcDb2dVertex
  10
1.17368
  20
1.60918
  30
0.00000
  42
0.1285
  70
32
  0
VERTEX
  5
553
  100
AcDbEntity
  8
Layer 1
  62
0
  100
AcDb2dVertex
  10
1.18100
  20
1.60700
  30
0.00000
  42
0.2053
  70
32
  0
VERTEX
  5
554
  100
AcDbEntity
  8
Layer 1
  62
0
  100
AcDb2dVertex
  10
1.18799
  20
1.61114
  30
0.00000
  42
0.0665
  70
32
  0
VERTEX
  5
555
  100
AcDbEntity
  8
Layer 1
  62
0
  100
AcDb2dVertex
  10
1.19500
  20
1.62200
  30
0.00000
  42
-0.1148
  70
32
  0
VERTEX
  5
556
  100
AcDbEntity
  8
Layer 1
  62
0
  100
AcDb2dVertex
  10
1.20434
  20
1.63469
  30
0.00000
  42
-0.1636
  70
32
  0
VERTEX
  5
557
  100
AcDbEntity
  8
Layer 1
  62
0
  100
AcDb2dVertex
  10
1.21100
  20
1.63700
  30
0.00000
  42
-0.1759
  70
32
  0
VERTEX
  5
558
  100
AcDbEntity
  8
Layer 1
  62
0
  100
AcDb2dVertex
  10
1.22063
  20
1.63236
  30
0.00000
  42
-0.0658
  70
32
  0
VERTEX
  5
559
  100
AcDbEntity
  8
Layer 1
  62
0
  100
AcDb2dVertex
  10
1.23100
  20
1.62000
  30
0.00000
  42
-0.0629
  70
32
  0
VERTEX
  5
55A
  100
AcDbEntity
  8
Layer 1
  62
0
  100
AcDb2dVertex
  10
1.24128
  20
1.60027
  30
0.00000
  42
-0.0711
  70
32
  0
VERTEX
  5
55B
  100
AcDbEntity
  8
Layer 1
  62
0
  100
AcDb2dVertex
  10
1.24200
  20
1.59600
  30
0.00000
  70
32
  0
SEQEND
  5
55C
  100
AcDbEntity
  8
Layer 1
  62
0
  0
POLYLINE
  5
55D
  100
AcDbEntity
  8
Layer 1
  62
0
  100
AcDb2dPolyline
 66
     1
  10
0
  20
0
  30
0
  70
1
  0
VERTEX
  5
55E
  100
AcDbEntity
  8
Layer 1
  62
0
  100
AcDb2dVertex
  10
1.63900
  20
1.13200
  30
0.00000
  70
32
  0
VERTEX
  5
55F
  100
AcDbEntity
  8
Layer 1
  62
0
  100
AcDb2dVertex
  10
1.62900
  20
1.12500
  30
0.00000
  42
0.0155
  70
32
  0
VERTEX
  5
560
  100
AcDbEntity
  8
Layer 1
  62
0
  100
AcDb2dVertex
  10
1.53851
  20
1.14253
  30
0.00000
  42
0.0310
  70
32
  0
VERTEX
  5
561
  100
AcDbEntity
  8
Layer 1
  62
0
  100
AcDb2dVertex
  10
1.52400
  20
1.14400
  30
0.00000
  70
32
  0
VERTEX
  5
562
  100
AcDbEntity
  8
Layer 1
  62
0
  100
AcDb2dVertex
  10
1.45400
  20
1.14400
  30
0.00000
  42
0.0337
  70
32
  0
VERTEX
  5
563
  100
AcDbEntity
  8
Layer 1
  62
0
  100
AcDb2dVertex
  10
1.41339
  20
1.13972
  30
0.00000
  70
32
  0
VERTEX
  5
564
  100
AcDbEntity
  8
Layer 1
  62
0
  100
AcDb2dVertex
  10
1.39600
  20
1.13700
  30
0.00000
  42
0.0427
  70
32
  0
VERTEX
  5
565
  100
AcDbEntity
  8
Layer 1
  62
0
  100
AcDb2dVertex
  10
1.35802
  20
1.12963
  30
0.00000
  42
0.1195
  70
32
  0
VERTEX
  5
566
  100
AcDbEntity
  8
Layer 1
  62
0
  100
AcDb2dVertex
  10
1.34958
  20
1.12535
  30
0.00000
  42
0.1774
  70
32
  0
VERTEX
  5
567
  100
AcDbEntity
  8
Layer 1
  62
0
  100
AcDb2dVertex
  10
1.34900
  20
1.12400
  30
0.00000
  42
0.2439
  70
32
  0
VERTEX
  5
568
  100
AcDbEntity
  8
Layer 1
  62
0
  100
AcDb2dVertex
  10
1.35411
  20
1.11557
  30
0.00000
  42
0.0954
  70
32
  0
VERTEX
  5
569
  100
AcDbEntity
  8
Layer 1
  62
0
  100
AcDb2dVertex
  10
1.37269
  20
1.10798
  30
0.00000
  70
32
  0
VERTEX
  5
56A
  100
AcDbEntity
  8
Layer 1
  62
0
  100
AcDb2dVertex
  10
1.37700
  20
1.10700
  30
0.00000
  70
32
  0
VERTEX
  5
56B
  100
AcDbEntity
  8
Layer 1
  62
0
  100
AcDb2dVertex
  10
1.38600
  20
1.10500
  30
0.00000
  42
-0.0313
  70
32
  0
VERTEX
  5
56C
  100
AcDbEntity
  8
Layer 1
  62
0
  100
AcDb2dVertex
  10
1.43654
  20
1.08623
  30
0.00000
  42
-0.0069
  70
32
  0
VERTEX
  5
56D
  100
AcDbEntity
  8
Layer 1
  62
0
  100
AcDb2dVertex
  10
1.49100
  20
1.06200
  30
0.00000
  42
-0.0299
  70
32
  0
VERTEX
  5
56E
  100
AcDbEntity
  8
Layer 1
  62
0
  100
AcDb2dVertex
  10
1.54863
  20
1.03094
  30
0.00000
  42
-0.0687
  70
32
  0
VERTEX
  5
56F
  100
AcDbEntity
  8
Layer 1
  62
0
  100
AcDb2dVertex
  10
1.56803
  20
1.01534
  30
0.00000
  42
-0.1731
  70
32
  0
VERTEX
  5
570
  100
AcDbEntity
  8
Layer 1
  62
0
  100
AcDb2dVertex
  10
1.57200
  20
1.00700
  30
0.00000
  70
32
  0
VERTEX
  5
571
  100
AcDbEntity
  8
Layer 1
  62
0
  100
AcDb2dVertex
  10
1.56600
  20
1.00000
  30
0.00000
  42
0.0163
  70
32
  0
VERTEX
  5
572
  100
AcDbEntity
  8
Layer 1
  62
0
  100
AcDb2dVertex
  10
1.40689
  20
1.05400
  30
0.00000
  42
0.0292
  70
32
  0
VERTEX
  5
573
  100
AcDbEntity
  8
Layer 1
  62
0
  100
AcDb2dVertex
  10
1.32577
  20
1.07385
  30
0.00000
  42
0.0404
  70
32
  0
VERTEX
  5
574
  100
AcDbEntity
  8
Layer 1
  62
0
  100
AcDb2dVertex
  10
1.29400
  20
1.07700
  30
0.00000
  42
0.1842
  70
32
  0
VERTEX
  5
575
  100
AcDbEntity
  8
Layer 1
  62
0
  100
AcDb2dVertex
  10
1.28416
  20
1.07420
  30
0.00000
  42
0.2174
  70
32
  0
VERTEX
  5
576
  100
AcDbEntity
  8
Layer 1
  62
0
  100
AcDb2dVertex
  10
1.28200
  20
1.06900
  30
0.00000
  42
-0.0675
  70
32
  0
VERTEX
  5
577
  100
AcDbEntity
  8
Layer 1
  62
0
  100
AcDb2dVertex
  10
1.28771
  20
1.06543
  30
0.00000
  42
-0.0063
  70
32
  0
VERTEX
  5
578
  100
AcDbEntity
  8
Layer 1
  62
0
  100
AcDb2dVertex
  10
1.37000
  20
1.00500
  30
0.00000
  42
-0.0278
  70
32
  0
VERTEX
  5
579
  100
AcDbEntity
  8
Layer 1
  62
0
  100
AcDb2dVertex
  10
1.43131
  20
0.95526
  30
0.00000
  42
-0.0585
  70
32
  0
VERTEX
  5
57A
  100
AcDbEntity
  8
Layer 1
  62
0
  100
AcDb2dVertex
  10
1.45388
  20
0.92986
  30
0.00000
  42
-0.1239
  70
32
  0
VERTEX
  5
57B
  100
AcDbEntity
  8
Layer 1
  62
0
  100
AcDb2dVertex
  10
1.45900
  20
0.91700
  30
0.00000
  70
32
  0
VERTEX
  5
57C
  100
AcDbEntity
  8
Layer 1
  62
0
  100
AcDb2dVertex
  10
1.45100
  20
0.90900
  30
0.00000
  42
0.0152
  70
32
  0
VERTEX
  5
57D
  100
AcDbEntity
  8
Layer 1
  62
0
  100
AcDb2dVertex
  10
1.38448
  20
0.95544
  30
0.00000
  70
32
  0
VERTEX
  5
57E
  100
AcDbEntity
  8
Layer 1
  62
0
  100
AcDb2dVertex
  10
1.37700
  20
0.96000
  30
0.00000
  42
0.0322
  70
32
  0
VERTEX
  5
57F
  100
AcDbEntity
  8
Layer 1
  62
0
  100
AcDb2dVertex
  10
1.34261
  20
0.97802
  30
0.00000
  42
0.0057
  70
32
  0
VERTEX
  5
580
  100
AcDbEntity
  8
Layer 1
  62
0
  100
AcDb2dVertex
  10
1.29400
  20
1.00000
  30
0.00000
  42
-0.0414
  70
32
  0
VERTEX
  5
581
  100
AcDbEntity
  8
Layer 1
  62
0
  100
AcDb2dVertex
  10
1.23420
  20
1.03419
  30
0.00000
  42
-0.0338
  70
32
  0
VERTEX
  5
582
  100
AcDbEntity
  8
Layer 1
  62
0
  100
AcDb2dVertex
  10
1.21600
  20
1.04900
  30
0.00000
  70
32
  0
VERTEX
  5
583
  100
AcDbEntity
  8
Layer 1
  62
0
  100
AcDb2dVertex
  10
1.21100
  20
1.04400
  30
0.00000
  70
32
  0
VERTEX
  5
584
  100
AcDbEntity
  8
Layer 1
  62
0
  100
AcDb2dVertex
  10
1.22895
  20
1.01861
  30
0.00000
  42
-0.0049
  70
32
  0
VERTEX
  5
585
  100
AcDbEntity
  8
Layer 1
  62
0
  100
AcDb2dVertex
  10
1.25600
  20
0.98000
  30
0.00000
  42
-0.0417
  70
32
  0
VERTEX
  5
586
  100
AcDbEntity
  8
Layer 1
  62
0
  100
AcDb2dVertex
  10
1.28143
  20
0.93660
  30
0.00000
  42
-0.0897
  70
32
  0
VERTEX
  5
587
  100
AcDbEntity
  8
Layer 1
  62
0
  100
AcDb2dVertex
  10
1.28698
  20
0.91776
  30
0.00000
  70
32
  0
VERTEX
  5
588
  100
AcDbEntity
  8
Layer 1
  62
0
  100
AcDb2dVertex
  10
1.28700
  20
0.91700
  30
0.00000
  70
32
  0
VERTEX
  5
589
  100
AcDbEntity
  8
Layer 1
  62
0
  100
AcDb2dVertex
  10
1.27200
  20
0.90500
  30
0.00000
  42
0.0246
  70
32
  0
VERTEX
  5
58A
  100
AcDbEntity
  8
Layer 1
  62
0
  100
AcDb2dVertex
  10
1.20689
  20
0.98186
  30
0.00000
  42
0.0462
  70
32
  0
VERTEX
  5
58B
  100
AcDbEntity
  8
Layer 1
  62
0
  100
AcDb2dVertex
  10
1.17688
  20
1.00901
  30
0.00000
  42
0.1121
  70
32
  0
VERTEX
  5
58C
  100
AcDbEntity
  8
Layer 1
  62
0
  100
AcDb2dVertex
  10
1.16451
  20
1.01495
  30
0.00000
  70
32
  0
VERTEX
  5
58D
  100
AcDbEntity
  8
Layer 1
  62
0
  100
AcDb2dVertex
  10
1.16400
  20
1.01500
  30
0.00000
  70
32
  0
VERTEX
  5
58E
  100
AcDbEntity
  8
Layer 1
  62
0
  100
AcDb2dVertex
  10
1.15400
  20
1.00400
  30
0.00000
  70
32
  0
VERTEX
  5
58F
  100
AcDbEntity
  8
Layer 1
  62
0
  100
AcDb2dVertex
  10
1.16600
  20
0.98400
  30
0.00000
  70
32
  0
VERTEX
  5
590
  100
AcDbEntity
  8
Layer 1
  62
0
  100
AcDb2dVertex
  10
1.15900
  20
0.97700
  30
0.00000
  42
-0.1570
  70
32
  0
VERTEX
  5
591
  100
AcDbEntity
  8
Layer 1
  62
0
  100
AcDb2dVertex
  10
1.14120
  20
0.98541
  30
0.00000
  42
-0.0816
  70
32
  0
VERTEX
  5
592
  100
AcDbEntity
  8
Layer 1
  62
0
  100
AcDb2dVertex
  10
1.12100
  20
1.01100
  30
0.00000
  42
-0.0509
  70
32
  0
VERTEX
  5
593
  100
AcDbEntity
  8
Layer 1
  62
0
  100
AcDb2dVertex
  10
1.10476
  20
1.04717
  30
0.00000
  42
-0.0721
  70
32
  0
VERTEX
  5
594
  100
AcDbEntity
  8
Layer 1
  62
0
  100
AcDb2dVertex
  10
1.10200
  20
1.06400
  30
0.00000
  42
-0.0980
  70
32
  0
VERTEX
  5
595
  100
AcDbEntity
  8
Layer 1
  62
0
  100
AcDb2dVertex
  10
1.10842
  20
1.10167
  30
0.00000
  42
-0.2106
  70
32
  0
VERTEX
  5
596
  100
AcDbEntity
  8
Layer 1
  62
0
  100
AcDb2dVertex
  10
1.13900
  20
1.13200
  30
0.00000
  70
32
  0
VERTEX
  5
597
  100
AcDbEntity
  8
Layer 1
  62
0
  100
AcDb2dVertex
  10
1.23900
  20
1.14700
  30
0.00000
  70
32
  0
VERTEX
  5
598
  100
AcDbEntity
  8
Layer 1
  62
0
  100
AcDb2dVertex
  10
1.13900
  20
1.13200
  30
0.00000
  70
32
  0
VERTEX
  5
599
  100
AcDbEntity
  8
Layer 1
  62
0
  100
AcDb2dVertex
  10
1.13100
  20
1.14900
  30
0.00000
  42
-0.0828
  70
32
  0
VERTEX
  5
59A
  100
AcDbEntity
  8
Layer 1
  62
0
  100
AcDb2dVertex
  10
1.12049
  20
1.21735
  30
0.00000
  42
-0.0152
  70
32
  0
VERTEX
  5
59B
  100
AcDbEntity
  8
Layer 1
  62
0
  100
AcDb2dVertex
  10
1.12100
  20
1.23500
  30
0.00000
  70
32
  0
VERTEX
  5
59C
  100
AcDbEntity
  8
Layer 1
  62
0
  100
AcDb2dVertex
  10
1.22900
  20
1.23500
  30
0.00000
  70
32
  0
VERTEX
  5
59D
  100
AcDbEntity
  8
Layer 1
  62
0
  100
AcDb2dVertex
  10
1.12100
  20
1.23500
  30
0.00000
  70
32
  0
VERTEX
  5
59E
  100
AcDbEntity
  8
Layer 1
  62
0
  100
AcDb2dVertex
  10
1.12100
  20
1.27400
  30
0.00000
  42
-0.0238
  70
32
  0
VERTEX
  5
59F
  100
AcDbEntity
  8
Layer 1
  62
0
  100
AcDb2dVertex
  10
1.12200
  20
1.31200
  30
0.00000
  42
-0.0791
  70
32
  0
VERTEX
  5
5A0
  100
AcDbEntity
  8
Layer 1
  62
0
  100
AcDb2dVertex
  10
1.12923
  20
1.33275
  30
0.00000
  42
-0.2278
  70
32
  0
VERTEX
  5
5A1
  100
AcDbEntity
  8
Layer 1
  62
0
  100
AcDb2dVertex
  10
1.13861
  20
1.33995
  30
0.00000
  70
32
  0
VERTEX
  5
5A2
  100
AcDbEntity
  8
Layer 1
  62
0
  100
AcDb2dVertex
  10
1.13900
  20
1.34000
  30
0.00000
  70
32
  0
VERTEX
  5
5A3
  100
AcDbEntity
  8
Layer 1
  62
0
  100
AcDb2dVertex
  10
1.22600
  20
1.32700
  30
0.00000
  70
32
  0
VERTEX
  5
5A4
  100
AcDbEntity
  8
Layer 1
  62
0
  100
AcDb2dVertex
  10
1.13900
  20
1.34000
  30
0.00000
  42
-0.1367
  70
32
  0
VERTEX
  5
5A5
  100
AcDbEntity
  8
Layer 1
  62
0
  100
AcDb2dVertex
  10
1.10860
  20
1.35636
  30
0.00000
  42
-0.1594
  70
32
  0
VERTEX
  5
5A6
  100
AcDbEntity
  8
Layer 1
  62
0
  100
AcDb2dVertex
  10
1.09316
  20
1.38863
  30
0.00000
  42
-0.0402
  70
32
  0
VERTEX
  5
5A7
  100
AcDbEntity
  8
Layer 1
  62
0
  100
AcDb2dVertex
  10
1.09200
  20
1.40400
  30
0.00000
  42
-0.0719
  70
32
  0
VERTEX
  5
5A8
  100
AcDbEntity
  8
Layer 1
  62
0
  100
AcDb2dVertex
  10
1.09724
  20
1.43141
  30
0.00000
  42
-0.0182
  70
32
  0
VERTEX
  5
5A9
  100
AcDbEntity
  8
Layer 1
  62
0
  100
AcDb2dVertex
  10
1.10600
  20
1.45600
  30
0.00000
  42
-0.0753
  70
32
  0
VERTEX
  5
5AA
  100
AcDbEntity
  8
Layer 1
  62
0
  100
AcDb2dVertex
  10
1.12118
  20
1.48195
  30
0.00000
  42
-0.1620
  70
32
  0
VERTEX
  5
5AB
  100
AcDbEntity
  8
Layer 1
  62
0
  100
AcDb2dVertex
  10
1.13435
  20
1.49074
  30
0.00000
  70
32
  0
VERTEX
  5
5AC
  100
AcDbEntity
  8
Layer 1
  62
0
  100
AcDb2dVertex
  10
1.13600
  20
1.49100
  30
0.00000
  42
-0.3394
  70
32
  0
VERTEX
  5
5AD
  100
AcDbEntity
  8
Layer 1
  62
0
  100
AcDb2dVertex
  10
1.14368
  20
1.48317
  30
0.00000
  42
-0.0759
  70
32
  0
VERTEX
  5
5AE
  100
AcDbEntity
  8
Layer 1
  62
0
  100
AcDb2dVertex
  10
1.14400
  20
1.47400
  30
0.00000
  70
32
  0
VERTEX
  5
5AF
  100
AcDbEntity
  8
Layer 1
  62
0
  100
AcDb2dVertex
  10
1.14100
  20
1.45100
  30
0.00000
  70
32
  0
VERTEX
  5
5B0
  100
AcDbEntity
  8
Layer 1
  62
0
  100
AcDb2dVertex
  10
1.14900
  20
1.44700
  30
0.00000
  70
32
  0
VERTEX
  5
5B1
  100
AcDbEntity
  8
Layer 1
  62
0
  100
AcDb2dVertex
  10
1.15600
  20
1.45100
  30
0.00000
  42
-0.0134
  70
32
  0
VERTEX
  5
5B2
  100
AcDbEntity
  8
Layer 1
  62
0
  100
AcDb2dVertex
  10
1.20155
  20
1.51416
  30
0.00000
  70
32
  0
VERTEX
  5
5B3
  100
AcDbEntity
  8
Layer 1
  62
0
  100
AcDb2dVertex
  10
1.24900
  20
1.57700
  30
0.00000
  70
32
  0
VERTEX
  5
5B4
  100
AcDbEntity
  8
Layer 1
  62
0
  100
AcDb2dVertex
  10
1.26100
  20
1.56700
  30
0.00000
  42
-0.0980
  70
32
  0
VERTEX
  5
5B5
  100
AcDbEntity
  8
Layer 1
  62
0
  100
AcDb2dVertex
  10
1.24820
  20
1.52864
  30
0.00000
  42
-0.0475
  70
32
  0
VERTEX
  5
5B6
  100
AcDbEntity
  8
Layer 1
  62
0
  100
AcDb2dVertex
  10
1.22600
  20
1.49600
  30
0.00000
  42
0.0297
  70
32
  0
VERTEX
  5
5B7
  100
AcDbEntity
  8
Layer 1
  62
0
  100
AcDb2dVertex
  10
1.19455
  20
1.45564
  30
0.00000
  42
0.0653
  70
32
  0
VERTEX
  5
5B8
  100
AcDbEntity
  8
Layer 1
  62
0
  100
AcDb2dVertex
  10
1.19100
  20
1.44900
  30
0.00000
  70
32
  0
VERTEX
  5
5B9
  100
AcDbEntity
  8
Layer 1
  62
0
  100
AcDb2dVertex
  10
1.20100
  20
1.43900
  30
0.00000
  42
-0.0074
  70
32
  0
VERTEX
  5
5BA
  100
AcDbEntity
  8
Layer 1
  62
0
  100
AcDb2dVertex
  10
1.31700
  20
1.50100
  30
0.00000
  70
32
  0
VERTEX
  5
5BB
  100
AcDbEntity
  8
Layer 1
  62
0
  100
AcDb2dVertex
  10
1.32974
  20
1.51151
  30
0.00000
  42
-0.0086
  70
32
  0
VERTEX
  5
5BC
  100
AcDbEntity
  8
Layer 1
  62
0
  100
AcDb2dVertex
  10
1.42600
  20
1.58900
  30
0.00000
  70
32
  0
VERTEX
  5
5BD
  100
AcDbEntity
  8
Layer 1
  62
0
  100
AcDb2dVertex
  10
1.43600
  20
1.57900
  30
0.00000
  42
-0.0985
  70
32
  0
VERTEX
  5
5BE
  100
AcDbEntity
  8
Layer 1
  62
0
  100
AcDb2dVertex
  10
1.32200
  20
1.45700
  30
0.00000
  42
0.0248
  70
32
  0
VERTEX
  5
5BF
  100
AcDbEntity
  8
Layer 1
  62
0
  100
AcDb2dVertex
  10
1.30199
  20
1.44522
  30
0.00000
  70
32
  0
VERTEX
  5
5C0
  100
AcDbEntity
  8
Layer 1
  62
0
  100
AcDb2dVertex
  10
1.29200
  20
1.43900
  30
0.00000
  42
0.0556
  70
32
  0
VERTEX
  5
5C1
  100
AcDbEntity
  8
Layer 1
  62
0
  100
AcDb2dVertex
  10
1.27257
  20
1.42380
  30
0.00000
  42
0.1786
  70
32
  0
VERTEX
  5
5C2
  100
AcDbEntity
  8
Layer 1
  62
0
  100
AcDb2dVertex
  10
1.26900
  20
1.41700
  30
0.00000
  42
0.2219
  70
32
  0
VERTEX
  5
5C3
  100
AcDbEntity
  8
Layer 1
  62
0
  100
AcDb2dVertex
  10
1.27171
  20
1.40906
  30
0.00000
  42
0.1809
  70
32
  0
VERTEX
  5
5C4
  100
AcDbEntity
  8
Layer 1
  62
0
  100
AcDb2dVertex
  10
1.27900
  20
1.40700
  30
0.00000
  42
0.0611
  70
32
  0
VERTEX
  5
5C5
  100
AcDbEntity
  8
Layer 1
  62
0
  100
AcDb2dVertex
  10
1.33013
  20
1.41453
  30
0.00000
  42
0.0376
  70
32
  0
VERTEX
  5
5C6
  100
AcDbEntity
  8
Layer 1
  62
0
  100
AcDb2dVertex
  10
1.41435
  20
1.44416
  30
0.00000
  42
0.0237
  70
32
  0
VERTEX
  5
5C7
  100
AcDbEntity
  8
Layer 1
  62
0
  100
AcDb2dVertex
  10
1.54200
  20
1.50700
  30
0.00000
  42
-0.1482
  70
32
  0
VERTEX
  5
5C8
  100
AcDbEntity
  8
Layer 1
  62
0
  100
AcDb2dVertex
  10
1.55333
  20
1.50313
  30
0.00000
  42
-0.2259
  70
32
  0
VERTEX
  5
5C9
  100
AcDbEntity
  8
Layer 1
  62
0
  100
AcDb2dVertex
  10
1.55600
  20
1.49700
  30
0.00000
  42
-0.1614
  70
32
  0
VERTEX
  5
5CA
  100
AcDbEntity
  8
Layer 1
  62
0
  100
AcDb2dVertex
  10
1.54937
  20
1.48006
  30
0.00000
  42
-0.0766
  70
32
  0
VERTEX
  5
5CB
  100
AcDbEntity
  8
Layer 1
  62
0
  100
AcDb2dVertex
  10
1.52597
  20
1.45864
  30
0.00000
  42
-0.0413
  70
32
  0
VERTEX
  5
5CC
  100
AcDbEntity
  8
Layer 1
  62
0
  100
AcDb2dVertex
  10
1.47039
  20
1.42718
  30
0.00000
  42
-0.0238
  70
32
  0
VERTEX
  5
5CD
  100
AcDbEntity
  8
Layer 1
  62
0
  100
AcDb2dVertex
  10
1.35658
  20
1.38047
  30
0.00000
  70
32
  0
VERTEX
  5
5CE
  100
AcDbEntity
  8
Layer 1
  62
0
  100
AcDb2dVertex
  10
1.34700
  20
1.37700
  30
0.00000
  70
32
  0
VERTEX
  5
5CF
  100
AcDbEntity
  8
Layer 1
  62
0
  100
AcDb2dVertex
  10
1.33900
  20
1.36500
  30
0.00000
  70
32
  0
VERTEX
  5
5D0
  100
AcDbEntity
  8
Layer 1
  62
0
  100
AcDb2dVertex
  10
1.34700
  20
1.35400
  30
0.00000
  70
32
  0
VERTEX
  5
5D1
  100
AcDbEntity
  8
Layer 1
  62
0
  100
AcDb2dVertex
  10
1.47700
  20
1.35400
  30
0.00000
  42
0.0630
  70
32
  0
VERTEX
  5
5D2
  100
AcDbEntity
  8
Layer 1
  62
0
  100
AcDb2dVertex
  10
1.52290
  20
1.36106
  30
0.00000
  42
0.0370
  70
32
  0
VERTEX
  5
5D3
  100
AcDbEntity
  8
Layer 1
  62
0
  100
AcDb2dVertex
  10
1.60120
  20
1.38935
  30
0.00000
  70
32
  0
VERTEX
  5
5D4
  100
AcDbEntity
  8
Layer 1
  62
0
  100
AcDb2dVertex
  10
1.61400
  20
1.39500
  30
0.00000
  70
32
  0
VERTEX
  5
5D5
  100
AcDbEntity
  8
Layer 1
  62
0
  100
AcDb2dVertex
  10
1.62600
  20
1.38400
  30
0.00000
  42
-0.1744
  70
32
  0
VERTEX
  5
5D6
  100
AcDbEntity
  8
Layer 1
  62
0
  100
AcDb2dVertex
  10
1.61973
  20
1.37204
  30
0.00000
  42
-0.0732
  70
32
  0
VERTEX
  5
5D7
  100
AcDbEntity
  8
Layer 1
  62
0
  100
AcDb2dVertex
  10
1.59716
  20
1.35594
  30
0.00000
  42
-0.0331
  70
32
  0
VERTEX
  5
5D8
  100
AcDbEntity
  8
Layer 1
  62
0
  100
AcDb2dVertex
  10
1.53900
  20
1.33000
  30
0.00000
  42
-0.0190
  70
32
  0
VERTEX
  5
5D9
  100
AcDbEntity
  8
Layer 1
  62
0
  100
AcDb2dVertex
  10
1.44450
  20
1.30023
  30
0.00000
  70
32
  0
VERTEX
  5
5DA
  100
AcDbEntity
  8
Layer 1
  62
0
  100
AcDb2dVertex
  10
1.43100
  20
1.29700
  30
0.00000
  42
0.0315
  70
32
  0
VERTEX
  5
5DB
  100
AcDbEntity
  8
Layer 1
  62
0
  100
AcDb2dVertex
  10
1.38386
  20
1.28894
  30
0.00000
  42
0.0953
  70
32
  0
VERTEX
  5
5DC
  100
AcDbEntity
  8
Layer 1
  62
0
  100
AcDb2dVertex
  10
1.37230
  20
1.28421
  30
0.00000
  42
0.2223
  70
32
  0
VERTEX
  5
5DD
  100
AcDbEntity
  8
Layer 1
  62
0
  100
AcDb2dVertex
  10
1.37100
  20
1.28200
  30
0.00000
  42
0.1964
  70
32
  0
VERTEX
  5
5DE
  100
AcDbEntity
  8
Layer 1
  62
0
  100
AcDb2dVertex
  10
1.37900
  20
1.26400
  30
0.00000
  42
-0.1767
  70
32
  0
VERTEX
  5
5DF
  100
AcDbEntity
  8
Layer 1
  62
0
  100
AcDb2dVertex
  10
1.38694
  20
1.24193
  30
0.00000
  70
32
  0
VERTEX
  5
5E0
  100
AcDbEntity
  8
Layer 1
  62
0
  100
AcDb2dVertex
  10
1.38700
  20
1.23900
  30
0.00000
  42
-0.1321
  70
32
  0
VERTEX
  5
5E1
  100
AcDbEntity
  8
Layer 1
  62
0
  100
AcDb2dVertex
  10
1.37948
  20
1.21519
  30
0.00000
  42
-0.0283
  70
32
  0
VERTEX
  5
5E2
  100
AcDbEntity
  8
Layer 1
  62
0
  100
AcDb2dVertex
  10
1.37400
  20
1.20700
  30
0.00000
  70
32
  0
VERTEX
  5
5E3
  100
AcDbEntity
  8
Layer 1
  62
0
  100
AcDb2dVertex
  10
1.37400
  20
1.20000
  30
0.00000
  42
0.2821
  70
32
  0
VERTEX
  5
5E4
  100
AcDbEntity
  8
Layer 1
  62
0
  100
AcDb2dVertex
  10
1.37812
  20
1.19450
  30
0.00000
  42
0.0914
  70
32
  0
VERTEX
  5
5E5
  100
AcDbEntity
  8
Layer 1
  62
0
  100
AcDb2dVertex
  10
1.39514
  20
1.19016
  30
0.00000
  42
0.0286
  70
32
  0
VERTEX
  5
5E6
  100
AcDbEntity
  8
Layer 1
  62
0
  100
AcDb2dVertex
  10
1.41900
  20
1.18900
  30
0.00000
  42
-0.0373
  70
32
  0
VERTEX
  5
5E7
  100
AcDbEntity
  8
Layer 1
  62
0
  100
AcDb2dVertex
  10
1.47862
  20
1.18322
  30
0.00000
  42
-0.0121
  70
32
  0
VERTEX
  5
5E8
  100
AcDbEntity
  8
Layer 1
  62
0
  100
AcDb2dVertex
  10
1.53900
  20
1.17200
  30
0.00000
  42
-0.0359
  70
32
  0
VERTEX
  5
5E9
  100
AcDbEntity
  8
Layer 1
  62
0
  100
AcDb2dVertex
  10
1.60385
  20
1.15629
  30
0.00000
  42
-0.0693
  70
32
  0
VERTEX
  5
5EA
  100
AcDbEntity
  8
Layer 1
  62
0
  100
AcDb2dVertex
  10
1.63027
  20
1.14396
  30
0.00000
  42
-0.1586
  70
32
  0
VERTEX
  5
5EB
  100
AcDbEntity
  8
Layer 1
  62
0
  100
AcDb2dVertex
  10
1.63856
  20
1.13427
  30
0.00000
  70
32
  0
VERTEX
  5
5EC
  100
AcDbEntity
  8
Layer 1
  62
0
  100
AcDb2dVertex
  10
1.63900
  20
1.13200
  30
0.00000
  70
32
  0
SEQEND
  5
5ED
  100
AcDbEntity
  8
Layer 1
  62
0
  0
POLYLINE
  5
5EE
  100
AcDbEntity
  8
Layer 1
  62
0
  100
AcDb2dPolyline
 66
     1
  10
0
  20
0
  30
0
  70
1
  0
VERTEX
  5
5EF
  100
AcDbEntity
  8
Layer 1
  62
0
  100
AcDb2dVertex
  10
1.68700
  20
0.94400
  30
0.00000
  42
-0.1564
  70
32
  0
VERTEX
  5
5F0
  100
AcDbEntity
  8
Layer 1
  62
0
  100
AcDb2dVertex
  10
1.68361
  20
0.93036
  30
0.00000
  42
-0.2163
  70
32
  0
VERTEX
  5
5F1
  100
AcDbEntity
  8
Layer 1
  62
0
  100
AcDb2dVertex
  10
1.67188
  20
0.92428
  30
0.00000
  70
32
  0
VERTEX
  5
5F2
  100
AcDbEntity
  8
Layer 1
  62
0
  100
AcDb2dVertex
  10
1.66700
  20
0.92400
  30
0.00000
  42
0.0086
  70
32
  0
VERTEX
  5
5F3
  100
AcDbEntity
  8
Layer 1
  62
0
  100
AcDb2dVertex
  10
1.61400
  20
0.93500
  30
0.00000
  42
-0.0500
  70
32
  0
VERTEX
  5
5F4
  100
AcDbEntity
  8
Layer 1
  62
0
  100
AcDb2dVertex
  10
1.56396
  20
0.91148
  30
0.00000
  42
-0.0764
  70
32
  0
VERTEX
  5
5F5
  100
AcDbEntity
  8
Layer 1
  62
0
  100
AcDb2dVertex
  10
1.54100
  20
0.90700
  30
0.00000
  42
-0.1688
  70
32
  0
VERTEX
  5
5F6
  100
AcDbEntity
  8
Layer 1
  62
0
  100
AcDb2dVertex
  10
1.48709
  20
0.92605
  30
0.00000
  42
-0.0874
  70
32
  0
VERTEX
  5
5F7
  100
AcDbEntity
  8
Layer 1
  62
0
  100
AcDb2dVertex
  10
1.45200
  20
0.96585
  30
0.00000
  42
-0.0222
  70
32
  0
VERTEX
  5
5F8
  100
AcDbEntity
  8
Layer 1
  62
0
  100
AcDb2dVertex
  10
1.44100
  20
0.98500
  30
0.00000
  70
32
  0
VERTEX
  5
5F9
  100
AcDbEntity
  8
Layer 1
  62
0
  100
AcDb2dVertex
  10
1.45200
  20
0.99500
  30
0.00000
  42
-0.0616
  70
32
  0
VERTEX
  5
5FA
  100
AcDbEntity
  8
Layer 1
  62
0
  100
AcDb2dVertex
  10
1.45917
  20
0.98912
  30
0.00000
  42
-0.0102
  70
32
  0
VERTEX
  5
5FB
  100
AcDbEntity
  8
Layer 1
  62
0
  100
AcDb2dVertex
  10
1.48200
  20
0.96700
  30
0.00000
  42
0.0911
  70
32
  0
VERTEX
  5
5FC
  100
AcDbEntity
  8
Layer 1
  62
0
  100
AcDb2dVertex
  10
1.51343
  20
0.94411
  30
0.00000
  42
0.1060
  70
32
  0
VERTEX
  5
5FD
  100
AcDbEntity
  8
Layer 1
  62
0
  100
AcDb2dVertex
  10
1.53600
  20
0.93900
  30
0.00000
  42
0.1504
  70
32
  0
VERTEX
  5
5FE
  100
AcDbEntity
  8
Layer 1
  62
0
  100
AcDb2dVertex
  10
1.56838
  20
0.94970
  30
0.00000
  42
0.0758
  70
32
  0
VERTEX
  5
5FF
  100
AcDbEntity
  8
Layer 1
  62
0
  100
AcDb2dVertex
  10
1.59700
  20
0.97700
  30
0.00000
  70
32
  0
VERTEX
  5
600
  100
AcDbEntity
  8
Layer 1
  62
0
  100
AcDb2dVertex
  10
1.62100
  20
0.96700
  30
0.00000
  70
32
  0
VERTEX
  5
601
  100
AcDbEntity
  8
Layer 1
  62
0
  100
AcDb2dVertex
  10
1.59700
  20
0.97700
  30
0.00000
  42
0.1482
  70
32
  0
VERTEX
  5
602
  100
AcDbEntity
  8
Layer 1
  62
0
  100
AcDb2dVertex
  10
1.60051
  20
0.98450
  30
0.00000
  42
0.0462
  70
32
  0
VERTEX
  5
603
  100
AcDbEntity
  8
Layer 1
  62
0
  100
AcDb2dVertex
  10
1.60363
  20
1.01568
  30
0.00000
  42
0.0086
  70
32
  0
VERTEX
  5
604
  100
AcDbEntity
  8
Layer 1
  62
0
  100
AcDb2dVertex
  10
1.60400
  20
1.04000
  30
0.00000
  42
0.1650
  70
32
  0
VERTEX
  5
605
  100
AcDbEntity
  8
Layer 1
  62
0
  100
AcDb2dVertex
  10
1.59598
  20
1.06697
  30
0.00000
  42
0.1565
  70
32
  0
VERTEX
  5
606
  100
AcDbEntity
  8
Layer 1
  62
0
  100
AcDb2dVertex
  10
1.57279
  20
1.08246
  30
0.00000
  42
0.0781
  70
32
  0
VERTEX
  5
607
  100
AcDbEntity
  8
Layer 1
  62
0
  100
AcDb2dVertex
  10
1.53900
  20
1.08700
  30
0.00000
  42
-0.0592
  70
32
  0
VERTEX
  5
608
  100
AcDbEntity
  8
Layer 1
  62
0
  100
AcDb2dVertex
  10
1.50859
  20
1.08970
  30
0.00000
  42
-0.1490
  70
32
  0
VERTEX
  5
609
  100
AcDbEntity
  8
Layer 1
  62
0
  100
AcDb2dVertex
  10
1.49858
  20
1.09480
  30
0.00000
  42
-0.1824
  70
32
  0
VERTEX
  5
60A
  100
AcDbEntity
  8
Layer 1
  62
0
  100
AcDb2dVertex
  10
1.49700
  20
1.09900
  30
0.00000
  42
-0.2902
  70
32
  0
VERTEX
  5
60B
  100
AcDbEntity
  8
Layer 1
  62
0
  100
AcDb2dVertex
  10
1.50373
  20
1.10939
  30
0.00000
  42
-0.0992
  70
32
  0
VERTEX
  5
60C
  100
AcDbEntity
  8
Layer 1
  62
0
  100
AcDb2dVertex
  10
1.52262
  20
1.11427
  30
0.00000
  42
-0.0252
  70
32
  0
VERTEX
  5
60D
  100
AcDbEntity
  8
Layer 1
  62
0
  100
AcDb2dVertex
  10
1.53900
  20
1.11500
  30
0.00000
  42
-0.0946
  70
32
  0
VERTEX
  5
60E
  100
AcDbEntity
  8
Layer 1
  62
0
  100
AcDb2dVertex
  10
1.58493
  20
1.10728
  30
0.00000
  42
-0.2065
  70
32
  0
VERTEX
  5
60F
  100
AcDbEntity
  8
Layer 1
  62
0
  100
AcDb2dVertex
  10
1.62841
  20
1.06464
  30
0.00000
  42
-0.0876
  70
32
  0
VERTEX
  5
610
  100
AcDbEntity
  8
Layer 1
  62
0
  100
AcDb2dVertex
  10
1.63862
  20
1.01731
  30
0.00000
  70
32
  0
VERTEX
  5
611
  100
AcDbEntity
  8
Layer 1
  62
0
  100
AcDb2dVertex
  10
1.63900
  20
1.00400
  30
0.00000
  42
0.1706
  70
32
  0
VERTEX
  5
612
  100
AcDbEntity
  8
Layer 1
  62
0
  100
AcDb2dVertex
  10
1.64495
  20
0.98981
  30
0.00000
  42
0.0720
  70
32
  0
VERTEX
  5
613
  100
AcDbEntity
  8
Layer 1
  62
0
  100
AcDb2dVertex
  10
1.66300
  20
0.97400
  30
0.00000
  42
-0.0856
  70
32
  0
VERTEX
  5
614
  100
AcDbEntity
  8
Layer 1
  62
0
  100
AcDb2dVertex
  10
1.68245
  20
0.95633
  30
0.00000
  42
-0.1560
  70
32
  0
VERTEX
  5
615
  100
AcDbEntity
  8
Layer 1
  62
0
  100
AcDb2dVertex
  10
1.68700
  20
0.94400
  30
0.00000
  70
32
  0
SEQEND
  5
616
  100
AcDbEntity
  8
Layer 1
  62
0
  0
POLYLINE
  5
617
  100
AcDbEntity
  8
Layer 1
  62
0
  100
AcDb2dPolyline
 66
     1
  10
0
  20
0
  30
0
  70
1
  0
VERTEX
  5
618
  100
AcDbEntity
  8
Layer 1
  62
0
  100
AcDb2dVertex
  10
2.00700
  20
0.68700
  30
0.00000
  42
-0.0499
  70
32
  0
VERTEX
  5
619
  100
AcDbEntity
  8
Layer 1
  62
0
  100
AcDb2dVertex
  10
2.00263
  20
0.65715
  30
0.00000
  70
32
  0
VERTEX
  5
61A
  100
AcDbEntity
  8
Layer 1
  62
0
  100
AcDb2dVertex
  10
2.00100
  20
0.65000
  30
0.00000
  42
0.0288
  70
32
  0
VERTEX
  5
61B
  100
AcDbEntity
  8
Layer 1
  62
0
  100
AcDb2dVertex
  10
1.99223
  20
0.61650
  30
0.00000
  70
32
  0
VERTEX
  5
61C
  100
AcDbEntity
  8
Layer 1
  62
0
  100
AcDb2dVertex
  10
1.99200
  20
0.61400
  30
0.00000
  70
32
  0
VERTEX
  5
61D
  100
AcDbEntity
  8
Layer 1
  62
0
  100
AcDb2dVertex
  10
1.98100
  20
0.60400
  30
0.00000
  42
-0.2217
  70
32
  0
VERTEX
  5
61E
  100
AcDbEntity
  8
Layer 1
  62
0
  100
AcDb2dVertex
  10
1.97228
  20
0.60872
  30
0.00000
  42
-0.0430
  70
32
  0
VERTEX
  5
61F
  100
AcDbEntity
  8
Layer 1
  62
0
  100
AcDb2dVertex
  10
1.96700
  20
0.61600
  30
0.00000
  42
0.1507
  70
32
  0
VERTEX
  5
620
  100
AcDbEntity
  8
Layer 1
  62
0
  100
AcDb2dVertex
  10
1.95486
  20
0.62778
  30
0.00000
  42
0.1022
  70
32
  0
VERTEX
  5
621
  100
AcDbEntity
  8
Layer 1
  62
0
  100
AcDb2dVertex
  10
1.94900
  20
0.62900
  30
0.00000
  42
0.2092
  70
32
  0
VERTEX
  5
622
  100
AcDbEntity
  8
Layer 1
  62
0
  100
AcDb2dVertex
  10
1.94053
  20
0.62432
  30
0.00000
  42
0.0732
  70
32
  0
VERTEX
  5
623
  100
AcDbEntity
  8
Layer 1
  62
0
  100
AcDb2dVertex
  10
1.92864
  20
0.60462
  30
0.00000
  70
32
  0
VERTEX
  5
624
  100
AcDbEntity
  8
Layer 1
  62
0
  100
AcDb2dVertex
  10
1.92700
  20
0.60100
  30
0.00000
  42
-0.1239
  70
32
  0
VERTEX
  5
625
  100
AcDbEntity
  8
Layer 1
  62
0
  100
AcDb2dVertex
  10
1.91033
  20
0.58008
  30
0.00000
  42
-0.1582
  70
32
  0
VERTEX
  5
626
  100
AcDbEntity
  8
Layer 1
  62
0
  100
AcDb2dVertex
  10
1.89100
  20
0.57400
  30
0.00000
  42
-0.0747
  70
32
  0
VERTEX
  5
627
  100
AcDbEntity
  8
Layer 1
  62
0
  100
AcDb2dVertex
  10
1.87534
  20
0.57756
  30
0.00000
  70
32
  0
VERTEX
  5
628
  100
AcDbEntity
  8
Layer 1
  62
0
  100
AcDb2dVertex
  10
1.87100
  20
0.57900
  30
0.00000
  42
0.0904
  70
32
  0
VERTEX
  5
629
  100
AcDbEntity
  8
Layer 1
  62
0
  100
AcDb2dVertex
  10
1.85039
  20
0.58497
  30
0.00000
  70
32
  0
VERTEX
  5
62A
  100
AcDbEntity
  8
Layer 1
  62
0
  100
AcDb2dVertex
  10
1.84900
  20
0.58500
  30
0.00000
  42
0.1771
  70
32
  0
VERTEX
  5
62B
  100
AcDbEntity
  8
Layer 1
  62
0
  100
AcDb2dVertex
  10
1.81916
  20
0.57371
  30
0.00000
  70
32
  0
VERTEX
  5
62C
  100
AcDbEntity
  8
Layer 1
  62
0
  100
AcDb2dVertex
  10
1.81600
  20
0.57100
  30
0.00000
  42
-0.0763
  70
32
  0
VERTEX
  5
62D
  100
AcDbEntity
  8
Layer 1
  62
0
  100
AcDb2dVertex
  10
1.79575
  20
0.55802
  30
0.00000
  42
-0.0860
  70
32
  0
VERTEX
  5
62E
  100
AcDbEntity
  8
Layer 1
  62
0
  100
AcDb2dVertex
  10
1.79100
  20
0.55700
  30
0.00000
  42
-0.2578
  70
32
  0
VERTEX
  5
62F
  100
AcDbEntity
  8
Layer 1
  62
0
  100
AcDb2dVertex
  10
1.78307
  20
0.56208
  30
0.00000
  42
-0.0958
  70
32
  0
VERTEX
  5
630
  100
AcDbEntity
  8
Layer 1
  62
0
  100
AcDb2dVertex
  10
1.77700
  20
0.57900
  30
0.00000
  42
0.1037
  70
32
  0
VERTEX
  5
631
  100
AcDbEntity
  8
Layer 1
  62
0
  100
AcDb2dVertex
  10
1.76772
  20
0.59947
  30
0.00000
  42
0.1524
  70
32
  0
VERTEX
  5
632
  100
AcDbEntity
  8
Layer 1
  62
0
  100
AcDb2dVertex
  10
1.76000
  20
0.60500
  30
0.00000
  70
32
  0
VERTEX
  5
633
  100
AcDbEntity
  8
Layer 1
  62
0
  100
AcDb2dVertex
  10
1.74900
  20
0.60850
  30
0.00000
  70
32
  0
VERTEX
  5
634
  100
AcDbEntity
  8
Layer 1
  62
0
  100
AcDb2dVertex
  10
1.73800
  20
0.61200
  30
0.00000
  42
-0.3830
  70
32
  0
VERTEX
  5
635
  100
AcDbEntity
  8
Layer 1
  62
0
  100
AcDb2dVertex
  10
1.72881
  20
0.62444
  30
0.00000
  70
32
  0
VERTEX
  5
636
  100
AcDbEntity
  8
Layer 1
  62
0
  100
AcDb2dVertex
  10
1.72900
  20
0.62700
  30
0.00000
  70
32
  0
VERTEX
  5
637
  100
AcDbEntity
  8
Layer 1
  62
0
  100
AcDb2dVertex
  10
1.73100
  20
0.65200
  30
0.00000
  70
32
  0
VERTEX
  5
638
  100
AcDbEntity
  8
Layer 1
  62
0
  100
AcDb2dVertex
  10
1.79200
  20
0.65500
  30
0.00000
  70
32
  0
VERTEX
  5
639
  100
AcDbEntity
  8
Layer 1
  62
0
  100
AcDb2dVertex
  10
1.73100
  20
0.65200
  30
0.00000
  70
32
  0
VERTEX
  5
63A
  100
AcDbEntity
  8
Layer 1
  62
0
  100
AcDb2dVertex
  10
1.72752
  20
0.69570
  30
0.00000
  70
32
  0
VERTEX
  5
63B
  100
AcDbEntity
  8
Layer 1
  62
0
  100
AcDb2dVertex
  10
1.72632
  20
0.71051
  30
0.00000
  70
32
  0
VERTEX
  5
63C
  100
AcDbEntity
  8
Layer 1
  62
0
  100
AcDb2dVertex
  10
1.72607
  20
0.71216
  30
0.00000
  70
32
  0
VERTEX
  5
63D
  100
AcDbEntity
  8
Layer 1
  62
0
  100
AcDb2dVertex
  10
1.72600
  20
0.71000
  30
0.00000
  42
-0.1450
  70
32
  0
VERTEX
  5
63E
  100
AcDbEntity
  8
Layer 1
  62
0
  100
AcDb2dVertex
  10
1.73155
  20
0.73224
  30
0.00000
  42
-0.1963
  70
32
  0
VERTEX
  5
63F
  100
AcDbEntity
  8
Layer 1
  62
0
  100
AcDb2dVertex
  10
1.75111
  20
0.74526
  30
0.00000
  42
-0.0610
  70
32
  0
VERTEX
  5
640
  100
AcDbEntity
  8
Layer 1
  62
0
  100
AcDb2dVertex
  10
1.76700
  20
0.74700
  30
0.00000
  42
-0.0402
  70
32
  0
VERTEX
  5
641
  100
AcDbEntity
  8
Layer 1
  62
0
  100
AcDb2dVertex
  10
1.81581
  20
0.74181
  30
0.00000
  70
32
  0
VERTEX
  5
642
  100
AcDbEntity
  8
Layer 1
  62
0
  100
AcDb2dVertex
  10
1.82600
  20
0.74000
  30
0.00000
  42
0.0358
  70
32
  0
VERTEX
  5
643
  100
AcDbEntity
  8
Layer 1
  62
0
  100
AcDb2dVertex
  10
1.87927
  20
0.73475
  30
0.00000
  70
32
  0
VERTEX
  5
644
  100
AcDbEntity
  8
Layer 1
  62
0
  100
AcDb2dVertex
  10
1.88700
  20
0.73500
  30
0.00000
  70
32
  0
VERTEX
  5
645
  100
AcDbEntity
  8
Layer 1
  62
0
  100
AcDb2dVertex
  10
1.93725
  20
0.73638
  30
0.00000
  70
32
  0
VERTEX
  5
646
  100
AcDbEntity
  8
Layer 1
  62
0
  100
AcDb2dVertex
  10
1.94719
  20
0.73683
  30
0.00000
  70
32
  0
VERTEX
  5
647
  100
AcDbEntity
  8
Layer 1
  62
0
  100
AcDb2dVertex
  10
1.94836
  20
0.73696
  30
0.00000
  70
32
  0
VERTEX
  5
648
  100
AcDbEntity
  8
Layer 1
  62
0
  100
AcDb2dVertex
  10
1.94700
  20
0.73700
  30
0.00000
  42
-0.0976
  70
32
  0
VERTEX
  5
649
  100
AcDbEntity
  8
Layer 1
  62
0
  100
AcDb2dVertex
  10
1.98007
  20
0.73148
  30
0.00000
  42
-0.2688
  70
32
  0
VERTEX
  5
64A
  100
AcDbEntity
  8
Layer 1
  62
0
  100
AcDb2dVertex
  10
2.00587
  20
0.69969
  30
0.00000
  42
-0.0475
  70
32
  0
VERTEX
  5
64B
  100
AcDbEntity
  8
Layer 1
  62
0
  100
AcDb2dVertex
  10
2.00700
  20
0.68700
  30
0.00000
  70
32
  0
SEQEND
  5
64C
  100
AcDbEntity
  8
Layer 1
  62
0
  0
POLYLINE
  5
64D
  100
AcDbEntity
  8
Layer 1
  62
0
  100
AcDb2dPolyline
 66
     1
  10
0
  20
0
  30
0
  70
1
  0
VERTEX
  5
64E
  100
AcDbEntity
  8
Layer 1
  62
0
  100
AcDb2dVertex
  10
2.00700
  20
0.44700
  30
0.00000
  42
-0.0504
  70
32
  0
VERTEX
  5
64F
  100
AcDbEntity
  8
Layer 1
  62
0
  100
AcDb2dVertex
  10
2.00316
  20
0.43150
  30
0.00000
  42
-0.0110
  70
32
  0
VERTEX
  5
650
  100
AcDbEntity
  8
Layer 1
  62
0
  100
AcDb2dVertex
  10
1.98200
  20
0.37000
  30
0.00000
  70
32
  0
VERTEX
  5
651
  100
AcDbEntity
  8
Layer 1
  62
0
  100
AcDb2dVertex
  10
2.00200
  20
0.29400
  30
0.00000
  42
-0.4211
  70
32
  0
VERTEX
  5
652
  100
AcDbEntity
  8
Layer 1
  62
0
  100
AcDb2dVertex
  10
1.99858
  20
0.28405
  30
0.00000
  42
-0.1033
  70
32
  0
VERTEX
  5
653
  100
AcDbEntity
  8
Layer 1
  62
0
  100
AcDb2dVertex
  10
1.98292
  20
0.27981
  30
0.00000
  42
-0.0277
  70
32
  0
VERTEX
  5
654
  100
AcDbEntity
  8
Layer 1
  62
0
  100
AcDb2dVertex
  10
1.96600
  20
0.27900
  30
0.00000
  42
-0.0544
  70
32
  0
VERTEX
  5
655
  100
AcDbEntity
  8
Layer 1
  62
0
  100
AcDb2dVertex
  10
1.93977
  20
0.28098
  30
0.00000
  42
-0.1788
  70
32
  0
VERTEX
  5
656
  100
AcDbEntity
  8
Layer 1
  62
0
  100
AcDb2dVertex
  10
1.93267
  20
0.28475
  30
0.00000
  42
-0.1498
  70
32
  0
VERTEX
  5
657
  100
AcDbEntity
  8
Layer 1
  62
0
  100
AcDb2dVertex
  10
1.93200
  20
0.28700
  30
0.00000
  42
-0.0662
  70
32
  0
VERTEX
  5
658
  100
AcDbEntity
  8
Layer 1
  62
0
  100
AcDb2dVertex
  10
1.93576
  20
0.30092
  30
0.00000
  42
-0.0133
  70
32
  0
VERTEX
  5
659
  100
AcDbEntity
  8
Layer 1
  62
0
  100
AcDb2dVertex
  10
1.94900
  20
0.33400
  30
0.00000
  70
32
  0
VERTEX
  5
65A
  100
AcDbEntity
  8
Layer 1
  62
0
  100
AcDb2dVertex
  10
1.94100
  20
0.34500
  30
0.00000
  42
-0.0236
  70
32
  0
VERTEX
  5
65B
  100
AcDbEntity
  8
Layer 1
  62
0
  100
AcDb2dVertex
  10
1.90600
  20
0.34900
  30
0.00000
  42
-0.1534
  70
32
  0
VERTEX
  5
65C
  100
AcDbEntity
  8
Layer 1
  62
0
  100
AcDb2dVertex
  10
1.89049
  20
0.35402
  30
0.00000
  42
-0.2237
  70
32
  0
VERTEX
  5
65D
  100
AcDbEntity
  8
Layer 1
  62
0
  100
AcDb2dVertex
  10
1.88404
  20
0.36840
  30
0.00000
  70
32
  0
VERTEX
  5
65E
  100
AcDbEntity
  8
Layer 1
  62
0
  100
AcDb2dVertex
  10
1.88400
  20
0.37000
  30
0.00000
  42
-0.1957
  70
32
  0
VERTEX
  5
65F
  100
AcDbEntity
  8
Layer 1
  62
0
  100
AcDb2dVertex
  10
1.89027
  20
0.38816
  30
0.00000
  42
-0.1568
  70
32
  0
VERTEX
  5
660
  100
AcDbEntity
  8
Layer 1
  62
0
  100
AcDb2dVertex
  10
1.90750
  20
0.39671
  30
0.00000
  70
32
  0
VERTEX
  5
661
  100
AcDbEntity
  8
Layer 1
  62
0
  100
AcDb2dVertex
  10
1.90900
  20
0.39700
  30
0.00000
  42
0.0116
  70
32
  0
VERTEX
  5
662
  100
AcDbEntity
  8
Layer 1
  62
0
  100
AcDb2dVertex
  10
1.94203
  20
0.40319
  30
0.00000
  70
32
  0
VERTEX
  5
663
  100
AcDbEntity
  8
Layer 1
  62
0
  100
AcDb2dVertex
  10
1.95100
  20
0.40500
  30
0.00000
  70
32
  0
VERTEX
  5
664
  100
AcDbEntity
  8
Layer 1
  62
0
  100
AcDb2dVertex
  10
1.95100
  20
0.40700
  30
0.00000
  42
0.0814
  70
32
  0
VERTEX
  5
665
  100
AcDbEntity
  8
Layer 1
  62
0
  100
AcDb2dVertex
  10
1.94661
  20
0.42541
  30
0.00000
  42
0.0227
  70
32
  0
VERTEX
  5
666
  100
AcDbEntity
  8
Layer 1
  62
0
  100
AcDb2dVertex
  10
1.93600
  20
0.45000
  30
0.00000
  42
-0.2794
  70
32
  0
VERTEX
  5
667
  100
AcDbEntity
  8
Layer 1
  62
0
  100
AcDb2dVertex
  10
1.94019
  20
0.45577
  30
0.00000
  42
-0.0909
  70
32
  0
VERTEX
  5
668
  100
AcDbEntity
  8
Layer 1
  62
0
  100
AcDb2dVertex
  10
1.95717
  20
0.46036
  30
0.00000
  42
-0.0319
  70
32
  0
VERTEX
  5
669
  100
AcDbEntity
  8
Layer 1
  62
0
  100
AcDb2dVertex
  10
1.98900
  20
0.46200
  30
0.00000
  42
-0.1653
  70
32
  0
VERTEX
  5
66A
  100
AcDbEntity
  8
Layer 1
  62
0
  100
AcDb2dVertex
  10
2.00218
  20
0.45851
  30
0.00000
  42
-0.2417
  70
32
  0
VERTEX
  5
66B
  100
AcDbEntity
  8
Layer 1
  62
0
  100
AcDb2dVertex
  10
2.00700
  20
0.44700
  30
0.00000
  70
32
  0
SEQEND
  5
66C
  100
AcDbEntity
  8
Layer 1
  62
0
  0
POLYLINE
  5
66D
  100
AcDbEntity
  8
Layer 1
  62
0
  100
AcDb2dPolyline
 66
     1
  10
0
  20
0
  30
0
  70
1
  0
VERTEX
  5
66E
  100
AcDbEntity
  8
Layer 1
  62
0
  100
AcDb2dVertex
  10
0.91900
  20
1.53700
  30
0.00000
  70
32
  0
VERTEX
  5
66F
  100
AcDbEntity
  8
Layer 1
  62
0
  100
AcDb2dVertex
  10
0.91700
  20
1.52900
  30
0.00000
  42
0.0427
  70
32
  0
VERTEX
  5
670
  100
AcDbEntity
  8
Layer 1
  62
0
  100
AcDb2dVertex
  10
0.89700
  20
1.50400
  30
0.00000
  42
-0.0827
  70
32
  0
VERTEX
  5
671
  100
AcDbEntity
  8
Layer 1
  62
0
  100
AcDb2dVertex
  10
0.88340
  20
1.48765
  30
0.00000
  42
-0.1690
  70
32
  0
VERTEX
  5
672
  100
AcDbEntity
  8
Layer 1
  62
0
  100
AcDb2dVertex
  10
0.87400
  20
1.48400
  30
0.00000
  42
-0.2291
  70
32
  0
VERTEX
  5
673
  100
AcDbEntity
  8
Layer 1
  62
0
  100
AcDb2dVertex
  10
0.85887
  20
1.49178
  30
0.00000
  42
-0.0904
  70
32
  0
VERTEX
  5
674
  100
AcDbEntity
  8
Layer 1
  62
0
  100
AcDb2dVertex
  10
0.84750
  20
1.51374
  30
0.00000
  42
-0.0275
  70
32
  0
VERTEX
  5
675
  100
AcDbEntity
  8
Layer 1
  62
0
  100
AcDb2dVertex
  10
0.84100
  20
1.53700
  30
0.00000
  42
0.0760
  70
32
  0
VERTEX
  5
676
  100
AcDbEntity
  8
Layer 1
  62
0
  100
AcDb2dVertex
  10
0.82984
  20
1.57105
  30
0.00000
  42
0.1501
  70
32
  0
VERTEX
  5
677
  100
AcDbEntity
  8
Layer 1
  62
0
  100
AcDb2dVertex
  10
0.81404
  20
1.58780
  30
0.00000
  42
0.1081
  70
32
  0
VERTEX
  5
678
  100
AcDbEntity
  8
Layer 1
  62
0
  100
AcDb2dVertex
  10
0.80200
  20
1.59100
  30
0.00000
  42
0.2191
  70
32
  0
VERTEX
  5
679
  100
AcDbEntity
  8
Layer 1
  62
0
  100
AcDb2dVertex
  10
0.78279
  20
1.58169
  30
0.00000
  42
0.1248
  70
32
  0
VERTEX
  5
67A
  100
AcDbEntity
  8
Layer 1
  62
0
  100
AcDb2dVertex
  10
0.77600
  20
1.56500
  30
0.00000
  42
-0.0812
  70
32
  0
VERTEX
  5
67B
  100
AcDbEntity
  8
Layer 1
  62
0
  100
AcDb2dVertex
  10
0.76916
  20
1.54550
  30
0.00000
  42
-0.2429
  70
32
  0
VERTEX
  5
67C
  100
AcDbEntity
  8
Layer 1
  62
0
  100
AcDb2dVertex
  10
0.76015
  20
1.53906
  30
0.00000
  70
32
  0
VERTEX
  5
67D
  100
AcDbEntity
  8
Layer 1
  62
0
  100
AcDb2dVertex
  10
0.75900
  20
1.53900
  30
0.00000
  42
-0.2539
  70
32
  0
VERTEX
  5
67E
  100
AcDbEntity
  8
Layer 1
  62
0
  100
AcDb2dVertex
  10
0.74467
  20
1.54694
  30
0.00000
  42
-0.0849
  70
32
  0
VERTEX
  5
67F
  100
AcDbEntity
  8
Layer 1
  62
0
  100
AcDb2dVertex
  10
0.73700
  20
1.56400
  30
0.00000
  42
0.1469
  70
32
  0
VERTEX
  5
680
  100
AcDbEntity
  8
Layer 1
  62
0
  100
AcDb2dVertex
  10
0.72664
  20
1.58332
  30
0.00000
  42
0.1917
  70
32
  0
VERTEX
  5
681
  100
AcDbEntity
  8
Layer 1
  62
0
  100
AcDb2dVertex
  10
0.71200
  20
1.58900
  30
0.00000
  42
0.1666
  70
32
  0
VERTEX
  5
682
  100
AcDbEntity
  8
Layer 1
  62
0
  100
AcDb2dVertex
  10
0.66191
  20
1.57149
  30
0.00000
  42
0.0851
  70
32
  0
VERTEX
  5
683
  100
AcDbEntity
  8
Layer 1
  62
0
  100
AcDb2dVertex
  10
0.62795
  20
1.53392
  30
0.00000
  42
0.0545
  70
32
  0
VERTEX
  5
684
  100
AcDbEntity
  8
Layer 1
  62
0
  100
AcDb2dVertex
  10
0.59554
  20
1.46854
  30
0.00000
  70
32
  0
VERTEX
  5
685
  100
AcDbEntity
  8
Layer 1
  62
0
  100
AcDb2dVertex
  10
0.59200
  20
1.45900
  30
0.00000
  70
32
  0
VERTEX
  5
686
  100
AcDbEntity
  8
Layer 1
  62
0
  100
AcDb2dVertex
  10
0.58200
  20
1.45400
  30
0.00000
  42
-0.2105
  70
32
  0
VERTEX
  5
687
  100
AcDbEntity
  8
Layer 1
  62
0
  100
AcDb2dVertex
  10
0.57208
  20
1.46216
  30
0.00000
  42
-0.0543
  70
32
  0
VERTEX
  5
688
  100
AcDbEntity
  8
Layer 1
  62
0
  100
AcDb2dVertex
  10
0.56900
  20
1.46900
  30
0.00000
  70
32
  0
VERTEX
  5
689
  100
AcDbEntity
  8
Layer 1
  62
0
  100
AcDb2dVertex
  10
0.57650
  20
1.49241
  30
0.00000
  70
32
  0
VERTEX
  5
68A
  100
AcDbEntity
  8
Layer 1
  62
0
  100
AcDb2dVertex
  10
0.58400
  20
1.51600
  30
0.00000
  42
-0.1670
  70
32
  0
VERTEX
  5
68B
  100
AcDbEntity
  8
Layer 1
  62
0
  100
AcDb2dVertex
  10
0.61221
  20
1.56880
  30
0.00000
  42
-0.0381
  70
32
  0
VERTEX
  5
68C
  100
AcDbEntity
  8
Layer 1
  62
0
  100
AcDb2dVertex
  10
0.62700
  20
1.58100
  30
0.00000
  42
0.0259
  70
32
  0
VERTEX
  5
68D
  100
AcDbEntity
  8
Layer 1
  62
0
  100
AcDb2dVertex
  10
0.67066
  20
1.61437
  30
0.00000
  42
0.0760
  70
32
  0
VERTEX
  5
68E
  100
AcDbEntity
  8
Layer 1
  62
0
  100
AcDb2dVertex
  10
0.68200
  20
1.62700
  30
0.00000
  42
0.2360
  70
32
  0
VERTEX
  5
68F
  100
AcDbEntity
  8
Layer 1
  62
0
  100
AcDb2dVertex
  10
0.68320
  20
1.62940
  30
0.00000
  42
0.0313
  70
32
  0
VERTEX
  5
690
  100
AcDbEntity
  8
Layer 1
  62
0
  100
AcDb2dVertex
  10
0.68500
  20
1.64200
  30
0.00000
  42
-0.2248
  70
32
  0
VERTEX
  5
691
  100
AcDbEntity
  8
Layer 1
  62
0
  100
AcDb2dVertex
  10
0.69155
  20
1.65091
  30
0.00000
  42
-0.1106
  70
32
  0
VERTEX
  5
692
  100
AcDbEntity
  8
Layer 1
  62
0
  100
AcDb2dVertex
  10
0.69700
  20
1.65200
  30
0.00000
  42
-0.0239
  70
32
  0
VERTEX
  5
693
  100
AcDbEntity
  8
Layer 1
  62
0
  100
AcDb2dVertex
  10
0.76400
  20
1.64900
  30
0.00000
  70
32
  0
VERTEX
  5
694
  100
AcDbEntity
  8
Layer 1
  62
0
  100
AcDb2dVertex
  10
0.76100
  20
1.59200
  30
0.00000
  70
32
  0
VERTEX
  5
695
  100
AcDbEntity
  8
Layer 1
  62
0
  100
AcDb2dVertex
  10
0.76400
  20
1.64900
  30
0.00000
  70
32
  0
VERTEX
  5
696
  100
AcDbEntity
  8
Layer 1
  62
0
  100
AcDb2dVertex
  10
0.77600
  20
1.64900
  30
0.00000
  42
-0.0407
  70
32
  0
VERTEX
  5
697
  100
AcDbEntity
  8
Layer 1
  62
0
  100
AcDb2dVertex
  10
0.82310
  20
1.64607
  30
0.00000
  42
-0.0952
  70
32
  0
VERTEX
  5
698
  100
AcDbEntity
  8
Layer 1
  62
0
  100
AcDb2dVertex
  10
0.84038
  20
1.64047
  30
0.00000
  42
-0.1094
  70
32
  0
VERTEX
  5
699
  100
AcDbEntity
  8
Layer 1
  62
0
  100
AcDb2dVertex
  10
0.84400
  20
1.63700
  30
0.00000
  70
32
  0
VERTEX
  5
69A
  100
AcDbEntity
  8
Layer 1
  62
0
  100
AcDb2dVertex
  10
0.85600
  20
1.58100
  30
0.00000
  42
0.1601
  70
32
  0
VERTEX
  5
69B
  100
AcDbEntity
  8
Layer 1
  62
0
  100
AcDb2dVertex
  10
0.86591
  20
1.57020
  30
0.00000
  42
0.0685
  70
32
  0
VERTEX
  5
69C
  100
AcDbEntity
  8
Layer 1
  62
0
  100
AcDb2dVertex
  10
0.89000
  20
1.56000
  30
0.00000
  42
-0.0932
  70
32
  0
VERTEX
  5
69D
  100
AcDbEntity
  8
Layer 1
  62
0
  100
AcDb2dVertex
  10
0.91213
  20
1.54921
  30
0.00000
  42
-0.2075
  70
32
  0
VERTEX
  5
69E
  100
AcDbEntity
  8
Layer 1
  62
0
  100
AcDb2dVertex
  10
0.91897
  20
1.53789
  30
0.00000
  70
32
  0
VERTEX
  5
69F
  100
AcDbEntity
  8
Layer 1
  62
0
  100
AcDb2dVertex
  10
0.91900
  20
1.53700
  30
0.00000
  70
32
  0
SEQEND
  5
6A0
  100
AcDbEntity
  8
Layer 1
  62
0
  0
POLYLINE
  5
6A1
  100
AcDbEntity
  8
Layer 1
  62
0
  100
AcDb2dPolyline
 66
     1
  10
0
  20
0
  30
0
  70
1
  0
VERTEX
  5
6A2
  100
AcDbEntity
  8
Layer 1
  62
0
  100
AcDb2dVertex
  10
1.71600
  20
0.65900
  30
0.00000
  42
-0.1998
  70
32
  0
VERTEX
  5
6A3
  100
AcDbEntity
  8
Layer 1
  62
0
  100
AcDb2dVertex
  10
1.71244
  20
0.64801
  30
0.00000
  42
-0.2036
  70
32
  0
VERTEX
  5
6A4
  100
AcDbEntity
  8
Layer 1
  62
0
  100
AcDb2dVertex
  10
1.70400
  20
0.64500
  30
0.00000
  42
-0.1453
  70
32
  0
VERTEX
  5
6A5
  100
AcDbEntity
  8
Layer 1
  62
0
  100
AcDb2dVertex
  10
1.70006
  20
0.64835
  30
0.00000
  42
-0.0380
  70
32
  0
VERTEX
  5
6A6
  100
AcDbEntity
  8
Layer 1
  62
0
  100
AcDb2dVertex
  10
1.68200
  20
0.67500
  30
0.00000
  42
0.1354
  70
32
  0
VERTEX
  5
6A7
  100
AcDbEntity
  8
Layer 1
  62
0
  100
AcDb2dVertex
  10
1.65616
  20
0.69931
  30
0.00000
  42
0.1174
  70
32
  0
VERTEX
  5
6A8
  100
AcDbEntity
  8
Layer 1
  62
0
  100
AcDb2dVertex
  10
1.63100
  20
0.70500
  30
0.00000
  42
0.1633
  70
32
  0
VERTEX
  5
6A9
  100
AcDbEntity
  8
Layer 1
  62
0
  100
AcDb2dVertex
  10
1.60385
  20
0.69538
  30
0.00000
  42
0.0396
  70
32
  0
VERTEX
  5
6AA
  100
AcDbEntity
  8
Layer 1
  62
0
  100
AcDb2dVertex
  10
1.59300
  20
0.68600
  30
0.00000
  70
32
  0
VERTEX
  5
6AB
  100
AcDbEntity
  8
Layer 1
  62
0
  100
AcDb2dVertex
  10
1.57400
  20
0.66700
  30
0.00000
  70
32
  0
VERTEX
  5
6AC
  100
AcDbEntity
  8
Layer 1
  62
0
  100
AcDb2dVertex
  10
1.55100
  20
0.68400
  30
0.00000
  70
32
  0
VERTEX
  5
6AD
  100
AcDbEntity
  8
Layer 1
  62
0
  100
AcDb2dVertex
  10
1.57400
  20
0.66700
  30
0.00000
  42
0.0817
  70
32
  0
VERTEX
  5
6AE
  100
AcDbEntity
  8
Layer 1
  62
0
  100
AcDb2dVertex
  10
1.55371
  20
0.62669
  30
0.00000
  42
0.0690
  70
32
  0
VERTEX
  5
6AF
  100
AcDbEntity
  8
Layer 1
  62
0
  100
AcDb2dVertex
  10
1.55100
  20
0.60900
  30
0.00000
  42
0.1337
  70
32
  0
VERTEX
  5
6B0
  100
AcDbEntity
  8
Layer 1
  62
0
  100
AcDb2dVertex
  10
1.55815
  20
0.57879
  30
0.00000
  42
0.1747
  70
32
  0
VERTEX
  5
6B1
  100
AcDbEntity
  8
Layer 1
  62
0
  100
AcDb2dVertex
  10
1.58355
  20
0.55823
  30
0.00000
  42
0.0873
  70
32
  0
VERTEX
  5
6B2
  100
AcDbEntity
  8
Layer 1
  62
0
  100
AcDb2dVertex
  10
1.62109
  20
0.55202
  30
0.00000
  70
32
  0
VERTEX
  5
6B3
  100
AcDbEntity
  8
Layer 1
  62
0
  100
AcDb2dVertex
  10
1.62400
  20
0.55200
  30
0.00000
  70
32
  0
VERTEX
  5
6B4
  100
AcDbEntity
  8
Layer 1
  62
0
  100
AcDb2dVertex
  10
1.63400
  20
0.54000
  30
0.00000
  42
-0.3359
  70
32
  0
VERTEX
  5
6B5
  100
AcDbEntity
  8
Layer 1
  62
0
  100
AcDb2dVertex
  10
1.62762
  20
0.53128
  30
0.00000
  42
-0.0925
  70
32
  0
VERTEX
  5
6B6
  100
AcDbEntity
  8
Layer 1
  62
0
  100
AcDb2dVertex
  10
1.61100
  20
0.52900
  30
0.00000
  42
-0.1242
  70
32
  0
VERTEX
  5
6B7
  100
AcDbEntity
  8
Layer 1
  62
0
  100
AcDb2dVertex
  10
1.56365
  20
0.53981
  30
0.00000
  42
-0.0678
  70
32
  0
VERTEX
  5
6B8
  100
AcDbEntity
  8
Layer 1
  62
0
  100
AcDb2dVertex
  10
1.54400
  20
0.55400
  30
0.00000
  42
-0.1623
  70
32
  0
VERTEX
  5
6B9
  100
AcDbEntity
  8
Layer 1
  62
0
  100
AcDb2dVertex
  10
1.51827
  20
0.60277
  30
0.00000
  42
-0.0405
  70
32
  0
VERTEX
  5
6BA
  100
AcDbEntity
  8
Layer 1
  62
0
  100
AcDb2dVertex
  10
1.51700
  20
0.61900
  30
0.00000
  42
-0.0587
  70
32
  0
VERTEX
  5
6BB
  100
AcDbEntity
  8
Layer 1
  62
0
  100
AcDb2dVertex
  10
1.52059
  20
0.63527
  30
0.00000
  70
32
  0
VERTEX
  5
6BC
  100
AcDbEntity
  8
Layer 1
  62
0
  100
AcDb2dVertex
  10
1.52200
  20
0.64000
  30
0.00000
  70
32
  0
VERTEX
  5
6BD
  100
AcDbEntity
  8
Layer 1
  62
0
  100
AcDb2dVertex
  10
1.52357
  20
0.64759
  30
0.00000
  42
0.0403
  70
32
  0
VERTEX
  5
6BE
  100
AcDbEntity
  8
Layer 1
  62
0
  100
AcDb2dVertex
  10
1.52600
  20
0.66200
  30
0.00000
  42
0.1644
  70
32
  0
VERTEX
  5
6BF
  100
AcDbEntity
  8
Layer 1
  62
0
  100
AcDb2dVertex
  10
1.52155
  20
0.67181
  30
0.00000
  42
0.0505
  70
32
  0
VERTEX
  5
6C0
  100
AcDbEntity
  8
Layer 1
  62
0
  100
AcDb2dVertex
  10
1.50100
  20
0.69100
  30
0.00000
  42
-0.0692
  70
32
  0
VERTEX
  5
6C1
  100
AcDbEntity
  8
Layer 1
  62
0
  100
AcDb2dVertex
  10
1.48072
  20
0.71021
  30
0.00000
  42
-0.1573
  70
32
  0
VERTEX
  5
6C2
  100
AcDbEntity
  8
Layer 1
  62
0
  100
AcDb2dVertex
  10
1.47600
  20
0.72200
  30
0.00000
  42
-0.1219
  70
32
  0
VERTEX
  5
6C3
  100
AcDbEntity
  8
Layer 1
  62
0
  100
AcDb2dVertex
  10
1.48015
  20
0.74280
  30
0.00000
  42
-0.2688
  70
32
  0
VERTEX
  5
6C4
  100
AcDbEntity
  8
Layer 1
  62
0
  100
AcDb2dVertex
  10
1.49778
  20
0.75386
  30
0.00000
  70
32
  0
VERTEX
  5
6C5
  100
AcDbEntity
  8
Layer 1
  62
0
  100
AcDb2dVertex
  10
1.50100
  20
0.75400
  30
0.00000
  42
-0.1258
  70
32
  0
VERTEX
  5
6C6
  100
AcDbEntity
  8
Layer 1
  62
0
  100
AcDb2dVertex
  10
1.52083
  20
0.74781
  30
0.00000
  42
-0.0369
  70
32
  0
VERTEX
  5
6C7
  100
AcDbEntity
  8
Layer 1
  62
0
  100
AcDb2dVertex
  10
1.53400
  20
0.73900
  30
0.00000
  42
0.0889
  70
32
  0
VERTEX
  5
6C8
  100
AcDbEntity
  8
Layer 1
  62
0
  100
AcDb2dVertex
  10
1.55816
  20
0.72541
  30
0.00000
  42
0.0729
  70
32
  0
VERTEX
  5
6C9
  100
AcDbEntity
  8
Layer 1
  62
0
  100
AcDb2dVertex
  10
1.56700
  20
0.72400
  30
0.00000
  42
0.0969
  70
32
  0
VERTEX
  5
6CA
  100
AcDbEntity
  8
Layer 1
  62
0
  100
AcDb2dVertex
  10
1.59012
  20
0.72944
  30
0.00000
  70
32
  0
VERTEX
  5
6CB
  100
AcDbEntity
  8
Layer 1
  62
0
  100
AcDb2dVertex
  10
1.59600
  20
0.73200
  30
0.00000
  42
-0.0993
  70
32
  0
VERTEX
  5
6CC
  100
AcDbEntity
  8
Layer 1
  62
0
  100
AcDb2dVertex
  10
1.63200
  20
0.74000
  30
0.00000
  42
-0.1939
  70
32
  0
VERTEX
  5
6CD
  100
AcDbEntity
  8
Layer 1
  62
0
  100
AcDb2dVertex
  10
1.68729
  20
0.71761
  30
0.00000
  70
32
  0
VERTEX
  5
6CE
  100
AcDbEntity
  8
Layer 1
  62
0
  100
AcDb2dVertex
  10
1.69000
  20
0.71500
  30
0.00000
  42
-0.1444
  70
32
  0
VERTEX
  5
6CF
  100
AcDbEntity
  8
Layer 1
  62
0
  100
AcDb2dVertex
  10
1.71386
  20
0.67634
  30
0.00000
  42
-0.0624
  70
32
  0
VERTEX
  5
6D0
  100
AcDbEntity
  8
Layer 1
  62
0
  100
AcDb2dVertex
  10
1.71600
  20
0.65900
  30
0.00000
  70
32
  0
SEQEND
  5
6D1
  100
AcDbEntity
  8
Layer 1
  62
0
  0
POLYLINE
  5
6D2
  100
AcDbEntity
  8
Layer 1
  62
0
  100
AcDb2dPolyline
 66
     1
  10
0
  20
0
  30
0
  70
1
  0
VERTEX
  5
6D3
  100
AcDbEntity
  8
Layer 1
  62
0
  100
AcDb2dVertex
  10
1.93900
  20
0.50200
  30
0.00000
  42
-0.1712
  70
32
  0
VERTEX
  5
6D4
  100
AcDbEntity
  8
Layer 1
  62
0
  100
AcDb2dVertex
  10
1.93351
  20
0.48943
  30
0.00000
  42
-0.0796
  70
32
  0
VERTEX
  5
6D5
  100
AcDbEntity
  8
Layer 1
  62
0
  100
AcDb2dVertex
  10
1.91169
  20
0.47164
  30
0.00000
  70
32
  0
VERTEX
  5
6D6
  100
AcDbEntity
  8
Layer 1
  62
0
  100
AcDb2dVertex
  10
1.90900
  20
0.47000
  30
0.00000
  42
0.0336
  70
32
  0
VERTEX
  5
6D7
  100
AcDbEntity
  8
Layer 1
  62
0
  100
AcDb2dVertex
  10
1.86761
  20
0.44222
  30
0.00000
  70
32
  0
VERTEX
  5
6D8
  100
AcDbEntity
  8
Layer 1
  62
0
  100
AcDb2dVertex
  10
1.86400
  20
0.43900
  30
0.00000
  42
-0.0113
  70
32
  0
VERTEX
  5
6D9
  100
AcDbEntity
  8
Layer 1
  62
0
  100
AcDb2dVertex
  10
1.82797
  20
0.37953
  30
0.00000
  70
32
  0
VERTEX
  5
6DA
  100
AcDbEntity
  8
Layer 1
  62
0
  100
AcDb2dVertex
  10
1.82200
  20
0.37000
  30
0.00000
  42
-0.1868
  70
32
  0
VERTEX
  5
6DB
  100
AcDbEntity
  8
Layer 1
  62
0
  100
AcDb2dVertex
  10
1.78270
  20
0.33996
  30
0.00000
  42
-0.0768
  70
32
  0
VERTEX
  5
6DC
  100
AcDbEntity
  8
Layer 1
  62
0
  100
AcDb2dVertex
  10
1.74700
  20
0.33500
  30
0.00000
  42
-0.0870
  70
32
  0
VERTEX
  5
6DD
  100
AcDbEntity
  8
Layer 1
  62
0
  100
AcDb2dVertex
  10
1.72231
  20
0.33839
  30
0.00000
  42
-0.1983
  70
32
  0
VERTEX
  5
6DE
  100
AcDbEntity
  8
Layer 1
  62
0
  100
AcDb2dVertex
  10
1.71215
  20
0.34659
  30
0.00000
  42
-0.1107
  70
32
  0
VERTEX
  5
6DF
  100
AcDbEntity
  8
Layer 1
  62
0
  100
AcDb2dVertex
  10
1.71100
  20
0.35200
  30
0.00000
  70
32
  0
VERTEX
  5
6E0
  100
AcDbEntity
  8
Layer 1
  62
0
  100
AcDb2dVertex
  10
1.71400
  20
0.36200
  30
0.00000
  42
0.0570
  70
32
  0
VERTEX
  5
6E1
  100
AcDbEntity
  8
Layer 1
  62
0
  100
AcDb2dVertex
  10
1.73384
  20
0.38237
  30
0.00000
  42
0.1291
  70
32
  0
VERTEX
  5
6E2
  100
AcDbEntity
  8
Layer 1
  62
0
  100
AcDb2dVertex
  10
1.73600
  20
0.38700
  30
0.00000
  42
0.2298
  70
32
  0
VERTEX
  5
6E3
  100
AcDbEntity
  8
Layer 1
  62
0
  100
AcDb2dVertex
  10
1.72930
  20
0.40321
  30
0.00000
  42
0.1601
  70
32
  0
VERTEX
  5
6E4
  100
AcDbEntity
  8
Layer 1
  62
0
  100
AcDb2dVertex
  10
1.71253
  20
0.40889
  30
0.00000
  70
32
  0
VERTEX
  5
6E5
  100
AcDbEntity
  8
Layer 1
  62
0
  100
AcDb2dVertex
  10
1.70900
  20
0.40900
  30
0.00000
  42
0.2654
  70
32
  0
VERTEX
  5
6E6
  100
AcDbEntity
  8
Layer 1
  62
0
  100
AcDb2dVertex
  10
1.67947
  20
0.39297
  30
0.00000
  42
0.0598
  70
32
  0
VERTEX
  5
6E7
  100
AcDbEntity
  8
Layer 1
  62
0
  100
AcDb2dVertex
  10
1.67300
  20
0.38000
  30
0.00000
  42
-0.0886
  70
32
  0
VERTEX
  5
6E8
  100
AcDbEntity
  8
Layer 1
  62
0
  100
AcDb2dVertex
  10
1.66161
  20
0.35871
  30
0.00000
  42
-0.2098
  70
32
  0
VERTEX
  5
6E9
  100
AcDbEntity
  8
Layer 1
  62
0
  100
AcDb2dVertex
  10
1.64960
  20
0.35201
  30
0.00000
  70
32
  0
VERTEX
  5
6EA
  100
AcDbEntity
  8
Layer 1
  62
0
  100
AcDb2dVertex
  10
1.64900
  20
0.35200
  30
0.00000
  42
-0.1790
  70
32
  0
VERTEX
  5
6EB
  100
AcDbEntity
  8
Layer 1
  62
0
  100
AcDb2dVertex
  10
1.64127
  20
0.35601
  30
0.00000
  42
-0.0632
  70
32
  0
VERTEX
  5
6EC
  100
AcDbEntity
  8
Layer 1
  62
0
  100
AcDb2dVertex
  10
1.62581
  20
0.37611
  30
0.00000
  70
32
  0
VERTEX
  5
6ED
  100
AcDbEntity
  8
Layer 1
  62
0
  100
AcDb2dVertex
  10
1.62100
  20
0.38400
  30
0.00000
  42
0.1029
  70
32
  0
VERTEX
  5
6EE
  100
AcDbEntity
  8
Layer 1
  62
0
  100
AcDb2dVertex
  10
1.61049
  20
0.38930
  30
0.00000
  42
0.0209
  70
32
  0
VERTEX
  5
6EF
  100
AcDbEntity
  8
Layer 1
  62
0
  100
AcDb2dVertex
  10
1.59400
  20
0.39400
  30
0.00000
  42
-0.3366
  70
32
  0
VERTEX
  5
6F0
  100
AcDbEntity
  8
Layer 1
  62
0
  100
AcDb2dVertex
  10
1.57759
  20
0.41042
  30
0.00000
  42
-0.0475
  70
32
  0
VERTEX
  5
6F1
  100
AcDbEntity
  8
Layer 1
  62
0
  100
AcDb2dVertex
  10
1.57700
  20
0.41700
  30
0.00000
  42
-0.0676
  70
32
  0
VERTEX
  5
6F2
  100
AcDbEntity
  8
Layer 1
  62
0
  100
AcDb2dVertex
  10
1.58085
  20
0.43347
  30
0.00000
  42
-0.0185
  70
32
  0
VERTEX
  5
6F3
  100
AcDbEntity
  8
Layer 1
  62
0
  100
AcDb2dVertex
  10
1.60100
  20
0.48500
  30
0.00000
  70
32
  0
VERTEX
  5
6F4
  100
AcDbEntity
  8
Layer 1
  62
0
  100
AcDb2dVertex
  10
1.61600
  20
0.49900
  30
0.00000
  70
32
  0
VERTEX
  5
6F5
  100
AcDbEntity
  8
Layer 1
  62
0
  100
AcDb2dVertex
  10
1.64100
  20
0.49900
  30
0.00000
  42
0.2243
  70
32
  0
VERTEX
  5
6F6
  100
AcDbEntity
  8
Layer 1
  62
0
  100
AcDb2dVertex
  10
1.64344
  20
0.50164
  30
0.00000
  42
0.0421
  70
32
  0
VERTEX
  5
6F7
  100
AcDbEntity
  8
Layer 1
  62
0
  100
AcDb2dVertex
  10
1.65178
  20
0.52488
  30
0.00000
  42
0.0069
  70
32
  0
VERTEX
  5
6F8
  100
AcDbEntity
  8
Layer 1
  62
0
  100
AcDb2dVertex
  10
1.66000
  20
0.55400
  30
0.00000
  42
-0.0679
  70
32
  0
VERTEX
  5
6F9
  100
AcDbEntity
  8
Layer 1
  62
0
  100
AcDb2dVertex
  10
1.67345
  20
0.59021
  30
0.00000
  42
-0.1319
  70
32
  0
VERTEX
  5
6FA
  100
AcDbEntity
  8
Layer 1
  62
0
  100
AcDb2dVertex
  10
1.68791
  20
0.60601
  30
0.00000
  42
-0.1323
  70
32
  0
VERTEX
  5
6FB
  100
AcDbEntity
  8
Layer 1
  62
0
  100
AcDb2dVertex
  10
1.69900
  20
0.60900
  30
0.00000
  70
32
  0
VERTEX
  5
6FC
  100
AcDbEntity
  8
Layer 1
  62
0
  100
AcDb2dVertex
  10
1.71100
  20
0.59900
  30
0.00000
  42
0.0448
  70
32
  0
VERTEX
  5
6FD
  100
AcDbEntity
  8
Layer 1
  62
0
  100
AcDb2dVertex
  10
1.69308
  20
0.55932
  30
0.00000
  42
0.0698
  70
32
  0
VERTEX
  5
6FE
  100
AcDbEntity
  8
Layer 1
  62
0
  100
AcDb2dVertex
  10
1.69100
  20
0.54900
  30
0.00000
  42
0.2320
  70
32
  0
VERTEX
  5
6FF
  100
AcDbEntity
  8
Layer 1
  62
0
  100
AcDb2dVertex
  10
1.70388
  20
0.52273
  30
0.00000
  42
0.0521
  70
32
  0
VERTEX
  5
700
  100
AcDbEntity
  8
Layer 1
  62
0
  100
AcDb2dVertex
  10
1.71400
  20
0.51600
  30
0.00000
  42
0.1153
  70
32
  0
VERTEX
  5
701
  100
AcDbEntity
  8
Layer 1
  62
0
  100
AcDb2dVertex
  10
1.75941
  20
0.50401
  30
0.00000
  70
32
  0
VERTEX
  5
702
  100
AcDbEntity
  8
Layer 1
  62
0
  100
AcDb2dVertex
  10
1.76100
  20
0.50400
  30
0.00000
  42
0.1459
  70
32
  0
VERTEX
  5
703
  100
AcDbEntity
  8
Layer 1
  62
0
  100
AcDb2dVertex
  10
1.80040
  20
0.51628
  30
0.00000
  42
0.0412
  70
32
  0
VERTEX
  5
704
  100
AcDbEntity
  8
Layer 1
  62
0
  100
AcDb2dVertex
  10
1.81700
  20
0.52900
  30
0.00000
  42
-0.0490
  70
32
  0
VERTEX
  5
705
  100
AcDbEntity
  8
Layer 1
  62
0
  100
AcDb2dVertex
  10
1.84427
  20
0.54996
  30
0.00000
  42
-0.1237
  70
32
  0
VERTEX
  5
706
  100
AcDbEntity
  8
Layer 1
  62
0
  100
AcDb2dVertex
  10
1.85600
  20
0.55400
  30
0.00000
  42
-0.1045
  70
32
  0
VERTEX
  5
707
  100
AcDbEntity
  8
Layer 1
  62
0
  100
AcDb2dVertex
  10
1.90770
  20
0.54415
  30
0.00000
  42
-0.0242
  70
32
  0
VERTEX
  5
708
  100
AcDbEntity
  8
Layer 1
  62
0
  100
AcDb2dVertex
  10
1.91600
  20
0.54000
  30
0.00000
  70
32
  0
VERTEX
  5
709
  100
AcDbEntity
  8
Layer 1
  62
0
  100
AcDb2dVertex
  10
1.93900
  20
0.50200
  30
0.00000
  70
32
  0
SEQEND
  5
70A
  100
AcDbEntity
  8
Layer 1
  62
0
  0
POLYLINE
  5
70B
  100
AcDbEntity
  8
Layer 1
  62
0
  100
AcDb2dPolyline
 66
     1
  10
0
  20
0
  30
0
  70
1
  0
VERTEX
  5
70C
  100
AcDbEntity
  8
Layer 1
  62
0
  100
AcDb2dVertex
  10
0.92900
  20
1.33900
  30
0.00000
  42
-0.1819
  70
32
  0
VERTEX
  5
70D
  100
AcDbEntity
  8
Layer 1
  62
0
  100
AcDb2dVertex
  10
0.92504
  20
1.32582
  30
0.00000
  42
-0.2221
  70
32
  0
VERTEX
  5
70E
  100
AcDbEntity
  8
Layer 1
  62
0
  100
AcDb2dVertex
  10
0.91600
  20
1.32200
  30
0.00000
  70
32
  0
VERTEX
  5
70F
  100
AcDbEntity
  8
Layer 1
  62
0
  100
AcDb2dVertex
  10
0.90400
  20
1.32700
  30
0.00000
  42
0.0545
  70
32
  0
VERTEX
  5
710
  100
AcDbEntity
  8
Layer 1
  62
0
  100
AcDb2dVertex
  10
0.87742
  20
1.39637
  30
0.00000
  42
0.0850
  70
32
  0
VERTEX
  5
711
  100
AcDbEntity
  8
Layer 1
  62
0
  100
AcDb2dVertex
  10
0.84628
  20
1.43809
  30
0.00000
  42
0.1758
  70
32
  0
VERTEX
  5
712
  100
AcDbEntity
  8
Layer 1
  62
0
  100
AcDb2dVertex
  10
0.79193
  20
1.46182
  30
0.00000
  70
32
  0
VERTEX
  5
713
  100
AcDbEntity
  8
Layer 1
  62
0
  100
AcDb2dVertex
  10
0.78600
  20
1.46200
  30
0.00000
  42
0.2379
  70
32
  0
VERTEX
  5
714
  100
AcDbEntity
  8
Layer 1
  62
0
  100
AcDb2dVertex
  10
0.76946
  20
1.45339
  30
0.00000
  42
0.0745
  70
32
  0
VERTEX
  5
715
  100
AcDbEntity
  8
Layer 1
  62
0
  100
AcDb2dVertex
  10
0.76200
  20
1.44000
  30
0.00000
  42
-0.1611
  70
32
  0
VERTEX
  5
716
  100
AcDbEntity
  8
Layer 1
  62
0
  100
AcDb2dVertex
  10
0.74986
  20
1.42284
  30
0.00000
  42
-0.1513
  70
32
  0
VERTEX
  5
717
  100
AcDbEntity
  8
Layer 1
  62
0
  100
AcDb2dVertex
  10
0.73700
  20
1.41900
  30
0.00000
  42
-0.3103
  70
32
  0
VERTEX
  5
718
  100
AcDbEntity
  8
Layer 1
  62
0
  100
AcDb2dVertex
  10
0.72395
  20
1.42757
  30
0.00000
  42
-0.1038
  70
32
  0
VERTEX
  5
719
  100
AcDbEntity
  8
Layer 1
  62
0
  100
AcDb2dVertex
  10
0.72005
  20
1.44750
  30
0.00000
  70
32
  0
VERTEX
  5
71A
  100
AcDbEntity
  8
Layer 1
  62
0
  100
AcDb2dVertex
  10
0.72000
  20
1.45100
  30
0.00000
  42
0.1772
  70
32
  0
VERTEX
  5
71B
  100
AcDbEntity
  8
Layer 1
  62
0
  100
AcDb2dVertex
  10
0.71577
  20
1.46540
  30
0.00000
  42
0.1945
  70
32
  0
VERTEX
  5
71C
  100
AcDbEntity
  8
Layer 1
  62
0
  100
AcDb2dVertex
  10
0.70253
  20
1.47168
  30
0.00000
  70
32
  0
VERTEX
  5
71D
  100
AcDbEntity
  8
Layer 1
  62
0
  100
AcDb2dVertex
  10
0.69700
  20
1.47200
  30
0.00000
  42
0.2007
  70
32
  0
VERTEX
  5
71E
  100
AcDbEntity
  8
Layer 1
  62
0
  100
AcDb2dVertex
  10
0.68151
  20
1.46480
  30
0.00000
  42
0.0928
  70
32
  0
VERTEX
  5
71F
  100
AcDbEntity
  8
Layer 1
  62
0
  100
AcDb2dVertex
  10
0.66723
  20
1.44241
  30
0.00000
  42
0.0214
  70
32
  0
VERTEX
  5
720
  100
AcDbEntity
  8
Layer 1
  62
0
  100
AcDb2dVertex
  10
0.66200
  20
1.42900
  30
0.00000
  42
-0.0072
  70
32
  0
VERTEX
  5
721
  100
AcDbEntity
  8
Layer 1
  62
0
  100
AcDb2dVertex
  10
0.64723
  20
1.38498
  30
0.00000
  70
32
  0
VERTEX
  5
722
  100
AcDbEntity
  8
Layer 1
  62
0
  100
AcDb2dVertex
  10
0.64200
  20
1.37000
  30
0.00000
  42
-0.1980
  70
32
  0
VERTEX
  5
723
  100
AcDbEntity
  8
Layer 1
  62
0
  100
AcDb2dVertex
  10
0.62500
  20
1.36200
  30
0.00000
  42
-0.1519
  70
32
  0
VERTEX
  5
724
  100
AcDbEntity
  8
Layer 1
  62
0
  100
AcDb2dVertex
  10
0.61822
  20
1.36561
  30
0.00000
  42
-0.0532
  70
32
  0
VERTEX
  5
725
  100
AcDbEntity
  8
Layer 1
  62
0
  100
AcDb2dVertex
  10
0.59900
  20
1.38700
  30
0.00000
  42
-0.0450
  70
32
  0
VERTEX
  5
726
  100
AcDbEntity
  8
Layer 1
  62
0
  100
AcDb2dVertex
  10
0.58071
  20
1.41235
  30
0.00000
  42
-0.1034
  70
32
  0
VERTEX
  5
727
  100
AcDbEntity
  8
Layer 1
  62
0
  100
AcDb2dVertex
  10
0.57900
  20
1.41700
  30
0.00000
  70
32
  0
VERTEX
  5
728
  100
AcDbEntity
  8
Layer 1
  62
0
  100
AcDb2dVertex
  10
0.58500
  20
1.42900
  30
0.00000
  42
0.0380
  70
32
  0
VERTEX
  5
729
  100
AcDbEntity
  8
Layer 1
  62
0
  100
AcDb2dVertex
  10
0.62595
  20
1.44274
  30
0.00000
  42
0.1001
  70
32
  0
VERTEX
  5
72A
  100
AcDbEntity
  8
Layer 1
  62
0
  100
AcDb2dVertex
  10
0.64000
  20
1.45200
  30
0.00000
  42
0.1294
  70
32
  0
VERTEX
  5
72B
  100
AcDbEntity
  8
Layer 1
  62
0
  100
AcDb2dVertex
  10
0.64823
  20
1.46834
  30
0.00000
  42
0.0624
  70
32
  0
VERTEX
  5
72C
  100
AcDbEntity
  8
Layer 1
  62
0
  100
AcDb2dVertex
  10
0.65200
  20
1.50536
  30
0.00000
  70
32
  0
VERTEX
  5
72D
  100
AcDbEntity
  8
Layer 1
  62
0
  100
AcDb2dVertex
  10
0.65200
  20
1.50600
  30
0.00000
  42
-0.2287
  70
32
  0
VERTEX
  5
72E
  100
AcDbEntity
  8
Layer 1
  62
0
  100
AcDb2dVertex
  10
0.65632
  20
1.51710
  30
0.00000
  42
-0.1721
  70
32
  0
VERTEX
  5
72F
  100
AcDbEntity
  8
Layer 1
  62
0
  100
AcDb2dVertex
  10
0.66200
  20
1.51900
  30
0.00000
  70
32
  0
VERTEX
  5
730
  100
AcDbEntity
  8
Layer 1
  62
0
  100
AcDb2dVertex
  10
0.74000
  20
1.52200
  30
0.00000
  70
32
  0
VERTEX
  5
731
  100
AcDbEntity
  8
Layer 1
  62
0
  100
AcDb2dVertex
  10
0.74200
  20
1.47200
  30
0.00000
  70
32
  0
VERTEX
  5
732
  100
AcDbEntity
  8
Layer 1
  62
0
  100
AcDb2dVertex
  10
0.74000
  20
1.52200
  30
0.00000
  70
32
  0
VERTEX
  5
733
  100
AcDbEntity
  8
Layer 1
  62
0
  100
AcDb2dVertex
  10
0.77200
  20
1.52200
  30
0.00000
  70
32
  0
VERTEX
  5
734
  100
AcDbEntity
  8
Layer 1
  62
0
  100
AcDb2dVertex
  10
0.79056
  20
1.52324
  30
0.00000
  70
32
  0
VERTEX
  5
735
  100
AcDbEntity
  8
Layer 1
  62
0
  100
AcDb2dVertex
  10
0.80400
  20
1.52400
  30
0.00000
  42
-0.2463
  70
32
  0
VERTEX
  5
736
  100
AcDbEntity
  8
Layer 1
  62
0
  100
AcDb2dVertex
  10
0.80834
  20
1.52062
  30
0.00000
  42
-0.0604
  70
32
  0
VERTEX
  5
737
  100
AcDbEntity
  8
Layer 1
  62
0
  100
AcDb2dVertex
  10
0.81300
  20
1.51000
  30
0.00000
  70
32
  0
VERTEX
  5
738
  100
AcDbEntity
  8
Layer 1
  62
0
  100
AcDb2dVertex
  10
0.81381
  20
1.50783
  30
0.00000
  70
32
  0
VERTEX
  5
739
  100
AcDbEntity
  8
Layer 1
  62
0
  100
AcDb2dVertex
  10
0.81735
  20
1.49900
  30
0.00000
  42
0.1282
  70
32
  0
VERTEX
  5
73A
  100
AcDbEntity
  8
Layer 1
  62
0
  100
AcDb2dVertex
  10
0.82100
  20
1.49400
  30
0.00000
  42
-0.0189
  70
32
  0
VERTEX
  5
73B
  100
AcDbEntity
  8
Layer 1
  62
0
  100
AcDb2dVertex
  10
0.88257
  20
1.44361
  30
0.00000
  42
-0.0318
  70
32
  0
VERTEX
  5
73C
  100
AcDbEntity
  8
Layer 1
  62
0
  100
AcDb2dVertex
  10
0.89600
  20
1.43000
  30
0.00000
  42
-0.1814
  70
32
  0
VERTEX
  5
73D
  100
AcDbEntity
  8
Layer 1
  62
0
  100
AcDb2dVertex
  10
0.92900
  20
1.33900
  30
0.00000
  70
32
  0
SEQEND
  5
73E
  100
AcDbEntity
  8
Layer 1
  62
0
  0
POLYLINE
  5
73F
  100
AcDbEntity
  8
Layer 1
  62
0
  100
AcDb2dPolyline
 66
     1
  10
0
  20
0
  30
0
  70
1
  0
VERTEX
  5
740
  100
AcDbEntity
  8
Layer 1
  62
0
  100
AcDb2dVertex
  10
2.00400
  20
0.06400
  30
0.00000
  42
-0.1952
  70
32
  0
VERTEX
  5
741
  100
AcDbEntity
  8
Layer 1
  62
0
  100
AcDb2dVertex
  10
1.99897
  20
0.04897
  30
0.00000
  42
-0.1745
  70
32
  0
VERTEX
  5
742
  100
AcDbEntity
  8
Layer 1
  62
0
  100
AcDb2dVertex
  10
1.98428
  20
0.04245
  30
0.00000
  42
-0.0331
  70
32
  0
VERTEX
  5
743
  100
AcDbEntity
  8
Layer 1
  62
0
  100
AcDb2dVertex
  10
1.97700
  20
0.04200
  30
0.00000
  42
-0.1006
  70
32
  0
VERTEX
  5
744
  100
AcDbEntity
  8
Layer 1
  62
0
  100
AcDb2dVertex
  10
1.96058
  20
0.04684
  30
0.00000
  42
-0.0333
  70
32
  0
VERTEX
  5
745
  100
AcDbEntity
  8
Layer 1
  62
0
  100
AcDb2dVertex
  10
1.94600
  20
0.05500
  30
0.00000
  42
0.0491
  70
32
  0
VERTEX
  5
746
  100
AcDbEntity
  8
Layer 1
  62
0
  100
AcDb2dVertex
  10
1.92166
  20
0.06751
  30
0.00000
  42
0.0808
  70
32
  0
VERTEX
  5
747
  100
AcDbEntity
  8
Layer 1
  62
0
  100
AcDb2dVertex
  10
1.91400
  20
0.06900
  30
0.00000
  42
0.0712
  70
32
  0
VERTEX
  5
748
  100
AcDbEntity
  8
Layer 1
  62
0
  100
AcDb2dVertex
  10
1.90516
  20
0.06506
  30
0.00000
  70
32
  0
VERTEX
  5
749
  100
AcDbEntity
  8
Layer 1
  62
0
  100
AcDb2dVertex
  10
1.88700
  20
0.05500
  30
0.00000
  42
-0.1374
  70
32
  0
VERTEX
  5
74A
  100
AcDbEntity
  8
Layer 1
  62
0
  100
AcDb2dVertex
  10
1.83700
  20
0.04200
  30
0.00000
  42
-0.1501
  70
32
  0
VERTEX
  5
74B
  100
AcDbEntity
  8
Layer 1
  62
0
  100
AcDb2dVertex
  10
1.77446
  20
0.06161
  30
0.00000
  42
-0.0805
  70
32
  0
VERTEX
  5
74C
  100
AcDbEntity
  8
Layer 1
  62
0
  100
AcDb2dVertex
  10
1.73064
  20
0.10347
  30
0.00000
  42
-0.0534
  70
32
  0
VERTEX
  5
74D
  100
AcDbEntity
  8
Layer 1
  62
0
  100
AcDb2dVertex
  10
1.68790
  20
0.17418
  30
0.00000
  70
32
  0
VERTEX
  5
74E
  100
AcDbEntity
  8
Layer 1
  62
0
  100
AcDb2dVertex
  10
1.68100
  20
0.18900
  30
0.00000
  70
32
  0
VERTEX
  5
74F
  100
AcDbEntity
  8
Layer 1
  62
0
  100
AcDb2dVertex
  10
1.69200
  20
0.20000
  30
0.00000
  70
32
  0
VERTEX
  5
750
  100
AcDbEntity
  8
Layer 1
  62
0
  100
AcDb2dVertex
  10
1.70100
  20
0.19700
  30
0.00000
  42
0.0395
  70
32
  0
VERTEX
  5
751
  100
AcDbEntity
  8
Layer 1
  62
0
  100
AcDb2dVertex
  10
1.75128
  20
0.12502
  30
0.00000
  42
0.0636
  70
32
  0
VERTEX
  5
752
  100
AcDbEntity
  8
Layer 1
  62
0
  100
AcDb2dVertex
  10
1.79028
  20
0.08801
  30
0.00000
  42
0.1083
  70
32
  0
VERTEX
  5
753
  100
AcDbEntity
  8
Layer 1
  62
0
  100
AcDb2dVertex
  10
1.82386
  20
0.07293
  30
0.00000
  42
0.0448
  70
32
  0
VERTEX
  5
754
  100
AcDbEntity
  8
Layer 1
  62
0
  100
AcDb2dVertex
  10
1.83400
  20
0.07200
  30
0.00000
  42
0.1072
  70
32
  0
VERTEX
  5
755
  100
AcDbEntity
  8
Layer 1
  62
0
  100
AcDb2dVertex
  10
1.87482
  20
0.07979
  30
0.00000
  42
0.1738
  70
32
  0
VERTEX
  5
756
  100
AcDbEntity
  8
Layer 1
  62
0
  100
AcDb2dVertex
  10
1.90927
  20
0.11348
  30
0.00000
  70
32
  0
VERTEX
  5
757
  100
AcDbEntity
  8
Layer 1
  62
0
  100
AcDb2dVertex
  10
1.91100
  20
0.11700
  30
0.00000
  42
0.1425
  70
32
  0
VERTEX
  5
758
  100
AcDbEntity
  8
Layer 1
  62
0
  100
AcDb2dVertex
  10
1.92730
  20
0.14571
  30
0.00000
  42
0.0659
  70
32
  0
VERTEX
  5
759
  100
AcDbEntity
  8
Layer 1
  62
0
  100
AcDb2dVertex
  10
1.93100
  20
0.17700
  30
0.00000
  42
0.1735
  70
32
  0
VERTEX
  5
75A
  100
AcDbEntity
  8
Layer 1
  62
0
  100
AcDb2dVertex
  10
1.91349
  20
0.22526
  30
0.00000
  42
0.0871
  70
32
  0
VERTEX
  5
75B
  100
AcDbEntity
  8
Layer 1
  62
0
  100
AcDb2dVertex
  10
1.87647
  20
0.25678
  30
0.00000
  42
0.0441
  70
32
  0
VERTEX
  5
75C
  100
AcDbEntity
  8
Layer 1
  62
0
  100
AcDb2dVertex
  10
1.83100
  20
0.27900
  30
0.00000
  42
-0.0129
  70
32
  0
VERTEX
  5
75D
  100
AcDbEntity
  8
Layer 1
  62
0
  100
AcDb2dVertex
  10
1.78900
  20
0.28900
  30
0.00000
  42
-0.0573
  70
32
  0
VERTEX
  5
75E
  100
AcDbEntity
  8
Layer 1
  62
0
  100
AcDb2dVertex
  10
1.76329
  20
0.29741
  30
0.00000
  42
-0.1718
  70
32
  0
VERTEX
  5
75F
  100
AcDbEntity
  8
Layer 1
  62
0
  100
AcDb2dVertex
  10
1.75724
  20
0.30273
  30
0.00000
  70
32
  0
VERTEX
  5
760
  100
AcDbEntity
  8
Layer 1
  62
0
  100
AcDb2dVertex
  10
1.75700
  20
0.30400
  30
0.00000
  42
-0.3451
  70
32
  0
VERTEX
  5
761
  100
AcDbEntity
  8
Layer 1
  62
0
  100
AcDb2dVertex
  10
1.76389
  20
0.31282
  30
0.00000
  42
-0.0834
  70
32
  0
VERTEX
  5
762
  100
AcDbEntity
  8
Layer 1
  62
0
  100
AcDb2dVertex
  10
1.77200
  20
0.31400
  30
0.00000
  42
-0.0980
  70
32
  0
VERTEX
  5
763
  100
AcDbEntity
  8
Layer 1
  62
0
  100
AcDb2dVertex
  10
1.85967
  20
0.29568
  30
0.00000
  42
-0.0305
  70
32
  0
VERTEX
  5
764
  100
AcDbEntity
  8
Layer 1
  62
0
  100
AcDb2dVertex
  10
1.89400
  20
0.27900
  30
0.00000
  42
-0.0732
  70
32
  0
VERTEX
  5
765
  100
AcDbEntity
  8
Layer 1
  62
0
  100
AcDb2dVertex
  10
1.93798
  20
0.24448
  30
0.00000
  42
-0.1266
  70
32
  0
VERTEX
  5
766
  100
AcDbEntity
  8
Layer 1
  62
0
  100
AcDb2dVertex
  10
1.96157
  20
0.20229
  30
0.00000
  42
-0.0607
  70
32
  0
VERTEX
  5
767
  100
AcDbEntity
  8
Layer 1
  62
0
  100
AcDb2dVertex
  10
1.96400
  20
0.18200
  30
0.00000
  42
-0.0605
  70
32
  0
VERTEX
  5
768
  100
AcDbEntity
  8
Layer 1
  62
0
  100
AcDb2dVertex
  10
1.96000
  20
0.15600
  30
0.00000
  42
0.0543
  70
32
  0
VERTEX
  5
769
  100
AcDbEntity
  8
Layer 1
  62
0
  100
AcDb2dVertex
  10
1.95600
  20
0.13200
  30
0.00000
  42
0.1473
  70
32
  0
VERTEX
  5
76A
  100
AcDbEntity
  8
Layer 1
  62
0
  100
AcDb2dVertex
  10
1.96106
  20
0.11909
  30
0.00000
  42
0.0607
  70
32
  0
VERTEX
  5
76B
  100
AcDbEntity
  8
Layer 1
  62
0
  100
AcDb2dVertex
  10
1.98000
  20
0.09900
  30
0.00000
  42
-0.0708
  70
32
  0
VERTEX
  5
76C
  100
AcDbEntity
  8
Layer 1
  62
0
  100
AcDb2dVertex
  10
1.99937
  20
0.07793
  30
0.00000
  42
-0.1416
  70
32
  0
VERTEX
  5
76D
  100
AcDbEntity
  8
Layer 1
  62
0
  100
AcDb2dVertex
  10
2.00400
  20
0.06400
  30
0.00000
  70
32
  0
SEQEND
  5
76E
  100
AcDbEntity
  8
Layer 1
  62
0
  0
POLYLINE
  5
76F
  100
AcDbEntity
  8
Layer 1
  62
0
  100
AcDb2dPolyline
 66
     1
  10
0
  20
0
  30
0
  70
1
  0
VERTEX
  5
770
  100
AcDbEntity
  8
Layer 1
  62
0
  100
AcDb2dVertex
  10
0.61700
  20
1.62700
  30
0.00000
  42
-0.1367
  70
32
  0
VERTEX
  5
771
  100
AcDbEntity
  8
Layer 1
  62
0
  100
AcDb2dVertex
  10
0.60974
  20
1.60453
  30
0.00000
  42
-0.0717
  70
32
  0
VERTEX
  5
772
  100
AcDbEntity
  8
Layer 1
  62
0
  100
AcDb2dVertex
  10
0.58451
  20
1.57561
  30
0.00000
  42
-0.0406
  70
32
  0
VERTEX
  5
773
  100
AcDbEntity
  8
Layer 1
  62
0
  100
AcDb2dVertex
  10
0.52752
  20
1.53353
  30
0.00000
  42
-0.0110
  70
32
  0
VERTEX
  5
774
  100
AcDbEntity
  8
Layer 1
  62
0
  100
AcDb2dVertex
  10
0.49200
  20
1.51200
  30
0.00000
  42
-0.0280
  70
32
  0
VERTEX
  5
775
  100
AcDbEntity
  8
Layer 1
  62
0
  100
AcDb2dVertex
  10
0.40029
  20
1.46462
  30
0.00000
  42
-0.0495
  70
32
  0
VERTEX
  5
776
  100
AcDbEntity
  8
Layer 1
  62
0
  100
AcDb2dVertex
  10
0.34690
  20
1.44653
  30
0.00000
  42
-0.0511
  70
32
  0
VERTEX
  5
777
  100
AcDbEntity
  8
Layer 1
  62
0
  100
AcDb2dVertex
  10
0.32500
  20
1.44400
  30
0.00000
  42
-0.1952
  70
32
  0
VERTEX
  5
778
  100
AcDbEntity
  8
Layer 1
  62
0
  100
AcDb2dVertex
  10
0.30437
  20
1.45296
  30
0.00000
  42
-0.0722
  70
32
  0
VERTEX
  5
779
  100
AcDbEntity
  8
Layer 1
  62
0
  100
AcDb2dVertex
  10
0.29200
  20
1.46900
  30
0.00000
  70
32
  0
VERTEX
  5
77A
  100
AcDbEntity
  8
Layer 1
  62
0
  100
AcDb2dVertex
  10
0.39900
  20
1.54200
  30
0.00000
  70
32
  0
VERTEX
  5
77B
  100
AcDbEntity
  8
Layer 1
  62
0
  100
AcDb2dVertex
  10
0.29200
  20
1.46900
  30
0.00000
  42
0.0261
  70
32
  0
VERTEX
  5
77C
  100
AcDbEntity
  8
Layer 1
  62
0
  100
AcDb2dVertex
  10
0.27969
  20
1.50347
  30
0.00000
  42
0.1777
  70
32
  0
VERTEX
  5
77D
  100
AcDbEntity
  8
Layer 1
  62
0
  100
AcDb2dVertex
  10
0.27761
  20
1.50641
  30
0.00000
  42
0.3110
  70
32
  0
VERTEX
  5
77E
  100
AcDbEntity
  8
Layer 1
  62
0
  100
AcDb2dVertex
  10
0.27701
  20
1.50456
  30
0.00000
  70
32
  0
VERTEX
  5
77F
  100
AcDbEntity
  8
Layer 1
  62
0
  100
AcDb2dVertex
  10
0.27700
  20
1.50400
  30
0.00000
  42
-0.2494
  70
32
  0
VERTEX
  5
780
  100
AcDbEntity
  8
Layer 1
  62
0
  100
AcDb2dVertex
  10
0.28886
  20
1.52645
  30
0.00000
  42
-0.0930
  70
32
  0
VERTEX
  5
781
  100
AcDbEntity
  8
Layer 1
  62
0
  100
AcDb2dVertex
  10
0.31000
  20
1.53600
  30
0.00000
  42
0.0657
  70
32
  0
VERTEX
  5
782
  100
AcDbEntity
  8
Layer 1
  62
0
  100
AcDb2dVertex
  10
0.34359
  20
1.54726
  30
0.00000
  42
0.1399
  70
32
  0
VERTEX
  5
783
  100
AcDbEntity
  8
Layer 1
  62
0
  100
AcDb2dVertex
  10
0.35871
  20
1.56048
  30
0.00000
  70
32
  0
VERTEX
  5
784
  100
AcDbEntity
  8
Layer 1
  62
0
  100
AcDb2dVertex
  10
0.35900
  20
1.56100
  30
0.00000
  42
-0.0726
  70
32
  0
VERTEX
  5
785
  100
AcDbEntity
  8
Layer 1
  62
0
  100
AcDb2dVertex
  10
0.36250
  20
1.59159
  30
0.00000
  42
-0.1055
  70
32
  0
VERTEX
  5
786
  100
AcDbEntity
  8
Layer 1
  62
0
  100
AcDb2dVertex
  10
0.36900
  20
1.60400
  30
0.00000
  42
-0.0537
  70
32
  0
VERTEX
  5
787
  100
AcDbEntity
  8
Layer 1
  62
0
  100
AcDb2dVertex
  10
0.37781
  20
1.61221
  30
0.00000
  70
32
  0
VERTEX
  5
788
  100
AcDbEntity
  8
Layer 1
  62
0
  100
AcDb2dVertex
  10
0.40200
  20
1.63200
  30
0.00000
  70
32
  0
VERTEX
  5
789
  100
AcDbEntity
  8
Layer 1
  62
0
  100
AcDb2dVertex
  10
0.42500
  20
1.59600
  30
0.00000
  70
32
  0
VERTEX
  5
78A
  100
AcDbEntity
  8
Layer 1
  62
0
  100
AcDb2dVertex
  10
0.40200
  20
1.63200
  30
0.00000
  70
32
  0
VERTEX
  5
78B
  100
AcDbEntity
  8
Layer 1
  62
0
  100
AcDb2dVertex
  10
0.42925
  20
1.64100
  30
0.00000
  70
32
  0
VERTEX
  5
78C
  100
AcDbEntity
  8
Layer 1
  62
0
  100
AcDb2dVertex
  10
0.43547
  20
1.64325
  30
0.00000
  70
32
  0
VERTEX
  5
78D
  100
AcDbEntity
  8
Layer 1
  62
0
  100
AcDb2dVertex
  10
0.43700
  20
1.64400
  30
0.00000
  42
-0.1633
  70
32
  0
VERTEX
  5
78E
  100
AcDbEntity
  8
Layer 1
  62
0
  100
AcDb2dVertex
  10
0.46067
  20
1.63524
  30
0.00000
  70
32
  0
VERTEX
  5
78F
  100
AcDbEntity
  8
Layer 1
  62
0
  100
AcDb2dVertex
  10
0.46100
  20
1.63500
  30
0.00000
  42
0.0782
  70
32
  0
VERTEX
  5
790
  100
AcDbEntity
  8
Layer 1
  62
0
  100
AcDb2dVertex
  10
0.47717
  20
1.62649
  30
0.00000
  42
0.1019
  70
32
  0
VERTEX
  5
791
  100
AcDbEntity
  8
Layer 1
  62
0
  100
AcDb2dVertex
  10
0.48400
  20
1.62600
  30
0.00000
  42
0.2271
  70
32
  0
VERTEX
  5
792
  100
AcDbEntity
  8
Layer 1
  62
0
  100
AcDb2dVertex
  10
0.50714
  20
1.63467
  30
0.00000
  42
0.0344
  70
32
  0
VERTEX
  5
793
  100
AcDbEntity
  8
Layer 1
  62
0
  100
AcDb2dVertex
  10
0.51200
  20
1.64000
  30
0.00000
  42
-0.0985
  70
32
  0
VERTEX
  5
794
  100
AcDbEntity
  8
Layer 1
  62
0
  100
AcDb2dVertex
  10
0.52772
  20
1.65439
  30
0.00000
  42
-0.0714
  70
32
  0
VERTEX
  5
795
  100
AcDbEntity
  8
Layer 1
  62
0
  100
AcDb2dVertex
  10
0.53200
  20
1.65600
  30
0.00000
  42
0.1863
  70
32
  0
VERTEX
  5
796
  100
AcDbEntity
  8
Layer 1
  62
0
  100
AcDb2dVertex
  10
0.56000
  20
1.65100
  30
0.00000
  70
32
  0
VERTEX
  5
797
  100
AcDbEntity
  8
Layer 1
  62
0
  100
AcDb2dVertex
  10
0.58175
  20
1.65325
  30
0.00000
  70
32
  0
VERTEX
  5
798
  100
AcDbEntity
  8
Layer 1
  62
0
  100
AcDb2dVertex
  10
0.58644
  20
1.65381
  30
0.00000
  70
32
  0
VERTEX
  5
799
  100
AcDbEntity
  8
Layer 1
  62
0
  100
AcDb2dVertex
  10
0.58723
  20
1.65395
  30
0.00000
  70
32
  0
VERTEX
  5
79A
  100
AcDbEntity
  8
Layer 1
  62
0
  100
AcDb2dVertex
  10
0.58700
  20
1.65400
  30
0.00000
  42
-0.1371
  70
32
  0
VERTEX
  5
79B
  100
AcDbEntity
  8
Layer 1
  62
0
  100
AcDb2dVertex
  10
0.60635
  20
1.64959
  30
0.00000
  42
-0.2349
  70
32
  0
VERTEX
  5
79C
  100
AcDbEntity
  8
Layer 1
  62
0
  100
AcDb2dVertex
  10
0.61662
  20
1.63275
  30
0.00000
  42
-0.0351
  70
32
  0
VERTEX
  5
79D
  100
AcDbEntity
  8
Layer 1
  62
0
  100
AcDb2dVertex
  10
0.61700
  20
1.62700
  30
0.00000
  70
32
  0
SEQEND
  5
79E
  100
AcDbEntity
  8
Layer 1
  62
0
  0
POLYLINE
  5
79F
  100
AcDbEntity
  8
Layer 1
  62
0
  100
AcDb2dPolyline
 66
     1
  10
0
  20
0
  30
0
  70
1
  0
VERTEX
  5
7A0
  100
AcDbEntity
  8
Layer 1
  62
0
  100
AcDb2dVertex
  10
1.52600
  20
0.44400
  30
0.00000
  42
-0.1597
  70
32
  0
VERTEX
  5
7A1
  100
AcDbEntity
  8
Layer 1
  62
0
  100
AcDb2dVertex
  10
1.52078
  20
0.42490
  30
0.00000
  42
-0.2092
  70
32
  0
VERTEX
  5
7A2
  100
AcDbEntity
  8
Layer 1
  62
0
  100
AcDb2dVertex
  10
1.50340
  20
0.41542
  30
0.00000
  42
-0.0348
  70
32
  0
VERTEX
  5
7A3
  100
AcDbEntity
  8
Layer 1
  62
0
  100
AcDb2dVertex
  10
1.49700
  20
0.41500
  30
0.00000
  42
-0.1202
  70
32
  0
VERTEX
  5
7A4
  100
AcDbEntity
  8
Layer 1
  62
0
  100
AcDb2dVertex
  10
1.48372
  20
0.41966
  30
0.00000
  42
-0.0470
  70
32
  0
VERTEX
  5
7A5
  100
AcDbEntity
  8
Layer 1
  62
0
  100
AcDb2dVertex
  10
1.46400
  20
0.43400
  30
0.00000
  42
0.0415
  70
32
  0
VERTEX
  5
7A6
  100
AcDbEntity
  8
Layer 1
  62
0
  100
AcDb2dVertex
  10
1.44105
  20
0.45305
  30
0.00000
  42
0.0726
  70
32
  0
VERTEX
  5
7A7
  100
AcDbEntity
  8
Layer 1
  62
0
  100
AcDb2dVertex
  10
1.43700
  20
0.45500
  30
0.00000
  42
-0.1560
  70
32
  0
VERTEX
  5
7A8
  100
AcDbEntity
  8
Layer 1
  62
0
  100
AcDb2dVertex
  10
1.38200
  20
0.43700
  30
0.00000
  42
-0.1157
  70
32
  0
VERTEX
  5
7A9
  100
AcDbEntity
  8
Layer 1
  62
0
  100
AcDb2dVertex
  10
1.33765
  20
0.44834
  30
0.00000
  42
-0.0716
  70
32
  0
VERTEX
  5
7AA
  100
AcDbEntity
  8
Layer 1
  62
0
  100
AcDb2dVertex
  10
1.29013
  20
0.48231
  30
0.00000
  42
-0.0238
  70
32
  0
VERTEX
  5
7AB
  100
AcDbEntity
  8
Layer 1
  62
0
  100
AcDb2dVertex
  10
1.26600
  20
0.50700
  30
0.00000
  42
-0.0530
  70
32
  0
VERTEX
  5
7AC
  100
AcDbEntity
  8
Layer 1
  62
0
  100
AcDb2dVertex
  10
1.22308
  20
0.56646
  30
0.00000
  42
-0.0839
  70
32
  0
VERTEX
  5
7AD
  100
AcDbEntity
  8
Layer 1
  62
0
  100
AcDb2dVertex
  10
1.20537
  20
0.61408
  30
0.00000
  42
-0.0418
  70
32
  0
VERTEX
  5
7AE
  100
AcDbEntity
  8
Layer 1
  62
0
  100
AcDb2dVertex
  10
1.20400
  20
0.63000
  30
0.00000
  42
-0.3300
  70
32
  0
VERTEX
  5
7AF
  100
AcDbEntity
  8
Layer 1
  62
0
  100
AcDb2dVertex
  10
1.21311
  20
0.64324
  30
0.00000
  42
-0.0513
  70
32
  0
VERTEX
  5
7B0
  100
AcDbEntity
  8
Layer 1
  62
0
  100
AcDb2dVertex
  10
1.21900
  20
0.64500
  30
0.00000
  70
32
  0
VERTEX
  5
7B1
  100
AcDbEntity
  8
Layer 1
  62
0
  100
AcDb2dVertex
  10
1.22900
  20
0.63700
  30
0.00000
  42
0.0819
  70
32
  0
VERTEX
  5
7B2
  100
AcDbEntity
  8
Layer 1
  62
0
  100
AcDb2dVertex
  10
1.26492
  20
0.55484
  30
0.00000
  42
0.0190
  70
32
  0
VERTEX
  5
7B3
  100
AcDbEntity
  8
Layer 1
  62
0
  100
AcDb2dVertex
  10
1.28200
  20
0.53000
  30
0.00000
  42
0.0723
  70
32
  0
VERTEX
  5
7B4
  100
AcDbEntity
  8
Layer 1
  62
0
  100
AcDb2dVertex
  10
1.32225
  20
0.48884
  30
0.00000
  42
0.1181
  70
32
  0
VERTEX
  5
7B5
  100
AcDbEntity
  8
Layer 1
  62
0
  100
AcDb2dVertex
  10
1.36423
  20
0.47006
  30
0.00000
  42
0.0414
  70
32
  0
VERTEX
  5
7B6
  100
AcDbEntity
  8
Layer 1
  62
0
  100
AcDb2dVertex
  10
1.37700
  20
0.46900
  30
0.00000
  42
0.1197
  70
32
  0
VERTEX
  5
7B7
  100
AcDbEntity
  8
Layer 1
  62
0
  100
AcDb2dVertex
  10
1.42250
  20
0.47896
  30
0.00000
  42
0.1067
  70
32
  0
VERTEX
  5
7B8
  100
AcDbEntity
  8
Layer 1
  62
0
  100
AcDb2dVertex
  10
1.44700
  20
0.49900
  30
0.00000
  70
32
  0
VERTEX
  5
7B9
  100
AcDbEntity
  8
Layer 1
  62
0
  100
AcDb2dVertex
  10
1.46600
  20
0.47900
  30
0.00000
  70
32
  0
VERTEX
  5
7BA
  100
AcDbEntity
  8
Layer 1
  62
0
  100
AcDb2dVertex
  10
1.44700
  20
0.49900
  30
0.00000
  42
0.1567
  70
32
  0
VERTEX
  5
7BB
  100
AcDbEntity
  8
Layer 1
  62
0
  100
AcDb2dVertex
  10
1.47125
  20
0.53634
  30
0.00000
  42
0.0725
  70
32
  0
VERTEX
  5
7BC
  100
AcDbEntity
  8
Layer 1
  62
0
  100
AcDb2dVertex
  10
1.47600
  20
0.57200
  30
0.00000
  42
0.1280
  70
32
  0
VERTEX
  5
7BD
  100
AcDbEntity
  8
Layer 1
  62
0
  100
AcDb2dVertex
  10
1.46146
  20
0.62486
  30
0.00000
  42
0.0664
  70
32
  0
VERTEX
  5
7BE
  100
AcDbEntity
  8
Layer 1
  62
0
  100
AcDb2dVertex
  10
1.43100
  20
0.66500
  30
0.00000
  42
0.1060
  70
32
  0
VERTEX
  5
7BF
  100
AcDbEntity
  8
Layer 1
  62
0
  100
AcDb2dVertex
  10
1.34400
  20
0.72500
  30
0.00000
  42
-0.0398
  70
32
  0
VERTEX
  5
7C0
  100
AcDbEntity
  8
Layer 1
  62
0
  100
AcDb2dVertex
  10
1.31365
  20
0.74023
  30
0.00000
  42
-0.1462
  70
32
  0
VERTEX
  5
7C1
  100
AcDbEntity
  8
Layer 1
  62
0
  100
AcDb2dVertex
  10
1.30905
  20
0.74466
  30
0.00000
  70
32
  0
VERTEX
  5
7C2
  100
AcDbEntity
  8
Layer 1
  62
0
  100
AcDb2dVertex
  10
1.30900
  20
0.74500
  30
0.00000
  42
-0.3818
  70
32
  0
VERTEX
  5
7C3
  100
AcDbEntity
  8
Layer 1
  62
0
  100
AcDb2dVertex
  10
1.31613
  20
0.75410
  30
0.00000
  42
-0.0681
  70
32
  0
VERTEX
  5
7C4
  100
AcDbEntity
  8
Layer 1
  62
0
  100
AcDb2dVertex
  10
1.32400
  20
0.75500
  30
0.00000
  42
-0.1226
  70
32
  0
VERTEX
  5
7C5
  100
AcDbEntity
  8
Layer 1
  62
0
  100
AcDb2dVertex
  10
1.38153
  20
0.73989
  30
0.00000
  42
-0.0720
  70
32
  0
VERTEX
  5
7C6
  100
AcDbEntity
  8
Layer 1
  62
0
  100
AcDb2dVertex
  10
1.43288
  20
0.70140
  30
0.00000
  42
-0.0124
  70
32
  0
VERTEX
  5
7C7
  100
AcDbEntity
  8
Layer 1
  62
0
  100
AcDb2dVertex
  10
1.44500
  20
0.68900
  30
0.00000
  42
-0.0661
  70
32
  0
VERTEX
  5
7C8
  100
AcDbEntity
  8
Layer 1
  62
0
  100
AcDb2dVertex
  10
1.48814
  20
0.63003
  30
0.00000
  42
-0.1018
  70
32
  0
VERTEX
  5
7C9
  100
AcDbEntity
  8
Layer 1
  62
0
  100
AcDb2dVertex
  10
1.50563
  20
0.57322
  30
0.00000
  70
32
  0
VERTEX
  5
7CA
  100
AcDbEntity
  8
Layer 1
  62
0
  100
AcDb2dVertex
  10
1.50600
  20
0.56400
  30
0.00000
  42
-0.0881
  70
32
  0
VERTEX
  5
7CB
  100
AcDbEntity
  8
Layer 1
  62
0
  100
AcDb2dVertex
  10
1.49967
  20
0.53489
  30
0.00000
  42
-0.0302
  70
32
  0
VERTEX
  5
7CC
  100
AcDbEntity
  8
Layer 1
  62
0
  100
AcDb2dVertex
  10
1.48600
  20
0.50500
  30
0.00000
  42
0.0973
  70
32
  0
VERTEX
  5
7CD
  100
AcDbEntity
  8
Layer 1
  62
0
  100
AcDb2dVertex
  10
1.49556
  20
0.48748
  30
0.00000
  42
0.0241
  70
32
  0
VERTEX
  5
7CE
  100
AcDbEntity
  8
Layer 1
  62
0
  100
AcDb2dVertex
  10
1.50700
  20
0.47400
  30
0.00000
  42
-0.0983
  70
32
  0
VERTEX
  5
7CF
  100
AcDbEntity
  8
Layer 1
  62
0
  100
AcDb2dVertex
  10
1.52391
  20
0.45235
  30
0.00000
  42
-0.1031
  70
32
  0
VERTEX
  5
7D0
  100
AcDbEntity
  8
Layer 1
  62
0
  100
AcDb2dVertex
  10
1.52600
  20
0.44400
  30
0.00000
  70
32
  0
SEQEND
  5
7D1
  100
AcDbEntity
  8
Layer 1
  62
0
  0
POLYLINE
  5
7D2
  100
AcDbEntity
  8
Layer 1
  62
0
  100
AcDb2dPolyline
 66
     1
  10
0
  20
0
  30
0
  70
1
  0
VERTEX
  5
7D3
  100
AcDbEntity
  8
Layer 1
  62
0
  100
AcDb2dVertex
  10
1.43900
  20
0.53000
  30
0.00000
  42
-0.2429
  70
32
  0
VERTEX
  5
7D4
  100
AcDbEntity
  8
Layer 1
  62
0
  100
AcDb2dVertex
  10
1.43485
  20
0.51983
  30
0.00000
  42
-0.1343
  70
32
  0
VERTEX
  5
7D5
  100
AcDbEntity
  8
Layer 1
  62
0
  100
AcDb2dVertex
  10
1.42700
  20
0.51700
  30
0.00000
  70
32
  0
VERTEX
  5
7D6
  100
AcDbEntity
  8
Layer 1
  62
0
  100
AcDb2dVertex
  10
1.41700
  20
0.52400
  30
0.00000
  42
0.0883
  70
32
  0
VERTEX
  5
7D7
  100
AcDbEntity
  8
Layer 1
  62
0
  100
AcDb2dVertex
  10
1.37573
  20
0.61384
  30
0.00000
  42
0.0172
  70
32
  0
VERTEX
  5
7D8
  100
AcDbEntity
  8
Layer 1
  62
0
  100
AcDb2dVertex
  10
1.36100
  20
0.63400
  30
0.00000
  42
0.0670
  70
32
  0
VERTEX
  5
7D9
  100
AcDbEntity
  8
Layer 1
  62
0
  100
AcDb2dVertex
  10
1.31784
  20
0.67516
  30
0.00000
  42
0.1112
  70
32
  0
VERTEX
  5
7DA
  100
AcDbEntity
  8
Layer 1
  62
0
  100
AcDb2dVertex
  10
1.27483
  20
0.69383
  30
0.00000
  42
0.0422
  70
32
  0
VERTEX
  5
7DB
  100
AcDbEntity
  8
Layer 1
  62
0
  100
AcDb2dVertex
  10
1.26100
  20
0.69500
  30
0.00000
  42
0.1087
  70
32
  0
VERTEX
  5
7DC
  100
AcDbEntity
  8
Layer 1
  62
0
  100
AcDb2dVertex
  10
1.23001
  20
0.68710
  30
0.00000
  42
0.0631
  70
32
  0
VERTEX
  5
7DD
  100
AcDbEntity
  8
Layer 1
  62
0
  100
AcDb2dVertex
  10
1.18900
  20
0.66000
  30
0.00000
  70
32
  0
VERTEX
  5
7DE
  100
AcDbEntity
  8
Layer 1
  62
0
  100
AcDb2dVertex
  10
1.16700
  20
0.68000
  30
0.00000
  70
32
  0
VERTEX
  5
7DF
  100
AcDbEntity
  8
Layer 1
  62
0
  100
AcDb2dVertex
  10
1.18900
  20
0.66000
  30
0.00000
  42
0.2060
  70
32
  0
VERTEX
  5
7E0
  100
AcDbEntity
  8
Layer 1
  62
0
  100
AcDb2dVertex
  10
1.15600
  20
0.58000
  30
0.00000
  42
0.1746
  70
32
  0
VERTEX
  5
7E1
  100
AcDbEntity
  8
Layer 1
  62
0
  100
AcDb2dVertex
  10
1.17970
  20
0.51395
  30
0.00000
  42
0.0841
  70
32
  0
VERTEX
  5
7E2
  100
AcDbEntity
  8
Layer 1
  62
0
  100
AcDb2dVertex
  10
1.22350
  20
0.47616
  30
0.00000
  42
0.0419
  70
32
  0
VERTEX
  5
7E3
  100
AcDbEntity
  8
Layer 1
  62
0
  100
AcDb2dVertex
  10
1.27100
  20
0.45200
  30
0.00000
  70
32
  0
VERTEX
  5
7E4
  100
AcDbEntity
  8
Layer 1
  62
0
  100
AcDb2dVertex
  10
1.28834
  20
0.44760
  30
0.00000
  42
0.0120
  70
32
  0
VERTEX
  5
7E5
  100
AcDbEntity
  8
Layer 1
  62
0
  100
AcDb2dVertex
  10
1.31100
  20
0.44200
  30
0.00000
  42
-0.0481
  70
32
  0
VERTEX
  5
7E6
  100
AcDbEntity
  8
Layer 1
  62
0
  100
AcDb2dVertex
  10
1.33602
  20
0.43182
  30
0.00000
  42
-0.1702
  70
32
  0
VERTEX
  5
7E7
  100
AcDbEntity
  8
Layer 1
  62
0
  100
AcDb2dVertex
  10
1.34180
  20
0.42624
  30
0.00000
  70
32
  0
VERTEX
  5
7E8
  100
AcDbEntity
  8
Layer 1
  62
0
  100
AcDb2dVertex
  10
1.34200
  20
0.42500
  30
0.00000
  42
-0.2310
  70
32
  0
VERTEX
  5
7E9
  100
AcDbEntity
  8
Layer 1
  62
0
  100
AcDb2dVertex
  10
1.33890
  20
0.41652
  30
0.00000
  42
-0.1711
  70
32
  0
VERTEX
  5
7EA
  100
AcDbEntity
  8
Layer 1
  62
0
  100
AcDb2dVertex
  10
1.32918
  20
0.41400
  30
0.00000
  70
32
  0
VERTEX
  5
7EB
  100
AcDbEntity
  8
Layer 1
  62
0
  100
AcDb2dVertex
  10
1.32900
  20
0.41400
  30
0.00000
  42
-0.1012
  70
32
  0
VERTEX
  5
7EC
  100
AcDbEntity
  8
Layer 1
  62
0
  100
AcDb2dVertex
  10
1.25781
  20
0.42950
  30
0.00000
  42
-0.0638
  70
32
  0
VERTEX
  5
7ED
  100
AcDbEntity
  8
Layer 1
  62
0
  100
AcDb2dVertex
  10
1.19200
  20
0.46900
  30
0.00000
  42
-0.0698
  70
32
  0
VERTEX
  5
7EE
  100
AcDbEntity
  8
Layer 1
  62
0
  100
AcDb2dVertex
  10
1.14568
  20
0.51707
  30
0.00000
  42
-0.1159
  70
32
  0
VERTEX
  5
7EF
  100
AcDbEntity
  8
Layer 1
  62
0
  100
AcDb2dVertex
  10
1.12234
  20
0.57254
  30
0.00000
  42
-0.0385
  70
32
  0
VERTEX
  5
7F0
  100
AcDbEntity
  8
Layer 1
  62
0
  100
AcDb2dVertex
  10
1.12100
  20
0.59000
  30
0.00000
  42
-0.0692
  70
32
  0
VERTEX
  5
7F1
  100
AcDbEntity
  8
Layer 1
  62
0
  100
AcDb2dVertex
  10
1.12722
  20
0.62580
  30
0.00000
  42
-0.0224
  70
32
  0
VERTEX
  5
7F2
  100
AcDbEntity
  8
Layer 1
  62
0
  100
AcDb2dVertex
  10
1.13700
  20
0.65400
  30
0.00000
  42
0.1336
  70
32
  0
VERTEX
  5
7F3
  100
AcDbEntity
  8
Layer 1
  62
0
  100
AcDb2dVertex
  10
1.13058
  20
0.67244
  30
0.00000
  42
0.0271
  70
32
  0
VERTEX
  5
7F4
  100
AcDbEntity
  8
Layer 1
  62
0
  100
AcDb2dVertex
  10
1.12600
  20
0.67900
  30
0.00000
  70
32
  0
VERTEX
  5
7F5
  100
AcDbEntity
  8
Layer 1
  62
0
  100
AcDb2dVertex
  10
1.10400
  20
0.70400
  30
0.00000
  70
32
  0
VERTEX
  5
7F6
  100
AcDbEntity
  8
Layer 1
  62
0
  100
AcDb2dVertex
  10
1.10200
  20
0.71400
  30
0.00000
  42
-0.1578
  70
32
  0
VERTEX
  5
7F7
  100
AcDbEntity
  8
Layer 1
  62
0
  100
AcDb2dVertex
  10
1.10681
  20
0.73208
  30
0.00000
  42
-0.2009
  70
32
  0
VERTEX
  5
7F8
  100
AcDbEntity
  8
Layer 1
  62
0
  100
AcDb2dVertex
  10
1.12291
  20
0.74126
  30
0.00000
  42
-0.0443
  70
32
  0
VERTEX
  5
7F9
  100
AcDbEntity
  8
Layer 1
  62
0
  100
AcDb2dVertex
  10
1.13200
  20
0.74200
  30
0.00000
  42
-0.1486
  70
32
  0
VERTEX
  5
7FA
  100
AcDbEntity
  8
Layer 1
  62
0
  100
AcDb2dVertex
  10
1.14899
  20
0.73586
  30
0.00000
  42
-0.0487
  70
32
  0
VERTEX
  5
7FB
  100
AcDbEntity
  8
Layer 1
  62
0
  100
AcDb2dVertex
  10
1.16300
  20
0.72400
  30
0.00000
  42
0.0680
  70
32
  0
VERTEX
  5
7FC
  100
AcDbEntity
  8
Layer 1
  62
0
  100
AcDb2dVertex
  10
1.18268
  20
0.70925
  30
0.00000
  42
0.1130
  70
32
  0
VERTEX
  5
7FD
  100
AcDbEntity
  8
Layer 1
  62
0
  100
AcDb2dVertex
  10
1.19100
  20
0.70700
  30
0.00000
  42
0.0584
  70
32
  0
VERTEX
  5
7FE
  100
AcDbEntity
  8
Layer 1
  62
0
  100
AcDb2dVertex
  10
1.20205
  20
0.71115
  30
0.00000
  70
32
  0
VERTEX
  5
7FF
  100
AcDbEntity
  8
Layer 1
  62
0
  100
AcDb2dVertex
  10
1.21700
  20
0.71800
  30
0.00000
  42
-0.0873
  70
32
  0
VERTEX
  5
800
  100
AcDbEntity
  8
Layer 1
  62
0
  100
AcDb2dVertex
  10
1.25729
  20
0.72885
  30
0.00000
  70
32
  0
VERTEX
  5
801
  100
AcDbEntity
  8
Layer 1
  62
0
  100
AcDb2dVertex
  10
1.26200
  20
0.72900
  30
0.00000
  42
-0.1194
  70
32
  0
VERTEX
  5
802
  100
AcDbEntity
  8
Layer 1
  62
0
  100
AcDb2dVertex
  10
1.30189
  20
0.71840
  30
0.00000
  42
-0.0674
  70
32
  0
VERTEX
  5
803
  100
AcDbEntity
  8
Layer 1
  62
0
  100
AcDb2dVertex
  10
1.34489
  20
0.68717
  30
0.00000
  42
-0.0266
  70
32
  0
VERTEX
  5
804
  100
AcDbEntity
  8
Layer 1
  62
0
  100
AcDb2dVertex
  10
1.37600
  20
0.65500
  30
0.00000
  42
-0.0497
  70
32
  0
VERTEX
  5
805
  100
AcDbEntity
  8
Layer 1
  62
0
  100
AcDb2dVertex
  10
1.41920
  20
0.59487
  30
0.00000
  42
-0.0809
  70
32
  0
VERTEX
  5
806
  100
AcDbEntity
  8
Layer 1
  62
0
  100
AcDb2dVertex
  10
1.43732
  20
0.54762
  30
0.00000
  42
-0.0459
  70
32
  0
VERTEX
  5
807
  100
AcDbEntity
  8
Layer 1
  62
0
  100
AcDb2dVertex
  10
1.43900
  20
0.53000
  30
0.00000
  70
32
  0
SEQEND
  5
808
  100
AcDbEntity
  8
Layer 1
  62
0
  0
POLYLINE
  5
809
  100
AcDbEntity
  8
Layer 1
  62
0
  100
AcDb2dPolyline
 66
     1
  10
0
  20
0
  30
0
  70
1
  0
VERTEX
  5
80A
  100
AcDbEntity
  8
Layer 1
  62
0
  100
AcDb2dVertex
  10
1.86100
  20
0.15500
  30
0.00000
  70
32
  0
VERTEX
  5
80B
  100
AcDbEntity
  8
Layer 1
  62
0
  100
AcDb2dVertex
  10
1.85200
  20
0.14700
  30
0.00000
  42
0.0570
  70
32
  0
VERTEX
  5
80C
  100
AcDbEntity
  8
Layer 1
  62
0
  100
AcDb2dVertex
  10
1.77905
  20
0.20823
  30
0.00000
  42
0.0823
  70
32
  0
VERTEX
  5
80D
  100
AcDbEntity
  8
Layer 1
  62
0
  100
AcDb2dVertex
  10
1.70879
  20
0.23975
  30
0.00000
  42
0.0613
  70
32
  0
VERTEX
  5
80E
  100
AcDbEntity
  8
Layer 1
  62
0
  100
AcDb2dVertex
  10
1.66700
  20
0.24500
  30
0.00000
  42
0.1987
  70
32
  0
VERTEX
  5
80F
  100
AcDbEntity
  8
Layer 1
  62
0
  100
AcDb2dVertex
  10
1.62381
  20
0.22721
  30
0.00000
  42
0.0897
  70
32
  0
VERTEX
  5
810
  100
AcDbEntity
  8
Layer 1
  62
0
  100
AcDb2dVertex
  10
1.59951
  20
0.19239
  30
0.00000
  42
0.0221
  70
32
  0
VERTEX
  5
811
  100
AcDbEntity
  8
Layer 1
  62
0
  100
AcDb2dVertex
  10
1.59200
  20
0.17500
  30
0.00000
  70
32
  0
VERTEX
  5
812
  100
AcDbEntity
  8
Layer 1
  62
0
  100
AcDb2dVertex
  10
1.56700
  20
0.18500
  30
0.00000
  70
32
  0
VERTEX
  5
813
  100
AcDbEntity
  8
Layer 1
  62
0
  100
AcDb2dVertex
  10
1.59200
  20
0.17500
  30
0.00000
  70
32
  0
VERTEX
  5
814
  100
AcDbEntity
  8
Layer 1
  62
0
  100
AcDb2dVertex
  10
1.57900
  20
0.12900
  30
0.00000
  42
0.1662
  70
32
  0
VERTEX
  5
815
  100
AcDbEntity
  8
Layer 1
  62
0
  100
AcDb2dVertex
  10
1.59445
  20
0.08021
  30
0.00000
  42
0.1116
  70
32
  0
VERTEX
  5
816
  100
AcDbEntity
  8
Layer 1
  62
0
  100
AcDb2dVertex
  10
1.62912
  20
0.05192
  30
0.00000
  42
0.0464
  70
32
  0
VERTEX
  5
817
  100
AcDbEntity
  8
Layer 1
  62
0
  100
AcDb2dVertex
  10
1.66100
  20
0.03900
  30
0.00000
  42
0.0813
  70
32
  0
VERTEX
  5
818
  100
AcDbEntity
  8
Layer 1
  62
0
  100
AcDb2dVertex
  10
1.75862
  20
0.02354
  30
0.00000
  42
0.0219
  70
32
  0
VERTEX
  5
819
  100
AcDbEntity
  8
Layer 1
  62
0
  100
AcDb2dVertex
  10
1.79600
  20
0.02500
  30
0.00000
  70
32
  0
VERTEX
  5
81A
  100
AcDbEntity
  8
Layer 1
  62
0
  100
AcDb2dVertex
  10
1.80600
  20
0.01900
  30
0.00000
  42
-0.2478
  70
32
  0
VERTEX
  5
81B
  100
AcDbEntity
  8
Layer 1
  62
0
  100
AcDb2dVertex
  10
1.80066
  20
0.01195
  30
0.00000
  42
-0.0868
  70
32
  0
VERTEX
  5
81C
  100
AcDbEntity
  8
Layer 1
  62
0
  100
AcDb2dVertex
  10
1.78162
  20
0.00602
  30
0.00000
  42
-0.0365
  70
32
  0
VERTEX
  5
81D
  100
AcDbEntity
  8
Layer 1
  62
0
  100
AcDb2dVertex
  10
1.72957
  20
0.00215
  30
0.00000
  70
32
  0
VERTEX
  5
81E
  100
AcDbEntity
  8
Layer 1
  62
0
  100
AcDb2dVertex
  10
1.71200
  20
0.00200
  30
0.00000
  42
-0.0652
  70
32
  0
VERTEX
  5
81F
  100
AcDbEntity
  8
Layer 1
  62
0
  100
AcDb2dVertex
  10
1.64392
  20
0.00989
  30
0.00000
  42
-0.1044
  70
32
  0
VERTEX
  5
820
  100
AcDbEntity
  8
Layer 1
  62
0
  100
AcDb2dVertex
  10
1.59304
  20
0.03452
  30
0.00000
  42
-0.1525
  70
32
  0
VERTEX
  5
821
  100
AcDbEntity
  8
Layer 1
  62
0
  100
AcDb2dVertex
  10
1.55647
  20
0.08948
  30
0.00000
  42
-0.0756
  70
32
  0
VERTEX
  5
822
  100
AcDbEntity
  8
Layer 1
  62
0
  100
AcDb2dVertex
  10
1.54900
  20
0.14400
  30
0.00000
  42
0.2292
  70
32
  0
VERTEX
  5
823
  100
AcDbEntity
  8
Layer 1
  62
0
  100
AcDb2dVertex
  10
1.53809
  20
0.16626
  30
0.00000
  42
0.0857
  70
32
  0
VERTEX
  5
824
  100
AcDbEntity
  8
Layer 1
  62
0
  100
AcDb2dVertex
  10
1.51700
  20
0.17800
  30
0.00000
  42
-0.1011
  70
32
  0
VERTEX
  5
825
  100
AcDbEntity
  8
Layer 1
  62
0
  100
AcDb2dVertex
  10
1.49430
  20
0.19000
  30
0.00000
  42
-0.2208
  70
32
  0
VERTEX
  5
826
  100
AcDbEntity
  8
Layer 1
  62
0
  100
AcDb2dVertex
  10
1.48600
  20
0.20700
  30
0.00000
  42
-0.1552
  70
32
  0
VERTEX
  5
827
  100
AcDbEntity
  8
Layer 1
  62
0
  100
AcDb2dVertex
  10
1.49057
  20
0.22454
  30
0.00000
  42
-0.2070
  70
32
  0
VERTEX
  5
828
  100
AcDbEntity
  8
Layer 1
  62
0
  100
AcDb2dVertex
  10
1.50616
  20
0.23340
  30
0.00000
  42
-0.0414
  70
32
  0
VERTEX
  5
829
  100
AcDbEntity
  8
Layer 1
  62
0
  100
AcDb2dVertex
  10
1.51400
  20
0.23400
  30
0.00000
  42
-0.0774
  70
32
  0
VERTEX
  5
82A
  100
AcDbEntity
  8
Layer 1
  62
0
  100
AcDb2dVertex
  10
1.53377
  20
0.22956
  30
0.00000
  70
32
  0
VERTEX
  5
82B
  100
AcDbEntity
  8
Layer 1
  62
0
  100
AcDb2dVertex
  10
1.54100
  20
0.22700
  30
0.00000
  42
0.0955
  70
32
  0
VERTEX
  5
82C
  100
AcDbEntity
  8
Layer 1
  62
0
  100
AcDb2dVertex
  10
1.56625
  20
0.22001
  30
0.00000
  70
32
  0
VERTEX
  5
82D
  100
AcDbEntity
  8
Layer 1
  62
0
  100
AcDb2dVertex
  10
1.56700
  20
0.22000
  30
0.00000
  42
0.1240
  70
32
  0
VERTEX
  5
82E
  100
AcDbEntity
  8
Layer 1
  62
0
  100
AcDb2dVertex
  10
1.57284
  20
0.22330
  30
0.00000
  42
0.0157
  70
32
  0
VERTEX
  5
82F
  100
AcDbEntity
  8
Layer 1
  62
0
  100
AcDb2dVertex
  10
1.60000
  20
0.24700
  30
0.00000
  42
-0.1967
  70
32
  0
VERTEX
  5
830
  100
AcDbEntity
  8
Layer 1
  62
0
  100
AcDb2dVertex
  10
1.66700
  20
0.27400
  30
0.00000
  42
-0.0765
  70
32
  0
VERTEX
  5
831
  100
AcDbEntity
  8
Layer 1
  62
0
  100
AcDb2dVertex
  10
1.71050
  20
0.26612
  30
0.00000
  42
-0.0471
  70
32
  0
VERTEX
  5
832
  100
AcDbEntity
  8
Layer 1
  62
0
  100
AcDb2dVertex
  10
1.77686
  20
0.23641
  30
0.00000
  70
32
  0
VERTEX
  5
833
  100
AcDbEntity
  8
Layer 1
  62
0
  100
AcDb2dVertex
  10
1.78300
  20
0.23300
  30
0.00000
  42
-0.0497
  70
32
  0
VERTEX
  5
834
  100
AcDbEntity
  8
Layer 1
  62
0
  100
AcDb2dVertex
  10
1.83191
  20
0.19940
  30
0.00000
  42
-0.0893
  70
32
  0
VERTEX
  5
835
  100
AcDbEntity
  8
Layer 1
  62
0
  100
AcDb2dVertex
  10
1.85527
  20
0.17154
  30
0.00000
  42
-0.0833
  70
32
  0
VERTEX
  5
836
  100
AcDbEntity
  8
Layer 1
  62
0
  100
AcDb2dVertex
  10
1.86100
  20
0.15500
  30
0.00000
  70
32
  0
SEQEND
  5
837
  100
AcDbEntity
  8
Layer 1
  62
0
  0
POLYLINE
  5
838
  100
AcDbEntity
  8
Layer 1
  62
0
  100
AcDb2dPolyline
 66
     1
  10
0
  20
0
  30
0
  70
1
  0
VERTEX
  5
839
  100
AcDbEntity
  8
Layer 1
  62
0
  100
AcDb2dVertex
  10
0.91600
  20
1.00200
  30
0.00000
  42
-0.2209
  70
32
  0
VERTEX
  5
83A
  100
AcDbEntity
  8
Layer 1
  62
0
  100
AcDb2dVertex
  10
0.90731
  20
0.98472
  30
0.00000
  42
-0.0561
  70
32
  0
VERTEX
  5
83B
  100
AcDbEntity
  8
Layer 1
  62
0
  100
AcDb2dVertex
  10
0.89900
  20
0.97900
  30
0.00000
  42
0.0768
  70
32
  0
VERTEX
  5
83C
  100
AcDbEntity
  8
Layer 1
  62
0
  100
AcDb2dVertex
  10
0.88211
  20
0.96541
  30
0.00000
  42
0.0890
  70
32
  0
VERTEX
  5
83D
  100
AcDbEntity
  8
Layer 1
  62
0
  100
AcDb2dVertex
  10
0.87900
  20
0.96000
  30
0.00000
  70
32
  0
VERTEX
  5
83E
  100
AcDbEntity
  8
Layer 1
  62
0
  100
AcDb2dVertex
  10
0.87600
  20
0.93200
  30
0.00000
  42
-0.1227
  70
32
  0
VERTEX
  5
83F
  100
AcDbEntity
  8
Layer 1
  62
0
  100
AcDb2dVertex
  10
0.87101
  20
0.91819
  30
0.00000
  42
-0.2434
  70
32
  0
VERTEX
  5
840
  100
AcDbEntity
  8
Layer 1
  62
0
  100
AcDb2dVertex
  10
0.86200
  20
0.91400
  30
0.00000
  42
-0.0784
  70
32
  0
VERTEX
  5
841
  100
AcDbEntity
  8
Layer 1
  62
0
  100
AcDb2dVertex
  10
0.84813
  20
0.91794
  30
0.00000
  70
32
  0
VERTEX
  5
842
  100
AcDbEntity
  8
Layer 1
  62
0
  100
AcDb2dVertex
  10
0.84100
  20
0.92100
  30
0.00000
  42
0.0947
  70
32
  0
VERTEX
  5
843
  100
AcDbEntity
  8
Layer 1
  62
0
  100
AcDb2dVertex
  10
0.81661
  20
0.92890
  30
0.00000
  70
32
  0
VERTEX
  5
844
  100
AcDbEntity
  8
Layer 1
  62
0
  100
AcDb2dVertex
  10
0.81400
  20
0.92900
  30
0.00000
  42
0.1082
  70
32
  0
VERTEX
  5
845
  100
AcDbEntity
  8
Layer 1
  62
0
  100
AcDb2dVertex
  10
0.79524
  20
0.92374
  30
0.00000
  70
32
  0
VERTEX
  5
846
  100
AcDbEntity
  8
Layer 1
  62
0
  100
AcDb2dVertex
  10
0.78600
  20
0.91900
  30
0.00000
  42
-0.0887
  70
32
  0
VERTEX
  5
847
  100
AcDbEntity
  8
Layer 1
  62
0
  100
AcDb2dVertex
  10
0.76287
  20
0.90952
  30
0.00000
  42
-0.0427
  70
32
  0
VERTEX
  5
848
  100
AcDbEntity
  8
Layer 1
  62
0
  100
AcDb2dVertex
  10
0.75700
  20
0.90900
  30
0.00000
  42
-0.1725
  70
32
  0
VERTEX
  5
849
  100
AcDbEntity
  8
Layer 1
  62
0
  100
AcDb2dVertex
  10
0.73438
  20
0.91778
  30
0.00000
  42
-0.0498
  70
32
  0
VERTEX
  5
84A
  100
AcDbEntity
  8
Layer 1
  62
0
  100
AcDb2dVertex
  10
0.72400
  20
0.92800
  30
0.00000
  42
0.0856
  70
32
  0
VERTEX
  5
84B
  100
AcDbEntity
  8
Layer 1
  62
0
  100
AcDb2dVertex
  10
0.70607
  20
0.94422
  30
0.00000
  42
0.1285
  70
32
  0
VERTEX
  5
84C
  100
AcDbEntity
  8
Layer 1
  62
0
  100
AcDb2dVertex
  10
0.69700
  20
0.94700
  30
0.00000
  42
0.2387
  70
32
  0
VERTEX
  5
84D
  100
AcDbEntity
  8
Layer 1
  62
0
  100
AcDb2dVertex
  10
0.68205
  20
0.93911
  30
0.00000
  42
0.0432
  70
32
  0
VERTEX
  5
84E
  100
AcDbEntity
  8
Layer 1
  62
0
  100
AcDb2dVertex
  10
0.67800
  20
0.93300
  30
0.00000
  42
-0.0981
  70
32
  0
VERTEX
  5
84F
  100
AcDbEntity
  8
Layer 1
  62
0
  100
AcDb2dVertex
  10
0.66972
  20
0.92093
  30
0.00000
  42
-0.1783
  70
32
  0
VERTEX
  5
850
  100
AcDbEntity
  8
Layer 1
  62
0
  100
AcDb2dVertex
  10
0.66500
  20
0.91900
  30
0.00000
  42
-0.2828
  70
32
  0
VERTEX
  5
851
  100
AcDbEntity
  8
Layer 1
  62
0
  100
AcDb2dVertex
  10
0.66019
  20
0.92271
  30
0.00000
  42
-0.0814
  70
32
  0
VERTEX
  5
852
  100
AcDbEntity
  8
Layer 1
  62
0
  100
AcDb2dVertex
  10
0.65572
  20
0.93950
  30
0.00000
  70
32
  0
VERTEX
  5
853
  100
AcDbEntity
  8
Layer 1
  62
0
  100
AcDb2dVertex
  10
0.65500
  20
0.94500
  30
0.00000
  42
0.0362
  70
32
  0
VERTEX
  5
854
  100
AcDbEntity
  8
Layer 1
  62
0
  100
AcDb2dVertex
  10
0.63700
  20
0.97600
  30
0.00000
  42
-0.0728
  70
32
  0
VERTEX
  5
855
  100
AcDbEntity
  8
Layer 1
  62
0
  100
AcDb2dVertex
  10
0.62771
  20
0.99827
  30
0.00000
  42
-0.0506
  70
32
  0
VERTEX
  5
856
  100
AcDbEntity
  8
Layer 1
  62
0
  100
AcDb2dVertex
  10
0.62700
  20
1.00500
  30
0.00000
  42
-0.1786
  70
32
  0
VERTEX
  5
857
  100
AcDbEntity
  8
Layer 1
  62
0
  100
AcDb2dVertex
  10
0.63629
  20
1.03330
  30
0.00000
  42
-0.1351
  70
32
  0
VERTEX
  5
858
  100
AcDbEntity
  8
Layer 1
  62
0
  100
AcDb2dVertex
  10
0.66021
  20
1.04903
  30
0.00000
  42
-0.0260
  70
32
  0
VERTEX
  5
859
  100
AcDbEntity
  8
Layer 1
  62
0
  100
AcDb2dVertex
  10
0.67000
  20
1.05200
  30
0.00000
  42
0.0063
  70
32
  0
VERTEX
  5
85A
  100
AcDbEntity
  8
Layer 1
  62
0
  100
AcDb2dVertex
  10
0.70776
  20
1.05736
  30
0.00000
  70
32
  0
VERTEX
  5
85B
  100
AcDbEntity
  8
Layer 1
  62
0
  100
AcDb2dVertex
  10
0.74000
  20
1.06200
  30
0.00000
  70
32
  0
VERTEX
  5
85C
  100
AcDbEntity
  8
Layer 1
  62
0
  100
AcDb2dVertex
  10
0.87600
  20
1.10200
  30
0.00000
  42
-0.2688
  70
32
  0
VERTEX
  5
85D
  100
AcDbEntity
  8
Layer 1
  62
0
  100
AcDb2dVertex
  10
0.90175
  20
1.08777
  30
0.00000
  42
-0.1005
  70
32
  0
VERTEX
  5
85E
  100
AcDbEntity
  8
Layer 1
  62
0
  100
AcDb2dVertex
  10
0.91144
  20
1.06058
  30
0.00000
  42
-0.0435
  70
32
  0
VERTEX
  5
85F
  100
AcDbEntity
  8
Layer 1
  62
0
  100
AcDb2dVertex
  10
0.91400
  20
1.02700
  30
0.00000
  70
32
  0
VERTEX
  5
860
  100
AcDbEntity
  8
Layer 1
  62
0
  100
AcDb2dVertex
  10
0.91600
  20
1.01700
  30
0.00000
  70
32
  0
VERTEX
  5
861
  100
AcDbEntity
  8
Layer 1
  62
0
  100
AcDb2dVertex
  10
0.91600
  20
1.00200
  30
0.00000
  70
32
  0
SEQEND
  5
862
  100
AcDbEntity
  8
Layer 1
  62
0
  0
POLYLINE
  5
863
  100
AcDbEntity
  8
Layer 1
  62
0
  100
AcDb2dPolyline
 66
     1
  10
0
  20
0
  30
0
  70
1
  0
VERTEX
  5
864
  100
AcDbEntity
  8
Layer 1
  62
0
  100
AcDb2dVertex
  10
1.59400
  20
0.31500
  30
0.00000
  42
-0.2722
  70
32
  0
VERTEX
  5
865
  100
AcDbEntity
  8
Layer 1
  62
0
  100
AcDb2dVertex
  10
1.58468
  20
0.29188
  30
0.00000
  42
-0.0998
  70
32
  0
VERTEX
  5
866
  100
AcDbEntity
  8
Layer 1
  62
0
  100
AcDb2dVertex
  10
1.56096
  20
0.28005
  30
0.00000
  42
-0.0533
  70
32
  0
VERTEX
  5
867
  100
AcDbEntity
  8
Layer 1
  62
0
  100
AcDb2dVertex
  10
1.51171
  20
0.27171
  30
0.00000
  42
-0.0200
  70
32
  0
VERTEX
  5
868
  100
AcDbEntity
  8
Layer 1
  62
0
  100
AcDb2dVertex
  10
1.46400
  20
0.27000
  30
0.00000
  42
-0.0457
  70
32
  0
VERTEX
  5
869
  100
AcDbEntity
  8
Layer 1
  62
0
  100
AcDb2dVertex
  10
1.38931
  20
0.27808
  30
0.00000
  42
-0.0188
  70
32
  0
VERTEX
  5
86A
  100
AcDbEntity
  8
Layer 1
  62
0
  100
AcDb2dVertex
  10
1.32900
  20
0.29200
  30
0.00000
  42
-0.0404
  70
32
  0
VERTEX
  5
86B
  100
AcDbEntity
  8
Layer 1
  62
0
  100
AcDb2dVertex
  10
1.26527
  20
0.31298
  30
0.00000
  42
-0.0734
  70
32
  0
VERTEX
  5
86C
  100
AcDbEntity
  8
Layer 1
  62
0
  100
AcDb2dVertex
  10
1.23591
  20
0.33046
  30
0.00000
  42
-0.1480
  70
32
  0
VERTEX
  5
86D
  100
AcDbEntity
  8
Layer 1
  62
0
  100
AcDb2dVertex
  10
1.22473
  20
0.34653
  30
0.00000
  42
-0.0663
  70
32
  0
VERTEX
  5
86E
  100
AcDbEntity
  8
Layer 1
  62
0
  100
AcDb2dVertex
  10
1.22400
  20
0.35200
  30
0.00000
  42
-0.1952
  70
32
  0
VERTEX
  5
86F
  100
AcDbEntity
  8
Layer 1
  62
0
  100
AcDb2dVertex
  10
1.22831
  20
0.36012
  30
0.00000
  42
-0.0619
  70
32
  0
VERTEX
  5
870
  100
AcDbEntity
  8
Layer 1
  62
0
  100
AcDb2dVertex
  10
1.24779
  20
0.37383
  30
0.00000
  70
32
  0
VERTEX
  5
871
  100
AcDbEntity
  8
Layer 1
  62
0
  100
AcDb2dVertex
  10
1.25700
  20
0.37900
  30
0.00000
  42
-0.0436
  70
32
  0
VERTEX
  5
872
  100
AcDbEntity
  8
Layer 1
  62
0
  100
AcDb2dVertex
  10
1.29344
  20
0.39360
  30
0.00000
  42
-0.0612
  70
32
  0
VERTEX
  5
873
  100
AcDbEntity
  8
Layer 1
  62
0
  100
AcDb2dVertex
  10
1.30200
  20
0.39500
  30
0.00000
  42
-0.0987
  70
32
  0
VERTEX
  5
874
  100
AcDbEntity
  8
Layer 1
  62
0
  100
AcDb2dVertex
  10
1.32177
  20
0.38997
  30
0.00000
  70
32
  0
VERTEX
  5
875
  100
AcDbEntity
  8
Layer 1
  62
0
  100
AcDb2dVertex
  10
1.32400
  20
0.38900
  30
0.00000
  42
0.1093
  70
32
  0
VERTEX
  5
876
  100
AcDbEntity
  8
Layer 1
  62
0
  100
AcDb2dVertex
  10
1.34600
  20
0.38400
  30
0.00000
  42
0.2897
  70
32
  0
VERTEX
  5
877
  100
AcDbEntity
  8
Layer 1
  62
0
  100
AcDb2dVertex
  10
1.36232
  20
0.39366
  30
0.00000
  42
0.0531
  70
32
  0
VERTEX
  5
878
  100
AcDbEntity
  8
Layer 1
  62
0
  100
AcDb2dVertex
  10
1.36600
  20
0.40200
  30
0.00000
  42
-0.2140
  70
32
  0
VERTEX
  5
879
  100
AcDbEntity
  8
Layer 1
  62
0
  100
AcDb2dVertex
  10
1.37657
  20
0.41711
  30
0.00000
  42
-0.1284
  70
32
  0
VERTEX
  5
87A
  100
AcDbEntity
  8
Layer 1
  62
0
  100
AcDb2dVertex
  10
1.38900
  20
0.42000
  30
0.00000
  42
-0.0189
  70
32
  0
VERTEX
  5
87B
  100
AcDbEntity
  8
Layer 1
  62
0
  100
AcDb2dVertex
  10
1.42200
  20
0.41900
  30
0.00000
  70
32
  0
VERTEX
  5
87C
  100
AcDbEntity
  8
Layer 1
  62
0
  100
AcDb2dVertex
  10
1.42400
  20
0.38700
  30
0.00000
  70
32
  0
VERTEX
  5
87D
  100
AcDbEntity
  8
Layer 1
  62
0
  100
AcDb2dVertex
  10
1.42200
  20
0.41900
  30
0.00000
  70
32
  0
VERTEX
  5
87E
  100
AcDbEntity
  8
Layer 1
  62
0
  100
AcDb2dVertex
  10
1.43400
  20
0.41900
  30
0.00000
  42
-0.2521
  70
32
  0
VERTEX
  5
87F
  100
AcDbEntity
  8
Layer 1
  62
0
  100
AcDb2dVertex
  10
1.48616
  20
0.39508
  30
0.00000
  70
32
  0
VERTEX
  5
880
  100
AcDbEntity
  8
Layer 1
  62
0
  100
AcDb2dVertex
  10
1.48700
  20
0.39400
  30
0.00000
  42
0.0672
  70
32
  0
VERTEX
  5
881
  100
AcDbEntity
  8
Layer 1
  62
0
  100
AcDb2dVertex
  10
1.50741
  20
0.37269
  30
0.00000
  42
0.1598
  70
32
  0
VERTEX
  5
882
  100
AcDbEntity
  8
Layer 1
  62
0
  100
AcDb2dVertex
  10
1.52200
  20
0.36700
  30
0.00000
  42
0.0597
  70
32
  0
VERTEX
  5
883
  100
AcDbEntity
  8
Layer 1
  62
0
  100
AcDb2dVertex
  10
1.54259
  20
0.37081
  30
0.00000
  70
32
  0
VERTEX
  5
884
  100
AcDbEntity
  8
Layer 1
  62
0
  100
AcDb2dVertex
  10
1.54700
  20
0.37200
  30
0.00000
  42
-0.0503
  70
32
  0
VERTEX
  5
885
  100
AcDbEntity
  8
Layer 1
  62
0
  100
AcDb2dVertex
  10
1.56849
  20
0.37699
  30
0.00000
  70
32
  0
VERTEX
  5
886
  100
AcDbEntity
  8
Layer 1
  62
0
  100
AcDb2dVertex
  10
1.56900
  20
0.37700
  30
0.00000
  42
-0.1618
  70
32
  0
VERTEX
  5
887
  100
AcDbEntity
  8
Layer 1
  62
0
  100
AcDb2dVertex
  10
1.58454
  20
0.37284
  30
0.00000
  42
-0.2128
  70
32
  0
VERTEX
  5
888
  100
AcDbEntity
  8
Layer 1
  62
0
  100
AcDb2dVertex
  10
1.59173
  20
0.35878
  30
0.00000
  70
32
  0
VERTEX
  5
889
  100
AcDbEntity
  8
Layer 1
  62
0
  100
AcDb2dVertex
  10
1.59200
  20
0.35400
  30
0.00000
  70
32
  0
VERTEX
  5
88A
  100
AcDbEntity
  8
Layer 1
  62
0
  100
AcDb2dVertex
  10
1.59200
  20
0.33200
  30
0.00000
  70
32
  0
VERTEX
  5
88B
  100
AcDbEntity
  8
Layer 1
  62
0
  100
AcDb2dVertex
  10
1.47600
  20
0.33900
  30
0.00000
  70
32
  0
VERTEX
  5
88C
  100
AcDbEntity
  8
Layer 1
  62
0
  100
AcDb2dVertex
  10
1.59200
  20
0.33200
  30
0.00000
  70
32
  0
VERTEX
  5
88D
  100
AcDbEntity
  8
Layer 1
  62
0
  100
AcDb2dVertex
  10
1.59400
  20
0.31500
  30
0.00000
  70
32
  0
SEQEND
  5
88E
  100
AcDbEntity
  8
Layer 1
  62
0
  0
POLYLINE
  5
88F
  100
AcDbEntity
  8
Layer 1
  62
0
  100
AcDb2dPolyline
 66
     1
  10
0
  20
0
  30
0
  70
1
  0
VERTEX
  5
890
  100
AcDbEntity
  8
Layer 1
  62
0
  100
AcDb2dVertex
  10
0.31700
  20
1.59600
  30
0.00000
  42
-0.2008
  70
32
  0
VERTEX
  5
891
  100
AcDbEntity
  8
Layer 1
  62
0
  100
AcDb2dVertex
  10
0.30788
  20
1.57227
  30
0.00000
  42
-0.0902
  70
32
  0
VERTEX
  5
892
  100
AcDbEntity
  8
Layer 1
  62
0
  100
AcDb2dVertex
  10
0.28278
  20
1.55383
  30
0.00000
  42
-0.0371
  70
32
  0
VERTEX
  5
893
  100
AcDbEntity
  8
Layer 1
  62
0
  100
AcDb2dVertex
  10
0.25000
  20
1.54000
  30
0.00000
  42
0.0855
  70
32
  0
VERTEX
  5
894
  100
AcDbEntity
  8
Layer 1
  62
0
  100
AcDb2dVertex
  10
0.20888
  20
1.51909
  30
0.00000
  42
0.1565
  70
32
  0
VERTEX
  5
895
  100
AcDbEntity
  8
Layer 1
  62
0
  100
AcDb2dVertex
  10
0.18481
  20
1.48550
  30
0.00000
  42
0.0745
  70
32
  0
VERTEX
  5
896
  100
AcDbEntity
  8
Layer 1
  62
0
  100
AcDb2dVertex
  10
0.18200
  20
1.46600
  30
0.00000
  42
0.1512
  70
32
  0
VERTEX
  5
897
  100
AcDbEntity
  8
Layer 1
  62
0
  100
AcDb2dVertex
  10
0.18921
  20
1.43918
  30
0.00000
  42
0.1512
  70
32
  0
VERTEX
  5
898
  100
AcDbEntity
  8
Layer 1
  62
0
  100
AcDb2dVertex
  10
0.21135
  20
1.42227
  30
0.00000
  70
32
  0
VERTEX
  5
899
  100
AcDbEntity
  8
Layer 1
  62
0
  100
AcDb2dVertex
  10
0.21200
  20
1.42200
  30
0.00000
  70
32
  0
VERTEX
  5
89A
  100
AcDbEntity
  8
Layer 1
  62
0
  100
AcDb2dVertex
  10
0.23450
  20
1.41288
  30
0.00000
  70
32
  0
VERTEX
  5
89B
  100
AcDbEntity
  8
Layer 1
  62
0
  100
AcDb2dVertex
  10
0.24013
  20
1.41033
  30
0.00000
  42
-0.1573
  70
32
  0
VERTEX
  5
89C
  100
AcDbEntity
  8
Layer 1
  62
0
  100
AcDb2dVertex
  10
0.24200
  20
1.40900
  30
0.00000
  42
-0.3002
  70
32
  0
VERTEX
  5
89D
  100
AcDbEntity
  8
Layer 1
  62
0
  100
AcDb2dVertex
  10
0.23493
  20
1.39833
  30
0.00000
  42
-0.1029
  70
32
  0
VERTEX
  5
89E
  100
AcDbEntity
  8
Layer 1
  62
0
  100
AcDb2dVertex
  10
0.21599
  20
1.39419
  30
0.00000
  70
32
  0
VERTEX
  5
89F
  100
AcDbEntity
  8
Layer 1
  62
0
  100
AcDb2dVertex
  10
0.20900
  20
1.39400
  30
0.00000
  42
-0.1068
  70
32
  0
VERTEX
  5
8A0
  100
AcDbEntity
  8
Layer 1
  62
0
  100
AcDb2dVertex
  10
0.16824
  20
1.40353
  30
0.00000
  70
32
  0
VERTEX
  5
8A1
  100
AcDbEntity
  8
Layer 1
  62
0
  100
AcDb2dVertex
  10
0.16500
  20
1.40500
  30
0.00000
  42
0.0511
  70
32
  0
VERTEX
  5
8A2
  100
AcDbEntity
  8
Layer 1
  62
0
  100
AcDb2dVertex
  10
0.13973
  20
1.41624
  30
0.00000
  42
0.0634
  70
32
  0
VERTEX
  5
8A3
  100
AcDbEntity
  8
Layer 1
  62
0
  100
AcDb2dVertex
  10
0.13500
  20
1.41700
  30
0.00000
  42
0.1410
  70
32
  0
VERTEX
  5
8A4
  100
AcDbEntity
  8
Layer 1
  62
0
  100
AcDb2dVertex
  10
0.12045
  20
1.41155
  30
0.00000
  42
0.0366
  70
32
  0
VERTEX
  5
8A5
  100
AcDbEntity
  8
Layer 1
  62
0
  100
AcDb2dVertex
  10
0.11200
  20
1.40500
  30
0.00000
  42
-0.0986
  70
32
  0
VERTEX
  5
8A6
  100
AcDbEntity
  8
Layer 1
  62
0
  100
AcDb2dVertex
  10
0.09325
  20
1.39457
  30
0.00000
  42
-0.0614
  70
32
  0
VERTEX
  5
8A7
  100
AcDbEntity
  8
Layer 1
  62
0
  100
AcDb2dVertex
  10
0.08900
  20
1.39400
  30
0.00000
  42
-0.0822
  70
32
  0
VERTEX
  5
8A8
  100
AcDbEntity
  8
Layer 1
  62
0
  100
AcDb2dVertex
  10
0.07076
  20
1.39834
  30
0.00000
  70
32
  0
VERTEX
  5
8A9
  100
AcDbEntity
  8
Layer 1
  62
0
  100
AcDb2dVertex
  10
0.06400
  20
1.40100
  30
0.00000
  42
0.0720
  70
32
  0
VERTEX
  5
8AA
  100
AcDbEntity
  8
Layer 1
  62
0
  100
AcDb2dVertex
  10
0.03398
  20
1.40885
  30
0.00000
  70
32
  0
VERTEX
  5
8AB
  100
AcDbEntity
  8
Layer 1
  62
0
  100
AcDb2dVertex
  10
0.03000
  20
1.40900
  30
0.00000
  42
-0.1738
  70
32
  0
VERTEX
  5
8AC
  100
AcDbEntity
  8
Layer 1
  62
0
  100
AcDb2dVertex
  10
0.01514
  20
1.41331
  30
0.00000
  42
-0.2156
  70
32
  0
VERTEX
  5
8AD
  100
AcDbEntity
  8
Layer 1
  62
0
  100
AcDb2dVertex
  10
0.00897
  20
1.42719
  30
0.00000
  70
32
  0
VERTEX
  5
8AE
  100
AcDbEntity
  8
Layer 1
  62
0
  100
AcDb2dVertex
  10
0.00900
  20
1.43200
  30
0.00000
  70
32
  0
VERTEX
  5
8AF
  100
AcDbEntity
  8
Layer 1
  62
0
  100
AcDb2dVertex
  10
0.00900
  20
1.44100
  30
0.00000
  70
32
  0
VERTEX
  5
8B0
  100
AcDbEntity
  8
Layer 1
  62
0
  100
AcDb2dVertex
  10
0.01713
  20
1.46025
  30
0.00000
  42
0.0561
  70
32
  0
VERTEX
  5
8B1
  100
AcDbEntity
  8
Layer 1
  62
0
  100
AcDb2dVertex
  10
0.02000
  20
1.46900
  30
0.00000
  42
0.1398
  70
32
  0
VERTEX
  5
8B2
  100
AcDbEntity
  8
Layer 1
  62
0
  100
AcDb2dVertex
  10
0.01538
  20
1.48032
  30
0.00000
  42
0.0282
  70
32
  0
VERTEX
  5
8B3
  100
AcDbEntity
  8
Layer 1
  62
0
  100
AcDb2dVertex
  10
0.01100
  20
1.48600
  30
0.00000
  42
-0.1506
  70
32
  0
VERTEX
  5
8B4
  100
AcDbEntity
  8
Layer 1
  62
0
  100
AcDb2dVertex
  10
0.00210
  20
1.50411
  30
0.00000
  70
32
  0
VERTEX
  5
8B5
  100
AcDbEntity
  8
Layer 1
  62
0
  100
AcDb2dVertex
  10
0.00200
  20
1.50600
  30
0.00000
  70
32
  0
VERTEX
  5
8B6
  100
AcDbEntity
  8
Layer 1
  62
0
  100
AcDb2dVertex
  10
0.01500
  20
1.52100
  30
0.00000
  42
0.0758
  70
32
  0
VERTEX
  5
8B7
  100
AcDbEntity
  8
Layer 1
  62
0
  100
AcDb2dVertex
  10
0.06200
  20
1.51400
  30
0.00000
  42
0.1043
  70
32
  0
VERTEX
  5
8B8
  100
AcDbEntity
  8
Layer 1
  62
0
  100
AcDb2dVertex
  10
0.08761
  20
1.51840
  30
0.00000
  42
0.2667
  70
32
  0
VERTEX
  5
8B9
  100
AcDbEntity
  8
Layer 1
  62
0
  100
AcDb2dVertex
  10
0.10430
  20
1.54039
  30
0.00000
  42
0.0432
  70
32
  0
VERTEX
  5
8BA
  100
AcDbEntity
  8
Layer 1
  62
0
  100
AcDb2dVertex
  10
0.10500
  20
1.54900
  30
0.00000
  42
0.3504
  70
32
  0
VERTEX
  5
8BB
  100
AcDbEntity
  8
Layer 1
  62
0
  100
AcDb2dVertex
  10
0.09545
  20
1.56230
  30
0.00000
  42
0.0658
  70
32
  0
VERTEX
  5
8BC
  100
AcDbEntity
  8
Layer 1
  62
0
  100
AcDb2dVertex
  10
0.08700
  20
1.56400
  30
0.00000
  42
-0.1262
  70
32
  0
VERTEX
  5
8BD
  100
AcDbEntity
  8
Layer 1
  62
0
  100
AcDb2dVertex
  10
0.09095
  20
1.56322
  30
0.00000
  42
-0.1001
  70
32
  0
VERTEX
  5
8BE
  100
AcDbEntity
  8
Layer 1
  62
0
  100
AcDb2dVertex
  10
0.08580
  20
1.56249
  30
0.00000
  42
-0.0132
  70
32
  0
VERTEX
  5
8BF
  100
AcDbEntity
  8
Layer 1
  62
0
  100
AcDb2dVertex
  10
0.06000
  20
1.56200
  30
0.00000
  42
-0.2059
  70
32
  0
VERTEX
  5
8C0
  100
AcDbEntity
  8
Layer 1
  62
0
  100
AcDb2dVertex
  10
0.04843
  20
1.56594
  30
0.00000
  42
-0.1982
  70
32
  0
VERTEX
  5
8C1
  100
AcDbEntity
  8
Layer 1
  62
0
  100
AcDb2dVertex
  10
0.04500
  20
1.57600
  30
0.00000
  42
-0.0901
  70
32
  0
VERTEX
  5
8C2
  100
AcDbEntity
  8
Layer 1
  62
0
  100
AcDb2dVertex
  10
0.07925
  20
1.61858
  30
0.00000
  42
-0.1810
  70
32
  0
VERTEX
  5
8C3
  100
AcDbEntity
  8
Layer 1
  62
0
  100
AcDb2dVertex
  10
0.14400
  20
1.64200
  30
0.00000
  42
-0.0354
  70
32
  0
VERTEX
  5
8C4
  100
AcDbEntity
  8
Layer 1
  62
0
  100
AcDb2dVertex
  10
0.17000
  20
1.63900
  30
0.00000
  70
32
  0
VERTEX
  5
8C5
  100
AcDbEntity
  8
Layer 1
  62
0
  100
AcDb2dVertex
  10
0.17799
  20
1.63771
  30
0.00000
  70
32
  0
VERTEX
  5
8C6
  100
AcDbEntity
  8
Layer 1
  62
0
  100
AcDb2dVertex
  10
0.18932
  20
1.63602
  30
0.00000
  42
0.0725
  70
32
  0
VERTEX
  5
8C7
  100
AcDbEntity
  8
Layer 1
  62
0
  100
AcDb2dVertex
  10
0.19700
  20
1.63600
  30
0.00000
  42
0.0891
  70
32
  0
VERTEX
  5
8C8
  100
AcDbEntity
  8
Layer 1
  62
0
  100
AcDb2dVertex
  10
0.23698
  20
1.64192
  30
0.00000
  42
0.0238
  70
32
  0
VERTEX
  5
8C9
  100
AcDbEntity
  8
Layer 1
  62
0
  100
AcDb2dVertex
  10
0.25900
  20
1.65000
  30
0.00000
  70
32
  0
VERTEX
  5
8CA
  100
AcDbEntity
  8
Layer 1
  62
0
  100
AcDb2dVertex
  10
0.28002
  20
1.65830
  30
0.00000
  42
-0.0216
  70
32
  0
VERTEX
  5
8CB
  100
AcDbEntity
  8
Layer 1
  62
0
  100
AcDb2dVertex
  10
0.29500
  20
1.66400
  30
0.00000
  42
-0.2141
  70
32
  0
VERTEX
  5
8CC
  100
AcDbEntity
  8
Layer 1
  62
0
  100
AcDb2dVertex
  10
0.30865
  20
1.65896
  30
0.00000
  42
-0.1711
  70
32
  0
VERTEX
  5
8CD
  100
AcDbEntity
  8
Layer 1
  62
0
  100
AcDb2dVertex
  10
0.31386
  20
1.64476
  30
0.00000
  70
32
  0
VERTEX
  5
8CE
  100
AcDbEntity
  8
Layer 1
  62
0
  100
AcDb2dVertex
  10
0.31400
  20
1.64100
  30
0.00000
  70
32
  0
VERTEX
  5
8CF
  100
AcDbEntity
  8
Layer 1
  62
0
  100
AcDb2dVertex
  10
0.31500
  20
1.61700
  30
0.00000
  70
32
  0
VERTEX
  5
8D0
  100
AcDbEntity
  8
Layer 1
  62
0
  100
AcDb2dVertex
  10
0.20000
  20
1.60100
  30
0.00000
  70
32
  0
VERTEX
  5
8D1
  100
AcDbEntity
  8
Layer 1
  62
0
  100
AcDb2dVertex
  10
0.31500
  20
1.61700
  30
0.00000
  70
32
  0
VERTEX
  5
8D2
  100
AcDbEntity
  8
Layer 1
  62
0
  100
AcDb2dVertex
  10
0.31700
  20
1.59600
  30
0.00000
  70
32
  0
SEQEND
  5
8D3
  100
AcDbEntity
  8
Layer 1
  62
0
  0
POLYLINE
  5
8D4
  100
AcDbEntity
  8
Layer 1
  62
0
  100
AcDb2dPolyline
 66
     1
  10
0
  20
0
  30
0
  70
1
  0
VERTEX
  5
8D5
  100
AcDbEntity
  8
Layer 1
  62
0
  100
AcDb2dVertex
  10
0.65900
  20
1.15900
  30
0.00000
  42
-0.0111
  70
32
  0
VERTEX
  5
8D6
  100
AcDbEntity
  8
Layer 1
  62
0
  100
AcDb2dVertex
  10
0.61400
  20
1.07700
  30
0.00000
  70
32
  0
VERTEX
  5
8D7
  100
AcDbEntity
  8
Layer 1
  62
0
  100
AcDb2dVertex
  10
0.61200
  20
0.98400
  30
0.00000
  42
-0.1755
  70
32
  0
VERTEX
  5
8D8
  100
AcDbEntity
  8
Layer 1
  62
0
  100
AcDb2dVertex
  10
0.60883
  20
0.97255
  30
0.00000
  42
-0.2295
  70
32
  0
VERTEX
  5
8D9
  100
AcDbEntity
  8
Layer 1
  62
0
  100
AcDb2dVertex
  10
0.60000
  20
0.96900
  30
0.00000
  42
-0.0576
  70
32
  0
VERTEX
  5
8DA
  100
AcDbEntity
  8
Layer 1
  62
0
  100
AcDb2dVertex
  10
0.56577
  20
0.97408
  30
0.00000
  70
32
  0
VERTEX
  5
8DB
  100
AcDbEntity
  8
Layer 1
  62
0
  100
AcDb2dVertex
  10
0.56200
  20
0.97500
  30
0.00000
  42
-0.0675
  70
32
  0
VERTEX
  5
8DC
  100
AcDbEntity
  8
Layer 1
  62
0
  100
AcDb2dVertex
  10
0.53887
  20
0.98453
  30
0.00000
  42
-0.1839
  70
32
  0
VERTEX
  5
8DD
  100
AcDbEntity
  8
Layer 1
  62
0
  100
AcDb2dVertex
  10
0.53224
  20
0.99216
  30
0.00000
  70
32
  0
VERTEX
  5
8DE
  100
AcDbEntity
  8
Layer 1
  62
0
  100
AcDb2dVertex
  10
0.53200
  20
0.99400
  30
0.00000
  70
32
  0
VERTEX
  5
8DF
  100
AcDbEntity
  8
Layer 1
  62
0
  100
AcDb2dVertex
  10
0.53656
  20
1.00137
  30
0.00000
  42
0.0083
  70
32
  0
VERTEX
  5
8E0
  100
AcDbEntity
  8
Layer 1
  62
0
  100
AcDb2dVertex
  10
0.56700
  20
1.05200
  30
0.00000
  42
0.2276
  70
32
  0
VERTEX
  5
8E1
  100
AcDbEntity
  8
Layer 1
  62
0
  100
AcDb2dVertex
  10
0.56408
  20
1.05531
  30
0.00000
  42
0.0668
  70
32
  0
VERTEX
  5
8E2
  100
AcDbEntity
  8
Layer 1
  62
0
  100
AcDb2dVertex
  10
0.54425
  20
1.06288
  30
0.00000
  70
32
  0
VERTEX
  5
8E3
  100
AcDbEntity
  8
Layer 1
  62
0
  100
AcDb2dVertex
  10
0.53600
  20
1.06500
  30
0.00000
  42
-0.1113
  70
32
  0
VERTEX
  5
8E4
  100
AcDbEntity
  8
Layer 1
  62
0
  100
AcDb2dVertex
  10
0.51344
  20
1.07659
  30
0.00000
  42
-0.2189
  70
32
  0
VERTEX
  5
8E5
  100
AcDbEntity
  8
Layer 1
  62
0
  100
AcDb2dVertex
  10
0.50500
  20
1.09500
  30
0.00000
  42
-0.2733
  70
32
  0
VERTEX
  5
8E6
  100
AcDbEntity
  8
Layer 1
  62
0
  100
AcDb2dVertex
  10
0.51322
  20
1.10885
  30
0.00000
  42
-0.1007
  70
32
  0
VERTEX
  5
8E7
  100
AcDbEntity
  8
Layer 1
  62
0
  100
AcDb2dVertex
  10
0.53394
  20
1.11553
  30
0.00000
  42
-0.0472
  70
32
  0
VERTEX
  5
8E8
  100
AcDbEntity
  8
Layer 1
  62
0
  100
AcDb2dVertex
  10
0.57700
  20
1.11700
  30
0.00000
  42
0.3850
  70
32
  0
VERTEX
  5
8E9
  100
AcDbEntity
  8
Layer 1
  62
0
  100
AcDb2dVertex
  10
0.58840
  20
1.12342
  30
0.00000
  70
32
  0
VERTEX
  5
8EA
  100
AcDbEntity
  8
Layer 1
  62
0
  100
AcDb2dVertex
  10
0.58900
  20
1.12500
  30
0.00000
  70
32
  0
VERTEX
  5
8EB
  100
AcDbEntity
  8
Layer 1
  62
0
  100
AcDb2dVertex
  10
0.58400
  20
1.17000
  30
0.00000
  42
-0.2805
  70
32
  0
VERTEX
  5
8EC
  100
AcDbEntity
  8
Layer 1
  62
0
  100
AcDb2dVertex
  10
0.58633
  20
1.17779
  30
0.00000
  42
-0.1660
  70
32
  0
VERTEX
  5
8ED
  100
AcDbEntity
  8
Layer 1
  62
0
  100
AcDb2dVertex
  10
0.59500
  20
1.18000
  30
0.00000
  42
-0.0556
  70
32
  0
VERTEX
  5
8EE
  100
AcDbEntity
  8
Layer 1
  62
0
  100
AcDb2dVertex
  10
0.62241
  20
1.17553
  30
0.00000
  70
32
  0
VERTEX
  5
8EF
  100
AcDbEntity
  8
Layer 1
  62
0
  100
AcDb2dVertex
  10
0.63200
  20
1.17300
  30
0.00000
  42
-0.0660
  70
32
  0
VERTEX
  5
8F0
  100
AcDbEntity
  8
Layer 1
  62
0
  100
AcDb2dVertex
  10
0.65441
  20
1.16438
  30
0.00000
  42
-0.1944
  70
32
  0
VERTEX
  5
8F1
  100
AcDbEntity
  8
Layer 1
  62
0
  100
AcDb2dVertex
  10
0.65895
  20
1.15952
  30
0.00000
  70
32
  0
VERTEX
  5
8F2
  100
AcDbEntity
  8
Layer 1
  62
0
  100
AcDb2dVertex
  10
0.65900
  20
1.15900
  30
0.00000
  70
32
  0
SEQEND
  5
8F3
  100
AcDbEntity
  8
Layer 1
  62
0
  0
POLYLINE
  5
8F4
  100
AcDbEntity
  8
Layer 1
  62
0
  100
AcDb2dPolyline
 66
     1
  10
0
  20
0
  30
0
  70
1
  0
VERTEX
  5
8F5
  100
AcDbEntity
  8
Layer 1
  62
0
  100
AcDb2dVertex
  10
0.92100
  20
1.26400
  30
0.00000
  42
-0.2784
  70
32
  0
VERTEX
  5
8F6
  100
AcDbEntity
  8
Layer 1
  62
0
  100
AcDb2dVertex
  10
0.90944
  20
1.24397
  30
0.00000
  42
-0.0972
  70
32
  0
VERTEX
  5
8F7
  100
AcDbEntity
  8
Layer 1
  62
0
  100
AcDb2dVertex
  10
0.88532
  20
1.23609
  30
0.00000
  70
32
  0
VERTEX
  5
8F8
  100
AcDbEntity
  8
Layer 1
  62
0
  100
AcDb2dVertex
  10
0.87700
  20
1.23500
  30
0.00000
  42
0.2250
  70
32
  0
VERTEX
  5
8F9
  100
AcDbEntity
  8
Layer 1
  62
0
  100
AcDb2dVertex
  10
0.83055
  20
1.21014
  30
0.00000
  42
0.0948
  70
32
  0
VERTEX
  5
8FA
  100
AcDbEntity
  8
Layer 1
  62
0
  100
AcDb2dVertex
  10
0.81196
  20
1.17136
  30
0.00000
  70
32
  0
VERTEX
  5
8FB
  100
AcDbEntity
  8
Layer 1
  62
0
  100
AcDb2dVertex
  10
0.81000
  20
1.16400
  30
0.00000
  42
-0.0548
  70
32
  0
VERTEX
  5
8FC
  100
AcDbEntity
  8
Layer 1
  62
0
  100
AcDb2dVertex
  10
0.79374
  20
1.11867
  30
0.00000
  42
-0.1039
  70
32
  0
VERTEX
  5
8FD
  100
AcDbEntity
  8
Layer 1
  62
0
  100
AcDb2dVertex
  10
0.77803
  20
1.09802
  30
0.00000
  42
-0.1446
  70
32
  0
VERTEX
  5
8FE
  100
AcDbEntity
  8
Layer 1
  62
0
  100
AcDb2dVertex
  10
0.76400
  20
1.09200
  30
0.00000
  70
32
  0
VERTEX
  5
8FF
  100
AcDbEntity
  8
Layer 1
  62
0
  100
AcDb2dVertex
  10
0.72500
  20
1.08500
  30
0.00000
  70
32
  0
VERTEX
  5
900
  100
AcDbEntity
  8
Layer 1
  62
0
  100
AcDb2dVertex
  10
0.73500
  20
1.22400
  30
0.00000
  70
32
  0
VERTEX
  5
901
  100
AcDbEntity
  8
Layer 1
  62
0
  100
AcDb2dVertex
  10
0.72500
  20
1.08500
  30
0.00000
  70
32
  0
VERTEX
  5
902
  100
AcDbEntity
  8
Layer 1
  62
0
  100
AcDb2dVertex
  10
0.69900
  20
1.08400
  30
0.00000
  42
-0.1253
  70
32
  0
VERTEX
  5
903
  100
AcDbEntity
  8
Layer 1
  62
0
  100
AcDb2dVertex
  10
0.67751
  20
1.08549
  30
0.00000
  42
-0.3140
  70
32
  0
VERTEX
  5
904
  100
AcDbEntity
  8
Layer 1
  62
0
  100
AcDb2dVertex
  10
0.66506
  20
1.10307
  30
0.00000
  70
32
  0
VERTEX
  5
905
  100
AcDbEntity
  8
Layer 1
  62
0
  100
AcDb2dVertex
  10
0.66500
  20
1.10500
  30
0.00000
  42
0.0765
  70
32
  0
VERTEX
  5
906
  100
AcDbEntity
  8
Layer 1
  62
0
  100
AcDb2dVertex
  10
0.66762
  20
1.10956
  30
0.00000
  42
0.0052
  70
32
  0
VERTEX
  5
907
  100
AcDbEntity
  8
Layer 1
  62
0
  100
AcDb2dVertex
  10
0.68600
  20
1.14700
  30
0.00000
  42
0.0707
  70
32
  0
VERTEX
  5
908
  100
AcDbEntity
  8
Layer 1
  62
0
  100
AcDb2dVertex
  10
0.70527
  20
1.20409
  30
0.00000
  42
0.0411
  70
32
  0
VERTEX
  5
909
  100
AcDbEntity
  8
Layer 1
  62
0
  100
AcDb2dVertex
  10
0.70700
  20
1.22400
  30
0.00000
  42
0.1044
  70
32
  0
VERTEX
  5
90A
  100
AcDbEntity
  8
Layer 1
  62
0
  100
AcDb2dVertex
  10
0.70237
  20
1.25063
  30
0.00000
  42
0.2805
  70
32
  0
VERTEX
  5
90B
  100
AcDbEntity
  8
Layer 1
  62
0
  100
AcDb2dVertex
  10
0.67865
  20
1.26794
  30
0.00000
  42
0.0776
  70
32
  0
VERTEX
  5
90C
  100
AcDbEntity
  8
Layer 1
  62
0
  100
AcDb2dVertex
  10
0.66000
  20
1.26700
  30
0.00000
  70
32
  0
VERTEX
  5
90D
  100
AcDbEntity
  8
Layer 1
  62
0
  100
AcDb2dVertex
  10
0.66400
  20
1.29000
  30
0.00000
  70
32
  0
VERTEX
  5
90E
  100
AcDbEntity
  8
Layer 1
  62
0
  100
AcDb2dVertex
  10
0.66000
  20
1.26700
  30
0.00000
  70
32
  0
VERTEX
  5
90F
  100
AcDbEntity
  8
Layer 1
  62
0
  100
AcDb2dVertex
  10
0.61400
  20
1.24500
  30
0.00000
  70
32
  0
VERTEX
  5
910
  100
AcDbEntity
  8
Layer 1
  62
0
  100
AcDb2dVertex
  10
0.60700
  20
1.26900
  30
0.00000
  70
32
  0
VERTEX
  5
911
  100
AcDbEntity
  8
Layer 1
  62
0
  100
AcDb2dVertex
  10
0.61400
  20
1.24500
  30
0.00000
  70
32
  0
VERTEX
  5
912
  100
AcDbEntity
  8
Layer 1
  62
0
  100
AcDb2dVertex
  10
0.56900
  20
1.21500
  30
0.00000
  70
32
  0
VERTEX
  5
913
  100
AcDbEntity
  8
Layer 1
  62
0
  100
AcDb2dVertex
  10
0.55500
  20
1.23700
  30
0.00000
  70
32
  0
VERTEX
  5
914
  100
AcDbEntity
  8
Layer 1
  62
0
  100
AcDb2dVertex
  10
0.56900
  20
1.21500
  30
0.00000
  70
32
  0
VERTEX
  5
915
  100
AcDbEntity
  8
Layer 1
  62
0
  100
AcDb2dVertex
  10
0.52700
  20
1.17400
  30
0.00000
  70
32
  0
VERTEX
  5
916
  100
AcDbEntity
  8
Layer 1
  62
0
  100
AcDb2dVertex
  10
0.49200
  20
1.13000
  30
0.00000
  70
32
  0
VERTEX
  5
917
  100
AcDbEntity
  8
Layer 1
  62
0
  100
AcDb2dVertex
  10
0.47900
  20
1.15400
  30
0.00000
  70
32
  0
VERTEX
  5
918
  100
AcDbEntity
  8
Layer 1
  62
0
  100
AcDb2dVertex
  10
0.49200
  20
1.13000
  30
0.00000
  70
32
  0
VERTEX
  5
919
  100
AcDbEntity
  8
Layer 1
  62
0
  100
AcDb2dVertex
  10
0.45700
  20
1.09000
  30
0.00000
  70
32
  0
VERTEX
  5
91A
  100
AcDbEntity
  8
Layer 1
  62
0
  100
AcDb2dVertex
  10
0.44200
  20
1.11700
  30
0.00000
  70
32
  0
VERTEX
  5
91B
  100
AcDbEntity
  8
Layer 1
  62
0
  100
AcDb2dVertex
  10
0.45700
  20
1.09000
  30
0.00000
  70
32
  0
VERTEX
  5
91C
  100
AcDbEntity
  8
Layer 1
  62
0
  100
AcDb2dVertex
  10
0.44638
  20
1.08162
  30
0.00000
  70
32
  0
VERTEX
  5
91D
  100
AcDbEntity
  8
Layer 1
  62
0
  100
AcDb2dVertex
  10
0.41700
  20
1.05900
  30
0.00000
  70
32
  0
VERTEX
  5
91E
  100
AcDbEntity
  8
Layer 1
  62
0
  100
AcDb2dVertex
  10
0.40400
  20
1.08000
  30
0.00000
  70
32
  0
VERTEX
  5
91F
  100
AcDbEntity
  8
Layer 1
  62
0
  100
AcDb2dVertex
  10
0.41700
  20
1.05900
  30
0.00000
  70
32
  0
VERTEX
  5
920
  100
AcDbEntity
  8
Layer 1
  62
0
  100
AcDb2dVertex
  10
0.37200
  20
1.02700
  30
0.00000
  70
32
  0
VERTEX
  5
921
  100
AcDbEntity
  8
Layer 1
  62
0
  100
AcDb2dVertex
  10
0.36000
  20
1.05200
  30
0.00000
  70
32
  0
VERTEX
  5
922
  100
AcDbEntity
  8
Layer 1
  62
0
  100
AcDb2dVertex
  10
0.37200
  20
1.02700
  30
0.00000
  42
-0.0240
  70
32
  0
VERTEX
  5
923
  100
AcDbEntity
  8
Layer 1
  62
0
  100
AcDb2dVertex
  10
0.33015
  20
1.00458
  30
0.00000
  70
32
  0
VERTEX
  5
924
  100
AcDbEntity
  8
Layer 1
  62
0
  100
AcDb2dVertex
  10
0.32900
  20
1.00400
  30
0.00000
  70
32
  0
VERTEX
  5
925
  100
AcDbEntity
  8
Layer 1
  62
0
  100
AcDb2dVertex
  10
0.28000
  20
0.98200
  30
0.00000
  70
32
  0
VERTEX
  5
926
  100
AcDbEntity
  8
Layer 1
  62
0
  100
AcDb2dVertex
  10
0.26700
  20
1.01200
  30
0.00000
  70
32
  0
VERTEX
  5
927
  100
AcDbEntity
  8
Layer 1
  62
0
  100
AcDb2dVertex
  10
0.28000
  20
0.98200
  30
0.00000
  70
32
  0
VERTEX
  5
928
  100
AcDbEntity
  8
Layer 1
  62
0
  100
AcDb2dVertex
  10
0.25000
  20
0.97900
  30
0.00000
  70
32
  0
VERTEX
  5
929
  100
AcDbEntity
  8
Layer 1
  62
0
  100
AcDb2dVertex
  10
0.22400
  20
0.97700
  30
0.00000
  70
32
  0
VERTEX
  5
92A
  100
AcDbEntity
  8
Layer 1
  62
0
  100
AcDb2dVertex
  10
0.21500
  20
0.97400
  30
0.00000
  42
0.1030
  70
32
  0
VERTEX
  5
92B
  100
AcDbEntity
  8
Layer 1
  62
0
  100
AcDb2dVertex
  10
0.19900
  20
0.96900
  30
0.00000
  42
0.0947
  70
32
  0
VERTEX
  5
92C
  100
AcDbEntity
  8
Layer 1
  62
0
  100
AcDb2dVertex
  10
0.20375
  20
0.95098
  30
0.00000
  42
0.0308
  70
32
  0
VERTEX
  5
92D
  100
AcDbEntity
  8
Layer 1
  62
0
  100
AcDb2dVertex
  10
0.21500
  20
0.92900
  30
0.00000
  42
-0.3176
  70
32
  0
VERTEX
  5
92E
  100
AcDbEntity
  8
Layer 1
  62
0
  100
AcDb2dVertex
  10
0.20909
  20
0.91878
  30
0.00000
  42
-0.1085
  70
32
  0
VERTEX
  5
92F
  100
AcDbEntity
  8
Layer 1
  62
0
  100
AcDb2dVertex
  10
0.19900
  20
0.91700
  30
0.00000
  42
-0.1043
  70
32
  0
VERTEX
  5
930
  100
AcDbEntity
  8
Layer 1
  62
0
  100
AcDb2dVertex
  10
0.18143
  20
0.91979
  30
0.00000
  42
-0.3173
  70
32
  0
VERTEX
  5
931
  100
AcDbEntity
  8
Layer 1
  62
0
  100
AcDb2dVertex
  10
0.17500
  20
0.92900
  30
0.00000
  42
-0.0567
  70
32
  0
VERTEX
  5
932
  100
AcDbEntity
  8
Layer 1
  62
0
  100
AcDb2dVertex
  10
0.17743
  20
0.94099
  30
0.00000
  70
32
  0
VERTEX
  5
933
  100
AcDbEntity
  8
Layer 1
  62
0
  100
AcDb2dVertex
  10
0.17900
  20
0.94700
  30
0.00000
  42
0.0574
  70
32
  0
VERTEX
  5
934
  100
AcDbEntity
  8
Layer 1
  62
0
  100
AcDb2dVertex
  10
0.18200
  20
0.96400
  30
0.00000
  42
0.3451
  70
32
  0
VERTEX
  5
935
  100
AcDbEntity
  8
Layer 1
  62
0
  100
AcDb2dVertex
  10
0.17511
  20
0.97282
  30
0.00000
  42
0.0834
  70
32
  0
VERTEX
  5
936
  100
AcDbEntity
  8
Layer 1
  62
0
  100
AcDb2dVertex
  10
0.16700
  20
0.97400
  30
0.00000
  42
0.1506
  70
32
  0
VERTEX
  5
937
  100
AcDbEntity
  8
Layer 1
  62
0
  100
AcDb2dVertex
  10
0.15216
  20
0.97040
  30
0.00000
  42
0.2584
  70
32
  0
VERTEX
  5
938
  100
AcDbEntity
  8
Layer 1
  62
0
  100
AcDb2dVertex
  10
0.14700
  20
0.96000
  30
0.00000
  42
0.0950
  70
32
  0
VERTEX
  5
939
  100
AcDbEntity
  8
Layer 1
  62
0
  100
AcDb2dVertex
  10
0.15100
  20
0.94500
  30
0.00000
  42
-0.0806
  70
32
  0
VERTEX
  5
93A
  100
AcDbEntity
  8
Layer 1
  62
0
  100
AcDb2dVertex
  10
0.15500
  20
0.92912
  30
0.00000
  70
32
  0
VERTEX
  5
93B
  100
AcDbEntity
  8
Layer 1
  62
0
  100
AcDb2dVertex
  10
0.15500
  20
0.92900
  30
0.00000
  42
-0.3073
  70
32
  0
VERTEX
  5
93C
  100
AcDbEntity
  8
Layer 1
  62
0
  100
AcDb2dVertex
  10
0.14932
  20
0.91878
  30
0.00000
  42
-0.1149
  70
32
  0
VERTEX
  5
93D
  100
AcDbEntity
  8
Layer 1
  62
0
  100
AcDb2dVertex
  10
0.14000
  20
0.91700
  30
0.00000
  42
-0.1578
  70
32
  0
VERTEX
  5
93E
  100
AcDbEntity
  8
Layer 1
  62
0
  100
AcDb2dVertex
  10
0.12822
  20
0.91986
  30
0.00000
  42
-0.2468
  70
32
  0
VERTEX
  5
93F
  100
AcDbEntity
  8
Layer 1
  62
0
  100
AcDb2dVertex
  10
0.12400
  20
0.92975
  30
0.00000
  70
32
  0
VERTEX
  5
940
  100
AcDbEntity
  8
Layer 1
  62
0
  100
AcDb2dVertex
  10
0.12400
  20
0.93000
  30
0.00000
  42
-0.0950
  70
32
  0
VERTEX
  5
941
  100
AcDbEntity
  8
Layer 1
  62
0
  100
AcDb2dVertex
  10
0.12800
  20
0.94500
  30
0.00000
  42
0.0726
  70
32
  0
VERTEX
  5
942
  100
AcDbEntity
  8
Layer 1
  62
0
  100
AcDb2dVertex
  10
0.13200
  20
0.96000
  30
0.00000
  42
0.2075
  70
32
  0
VERTEX
  5
943
  100
AcDbEntity
  8
Layer 1
  62
0
  100
AcDb2dVertex
  10
0.12810
  20
0.97140
  30
0.00000
  42
0.1964
  70
32
  0
VERTEX
  5
944
  100
AcDbEntity
  8
Layer 1
  62
0
  100
AcDb2dVertex
  10
0.11700
  20
0.97500
  30
0.00000
  42
0.1325
  70
32
  0
VERTEX
  5
945
  100
AcDbEntity
  8
Layer 1
  62
0
  100
AcDb2dVertex
  10
0.10268
  20
0.97206
  30
0.00000
  42
0.0639
  70
32
  0
VERTEX
  5
946
  100
AcDbEntity
  8
Layer 1
  62
0
  100
AcDb2dVertex
  10
0.10000
  20
0.97000
  30
0.00000
  42
0.1411
  70
32
  0
VERTEX
  5
947
  100
AcDbEntity
  8
Layer 1
  62
0
  100
AcDb2dVertex
  10
0.09874
  20
0.95572
  30
0.00000
  70
32
  0
VERTEX
  5
948
  100
AcDbEntity
  8
Layer 1
  62
0
  100
AcDb2dVertex
  10
0.09900
  20
0.95400
  30
0.00000
  42
-0.0221
  70
32
  0
VERTEX
  5
949
  100
AcDbEntity
  8
Layer 1
  62
0
  100
AcDb2dVertex
  10
0.10000
  20
0.93500
  30
0.00000
  42
-0.2084
  70
32
  0
VERTEX
  5
94A
  100
AcDbEntity
  8
Layer 1
  62
0
  100
AcDb2dVertex
  10
0.09616
  20
0.92378
  30
0.00000
  42
-0.1904
  70
32
  0
VERTEX
  5
94B
  100
AcDbEntity
  8
Layer 1
  62
0
  100
AcDb2dVertex
  10
0.08467
  20
0.92001
  30
0.00000
  70
32
  0
VERTEX
  5
94C
  100
AcDbEntity
  8
Layer 1
  62
0
  100
AcDb2dVertex
  10
0.08400
  20
0.92000
  30
0.00000
  42
-0.1530
  70
32
  0
VERTEX
  5
94D
  100
AcDbEntity
  8
Layer 1
  62
0
  100
AcDb2dVertex
  10
0.07583
  20
0.92366
  30
0.00000
  70
32
  0
VERTEX
  5
94E
  100
AcDbEntity
  8
Layer 1
  62
0
  100
AcDb2dVertex
  10
0.07400
  20
0.92500
  30
0.00000
  42
-0.1035
  70
32
  0
VERTEX
  5
94F
  100
AcDbEntity
  8
Layer 1
  62
0
  100
AcDb2dVertex
  10
0.06755
  20
0.93153
  30
0.00000
  42
-0.1143
  70
32
  0
VERTEX
  5
950
  100
AcDbEntity
  8
Layer 1
  62
0
  100
AcDb2dVertex
  10
0.06700
  20
0.93400
  30
0.00000
  70
32
  0
VERTEX
  5
951
  100
AcDbEntity
  8
Layer 1
  62
0
  100
AcDb2dVertex
  10
0.07900
  20
0.96500
  30
0.00000
  42
0.2457
  70
32
  0
VERTEX
  5
952
  100
AcDbEntity
  8
Layer 1
  62
0
  100
AcDb2dVertex
  10
0.07396
  20
0.97679
  30
0.00000
  42
0.1620
  70
32
  0
VERTEX
  5
953
  100
AcDbEntity
  8
Layer 1
  62
0
  100
AcDb2dVertex
  10
0.06200
  20
0.98000
  30
0.00000
  42
0.3492
  70
32
  0
VERTEX
  5
954
  100
AcDbEntity
  8
Layer 1
  62
0
  100
AcDb2dVertex
  10
0.04693
  20
0.96923
  30
0.00000
  42
0.0853
  70
32
  0
VERTEX
  5
955
  100
AcDbEntity
  8
Layer 1
  62
0
  100
AcDb2dVertex
  10
0.04500
  20
0.95600
  30
0.00000
  42
-0.1133
  70
32
  0
VERTEX
  5
956
  100
AcDbEntity
  8
Layer 1
  62
0
  100
AcDb2dVertex
  10
0.04076
  20
0.93843
  30
0.00000
  42
-0.2861
  70
32
  0
VERTEX
  5
957
  100
AcDbEntity
  8
Layer 1
  62
0
  100
AcDb2dVertex
  10
0.03000
  20
0.93200
  30
0.00000
  42
-0.1226
  70
32
  0
VERTEX
  5
958
  100
AcDbEntity
  8
Layer 1
  62
0
  100
AcDb2dVertex
  10
0.01471
  20
0.93486
  30
0.00000
  42
-0.2954
  70
32
  0
VERTEX
  5
959
  100
AcDbEntity
  8
Layer 1
  62
0
  100
AcDb2dVertex
  10
0.00900
  20
0.94500
  30
0.00000
  70
32
  0
VERTEX
  5
95A
  100
AcDbEntity
  8
Layer 1
  62
0
  100
AcDb2dVertex
  10
0.01264
  20
0.95584
  30
0.00000
  70
32
  0
VERTEX
  5
95B
  100
AcDbEntity
  8
Layer 1
  62
0
  100
AcDb2dVertex
  10
0.01729
  20
0.96990
  30
0.00000
  42
0.0566
  70
32
  0
VERTEX
  5
95C
  100
AcDbEntity
  8
Layer 1
  62
0
  100
AcDb2dVertex
  10
0.01900
  20
0.97700
  30
0.00000
  70
32
  0
VERTEX
  5
95D
  100
AcDbEntity
  8
Layer 1
  62
0
  100
AcDb2dVertex
  10
0.01900
  20
0.98000
  30
0.00000
  42
0.1436
  70
32
  0
VERTEX
  5
95E
  100
AcDbEntity
  8
Layer 1
  62
0
  100
AcDb2dVertex
  10
0.01362
  20
0.98613
  30
0.00000
  70
32
  0
VERTEX
  5
95F
  100
AcDbEntity
  8
Layer 1
  62
0
  100
AcDb2dVertex
  10
0.01200
  20
0.98741
  30
0.00000
  70
32
  0
VERTEX
  5
960
  100
AcDbEntity
  8
Layer 1
  62
0
  100
AcDb2dVertex
  10
0.01000
  20
0.98900
  30
0.00000
  42
-0.1593
  70
32
  0
VERTEX
  5
961
  100
AcDbEntity
  8
Layer 1
  62
0
  100
AcDb2dVertex
  10
0.00254
  20
0.99619
  30
0.00000
  42
-0.0965
  70
32
  0
VERTEX
  5
962
  100
AcDbEntity
  8
Layer 1
  62
0
  100
AcDb2dVertex
  10
0.00200
  20
0.99900
  30
0.00000
  42
-0.0530
  70
32
  0
VERTEX
  5
963
  100
AcDbEntity
  8
Layer 1
  62
0
  100
AcDb2dVertex
  10
0.00634
  20
1.02257
  30
0.00000
  42
-0.0132
  70
32
  0
VERTEX
  5
964
  100
AcDbEntity
  8
Layer 1
  62
0
  100
AcDb2dVertex
  10
0.01200
  20
1.04200
  30
0.00000
  70
32
  0
VERTEX
  5
965
  100
AcDbEntity
  8
Layer 1
  62
0
  100
AcDb2dVertex
  10
0.09000
  20
1.02500
  30
0.00000
  70
32
  0
VERTEX
  5
966
  100
AcDbEntity
  8
Layer 1
  62
0
  100
AcDb2dVertex
  10
0.01200
  20
1.04200
  30
0.00000
  42
-0.0484
  70
32
  0
VERTEX
  5
967
  100
AcDbEntity
  8
Layer 1
  62
0
  100
AcDb2dVertex
  10
0.02115
  20
1.06937
  30
0.00000
  42
-0.1628
  70
32
  0
VERTEX
  5
968
  100
AcDbEntity
  8
Layer 1
  62
0
  100
AcDb2dVertex
  10
0.02563
  20
1.07489
  30
0.00000
  42
-0.1596
  70
32
  0
VERTEX
  5
969
  100
AcDbEntity
  8
Layer 1
  62
0
  100
AcDb2dVertex
  10
0.02700
  20
1.07500
  30
0.00000
  70
32
  0
VERTEX
  5
96A
  100
AcDbEntity
  8
Layer 1
  62
0
  100
AcDb2dVertex
  10
0.06900
  20
1.06500
  30
0.00000
  42
0.0571
  70
32
  0
VERTEX
  5
96B
  100
AcDbEntity
  8
Layer 1
  62
0
  100
AcDb2dVertex
  10
0.08900
  20
1.07400
  30
0.00000
  42
-0.2543
  70
32
  0
VERTEX
  5
96C
  100
AcDbEntity
  8
Layer 1
  62
0
  100
AcDb2dVertex
  10
0.10500
  20
1.06500
  30
0.00000
  42
0.1140
  70
32
  0
VERTEX
  5
96D
  100
AcDbEntity
  8
Layer 1
  62
0
  100
AcDb2dVertex
  10
0.11421
  20
1.05574
  30
0.00000
  42
0.1164
  70
32
  0
VERTEX
  5
96E
  100
AcDbEntity
  8
Layer 1
  62
0
  100
AcDb2dVertex
  10
0.11700
  20
1.05500
  30
0.00000
  42
0.2442
  70
32
  0
VERTEX
  5
96F
  100
AcDbEntity
  8
Layer 1
  62
0
  100
AcDb2dVertex
  10
0.12599
  20
1.05988
  30
0.00000
  70
32
  0
VERTEX
  5
970
  100
AcDbEntity
  8
Layer 1
  62
0
  100
AcDb2dVertex
  10
0.12900
  20
1.06400
  30
0.00000
  42
-0.1593
  70
32
  0
VERTEX
  5
971
  100
AcDbEntity
  8
Layer 1
  62
0
  100
AcDb2dVertex
  10
0.13619
  20
1.07146
  30
0.00000
  42
-0.0965
  70
32
  0
VERTEX
  5
972
  100
AcDbEntity
  8
Layer 1
  62
0
  100
AcDb2dVertex
  10
0.13900
  20
1.07200
  30
0.00000
  42
-0.1628
  70
32
  0
VERTEX
  5
973
  100
AcDbEntity
  8
Layer 1
  62
0
  100
AcDb2dVertex
  10
0.14902
  20
1.06748
  30
0.00000
  70
32
  0
VERTEX
  5
974
  100
AcDbEntity
  8
Layer 1
  62
0
  100
AcDb2dVertex
  10
0.15400
  20
1.06300
  30
0.00000
  42
0.1404
  70
32
  0
VERTEX
  5
975
  100
AcDbEntity
  8
Layer 1
  62
0
  100
AcDb2dVertex
  10
0.16535
  20
1.05425
  30
0.00000
  70
32
  0
VERTEX
  5
976
  100
AcDbEntity
  8
Layer 1
  62
0
  100
AcDb2dVertex
  10
0.16700
  20
1.05400
  30
0.00000
  42
0.2575
  70
32
  0
VERTEX
  5
977
  100
AcDbEntity
  8
Layer 1
  62
0
  100
AcDb2dVertex
  10
0.17808
  20
1.05894
  30
0.00000
  42
0.1285
  70
32
  0
VERTEX
  5
978
  100
AcDbEntity
  8
Layer 1
  62
0
  100
AcDb2dVertex
  10
0.18100
  20
1.06800
  30
0.00000
  42
-0.1539
  70
32
  0
VERTEX
  5
979
  100
AcDbEntity
  8
Layer 1
  62
0
  100
AcDb2dVertex
  10
0.18687
  20
1.07996
  30
0.00000
  42
-0.1860
  70
32
  0
VERTEX
  5
97A
  100
AcDbEntity
  8
Layer 1
  62
0
  100
AcDb2dVertex
  10
0.19200
  20
1.08200
  30
0.00000
  42
-0.1711
  70
32
  0
VERTEX
  5
97B
  100
AcDbEntity
  8
Layer 1
  62
0
  100
AcDb2dVertex
  10
0.20362
  20
1.07630
  30
0.00000
  70
32
  0
VERTEX
  5
97C
  100
AcDbEntity
  8
Layer 1
  62
0
  100
AcDb2dVertex
  10
0.20500
  20
1.07500
  30
0.00000
  42
0.1029
  70
32
  0
VERTEX
  5
97D
  100
AcDbEntity
  8
Layer 1
  62
0
  100
AcDb2dVertex
  10
0.21511
  20
1.06734
  30
0.00000
  70
32
  0
VERTEX
  5
97E
  100
AcDbEntity
  8
Layer 1
  62
0
  100
AcDb2dVertex
  10
0.21700
  20
1.06700
  30
0.00000
  42
0.2540
  70
32
  0
VERTEX
  5
97F
  100
AcDbEntity
  8
Layer 1
  62
0
  100
AcDb2dVertex
  10
0.22826
  20
1.07196
  30
0.00000
  42
0.1278
  70
32
  0
VERTEX
  5
980
  100
AcDbEntity
  8
Layer 1
  62
0
  100
AcDb2dVertex
  10
0.23100
  20
1.08000
  30
0.00000
  42
-0.1888
  70
32
  0
VERTEX
  5
981
  100
AcDbEntity
  8
Layer 1
  62
0
  100
AcDb2dVertex
  10
0.23703
  20
1.09011
  30
0.00000
  42
-0.1503
  70
32
  0
VERTEX
  5
982
  100
AcDbEntity
  8
Layer 1
  62
0
  100
AcDb2dVertex
  10
0.24400
  20
1.09200
  30
0.00000
  42
-0.1789
  70
32
  0
VERTEX
  5
983
  100
AcDbEntity
  8
Layer 1
  62
0
  100
AcDb2dVertex
  10
0.25413
  20
1.08684
  30
0.00000
  70
32
  0
VERTEX
  5
984
  100
AcDbEntity
  8
Layer 1
  62
0
  100
AcDb2dVertex
  10
0.25500
  20
1.08600
  30
0.00000
  42
0.1239
  70
32
  0
VERTEX
  5
985
  100
AcDbEntity
  8
Layer 1
  62
0
  100
AcDb2dVertex
  10
0.26589
  20
1.08009
  30
0.00000
  70
32
  0
VERTEX
  5
986
  100
AcDbEntity
  8
Layer 1
  62
0
  100
AcDb2dVertex
  10
0.26700
  20
1.08000
  30
0.00000
  42
0.2577
  70
32
  0
VERTEX
  5
987
  100
AcDbEntity
  8
Layer 1
  62
0
  100
AcDb2dVertex
  10
0.27888
  20
1.08539
  30
0.00000
  42
0.1282
  70
32
  0
VERTEX
  5
988
  100
AcDbEntity
  8
Layer 1
  62
0
  100
AcDb2dVertex
  10
0.28200
  20
1.09500
  30
0.00000
  42
-0.1556
  70
32
  0
VERTEX
  5
989
  100
AcDbEntity
  8
Layer 1
  62
0
  100
AcDb2dVertex
  10
0.28638
  20
1.10735
  30
0.00000
  42
-0.2186
  70
32
  0
VERTEX
  5
98A
  100
AcDbEntity
  8
Layer 1
  62
0
  100
AcDb2dVertex
  10
0.29200
  20
1.11000
  30
0.00000
  70
32
  0
VERTEX
  5
98B
  100
AcDbEntity
  8
Layer 1
  62
0
  100
AcDb2dVertex
  10
0.31500
  20
1.10000
  30
0.00000
  42
0.3235
  70
32
  0
VERTEX
  5
98C
  100
AcDbEntity
  8
Layer 1
  62
0
  100
AcDb2dVertex
  10
0.32638
  20
1.10797
  30
0.00000
  42
0.1012
  70
32
  0
VERTEX
  5
98D
  100
AcDbEntity
  8
Layer 1
  62
0
  100
AcDb2dVertex
  10
0.32900
  20
1.12400
  30
0.00000
  42
-0.1896
  70
32
  0
VERTEX
  5
98E
  100
AcDbEntity
  8
Layer 1
  62
0
  100
AcDb2dVertex
  10
0.33139
  20
1.13252
  30
0.00000
  42
-0.2115
  70
32
  0
VERTEX
  5
98F
  100
AcDbEntity
  8
Layer 1
  62
0
  100
AcDb2dVertex
  10
0.33900
  20
1.13500
  30
0.00000
  70
32
  0
VERTEX
  5
990
  100
AcDbEntity
  8
Layer 1
  62
0
  100
AcDb2dVertex
  10
0.36400
  20
1.12500
  30
0.00000
  42
0.2940
  70
32
  0
VERTEX
  5
991
  100
AcDbEntity
  8
Layer 1
  62
0
  100
AcDb2dVertex
  10
0.36851
  20
1.12871
  30
0.00000
  42
0.0922
  70
32
  0
VERTEX
  5
992
  100
AcDbEntity
  8
Layer 1
  62
0
  100
AcDb2dVertex
  10
0.37176
  20
1.14531
  30
0.00000
  70
32
  0
VERTEX
  5
993
  100
AcDbEntity
  8
Layer 1
  62
0
  100
AcDb2dVertex
  10
0.37200
  20
1.15400
  30
0.00000
  42
-0.1661
  70
32
  0
VERTEX
  5
994
  100
AcDbEntity
  8
Layer 1
  62
0
  100
AcDb2dVertex
  10
0.37447
  20
1.16400
  30
0.00000
  42
-0.2389
  70
32
  0
VERTEX
  5
995
  100
AcDbEntity
  8
Layer 1
  62
0
  100
AcDb2dVertex
  10
0.38200
  20
1.16700
  30
0.00000
  70
32
  0
VERTEX
  5
996
  100
AcDbEntity
  8
Layer 1
  62
0
  100
AcDb2dVertex
  10
0.40500
  20
1.15900
  30
0.00000
  70
32
  0
VERTEX
  5
997
  100
AcDbEntity
  8
Layer 1
  62
0
  100
AcDb2dVertex
  10
0.41900
  20
1.17000
  30
0.00000
  42
-0.0292
  70
32
  0
VERTEX
  5
998
  100
AcDbEntity
  8
Layer 1
  62
0
  100
AcDb2dVertex
  10
0.41400
  20
1.18900
  30
0.00000
  42
-0.2571
  70
32
  0
VERTEX
  5
999
  100
AcDbEntity
  8
Layer 1
  62
0
  100
AcDb2dVertex
  10
0.42010
  20
1.19873
  30
0.00000
  42
-0.0669
  70
32
  0
VERTEX
  5
99A
  100
AcDbEntity
  8
Layer 1
  62
0
  100
AcDb2dVertex
  10
0.42700
  20
1.20200
  30
0.00000
  70
32
  0
VERTEX
  5
99B
  100
AcDbEntity
  8
Layer 1
  62
0
  100
AcDb2dVertex
  10
0.44500
  20
1.19500
  30
0.00000
  70
32
  0
VERTEX
  5
99C
  100
AcDbEntity
  8
Layer 1
  62
0
  100
AcDb2dVertex
  10
0.45700
  20
1.20700
  30
0.00000
  42
0.0710
  70
32
  0
VERTEX
  5
99D
  100
AcDbEntity
  8
Layer 1
  62
0
  100
AcDb2dVertex
  10
0.45076
  20
1.23078
  30
0.00000
  42
0.0298
  70
32
  0
VERTEX
  5
99E
  100
AcDbEntity
  8
Layer 1
  62
0
  100
AcDb2dVertex
  10
0.42357
  20
1.28807
  30
0.00000
  70
32
  0
VERTEX
  5
99F
  100
AcDbEntity
  8
Layer 1
  62
0
  100
AcDb2dVertex
  10
0.41000
  20
1.31300
  30
0.00000
  42
0.0325
  70
32
  0
VERTEX
  5
9A0
  100
AcDbEntity
  8
Layer 1
  62
0
  100
AcDb2dVertex
  10
0.37354
  20
1.36960
  30
0.00000
  42
0.0683
  70
32
  0
VERTEX
  5
9A1
  100
AcDbEntity
  8
Layer 1
  62
0
  100
AcDb2dVertex
  10
0.35431
  20
1.38978
  30
0.00000
  42
0.1540
  70
32
  0
VERTEX
  5
9A2
  100
AcDbEntity
  8
Layer 1
  62
0
  100
AcDb2dVertex
  10
0.34400
  20
1.39400
  30
0.00000
  42
0.0822
  70
32
  0
VERTEX
  5
9A3
  100
AcDbEntity
  8
Layer 1
  62
0
  100
AcDb2dVertex
  10
0.30476
  20
1.38633
  30
0.00000
  42
0.0481
  70
32
  0
VERTEX
  5
9A4
  100
AcDbEntity
  8
Layer 1
  62
0
  100
AcDb2dVertex
  10
0.24520
  20
1.35775
  30
0.00000
  42
0.0127
  70
32
  0
VERTEX
  5
9A5
  100
AcDbEntity
  8
Layer 1
  62
0
  100
AcDb2dVertex
  10
0.21500
  20
1.33900
  30
0.00000
  70
32
  0
VERTEX
  5
9A6
  100
AcDbEntity
  8
Layer 1
  62
0
  100
AcDb2dVertex
  10
0.20500
  20
1.34900
  30
0.00000
  42
-0.1767
  70
32
  0
VERTEX
  5
9A7
  100
AcDbEntity
  8
Layer 1
  62
0
  100
AcDb2dVertex
  10
0.20962
  20
1.35860
  30
0.00000
  42
-0.0679
  70
32
  0
VERTEX
  5
9A8
  100
AcDbEntity
  8
Layer 1
  62
0
  100
AcDb2dVertex
  10
0.23031
  20
1.37500
  30
0.00000
  42
-0.0253
  70
32
  0
VERTEX
  5
9A9
  100
AcDbEntity
  8
Layer 1
  62
0
  100
AcDb2dVertex
  10
0.27200
  20
1.39800
  30
0.00000
  42
-0.0347
  70
32
  0
VERTEX
  5
9AA
  100
AcDbEntity
  8
Layer 1
  62
0
  100
AcDb2dVertex
  10
0.33452
  20
1.42435
  30
0.00000
  42
-0.0671
  70
32
  0
VERTEX
  5
9AB
  100
AcDbEntity
  8
Layer 1
  62
0
  100
AcDb2dVertex
  10
0.36112
  20
1.42999
  30
0.00000
  70
32
  0
VERTEX
  5
9AC
  100
AcDbEntity
  8
Layer 1
  62
0
  100
AcDb2dVertex
  10
0.36200
  20
1.43000
  30
0.00000
  42
-0.0897
  70
32
  0
VERTEX
  5
9AD
  100
AcDbEntity
  8
Layer 1
  62
0
  100
AcDb2dVertex
  10
0.38493
  20
1.42682
  30
0.00000
  42
-0.1658
  70
32
  0
VERTEX
  5
9AE
  100
AcDbEntity
  8
Layer 1
  62
0
  100
AcDb2dVertex
  10
0.39500
  20
1.41900
  30
0.00000
  70
32
  0
VERTEX
  5
9AF
  100
AcDbEntity
  8
Layer 1
  62
0
  100
AcDb2dVertex
  10
0.42400
  20
1.35000
  30
0.00000
  70
32
  0
VERTEX
  5
9B0
  100
AcDbEntity
  8
Layer 1
  62
0
  100
AcDb2dVertex
  10
0.39500
  20
1.41900
  30
0.00000
  42
-0.3091
  70
32
  0
VERTEX
  5
9B1
  100
AcDbEntity
  8
Layer 1
  62
0
  100
AcDb2dVertex
  10
0.40266
  20
1.43040
  30
0.00000
  42
-0.1059
  70
32
  0
VERTEX
  5
9B2
  100
AcDbEntity
  8
Layer 1
  62
0
  100
AcDb2dVertex
  10
0.42201
  20
1.43398
  30
0.00000
  70
32
  0
VERTEX
  5
9B3
  100
AcDbEntity
  8
Layer 1
  62
0
  100
AcDb2dVertex
  10
0.42400
  20
1.43400
  30
0.00000
  42
-0.0447
  70
32
  0
VERTEX
  5
9B4
  100
AcDbEntity
  8
Layer 1
  62
0
  100
AcDb2dVertex
  10
0.47428
  20
1.42823
  30
0.00000
  42
-0.0099
  70
32
  0
VERTEX
  5
9B5
  100
AcDbEntity
  8
Layer 1
  62
0
  100
AcDb2dVertex
  10
0.50400
  20
1.42200
  30
0.00000
  42
-0.0469
  70
32
  0
VERTEX
  5
9B6
  100
AcDbEntity
  8
Layer 1
  62
0
  100
AcDb2dVertex
  10
0.54624
  20
1.40944
  30
0.00000
  42
-0.1028
  70
32
  0
VERTEX
  5
9B7
  100
AcDbEntity
  8
Layer 1
  62
0
  100
AcDb2dVertex
  10
0.56171
  20
1.39955
  30
0.00000
  42
-0.1884
  70
32
  0
VERTEX
  5
9B8
  100
AcDbEntity
  8
Layer 1
  62
0
  100
AcDb2dVertex
  10
0.56500
  20
1.39200
  30
0.00000
  70
32
  0
VERTEX
  5
9B9
  100
AcDbEntity
  8
Layer 1
  62
0
  100
AcDb2dVertex
  10
0.55500
  20
1.38200
  30
0.00000
  42
0.0521
  70
32
  0
VERTEX
  5
9BA
  100
AcDbEntity
  8
Layer 1
  62
0
  100
AcDb2dVertex
  10
0.48777
  20
1.39791
  30
0.00000
  42
0.0274
  70
32
  0
VERTEX
  5
9BB
  100
AcDbEntity
  8
Layer 1
  62
0
  100
AcDb2dVertex
  10
0.46900
  20
1.39900
  30
0.00000
  42
0.1124
  70
32
  0
VERTEX
  5
9BC
  100
AcDbEntity
  8
Layer 1
  62
0
  100
AcDb2dVertex
  10
0.45285
  20
1.39625
  30
0.00000
  42
0.3084
  70
32
  0
VERTEX
  5
9BD
  100
AcDbEntity
  8
Layer 1
  62
0
  100
AcDb2dVertex
  10
0.44700
  20
1.38700
  30
0.00000
  42
0.0613
  70
32
  0
VERTEX
  5
9BE
  100
AcDbEntity
  8
Layer 1
  62
0
  100
AcDb2dVertex
  10
0.45086
  20
1.36947
  30
0.00000
  42
0.0151
  70
32
  0
VERTEX
  5
9BF
  100
AcDbEntity
  8
Layer 1
  62
0
  100
AcDb2dVertex
  10
0.46500
  20
1.32900
  30
0.00000
  70
32
  0
VERTEX
  5
9C0
  100
AcDbEntity
  8
Layer 1
  62
0
  100
AcDb2dVertex
  10
0.46849
  20
1.32040
  30
0.00000
  70
32
  0
VERTEX
  5
9C1
  100
AcDbEntity
  8
Layer 1
  62
0
  100
AcDb2dVertex
  10
0.48199
  20
1.28746
  30
0.00000
  42
0.0250
  70
32
  0
VERTEX
  5
9C2
  100
AcDbEntity
  8
Layer 1
  62
0
  100
AcDb2dVertex
  10
0.49000
  20
1.27000
  30
0.00000
  42
0.0747
  70
32
  0
VERTEX
  5
9C3
  100
AcDbEntity
  8
Layer 1
  62
0
  100
AcDb2dVertex
  10
0.49807
  20
1.25944
  30
0.00000
  70
32
  0
VERTEX
  5
9C4
  100
AcDbEntity
  8
Layer 1
  62
0
  100
AcDb2dVertex
  10
0.49900
  20
1.25900
  30
0.00000
  42
0.3201
  70
32
  0
VERTEX
  5
9C5
  100
AcDbEntity
  8
Layer 1
  62
0
  100
AcDb2dVertex
  10
0.50905
  20
1.26599
  30
0.00000
  42
0.1014
  70
32
  0
VERTEX
  5
9C6
  100
AcDbEntity
  8
Layer 1
  62
0
  100
AcDb2dVertex
  10
0.51200
  20
1.28437
  30
0.00000
  70
32
  0
VERTEX
  5
9C7
  100
AcDbEntity
  8
Layer 1
  62
0
  100
AcDb2dVertex
  10
0.51200
  20
1.28500
  30
0.00000
  70
32
  0
VERTEX
  5
9C8
  100
AcDbEntity
  8
Layer 1
  62
0
  100
AcDb2dVertex
  10
0.51900
  20
1.29700
  30
0.00000
  42
0.1001
  70
32
  0
VERTEX
  5
9C9
  100
AcDbEntity
  8
Layer 1
  62
0
  100
AcDb2dVertex
  10
0.54431
  20
1.28909
  30
0.00000
  70
32
  0
VERTEX
  5
9CA
  100
AcDbEntity
  8
Layer 1
  62
0
  100
AcDb2dVertex
  10
0.54700
  20
1.28900
  30
0.00000
  42
0.3203
  70
32
  0
VERTEX
  5
9CB
  100
AcDbEntity
  8
Layer 1
  62
0
  100
AcDb2dVertex
  10
0.55616
  20
1.29547
  30
0.00000
  42
0.1007
  70
32
  0
VERTEX
  5
9CC
  100
AcDbEntity
  8
Layer 1
  62
0
  100
AcDb2dVertex
  10
0.55900
  20
1.31318
  30
0.00000
  70
32
  0
VERTEX
  5
9CD
  100
AcDbEntity
  8
Layer 1
  62
0
  100
AcDb2dVertex
  10
0.55900
  20
1.31400
  30
0.00000
  42
-0.2252
  70
32
  0
VERTEX
  5
9CE
  100
AcDbEntity
  8
Layer 1
  62
0
  100
AcDb2dVertex
  10
0.56212
  20
1.32272
  30
0.00000
  42
-0.1790
  70
32
  0
VERTEX
  5
9CF
  100
AcDbEntity
  8
Layer 1
  62
0
  100
AcDb2dVertex
  10
0.57000
  20
1.32500
  30
0.00000
  42
-0.1992
  70
32
  0
VERTEX
  5
9D0
  100
AcDbEntity
  8
Layer 1
  62
0
  100
AcDb2dVertex
  10
0.58174
  20
1.31926
  30
0.00000
  70
32
  0
VERTEX
  5
9D1
  100
AcDbEntity
  8
Layer 1
  62
0
  100
AcDb2dVertex
  10
0.58200
  20
1.31900
  30
0.00000
  42
0.1152
  70
32
  0
VERTEX
  5
9D2
  100
AcDbEntity
  8
Layer 1
  62
0
  100
AcDb2dVertex
  10
0.59082
  20
1.31249
  30
0.00000
  42
0.0801
  70
32
  0
VERTEX
  5
9D3
  100
AcDbEntity
  8
Layer 1
  62
0
  100
AcDb2dVertex
  10
0.59400
  20
1.31200
  30
0.00000
  42
0.3038
  70
32
  0
VERTEX
  5
9D4
  100
AcDbEntity
  8
Layer 1
  62
0
  100
AcDb2dVertex
  10
0.60119
  20
1.31725
  30
0.00000
  42
0.1096
  70
32
  0
VERTEX
  5
9D5
  100
AcDbEntity
  8
Layer 1
  62
0
  100
AcDb2dVertex
  10
0.60400
  20
1.33400
  30
0.00000
  42
-0.1896
  70
32
  0
VERTEX
  5
9D6
  100
AcDbEntity
  8
Layer 1
  62
0
  100
AcDb2dVertex
  10
0.60639
  20
1.34252
  30
0.00000
  42
-0.2115
  70
32
  0
VERTEX
  5
9D7
  100
AcDbEntity
  8
Layer 1
  62
0
  100
AcDb2dVertex
  10
0.61400
  20
1.34500
  30
0.00000
  42
-0.1788
  70
32
  0
VERTEX
  5
9D8
  100
AcDbEntity
  8
Layer 1
  62
0
  100
AcDb2dVertex
  10
0.61953
  20
1.34183
  30
0.00000
  70
32
  0
VERTEX
  5
9D9
  100
AcDbEntity
  8
Layer 1
  62
0
  100
AcDb2dVertex
  10
0.62400
  20
1.33700
  30
0.00000
  42
0.2389
  70
32
  0
VERTEX
  5
9DA
  100
AcDbEntity
  8
Layer 1
  62
0
  100
AcDb2dVertex
  10
0.63621
  20
1.32903
  30
0.00000
  70
32
  0
VERTEX
  5
9DB
  100
AcDbEntity
  8
Layer 1
  62
0
  100
AcDb2dVertex
  10
0.63700
  20
1.32900
  30
0.00000
  42
0.1999
  70
32
  0
VERTEX
  5
9DC
  100
AcDbEntity
  8
Layer 1
  62
0
  100
AcDb2dVertex
  10
0.64770
  20
1.33242
  30
0.00000
  42
0.1709
  70
32
  0
VERTEX
  5
9DD
  100
AcDbEntity
  8
Layer 1
  62
0
  100
AcDb2dVertex
  10
0.65100
  20
1.34000
  30
0.00000
  42
-0.1593
  70
32
  0
VERTEX
  5
9DE
  100
AcDbEntity
  8
Layer 1
  62
0
  100
AcDb2dVertex
  10
0.65603
  20
1.34896
  30
0.00000
  42
-0.1622
  70
32
  0
VERTEX
  5
9DF
  100
AcDbEntity
  8
Layer 1
  62
0
  100
AcDb2dVertex
  10
0.65900
  20
1.35000
  30
0.00000
  42
-0.1259
  70
32
  0
VERTEX
  5
9E0
  100
AcDbEntity
  8
Layer 1
  62
0
  100
AcDb2dVertex
  10
0.66959
  20
1.34593
  30
0.00000
  70
32
  0
VERTEX
  5
9E1
  100
AcDbEntity
  8
Layer 1
  62
0
  100
AcDb2dVertex
  10
0.67400
  20
1.34300
  30
0.00000
  42
0.0796
  70
32
  0
VERTEX
  5
9E2
  100
AcDbEntity
  8
Layer 1
  62
0
  100
AcDb2dVertex
  10
0.68730
  20
1.33540
  30
0.00000
  70
32
  0
VERTEX
  5
9E3
  100
AcDbEntity
  8
Layer 1
  62
0
  100
AcDb2dVertex
  10
0.69000
  20
1.33500
  30
0.00000
  42
0.2086
  70
32
  0
VERTEX
  5
9E4
  100
AcDbEntity
  8
Layer 1
  62
0
  100
AcDb2dVertex
  10
0.70243
  20
1.33937
  30
0.00000
  42
0.1849
  70
32
  0
VERTEX
  5
9E5
  100
AcDbEntity
  8
Layer 1
  62
0
  100
AcDb2dVertex
  10
0.70697
  20
1.35235
  30
0.00000
  70
32
  0
VERTEX
  5
9E6
  100
AcDbEntity
  8
Layer 1
  62
0
  100
AcDb2dVertex
  10
0.70700
  20
1.35400
  30
0.00000
  70
32
  0
VERTEX
  5
9E7
  100
AcDbEntity
  8
Layer 1
  62
0
  100
AcDb2dVertex
  10
0.69900
  20
1.39200
  30
0.00000
  42
-0.1796
  70
32
  0
VERTEX
  5
9E8
  100
AcDbEntity
  8
Layer 1
  62
0
  100
AcDb2dVertex
  10
0.69937
  20
1.40378
  30
0.00000
  42
-0.2434
  70
32
  0
VERTEX
  5
9E9
  100
AcDbEntity
  8
Layer 1
  62
0
  100
AcDb2dVertex
  10
0.70846
  20
1.40955
  30
0.00000
  42
-0.0443
  70
32
  0
VERTEX
  5
9EA
  100
AcDbEntity
  8
Layer 1
  62
0
  100
AcDb2dVertex
  10
0.71400
  20
1.41000
  30
0.00000
  42
-0.1939
  70
32
  0
VERTEX
  5
9EB
  100
AcDbEntity
  8
Layer 1
  62
0
  100
AcDb2dVertex
  10
0.72573
  20
1.40441
  30
0.00000
  42
-0.0791
  70
32
  0
VERTEX
  5
9EC
  100
AcDbEntity
  8
Layer 1
  62
0
  100
AcDb2dVertex
  10
0.74005
  20
1.38380
  30
0.00000
  70
32
  0
VERTEX
  5
9ED
  100
AcDbEntity
  8
Layer 1
  62
0
  100
AcDb2dVertex
  10
0.74200
  20
1.38000
  30
0.00000
  42
0.1030
  70
32
  0
VERTEX
  5
9EE
  100
AcDbEntity
  8
Layer 1
  62
0
  100
AcDb2dVertex
  10
0.75841
  20
1.35768
  30
0.00000
  42
0.1805
  70
32
  0
VERTEX
  5
9EF
  100
AcDbEntity
  8
Layer 1
  62
0
  100
AcDb2dVertex
  10
0.77900
  20
1.35000
  30
0.00000
  42
0.1453
  70
32
  0
VERTEX
  5
9F0
  100
AcDbEntity
  8
Layer 1
  62
0
  100
AcDb2dVertex
  10
0.79599
  20
1.35614
  30
0.00000
  42
0.0376
  70
32
  0
VERTEX
  5
9F1
  100
AcDbEntity
  8
Layer 1
  62
0
  100
AcDb2dVertex
  10
0.80600
  20
1.36400
  30
0.00000
  42
-0.0826
  70
32
  0
VERTEX
  5
9F2
  100
AcDbEntity
  8
Layer 1
  62
0
  100
AcDb2dVertex
  10
0.82250
  20
1.37559
  30
0.00000
  42
-0.0979
  70
32
  0
VERTEX
  5
9F3
  100
AcDbEntity
  8
Layer 1
  62
0
  100
AcDb2dVertex
  10
0.82900
  20
1.37700
  30
0.00000
  42
-0.1777
  70
32
  0
VERTEX
  5
9F4
  100
AcDbEntity
  8
Layer 1
  62
0
  100
AcDb2dVertex
  10
0.85253
  20
1.36755
  30
0.00000
  42
-0.0458
  70
32
  0
VERTEX
  5
9F5
  100
AcDbEntity
  8
Layer 1
  62
0
  100
AcDb2dVertex
  10
0.86100
  20
1.35900
  30
0.00000
  70
32
  0
VERTEX
  5
9F6
  100
AcDbEntity
  8
Layer 1
  62
0
  100
AcDb2dVertex
  10
0.81100
  20
1.31700
  30
0.00000
  70
32
  0
VERTEX
  5
9F7
  100
AcDbEntity
  8
Layer 1
  62
0
  100
AcDb2dVertex
  10
0.86100
  20
1.35900
  30
0.00000
  42
-0.1783
  70
32
  0
VERTEX
  5
9F8
  100
AcDbEntity
  8
Layer 1
  62
0
  100
AcDb2dVertex
  10
0.86825
  20
1.35512
  30
0.00000
  42
-0.0620
  70
32
  0
VERTEX
  5
9F9
  100
AcDbEntity
  8
Layer 1
  62
0
  100
AcDb2dVertex
  10
0.88383
  20
1.33461
  30
0.00000
  42
-0.0260
  70
32
  0
VERTEX
  5
9FA
  100
AcDbEntity
  8
Layer 1
  62
0
  100
AcDb2dVertex
  10
0.91799
  20
1.27028
  30
0.00000
  70
32
  0
VERTEX
  5
9FB
  100
AcDbEntity
  8
Layer 1
  62
0
  100
AcDb2dVertex
  10
0.92100
  20
1.26400
  30
0.00000
  70
32
  0
SEQEND
  5
9FC
  100
AcDbEntity
  8
Layer 1
  62
0
  0
POLYLINE
  5
9FD
  100
AcDbEntity
  8
Layer 1
  62
0
  100
AcDb2dPolyline
 66
     1
  10
0
  20
0
  30
0
  70
1
  0
VERTEX
  5
9FE
  100
AcDbEntity
  8
Layer 1
  62
0
  100
AcDb2dVertex
  10
0.38900
  20
1.27900
  30
0.00000
  42
-0.1937
  70
32
  0
VERTEX
  5
9FF
  100
AcDbEntity
  8
Layer 1
  62
0
  100
AcDb2dVertex
  10
0.38193
  20
1.26353
  30
0.00000
  42
-0.0739
  70
32
  0
VERTEX
  5
A00
  100
AcDbEntity
  8
Layer 1
  62
0
  100
AcDb2dVertex
  10
0.36800
  20
1.25300
  30
0.00000
  42
0.0836
  70
32
  0
VERTEX
  5
A01
  100
AcDbEntity
  8
Layer 1
  62
0
  100
AcDb2dVertex
  10
0.35050
  20
1.23985
  30
0.00000
  42
0.1762
  70
32
  0
VERTEX
  5
A02
  100
AcDbEntity
  8
Layer 1
  62
0
  100
AcDb2dVertex
  10
0.34700
  20
1.23200
  30
0.00000
  42
0.2334
  70
32
  0
VERTEX
  5
A03
  100
AcDbEntity
  8
Layer 1
  62
0
  100
AcDb2dVertex
  10
0.35420
  20
1.21787
  30
0.00000
  42
0.0519
  70
32
  0
VERTEX
  5
A04
  100
AcDbEntity
  8
Layer 1
  62
0
  100
AcDb2dVertex
  10
0.36300
  20
1.21200
  30
0.00000
  42
-0.0966
  70
32
  0
VERTEX
  5
A05
  100
AcDbEntity
  8
Layer 1
  62
0
  100
AcDb2dVertex
  10
0.37633
  20
1.20211
  30
0.00000
  42
-0.1740
  70
32
  0
VERTEX
  5
A06
  100
AcDbEntity
  8
Layer 1
  62
0
  100
AcDb2dVertex
  10
0.37900
  20
1.19500
  30
0.00000
  42
-0.1855
  70
32
  0
VERTEX
  5
A07
  100
AcDbEntity
  8
Layer 1
  62
0
  100
AcDb2dVertex
  10
0.37405
  20
1.18481
  30
0.00000
  42
-0.0777
  70
32
  0
VERTEX
  5
A08
  100
AcDbEntity
  8
Layer 1
  62
0
  100
AcDb2dVertex
  10
0.35339
  20
1.16988
  30
0.00000
  42
-0.0308
  70
32
  0
VERTEX
  5
A09
  100
AcDbEntity
  8
Layer 1
  62
0
  100
AcDb2dVertex
  10
0.31900
  20
1.15400
  30
0.00000
  42
-0.2539
  70
32
  0
VERTEX
  5
A0A
  100
AcDbEntity
  8
Layer 1
  62
0
  100
AcDb2dVertex
  10
0.31501
  20
1.15724
  30
0.00000
  42
-0.0692
  70
32
  0
VERTEX
  5
A0B
  100
AcDbEntity
  8
Layer 1
  62
0
  100
AcDb2dVertex
  10
0.30869
  20
1.17533
  30
0.00000
  42
-0.0246
  70
32
  0
VERTEX
  5
A0C
  100
AcDbEntity
  8
Layer 1
  62
0
  100
AcDb2dVertex
  10
0.29784
  20
1.23868
  30
0.00000
  70
32
  0
VERTEX
  5
A0D
  100
AcDbEntity
  8
Layer 1
  62
0
  100
AcDb2dVertex
  10
0.29700
  20
1.24500
  30
0.00000
  42
-0.0361
  70
32
  0
VERTEX
  5
A0E
  100
AcDbEntity
  8
Layer 1
  62
0
  100
AcDb2dVertex
  10
0.27796
  20
1.26283
  30
0.00000
  70
32
  0
VERTEX
  5
A0F
  100
AcDbEntity
  8
Layer 1
  62
0
  100
AcDb2dVertex
  10
0.27438
  20
1.26647
  30
0.00000
  70
32
  0
VERTEX
  5
A10
  100
AcDbEntity
  8
Layer 1
  62
0
  100
AcDb2dVertex
  10
0.26100
  20
1.28000
  30
0.00000
  42
-0.0288
  70
32
  0
VERTEX
  5
A11
  100
AcDbEntity
  8
Layer 1
  62
0
  100
AcDb2dVertex
  10
0.23797
  20
1.30761
  30
0.00000
  42
-0.1256
  70
32
  0
VERTEX
  5
A12
  100
AcDbEntity
  8
Layer 1
  62
0
  100
AcDb2dVertex
  10
0.23500
  20
1.31400
  30
0.00000
  42
-0.1908
  70
32
  0
VERTEX
  5
A13
  100
AcDbEntity
  8
Layer 1
  62
0
  100
AcDb2dVertex
  10
0.24009
  20
1.32437
  30
0.00000
  42
-0.0807
  70
32
  0
VERTEX
  5
A14
  100
AcDbEntity
  8
Layer 1
  62
0
  100
AcDb2dVertex
  10
0.26058
  20
1.33850
  30
0.00000
  42
-0.0310
  70
32
  0
VERTEX
  5
A15
  100
AcDbEntity
  8
Layer 1
  62
0
  100
AcDb2dVertex
  10
0.29200
  20
1.35200
  30
0.00000
  42
-0.2679
  70
32
  0
VERTEX
  5
A16
  100
AcDbEntity
  8
Layer 1
  62
0
  100
AcDb2dVertex
  10
0.29998
  20
1.34679
  30
0.00000
  42
-0.1009
  70
32
  0
VERTEX
  5
A17
  100
AcDbEntity
  8
Layer 1
  62
0
  100
AcDb2dVertex
  10
0.30551
  20
1.32882
  30
0.00000
  70
32
  0
VERTEX
  5
A18
  100
AcDbEntity
  8
Layer 1
  62
0
  100
AcDb2dVertex
  10
0.30600
  20
1.32500
  30
0.00000
  42
0.0655
  70
32
  0
VERTEX
  5
A19
  100
AcDbEntity
  8
Layer 1
  62
0
  100
AcDb2dVertex
  10
0.31186
  20
1.30220
  30
0.00000
  42
0.1937
  70
32
  0
VERTEX
  5
A1A
  100
AcDbEntity
  8
Layer 1
  62
0
  100
AcDb2dVertex
  10
0.31615
  20
1.29713
  30
0.00000
  70
32
  0
VERTEX
  5
A1B
  100
AcDbEntity
  8
Layer 1
  62
0
  100
AcDb2dVertex
  10
0.31700
  20
1.29700
  30
0.00000
  42
0.0613
  70
32
  0
VERTEX
  5
A1C
  100
AcDbEntity
  8
Layer 1
  62
0
  100
AcDb2dVertex
  10
0.33448
  20
1.30141
  30
0.00000
  70
32
  0
VERTEX
  5
A1D
  100
AcDbEntity
  8
Layer 1
  62
0
  100
AcDb2dVertex
  10
0.33900
  20
1.30300
  30
0.00000
  42
-0.0485
  70
32
  0
VERTEX
  5
A1E
  100
AcDbEntity
  8
Layer 1
  62
0
  100
AcDb2dVertex
  10
0.35898
  20
1.30894
  30
0.00000
  70
32
  0
VERTEX
  5
A1F
  100
AcDbEntity
  8
Layer 1
  62
0
  100
AcDb2dVertex
  10
0.36000
  20
1.30900
  30
0.00000
  42
-0.1585
  70
32
  0
VERTEX
  5
A20
  100
AcDbEntity
  8
Layer 1
  62
0
  100
AcDb2dVertex
  10
0.37883
  20
1.30390
  30
0.00000
  42
-0.2045
  70
32
  0
VERTEX
  5
A21
  100
AcDbEntity
  8
Layer 1
  62
0
  100
AcDb2dVertex
  10
0.38840
  20
1.28688
  30
0.00000
  42
-0.0404
  70
32
  0
VERTEX
  5
A22
  100
AcDbEntity
  8
Layer 1
  62
0
  100
AcDb2dVertex
  10
0.38900
  20
1.27900
  30
0.00000
  70
32
  0
SEQEND
  5
A23
  100
AcDbEntity
  8
Layer 1
  62
0
  0
POLYLINE
  5
A24
  100
AcDbEntity
  8
Layer 1
  62
0
  100
AcDb2dPolyline
 66
     1
  10
0
  20
0
  30
0
  70
1
  0
VERTEX
  5
A25
  100
AcDbEntity
  8
Layer 1
  62
0
  100
AcDb2dVertex
  10
1.22700
  20
0.41000
  30
0.00000
  42
-0.2062
  70
32
  0
VERTEX
  5
A26
  100
AcDbEntity
  8
Layer 1
  62
0
  100
AcDb2dVertex
  10
1.22026
  20
0.39644
  30
0.00000
  42
-0.0561
  70
32
  0
VERTEX
  5
A27
  100
AcDbEntity
  8
Layer 1
  62
0
  100
AcDb2dVertex
  10
1.21300
  20
0.39100
  30
0.00000
  42
-0.0086
  70
32
  0
VERTEX
  5
A28
  100
AcDbEntity
  8
Layer 1
  62
0
  100
AcDb2dVertex
  10
1.19298
  20
0.37832
  30
0.00000
  70
32
  0
VERTEX
  5
A29
  100
AcDbEntity
  8
Layer 1
  62
0
  100
AcDb2dVertex
  10
1.18600
  20
0.37400
  30
0.00000
  70
32
  0
VERTEX
  5
A2A
  100
AcDbEntity
  8
Layer 1
  62
0
  100
AcDb2dVertex
  10
1.18100
  20
0.36500
  30
0.00000
  42
0.0613
  70
32
  0
VERTEX
  5
A2B
  100
AcDbEntity
  8
Layer 1
  62
0
  100
AcDb2dVertex
  10
1.18836
  20
0.35107
  30
0.00000
  70
32
  0
VERTEX
  5
A2C
  100
AcDbEntity
  8
Layer 1
  62
0
  100
AcDb2dVertex
  10
1.19900
  20
0.33500
  30
0.00000
  70
32
  0
VERTEX
  5
A2D
  100
AcDbEntity
  8
Layer 1
  62
0
  100
AcDb2dVertex
  10
1.20100
  20
0.32900
  30
0.00000
  42
-0.2043
  70
32
  0
VERTEX
  5
A2E
  100
AcDbEntity
  8
Layer 1
  62
0
  100
AcDb2dVertex
  10
1.19717
  20
0.32274
  30
0.00000
  42
-0.0670
  70
32
  0
VERTEX
  5
A2F
  100
AcDbEntity
  8
Layer 1
  62
0
  100
AcDb2dVertex
  10
1.17739
  20
0.31090
  30
0.00000
  42
-0.0190
  70
32
  0
VERTEX
  5
A30
  100
AcDbEntity
  8
Layer 1
  62
0
  100
AcDb2dVertex
  10
1.14900
  20
0.29900
  30
0.00000
  70
32
  0
VERTEX
  5
A31
  100
AcDbEntity
  8
Layer 1
  62
0
  100
AcDb2dVertex
  10
1.14100
  20
0.30400
  30
0.00000
  42
-0.0182
  70
32
  0
VERTEX
  5
A32
  100
AcDbEntity
  8
Layer 1
  62
0
  100
AcDb2dVertex
  10
1.13739
  20
0.34444
  30
0.00000
  70
32
  0
VERTEX
  5
A33
  100
AcDbEntity
  8
Layer 1
  62
0
  100
AcDb2dVertex
  10
1.13600
  20
0.36400
  30
0.00000
  70
32
  0
VERTEX
  5
A34
  100
AcDbEntity
  8
Layer 1
  62
0
  100
AcDb2dVertex
  10
1.13400
  20
0.38400
  30
0.00000
  70
32
  0
VERTEX
  5
A35
  100
AcDbEntity
  8
Layer 1
  62
0
  100
AcDb2dVertex
  10
1.15900
  20
0.39400
  30
0.00000
  70
32
  0
VERTEX
  5
A36
  100
AcDbEntity
  8
Layer 1
  62
0
  100
AcDb2dVertex
  10
1.13400
  20
0.38400
  30
0.00000
  42
-0.0144
  70
32
  0
VERTEX
  5
A37
  100
AcDbEntity
  8
Layer 1
  62
0
  100
AcDb2dVertex
  10
1.10900
  20
0.41700
  30
0.00000
  42
-0.0712
  70
32
  0
VERTEX
  5
A38
  100
AcDbEntity
  8
Layer 1
  62
0
  100
AcDb2dVertex
  10
1.09265
  20
0.44298
  30
0.00000
  42
-0.0887
  70
32
  0
VERTEX
  5
A39
  100
AcDbEntity
  8
Layer 1
  62
0
  100
AcDb2dVertex
  10
1.09100
  20
0.45000
  30
0.00000
  42
-0.2192
  70
32
  0
VERTEX
  5
A3A
  100
AcDbEntity
  8
Layer 1
  62
0
  100
AcDb2dVertex
  10
1.09610
  20
0.45932
  30
0.00000
  42
-0.0780
  70
32
  0
VERTEX
  5
A3B
  100
AcDbEntity
  8
Layer 1
  62
0
  100
AcDb2dVertex
  10
1.11100
  20
0.46800
  30
0.00000
  42
-0.0708
  70
32
  0
VERTEX
  5
A3C
  100
AcDbEntity
  8
Layer 1
  62
0
  100
AcDb2dVertex
  10
1.13689
  20
0.47670
  30
0.00000
  70
32
  0
VERTEX
  5
A3D
  100
AcDbEntity
  8
Layer 1
  62
0
  100
AcDb2dVertex
  10
1.14100
  20
0.47700
  30
0.00000
  42
-0.2680
  70
32
  0
VERTEX
  5
A3E
  100
AcDbEntity
  8
Layer 1
  62
0
  100
AcDb2dVertex
  10
1.14617
  20
0.47316
  30
0.00000
  42
-0.0904
  70
32
  0
VERTEX
  5
A3F
  100
AcDbEntity
  8
Layer 1
  62
0
  100
AcDb2dVertex
  10
1.15121
  20
0.45600
  30
0.00000
  70
32
  0
VERTEX
  5
A40
  100
AcDbEntity
  8
Layer 1
  62
0
  100
AcDb2dVertex
  10
1.15200
  20
0.45000
  30
0.00000
  42
0.0890
  70
32
  0
VERTEX
  5
A41
  100
AcDbEntity
  8
Layer 1
  62
0
  100
AcDb2dVertex
  10
1.15784
  20
0.43091
  30
0.00000
  42
0.2868
  70
32
  0
VERTEX
  5
A42
  100
AcDbEntity
  8
Layer 1
  62
0
  100
AcDb2dVertex
  10
1.16900
  20
0.42400
  30
0.00000
  42
0.1256
  70
32
  0
VERTEX
  5
A43
  100
AcDbEntity
  8
Layer 1
  62
0
  100
AcDb2dVertex
  10
1.18700
  20
0.42900
  30
0.00000
  42
-0.0675
  70
32
  0
VERTEX
  5
A44
  100
AcDbEntity
  8
Layer 1
  62
0
  100
AcDb2dVertex
  10
1.20460
  20
0.43395
  30
0.00000
  70
32
  0
VERTEX
  5
A45
  100
AcDbEntity
  8
Layer 1
  62
0
  100
AcDb2dVertex
  10
1.20600
  20
0.43400
  30
0.00000
  42
-0.1970
  70
32
  0
VERTEX
  5
A46
  100
AcDbEntity
  8
Layer 1
  62
0
  100
AcDb2dVertex
  10
1.22076
  20
0.42903
  30
0.00000
  42
-0.1818
  70
32
  0
VERTEX
  5
A47
  100
AcDbEntity
  8
Layer 1
  62
0
  100
AcDb2dVertex
  10
1.22679
  20
0.41461
  30
0.00000
  70
32
  0
VERTEX
  5
A48
  100
AcDbEntity
  8
Layer 1
  62
0
  100
AcDb2dVertex
  10
1.22700
  20
0.41000
  30
0.00000
  70
32
  0
SEQEND
  5
A49
  100
AcDbEntity
  8
Layer 1
  62
0
  0
POLYLINE
  5
A4A
  100
AcDbEntity
  8
Layer 1
  62
0
  100
AcDb2dPolyline
 66
     1
  10
0
  20
0
  30
0
  70
1
  0
VERTEX
  5
A4B
  100
AcDbEntity
  8
Layer 1
  62
0
  100
AcDb2dVertex
  10
1.51100
  20
0.03400
  30
0.00000
  42
-0.1653
  70
32
  0
VERTEX
  5
A4C
  100
AcDbEntity
  8
Layer 1
  62
0
  100
AcDb2dVertex
  10
1.50641
  20
0.01750
  30
0.00000
  42
-0.1991
  70
32
  0
VERTEX
  5
A4D
  100
AcDbEntity
  8
Layer 1
  62
0
  100
AcDb2dVertex
  10
1.49141
  20
0.00953
  30
0.00000
  42
-0.0386
  70
32
  0
VERTEX
  5
A4E
  100
AcDbEntity
  8
Layer 1
  62
0
  100
AcDb2dVertex
  10
1.48400
  20
0.00900
  30
0.00000
  42
-0.1124
  70
32
  0
VERTEX
  5
A4F
  100
AcDbEntity
  8
Layer 1
  62
0
  100
AcDb2dVertex
  10
1.46115
  20
0.01537
  30
0.00000
  42
-0.0241
  70
32
  0
VERTEX
  5
A50
  100
AcDbEntity
  8
Layer 1
  62
0
  100
AcDb2dVertex
  10
1.45100
  20
0.02100
  30
0.00000
  42
0.0577
  70
32
  0
VERTEX
  5
A51
  100
AcDbEntity
  8
Layer 1
  62
0
  100
AcDb2dVertex
  10
1.42982
  20
0.03284
  30
0.00000
  42
0.0824
  70
32
  0
VERTEX
  5
A52
  100
AcDbEntity
  8
Layer 1
  62
0
  100
AcDb2dVertex
  10
1.42400
  20
0.03400
  30
0.00000
  42
0.0677
  70
32
  0
VERTEX
  5
A53
  100
AcDbEntity
  8
Layer 1
  62
0
  100
AcDb2dVertex
  10
1.41491
  20
0.03000
  30
0.00000
  70
32
  0
VERTEX
  5
A54
  100
AcDbEntity
  8
Layer 1
  62
0
  100
AcDb2dVertex
  10
1.40416
  20
0.02430
  30
0.00000
  70
32
  0
VERTEX
  5
A55
  100
AcDbEntity
  8
Layer 1
  62
0
  100
AcDb2dVertex
  10
1.39800
  20
0.02100
  30
0.00000
  42
-0.1229
  70
32
  0
VERTEX
  5
A56
  100
AcDbEntity
  8
Layer 1
  62
0
  100
AcDb2dVertex
  10
1.35400
  20
0.00900
  30
0.00000
  42
-0.1121
  70
32
  0
VERTEX
  5
A57
  100
AcDbEntity
  8
Layer 1
  62
0
  100
AcDb2dVertex
  10
1.31016
  20
0.01994
  30
0.00000
  42
-0.0686
  70
32
  0
VERTEX
  5
A58
  100
AcDbEntity
  8
Layer 1
  62
0
  100
AcDb2dVertex
  10
1.26167
  20
0.05317
  30
0.00000
  70
32
  0
VERTEX
  5
A59
  100
AcDbEntity
  8
Layer 1
  62
0
  100
AcDb2dVertex
  10
1.25200
  20
0.06200
  30
0.00000
  42
-0.0705
  70
32
  0
VERTEX
  5
A5A
  100
AcDbEntity
  8
Layer 1
  62
0
  100
AcDb2dVertex
  10
1.18737
  20
0.14340
  30
0.00000
  42
-0.0144
  70
32
  0
VERTEX
  5
A5B
  100
AcDbEntity
  8
Layer 1
  62
0
  100
AcDb2dVertex
  10
1.17900
  20
0.15900
  30
0.00000
  70
32
  0
VERTEX
  5
A5C
  100
AcDbEntity
  8
Layer 1
  62
0
  100
AcDb2dVertex
  10
1.18600
  20
0.16700
  30
0.00000
  42
0.0345
  70
32
  0
VERTEX
  5
A5D
  100
AcDbEntity
  8
Layer 1
  62
0
  100
AcDb2dVertex
  10
1.25600
  20
0.09263
  30
0.00000
  42
0.0544
  70
32
  0
VERTEX
  5
A5E
  100
AcDbEntity
  8
Layer 1
  62
0
  100
AcDb2dVertex
  10
1.30490
  20
0.05606
  30
0.00000
  42
0.0909
  70
32
  0
VERTEX
  5
A5F
  100
AcDbEntity
  8
Layer 1
  62
0
  100
AcDb2dVertex
  10
1.34063
  20
0.04267
  30
0.00000
  42
0.0434
  70
32
  0
VERTEX
  5
A60
  100
AcDbEntity
  8
Layer 1
  62
0
  100
AcDb2dVertex
  10
1.35100
  20
0.04200
  30
0.00000
  42
0.1487
  70
32
  0
VERTEX
  5
A61
  100
AcDbEntity
  8
Layer 1
  62
0
  100
AcDb2dVertex
  10
1.39342
  20
0.05534
  30
0.00000
  42
0.1098
  70
32
  0
VERTEX
  5
A62
  100
AcDbEntity
  8
Layer 1
  62
0
  100
AcDb2dVertex
  10
1.41700
  20
0.08200
  30
0.00000
  42
0.0905
  70
32
  0
VERTEX
  5
A63
  100
AcDbEntity
  8
Layer 1
  62
0
  100
AcDb2dVertex
  10
1.43635
  20
0.11784
  30
0.00000
  42
0.0873
  70
32
  0
VERTEX
  5
A64
  100
AcDbEntity
  8
Layer 1
  62
0
  100
AcDb2dVertex
  10
1.43900
  20
0.13900
  30
0.00000
  42
0.1431
  70
32
  0
VERTEX
  5
A65
  100
AcDbEntity
  8
Layer 1
  62
0
  100
AcDb2dVertex
  10
1.41991
  20
0.18579
  30
0.00000
  42
0.0793
  70
32
  0
VERTEX
  5
A66
  100
AcDbEntity
  8
Layer 1
  62
0
  100
AcDb2dVertex
  10
1.38031
  20
0.22213
  30
0.00000
  42
0.0456
  70
32
  0
VERTEX
  5
A67
  100
AcDbEntity
  8
Layer 1
  62
0
  100
AcDb2dVertex
  10
1.32200
  20
0.25400
  30
0.00000
  42
0.0318
  70
32
  0
VERTEX
  5
A68
  100
AcDbEntity
  8
Layer 1
  62
0
  100
AcDb2dVertex
  10
1.28700
  20
0.26500
  30
0.00000
  42
-0.0463
  70
32
  0
VERTEX
  5
A69
  100
AcDbEntity
  8
Layer 1
  62
0
  100
AcDb2dVertex
  10
1.26366
  20
0.27391
  30
0.00000
  42
-0.1904
  70
32
  0
VERTEX
  5
A6A
  100
AcDbEntity
  8
Layer 1
  62
0
  100
AcDb2dVertex
  10
1.25908
  20
0.27833
  30
0.00000
  70
32
  0
VERTEX
  5
A6B
  100
AcDbEntity
  8
Layer 1
  62
0
  100
AcDb2dVertex
  10
1.25900
  20
0.27900
  30
0.00000
  42
-0.3852
  70
32
  0
VERTEX
  5
A6C
  100
AcDbEntity
  8
Layer 1
  62
0
  100
AcDb2dVertex
  10
1.26676
  20
0.28844
  30
0.00000
  42
-0.0596
  70
32
  0
VERTEX
  5
A6D
  100
AcDbEntity
  8
Layer 1
  62
0
  100
AcDb2dVertex
  10
1.27200
  20
0.28900
  30
0.00000
  42
-0.0964
  70
32
  0
VERTEX
  5
A6E
  100
AcDbEntity
  8
Layer 1
  62
0
  100
AcDb2dVertex
  10
1.34351
  20
0.27418
  30
0.00000
  42
-0.0539
  70
32
  0
VERTEX
  5
A6F
  100
AcDbEntity
  8
Layer 1
  62
0
  100
AcDb2dVertex
  10
1.40600
  20
0.24000
  30
0.00000
  42
-0.0788
  70
32
  0
VERTEX
  5
A70
  100
AcDbEntity
  8
Layer 1
  62
0
  100
AcDb2dVertex
  10
1.44953
  20
0.20126
  30
0.00000
  42
-0.1373
  70
32
  0
VERTEX
  5
A71
  100
AcDbEntity
  8
Layer 1
  62
0
  100
AcDb2dVertex
  10
1.47167
  20
0.15092
  30
0.00000
  42
-0.0564
  70
32
  0
VERTEX
  5
A72
  100
AcDbEntity
  8
Layer 1
  62
0
  100
AcDb2dVertex
  10
1.47200
  20
0.12900
  30
0.00000
  42
-0.0214
  70
32
  0
VERTEX
  5
A73
  100
AcDbEntity
  8
Layer 1
  62
0
  100
AcDb2dVertex
  10
1.46743
  20
0.09312
  30
0.00000
  70
32
  0
VERTEX
  5
A74
  100
AcDbEntity
  8
Layer 1
  62
0
  100
AcDb2dVertex
  10
1.46725
  20
0.09258
  30
0.00000
  70
32
  0
VERTEX
  5
A75
  100
AcDbEntity
  8
Layer 1
  62
0
  100
AcDb2dVertex
  10
1.46714
  20
0.09250
  30
0.00000
  70
32
  0
VERTEX
  5
A76
  100
AcDbEntity
  8
Layer 1
  62
0
  100
AcDb2dVertex
  10
1.46700
  20
0.09400
  30
0.00000
  42
0.0252
  70
32
  0
VERTEX
  5
A77
  100
AcDbEntity
  8
Layer 1
  62
0
  100
AcDb2dVertex
  10
1.47100
  20
0.08200
  30
0.00000
  42
0.0147
  70
32
  0
VERTEX
  5
A78
  100
AcDbEntity
  8
Layer 1
  62
0
  100
AcDb2dVertex
  10
1.49600
  20
0.06200
  30
0.00000
  42
-0.1212
  70
32
  0
VERTEX
  5
A79
  100
AcDbEntity
  8
Layer 1
  62
0
  100
AcDb2dVertex
  10
1.50993
  20
0.04081
  30
0.00000
  42
-0.0728
  70
32
  0
VERTEX
  5
A7A
  100
AcDbEntity
  8
Layer 1
  62
0
  100
AcDb2dVertex
  10
1.51100
  20
0.03400
  30
0.00000
  70
32
  0
SEQEND
  5
A7B
  100
AcDbEntity
  8
Layer 1
  62
0
  0
POLYLINE
  5
A7C
  100
AcDbEntity
  8
Layer 1
  62
0
  100
AcDb2dPolyline
 66
     1
  10
0
  20
0
  30
0
  70
1
  0
VERTEX
  5
A7D
  100
AcDbEntity
  8
Layer 1
  62
0
  100
AcDb2dVertex
  10
0.52700
  20
1.01500
  30
0.00000
  42
-0.2672
  70
32
  0
VERTEX
  5
A7E
  100
AcDbEntity
  8
Layer 1
  62
0
  100
AcDb2dVertex
  10
0.52200
  20
1.00750
  30
0.00000
  42
-0.0976
  70
32
  0
VERTEX
  5
A7F
  100
AcDbEntity
  8
Layer 1
  62
0
  100
AcDb2dVertex
  10
0.50408
  20
1.00190
  30
0.00000
  70
32
  0
VERTEX
  5
A80
  100
AcDbEntity
  8
Layer 1
  62
0
  100
AcDb2dVertex
  10
0.49700
  20
1.00100
  30
0.00000
  42
0.0727
  70
32
  0
VERTEX
  5
A81
  100
AcDbEntity
  8
Layer 1
  62
0
  100
AcDb2dVertex
  10
0.47480
  20
0.99638
  30
0.00000
  42
0.2104
  70
32
  0
VERTEX
  5
A82
  100
AcDbEntity
  8
Layer 1
  62
0
  100
AcDb2dVertex
  10
0.46746
  20
0.98980
  30
0.00000
  42
0.0858
  70
32
  0
VERTEX
  5
A83
  100
AcDbEntity
  8
Layer 1
  62
0
  100
AcDb2dVertex
  10
0.46700
  20
0.98700
  30
0.00000
  42
0.1158
  70
32
  0
VERTEX
  5
A84
  100
AcDbEntity
  8
Layer 1
  62
0
  100
AcDb2dVertex
  10
0.47194
  20
0.97076
  30
0.00000
  42
0.0234
  70
32
  0
VERTEX
  5
A85
  100
AcDbEntity
  8
Layer 1
  62
0
  100
AcDb2dVertex
  10
0.47700
  20
0.96200
  30
0.00000
  42
-0.1016
  70
32
  0
VERTEX
  5
A86
  100
AcDbEntity
  8
Layer 1
  62
0
  100
AcDb2dVertex
  10
0.48666
  20
0.93928
  30
0.00000
  70
32
  0
VERTEX
  5
A87
  100
AcDbEntity
  8
Layer 1
  62
0
  100
AcDb2dVertex
  10
0.48700
  20
0.93500
  30
0.00000
  42
-0.1843
  70
32
  0
VERTEX
  5
A88
  100
AcDbEntity
  8
Layer 1
  62
0
  100
AcDb2dVertex
  10
0.48150
  20
0.91780
  30
0.00000
  42
-0.1908
  70
32
  0
VERTEX
  5
A89
  100
AcDbEntity
  8
Layer 1
  62
0
  100
AcDb2dVertex
  10
0.46522
  20
0.91028
  30
0.00000
  70
32
  0
VERTEX
  5
A8A
  100
AcDbEntity
  8
Layer 1
  62
0
  100
AcDb2dVertex
  10
0.46000
  20
0.91000
  30
0.00000
  42
-0.1704
  70
32
  0
VERTEX
  5
A8B
  100
AcDbEntity
  8
Layer 1
  62
0
  100
AcDb2dVertex
  10
0.44573
  20
0.91615
  30
0.00000
  42
-0.0779
  70
32
  0
VERTEX
  5
A8C
  100
AcDbEntity
  8
Layer 1
  62
0
  100
AcDb2dVertex
  10
0.43300
  20
0.93100
  30
0.00000
  42
0.0858
  70
32
  0
VERTEX
  5
A8D
  100
AcDbEntity
  8
Layer 1
  62
0
  100
AcDb2dVertex
  10
0.41793
  20
0.94876
  30
0.00000
  42
0.1586
  70
32
  0
VERTEX
  5
A8E
  100
AcDbEntity
  8
Layer 1
  62
0
  100
AcDb2dVertex
  10
0.41000
  20
0.95200
  30
0.00000
  42
0.1849
  70
32
  0
VERTEX
  5
A8F
  100
AcDbEntity
  8
Layer 1
  62
0
  100
AcDb2dVertex
  10
0.40218
  20
0.94780
  30
0.00000
  42
0.0693
  70
32
  0
VERTEX
  5
A90
  100
AcDbEntity
  8
Layer 1
  62
0
  100
AcDb2dVertex
  10
0.39000
  20
0.93100
  30
0.00000
  42
-0.0778
  70
32
  0
VERTEX
  5
A91
  100
AcDbEntity
  8
Layer 1
  62
0
  100
AcDb2dVertex
  10
0.37855
  20
0.91343
  30
0.00000
  42
-0.1936
  70
32
  0
VERTEX
  5
A92
  100
AcDbEntity
  8
Layer 1
  62
0
  100
AcDb2dVertex
  10
0.37200
  20
0.91000
  30
0.00000
  42
-0.1912
  70
32
  0
VERTEX
  5
A93
  100
AcDbEntity
  8
Layer 1
  62
0
  100
AcDb2dVertex
  10
0.36634
  20
0.91346
  30
0.00000
  42
-0.0549
  70
32
  0
VERTEX
  5
A94
  100
AcDbEntity
  8
Layer 1
  62
0
  100
AcDb2dVertex
  10
0.35275
  20
0.93358
  30
0.00000
  42
-0.0131
  70
32
  0
VERTEX
  5
A95
  100
AcDbEntity
  8
Layer 1
  62
0
  100
AcDb2dVertex
  10
0.33000
  20
0.97700
  30
0.00000
  42
-0.0235
  70
32
  0
VERTEX
  5
A96
  100
AcDbEntity
  8
Layer 1
  62
0
  100
AcDb2dVertex
  10
0.38963
  20
0.99904
  30
0.00000
  70
32
  0
VERTEX
  5
A97
  100
AcDbEntity
  8
Layer 1
  62
0
  100
AcDb2dVertex
  10
0.42000
  20
1.00900
  30
0.00000
  70
32
  0
VERTEX
  5
A98
  100
AcDbEntity
  8
Layer 1
  62
0
  100
AcDb2dVertex
  10
0.43400
  20
0.98200
  30
0.00000
  70
32
  0
VERTEX
  5
A99
  100
AcDbEntity
  8
Layer 1
  62
0
  100
AcDb2dVertex
  10
0.42000
  20
1.00900
  30
0.00000
  42
-0.0490
  70
32
  0
VERTEX
  5
A9A
  100
AcDbEntity
  8
Layer 1
  62
0
  100
AcDb2dVertex
  10
0.48900
  20
1.07700
  30
0.00000
  42
-0.0269
  70
32
  0
VERTEX
  5
A9B
  100
AcDbEntity
  8
Layer 1
  62
0
  100
AcDb2dVertex
  10
0.52093
  20
1.02987
  30
0.00000
  42
-0.0803
  70
32
  0
VERTEX
  5
A9C
  100
AcDbEntity
  8
Layer 1
  62
0
  100
AcDb2dVertex
  10
0.52692
  20
1.01605
  30
0.00000
  70
32
  0
VERTEX
  5
A9D
  100
AcDbEntity
  8
Layer 1
  62
0
  100
AcDb2dVertex
  10
0.52700
  20
1.01500
  30
0.00000
  70
32
  0
SEQEND
  5
A9E
  100
AcDbEntity
  8
Layer 1
  62
0
  0
POLYLINE
  5
A9F
  100
AcDbEntity
  8
Layer 1
  62
0
  100
AcDb2dPolyline
 66
     1
  10
0
  20
0
  30
0
  70
1
  0
VERTEX
  5
AA0
  100
AcDbEntity
  8
Layer 1
  62
0
  100
AcDb2dVertex
  10
0.91900
  20
0.72200
  30
0.00000
  42
-0.1540
  70
32
  0
VERTEX
  5
AA1
  100
AcDbEntity
  8
Layer 1
  62
0
  100
AcDb2dVertex
  10
0.91396
  20
0.70951
  30
0.00000
  42
-0.0564
  70
32
  0
VERTEX
  5
AA2
  100
AcDbEntity
  8
Layer 1
  62
0
  100
AcDb2dVertex
  10
0.89600
  20
0.69100
  30
0.00000
  42
0.0606
  70
32
  0
VERTEX
  5
AA3
  100
AcDbEntity
  8
Layer 1
  62
0
  100
AcDb2dVertex
  10
0.87704
  20
0.67136
  30
0.00000
  42
0.1411
  70
32
  0
VERTEX
  5
AA4
  100
AcDbEntity
  8
Layer 1
  62
0
  100
AcDb2dVertex
  10
0.87400
  20
0.66400
  30
0.00000
  42
0.0760
  70
32
  0
VERTEX
  5
AA5
  100
AcDbEntity
  8
Layer 1
  62
0
  100
AcDb2dVertex
  10
0.87986
  20
0.63531
  30
0.00000
  70
32
  0
VERTEX
  5
AA6
  100
AcDbEntity
  8
Layer 1
  62
0
  100
AcDb2dVertex
  10
0.88100
  20
0.63200
  30
0.00000
  42
-0.0452
  70
32
  0
VERTEX
  5
AA7
  100
AcDbEntity
  8
Layer 1
  62
0
  100
AcDb2dVertex
  10
0.88690
  20
0.60282
  30
0.00000
  70
32
  0
VERTEX
  5
AA8
  100
AcDbEntity
  8
Layer 1
  62
0
  100
AcDb2dVertex
  10
0.88700
  20
0.60000
  30
0.00000
  42
-0.1452
  70
32
  0
VERTEX
  5
AA9
  100
AcDbEntity
  8
Layer 1
  62
0
  100
AcDb2dVertex
  10
0.87229
  20
0.55268
  30
0.00000
  42
-0.0828
  70
32
  0
VERTEX
  5
AAA
  100
AcDbEntity
  8
Layer 1
  62
0
  100
AcDb2dVertex
  10
0.83600
  20
0.51400
  30
0.00000
  42
-0.0780
  70
32
  0
VERTEX
  5
AAB
  100
AcDbEntity
  8
Layer 1
  62
0
  100
AcDb2dVertex
  10
0.78444
  20
0.48131
  30
0.00000
  42
-0.0989
  70
32
  0
VERTEX
  5
AAC
  100
AcDbEntity
  8
Layer 1
  62
0
  100
AcDb2dVertex
  10
0.74000
  20
0.47200
  30
0.00000
  70
32
  0
VERTEX
  5
AAD
  100
AcDbEntity
  8
Layer 1
  62
0
  100
AcDb2dVertex
  10
0.72900
  20
0.48000
  30
0.00000
  42
0.0063
  70
32
  0
VERTEX
  5
AAE
  100
AcDbEntity
  8
Layer 1
  62
0
  100
AcDb2dVertex
  10
0.77385
  20
0.50665
  30
0.00000
  70
32
  0
VERTEX
  5
AAF
  100
AcDbEntity
  8
Layer 1
  62
0
  100
AcDb2dVertex
  10
0.79100
  20
0.51700
  30
0.00000
  42
0.0776
  70
32
  0
VERTEX
  5
AB0
  100
AcDbEntity
  8
Layer 1
  62
0
  100
AcDb2dVertex
  10
0.83134
  20
0.55225
  30
0.00000
  42
0.1357
  70
32
  0
VERTEX
  5
AB1
  100
AcDbEntity
  8
Layer 1
  62
0
  100
AcDb2dVertex
  10
0.85117
  20
0.59549
  30
0.00000
  42
0.0363
  70
32
  0
VERTEX
  5
AB2
  100
AcDbEntity
  8
Layer 1
  62
0
  100
AcDb2dVertex
  10
0.85200
  20
0.60700
  30
0.00000
  42
0.1630
  70
32
  0
VERTEX
  5
AB3
  100
AcDbEntity
  8
Layer 1
  62
0
  100
AcDb2dVertex
  10
0.83100
  20
0.66900
  30
0.00000
  42
0.1659
  70
32
  0
VERTEX
  5
AB4
  100
AcDbEntity
  8
Layer 1
  62
0
  100
AcDb2dVertex
  10
0.77995
  20
0.68966
  30
0.00000
  70
32
  0
VERTEX
  5
AB5
  100
AcDbEntity
  8
Layer 1
  62
0
  100
AcDb2dVertex
  10
0.77100
  20
0.69000
  30
0.00000
  42
0.1736
  70
32
  0
VERTEX
  5
AB6
  100
AcDbEntity
  8
Layer 1
  62
0
  100
AcDb2dVertex
  10
0.72102
  20
0.67193
  30
0.00000
  42
0.0844
  70
32
  0
VERTEX
  5
AB7
  100
AcDbEntity
  8
Layer 1
  62
0
  100
AcDb2dVertex
  10
0.68887
  20
0.63466
  30
0.00000
  70
32
  0
VERTEX
  5
AB8
  100
AcDbEntity
  8
Layer 1
  62
0
  100
AcDb2dVertex
  10
0.68600
  20
0.63000
  30
0.00000
  42
-0.0113
  70
32
  0
VERTEX
  5
AB9
  100
AcDbEntity
  8
Layer 1
  62
0
  100
AcDb2dVertex
  10
0.64893
  20
0.57224
  30
0.00000
  42
-0.0918
  70
32
  0
VERTEX
  5
ABA
  100
AcDbEntity
  8
Layer 1
  62
0
  100
AcDb2dVertex
  10
0.64700
  20
0.57000
  30
0.00000
  70
32
  0
VERTEX
  5
ABB
  100
AcDbEntity
  8
Layer 1
  62
0
  100
AcDb2dVertex
  10
0.63500
  20
0.58200
  30
0.00000
  42
-0.1142
  70
32
  0
VERTEX
  5
ABC
  100
AcDbEntity
  8
Layer 1
  62
0
  100
AcDb2dVertex
  10
0.65156
  20
0.63320
  30
0.00000
  42
-0.0621
  70
32
  0
VERTEX
  5
ABD
  100
AcDbEntity
  8
Layer 1
  62
0
  100
AcDb2dVertex
  10
0.68300
  20
0.67400
  30
0.00000
  42
-0.0671
  70
32
  0
VERTEX
  5
ABE
  100
AcDbEntity
  8
Layer 1
  62
0
  100
AcDb2dVertex
  10
0.72496
  20
0.70944
  30
0.00000
  42
-0.1182
  70
32
  0
VERTEX
  5
ABF
  100
AcDbEntity
  8
Layer 1
  62
0
  100
AcDb2dVertex
  10
0.76607
  20
0.72376
  30
0.00000
  70
32
  0
VERTEX
  5
AC0
  100
AcDbEntity
  8
Layer 1
  62
0
  100
AcDb2dVertex
  10
0.77200
  20
0.72400
  30
0.00000
  42
-0.0673
  70
32
  0
VERTEX
  5
AC1
  100
AcDbEntity
  8
Layer 1
  62
0
  100
AcDb2dVertex
  10
0.79540
  20
0.71967
  30
0.00000
  70
32
  0
VERTEX
  5
AC2
  100
AcDbEntity
  8
Layer 1
  62
0
  100
AcDb2dVertex
  10
0.80100
  20
0.71800
  30
0.00000
  42
0.0662
  70
32
  0
VERTEX
  5
AC3
  100
AcDbEntity
  8
Layer 1
  62
0
  100
AcDb2dVertex
  10
0.82719
  20
0.71204
  30
0.00000
  70
32
  0
VERTEX
  5
AC4
  100
AcDbEntity
  8
Layer 1
  62
0
  100
AcDb2dVertex
  10
0.82900
  20
0.71200
  30
0.00000
  42
0.1298
  70
32
  0
VERTEX
  5
AC5
  100
AcDbEntity
  8
Layer 1
  62
0
  100
AcDb2dVertex
  10
0.84218
  20
0.71668
  30
0.00000
  42
0.0419
  70
32
  0
VERTEX
  5
AC6
  100
AcDbEntity
  8
Layer 1
  62
0
  100
AcDb2dVertex
  10
0.86000
  20
0.73000
  30
0.00000
  42
-0.0791
  70
32
  0
VERTEX
  5
AC7
  100
AcDbEntity
  8
Layer 1
  62
0
  100
AcDb2dVertex
  10
0.88254
  20
0.74622
  30
0.00000
  42
-0.1063
  70
32
  0
VERTEX
  5
AC8
  100
AcDbEntity
  8
Layer 1
  62
0
  100
AcDb2dVertex
  10
0.89400
  20
0.74900
  30
0.00000
  42
-0.1653
  70
32
  0
VERTEX
  5
AC9
  100
AcDbEntity
  8
Layer 1
  62
0
  100
AcDb2dVertex
  10
0.91050
  20
0.74441
  30
0.00000
  42
-0.1991
  70
32
  0
VERTEX
  5
ACA
  100
AcDbEntity
  8
Layer 1
  62
0
  100
AcDb2dVertex
  10
0.91847
  20
0.72941
  30
0.00000
  42
-0.0386
  70
32
  0
VERTEX
  5
ACB
  100
AcDbEntity
  8
Layer 1
  62
0
  100
AcDb2dVertex
  10
0.91900
  20
0.72200
  30
0.00000
  70
32
  0
SEQEND
  5
ACC
  100
AcDbEntity
  8
Layer 1
  62
0
  0
POLYLINE
  5
ACD
  100
AcDbEntity
  8
Layer 1
  62
0
  100
AcDb2dPolyline
 66
     1
  10
0
  20
0
  30
0
  70
1
  0
VERTEX
  5
ACE
  100
AcDbEntity
  8
Layer 1
  62
0
  100
AcDb2dVertex
  10
1.36100
  20
0.12700
  30
0.00000
  70
32
  0
VERTEX
  5
ACF
  100
AcDbEntity
  8
Layer 1
  62
0
  100
AcDb2dVertex
  10
1.35100
  20
0.11400
  30
0.00000
  70
32
  0
VERTEX
  5
AD0
  100
AcDbEntity
  8
Layer 1
  62
0
  100
AcDb2dVertex
  10
1.33900
  20
0.11900
  30
0.00000
  70
32
  0
VERTEX
  5
AD1
  100
AcDbEntity
  8
Layer 1
  62
0
  100
AcDb2dVertex
  10
1.31650
  20
0.16837
  30
0.00000
  42
0.0172
  70
32
  0
VERTEX
  5
AD2
  100
AcDbEntity
  8
Layer 1
  62
0
  100
AcDb2dVertex
  10
1.30600
  20
0.19000
  30
0.00000
  42
0.1010
  70
32
  0
VERTEX
  5
AD3
  100
AcDbEntity
  8
Layer 1
  62
0
  100
AcDb2dVertex
  10
1.27799
  20
0.21925
  30
0.00000
  42
0.1496
  70
32
  0
VERTEX
  5
AD4
  100
AcDbEntity
  8
Layer 1
  62
0
  100
AcDb2dVertex
  10
1.24200
  20
0.23000
  30
0.00000
  42
0.1391
  70
32
  0
VERTEX
  5
AD5
  100
AcDbEntity
  8
Layer 1
  62
0
  100
AcDb2dVertex
  10
1.19986
  20
0.21738
  30
0.00000
  42
0.0605
  70
32
  0
VERTEX
  5
AD6
  100
AcDbEntity
  8
Layer 1
  62
0
  100
AcDb2dVertex
  10
1.17200
  20
0.19500
  30
0.00000
  70
32
  0
VERTEX
  5
AD7
  100
AcDbEntity
  8
Layer 1
  62
0
  100
AcDb2dVertex
  10
1.15200
  20
0.21400
  30
0.00000
  70
32
  0
VERTEX
  5
AD8
  100
AcDbEntity
  8
Layer 1
  62
0
  100
AcDb2dVertex
  10
1.17200
  20
0.19500
  30
0.00000
  42
0.0916
  70
32
  0
VERTEX
  5
AD9
  100
AcDbEntity
  8
Layer 1
  62
0
  100
AcDb2dVertex
  10
1.14911
  20
0.16168
  30
0.00000
  42
0.0996
  70
32
  0
VERTEX
  5
ADA
  100
AcDbEntity
  8
Layer 1
  62
0
  100
AcDb2dVertex
  10
1.14400
  20
0.13700
  30
0.00000
  42
0.1764
  70
32
  0
VERTEX
  5
ADB
  100
AcDbEntity
  8
Layer 1
  62
0
  100
AcDb2dVertex
  10
1.16059
  20
0.08791
  30
0.00000
  42
0.0597
  70
32
  0
VERTEX
  5
ADC
  100
AcDbEntity
  8
Layer 1
  62
0
  100
AcDb2dVertex
  10
1.17700
  20
0.07200
  30
0.00000
  42
0.0638
  70
32
  0
VERTEX
  5
ADD
  100
AcDbEntity
  8
Layer 1
  62
0
  100
AcDb2dVertex
  10
1.20454
  20
0.05636
  30
0.00000
  42
0.0185
  70
32
  0
VERTEX
  5
ADE
  100
AcDbEntity
  8
Layer 1
  62
0
  100
AcDb2dVertex
  10
1.23600
  20
0.04400
  30
0.00000
  42
-0.0579
  70
32
  0
VERTEX
  5
ADF
  100
AcDbEntity
  8
Layer 1
  62
0
  100
AcDb2dVertex
  10
1.26274
  20
0.03159
  30
0.00000
  42
-0.1550
  70
32
  0
VERTEX
  5
AE0
  100
AcDbEntity
  8
Layer 1
  62
0
  100
AcDb2dVertex
  10
1.26881
  20
0.02517
  30
0.00000
  70
32
  0
VERTEX
  5
AE1
  100
AcDbEntity
  8
Layer 1
  62
0
  100
AcDb2dVertex
  10
1.26900
  20
0.02400
  30
0.00000
  42
-0.3818
  70
32
  0
VERTEX
  5
AE2
  100
AcDbEntity
  8
Layer 1
  62
0
  100
AcDb2dVertex
  10
1.26187
  20
0.01490
  30
0.00000
  42
-0.0681
  70
32
  0
VERTEX
  5
AE3
  100
AcDbEntity
  8
Layer 1
  62
0
  100
AcDb2dVertex
  10
1.25400
  20
0.01400
  30
0.00000
  42
-0.1381
  70
32
  0
VERTEX
  5
AE4
  100
AcDbEntity
  8
Layer 1
  62
0
  100
AcDb2dVertex
  10
1.17404
  20
0.03526
  30
0.00000
  42
-0.0321
  70
32
  0
VERTEX
  5
AE5
  100
AcDbEntity
  8
Layer 1
  62
0
  100
AcDb2dVertex
  10
1.15700
  20
0.04700
  30
0.00000
  42
-0.1260
  70
32
  0
VERTEX
  5
AE6
  100
AcDbEntity
  8
Layer 1
  62
0
  100
AcDb2dVertex
  10
1.12058
  20
0.09016
  30
0.00000
  42
-0.1105
  70
32
  0
VERTEX
  5
AE7
  100
AcDbEntity
  8
Layer 1
  62
0
  100
AcDb2dVertex
  10
1.11100
  20
0.13500
  30
0.00000
  42
-0.0511
  70
32
  0
VERTEX
  5
AE8
  100
AcDbEntity
  8
Layer 1
  62
0
  100
AcDb2dVertex
  10
1.11564
  20
0.16541
  30
0.00000
  70
32
  0
VERTEX
  5
AE9
  100
AcDbEntity
  8
Layer 1
  62
0
  100
AcDb2dVertex
  10
1.11600
  20
0.16700
  30
0.00000
  42
0.0558
  70
32
  0
VERTEX
  5
AEA
  100
AcDbEntity
  8
Layer 1
  62
0
  100
AcDb2dVertex
  10
1.12198
  20
0.19417
  30
0.00000
  70
32
  0
VERTEX
  5
AEB
  100
AcDbEntity
  8
Layer 1
  62
0
  100
AcDb2dVertex
  10
1.12200
  20
0.19500
  30
0.00000
  42
0.1589
  70
32
  0
VERTEX
  5
AEC
  100
AcDbEntity
  8
Layer 1
  62
0
  100
AcDb2dVertex
  10
1.11748
  20
0.20548
  30
0.00000
  42
0.0539
  70
32
  0
VERTEX
  5
AED
  100
AcDbEntity
  8
Layer 1
  62
0
  100
AcDb2dVertex
  10
1.10300
  20
0.22000
  30
0.00000
  42
-0.1186
  70
32
  0
VERTEX
  5
AEE
  100
AcDbEntity
  8
Layer 1
  62
0
  100
AcDb2dVertex
  10
1.08672
  20
0.24054
  30
0.00000
  42
-0.1007
  70
32
  0
VERTEX
  5
AEF
  100
AcDbEntity
  8
Layer 1
  62
0
  100
AcDb2dVertex
  10
1.08400
  20
0.25400
  30
0.00000
  42
-0.1682
  70
32
  0
VERTEX
  5
AF0
  100
AcDbEntity
  8
Layer 1
  62
0
  100
AcDb2dVertex
  10
1.08893
  20
0.27123
  30
0.00000
  42
-0.1970
  70
32
  0
VERTEX
  5
AF1
  100
AcDbEntity
  8
Layer 1
  62
0
  100
AcDb2dVertex
  10
1.10468
  20
0.27949
  30
0.00000
  42
-0.0377
  70
32
  0
VERTEX
  5
AF2
  100
AcDbEntity
  8
Layer 1
  62
0
  100
AcDb2dVertex
  10
1.11200
  20
0.28000
  30
0.00000
  42
-0.1326
  70
32
  0
VERTEX
  5
AF3
  100
AcDbEntity
  8
Layer 1
  62
0
  100
AcDb2dVertex
  10
1.12702
  20
0.27482
  30
0.00000
  42
-0.0402
  70
32
  0
VERTEX
  5
AF4
  100
AcDbEntity
  8
Layer 1
  62
0
  100
AcDb2dVertex
  10
1.14300
  20
0.26300
  30
0.00000
  42
0.0863
  70
32
  0
VERTEX
  5
AF5
  100
AcDbEntity
  8
Layer 1
  62
0
  100
AcDb2dVertex
  10
1.16558
  20
0.24730
  30
0.00000
  42
0.0978
  70
32
  0
VERTEX
  5
AF6
  100
AcDbEntity
  8
Layer 1
  62
0
  100
AcDb2dVertex
  10
1.17600
  20
0.24500
  30
0.00000
  42
0.0673
  70
32
  0
VERTEX
  5
AF7
  100
AcDbEntity
  8
Layer 1
  62
0
  100
AcDb2dVertex
  10
1.19071
  20
0.24882
  30
0.00000
  70
32
  0
VERTEX
  5
AF8
  100
AcDbEntity
  8
Layer 1
  62
0
  100
AcDb2dVertex
  10
1.20200
  20
0.25300
  30
0.00000
  42
-0.0873
  70
32
  0
VERTEX
  5
AF9
  100
AcDbEntity
  8
Layer 1
  62
0
  100
AcDb2dVertex
  10
1.23900
  20
0.26000
  30
0.00000
  42
-0.1686
  70
32
  0
VERTEX
  5
AFA
  100
AcDbEntity
  8
Layer 1
  62
0
  100
AcDb2dVertex
  10
1.30029
  20
0.24000
  30
0.00000
  42
-0.1015
  70
32
  0
VERTEX
  5
AFB
  100
AcDbEntity
  8
Layer 1
  62
0
  100
AcDb2dVertex
  10
1.33412
  20
0.19972
  30
0.00000
  42
-0.0644
  70
32
  0
VERTEX
  5
AFC
  100
AcDbEntity
  8
Layer 1
  62
0
  100
AcDb2dVertex
  10
1.35855
  20
0.13684
  30
0.00000
  70
32
  0
VERTEX
  5
AFD
  100
AcDbEntity
  8
Layer 1
  62
0
  100
AcDb2dVertex
  10
1.36100
  20
0.12700
  30
0.00000
  70
32
  0
SEQEND
  5
AFE
  100
AcDbEntity
  8
Layer 1
  62
0
  0
POLYLINE
  5
AFF
  100
AcDbEntity
  8
Layer 1
  62
0
  100
AcDb2dPolyline
 66
     1
  10
0
  20
0
  30
0
  70
1
  0
VERTEX
  5
B00
  100
AcDbEntity
  8
Layer 1
  62
0
  100
AcDb2dVertex
  10
0.25900
  20
1.19000
  30
0.00000
  42
-0.2483
  70
32
  0
VERTEX
  5
B01
  100
AcDbEntity
  8
Layer 1
  62
0
  100
AcDb2dVertex
  10
0.25454
  20
1.18088
  30
0.00000
  42
-0.0906
  70
32
  0
VERTEX
  5
B02
  100
AcDbEntity
  8
Layer 1
  62
0
  100
AcDb2dVertex
  10
0.23670
  20
1.17163
  30
0.00000
  42
-0.0359
  70
32
  0
VERTEX
  5
B03
  100
AcDbEntity
  8
Layer 1
  62
0
  100
AcDb2dVertex
  10
0.19900
  20
1.16200
  30
0.00000
  70
32
  0
VERTEX
  5
B04
  100
AcDbEntity
  8
Layer 1
  62
0
  100
AcDb2dVertex
  10
0.13000
  20
1.14700
  30
0.00000
  70
32
  0
VERTEX
  5
B05
  100
AcDbEntity
  8
Layer 1
  62
0
  100
AcDb2dVertex
  10
0.19900
  20
1.16200
  30
0.00000
  70
32
  0
VERTEX
  5
B06
  100
AcDbEntity
  8
Layer 1
  62
0
  100
AcDb2dVertex
  10
0.19900
  20
1.14700
  30
0.00000
  70
32
  0
VERTEX
  5
B07
  100
AcDbEntity
  8
Layer 1
  62
0
  100
AcDb2dVertex
  10
0.18700
  20
1.12500
  30
0.00000
  42
-0.0602
  70
32
  0
VERTEX
  5
B08
  100
AcDbEntity
  8
Layer 1
  62
0
  100
AcDb2dVertex
  10
0.16161
  20
1.12058
  30
0.00000
  42
-0.0207
  70
32
  0
VERTEX
  5
B09
  100
AcDbEntity
  8
Layer 1
  62
0
  100
AcDb2dVertex
  10
0.11400
  20
1.11900
  30
0.00000
  42
-0.0344
  70
32
  0
VERTEX
  5
B0A
  100
AcDbEntity
  8
Layer 1
  62
0
  100
AcDb2dVertex
  10
0.04371
  20
1.12289
  30
0.00000
  42
-0.0679
  70
32
  0
VERTEX
  5
B0B
  100
AcDbEntity
  8
Layer 1
  62
0
  100
AcDb2dVertex
  10
0.01005
  20
1.13151
  30
0.00000
  70
32
  0
VERTEX
  5
B0C
  100
AcDbEntity
  8
Layer 1
  62
0
  100
AcDb2dVertex
  10
0.00900
  20
1.13200
  30
0.00000
  42
-0.0456
  70
32
  0
VERTEX
  5
B0D
  100
AcDbEntity
  8
Layer 1
  62
0
  100
AcDb2dVertex
  10
0.00246
  20
1.16541
  30
0.00000
  70
32
  0
VERTEX
  5
B0E
  100
AcDbEntity
  8
Layer 1
  62
0
  100
AcDb2dVertex
  10
0.00200
  20
1.16900
  30
0.00000
  70
32
  0
VERTEX
  5
B0F
  100
AcDbEntity
  8
Layer 1
  62
0
  100
AcDb2dVertex
  10
0.00000
  20
1.22200
  30
0.00000
  70
32
  0
VERTEX
  5
B10
  100
AcDbEntity
  8
Layer 1
  62
0
  100
AcDb2dVertex
  10
0.07200
  20
1.22900
  30
0.00000
  70
32
  0
VERTEX
  5
B11
  100
AcDbEntity
  8
Layer 1
  62
0
  100
AcDb2dVertex
  10
0.00000
  20
1.22200
  30
0.00000
  70
32
  0
VERTEX
  5
B12
  100
AcDbEntity
  8
Layer 1
  62
0
  100
AcDb2dVertex
  10
0.00200
  20
1.28700
  30
0.00000
  42
-0.0776
  70
32
  0
VERTEX
  5
B13
  100
AcDbEntity
  8
Layer 1
  62
0
  100
AcDb2dVertex
  10
0.00900
  20
1.30700
  30
0.00000
  42
-0.0763
  70
32
  0
VERTEX
  5
B14
  100
AcDbEntity
  8
Layer 1
  62
0
  100
AcDb2dVertex
  10
0.05189
  20
1.32039
  30
0.00000
  42
-0.0426
  70
32
  0
VERTEX
  5
B15
  100
AcDbEntity
  8
Layer 1
  62
0
  100
AcDb2dVertex
  10
0.11400
  20
1.32500
  30
0.00000
  70
32
  0
VERTEX
  5
B16
  100
AcDbEntity
  8
Layer 1
  62
0
  100
AcDb2dVertex
  10
0.14850
  20
1.32488
  30
0.00000
  42
-0.0339
  70
32
  0
VERTEX
  5
B17
  100
AcDbEntity
  8
Layer 1
  62
0
  100
AcDb2dVertex
  10
0.16500
  20
1.32400
  30
0.00000
  42
-0.1949
  70
32
  0
VERTEX
  5
B18
  100
AcDbEntity
  8
Layer 1
  62
0
  100
AcDb2dVertex
  10
0.18841
  20
1.30833
  30
0.00000
  42
-0.0919
  70
32
  0
VERTEX
  5
B19
  100
AcDbEntity
  8
Layer 1
  62
0
  100
AcDb2dVertex
  10
0.19500
  20
1.29200
  30
0.00000
  70
32
  0
VERTEX
  5
B1A
  100
AcDbEntity
  8
Layer 1
  62
0
  100
AcDb2dVertex
  10
0.19500
  20
1.28000
  30
0.00000
  70
32
  0
VERTEX
  5
B1B
  100
AcDbEntity
  8
Layer 1
  62
0
  100
AcDb2dVertex
  10
0.13000
  20
1.28900
  30
0.00000
  70
32
  0
VERTEX
  5
B1C
  100
AcDbEntity
  8
Layer 1
  62
0
  100
AcDb2dVertex
  10
0.19500
  20
1.28000
  30
0.00000
  70
32
  0
VERTEX
  5
B1D
  100
AcDbEntity
  8
Layer 1
  62
0
  100
AcDb2dVertex
  10
0.19799
  20
1.27934
  30
0.00000
  42
-0.0106
  70
32
  0
VERTEX
  5
B1E
  100
AcDbEntity
  8
Layer 1
  62
0
  100
AcDb2dVertex
  10
0.23700
  20
1.27000
  30
0.00000
  42
-0.2262
  70
32
  0
VERTEX
  5
B1F
  100
AcDbEntity
  8
Layer 1
  62
0
  100
AcDb2dVertex
  10
0.25049
  20
1.25868
  30
0.00000
  42
-0.0987
  70
32
  0
VERTEX
  5
B20
  100
AcDbEntity
  8
Layer 1
  62
0
  100
AcDb2dVertex
  10
0.25652
  20
1.23425
  30
0.00000
  42
-0.0207
  70
32
  0
VERTEX
  5
B21
  100
AcDbEntity
  8
Layer 1
  62
0
  100
AcDb2dVertex
  10
0.25700
  20
1.22200
  30
0.00000
  70
32
  0
VERTEX
  5
B22
  100
AcDbEntity
  8
Layer 1
  62
0
  100
AcDb2dVertex
  10
0.25900
  20
1.19000
  30
0.00000
  70
32
  0
SEQEND
  5
B23
  100
AcDbEntity
  8
Layer 1
  62
0
  0
POLYLINE
  5
B24
  100
AcDbEntity
  8
Layer 1
  62
0
  100
AcDb2dPolyline
 66
     1
  10
0
  20
0
  30
0
  70
1
  0
VERTEX
  5
B25
  100
AcDbEntity
  8
Layer 1
  62
0
  100
AcDb2dVertex
  10
0.68200
  20
0.71900
  30
0.00000
  42
-0.1386
  70
32
  0
VERTEX
  5
B26
  100
AcDbEntity
  8
Layer 1
  62
0
  100
AcDb2dVertex
  10
0.67839
  20
0.71147
  30
0.00000
  42
-0.0408
  70
32
  0
VERTEX
  5
B27
  100
AcDbEntity
  8
Layer 1
  62
0
  100
AcDb2dVertex
  10
0.65539
  20
0.68696
  30
0.00000
  70
32
  0
VERTEX
  5
B28
  100
AcDbEntity
  8
Layer 1
  62
0
  100
AcDb2dVertex
  10
0.63700
  20
0.67000
  30
0.00000
  70
32
  0
VERTEX
  5
B29
  100
AcDbEntity
  8
Layer 1
  62
0
  100
AcDb2dVertex
  10
0.62500
  20
0.67900
  30
0.00000
  70
32
  0
VERTEX
  5
B2A
  100
AcDbEntity
  8
Layer 1
  62
0
  100
AcDb2dVertex
  10
0.63700
  20
0.67000
  30
0.00000
  42
-0.0501
  70
32
  0
VERTEX
  5
B2B
  100
AcDbEntity
  8
Layer 1
  62
0
  100
AcDb2dVertex
  10
0.62311
  20
0.62859
  30
0.00000
  42
-0.1072
  70
32
  0
VERTEX
  5
B2C
  100
AcDbEntity
  8
Layer 1
  62
0
  100
AcDb2dVertex
  10
0.61210
  20
0.61316
  30
0.00000
  42
-0.1730
  70
32
  0
VERTEX
  5
B2D
  100
AcDbEntity
  8
Layer 1
  62
0
  100
AcDb2dVertex
  10
0.60400
  20
0.61000
  30
0.00000
  42
-0.1581
  70
32
  0
VERTEX
  5
B2E
  100
AcDbEntity
  8
Layer 1
  62
0
  100
AcDb2dVertex
  10
0.59051
  20
0.61545
  30
0.00000
  42
-0.0378
  70
32
  0
VERTEX
  5
B2F
  100
AcDbEntity
  8
Layer 1
  62
0
  100
AcDb2dVertex
  10
0.58300
  20
0.62200
  30
0.00000
  42
-0.0679
  70
32
  0
VERTEX
  5
B30
  100
AcDbEntity
  8
Layer 1
  62
0
  100
AcDb2dVertex
  10
0.57113
  20
0.63618
  30
0.00000
  42
-0.1175
  70
32
  0
VERTEX
  5
B31
  100
AcDbEntity
  8
Layer 1
  62
0
  100
AcDb2dVertex
  10
0.57000
  20
0.64000
  30
0.00000
  42
-0.2574
  70
32
  0
VERTEX
  5
B32
  100
AcDbEntity
  8
Layer 1
  62
0
  100
AcDb2dVertex
  10
0.57539
  20
0.64907
  30
0.00000
  42
-0.0593
  70
32
  0
VERTEX
  5
B33
  100
AcDbEntity
  8
Layer 1
  62
0
  100
AcDb2dVertex
  10
0.58500
  20
0.65400
  30
0.00000
  42
0.1206
  70
32
  0
VERTEX
  5
B34
  100
AcDbEntity
  8
Layer 1
  62
0
  100
AcDb2dVertex
  10
0.59791
  20
0.66058
  30
0.00000
  42
0.1977
  70
32
  0
VERTEX
  5
B35
  100
AcDbEntity
  8
Layer 1
  62
0
  100
AcDb2dVertex
  10
0.60000
  20
0.66500
  30
0.00000
  70
32
  0
VERTEX
  5
B36
  100
AcDbEntity
  8
Layer 1
  62
0
  100
AcDb2dVertex
  10
0.57900
  20
0.69700
  30
0.00000
  70
32
  0
VERTEX
  5
B37
  100
AcDbEntity
  8
Layer 1
  62
0
  100
AcDb2dVertex
  10
0.57700
  20
0.70400
  30
0.00000
  42
-0.2075
  70
32
  0
VERTEX
  5
B38
  100
AcDbEntity
  8
Layer 1
  62
0
  100
AcDb2dVertex
  10
0.58090
  20
0.71540
  30
0.00000
  42
-0.1964
  70
32
  0
VERTEX
  5
B39
  100
AcDbEntity
  8
Layer 1
  62
0
  100
AcDb2dVertex
  10
0.59200
  20
0.71900
  30
0.00000
  42
-0.0829
  70
32
  0
VERTEX
  5
B3A
  100
AcDbEntity
  8
Layer 1
  62
0
  100
AcDb2dVertex
  10
0.60814
  20
0.71506
  30
0.00000
  70
32
  0
VERTEX
  5
B3B
  100
AcDbEntity
  8
Layer 1
  62
0
  100
AcDb2dVertex
  10
0.61100
  20
0.71400
  30
0.00000
  42
-0.0159
  70
32
  0
VERTEX
  5
B3C
  100
AcDbEntity
  8
Layer 1
  62
0
  100
AcDb2dVertex
  10
0.62530
  20
0.71029
  30
0.00000
  70
32
  0
VERTEX
  5
B3D
  100
AcDbEntity
  8
Layer 1
  62
0
  100
AcDb2dVertex
  10
0.63000
  20
0.70900
  30
0.00000
  42
0.0995
  70
32
  0
VERTEX
  5
B3E
  100
AcDbEntity
  8
Layer 1
  62
0
  100
AcDb2dVertex
  10
0.63370
  20
0.71762
  30
0.00000
  70
32
  0
VERTEX
  5
B3F
  100
AcDbEntity
  8
Layer 1
  62
0
  100
AcDb2dVertex
  10
0.63700
  20
0.73000
  30
0.00000
  42
-0.2289
  70
32
  0
VERTEX
  5
B40
  100
AcDbEntity
  8
Layer 1
  62
0
  100
AcDb2dVertex
  10
0.64482
  20
0.74087
  30
0.00000
  42
-0.1114
  70
32
  0
VERTEX
  5
B41
  100
AcDbEntity
  8
Layer 1
  62
0
  100
AcDb2dVertex
  10
0.65000
  20
0.74200
  30
0.00000
  42
-0.1231
  70
32
  0
VERTEX
  5
B42
  100
AcDbEntity
  8
Layer 1
  62
0
  100
AcDb2dVertex
  10
0.66647
  20
0.73667
  30
0.00000
  70
32
  0
VERTEX
  5
B43
  100
AcDbEntity
  8
Layer 1
  62
0
  100
AcDb2dVertex
  10
0.67100
  20
0.73400
  30
0.00000
  42
-0.1001
  70
32
  0
VERTEX
  5
B44
  100
AcDbEntity
  8
Layer 1
  62
0
  100
AcDb2dVertex
  10
0.68116
  20
0.72243
  30
0.00000
  42
-0.1074
  70
32
  0
VERTEX
  5
B45
  100
AcDbEntity
  8
Layer 1
  62
0
  100
AcDb2dVertex
  10
0.68200
  20
0.71900
  30
0.00000
  70
32
  0
SEQEND
  5
B46
  100
AcDbEntity
  8
Layer 1
  62
0
  0
POLYLINE
  5
B47
  100
AcDbEntity
  8
Layer 1
  62
0
  100
AcDb2dPolyline
 66
     1
  10
0
  20
0
  30
0
  70
1
  0
VERTEX
  5
B48
  100
AcDbEntity
  8
Layer 1
  62
0
  100
AcDb2dVertex
  10
0.92700
  20
0.17900
  30
0.00000
  42
-0.1649
  70
32
  0
VERTEX
  5
B49
  100
AcDbEntity
  8
Layer 1
  62
0
  100
AcDb2dVertex
  10
0.92117
  20
0.15869
  30
0.00000
  42
-0.1712
  70
32
  0
VERTEX
  5
B4A
  100
AcDbEntity
  8
Layer 1
  62
0
  100
AcDb2dVertex
  10
0.90400
  20
0.14800
  30
0.00000
  70
32
  0
VERTEX
  5
B4B
  100
AcDbEntity
  8
Layer 1
  62
0
  100
AcDb2dVertex
  10
0.89606
  20
0.14600
  30
0.00000
  42
-0.0157
  70
32
  0
VERTEX
  5
B4C
  100
AcDbEntity
  8
Layer 1
  62
0
  100
AcDb2dVertex
  10
0.85700
  20
0.13700
  30
0.00000
  42
0.0260
  70
32
  0
VERTEX
  5
B4D
  100
AcDbEntity
  8
Layer 1
  62
0
  100
AcDb2dVertex
  10
0.83600
  20
0.11900
  30
0.00000
  42
-0.0945
  70
32
  0
VERTEX
  5
B4E
  100
AcDbEntity
  8
Layer 1
  62
0
  100
AcDb2dVertex
  10
0.81634
  20
0.10602
  30
0.00000
  42
-0.0823
  70
32
  0
VERTEX
  5
B4F
  100
AcDbEntity
  8
Layer 1
  62
0
  100
AcDb2dVertex
  10
0.81100
  20
0.10500
  30
0.00000
  42
-0.2058
  70
32
  0
VERTEX
  5
B50
  100
AcDbEntity
  8
Layer 1
  62
0
  100
AcDb2dVertex
  10
0.79444
  20
0.11296
  30
0.00000
  70
32
  0
VERTEX
  5
B51
  100
AcDbEntity
  8
Layer 1
  62
0
  100
AcDb2dVertex
  10
0.79100
  20
0.11700
  30
0.00000
  42
-0.1378
  70
32
  0
VERTEX
  5
B52
  100
AcDbEntity
  8
Layer 1
  62
0
  100
AcDb2dVertex
  10
0.78148
  20
0.13465
  30
0.00000
  42
-0.0462
  70
32
  0
VERTEX
  5
B53
  100
AcDbEntity
  8
Layer 1
  62
0
  100
AcDb2dVertex
  10
0.78100
  20
0.14000
  30
0.00000
  70
32
  0
VERTEX
  5
B54
  100
AcDbEntity
  8
Layer 1
  62
0
  100
AcDb2dVertex
  10
0.84100
  20
0.15900
  30
0.00000
  70
32
  0
VERTEX
  5
B55
  100
AcDbEntity
  8
Layer 1
  62
0
  100
AcDb2dVertex
  10
0.78100
  20
0.14000
  30
0.00000
  42
-0.0425
  70
32
  0
VERTEX
  5
B56
  100
AcDbEntity
  8
Layer 1
  62
0
  100
AcDb2dVertex
  10
0.77600
  20
0.16200
  30
0.00000
  42
-0.1791
  70
32
  0
VERTEX
  5
B57
  100
AcDbEntity
  8
Layer 1
  62
0
  100
AcDb2dVertex
  10
0.78305
  20
0.17964
  30
0.00000
  70
32
  0
VERTEX
  5
B58
  100
AcDbEntity
  8
Layer 1
  62
0
  100
AcDb2dVertex
  10
0.78700
  20
0.18400
  30
0.00000
  42
0.1155
  70
32
  0
VERTEX
  5
B59
  100
AcDbEntity
  8
Layer 1
  62
0
  100
AcDb2dVertex
  10
0.79812
  20
0.20246
  30
0.00000
  42
0.0661
  70
32
  0
VERTEX
  5
B5A
  100
AcDbEntity
  8
Layer 1
  62
0
  100
AcDb2dVertex
  10
0.79900
  20
0.20900
  30
0.00000
  42
0.1606
  70
32
  0
VERTEX
  5
B5B
  100
AcDbEntity
  8
Layer 1
  62
0
  100
AcDb2dVertex
  10
0.79367
  20
0.22835
  30
0.00000
  42
0.1987
  70
32
  0
VERTEX
  5
B5C
  100
AcDbEntity
  8
Layer 1
  62
0
  100
AcDb2dVertex
  10
0.77615
  20
0.23826
  30
0.00000
  42
0.0435
  70
32
  0
VERTEX
  5
B5D
  100
AcDbEntity
  8
Layer 1
  62
0
  100
AcDb2dVertex
  10
0.76700
  20
0.23900
  30
0.00000
  42
0.0623
  70
32
  0
VERTEX
  5
B5E
  100
AcDbEntity
  8
Layer 1
  62
0
  100
AcDb2dVertex
  10
0.73519
  20
0.23359
  30
0.00000
  70
32
  0
VERTEX
  5
B5F
  100
AcDbEntity
  8
Layer 1
  62
0
  100
AcDb2dVertex
  10
0.72300
  20
0.23000
  30
0.00000
  42
-0.0405
  70
32
  0
VERTEX
  5
B60
  100
AcDbEntity
  8
Layer 1
  62
0
  100
AcDb2dVertex
  10
0.68421
  20
0.22218
  30
0.00000
  70
32
  0
VERTEX
  5
B61
  100
AcDbEntity
  8
Layer 1
  62
0
  100
AcDb2dVertex
  10
0.68000
  20
0.22200
  30
0.00000
  42
-0.1602
  70
32
  0
VERTEX
  5
B62
  100
AcDbEntity
  8
Layer 1
  62
0
  100
AcDb2dVertex
  10
0.66044
  20
0.22738
  30
0.00000
  42
-0.1911
  70
32
  0
VERTEX
  5
B63
  100
AcDbEntity
  8
Layer 1
  62
0
  100
AcDb2dVertex
  10
0.65012
  20
0.24496
  30
0.00000
  42
-0.0509
  70
32
  0
VERTEX
  5
B64
  100
AcDbEntity
  8
Layer 1
  62
0
  100
AcDb2dVertex
  10
0.64900
  20
0.25700
  30
0.00000
  42
-0.2326
  70
32
  0
VERTEX
  5
B65
  100
AcDbEntity
  8
Layer 1
  62
0
  100
AcDb2dVertex
  10
0.65837
  20
0.27549
  30
0.00000
  42
-0.0948
  70
32
  0
VERTEX
  5
B66
  100
AcDbEntity
  8
Layer 1
  62
0
  100
AcDb2dVertex
  10
0.68182
  20
0.28724
  30
0.00000
  42
-0.0362
  70
32
  0
VERTEX
  5
B67
  100
AcDbEntity
  8
Layer 1
  62
0
  100
AcDb2dVertex
  10
0.71100
  20
0.29400
  30
0.00000
  42
0.0807
  70
32
  0
VERTEX
  5
B68
  100
AcDbEntity
  8
Layer 1
  62
0
  100
AcDb2dVertex
  10
0.74787
  20
0.30463
  30
0.00000
  42
0.1489
  70
32
  0
VERTEX
  5
B69
  100
AcDbEntity
  8
Layer 1
  62
0
  100
AcDb2dVertex
  10
0.76753
  20
0.32221
  30
0.00000
  42
0.1307
  70
32
  0
VERTEX
  5
B6A
  100
AcDbEntity
  8
Layer 1
  62
0
  100
AcDb2dVertex
  10
0.77200
  20
0.34000
  30
0.00000
  42
0.2024
  70
32
  0
VERTEX
  5
B6B
  100
AcDbEntity
  8
Layer 1
  62
0
  100
AcDb2dVertex
  10
0.76000
  20
0.36723
  30
0.00000
  42
0.0430
  70
32
  0
VERTEX
  5
B6C
  100
AcDbEntity
  8
Layer 1
  62
0
  100
AcDb2dVertex
  10
0.75200
  20
0.37400
  30
0.00000
  42
-0.0665
  70
32
  0
VERTEX
  5
B6D
  100
AcDbEntity
  8
Layer 1
  62
0
  100
AcDb2dVertex
  10
0.73326
  20
0.39152
  30
0.00000
  42
-0.0979
  70
32
  0
VERTEX
  5
B6E
  100
AcDbEntity
  8
Layer 1
  62
0
  100
AcDb2dVertex
  10
0.72900
  20
0.40000
  30
0.00000
  70
32
  0
VERTEX
  5
B6F
  100
AcDbEntity
  8
Layer 1
  62
0
  100
AcDb2dVertex
  10
0.79700
  20
0.41200
  30
0.00000
  70
32
  0
VERTEX
  5
B70
  100
AcDbEntity
  8
Layer 1
  62
0
  100
AcDb2dVertex
  10
0.72900
  20
0.40000
  30
0.00000
  70
32
  0
VERTEX
  5
B71
  100
AcDbEntity
  8
Layer 1
  62
0
  100
AcDb2dVertex
  10
0.72700
  20
0.43500
  30
0.00000
  42
-0.3524
  70
32
  0
VERTEX
  5
B72
  100
AcDbEntity
  8
Layer 1
  62
0
  100
AcDb2dVertex
  10
0.73808
  20
0.45029
  30
0.00000
  42
-0.0822
  70
32
  0
VERTEX
  5
B73
  100
AcDbEntity
  8
Layer 1
  62
0
  100
AcDb2dVertex
  10
0.75000
  20
0.45200
  30
0.00000
  70
32
  0
VERTEX
  5
B74
  100
AcDbEntity
  8
Layer 1
  62
0
  100
AcDb2dVertex
  10
0.82700
  20
0.45200
  30
0.00000
  42
-0.0806
  70
32
  0
VERTEX
  5
B75
  100
AcDbEntity
  8
Layer 1
  62
0
  100
AcDb2dVertex
  10
0.85896
  20
0.44590
  30
0.00000
  42
-0.1643
  70
32
  0
VERTEX
  5
B76
  100
AcDbEntity
  8
Layer 1
  62
0
  100
AcDb2dVertex
  10
0.87536
  20
0.43307
  30
0.00000
  42
-0.1382
  70
32
  0
VERTEX
  5
B77
  100
AcDbEntity
  8
Layer 1
  62
0
  100
AcDb2dVertex
  10
0.87900
  20
0.41900
  30
0.00000
  42
-0.2046
  70
32
  0
VERTEX
  5
B78
  100
AcDbEntity
  8
Layer 1
  62
0
  100
AcDb2dVertex
  10
0.87087
  20
0.39722
  30
0.00000
  42
-0.1450
  70
32
  0
VERTEX
  5
B79
  100
AcDbEntity
  8
Layer 1
  62
0
  100
AcDb2dVertex
  10
0.85037
  20
0.38710
  30
0.00000
  70
32
  0
VERTEX
  5
B7A
  100
AcDbEntity
  8
Layer 1
  62
0
  100
AcDb2dVertex
  10
0.84400
  20
0.38600
  30
0.00000
  42
0.1057
  70
32
  0
VERTEX
  5
B7B
  100
AcDbEntity
  8
Layer 1
  62
0
  100
AcDb2dVertex
  10
0.82076
  20
0.37880
  30
0.00000
  42
0.2782
  70
32
  0
VERTEX
  5
B7C
  100
AcDbEntity
  8
Layer 1
  62
0
  100
AcDb2dVertex
  10
0.80900
  20
0.35700
  30
0.00000
  42
0.0322
  70
32
  0
VERTEX
  5
B7D
  100
AcDbEntity
  8
Layer 1
  62
0
  100
AcDb2dVertex
  10
0.81282
  20
0.32967
  30
0.00000
  42
0.0051
  70
32
  0
VERTEX
  5
B7E
  100
AcDbEntity
  8
Layer 1
  62
0
  100
AcDb2dVertex
  10
0.82100
  20
0.28700
  30
0.00000
  70
32
  0
VERTEX
  5
B7F
  100
AcDbEntity
  8
Layer 1
  62
0
  100
AcDb2dVertex
  10
0.76100
  20
0.27200
  30
0.00000
  70
32
  0
VERTEX
  5
B80
  100
AcDbEntity
  8
Layer 1
  62
0
  100
AcDb2dVertex
  10
0.82100
  20
0.28700
  30
0.00000
  42
-0.0306
  70
32
  0
VERTEX
  5
B81
  100
AcDbEntity
  8
Layer 1
  62
0
  100
AcDb2dVertex
  10
0.82412
  20
0.27055
  30
0.00000
  70
32
  0
VERTEX
  5
B82
  100
AcDbEntity
  8
Layer 1
  62
0
  100
AcDb2dVertex
  10
0.82900
  20
0.24200
  30
0.00000
  42
0.1148
  70
32
  0
VERTEX
  5
B83
  100
AcDbEntity
  8
Layer 1
  62
0
  100
AcDb2dVertex
  10
0.83858
  20
0.21514
  30
0.00000
  42
0.1443
  70
32
  0
VERTEX
  5
B84
  100
AcDbEntity
  8
Layer 1
  62
0
  100
AcDb2dVertex
  10
0.85200
  20
0.20400
  30
0.00000
  70
32
  0
VERTEX
  5
B85
  100
AcDbEntity
  8
Layer 1
  62
0
  100
AcDb2dVertex
  10
0.89700
  20
0.21000
  30
0.00000
  42
-0.1489
  70
32
  0
VERTEX
  5
B86
  100
AcDbEntity
  8
Layer 1
  62
0
  100
AcDb2dVertex
  10
0.91607
  20
0.20522
  30
0.00000
  42
-0.2076
  70
32
  0
VERTEX
  5
B87
  100
AcDbEntity
  8
Layer 1
  62
0
  100
AcDb2dVertex
  10
0.92617
  20
0.18856
  30
0.00000
  42
-0.0472
  70
32
  0
VERTEX
  5
B88
  100
AcDbEntity
  8
Layer 1
  62
0
  100
AcDb2dVertex
  10
0.92700
  20
0.17900
  30
0.00000
  70
32
  0
SEQEND
  5
B89
  100
AcDbEntity
  8
Layer 1
  62
0
  0
POLYLINE
  5
B8A
  100
AcDbEntity
  8
Layer 1
  62
0
  100
AcDb2dPolyline
 66
     1
  10
0
  20
0
  30
0
  70
1
  0
VERTEX
  5
B8B
  100
AcDbEntity
  8
Layer 1
  62
0
  100
AcDb2dVertex
  10
0.63000
  20
0.51500
  30
0.00000
  42
-0.1765
  70
32
  0
VERTEX
  5
B8C
  100
AcDbEntity
  8
Layer 1
  62
0
  100
AcDb2dVertex
  10
0.62589
  20
0.50707
  30
0.00000
  42
-0.0646
  70
32
  0
VERTEX
  5
B8D
  100
AcDbEntity
  8
Layer 1
  62
0
  100
AcDb2dVertex
  10
0.60530
  20
0.49115
  30
0.00000
  42
-0.0302
  70
32
  0
VERTEX
  5
B8E
  100
AcDbEntity
  8
Layer 1
  62
0
  100
AcDb2dVertex
  10
0.54400
  20
0.45900
  30
0.00000
  70
32
  0
VERTEX
  5
B8F
  100
AcDbEntity
  8
Layer 1
  62
0
  100
AcDb2dVertex
  10
0.52200
  20
0.47900
  30
0.00000
  70
32
  0
VERTEX
  5
B90
  100
AcDbEntity
  8
Layer 1
  62
0
  100
AcDb2dVertex
  10
0.54400
  20
0.45900
  30
0.00000
  42
-0.0263
  70
32
  0
VERTEX
  5
B91
  100
AcDbEntity
  8
Layer 1
  62
0
  100
AcDb2dVertex
  10
0.51360
  20
0.39108
  30
0.00000
  42
-0.0601
  70
32
  0
VERTEX
  5
B92
  100
AcDbEntity
  8
Layer 1
  62
0
  100
AcDb2dVertex
  10
0.49819
  20
0.36760
  30
0.00000
  42
-0.1605
  70
32
  0
VERTEX
  5
B93
  100
AcDbEntity
  8
Layer 1
  62
0
  100
AcDb2dVertex
  10
0.48993
  20
0.36207
  30
0.00000
  70
32
  0
VERTEX
  5
B94
  100
AcDbEntity
  8
Layer 1
  62
0
  100
AcDb2dVertex
  10
0.48900
  20
0.36200
  30
0.00000
  42
-0.1413
  70
32
  0
VERTEX
  5
B95
  100
AcDbEntity
  8
Layer 1
  62
0
  100
AcDb2dVertex
  10
0.47727
  20
0.36652
  30
0.00000
  42
-0.0492
  70
32
  0
VERTEX
  5
B96
  100
AcDbEntity
  8
Layer 1
  62
0
  100
AcDb2dVertex
  10
0.45700
  20
0.38400
  30
0.00000
  42
-0.0537
  70
32
  0
VERTEX
  5
B97
  100
AcDbEntity
  8
Layer 1
  62
0
  100
AcDb2dVertex
  10
0.43824
  20
0.40750
  30
0.00000
  42
-0.1254
  70
32
  0
VERTEX
  5
B98
  100
AcDbEntity
  8
Layer 1
  62
0
  100
AcDb2dVertex
  10
0.43500
  20
0.41700
  30
0.00000
  42
-0.2113
  70
32
  0
VERTEX
  5
B99
  100
AcDbEntity
  8
Layer 1
  62
0
  100
AcDb2dVertex
  10
0.43965
  20
0.42539
  30
0.00000
  42
-0.0750
  70
32
  0
VERTEX
  5
B9A
  100
AcDbEntity
  8
Layer 1
  62
0
  100
AcDb2dVertex
  10
0.45905
  20
0.43685
  30
0.00000
  70
32
  0
VERTEX
  5
B9B
  100
AcDbEntity
  8
Layer 1
  62
0
  100
AcDb2dVertex
  10
0.46400
  20
0.43900
  30
0.00000
  42
0.0467
  70
32
  0
VERTEX
  5
B9C
  100
AcDbEntity
  8
Layer 1
  62
0
  100
AcDb2dVertex
  10
0.48827
  20
0.45245
  30
0.00000
  42
0.1733
  70
32
  0
VERTEX
  5
B9D
  100
AcDbEntity
  8
Layer 1
  62
0
  100
AcDb2dVertex
  10
0.49199
  20
0.45682
  30
0.00000
  70
32
  0
VERTEX
  5
B9E
  100
AcDbEntity
  8
Layer 1
  62
0
  100
AcDb2dVertex
  10
0.49200
  20
0.45700
  30
0.00000
  42
0.1220
  70
32
  0
VERTEX
  5
B9F
  100
AcDbEntity
  8
Layer 1
  62
0
  100
AcDb2dVertex
  10
0.48850
  20
0.46370
  30
0.00000
  42
0.0282
  70
32
  0
VERTEX
  5
BA0
  100
AcDbEntity
  8
Layer 1
  62
0
  100
AcDb2dVertex
  10
0.47200
  20
0.48300
  30
0.00000
  42
-0.0693
  70
32
  0
VERTEX
  5
BA1
  100
AcDbEntity
  8
Layer 1
  62
0
  100
AcDb2dVertex
  10
0.45511
  20
0.50554
  30
0.00000
  42
-0.1150
  70
32
  0
VERTEX
  5
BA2
  100
AcDbEntity
  8
Layer 1
  62
0
  100
AcDb2dVertex
  10
0.45200
  20
0.51700
  30
0.00000
  42
-0.1798
  70
32
  0
VERTEX
  5
BA3
  100
AcDbEntity
  8
Layer 1
  62
0
  100
AcDb2dVertex
  10
0.45680
  20
0.53274
  30
0.00000
  42
-0.1930
  70
32
  0
VERTEX
  5
BA4
  100
AcDbEntity
  8
Layer 1
  62
0
  100
AcDb2dVertex
  10
0.47153
  20
0.53969
  30
0.00000
  70
32
  0
VERTEX
  5
BA5
  100
AcDbEntity
  8
Layer 1
  62
0
  100
AcDb2dVertex
  10
0.47700
  20
0.54000
  30
0.00000
  42
-0.1270
  70
32
  0
VERTEX
  5
BA6
  100
AcDbEntity
  8
Layer 1
  62
0
  100
AcDb2dVertex
  10
0.49237
  20
0.53475
  30
0.00000
  42
-0.0417
  70
32
  0
VERTEX
  5
BA7
  100
AcDbEntity
  8
Layer 1
  62
0
  100
AcDb2dVertex
  10
0.50600
  20
0.52500
  30
0.00000
  42
0.0464
  70
32
  0
VERTEX
  5
BA8
  100
AcDbEntity
  8
Layer 1
  62
0
  100
AcDb2dVertex
  10
0.52665
  20
0.51101
  30
0.00000
  42
0.0998
  70
32
  0
VERTEX
  5
BA9
  100
AcDbEntity
  8
Layer 1
  62
0
  100
AcDb2dVertex
  10
0.53000
  20
0.51000
  30
0.00000
  42
0.2219
  70
32
  0
VERTEX
  5
BAA
  100
AcDbEntity
  8
Layer 1
  62
0
  100
AcDb2dVertex
  10
0.53834
  20
0.51481
  30
0.00000
  42
0.0888
  70
32
  0
VERTEX
  5
BAB
  100
AcDbEntity
  8
Layer 1
  62
0
  100
AcDb2dVertex
  10
0.54809
  20
0.53407
  30
0.00000
  70
32
  0
VERTEX
  5
BAC
  100
AcDbEntity
  8
Layer 1
  62
0
  100
AcDb2dVertex
  10
0.55000
  20
0.54000
  30
0.00000
  42
-0.0700
  70
32
  0
VERTEX
  5
BAD
  100
AcDbEntity
  8
Layer 1
  62
0
  100
AcDb2dVertex
  10
0.56128
  20
0.56379
  30
0.00000
  42
-0.1742
  70
32
  0
VERTEX
  5
BAE
  100
AcDbEntity
  8
Layer 1
  62
0
  100
AcDb2dVertex
  10
0.56875
  20
0.56986
  30
0.00000
  70
32
  0
VERTEX
  5
BAF
  100
AcDbEntity
  8
Layer 1
  62
0
  100
AcDb2dVertex
  10
0.57000
  20
0.57000
  30
0.00000
  42
-0.1259
  70
32
  0
VERTEX
  5
BB0
  100
AcDbEntity
  8
Layer 1
  62
0
  100
AcDb2dVertex
  10
0.58284
  20
0.56540
  30
0.00000
  42
-0.0537
  70
32
  0
VERTEX
  5
BB1
  100
AcDbEntity
  8
Layer 1
  62
0
  100
AcDb2dVertex
  10
0.60500
  20
0.54800
  30
0.00000
  42
-0.0624
  70
32
  0
VERTEX
  5
BB2
  100
AcDbEntity
  8
Layer 1
  62
0
  100
AcDb2dVertex
  10
0.62577
  20
0.52581
  30
0.00000
  42
-0.1415
  70
32
  0
VERTEX
  5
BB3
  100
AcDbEntity
  8
Layer 1
  62
0
  100
AcDb2dVertex
  10
0.63000
  20
0.51500
  30
0.00000
  70
32
  0
SEQEND
  5
BB4
  100
AcDbEntity
  8
Layer 1
  62
0
  0
POLYLINE
  5
BB5
  100
AcDbEntity
  8
Layer 1
  62
0
  100
AcDb2dPolyline
 66
     1
  10
0
  20
0
  30
0
  70
1
  0
VERTEX
  5
BB6
  100
AcDbEntity
  8
Layer 1
  62
0
  100
AcDb2dVertex
  10
0.55200
  20
0.67900
  30
0.00000
  42
-0.0622
  70
32
  0
VERTEX
  5
BB7
  100
AcDbEntity
  8
Layer 1
  62
0
  100
AcDb2dVertex
  10
0.54791
  20
0.63852
  30
0.00000
  42
-0.1223
  70
32
  0
VERTEX
  5
BB8
  100
AcDbEntity
  8
Layer 1
  62
0
  100
AcDb2dVertex
  10
0.53839
  20
0.61907
  30
0.00000
  42
-0.2178
  70
32
  0
VERTEX
  5
BB9
  100
AcDbEntity
  8
Layer 1
  62
0
  100
AcDb2dVertex
  10
0.52200
  20
0.61200
  30
0.00000
  42
-0.0174
  70
32
  0
VERTEX
  5
BBA
  100
AcDbEntity
  8
Layer 1
  62
0
  100
AcDb2dVertex
  10
0.49405
  20
0.62327
  30
0.00000
  70
32
  0
VERTEX
  5
BBB
  100
AcDbEntity
  8
Layer 1
  62
0
  100
AcDb2dVertex
  10
0.47100
  20
0.63300
  30
0.00000
  42
0.0569
  70
32
  0
VERTEX
  5
BBC
  100
AcDbEntity
  8
Layer 1
  62
0
  100
AcDb2dVertex
  10
0.41288
  20
0.65192
  30
0.00000
  42
0.0447
  70
32
  0
VERTEX
  5
BBD
  100
AcDbEntity
  8
Layer 1
  62
0
  100
AcDb2dVertex
  10
0.39200
  20
0.65400
  30
0.00000
  42
0.0677
  70
32
  0
VERTEX
  5
BBE
  100
AcDbEntity
  8
Layer 1
  62
0
  100
AcDb2dVertex
  10
0.35481
  20
0.64987
  30
0.00000
  70
32
  0
VERTEX
  5
BBF
  100
AcDbEntity
  8
Layer 1
  62
0
  100
AcDb2dVertex
  10
0.35200
  20
0.64900
  30
0.00000
  42
-0.0171
  70
32
  0
VERTEX
  5
BC0
  100
AcDbEntity
  8
Layer 1
  62
0
  100
AcDb2dVertex
  10
0.33400
  20
0.65400
  30
0.00000
  42
0.3140
  70
32
  0
VERTEX
  5
BC1
  100
AcDbEntity
  8
Layer 1
  62
0
  100
AcDb2dVertex
  10
0.32957
  20
0.65027
  30
0.00000
  42
0.0870
  70
32
  0
VERTEX
  5
BC2
  100
AcDbEntity
  8
Layer 1
  62
0
  100
AcDb2dVertex
  10
0.32707
  20
0.63406
  30
0.00000
  70
32
  0
VERTEX
  5
BC3
  100
AcDbEntity
  8
Layer 1
  62
0
  100
AcDb2dVertex
  10
0.32700
  20
0.62900
  30
0.00000
  70
32
  0
VERTEX
  5
BC4
  100
AcDbEntity
  8
Layer 1
  62
0
  100
AcDb2dVertex
  10
0.31900
  20
0.62000
  30
0.00000
  42
0.1325
  70
32
  0
VERTEX
  5
BC5
  100
AcDbEntity
  8
Layer 1
  62
0
  100
AcDb2dVertex
  10
0.30173
  20
0.62953
  30
0.00000
  42
0.0492
  70
32
  0
VERTEX
  5
BC6
  100
AcDbEntity
  8
Layer 1
  62
0
  100
AcDb2dVertex
  10
0.29700
  20
0.63000
  30
0.00000
  70
32
  0
VERTEX
  5
BC7
  100
AcDbEntity
  8
Layer 1
  62
0
  100
AcDb2dVertex
  10
0.29000
  20
0.62200
  30
0.00000
  70
32
  0
VERTEX
  5
BC8
  100
AcDbEntity
  8
Layer 1
  62
0
  100
AcDb2dVertex
  10
0.29400
  20
0.60500
  30
0.00000
  42
0.1428
  70
32
  0
VERTEX
  5
BC9
  100
AcDbEntity
  8
Layer 1
  62
0
  100
AcDb2dVertex
  10
0.26798
  20
0.57818
  30
0.00000
  42
0.0781
  70
32
  0
VERTEX
  5
BCA
  100
AcDbEntity
  8
Layer 1
  62
0
  100
AcDb2dVertex
  10
0.25297
  20
0.53490
  30
0.00000
  42
0.0168
  70
32
  0
VERTEX
  5
BCB
  100
AcDbEntity
  8
Layer 1
  62
0
  100
AcDb2dVertex
  10
0.25000
  20
0.51700
  30
0.00000
  42
-0.2600
  70
32
  0
VERTEX
  5
BCC
  100
AcDbEntity
  8
Layer 1
  62
0
  100
AcDb2dVertex
  10
0.24052
  20
0.50425
  30
0.00000
  42
-0.0559
  70
32
  0
VERTEX
  5
BCD
  100
AcDbEntity
  8
Layer 1
  62
0
  100
AcDb2dVertex
  10
0.23200
  20
0.50100
  30
0.00000
  42
0.0893
  70
32
  0
VERTEX
  5
BCE
  100
AcDbEntity
  8
Layer 1
  62
0
  100
AcDb2dVertex
  10
0.21799
  20
0.49530
  30
0.00000
  42
0.2448
  70
32
  0
VERTEX
  5
BCF
  100
AcDbEntity
  8
Layer 1
  62
0
  100
AcDb2dVertex
  10
0.21500
  20
0.49000
  30
0.00000
  70
32
  0
VERTEX
  5
BD0
  100
AcDbEntity
  8
Layer 1
  62
0
  100
AcDb2dVertex
  10
0.21500
  20
0.48500
  30
0.00000
  42
-0.0365
  70
32
  0
VERTEX
  5
BD1
  100
AcDbEntity
  8
Layer 1
  62
0
  100
AcDb2dVertex
  10
0.23350
  20
0.46307
  30
0.00000
  70
32
  0
VERTEX
  5
BD2
  100
AcDbEntity
  8
Layer 1
  62
0
  100
AcDb2dVertex
  10
0.23400
  20
0.46200
  30
0.00000
  42
-0.2749
  70
32
  0
VERTEX
  5
BD3
  100
AcDbEntity
  8
Layer 1
  62
0
  100
AcDb2dVertex
  10
0.22622
  20
0.44924
  30
0.00000
  42
-0.1044
  70
32
  0
VERTEX
  5
BD4
  100
AcDbEntity
  8
Layer 1
  62
0
  100
AcDb2dVertex
  10
0.20577
  20
0.44307
  30
0.00000
  42
-0.0319
  70
32
  0
VERTEX
  5
BD5
  100
AcDbEntity
  8
Layer 1
  62
0
  100
AcDb2dVertex
  10
0.18700
  20
0.44200
  30
0.00000
  42
-0.1016
  70
32
  0
VERTEX
  5
BD6
  100
AcDbEntity
  8
Layer 1
  62
0
  100
AcDb2dVertex
  10
0.15300
  20
0.44900
  30
0.00000
  42
0.1195
  70
32
  0
VERTEX
  5
BD7
  100
AcDbEntity
  8
Layer 1
  62
0
  100
AcDb2dVertex
  10
0.11426
  20
0.45448
  30
0.00000
  70
32
  0
VERTEX
  5
BD8
  100
AcDbEntity
  8
Layer 1
  62
0
  100
AcDb2dVertex
  10
0.10900
  20
0.45400
  30
0.00000
  70
32
  0
VERTEX
  5
BD9
  100
AcDbEntity
  8
Layer 1
  62
0
  100
AcDb2dVertex
  10
0.09200
  20
0.45700
  30
0.00000
  42
0.3755
  70
32
  0
VERTEX
  5
BDA
  100
AcDbEntity
  8
Layer 1
  62
0
  100
AcDb2dVertex
  10
0.08549
  20
0.45137
  30
0.00000
  42
0.0629
  70
32
  0
VERTEX
  5
BDB
  100
AcDbEntity
  8
Layer 1
  62
0
  100
AcDb2dVertex
  10
0.08500
  20
0.44700
  30
0.00000
  42
-0.3527
  70
32
  0
VERTEX
  5
BDC
  100
AcDbEntity
  8
Layer 1
  62
0
  100
AcDb2dVertex
  10
0.07861
  20
0.43854
  30
0.00000
  42
-0.0840
  70
32
  0
VERTEX
  5
BDD
  100
AcDbEntity
  8
Layer 1
  62
0
  100
AcDb2dVertex
  10
0.06700
  20
0.43700
  30
0.00000
  42
-0.1574
  70
32
  0
VERTEX
  5
BDE
  100
AcDbEntity
  8
Layer 1
  62
0
  100
AcDb2dVertex
  10
0.04545
  20
0.44482
  30
0.00000
  42
-0.0775
  70
32
  0
VERTEX
  5
BDF
  100
AcDbEntity
  8
Layer 1
  62
0
  100
AcDb2dVertex
  10
0.02157
  20
0.46969
  30
0.00000
  42
-0.0262
  70
32
  0
VERTEX
  5
BE0
  100
AcDbEntity
  8
Layer 1
  62
0
  100
AcDb2dVertex
  10
0.00500
  20
0.49500
  30
0.00000
  70
32
  0
VERTEX
  5
BE1
  100
AcDbEntity
  8
Layer 1
  62
0
  100
AcDb2dVertex
  10
0.01200
  20
0.50200
  30
0.00000
  42
-0.0448
  70
32
  0
VERTEX
  5
BE2
  100
AcDbEntity
  8
Layer 1
  62
0
  100
AcDb2dVertex
  10
0.06700
  20
0.48000
  30
0.00000
  42
0.1806
  70
32
  0
VERTEX
  5
BE3
  100
AcDbEntity
  8
Layer 1
  62
0
  100
AcDb2dVertex
  10
0.07462
  20
0.48426
  30
0.00000
  70
32
  0
VERTEX
  5
BE4
  100
AcDbEntity
  8
Layer 1
  62
0
  100
AcDb2dVertex
  10
0.07800
  20
0.48800
  30
0.00000
  42
-0.1935
  70
32
  0
VERTEX
  5
BE5
  100
AcDbEntity
  8
Layer 1
  62
0
  100
AcDb2dVertex
  10
0.08829
  20
0.49488
  30
0.00000
  70
32
  0
VERTEX
  5
BE6
  100
AcDbEntity
  8
Layer 1
  62
0
  100
AcDb2dVertex
  10
0.09000
  20
0.49500
  30
0.00000
  42
0.0518
  70
32
  0
VERTEX
  5
BE7
  100
AcDbEntity
  8
Layer 1
  62
0
  100
AcDb2dVertex
  10
0.11463
  20
0.48562
  30
0.00000
  42
0.0511
  70
32
  0
VERTEX
  5
BE8
  100
AcDbEntity
  8
Layer 1
  62
0
  100
AcDb2dVertex
  10
0.12000
  20
0.48500
  30
0.00000
  42
0.1306
  70
32
  0
VERTEX
  5
BE9
  100
AcDbEntity
  8
Layer 1
  62
0
  100
AcDb2dVertex
  10
0.13847
  20
0.49093
  30
0.00000
  70
32
  0
VERTEX
  5
BEA
  100
AcDbEntity
  8
Layer 1
  62
0
  100
AcDb2dVertex
  10
0.14500
  20
0.49500
  30
0.00000
  42
-0.1891
  70
32
  0
VERTEX
  5
BEB
  100
AcDbEntity
  8
Layer 1
  62
0
  100
AcDb2dVertex
  10
0.17200
  20
0.50500
  30
0.00000
  42
0.3802
  70
32
  0
VERTEX
  5
BEC
  100
AcDbEntity
  8
Layer 1
  62
0
  100
AcDb2dVertex
  10
0.17813
  20
0.51003
  30
0.00000
  42
0.0696
  70
32
  0
VERTEX
  5
BED
  100
AcDbEntity
  8
Layer 1
  62
0
  100
AcDb2dVertex
  10
0.17900
  20
0.51800
  30
0.00000
  42
-0.1781
  70
32
  0
VERTEX
  5
BEE
  100
AcDbEntity
  8
Layer 1
  62
0
  100
AcDb2dVertex
  10
0.18622
  20
0.53597
  30
0.00000
  42
-0.0389
  70
32
  0
VERTEX
  5
BEF
  100
AcDbEntity
  8
Layer 1
  62
0
  100
AcDb2dVertex
  10
0.19300
  20
0.54300
  30
0.00000
  42
0.1351
  70
32
  0
VERTEX
  5
BF0
  100
AcDbEntity
  8
Layer 1
  62
0
  100
AcDb2dVertex
  10
0.20447
  20
0.56258
  30
0.00000
  42
0.0654
  70
32
  0
VERTEX
  5
BF1
  100
AcDbEntity
  8
Layer 1
  62
0
  100
AcDb2dVertex
  10
0.20900
  20
0.59200
  30
0.00000
  70
32
  0
VERTEX
  5
BF2
  100
AcDbEntity
  8
Layer 1
  62
0
  100
AcDb2dVertex
  10
0.20900
  20
0.59500
  30
0.00000
  42
0.0985
  70
32
  0
VERTEX
  5
BF3
  100
AcDbEntity
  8
Layer 1
  62
0
  100
AcDb2dVertex
  10
0.21700
  20
0.63300
  30
0.00000
  42
-0.1997
  70
32
  0
VERTEX
  5
BF4
  100
AcDbEntity
  8
Layer 1
  62
0
  100
AcDb2dVertex
  10
0.22200
  20
0.64763
  30
0.00000
  42
-0.1732
  70
32
  0
VERTEX
  5
BF5
  100
AcDbEntity
  8
Layer 1
  62
0
  100
AcDb2dVertex
  10
0.23640
  20
0.65376
  30
0.00000
  70
32
  0
VERTEX
  5
BF6
  100
AcDbEntity
  8
Layer 1
  62
0
  100
AcDb2dVertex
  10
0.23900
  20
0.65400
  30
0.00000
  42
0.0893
  70
32
  0
VERTEX
  5
BF7
  100
AcDbEntity
  8
Layer 1
  62
0
  100
AcDb2dVertex
  10
0.25616
  20
0.65749
  30
0.00000
  42
0.2713
  70
32
  0
VERTEX
  5
BF8
  100
AcDbEntity
  8
Layer 1
  62
0
  100
AcDb2dVertex
  10
0.25999
  20
0.66179
  30
0.00000
  70
32
  0
VERTEX
  5
BF9
  100
AcDbEntity
  8
Layer 1
  62
0
  100
AcDb2dVertex
  10
0.26000
  20
0.66200
  30
0.00000
  42
-0.0300
  70
32
  0
VERTEX
  5
BFA
  100
AcDbEntity
  8
Layer 1
  62
0
  100
AcDb2dVertex
  10
0.23774
  20
0.68895
  30
0.00000
  42
-0.1245
  70
32
  0
VERTEX
  5
BFB
  100
AcDbEntity
  8
Layer 1
  62
0
  100
AcDb2dVertex
  10
0.23500
  20
0.69500
  30
0.00000
  70
32
  0
VERTEX
  5
BFC
  100
AcDbEntity
  8
Layer 1
  62
0
  100
AcDb2dVertex
  10
0.23532
  20
0.69505
  30
0.00000
  42
0.0410
  70
32
  0
VERTEX
  5
BFD
  100
AcDbEntity
  8
Layer 1
  62
0
  100
AcDb2dVertex
  10
0.24752
  20
0.71002
  30
0.00000
  70
32
  0
VERTEX
  5
BFE
  100
AcDbEntity
  8
Layer 1
  62
0
  100
AcDb2dVertex
  10
0.25400
  20
0.71900
  30
0.00000
  42
-0.0783
  70
32
  0
VERTEX
  5
BFF
  100
AcDbEntity
  8
Layer 1
  62
0
  100
AcDb2dVertex
  10
0.25876
  20
0.73873
  30
0.00000
  70
32
  0
VERTEX
  5
C00
  100
AcDbEntity
  8
Layer 1
  62
0
  100
AcDb2dVertex
  10
0.26200
  20
0.74700
  30
0.00000
  70
32
  0
VERTEX
  5
C01
  100
AcDbEntity
  8
Layer 1
  62
0
  100
AcDb2dVertex
  10
0.27400
  20
0.75500
  30
0.00000
  42
-0.2532
  70
32
  0
VERTEX
  5
C02
  100
AcDbEntity
  8
Layer 1
  62
0
  100
AcDb2dVertex
  10
0.28415
  20
0.74863
  30
0.00000
  42
-0.0588
  70
32
  0
VERTEX
  5
C03
  100
AcDbEntity
  8
Layer 1
  62
0
  100
AcDb2dVertex
  10
0.28700
  20
0.74300
  30
0.00000
  42
0.1338
  70
32
  0
VERTEX
  5
C04
  100
AcDbEntity
  8
Layer 1
  62
0
  100
AcDb2dVertex
  10
0.29369
  20
0.73141
  30
0.00000
  42
0.1723
  70
32
  0
VERTEX
  5
C05
  100
AcDbEntity
  8
Layer 1
  62
0
  100
AcDb2dVertex
  10
0.29700
  20
0.73000
  30
0.00000
  42
0.3332
  70
32
  0
VERTEX
  5
C06
  100
AcDbEntity
  8
Layer 1
  62
0
  100
AcDb2dVertex
  10
0.31065
  20
0.73959
  30
0.00000
  70
32
  0
VERTEX
  5
C07
  100
AcDbEntity
  8
Layer 1
  62
0
  100
AcDb2dVertex
  10
0.31200
  20
0.74400
  30
0.00000
  42
-0.2121
  70
32
  0
VERTEX
  5
C08
  100
AcDbEntity
  8
Layer 1
  62
0
  100
AcDb2dVertex
  10
0.31970
  20
0.75660
  30
0.00000
  42
-0.1415
  70
32
  0
VERTEX
  5
C09
  100
AcDbEntity
  8
Layer 1
  62
0
  100
AcDb2dVertex
  10
0.32900
  20
0.75900
  30
0.00000
  42
-0.1405
  70
32
  0
VERTEX
  5
C0A
  100
AcDbEntity
  8
Layer 1
  62
0
  100
AcDb2dVertex
  10
0.33731
  20
0.75523
  30
0.00000
  42
-0.0463
  70
32
  0
VERTEX
  5
C0B
  100
AcDbEntity
  8
Layer 1
  62
0
  100
AcDb2dVertex
  10
0.35900
  20
0.73500
  30
0.00000
  42
0.0716
  70
32
  0
VERTEX
  5
C0C
  100
AcDbEntity
  8
Layer 1
  62
0
  100
AcDb2dVertex
  10
0.42054
  20
0.70014
  30
0.00000
  42
0.0901
  70
32
  0
VERTEX
  5
C0D
  100
AcDbEntity
  8
Layer 1
  62
0
  100
AcDb2dVertex
  10
0.47400
  20
0.69000
  30
0.00000
  42
0.1448
  70
32
  0
VERTEX
  5
C0E
  100
AcDbEntity
  8
Layer 1
  62
0
  100
AcDb2dVertex
  10
0.51728
  20
0.70342
  30
0.00000
  42
0.0423
  70
32
  0
VERTEX
  5
C0F
  100
AcDbEntity
  8
Layer 1
  62
0
  100
AcDb2dVertex
  10
0.53500
  20
0.71700
  30
0.00000
  42
-0.3040
  70
32
  0
VERTEX
  5
C10
  100
AcDbEntity
  8
Layer 1
  62
0
  100
AcDb2dVertex
  10
0.54722
  20
0.70902
  30
0.00000
  42
-0.0985
  70
32
  0
VERTEX
  5
C11
  100
AcDbEntity
  8
Layer 1
  62
0
  100
AcDb2dVertex
  10
0.55167
  20
0.68917
  30
0.00000
  70
32
  0
VERTEX
  5
C12
  100
AcDbEntity
  8
Layer 1
  62
0
  100
AcDb2dVertex
  10
0.55200
  20
0.67900
  30
0.00000
  70
32
  0
SEQEND
  5
C13
  100
AcDbEntity
  8
Layer 1
  62
0
  0
POLYLINE
  5
C14
  100
AcDbEntity
  8
Layer 1
  62
0
  100
AcDb2dPolyline
 66
     1
  10
0
  20
0
  30
0
  70
1
  0
VERTEX
  5
C15
  100
AcDbEntity
  8
Layer 1
  62
0
  100
AcDb2dVertex
  10
0.21200
  20
0.71400
  30
0.00000
  42
-0.1740
  70
32
  0
VERTEX
  5
C16
  100
AcDbEntity
  8
Layer 1
  62
0
  100
AcDb2dVertex
  10
0.20730
  20
0.70735
  30
0.00000
  42
-0.0576
  70
32
  0
VERTEX
  5
C17
  100
AcDbEntity
  8
Layer 1
  62
0
  100
AcDb2dVertex
  10
0.18452
  20
0.69356
  30
0.00000
  42
-0.0187
  70
32
  0
VERTEX
  5
C18
  100
AcDbEntity
  8
Layer 1
  62
0
  100
AcDb2dVertex
  10
0.14000
  20
0.67400
  30
0.00000
  70
32
  0
VERTEX
  5
C19
  100
AcDbEntity
  8
Layer 1
  62
0
  100
AcDb2dVertex
  10
0.09400
  20
0.61700
  30
0.00000
  70
32
  0
VERTEX
  5
C1A
  100
AcDbEntity
  8
Layer 1
  62
0
  100
AcDb2dVertex
  10
0.06200
  20
0.65400
  30
0.00000
  70
32
  0
VERTEX
  5
C1B
  100
AcDbEntity
  8
Layer 1
  62
0
  100
AcDb2dVertex
  10
0.06700
  20
0.66200
  30
0.00000
  70
32
  0
VERTEX
  5
C1C
  100
AcDbEntity
  8
Layer 1
  62
0
  100
AcDb2dVertex
  10
0.08700
  20
0.67000
  30
0.00000
  42
0.0634
  70
32
  0
VERTEX
  5
C1D
  100
AcDbEntity
  8
Layer 1
  62
0
  100
AcDb2dVertex
  10
0.10089
  20
0.67993
  30
0.00000
  42
0.1696
  70
32
  0
VERTEX
  5
C1E
  100
AcDbEntity
  8
Layer 1
  62
0
  100
AcDb2dVertex
  10
0.10200
  20
0.68200
  30
0.00000
  42
0.1237
  70
32
  0
VERTEX
  5
C1F
  100
AcDbEntity
  8
Layer 1
  62
0
  100
AcDb2dVertex
  10
0.09755
  20
0.69396
  30
0.00000
  42
0.0309
  70
32
  0
VERTEX
  5
C20
  100
AcDbEntity
  8
Layer 1
  62
0
  100
AcDb2dVertex
  10
0.09200
  20
0.70200
  30
0.00000
  42
-0.1046
  70
32
  0
VERTEX
  5
C21
  100
AcDbEntity
  8
Layer 1
  62
0
  100
AcDb2dVertex
  10
0.08259
  20
0.71926
  30
0.00000
  42
-0.0591
  70
32
  0
VERTEX
  5
C22
  100
AcDbEntity
  8
Layer 1
  62
0
  100
AcDb2dVertex
  10
0.08200
  20
0.72400
  30
0.00000
  42
-0.1948
  70
32
  0
VERTEX
  5
C23
  100
AcDbEntity
  8
Layer 1
  62
0
  100
AcDb2dVertex
  10
0.08685
  20
0.73859
  30
0.00000
  42
-0.2036
  70
32
  0
VERTEX
  5
C24
  100
AcDbEntity
  8
Layer 1
  62
0
  100
AcDb2dVertex
  10
0.10119
  20
0.74399
  30
0.00000
  70
32
  0
VERTEX
  5
C25
  100
AcDbEntity
  8
Layer 1
  62
0
  100
AcDb2dVertex
  10
0.10200
  20
0.74400
  30
0.00000
  42
-0.1491
  70
32
  0
VERTEX
  5
C26
  100
AcDbEntity
  8
Layer 1
  62
0
  100
AcDb2dVertex
  10
0.11850
  20
0.73790
  30
0.00000
  42
-0.0328
  70
32
  0
VERTEX
  5
C27
  100
AcDbEntity
  8
Layer 1
  62
0
  100
AcDb2dVertex
  10
0.12600
  20
0.73200
  30
0.00000
  42
0.0490
  70
32
  0
VERTEX
  5
C28
  100
AcDbEntity
  8
Layer 1
  62
0
  100
AcDb2dVertex
  10
0.14226
  20
0.72050
  30
0.00000
  70
32
  0
VERTEX
  5
C29
  100
AcDbEntity
  8
Layer 1
  62
0
  100
AcDb2dVertex
  10
0.14400
  20
0.72000
  30
0.00000
  42
0.1922
  70
32
  0
VERTEX
  5
C2A
  100
AcDbEntity
  8
Layer 1
  62
0
  100
AcDb2dVertex
  10
0.15324
  20
0.72478
  30
0.00000
  42
0.0637
  70
32
  0
VERTEX
  5
C2B
  100
AcDbEntity
  8
Layer 1
  62
0
  100
AcDb2dVertex
  10
0.16100
  20
0.73500
  30
0.00000
  42
-0.1107
  70
32
  0
VERTEX
  5
C2C
  100
AcDbEntity
  8
Layer 1
  62
0
  100
AcDb2dVertex
  10
0.17264
  20
0.74848
  30
0.00000
  42
-0.1387
  70
32
  0
VERTEX
  5
C2D
  100
AcDbEntity
  8
Layer 1
  62
0
  100
AcDb2dVertex
  10
0.17700
  20
0.75000
  30
0.00000
  42
-0.1649
  70
32
  0
VERTEX
  5
C2E
  100
AcDbEntity
  8
Layer 1
  62
0
  100
AcDb2dVertex
  10
0.18707
  20
0.74540
  30
0.00000
  42
-0.0689
  70
32
  0
VERTEX
  5
C2F
  100
AcDbEntity
  8
Layer 1
  62
0
  100
AcDb2dVertex
  10
0.20538
  20
0.72410
  30
0.00000
  70
32
  0
VERTEX
  5
C30
  100
AcDbEntity
  8
Layer 1
  62
0
  100
AcDb2dVertex
  10
0.21200
  20
0.71400
  30
0.00000
  70
32
  0
SEQEND
  5
C31
  100
AcDbEntity
  8
Layer 1
  62
0
  0
POLYLINE
  5
C32
  100
AcDbEntity
  8
Layer 1
  62
0
  100
AcDb2dPolyline
 66
     1
  10
0
  20
0
  30
0
  70
1
  0
VERTEX
  5
C33
  100
AcDbEntity
  8
Layer 1
  62
0
  100
AcDb2dVertex
  10
0.92700
  20
0.07000
  30
0.00000
  42
-0.1662
  70
32
  0
VERTEX
  5
C34
  100
AcDbEntity
  8
Layer 1
  62
0
  100
AcDb2dVertex
  10
0.92076
  20
0.04862
  30
0.00000
  42
-0.1643
  70
32
  0
VERTEX
  5
C35
  100
AcDbEntity
  8
Layer 1
  62
0
  100
AcDb2dVertex
  10
0.90600
  20
0.03900
  30
0.00000
  42
-0.0344
  70
32
  0
VERTEX
  5
C36
  100
AcDbEntity
  8
Layer 1
  62
0
  100
AcDb2dVertex
  10
0.86600
  20
0.02700
  30
0.00000
  42
-0.0986
  70
32
  0
VERTEX
  5
C37
  100
AcDbEntity
  8
Layer 1
  62
0
  100
AcDb2dVertex
  10
0.84916
  20
0.01330
  30
0.00000
  42
-0.1036
  70
32
  0
VERTEX
  5
C38
  100
AcDbEntity
  8
Layer 1
  62
0
  100
AcDb2dVertex
  10
0.84400
  20
0.01200
  30
0.00000
  70
32
  0
VERTEX
  5
C39
  100
AcDbEntity
  8
Layer 1
  62
0
  100
AcDb2dVertex
  10
0.82400
  20
0.02000
  30
0.00000
  42
-0.1356
  70
32
  0
VERTEX
  5
C3A
  100
AcDbEntity
  8
Layer 1
  62
0
  100
AcDb2dVertex
  10
0.80200
  20
0.01400
  30
0.00000
  42
-0.0391
  70
32
  0
VERTEX
  5
C3B
  100
AcDbEntity
  8
Layer 1
  62
0
  100
AcDb2dVertex
  10
0.77905
  20
0.01812
  30
0.00000
  42
-0.0103
  70
32
  0
VERTEX
  5
C3C
  100
AcDbEntity
  8
Layer 1
  62
0
  100
AcDb2dVertex
  10
0.74400
  20
0.02700
  30
0.00000
  42
0.0609
  70
32
  0
VERTEX
  5
C3D
  100
AcDbEntity
  8
Layer 1
  62
0
  100
AcDb2dVertex
  10
0.66218
  20
0.03994
  30
0.00000
  70
32
  0
VERTEX
  5
C3E
  100
AcDbEntity
  8
Layer 1
  62
0
  100
AcDb2dVertex
  10
0.65700
  20
0.04000
  30
0.00000
  42
-0.2349
  70
32
  0
VERTEX
  5
C3F
  100
AcDbEntity
  8
Layer 1
  62
0
  100
AcDb2dVertex
  10
0.65262
  20
0.04327
  30
0.00000
  42
-0.0462
  70
32
  0
VERTEX
  5
C40
  100
AcDbEntity
  8
Layer 1
  62
0
  100
AcDb2dVertex
  10
0.64700
  20
0.05400
  30
0.00000
  42
0.1408
  70
32
  0
VERTEX
  5
C41
  100
AcDbEntity
  8
Layer 1
  62
0
  100
AcDb2dVertex
  10
0.63968
  20
0.06540
  30
0.00000
  42
0.1605
  70
32
  0
VERTEX
  5
C42
  100
AcDbEntity
  8
Layer 1
  62
0
  100
AcDb2dVertex
  10
0.63500
  20
0.06700
  30
0.00000
  42
0.2701
  70
32
  0
VERTEX
  5
C43
  100
AcDbEntity
  8
Layer 1
  62
0
  100
AcDb2dVertex
  10
0.62942
  20
0.06292
  30
0.00000
  42
0.0640
  70
32
  0
VERTEX
  5
C44
  100
AcDbEntity
  8
Layer 1
  62
0
  100
AcDb2dVertex
  10
0.62700
  20
0.05700
  30
0.00000
  42
-0.1721
  70
32
  0
VERTEX
  5
C45
  100
AcDbEntity
  8
Layer 1
  62
0
  100
AcDb2dVertex
  10
0.62198
  20
0.04842
  30
0.00000
  42
-0.1562
  70
32
  0
VERTEX
  5
C46
  100
AcDbEntity
  8
Layer 1
  62
0
  100
AcDb2dVertex
  10
0.61700
  20
0.04700
  30
0.00000
  42
0.1152
  70
32
  0
VERTEX
  5
C47
  100
AcDbEntity
  8
Layer 1
  62
0
  100
AcDb2dVertex
  10
0.57914
  20
0.06250
  30
0.00000
  42
0.0460
  70
32
  0
VERTEX
  5
C48
  100
AcDbEntity
  8
Layer 1
  62
0
  100
AcDb2dVertex
  10
0.55000
  20
0.06500
  30
0.00000
  42
0.0908
  70
32
  0
VERTEX
  5
C49
  100
AcDbEntity
  8
Layer 1
  62
0
  100
AcDb2dVertex
  10
0.51311
  20
0.05706
  30
0.00000
  42
0.0494
  70
32
  0
VERTEX
  5
C4A
  100
AcDbEntity
  8
Layer 1
  62
0
  100
AcDb2dVertex
  10
0.46700
  20
0.03300
  30
0.00000
  70
32
  0
VERTEX
  5
C4B
  100
AcDbEntity
  8
Layer 1
  62
0
  100
AcDb2dVertex
  10
0.43025
  20
0.00825
  30
0.00000
  70
32
  0
VERTEX
  5
C4C
  100
AcDbEntity
  8
Layer 1
  62
0
  100
AcDb2dVertex
  10
0.42144
  20
0.00206
  30
0.00000
  42
0.1158
  70
32
  0
VERTEX
  5
C4D
  100
AcDbEntity
  8
Layer 1
  62
0
  100
AcDb2dVertex
  10
0.41900
  20
0.00000
  30
0.00000
  42
-0.1349
  70
32
  0
VERTEX
  5
C4E
  100
AcDbEntity
  8
Layer 1
  62
0
  100
AcDb2dVertex
  10
0.41496
  20
0.00338
  30
0.00000
  42
-0.0270
  70
32
  0
VERTEX
  5
C4F
  100
AcDbEntity
  8
Layer 1
  62
0
  100
AcDb2dVertex
  10
0.39200
  20
0.03400
  30
0.00000
  70
32
  0
VERTEX
  5
C50
  100
AcDbEntity
  8
Layer 1
  62
0
  100
AcDb2dVertex
  10
0.43200
  20
0.06500
  30
0.00000
  70
32
  0
VERTEX
  5
C51
  100
AcDbEntity
  8
Layer 1
  62
0
  100
AcDb2dVertex
  10
0.39200
  20
0.03400
  30
0.00000
  42
-0.0243
  70
32
  0
VERTEX
  5
C52
  100
AcDbEntity
  8
Layer 1
  62
0
  100
AcDb2dVertex
  10
0.37134
  20
0.06309
  30
0.00000
  42
-0.1129
  70
32
  0
VERTEX
  5
C53
  100
AcDbEntity
  8
Layer 1
  62
0
  100
AcDb2dVertex
  10
0.36900
  20
0.06900
  30
0.00000
  42
-0.1893
  70
32
  0
VERTEX
  5
C54
  100
AcDbEntity
  8
Layer 1
  62
0
  100
AcDb2dVertex
  10
0.37432
  20
0.08011
  30
0.00000
  42
-0.0798
  70
32
  0
VERTEX
  5
C55
  100
AcDbEntity
  8
Layer 1
  62
0
  100
AcDb2dVertex
  10
0.39507
  20
0.09476
  30
0.00000
  42
-0.0183
  70
32
  0
VERTEX
  5
C56
  100
AcDbEntity
  8
Layer 1
  62
0
  100
AcDb2dVertex
  10
0.41000
  20
0.10200
  30
0.00000
  42
-0.0468
  70
32
  0
VERTEX
  5
C57
  100
AcDbEntity
  8
Layer 1
  62
0
  100
AcDb2dVertex
  10
0.45718
  20
0.11818
  30
0.00000
  42
-0.0513
  70
32
  0
VERTEX
  5
C58
  100
AcDbEntity
  8
Layer 1
  62
0
  100
AcDb2dVertex
  10
0.47200
  20
0.12000
  30
0.00000
  42
-0.0581
  70
32
  0
VERTEX
  5
C59
  100
AcDbEntity
  8
Layer 1
  62
0
  100
AcDb2dVertex
  10
0.50431
  20
0.11470
  30
0.00000
  70
32
  0
VERTEX
  5
C5A
  100
AcDbEntity
  8
Layer 1
  62
0
  100
AcDb2dVertex
  10
0.50700
  20
0.11400
  30
0.00000
  42
0.0348
  70
32
  0
VERTEX
  5
C5B
  100
AcDbEntity
  8
Layer 1
  62
0
  100
AcDb2dVertex
  10
0.54178
  20
0.10904
  30
0.00000
  70
32
  0
VERTEX
  5
C5C
  100
AcDbEntity
  8
Layer 1
  62
0
  100
AcDb2dVertex
  10
0.54400
  20
0.10900
  30
0.00000
  42
0.1091
  70
32
  0
VERTEX
  5
C5D
  100
AcDbEntity
  8
Layer 1
  62
0
  100
AcDb2dVertex
  10
0.58499
  20
0.11907
  30
0.00000
  70
32
  0
VERTEX
  5
C5E
  100
AcDbEntity
  8
Layer 1
  62
0
  100
AcDb2dVertex
  10
0.58900
  20
0.12100
  30
0.00000
  70
32
  0
VERTEX
  5
C5F
  100
AcDbEntity
  8
Layer 1
  62
0
  100
AcDb2dVertex
  10
0.59516
  20
0.12430
  30
0.00000
  70
32
  0
VERTEX
  5
C60
  100
AcDbEntity
  8
Layer 1
  62
0
  100
AcDb2dVertex
  10
0.60868
  20
0.13142
  30
0.00000
  42
-0.0745
  70
32
  0
VERTEX
  5
C61
  100
AcDbEntity
  8
Layer 1
  62
0
  100
AcDb2dVertex
  10
0.61500
  20
0.13400
  30
0.00000
  42
-0.3493
  70
32
  0
VERTEX
  5
C62
  100
AcDbEntity
  8
Layer 1
  62
0
  100
AcDb2dVertex
  10
0.62595
  20
0.12568
  30
0.00000
  42
-0.0515
  70
32
  0
VERTEX
  5
C63
  100
AcDbEntity
  8
Layer 1
  62
0
  100
AcDb2dVertex
  10
0.62700
  20
0.12100
  30
0.00000
  42
0.2025
  70
32
  0
VERTEX
  5
C64
  100
AcDbEntity
  8
Layer 1
  62
0
  100
AcDb2dVertex
  10
0.63193
  20
0.11067
  30
0.00000
  42
0.1652
  70
32
  0
VERTEX
  5
C65
  100
AcDbEntity
  8
Layer 1
  62
0
  100
AcDb2dVertex
  10
0.63700
  20
0.10900
  30
0.00000
  42
0.1714
  70
32
  0
VERTEX
  5
C66
  100
AcDbEntity
  8
Layer 1
  62
0
  100
AcDb2dVertex
  10
0.64620
  20
0.11283
  30
0.00000
  70
32
  0
VERTEX
  5
C67
  100
AcDbEntity
  8
Layer 1
  62
0
  100
AcDb2dVertex
  10
0.64900
  20
0.11500
  30
0.00000
  42
-0.1779
  70
32
  0
VERTEX
  5
C68
  100
AcDbEntity
  8
Layer 1
  62
0
  100
AcDb2dVertex
  10
0.65870
  20
0.12188
  30
0.00000
  70
32
  0
VERTEX
  5
C69
  100
AcDbEntity
  8
Layer 1
  62
0
  100
AcDb2dVertex
  10
0.66000
  20
0.12200
  30
0.00000
  70
32
  0
VERTEX
  5
C6A
  100
AcDbEntity
  8
Layer 1
  62
0
  100
AcDb2dVertex
  10
0.65982
  20
0.12189
  30
0.00000
  42
0.0708
  70
32
  0
VERTEX
  5
C6B
  100
AcDbEntity
  8
Layer 1
  62
0
  100
AcDb2dVertex
  10
0.66612
  20
0.11741
  30
0.00000
  42
0.0068
  70
32
  0
VERTEX
  5
C6C
  100
AcDbEntity
  8
Layer 1
  62
0
  100
AcDb2dVertex
  10
0.70400
  20
0.09500
  30
0.00000
  42
0.1011
  70
32
  0
VERTEX
  5
C6D
  100
AcDbEntity
  8
Layer 1
  62
0
  100
AcDb2dVertex
  10
0.74464
  20
0.08050
  30
0.00000
  70
32
  0
VERTEX
  5
C6E
  100
AcDbEntity
  8
Layer 1
  62
0
  100
AcDb2dVertex
  10
0.75600
  20
0.07900
  30
0.00000
  70
32
  0
VERTEX
  5
C6F
  100
AcDbEntity
  8
Layer 1
  62
0
  100
AcDb2dVertex
  10
0.79275
  20
0.07300
  30
0.00000
  42
-0.0344
  70
32
  0
VERTEX
  5
C70
  100
AcDbEntity
  8
Layer 1
  62
0
  100
AcDb2dVertex
  10
0.80700
  20
0.07000
  30
0.00000
  42
0.1221
  70
32
  0
VERTEX
  5
C71
  100
AcDbEntity
  8
Layer 1
  62
0
  100
AcDb2dVertex
  10
0.82701
  20
0.05564
  30
0.00000
  70
32
  0
VERTEX
  5
C72
  100
AcDbEntity
  8
Layer 1
  62
0
  100
AcDb2dVertex
  10
0.83100
  20
0.05400
  30
0.00000
  42
-0.1369
  70
32
  0
VERTEX
  5
C73
  100
AcDbEntity
  8
Layer 1
  62
0
  100
AcDb2dVertex
  10
0.84400
  20
0.06400
  30
0.00000
  42
-0.0465
  70
32
  0
VERTEX
  5
C74
  100
AcDbEntity
  8
Layer 1
  62
0
  100
AcDb2dVertex
  10
0.85301
  20
0.06262
  30
0.00000
  70
32
  0
VERTEX
  5
C75
  100
AcDbEntity
  8
Layer 1
  62
0
  100
AcDb2dVertex
  10
0.85600
  20
0.06200
  30
0.00000
  70
32
  0
VERTEX
  5
C76
  100
AcDbEntity
  8
Layer 1
  62
0
  100
AcDb2dVertex
  10
0.85787
  20
0.06163
  30
0.00000
  42
0.0408
  70
32
  0
VERTEX
  5
C77
  100
AcDbEntity
  8
Layer 1
  62
0
  100
AcDb2dVertex
  10
0.86900
  20
0.06000
  30
0.00000
  42
0.2363
  70
32
  0
VERTEX
  5
C78
  100
AcDbEntity
  8
Layer 1
  62
0
  100
AcDb2dVertex
  10
0.88047
  20
0.06621
  30
0.00000
  42
0.0745
  70
32
  0
VERTEX
  5
C79
  100
AcDbEntity
  8
Layer 1
  62
0
  100
AcDb2dVertex
  10
0.88900
  20
0.08200
  30
0.00000
  70
32
  0
VERTEX
  5
C7A
  100
AcDbEntity
  8
Layer 1
  62
0
  100
AcDb2dVertex
  10
0.89700
  20
0.09400
  30
0.00000
  70
32
  0
VERTEX
  5
C7B
  100
AcDbEntity
  8
Layer 1
  62
0
  100
AcDb2dVertex
  10
0.89700
  20
0.11500
  30
0.00000
  42
-0.2254
  70
32
  0
VERTEX
  5
C7C
  100
AcDbEntity
  8
Layer 1
  62
0
  100
AcDb2dVertex
  10
0.90069
  20
0.12492
  30
0.00000
  42
-0.1784
  70
32
  0
VERTEX
  5
C7D
  100
AcDbEntity
  8
Layer 1
  62
0
  100
AcDb2dVertex
  10
0.90700
  20
0.12700
  30
0.00000
  42
-0.2783
  70
32
  0
VERTEX
  5
C7E
  100
AcDbEntity
  8
Layer 1
  62
0
  100
AcDb2dVertex
  10
0.91914
  20
0.11956
  30
0.00000
  42
-0.0981
  70
32
  0
VERTEX
  5
C7F
  100
AcDbEntity
  8
Layer 1
  62
0
  100
AcDb2dVertex
  10
0.92523
  20
0.09971
  30
0.00000
  42
-0.0358
  70
32
  0
VERTEX
  5
C80
  100
AcDbEntity
  8
Layer 1
  62
0
  100
AcDb2dVertex
  10
0.92700
  20
0.07000
  30
0.00000
  70
32
  0
SEQEND
  5
C81
  100
AcDbEntity
  8
Layer 1
  62
0
  0
POLYLINE
  5
C82
  100
AcDbEntity
  8
Layer 1
  62
0
  100
AcDb2dPolyline
 66
     1
  10
0
  20
0
  30
0
  70
1
  0
VERTEX
  5
C83
  100
AcDbEntity
  8
Layer 1
  62
0
  100
AcDb2dVertex
  10
0.73700
  20
0.61700
  30
0.00000
  42
-0.0629
  70
32
  0
VERTEX
  5
C84
  100
AcDbEntity
  8
Layer 1
  62
0
  100
AcDb2dVertex
  10
0.73139
  20
0.58319
  30
0.00000
  42
-0.0219
  70
32
  0
VERTEX
  5
C85
  100
AcDbEntity
  8
Layer 1
  62
0
  100
AcDb2dVertex
  10
0.72100
  20
0.55100
  30
0.00000
  42
0.0544
  70
32
  0
VERTEX
  5
C86
  100
AcDbEntity
  8
Layer 1
  62
0
  100
AcDb2dVertex
  10
0.70528
  20
0.50038
  30
0.00000
  42
0.0411
  70
32
  0
VERTEX
  5
C87
  100
AcDbEntity
  8
Layer 1
  62
0
  100
AcDb2dVertex
  10
0.70400
  20
0.48700
  30
0.00000
  42
0.0440
  70
32
  0
VERTEX
  5
C88
  100
AcDbEntity
  8
Layer 1
  62
0
  100
AcDb2dVertex
  10
0.70500
  20
0.47000
  30
0.00000
  70
32
  0
VERTEX
  5
C89
  100
AcDbEntity
  8
Layer 1
  62
0
  100
AcDb2dVertex
  10
0.70400
  20
0.46700
  30
0.00000
  70
32
  0
VERTEX
  5
C8A
  100
AcDbEntity
  8
Layer 1
  62
0
  100
AcDb2dVertex
  10
0.69000
  20
0.45500
  30
0.00000
  70
32
  0
VERTEX
  5
C8B
  100
AcDbEntity
  8
Layer 1
  62
0
  100
AcDb2dVertex
  10
0.70000
  20
0.44200
  30
0.00000
  42
0.0475
  70
32
  0
VERTEX
  5
C8C
  100
AcDbEntity
  8
Layer 1
  62
0
  100
AcDb2dVertex
  10
0.67900
  20
0.43000
  30
0.00000
  70
32
  0
VERTEX
  5
C8D
  100
AcDbEntity
  8
Layer 1
  62
0
  100
AcDb2dVertex
  10
0.69112
  20
0.41862
  30
0.00000
  42
-0.0968
  70
32
  0
VERTEX
  5
C8E
  100
AcDbEntity
  8
Layer 1
  62
0
  100
AcDb2dVertex
  10
0.69500
  20
0.41400
  30
0.00000
  42
0.1055
  70
32
  0
VERTEX
  5
C8F
  100
AcDbEntity
  8
Layer 1
  62
0
  100
AcDb2dVertex
  10
0.67201
  20
0.40756
  30
0.00000
  70
32
  0
VERTEX
  5
C90
  100
AcDbEntity
  8
Layer 1
  62
0
  100
AcDb2dVertex
  10
0.66700
  20
0.40500
  30
0.00000
  42
-0.0390
  70
32
  0
VERTEX
  5
C91
  100
AcDbEntity
  8
Layer 1
  62
0
  100
AcDb2dVertex
  10
0.68000
  20
0.38500
  30
0.00000
  70
32
  0
VERTEX
  5
C92
  100
AcDbEntity
  8
Layer 1
  62
0
  100
AcDb2dVertex
  10
0.68000
  20
0.38200
  30
0.00000
  70
32
  0
VERTEX
  5
C93
  100
AcDbEntity
  8
Layer 1
  62
0
  100
AcDb2dVertex
  10
0.66000
  20
0.37900
  30
0.00000
  42
0.0929
  70
32
  0
VERTEX
  5
C94
  100
AcDbEntity
  8
Layer 1
  62
0
  100
AcDb2dVertex
  10
0.64774
  20
0.37500
  30
0.00000
  42
0.2654
  70
32
  0
VERTEX
  5
C95
  100
AcDbEntity
  8
Layer 1
  62
0
  100
AcDb2dVertex
  10
0.64500
  20
0.37000
  30
0.00000
  42
0.2549
  70
32
  0
VERTEX
  5
C96
  100
AcDbEntity
  8
Layer 1
  62
0
  100
AcDb2dVertex
  10
0.65054
  20
0.36207
  30
0.00000
  42
0.0584
  70
32
  0
VERTEX
  5
C97
  100
AcDbEntity
  8
Layer 1
  62
0
  100
AcDb2dVertex
  10
0.65500
  20
0.36000
  30
0.00000
  42
-0.1778
  70
32
  0
VERTEX
  5
C98
  100
AcDbEntity
  8
Layer 1
  62
0
  100
AcDb2dVertex
  10
0.66332
  20
0.35446
  30
0.00000
  42
-0.1307
  70
32
  0
VERTEX
  5
C99
  100
AcDbEntity
  8
Layer 1
  62
0
  100
AcDb2dVertex
  10
0.66400
  20
0.35200
  30
0.00000
  70
32
  0
VERTEX
  5
C9A
  100
AcDbEntity
  8
Layer 1
  62
0
  100
AcDb2dVertex
  10
0.65700
  20
0.34500
  30
0.00000
  42
-0.0123
  70
32
  0
VERTEX
  5
C9B
  100
AcDbEntity
  8
Layer 1
  62
0
  100
AcDb2dVertex
  10
0.63000
  20
0.34700
  30
0.00000
  42
0.2594
  70
32
  0
VERTEX
  5
C9C
  100
AcDbEntity
  8
Layer 1
  62
0
  100
AcDb2dVertex
  10
0.62306
  20
0.34419
  30
0.00000
  42
0.1468
  70
32
  0
VERTEX
  5
C9D
  100
AcDbEntity
  8
Layer 1
  62
0
  100
AcDb2dVertex
  10
0.62200
  20
0.34000
  30
0.00000
  42
0.1414
  70
32
  0
VERTEX
  5
C9E
  100
AcDbEntity
  8
Layer 1
  62
0
  100
AcDb2dVertex
  10
0.62529
  20
0.33573
  30
0.00000
  42
0.0289
  70
32
  0
VERTEX
  5
C9F
  100
AcDbEntity
  8
Layer 1
  62
0
  100
AcDb2dVertex
  10
0.64500
  20
0.32000
  30
0.00000
  70
32
  0
VERTEX
  5
CA0
  100
AcDbEntity
  8
Layer 1
  62
0
  100
AcDb2dVertex
  10
0.64700
  20
0.31700
  30
0.00000
  70
32
  0
VERTEX
  5
CA1
  100
AcDbEntity
  8
Layer 1
  62
0
  100
AcDb2dVertex
  10
0.63900
  20
0.31000
  30
0.00000
  42
-0.0167
  70
32
  0
VERTEX
  5
CA2
  100
AcDbEntity
  8
Layer 1
  62
0
  100
AcDb2dVertex
  10
0.60500
  20
0.31400
  30
0.00000
  42
0.2094
  70
32
  0
VERTEX
  5
CA3
  100
AcDbEntity
  8
Layer 1
  62
0
  100
AcDb2dVertex
  10
0.59546
  20
0.31078
  30
0.00000
  42
0.1877
  70
32
  0
VERTEX
  5
CA4
  100
AcDbEntity
  8
Layer 1
  62
0
  100
AcDb2dVertex
  10
0.59400
  20
0.30700
  30
0.00000
  42
0.0641
  70
32
  0
VERTEX
  5
CA5
  100
AcDbEntity
  8
Layer 1
  62
0
  100
AcDb2dVertex
  10
0.62400
  20
0.28200
  30
0.00000
  70
32
  0
VERTEX
  5
CA6
  100
AcDbEntity
  8
Layer 1
  62
0
  100
AcDb2dVertex
  10
0.61700
  20
0.27700
  30
0.00000
  70
32
  0
VERTEX
  5
CA7
  100
AcDbEntity
  8
Layer 1
  62
0
  100
AcDb2dVertex
  10
0.57400
  20
0.28400
  30
0.00000
  70
32
  0
VERTEX
  5
CA8
  100
AcDbEntity
  8
Layer 1
  62
0
  100
AcDb2dVertex
  10
0.56200
  20
0.28000
  30
0.00000
  42
0.2180
  70
32
  0
VERTEX
  5
CA9
  100
AcDbEntity
  8
Layer 1
  62
0
  100
AcDb2dVertex
  10
0.56612
  20
0.27331
  30
0.00000
  42
0.0796
  70
32
  0
VERTEX
  5
CAA
  100
AcDbEntity
  8
Layer 1
  62
0
  100
AcDb2dVertex
  10
0.58526
  20
0.26336
  30
0.00000
  70
32
  0
VERTEX
  5
CAB
  100
AcDbEntity
  8
Layer 1
  62
0
  100
AcDb2dVertex
  10
0.59500
  20
0.26000
  30
0.00000
  70
32
  0
VERTEX
  5
CAC
  100
AcDbEntity
  8
Layer 1
  62
0
  100
AcDb2dVertex
  10
0.60000
  20
0.25400
  30
0.00000
  70
32
  0
VERTEX
  5
CAD
  100
AcDbEntity
  8
Layer 1
  62
0
  100
AcDb2dVertex
  10
0.58900
  20
0.24700
  30
0.00000
  70
32
  0
VERTEX
  5
CAE
  100
AcDbEntity
  8
Layer 1
  62
0
  100
AcDb2dVertex
  10
0.52700
  20
0.25900
  30
0.00000
  70
32
  0
VERTEX
  5
CAF
  100
AcDbEntity
  8
Layer 1
  62
0
  100
AcDb2dVertex
  10
0.51900
  20
0.25000
  30
0.00000
  42
0.1991
  70
32
  0
VERTEX
  5
CB0
  100
AcDbEntity
  8
Layer 1
  62
0
  100
AcDb2dVertex
  10
0.52264
  20
0.24417
  30
0.00000
  42
0.0682
  70
32
  0
VERTEX
  5
CB1
  100
AcDbEntity
  8
Layer 1
  62
0
  100
AcDb2dVertex
  10
0.54261
  20
0.23216
  30
0.00000
  42
0.0205
  70
32
  0
VERTEX
  5
CB2
  100
AcDbEntity
  8
Layer 1
  62
0
  100
AcDb2dVertex
  10
0.56700
  20
0.22200
  30
0.00000
  70
32
  0
VERTEX
  5
CB3
  100
AcDbEntity
  8
Layer 1
  62
0
  100
AcDb2dVertex
  10
0.56700
  20
0.21700
  30
0.00000
  70
32
  0
VERTEX
  5
CB4
  100
AcDbEntity
  8
Layer 1
  62
0
  100
AcDb2dVertex
  10
0.55200
  20
0.21400
  30
0.00000
  42
-0.0463
  70
32
  0
VERTEX
  5
CB5
  100
AcDbEntity
  8
Layer 1
  62
0
  100
AcDb2dVertex
  10
0.52690
  20
0.21775
  30
0.00000
  70
32
  0
VERTEX
  5
CB6
  100
AcDbEntity
  8
Layer 1
  62
0
  100
AcDb2dVertex
  10
0.52100
  20
0.21900
  30
0.00000
  42
0.0547
  70
32
  0
VERTEX
  5
CB7
  100
AcDbEntity
  8
Layer 1
  62
0
  100
AcDb2dVertex
  10
0.49165
  20
0.22493
  30
0.00000
  70
32
  0
VERTEX
  5
CB8
  100
AcDbEntity
  8
Layer 1
  62
0
  100
AcDb2dVertex
  10
0.48900
  20
0.22500
  30
0.00000
  42
0.1605
  70
32
  0
VERTEX
  5
CB9
  100
AcDbEntity
  8
Layer 1
  62
0
  100
AcDb2dVertex
  10
0.47757
  20
0.22217
  30
0.00000
  42
0.2417
  70
32
  0
VERTEX
  5
CBA
  100
AcDbEntity
  8
Layer 1
  62
0
  100
AcDb2dVertex
  10
0.47500
  20
0.21700
  30
0.00000
  70
32
  0
VERTEX
  5
CBB
  100
AcDbEntity
  8
Layer 1
  62
0
  100
AcDb2dVertex
  10
0.48200
  20
0.20700
  30
0.00000
  42
-0.0414
  70
32
  0
VERTEX
  5
CBC
  100
AcDbEntity
  8
Layer 1
  62
0
  100
AcDb2dVertex
  10
0.51724
  20
0.19370
  30
0.00000
  42
-0.1222
  70
32
  0
VERTEX
  5
CBD
  100
AcDbEntity
  8
Layer 1
  62
0
  100
AcDb2dVertex
  10
0.52464
  20
0.18819
  30
0.00000
  70
32
  0
VERTEX
  5
CBE
  100
AcDbEntity
  8
Layer 1
  62
0
  100
AcDb2dVertex
  10
0.52500
  20
0.18700
  30
0.00000
  70
32
  0
VERTEX
  5
CBF
  100
AcDbEntity
  8
Layer 1
  62
0
  100
AcDb2dVertex
  10
0.51700
  20
0.18000
  30
0.00000
  70
32
  0
VERTEX
  5
CC0
  100
AcDbEntity
  8
Layer 1
  62
0
  100
AcDb2dVertex
  10
0.42700
  20
0.20400
  30
0.00000
  42
0.1593
  70
32
  0
VERTEX
  5
CC1
  100
AcDbEntity
  8
Layer 1
  62
0
  100
AcDb2dVertex
  10
0.41954
  20
0.19681
  30
0.00000
  42
0.0965
  70
32
  0
VERTEX
  5
CC2
  100
AcDbEntity
  8
Layer 1
  62
0
  100
AcDb2dVertex
  10
0.41900
  20
0.19400
  30
0.00000
  42
0.1757
  70
32
  0
VERTEX
  5
CC3
  100
AcDbEntity
  8
Layer 1
  62
0
  100
AcDb2dVertex
  10
0.42228
  20
0.18901
  30
0.00000
  42
0.0463
  70
32
  0
VERTEX
  5
CC4
  100
AcDbEntity
  8
Layer 1
  62
0
  100
AcDb2dVertex
  10
0.44466
  20
0.17294
  30
0.00000
  42
0.0107
  70
32
  0
VERTEX
  5
CC5
  100
AcDbEntity
  8
Layer 1
  62
0
  100
AcDb2dVertex
  10
0.47500
  20
0.15500
  30
0.00000
  70
32
  0
VERTEX
  5
CC6
  100
AcDbEntity
  8
Layer 1
  62
0
  100
AcDb2dVertex
  10
0.46500
  20
0.14900
  30
0.00000
  42
-0.0757
  70
32
  0
VERTEX
  5
CC7
  100
AcDbEntity
  8
Layer 1
  62
0
  100
AcDb2dVertex
  10
0.44640
  20
0.15348
  30
0.00000
  42
-0.0294
  70
32
  0
VERTEX
  5
CC8
  100
AcDbEntity
  8
Layer 1
  62
0
  100
AcDb2dVertex
  10
0.42000
  20
0.16500
  30
0.00000
  42
0.0263
  70
32
  0
VERTEX
  5
CC9
  100
AcDbEntity
  8
Layer 1
  62
0
  100
AcDb2dVertex
  10
0.38370
  20
0.18094
  30
0.00000
  42
0.0690
  70
32
  0
VERTEX
  5
CCA
  100
AcDbEntity
  8
Layer 1
  62
0
  100
AcDb2dVertex
  10
0.37900
  20
0.18200
  30
0.00000
  42
0.2803
  70
32
  0
VERTEX
  5
CCB
  100
AcDbEntity
  8
Layer 1
  62
0
  100
AcDb2dVertex
  10
0.37141
  20
0.17850
  30
0.00000
  42
0.1341
  70
32
  0
VERTEX
  5
CCC
  100
AcDbEntity
  8
Layer 1
  62
0
  100
AcDb2dVertex
  10
0.37000
  20
0.17200
  30
0.00000
  70
32
  0
VERTEX
  5
CCD
  100
AcDbEntity
  8
Layer 1
  62
0
  100
AcDb2dVertex
  10
0.37400
  20
0.16200
  30
0.00000
  42
-0.0331
  70
32
  0
VERTEX
  5
CCE
  100
AcDbEntity
  8
Layer 1
  62
0
  100
AcDb2dVertex
  10
0.40984
  20
0.14075
  30
0.00000
  42
-0.1089
  70
32
  0
VERTEX
  5
CCF
  100
AcDbEntity
  8
Layer 1
  62
0
  100
AcDb2dVertex
  10
0.41844
  20
0.13217
  30
0.00000
  42
-0.1136
  70
32
  0
VERTEX
  5
CD0
  100
AcDbEntity
  8
Layer 1
  62
0
  100
AcDb2dVertex
  10
0.41900
  20
0.13000
  30
0.00000
  42
-0.3181
  70
32
  0
VERTEX
  5
CD1
  100
AcDbEntity
  8
Layer 1
  62
0
  100
AcDb2dVertex
  10
0.41519
  20
0.12542
  30
0.00000
  42
-0.0602
  70
32
  0
VERTEX
  5
CD2
  100
AcDbEntity
  8
Layer 1
  62
0
  100
AcDb2dVertex
  10
0.41000
  20
0.12400
  30
0.00000
  70
32
  0
VERTEX
  5
CD3
  100
AcDbEntity
  8
Layer 1
  62
0
  100
AcDb2dVertex
  10
0.32200
  20
0.16500
  30
0.00000
  42
0.2550
  70
32
  0
VERTEX
  5
CD4
  100
AcDbEntity
  8
Layer 1
  62
0
  100
AcDb2dVertex
  10
0.31320
  20
0.15962
  30
0.00000
  42
0.1191
  70
32
  0
VERTEX
  5
CD5
  100
AcDbEntity
  8
Layer 1
  62
0
  100
AcDb2dVertex
  10
0.31200
  20
0.15400
  30
0.00000
  42
0.1545
  70
32
  0
VERTEX
  5
CD6
  100
AcDbEntity
  8
Layer 1
  62
0
  100
AcDb2dVertex
  10
0.31520
  20
0.14925
  30
0.00000
  42
0.0306
  70
32
  0
VERTEX
  5
CD7
  100
AcDbEntity
  8
Layer 1
  62
0
  100
AcDb2dVertex
  10
0.34129
  20
0.12778
  30
0.00000
  70
32
  0
VERTEX
  5
CD8
  100
AcDbEntity
  8
Layer 1
  62
0
  100
AcDb2dVertex
  10
0.36500
  20
0.11000
  30
0.00000
  70
32
  0
VERTEX
  5
CD9
  100
AcDbEntity
  8
Layer 1
  62
0
  100
AcDb2dVertex
  10
0.35500
  20
0.10200
  30
0.00000
  42
-0.1042
  70
32
  0
VERTEX
  5
CDA
  100
AcDbEntity
  8
Layer 1
  62
0
  100
AcDb2dVertex
  10
0.34141
  20
0.10629
  30
0.00000
  42
-0.0398
  70
32
  0
VERTEX
  5
CDB
  100
AcDbEntity
  8
Layer 1
  62
0
  100
AcDb2dVertex
  10
0.31300
  20
0.12400
  30
0.00000
  42
0.0286
  70
32
  0
VERTEX
  5
CDC
  100
AcDbEntity
  8
Layer 1
  62
0
  100
AcDb2dVertex
  10
0.28134
  20
0.14350
  30
0.00000
  42
0.0916
  70
32
  0
VERTEX
  5
CDD
  100
AcDbEntity
  8
Layer 1
  62
0
  100
AcDb2dVertex
  10
0.27700
  20
0.14500
  30
0.00000
  42
0.0779
  70
32
  0
VERTEX
  5
CDE
  100
AcDbEntity
  8
Layer 1
  62
0
  100
AcDb2dVertex
  10
0.26197
  20
0.14090
  30
0.00000
  42
0.0166
  70
32
  0
VERTEX
  5
CDF
  100
AcDbEntity
  8
Layer 1
  62
0
  100
AcDb2dVertex
  10
0.24600
  20
0.13400
  30
0.00000
  42
0.0683
  70
32
  0
VERTEX
  5
CE0
  100
AcDbEntity
  8
Layer 1
  62
0
  100
AcDb2dVertex
  10
0.22771
  20
0.12183
  30
0.00000
  42
0.1967
  70
32
  0
VERTEX
  5
CE1
  100
AcDbEntity
  8
Layer 1
  62
0
  100
AcDb2dVertex
  10
0.22400
  20
0.11500
  30
0.00000
  42
0.2136
  70
32
  0
VERTEX
  5
CE2
  100
AcDbEntity
  8
Layer 1
  62
0
  100
AcDb2dVertex
  10
0.22731
  20
0.11026
  30
0.00000
  42
0.0632
  70
32
  0
VERTEX
  5
CE3
  100
AcDbEntity
  8
Layer 1
  62
0
  100
AcDb2dVertex
  10
0.24670
  20
0.10005
  30
0.00000
  42
0.0212
  70
32
  0
VERTEX
  5
CE4
  100
AcDbEntity
  8
Layer 1
  62
0
  100
AcDb2dVertex
  10
0.28900
  20
0.08500
  30
0.00000
  42
-0.0512
  70
32
  0
VERTEX
  5
CE5
  100
AcDbEntity
  8
Layer 1
  62
0
  100
AcDb2dVertex
  10
0.33286
  20
0.06769
  30
0.00000
  42
-0.1012
  70
32
  0
VERTEX
  5
CE6
  100
AcDbEntity
  8
Layer 1
  62
0
  100
AcDb2dVertex
  10
0.35018
  20
0.05410
  30
0.00000
  42
-0.1659
  70
32
  0
VERTEX
  5
CE7
  100
AcDbEntity
  8
Layer 1
  62
0
  100
AcDb2dVertex
  10
0.35400
  20
0.04400
  30
0.00000
  70
32
  0
VERTEX
  5
CE8
  100
AcDbEntity
  8
Layer 1
  62
0
  100
AcDb2dVertex
  10
0.34700
  20
0.03700
  30
0.00000
  42
0.1276
  70
32
  0
VERTEX
  5
CE9
  100
AcDbEntity
  8
Layer 1
  62
0
  100
AcDb2dVertex
  10
0.27705
  20
0.06117
  30
0.00000
  42
0.0235
  70
32
  0
VERTEX
  5
CEA
  100
AcDbEntity
  8
Layer 1
  62
0
  100
AcDb2dVertex
  10
0.25900
  20
0.06200
  30
0.00000
  42
0.0600
  70
32
  0
VERTEX
  5
CEB
  100
AcDbEntity
  8
Layer 1
  62
0
  100
AcDb2dVertex
  10
0.21556
  20
0.05574
  30
0.00000
  70
32
  0
VERTEX
  5
CEC
  100
AcDbEntity
  8
Layer 1
  62
0
  100
AcDb2dVertex
  10
0.20500
  20
0.05300
  30
0.00000
  42
-0.0698
  70
32
  0
VERTEX
  5
CED
  100
AcDbEntity
  8
Layer 1
  62
0
  100
AcDb2dVertex
  10
0.14500
  20
0.04400
  30
0.00000
  42
0.2034
  70
32
  0
VERTEX
  5
CEE
  100
AcDbEntity
  8
Layer 1
  62
0
  100
AcDb2dVertex
  10
0.12969
  20
0.03861
  30
0.00000
  42
0.0851
  70
32
  0
VERTEX
  5
CEF
  100
AcDbEntity
  8
Layer 1
  62
0
  100
AcDb2dVertex
  10
0.12500
  20
0.03200
  30
0.00000
  42
-0.1188
  70
32
  0
VERTEX
  5
CF0
  100
AcDbEntity
  8
Layer 1
  62
0
  100
AcDb2dVertex
  10
0.11899
  20
0.02157
  30
0.00000
  42
-0.1839
  70
32
  0
VERTEX
  5
CF1
  100
AcDbEntity
  8
Layer 1
  62
0
  100
AcDb2dVertex
  10
0.11500
  20
0.02000
  30
0.00000
  70
32
  0
VERTEX
  5
CF2
  100
AcDbEntity
  8
Layer 1
  62
0
  100
AcDb2dVertex
  10
0.10763
  20
0.02461
  30
0.00000
  42
-0.0192
  70
32
  0
VERTEX
  5
CF3
  100
AcDbEntity
  8
Layer 1
  62
0
  100
AcDb2dVertex
  10
0.08400
  20
0.04000
  30
0.00000
  70
32
  0
VERTEX
  5
CF4
  100
AcDbEntity
  8
Layer 1
  62
0
  100
AcDb2dVertex
  10
0.14200
  20
0.10900
  30
0.00000
  70
32
  0
VERTEX
  5
CF5
  100
AcDbEntity
  8
Layer 1
  62
0
  100
AcDb2dVertex
  10
0.08400
  20
0.04000
  30
0.00000
  42
-0.1574
  70
32
  0
VERTEX
  5
CF6
  100
AcDbEntity
  8
Layer 1
  62
0
  100
AcDb2dVertex
  10
0.05922
  20
0.05617
  30
0.00000
  42
-0.0711
  70
32
  0
VERTEX
  5
CF7
  100
AcDbEntity
  8
Layer 1
  62
0
  100
AcDb2dVertex
  10
0.05200
  20
0.06900
  30
0.00000
  42
0.1973
  70
32
  0
VERTEX
  5
CF8
  100
AcDbEntity
  8
Layer 1
  62
0
  100
AcDb2dVertex
  10
0.04342
  20
0.09271
  30
0.00000
  42
0.0951
  70
32
  0
VERTEX
  5
CF9
  100
AcDbEntity
  8
Layer 1
  62
0
  100
AcDb2dVertex
  10
0.03300
  20
0.10000
  30
0.00000
  42
-0.0881
  70
32
  0
VERTEX
  5
CFA
  100
AcDbEntity
  8
Layer 1
  62
0
  100
AcDb2dVertex
  10
0.01731
  20
0.11129
  30
0.00000
  42
-0.1820
  70
32
  0
VERTEX
  5
CFB
  100
AcDbEntity
  8
Layer 1
  62
0
  100
AcDb2dVertex
  10
0.01400
  20
0.11900
  30
0.00000
  42
-0.1969
  70
32
  0
VERTEX
  5
CFC
  100
AcDbEntity
  8
Layer 1
  62
0
  100
AcDb2dVertex
  10
0.01870
  20
0.13310
  30
0.00000
  42
-0.1815
  70
32
  0
VERTEX
  5
CFD
  100
AcDbEntity
  8
Layer 1
  62
0
  100
AcDb2dVertex
  10
0.03239
  20
0.13878
  30
0.00000
  70
32
  0
VERTEX
  5
CFE
  100
AcDbEntity
  8
Layer 1
  62
0
  100
AcDb2dVertex
  10
0.03700
  20
0.13900
  30
0.00000
  42
-0.2574
  70
32
  0
VERTEX
  5
CFF
  100
AcDbEntity
  8
Layer 1
  62
0
  100
AcDb2dVertex
  10
0.04607
  20
0.13361
  30
0.00000
  42
-0.0593
  70
32
  0
VERTEX
  5
D00
  100
AcDbEntity
  8
Layer 1
  62
0
  100
AcDb2dVertex
  10
0.05100
  20
0.12400
  30
0.00000
  42
0.1293
  70
32
  0
VERTEX
  5
D01
  100
AcDbEntity
  8
Layer 1
  62
0
  100
AcDb2dVertex
  10
0.05946
  20
0.11109
  30
0.00000
  42
0.1677
  70
32
  0
VERTEX
  5
D02
  100
AcDbEntity
  8
Layer 1
  62
0
  100
AcDb2dVertex
  10
0.06500
  20
0.10900
  30
0.00000
  42
0.1244
  70
32
  0
VERTEX
  5
D03
  100
AcDbEntity
  8
Layer 1
  62
0
  100
AcDb2dVertex
  10
0.08057
  20
0.11739
  30
0.00000
  42
0.1966
  70
32
  0
VERTEX
  5
D04
  100
AcDbEntity
  8
Layer 1
  62
0
  100
AcDb2dVertex
  10
0.08400
  20
0.12500
  30
0.00000
  42
0.1962
  70
32
  0
VERTEX
  5
D05
  100
AcDbEntity
  8
Layer 1
  62
0
  100
AcDb2dVertex
  10
0.07849
  20
0.13614
  30
0.00000
  42
0.0527
  70
32
  0
VERTEX
  5
D06
  100
AcDbEntity
  8
Layer 1
  62
0
  100
AcDb2dVertex
  10
0.07000
  20
0.14300
  30
0.00000
  42
-0.1223
  70
32
  0
VERTEX
  5
D07
  100
AcDbEntity
  8
Layer 1
  62
0
  100
AcDb2dVertex
  10
0.05842
  20
0.15566
  30
0.00000
  42
-0.1086
  70
32
  0
VERTEX
  5
D08
  100
AcDbEntity
  8
Layer 1
  62
0
  100
AcDb2dVertex
  10
0.05700
  20
0.16200
  30
0.00000
  42
-0.2445
  70
32
  0
VERTEX
  5
D09
  100
AcDbEntity
  8
Layer 1
  62
0
  100
AcDb2dVertex
  10
0.06232
  20
0.17051
  30
0.00000
  42
-0.0823
  70
32
  0
VERTEX
  5
D0A
  100
AcDbEntity
  8
Layer 1
  62
0
  100
AcDb2dVertex
  10
0.07200
  20
0.17500
  30
0.00000
  42
-0.2697
  70
32
  0
VERTEX
  5
D0B
  100
AcDbEntity
  8
Layer 1
  62
0
  100
AcDb2dVertex
  10
0.08677
  20
0.16634
  30
0.00000
  42
-0.0494
  70
32
  0
VERTEX
  5
D0C
  100
AcDbEntity
  8
Layer 1
  62
0
  100
AcDb2dVertex
  10
0.09000
  20
0.16000
  30
0.00000
  42
0.1111
  70
32
  0
VERTEX
  5
D0D
  100
AcDbEntity
  8
Layer 1
  62
0
  100
AcDb2dVertex
  10
0.09940
  20
0.14709
  30
0.00000
  42
0.1643
  70
32
  0
VERTEX
  5
D0E
  100
AcDbEntity
  8
Layer 1
  62
0
  100
AcDb2dVertex
  10
0.10500
  20
0.14500
  30
0.00000
  42
0.2507
  70
32
  0
VERTEX
  5
D0F
  100
AcDbEntity
  8
Layer 1
  62
0
  100
AcDb2dVertex
  10
0.11796
  20
0.15246
  30
0.00000
  42
0.0611
  70
32
  0
VERTEX
  5
D10
  100
AcDbEntity
  8
Layer 1
  62
0
  100
AcDb2dVertex
  10
0.12200
  20
0.16000
  30
0.00000
  42
0.2151
  70
32
  0
VERTEX
  5
D11
  100
AcDbEntity
  8
Layer 1
  62
0
  100
AcDb2dVertex
  10
0.11408
  20
0.17604
  30
0.00000
  42
0.0393
  70
32
  0
VERTEX
  5
D12
  100
AcDbEntity
  8
Layer 1
  62
0
  100
AcDb2dVertex
  10
0.10900
  20
0.18000
  30
0.00000
  42
-0.0990
  70
32
  0
VERTEX
  5
D13
  100
AcDbEntity
  8
Layer 1
  62
0
  100
AcDb2dVertex
  10
0.09671
  20
0.19281
  30
0.00000
  42
-0.1259
  70
32
  0
VERTEX
  5
D14
  100
AcDbEntity
  8
Layer 1
  62
0
  100
AcDb2dVertex
  10
0.09500
  20
0.19900
  30
0.00000
  42
-0.2488
  70
32
  0
VERTEX
  5
D15
  100
AcDbEntity
  8
Layer 1
  62
0
  100
AcDb2dVertex
  10
0.09996
  20
0.21051
  30
0.00000
  42
-0.1555
  70
32
  0
VERTEX
  5
D16
  100
AcDbEntity
  8
Layer 1
  62
0
  100
AcDb2dVertex
  10
0.11324
  20
0.21399
  30
0.00000
  70
32
  0
VERTEX
  5
D17
  100
AcDbEntity
  8
Layer 1
  62
0
  100
AcDb2dVertex
  10
0.11400
  20
0.21400
  30
0.00000
  42
-0.2936
  70
32
  0
VERTEX
  5
D18
  100
AcDbEntity
  8
Layer 1
  62
0
  100
AcDb2dVertex
  10
0.12947
  20
0.20420
  30
0.00000
  42
-0.0512
  70
32
  0
VERTEX
  5
D19
  100
AcDbEntity
  8
Layer 1
  62
0
  100
AcDb2dVertex
  10
0.13200
  20
0.19800
  30
0.00000
  42
0.1688
  70
32
  0
VERTEX
  5
D1A
  100
AcDbEntity
  8
Layer 1
  62
0
  100
AcDb2dVertex
  10
0.13984
  20
0.18488
  30
0.00000
  42
0.1642
  70
32
  0
VERTEX
  5
D1B
  100
AcDbEntity
  8
Layer 1
  62
0
  100
AcDb2dVertex
  10
0.14900
  20
0.18200
  30
0.00000
  42
0.2464
  70
32
  0
VERTEX
  5
D1C
  100
AcDbEntity
  8
Layer 1
  62
0
  100
AcDb2dVertex
  10
0.16062
  20
0.18697
  30
0.00000
  42
0.1613
  70
32
  0
VERTEX
  5
D1D
  100
AcDbEntity
  8
Layer 1
  62
0
  100
AcDb2dVertex
  10
0.16400
  20
0.20000
  30
0.00000
  42
0.1839
  70
32
  0
VERTEX
  5
D1E
  100
AcDbEntity
  8
Layer 1
  62
0
  100
AcDb2dVertex
  10
0.15720
  20
0.21564
  30
0.00000
  70
32
  0
VERTEX
  5
D1F
  100
AcDbEntity
  8
Layer 1
  62
0
  100
AcDb2dVertex
  10
0.15500
  20
0.21800
  30
0.00000
  42
-0.1263
  70
32
  0
VERTEX
  5
D20
  100
AcDbEntity
  8
Layer 1
  62
0
  100
AcDb2dVertex
  10
0.14581
  20
0.22955
  30
0.00000
  42
-0.0886
  70
32
  0
VERTEX
  5
D21
  100
AcDbEntity
  8
Layer 1
  62
0
  100
AcDb2dVertex
  10
0.14500
  20
0.23400
  30
0.00000
  42
-0.3066
  70
32
  0
VERTEX
  5
D22
  100
AcDbEntity
  8
Layer 1
  62
0
  100
AcDb2dVertex
  10
0.15219
  20
0.24427
  30
0.00000
  42
-0.1099
  70
32
  0
VERTEX
  5
D23
  100
AcDbEntity
  8
Layer 1
  62
0
  100
AcDb2dVertex
  10
0.16700
  20
0.24700
  30
0.00000
  42
-0.3018
  70
32
  0
VERTEX
  5
D24
  100
AcDbEntity
  8
Layer 1
  62
0
  100
AcDb2dVertex
  10
0.17653
  20
0.24061
  30
0.00000
  42
-0.0783
  70
32
  0
VERTEX
  5
D25
  100
AcDbEntity
  8
Layer 1
  62
0
  100
AcDb2dVertex
  10
0.18000
  20
0.22900
  30
0.00000
  42
0.1671
  70
32
  0
VERTEX
  5
D26
  100
AcDbEntity
  8
Layer 1
  62
0
  100
AcDb2dVertex
  10
0.18813
  20
0.21533
  30
0.00000
  42
0.1664
  70
32
  0
VERTEX
  5
D27
  100
AcDbEntity
  8
Layer 1
  62
0
  100
AcDb2dVertex
  10
0.19900
  20
0.21200
  30
0.00000
  42
0.0744
  70
32
  0
VERTEX
  5
D28
  100
AcDbEntity
  8
Layer 1
  62
0
  100
AcDb2dVertex
  10
0.21500
  20
0.21500
  30
0.00000
  70
32
  0
VERTEX
  5
D29
  100
AcDbEntity
  8
Layer 1
  62
0
  100
AcDb2dVertex
  10
0.22400
  20
0.19400
  30
0.00000
  70
32
  0
VERTEX
  5
D2A
  100
AcDbEntity
  8
Layer 1
  62
0
  100
AcDb2dVertex
  10
0.21500
  20
0.21500
  30
0.00000
  70
32
  0
VERTEX
  5
D2B
  100
AcDbEntity
  8
Layer 1
  62
0
  100
AcDb2dVertex
  10
0.25700
  20
0.24200
  30
0.00000
  70
32
  0
VERTEX
  5
D2C
  100
AcDbEntity
  8
Layer 1
  62
0
  100
AcDb2dVertex
  10
0.26700
  20
0.21700
  30
0.00000
  70
32
  0
VERTEX
  5
D2D
  100
AcDbEntity
  8
Layer 1
  62
0
  100
AcDb2dVertex
  10
0.25700
  20
0.24200
  30
0.00000
  70
32
  0
VERTEX
  5
D2E
  100
AcDbEntity
  8
Layer 1
  62
0
  100
AcDb2dVertex
  10
0.30400
  20
0.26000
  30
0.00000
  70
32
  0
VERTEX
  5
D2F
  100
AcDbEntity
  8
Layer 1
  62
0
  100
AcDb2dVertex
  10
0.35500
  20
0.27900
  30
0.00000
  42
-0.0144
  70
32
  0
VERTEX
  5
D30
  100
AcDbEntity
  8
Layer 1
  62
0
  100
AcDb2dVertex
  10
0.40500
  20
0.28500
  30
0.00000
  70
32
  0
VERTEX
  5
D31
  100
AcDbEntity
  8
Layer 1
  62
0
  100
AcDb2dVertex
  10
0.45000
  20
0.30000
  30
0.00000
  70
32
  0
VERTEX
  5
D32
  100
AcDbEntity
  8
Layer 1
  62
0
  100
AcDb2dVertex
  10
0.46000
  20
0.28000
  30
0.00000
  70
32
  0
VERTEX
  5
D33
  100
AcDbEntity
  8
Layer 1
  62
0
  100
AcDb2dVertex
  10
0.45000
  20
0.30000
  30
0.00000
  70
32
  0
VERTEX
  5
D34
  100
AcDbEntity
  8
Layer 1
  62
0
  100
AcDb2dVertex
  10
0.50200
  20
0.33200
  30
0.00000
  70
32
  0
VERTEX
  5
D35
  100
AcDbEntity
  8
Layer 1
  62
0
  100
AcDb2dVertex
  10
0.51400
  20
0.31200
  30
0.00000
  70
32
  0
VERTEX
  5
D36
  100
AcDbEntity
  8
Layer 1
  62
0
  100
AcDb2dVertex
  10
0.50200
  20
0.33200
  30
0.00000
  42
-0.0188
  70
32
  0
VERTEX
  5
D37
  100
AcDbEntity
  8
Layer 1
  62
0
  100
AcDb2dVertex
  10
0.52660
  20
0.34886
  30
0.00000
  70
32
  0
VERTEX
  5
D38
  100
AcDbEntity
  8
Layer 1
  62
0
  100
AcDb2dVertex
  10
0.54200
  20
0.35900
  30
0.00000
  70
32
  0
VERTEX
  5
D39
  100
AcDbEntity
  8
Layer 1
  62
0
  100
AcDb2dVertex
  10
0.55500
  20
0.34000
  30
0.00000
  70
32
  0
VERTEX
  5
D3A
  100
AcDbEntity
  8
Layer 1
  62
0
  100
AcDb2dVertex
  10
0.54200
  20
0.35900
  30
0.00000
  70
32
  0
VERTEX
  5
D3B
  100
AcDbEntity
  8
Layer 1
  62
0
  100
AcDb2dVertex
  10
0.57500
  20
0.39000
  30
0.00000
  70
32
  0
VERTEX
  5
D3C
  100
AcDbEntity
  8
Layer 1
  62
0
  100
AcDb2dVertex
  10
0.59092
  20
0.40499
  30
0.00000
  70
32
  0
VERTEX
  5
D3D
  100
AcDbEntity
  8
Layer 1
  62
0
  100
AcDb2dVertex
  10
0.60700
  20
0.42000
  30
0.00000
  70
32
  0
VERTEX
  5
D3E
  100
AcDbEntity
  8
Layer 1
  62
0
  100
AcDb2dVertex
  10
0.61500
  20
0.43700
  30
0.00000
  42
0.1729
  70
32
  0
VERTEX
  5
D3F
  100
AcDbEntity
  8
Layer 1
  62
0
  100
AcDb2dVertex
  10
0.61574
  20
0.44467
  30
0.00000
  42
0.0435
  70
32
  0
VERTEX
  5
D40
  100
AcDbEntity
  8
Layer 1
  62
0
  100
AcDb2dVertex
  10
0.61200
  20
0.45900
  30
0.00000
  70
32
  0
VERTEX
  5
D41
  100
AcDbEntity
  8
Layer 1
  62
0
  100
AcDb2dVertex
  10
0.62700
  20
0.46000
  30
0.00000
  70
32
  0
VERTEX
  5
D42
  100
AcDbEntity
  8
Layer 1
  62
0
  100
AcDb2dVertex
  10
0.63400
  20
0.46400
  30
0.00000
  70
32
  0
VERTEX
  5
D43
  100
AcDbEntity
  8
Layer 1
  62
0
  100
AcDb2dVertex
  10
0.63000
  20
0.47700
  30
0.00000
  42
0.1588
  70
32
  0
VERTEX
  5
D44
  100
AcDbEntity
  8
Layer 1
  62
0
  100
AcDb2dVertex
  10
0.64810
  20
0.48415
  30
0.00000
  70
32
  0
VERTEX
  5
D45
  100
AcDbEntity
  8
Layer 1
  62
0
  100
AcDb2dVertex
  10
0.64900
  20
0.48500
  30
0.00000
  70
32
  0
VERTEX
  5
D46
  100
AcDbEntity
  8
Layer 1
  62
0
  100
AcDb2dVertex
  10
0.64700
  20
0.50400
  30
0.00000
  42
-0.1358
  70
32
  0
VERTEX
  5
D47
  100
AcDbEntity
  8
Layer 1
  62
0
  100
AcDb2dVertex
  10
0.65438
  20
0.50627
  30
0.00000
  42
-0.0310
  70
32
  0
VERTEX
  5
D48
  100
AcDbEntity
  8
Layer 1
  62
0
  100
AcDb2dVertex
  10
0.66900
  20
0.50700
  30
0.00000
  70
32
  0
VERTEX
  5
D49
  100
AcDbEntity
  8
Layer 1
  62
0
  100
AcDb2dVertex
  10
0.66900
  20
0.52000
  30
0.00000
  42
-0.0947
  70
32
  0
VERTEX
  5
D4A
  100
AcDbEntity
  8
Layer 1
  62
0
  100
AcDb2dVertex
  10
0.67105
  20
0.52920
  30
0.00000
  42
-0.0225
  70
32
  0
VERTEX
  5
D4B
  100
AcDbEntity
  8
Layer 1
  62
0
  100
AcDb2dVertex
  10
0.69169
  20
0.57719
  30
0.00000
  70
32
  0
VERTEX
  5
D4C
  100
AcDbEntity
  8
Layer 1
  62
0
  100
AcDb2dVertex
  10
0.71400
  20
0.62400
  30
0.00000
  70
32
  0
VERTEX
  5
D4D
  100
AcDbEntity
  8
Layer 1
  62
0
  100
AcDb2dVertex
  10
0.72500
  20
0.63000
  30
0.00000
  42
-0.2366
  70
32
  0
VERTEX
  5
D4E
  100
AcDbEntity
  8
Layer 1
  62
0
  100
AcDb2dVertex
  10
0.73447
  20
0.62633
  30
0.00000
  42
-0.1692
  70
32
  0
VERTEX
  5
D4F
  100
AcDbEntity
  8
Layer 1
  62
0
  100
AcDb2dVertex
  10
0.73700
  20
0.61700
  30
0.00000
  70
32
  0
SEQEND
  5
D50
  100
AcDbEntity
  8
Layer 1
  62
0
  0
POLYLINE
  5
D51
  100
AcDbEntity
  8
Layer 1
  62
0
  100
AcDb2dPolyline
 66
     1
  10
0
  20
0
  30
0
  70
1
  0
VERTEX
  5
D52
  100
AcDbEntity
  8
Layer 1
  62
0
  100
AcDb2dVertex
  10
0.17500
  20
0.63000
  30
0.00000
  42
-0.1194
  70
32
  0
VERTEX
  5
D53
  100
AcDbEntity
  8
Layer 1
  62
0
  100
AcDb2dVertex
  10
0.16785
  20
0.59609
  30
0.00000
  42
-0.1872
  70
32
  0
VERTEX
  5
D54
  100
AcDbEntity
  8
Layer 1
  62
0
  100
AcDb2dVertex
  10
0.13894
  20
0.57076
  30
0.00000
  42
-0.0903
  70
32
  0
VERTEX
  5
D55
  100
AcDbEntity
  8
Layer 1
  62
0
  100
AcDb2dVertex
  10
0.09980
  20
0.56402
  30
0.00000
  70
32
  0
VERTEX
  5
D56
  100
AcDbEntity
  8
Layer 1
  62
0
  100
AcDb2dVertex
  10
0.09700
  20
0.56400
  30
0.00000
  42
0.1632
  70
32
  0
VERTEX
  5
D57
  100
AcDbEntity
  8
Layer 1
  62
0
  100
AcDb2dVertex
  10
0.08973
  20
0.56024
  30
0.00000
  42
0.0544
  70
32
  0
VERTEX
  5
D58
  100
AcDbEntity
  8
Layer 1
  62
0
  100
AcDb2dVertex
  10
0.07146
  20
0.53901
  30
0.00000
  70
32
  0
VERTEX
  5
D59
  100
AcDbEntity
  8
Layer 1
  62
0
  100
AcDb2dVertex
  10
0.07000
  20
0.53700
  30
0.00000
  42
-0.0710
  70
32
  0
VERTEX
  5
D5A
  100
AcDbEntity
  8
Layer 1
  62
0
  100
AcDb2dVertex
  10
0.05182
  20
0.51531
  30
0.00000
  42
-0.1663
  70
32
  0
VERTEX
  5
D5B
  100
AcDbEntity
  8
Layer 1
  62
0
  100
AcDb2dVertex
  10
0.04019
  20
0.51000
  30
0.00000
  70
32
  0
VERTEX
  5
D5C
  100
AcDbEntity
  8
Layer 1
  62
0
  100
AcDb2dVertex
  10
0.04000
  20
0.51000
  30
0.00000
  42
-0.1561
  70
32
  0
VERTEX
  5
D5D
  100
AcDbEntity
  8
Layer 1
  62
0
  100
AcDb2dVertex
  10
0.02816
  20
0.51530
  30
0.00000
  70
32
  0
VERTEX
  5
D5E
  100
AcDbEntity
  8
Layer 1
  62
0
  100
AcDb2dVertex
  10
0.02400
  20
0.51900
  30
0.00000
  42
-0.1533
  70
32
  0
VERTEX
  5
D5F
  100
AcDbEntity
  8
Layer 1
  62
0
  100
AcDb2dVertex
  10
0.01536
  20
0.52893
  30
0.00000
  42
-0.1345
  70
32
  0
VERTEX
  5
D60
  100
AcDbEntity
  8
Layer 1
  62
0
  100
AcDb2dVertex
  10
0.01500
  20
0.53400
  30
0.00000
  70
32
  0
VERTEX
  5
D61
  100
AcDbEntity
  8
Layer 1
  62
0
  100
AcDb2dVertex
  10
0.02700
  20
0.57700
  30
0.00000
  42
0.0597
  70
32
  0
VERTEX
  5
D62
  100
AcDbEntity
  8
Layer 1
  62
0
  100
AcDb2dVertex
  10
0.02013
  20
0.59258
  30
0.00000
  70
32
  0
VERTEX
  5
D63
  100
AcDbEntity
  8
Layer 1
  62
0
  100
AcDb2dVertex
  10
0.01562
  20
0.60099
  30
0.00000
  70
32
  0
VERTEX
  5
D64
  100
AcDbEntity
  8
Layer 1
  62
0
  100
AcDb2dVertex
  10
0.01400
  20
0.60400
  30
0.00000
  42
-0.1494
  70
32
  0
VERTEX
  5
D65
  100
AcDbEntity
  8
Layer 1
  62
0
  100
AcDb2dVertex
  10
0.00200
  20
0.64200
  30
0.00000
  42
-0.1334
  70
32
  0
VERTEX
  5
D66
  100
AcDbEntity
  8
Layer 1
  62
0
  100
AcDb2dVertex
  10
0.01168
  20
0.67439
  30
0.00000
  42
-0.0268
  70
32
  0
VERTEX
  5
D67
  100
AcDbEntity
  8
Layer 1
  62
0
  100
AcDb2dVertex
  10
0.01800
  20
0.68400
  30
0.00000
  42
-0.1419
  70
32
  0
VERTEX
  5
D68
  100
AcDbEntity
  8
Layer 1
  62
0
  100
AcDb2dVertex
  10
0.03931
  20
0.70214
  30
0.00000
  42
-0.0991
  70
32
  0
VERTEX
  5
D69
  100
AcDbEntity
  8
Layer 1
  62
0
  100
AcDb2dVertex
  10
0.05400
  20
0.70500
  30
0.00000
  42
-0.1964
  70
32
  0
VERTEX
  5
D6A
  100
AcDbEntity
  8
Layer 1
  62
0
  100
AcDb2dVertex
  10
0.06419
  20
0.70183
  30
0.00000
  42
-0.2072
  70
32
  0
VERTEX
  5
D6B
  100
AcDbEntity
  8
Layer 1
  62
0
  100
AcDb2dVertex
  10
0.06700
  20
0.69400
  30
0.00000
  42
-0.1693
  70
32
  0
VERTEX
  5
D6C
  100
AcDbEntity
  8
Layer 1
  62
0
  100
AcDb2dVertex
  10
0.06368
  20
0.68833
  30
0.00000
  42
-0.0349
  70
32
  0
VERTEX
  5
D6D
  100
AcDbEntity
  8
Layer 1
  62
0
  100
AcDb2dVertex
  10
0.05200
  20
0.67800
  30
0.00000
  42
0.2254
  70
32
  0
VERTEX
  5
D6E
  100
AcDbEntity
  8
Layer 1
  62
0
  100
AcDb2dVertex
  10
0.03700
  20
0.64400
  30
0.00000
  42
0.1582
  70
32
  0
VERTEX
  5
D6F
  100
AcDbEntity
  8
Layer 1
  62
0
  100
AcDb2dVertex
  10
0.04519
  20
0.61534
  30
0.00000
  42
0.1398
  70
32
  0
VERTEX
  5
D70
  100
AcDbEntity
  8
Layer 1
  62
0
  100
AcDb2dVertex
  10
0.06853
  20
0.59762
  30
0.00000
  70
32
  0
VERTEX
  5
D71
  100
AcDbEntity
  8
Layer 1
  62
0
  100
AcDb2dVertex
  10
0.07000
  20
0.59700
  30
0.00000
  70
32
  0
VERTEX
  5
D72
  100
AcDbEntity
  8
Layer 1
  62
0
  100
AcDb2dVertex
  10
0.05900
  20
0.57700
  30
0.00000
  70
32
  0
VERTEX
  5
D73
  100
AcDbEntity
  8
Layer 1
  62
0
  100
AcDb2dVertex
  10
0.07000
  20
0.59700
  30
0.00000
  42
0.0820
  70
32
  0
VERTEX
  5
D74
  100
AcDbEntity
  8
Layer 1
  62
0
  100
AcDb2dVertex
  10
0.08910
  20
0.59409
  30
0.00000
  70
32
  0
VERTEX
  5
D75
  100
AcDbEntity
  8
Layer 1
  62
0
  100
AcDb2dVertex
  10
0.09500
  20
0.59400
  30
0.00000
  42
0.0978
  70
32
  0
VERTEX
  5
D76
  100
AcDbEntity
  8
Layer 1
  62
0
  100
AcDb2dVertex
  10
0.12535
  20
0.59898
  30
0.00000
  42
0.2218
  70
32
  0
VERTEX
  5
D77
  100
AcDbEntity
  8
Layer 1
  62
0
  100
AcDb2dVertex
  10
0.14500
  20
0.61900
  30
0.00000
  42
0.0251
  70
32
  0
VERTEX
  5
D78
  100
AcDbEntity
  8
Layer 1
  62
0
  100
AcDb2dVertex
  10
0.14784
  20
0.63268
  30
0.00000
  70
32
  0
VERTEX
  5
D79
  100
AcDbEntity
  8
Layer 1
  62
0
  100
AcDb2dVertex
  10
0.15000
  20
0.64400
  30
0.00000
  42
-0.0966
  70
32
  0
VERTEX
  5
D7A
  100
AcDbEntity
  8
Layer 1
  62
0
  100
AcDb2dVertex
  10
0.15573
  20
0.65673
  30
0.00000
  42
-0.2260
  70
32
  0
VERTEX
  5
D7B
  100
AcDbEntity
  8
Layer 1
  62
0
  100
AcDb2dVertex
  10
0.16000
  20
0.65900
  30
0.00000
  42
-0.3091
  70
32
  0
VERTEX
  5
D7C
  100
AcDbEntity
  8
Layer 1
  62
0
  100
AcDb2dVertex
  10
0.17140
  20
0.65134
  30
0.00000
  42
-0.1059
  70
32
  0
VERTEX
  5
D7D
  100
AcDbEntity
  8
Layer 1
  62
0
  100
AcDb2dVertex
  10
0.17498
  20
0.63199
  30
0.00000
  70
32
  0
VERTEX
  5
D7E
  100
AcDbEntity
  8
Layer 1
  62
0
  100
AcDb2dVertex
  10
0.17500
  20
0.63000
  30
0.00000
  70
32
  0
SEQEND
  5
D7F
  100
AcDbEntity
  8
Layer 1
  62
0
  0
POLYLINE
  5
D80
  100
AcDbEntity
  8
Layer 1
  62
0
  100
AcDb2dPolyline
 66
     1
  10
0
  20
0
  30
0
  70
1
  0
VERTEX
  5
D81
  100
AcDbEntity
  8
Layer 1
  62
0
  100
AcDb2dVertex
  10
0.49700
  20
0.58000
  30
0.00000
  42
-0.2132
  70
32
  0
VERTEX
  5
D82
  100
AcDbEntity
  8
Layer 1
  62
0
  100
AcDb2dVertex
  10
0.49355
  20
0.57504
  30
0.00000
  42
-0.0761
  70
32
  0
VERTEX
  5
D83
  100
AcDbEntity
  8
Layer 1
  62
0
  100
AcDb2dVertex
  10
0.47398
  20
0.56538
  30
0.00000
  70
32
  0
VERTEX
  5
D84
  100
AcDbEntity
  8
Layer 1
  62
0
  100
AcDb2dVertex
  10
0.47000
  20
0.56400
  30
0.00000
  42
0.1282
  70
32
  0
VERTEX
  5
D85
  100
AcDbEntity
  8
Layer 1
  62
0
  100
AcDb2dVertex
  10
0.43230
  20
0.53347
  30
0.00000
  42
0.0986
  70
32
  0
VERTEX
  5
D86
  100
AcDbEntity
  8
Layer 1
  62
0
  100
AcDb2dVertex
  10
0.41800
  20
0.50100
  30
0.00000
  42
0.0148
  70
32
  0
VERTEX
  5
D87
  100
AcDbEntity
  8
Layer 1
  62
0
  100
AcDb2dVertex
  10
0.40000
  20
0.41400
  30
0.00000
  70
32
  0
VERTEX
  5
D88
  100
AcDbEntity
  8
Layer 1
  62
0
  100
AcDb2dVertex
  10
0.34000
  20
0.41500
  30
0.00000
  70
32
  0
VERTEX
  5
D89
  100
AcDbEntity
  8
Layer 1
  62
0
  100
AcDb2dVertex
  10
0.40000
  20
0.41400
  30
0.00000
  70
32
  0
VERTEX
  5
D8A
  100
AcDbEntity
  8
Layer 1
  62
0
  100
AcDb2dVertex
  10
0.40700
  20
0.38900
  30
0.00000
  42
-0.2501
  70
32
  0
VERTEX
  5
D8B
  100
AcDbEntity
  8
Layer 1
  62
0
  100
AcDb2dVertex
  10
0.40348
  20
0.38035
  30
0.00000
  42
-0.0848
  70
32
  0
VERTEX
  5
D8C
  100
AcDbEntity
  8
Layer 1
  62
0
  100
AcDb2dVertex
  10
0.38700
  20
0.37000
  30
0.00000
  42
-0.0282
  70
32
  0
VERTEX
  5
D8D
  100
AcDbEntity
  8
Layer 1
  62
0
  100
AcDb2dVertex
  10
0.36700
  20
0.37400
  30
0.00000
  42
0.3855
  70
32
  0
VERTEX
  5
D8E
  100
AcDbEntity
  8
Layer 1
  62
0
  100
AcDb2dVertex
  10
0.35929
  20
0.36706
  30
0.00000
  70
32
  0
VERTEX
  5
D8F
  100
AcDbEntity
  8
Layer 1
  62
0
  100
AcDb2dVertex
  10
0.35900
  20
0.36400
  30
0.00000
  42
0.1184
  70
32
  0
VERTEX
  5
D90
  100
AcDbEntity
  8
Layer 1
  62
0
  100
AcDb2dVertex
  10
0.36200
  20
0.35400
  30
0.00000
  42
-0.0902
  70
32
  0
VERTEX
  5
D91
  100
AcDbEntity
  8
Layer 1
  62
0
  100
AcDb2dVertex
  10
0.36500
  20
0.34200
  30
0.00000
  42
-0.3012
  70
32
  0
VERTEX
  5
D92
  100
AcDbEntity
  8
Layer 1
  62
0
  100
AcDb2dVertex
  10
0.35675
  20
0.32901
  30
0.00000
  42
-0.0425
  70
32
  0
VERTEX
  5
D93
  100
AcDbEntity
  8
Layer 1
  62
0
  100
AcDb2dVertex
  10
0.35200
  20
0.32700
  30
0.00000
  42
-0.0649
  70
32
  0
VERTEX
  5
D94
  100
AcDbEntity
  8
Layer 1
  62
0
  100
AcDb2dVertex
  10
0.33513
  20
0.33097
  30
0.00000
  70
32
  0
VERTEX
  5
D95
  100
AcDbEntity
  8
Layer 1
  62
0
  100
AcDb2dVertex
  10
0.33200
  20
0.33200
  30
0.00000
  42
0.0741
  70
32
  0
VERTEX
  5
D96
  100
AcDbEntity
  8
Layer 1
  62
0
  100
AcDb2dVertex
  10
0.30900
  20
0.33700
  30
0.00000
  42
-0.2819
  70
32
  0
VERTEX
  5
D97
  100
AcDbEntity
  8
Layer 1
  62
0
  100
AcDb2dVertex
  10
0.28700
  20
0.34900
  30
0.00000
  42
0.1188
  70
32
  0
VERTEX
  5
D98
  100
AcDbEntity
  8
Layer 1
  62
0
  100
AcDb2dVertex
  10
0.27938
  20
0.36035
  30
0.00000
  42
0.1679
  70
32
  0
VERTEX
  5
D99
  100
AcDbEntity
  8
Layer 1
  62
0
  100
AcDb2dVertex
  10
0.27500
  20
0.36200
  30
0.00000
  42
0.3404
  70
32
  0
VERTEX
  5
D9A
  100
AcDbEntity
  8
Layer 1
  62
0
  100
AcDb2dVertex
  10
0.26641
  20
0.35546
  30
0.00000
  42
0.0884
  70
32
  0
VERTEX
  5
D9B
  100
AcDbEntity
  8
Layer 1
  62
0
  100
AcDb2dVertex
  10
0.26500
  20
0.34600
  30
0.00000
  42
-0.3528
  70
32
  0
VERTEX
  5
D9C
  100
AcDbEntity
  8
Layer 1
  62
0
  100
AcDb2dVertex
  10
0.25533
  20
0.33223
  30
0.00000
  42
-0.0863
  70
32
  0
VERTEX
  5
D9D
  100
AcDbEntity
  8
Layer 1
  62
0
  100
AcDb2dVertex
  10
0.23900
  20
0.33000
  30
0.00000
  42
-0.1351
  70
32
  0
VERTEX
  5
D9E
  100
AcDbEntity
  8
Layer 1
  62
0
  100
AcDb2dVertex
  10
0.20981
  20
0.33697
  30
0.00000
  42
-0.0768
  70
32
  0
VERTEX
  5
D9F
  100
AcDbEntity
  8
Layer 1
  62
0
  100
AcDb2dVertex
  10
0.20000
  20
0.34500
  30
0.00000
  70
32
  0
VERTEX
  5
DA0
  100
AcDbEntity
  8
Layer 1
  62
0
  100
AcDb2dVertex
  10
0.14000
  20
0.34700
  30
0.00000
  70
32
  0
VERTEX
  5
DA1
  100
AcDbEntity
  8
Layer 1
  62
0
  100
AcDb2dVertex
  10
0.13400
  20
0.33900
  30
0.00000
  70
32
  0
VERTEX
  5
DA2
  100
AcDbEntity
  8
Layer 1
  62
0
  100
AcDb2dVertex
  10
0.13900
  20
0.32500
  30
0.00000
  42
0.0653
  70
32
  0
VERTEX
  5
DA3
  100
AcDbEntity
  8
Layer 1
  62
0
  100
AcDb2dVertex
  10
0.10892
  20
0.29410
  30
0.00000
  42
0.1222
  70
32
  0
VERTEX
  5
DA4
  100
AcDbEntity
  8
Layer 1
  62
0
  100
AcDb2dVertex
  10
0.09885
  20
0.27079
  30
0.00000
  42
0.0725
  70
32
  0
VERTEX
  5
DA5
  100
AcDbEntity
  8
Layer 1
  62
0
  100
AcDb2dVertex
  10
0.09900
  20
0.26200
  30
0.00000
  42
0.0540
  70
32
  0
VERTEX
  5
DA6
  100
AcDbEntity
  8
Layer 1
  62
0
  100
AcDb2dVertex
  10
0.08158
  20
0.25571
  30
0.00000
  70
32
  0
VERTEX
  5
DA7
  100
AcDbEntity
  8
Layer 1
  62
0
  100
AcDb2dVertex
  10
0.08000
  20
0.25500
  30
0.00000
  42
0.2639
  70
32
  0
VERTEX
  5
DA8
  100
AcDbEntity
  8
Layer 1
  62
0
  100
AcDb2dVertex
  10
0.07378
  20
0.24483
  30
0.00000
  42
0.0889
  70
32
  0
VERTEX
  5
DA9
  100
AcDbEntity
  8
Layer 1
  62
0
  100
AcDb2dVertex
  10
0.07500
  20
0.23200
  30
0.00000
  42
0.1228
  70
32
  0
VERTEX
  5
DAA
  100
AcDbEntity
  8
Layer 1
  62
0
  100
AcDb2dVertex
  10
0.05386
  20
0.21231
  30
0.00000
  42
0.0980
  70
32
  0
VERTEX
  5
DAB
  100
AcDbEntity
  8
Layer 1
  62
0
  100
AcDb2dVertex
  10
0.04900
  20
0.19900
  30
0.00000
  42
-0.0834
  70
32
  0
VERTEX
  5
DAC
  100
AcDbEntity
  8
Layer 1
  62
0
  100
AcDb2dVertex
  10
0.04333
  20
0.18375
  30
0.00000
  42
-0.2607
  70
32
  0
VERTEX
  5
DAD
  100
AcDbEntity
  8
Layer 1
  62
0
  100
AcDb2dVertex
  10
0.03700
  20
0.18000
  30
0.00000
  42
-0.2254
  70
32
  0
VERTEX
  5
DAE
  100
AcDbEntity
  8
Layer 1
  62
0
  100
AcDb2dVertex
  10
0.02997
  20
0.18427
  30
0.00000
  42
-0.0791
  70
32
  0
VERTEX
  5
DAF
  100
AcDbEntity
  8
Layer 1
  62
0
  100
AcDb2dVertex
  10
0.02060
  20
0.20286
  30
0.00000
  42
-0.0294
  70
32
  0
VERTEX
  5
DB0
  100
AcDbEntity
  8
Layer 1
  62
0
  100
AcDb2dVertex
  10
0.00900
  20
0.24400
  30
0.00000
  42
-0.1211
  70
32
  0
VERTEX
  5
DB1
  100
AcDbEntity
  8
Layer 1
  62
0
  100
AcDb2dVertex
  10
0.01603
  20
0.25561
  30
0.00000
  42
-0.0402
  70
32
  0
VERTEX
  5
DB2
  100
AcDbEntity
  8
Layer 1
  62
0
  100
AcDb2dVertex
  10
0.02700
  20
0.26600
  30
0.00000
  42
-0.0972
  70
32
  0
VERTEX
  5
DB3
  100
AcDbEntity
  8
Layer 1
  62
0
  100
AcDb2dVertex
  10
0.04546
  20
0.27820
  30
0.00000
  42
-0.1294
  70
32
  0
VERTEX
  5
DB4
  100
AcDbEntity
  8
Layer 1
  62
0
  100
AcDb2dVertex
  10
0.05200
  20
0.27900
  30
0.00000
  42
0.2121
  70
32
  0
VERTEX
  5
DB5
  100
AcDbEntity
  8
Layer 1
  62
0
  100
AcDb2dVertex
  10
0.06018
  20
0.28993
  30
0.00000
  42
0.0513
  70
32
  0
VERTEX
  5
DB6
  100
AcDbEntity
  8
Layer 1
  62
0
  100
AcDb2dVertex
  10
0.06200
  20
0.30000
  30
0.00000
  42
0.0927
  70
32
  0
VERTEX
  5
DB7
  100
AcDbEntity
  8
Layer 1
  62
0
  100
AcDb2dVertex
  10
0.07399
  20
0.30904
  30
0.00000
  70
32
  0
VERTEX
  5
DB8
  100
AcDbEntity
  8
Layer 1
  62
0
  100
AcDb2dVertex
  10
0.07900
  20
0.31400
  30
0.00000
  42
-0.0231
  70
32
  0
VERTEX
  5
DB9
  100
AcDbEntity
  8
Layer 1
  62
0
  100
AcDb2dVertex
  10
0.07700
  20
0.35000
  30
0.00000
  42
-0.0670
  70
32
  0
VERTEX
  5
DBA
  100
AcDbEntity
  8
Layer 1
  62
0
  100
AcDb2dVertex
  10
0.08126
  20
0.38886
  30
0.00000
  42
-0.1299
  70
32
  0
VERTEX
  5
DBB
  100
AcDbEntity
  8
Layer 1
  62
0
  100
AcDb2dVertex
  10
0.09127
  20
0.40770
  30
0.00000
  42
-0.2034
  70
32
  0
VERTEX
  5
DBC
  100
AcDbEntity
  8
Layer 1
  62
0
  100
AcDb2dVertex
  10
0.10700
  20
0.41400
  30
0.00000
  42
-0.2196
  70
32
  0
VERTEX
  5
DBD
  100
AcDbEntity
  8
Layer 1
  62
0
  100
AcDb2dVertex
  10
0.11629
  20
0.40890
  30
0.00000
  42
-0.0348
  70
32
  0
VERTEX
  5
DBE
  100
AcDbEntity
  8
Layer 1
  62
0
  100
AcDb2dVertex
  10
0.12000
  20
0.40400
  30
0.00000
  42
0.1695
  70
32
  0
VERTEX
  5
DBF
  100
AcDbEntity
  8
Layer 1
  62
0
  100
AcDb2dVertex
  10
0.12734
  20
0.39470
  30
0.00000
  42
0.1181
  70
32
  0
VERTEX
  5
DC0
  100
AcDbEntity
  8
Layer 1
  62
0
  100
AcDb2dVertex
  10
0.13000
  20
0.39400
  30
0.00000
  42
-0.1358
  70
32
  0
VERTEX
  5
DC1
  100
AcDbEntity
  8
Layer 1
  62
0
  100
AcDb2dVertex
  10
0.14646
  20
0.40450
  30
0.00000
  70
32
  0
VERTEX
  5
DC2
  100
AcDbEntity
  8
Layer 1
  62
0
  100
AcDb2dVertex
  10
0.14900
  20
0.40500
  30
0.00000
  42
-0.0962
  70
32
  0
VERTEX
  5
DC3
  100
AcDbEntity
  8
Layer 1
  62
0
  100
AcDb2dVertex
  10
0.16439
  20
0.40509
  30
0.00000
  70
32
  0
VERTEX
  5
DC4
  100
AcDbEntity
  8
Layer 1
  62
0
  100
AcDb2dVertex
  10
0.16500
  20
0.40500
  30
0.00000
  42
0.0476
  70
32
  0
VERTEX
  5
DC5
  100
AcDbEntity
  8
Layer 1
  62
0
  100
AcDb2dVertex
  10
0.18500
  20
0.40200
  30
0.00000
  42
0.1666
  70
32
  0
VERTEX
  5
DC6
  100
AcDbEntity
  8
Layer 1
  62
0
  100
AcDb2dVertex
  10
0.21568
  20
0.41299
  30
0.00000
  42
0.0365
  70
32
  0
VERTEX
  5
DC7
  100
AcDbEntity
  8
Layer 1
  62
0
  100
AcDb2dVertex
  10
0.22600
  20
0.42200
  30
0.00000
  42
-0.0556
  70
32
  0
VERTEX
  5
DC8
  100
AcDbEntity
  8
Layer 1
  62
0
  100
AcDb2dVertex
  10
0.24608
  20
0.43919
  30
0.00000
  42
-0.1324
  70
32
  0
VERTEX
  5
DC9
  100
AcDbEntity
  8
Layer 1
  62
0
  100
AcDb2dVertex
  10
0.25400
  20
0.44200
  30
0.00000
  42
-0.2318
  70
32
  0
VERTEX
  5
DCA
  100
AcDbEntity
  8
Layer 1
  62
0
  100
AcDb2dVertex
  10
0.27500
  20
0.43200
  30
0.00000
  42
0.3325
  70
32
  0
VERTEX
  5
DCB
  100
AcDbEntity
  8
Layer 1
  62
0
  100
AcDb2dVertex
  10
0.28296
  20
0.43782
  30
0.00000
  42
0.0737
  70
32
  0
VERTEX
  5
DCC
  100
AcDbEntity
  8
Layer 1
  62
0
  100
AcDb2dVertex
  10
0.28500
  20
0.44700
  30
0.00000
  42
-0.1713
  70
32
  0
VERTEX
  5
DCD
  100
AcDbEntity
  8
Layer 1
  62
0
  100
AcDb2dVertex
  10
0.28824
  20
0.45889
  30
0.00000
  42
-0.2325
  70
32
  0
VERTEX
  5
DCE
  100
AcDbEntity
  8
Layer 1
  62
0
  100
AcDb2dVertex
  10
0.29500
  20
0.46200
  30
0.00000
  42
-0.2127
  70
32
  0
VERTEX
  5
DCF
  100
AcDbEntity
  8
Layer 1
  62
0
  100
AcDb2dVertex
  10
0.30097
  20
0.45837
  30
0.00000
  42
-0.0344
  70
32
  0
VERTEX
  5
DD0
  100
AcDbEntity
  8
Layer 1
  62
0
  100
AcDb2dVertex
  10
0.30500
  20
0.45300
  30
0.00000
  42
0.2550
  70
32
  0
VERTEX
  5
DD1
  100
AcDbEntity
  8
Layer 1
  62
0
  100
AcDb2dVertex
  10
0.31631
  20
0.44403
  30
0.00000
  70
32
  0
VERTEX
  5
DD2
  100
AcDbEntity
  8
Layer 1
  62
0
  100
AcDb2dVertex
  10
0.31700
  20
0.44400
  30
0.00000
  42
0.3315
  70
32
  0
VERTEX
  5
DD3
  100
AcDbEntity
  8
Layer 1
  62
0
  100
AcDb2dVertex
  10
0.32514
  20
0.44879
  30
0.00000
  42
0.1356
  70
32
  0
VERTEX
  5
DD4
  100
AcDbEntity
  8
Layer 1
  62
0
  100
AcDb2dVertex
  10
0.32554
  20
0.46121
  30
0.00000
  70
32
  0
VERTEX
  5
DD5
  100
AcDbEntity
  8
Layer 1
  62
0
  100
AcDb2dVertex
  10
0.32500
  20
0.46400
  30
0.00000
  42
0.0816
  70
32
  0
VERTEX
  5
DD6
  100
AcDbEntity
  8
Layer 1
  62
0
  100
AcDb2dVertex
  10
0.36880
  20
0.52318
  30
0.00000
  42
0.0205
  70
32
  0
VERTEX
  5
DD7
  100
AcDbEntity
  8
Layer 1
  62
0
  100
AcDb2dVertex
  10
0.37500
  20
0.53700
  30
0.00000
  42
0.0276
  70
32
  0
VERTEX
  5
DD8
  100
AcDbEntity
  8
Layer 1
  62
0
  100
AcDb2dVertex
  10
0.38570
  20
0.57057
  30
0.00000
  42
0.0048
  70
32
  0
VERTEX
  5
DD9
  100
AcDbEntity
  8
Layer 1
  62
0
  100
AcDb2dVertex
  10
0.39900
  20
0.62000
  30
0.00000
  70
32
  0
VERTEX
  5
DDA
  100
AcDbEntity
  8
Layer 1
  62
0
  100
AcDb2dVertex
  10
0.41700
  20
0.63200
  30
0.00000
  42
-0.0953
  70
32
  0
VERTEX
  5
DDB
  100
AcDbEntity
  8
Layer 1
  62
0
  100
AcDb2dVertex
  10
0.44335
  20
0.62561
  30
0.00000
  42
-0.0366
  70
32
  0
VERTEX
  5
DDC
  100
AcDbEntity
  8
Layer 1
  62
0
  100
AcDb2dVertex
  10
0.46600
  20
0.61400
  30
0.00000
  42
-0.0917
  70
32
  0
VERTEX
  5
DDD
  100
AcDbEntity
  8
Layer 1
  62
0
  100
AcDb2dVertex
  10
0.48979
  20
0.59653
  30
0.00000
  42
-0.1769
  70
32
  0
VERTEX
  5
DDE
  100
AcDbEntity
  8
Layer 1
  62
0
  100
AcDb2dVertex
  10
0.49700
  20
0.58035
  30
0.00000
  70
32
  0
VERTEX
  5
DDF
  100
AcDbEntity
  8
Layer 1
  62
0
  100
AcDb2dVertex
  10
0.49700
  20
0.58000
  30
0.00000
  70
32
  0
SEQEND
  5
DE0
  100
AcDbEntity
  8
Layer 1
  62
0
  0
POLYLINE
  5
DE1
  100
AcDbEntity
  8
Layer 1
  62
0
  100
AcDb2dPolyline
 66
     1
  10
0
  20
0
  30
0
  70
1
  0
VERTEX
  5
DE2
  100
AcDbEntity
  8
Layer 1
  62
0
  100
AcDb2dVertex
  10
1.97200
  20
0.69400
  30
0.00000
  42
0.3251
  70
32
  0
VERTEX
  5
DE3
  100
AcDbEntity
  8
Layer 1
  62
0
  100
AcDb2dVertex
  10
1.95827
  20
0.71496
  30
0.00000
  42
0.1021
  70
32
  0
VERTEX
  5
DE4
  100
AcDbEntity
  8
Layer 1
  62
0
  100
AcDb2dVertex
  10
1.93400
  20
0.71900
  30
0.00000
  42
0.0266
  70
32
  0
VERTEX
  5
DE5
  100
AcDbEntity
  8
Layer 1
  62
0
  100
AcDb2dVertex
  10
1.90984
  20
0.71477
  30
0.00000
  70
32
  0
VERTEX
  5
DE6
  100
AcDbEntity
  8
Layer 1
  62
0
  100
AcDb2dVertex
  10
1.90600
  20
0.71400
  30
0.00000
  42
-0.1050
  70
32
  0
VERTEX
  5
DE7
  100
AcDbEntity
  8
Layer 1
  62
0
  100
AcDb2dVertex
  10
1.87700
  20
0.71700
  30
0.00000
  42
0.1330
  70
32
  0
VERTEX
  5
DE8
  100
AcDbEntity
  8
Layer 1
  62
0
  100
AcDb2dVertex
  10
1.86431
  20
0.70860
  30
0.00000
  42
0.1669
  70
32
  0
VERTEX
  5
DE9
  100
AcDbEntity
  8
Layer 1
  62
0
  100
AcDb2dVertex
  10
1.86200
  20
0.70200
  30
0.00000
  70
32
  0
VERTEX
  5
DEA
  100
AcDbEntity
  8
Layer 1
  62
0
  100
AcDb2dVertex
  10
1.86444
  20
0.69276
  30
0.00000
  42
0.0141
  70
32
  0
VERTEX
  5
DEB
  100
AcDbEntity
  8
Layer 1
  62
0
  100
AcDb2dVertex
  10
1.87600
  20
0.65200
  30
0.00000
  70
32
  0
VERTEX
  5
DEC
  100
AcDbEntity
  8
Layer 1
  62
0
  100
AcDb2dVertex
  10
1.89400
  20
0.64500
  30
0.00000
  42
0.1007
  70
32
  0
VERTEX
  5
DED
  100
AcDbEntity
  8
Layer 1
  62
0
  100
AcDb2dVertex
  10
1.90786
  20
0.64926
  30
0.00000
  42
0.0288
  70
32
  0
VERTEX
  5
DEE
  100
AcDbEntity
  8
Layer 1
  62
0
  100
AcDb2dVertex
  10
1.92700
  20
0.66000
  30
0.00000
  42
0.0295
  70
32
  0
VERTEX
  5
DEF
  100
AcDbEntity
  8
Layer 1
  62
0
  100
AcDb2dVertex
  10
1.96205
  20
0.67851
  30
0.00000
  70
32
  0
VERTEX
  5
DF0
  100
AcDbEntity
  8
Layer 1
  62
0
  100
AcDb2dVertex
  10
1.96400
  20
0.68000
  30
0.00000
  70
32
  0
VERTEX
  5
DF1
  100
AcDbEntity
  8
Layer 1
  62
0
  100
AcDb2dVertex
  10
1.97200
  20
0.69400
  30
0.00000
  70
32
  0
SEQEND
  5
DF2
  100
AcDbEntity
  8
Layer 1
  62
0
  0
POLYLINE
  5
DF3
  100
AcDbEntity
  8
Layer 1
  62
0
  100
AcDb2dPolyline
 66
     1
  10
0
  20
0
  30
0
  70
1
  0
VERTEX
  5
DF4
  100
AcDbEntity
  8
Layer 1
  62
0
  100
AcDb2dVertex
  10
1.69700
  20
0.44500
  30
0.00000
  42
0.0821
  70
32
  0
VERTEX
  5
DF5
  100
AcDbEntity
  8
Layer 1
  62
0
  100
AcDb2dVertex
  10
1.69351
  20
0.47190
  30
0.00000
  42
0.1901
  70
32
  0
VERTEX
  5
DF6
  100
AcDbEntity
  8
Layer 1
  62
0
  100
AcDb2dVertex
  10
1.68366
  20
0.48476
  30
0.00000
  42
0.1260
  70
32
  0
VERTEX
  5
DF7
  100
AcDbEntity
  8
Layer 1
  62
0
  100
AcDb2dVertex
  10
1.67400
  20
0.48700
  30
0.00000
  42
0.2105
  70
32
  0
VERTEX
  5
DF8
  100
AcDbEntity
  8
Layer 1
  62
0
  100
AcDb2dVertex
  10
1.66100
  20
0.48200
  30
0.00000
  42
-0.0606
  70
32
  0
VERTEX
  5
DF9
  100
AcDbEntity
  8
Layer 1
  62
0
  100
AcDb2dVertex
  10
1.64965
  20
0.47221
  30
0.00000
  70
32
  0
VERTEX
  5
DFA
  100
AcDbEntity
  8
Layer 1
  62
0
  100
AcDb2dVertex
  10
1.64900
  20
0.47200
  30
0.00000
  42
0.0402
  70
32
  0
VERTEX
  5
DFB
  100
AcDbEntity
  8
Layer 1
  62
0
  100
AcDb2dVertex
  10
1.62618
  20
0.46479
  30
0.00000
  70
32
  0
VERTEX
  5
DFC
  100
AcDbEntity
  8
Layer 1
  62
0
  100
AcDb2dVertex
  10
1.62400
  20
0.46400
  30
0.00000
  70
32
  0
VERTEX
  5
DFD
  100
AcDbEntity
  8
Layer 1
  62
0
  100
AcDb2dVertex
  10
1.61900
  20
0.45200
  30
0.00000
  42
0.1832
  70
32
  0
VERTEX
  5
DFE
  100
AcDbEntity
  8
Layer 1
  62
0
  100
AcDb2dVertex
  10
1.62278
  20
0.43932
  30
0.00000
  42
0.1913
  70
32
  0
VERTEX
  5
DFF
  100
AcDbEntity
  8
Layer 1
  62
0
  100
AcDb2dVertex
  10
1.63200
  20
0.43500
  30
0.00000
  70
32
  0
VERTEX
  5
E00
  100
AcDbEntity
  8
Layer 1
  62
0
  100
AcDb2dVertex
  10
1.63073
  20
0.43537
  30
0.00000
  42
-0.3529
  70
32
  0
VERTEX
  5
E01
  100
AcDbEntity
  8
Layer 1
  62
0
  100
AcDb2dVertex
  10
1.63056
  20
0.43560
  30
0.00000
  42
-0.4812
  70
32
  0
VERTEX
  5
E02
  100
AcDbEntity
  8
Layer 1
  62
0
  100
AcDb2dVertex
  10
1.63084
  20
0.43581
  30
0.00000
  42
-0.0515
  70
32
  0
VERTEX
  5
E03
  100
AcDbEntity
  8
Layer 1
  62
0
  100
AcDb2dVertex
  10
1.64474
  20
0.43688
  30
0.00000
  70
32
  0
VERTEX
  5
E04
  100
AcDbEntity
  8
Layer 1
  62
0
  100
AcDb2dVertex
  10
1.65600
  20
0.43700
  30
0.00000
  42
-0.0717
  70
32
  0
VERTEX
  5
E05
  100
AcDbEntity
  8
Layer 1
  62
0
  100
AcDb2dVertex
  10
1.67000
  20
0.43400
  30
0.00000
  42
0.1101
  70
32
  0
VERTEX
  5
E06
  100
AcDbEntity
  8
Layer 1
  62
0
  100
AcDb2dVertex
  10
1.68400
  20
0.43000
  30
0.00000
  42
0.2362
  70
32
  0
VERTEX
  5
E07
  100
AcDbEntity
  8
Layer 1
  62
0
  100
AcDb2dVertex
  10
1.69405
  20
0.43396
  30
0.00000
  42
0.1695
  70
32
  0
VERTEX
  5
E08
  100
AcDbEntity
  8
Layer 1
  62
0
  100
AcDb2dVertex
  10
1.69700
  20
0.44500
  30
0.00000
  70
32
  0
SEQEND
  5
E09
  100
AcDbEntity
  8
Layer 1
  62
0
  0
POLYLINE
  5
E0A
  100
AcDbEntity
  8
Layer 1
  62
0
  100
AcDb2dPolyline
 66
     1
  10
0
  20
0
  30
0
  70
1
  0
VERTEX
  5
E0B
  100
AcDbEntity
  8
Layer 1
  62
0
  100
AcDb2dVertex
  10
0.74400
  20
1.00900
  30
0.00000
  42
0.0887
  70
32
  0
VERTEX
  5
E0C
  100
AcDbEntity
  8
Layer 1
  62
0
  100
AcDb2dVertex
  10
0.74029
  20
1.03507
  30
0.00000
  42
0.1994
  70
32
  0
VERTEX
  5
E0D
  100
AcDbEntity
  8
Layer 1
  62
0
  100
AcDb2dVertex
  10
0.73003
  20
1.04734
  30
0.00000
  42
0.1102
  70
32
  0
VERTEX
  5
E0E
  100
AcDbEntity
  8
Layer 1
  62
0
  100
AcDb2dVertex
  10
0.72200
  20
1.04900
  30
0.00000
  42
0.0756
  70
32
  0
VERTEX
  5
E0F
  100
AcDbEntity
  8
Layer 1
  62
0
  100
AcDb2dVertex
  10
0.69552
  20
1.04359
  30
0.00000
  42
0.0354
  70
32
  0
VERTEX
  5
E10
  100
AcDbEntity
  8
Layer 1
  62
0
  100
AcDb2dVertex
  10
0.65200
  20
1.02500
  30
0.00000
  70
32
  0
VERTEX
  5
E11
  100
AcDbEntity
  8
Layer 1
  62
0
  100
AcDb2dVertex
  10
0.64400
  20
1.00700
  30
0.00000
  42
0.2529
  70
32
  0
VERTEX
  5
E12
  100
AcDbEntity
  8
Layer 1
  62
0
  100
AcDb2dVertex
  10
0.65310
  20
0.98779
  30
0.00000
  42
0.1245
  70
32
  0
VERTEX
  5
E13
  100
AcDbEntity
  8
Layer 1
  62
0
  100
AcDb2dVertex
  10
0.67313
  20
0.98083
  30
0.00000
  42
0.0328
  70
32
  0
VERTEX
  5
E14
  100
AcDbEntity
  8
Layer 1
  62
0
  100
AcDb2dVertex
  10
0.68700
  20
0.98000
  30
0.00000
  42
-0.1092
  70
32
  0
VERTEX
  5
E15
  100
AcDbEntity
  8
Layer 1
  62
0
  100
AcDb2dVertex
  10
0.70700
  20
0.97500
  30
0.00000
  42
0.0560
  70
32
  0
VERTEX
  5
E16
  100
AcDbEntity
  8
Layer 1
  62
0
  100
AcDb2dVertex
  10
0.72629
  20
0.97002
  30
0.00000
  70
32
  0
VERTEX
  5
E17
  100
AcDbEntity
  8
Layer 1
  62
0
  100
AcDb2dVertex
  10
0.72700
  20
0.97000
  30
0.00000
  42
0.2837
  70
32
  0
VERTEX
  5
E18
  100
AcDbEntity
  8
Layer 1
  62
0
  100
AcDb2dVertex
  10
0.73829
  20
0.97714
  30
0.00000
  42
0.1052
  70
32
  0
VERTEX
  5
E19
  100
AcDbEntity
  8
Layer 1
  62
0
  100
AcDb2dVertex
  10
0.74345
  20
0.99651
  30
0.00000
  42
0.0240
  70
32
  0
VERTEX
  5
E1A
  100
AcDbEntity
  8
Layer 1
  62
0
  100
AcDb2dVertex
  10
0.74400
  20
1.00900
  30
0.00000
  70
32
  0
SEQEND
  5
E1B
  100
AcDbEntity
  8
Layer 1
  62
0
  0
POLYLINE
  5
E1C
  100
AcDbEntity
  8
Layer 1
  62
0
  100
AcDb2dPolyline
 66
     1
  10
0
  20
0
  30
0
  70
1
  0
VERTEX
  5
E1D
  100
AcDbEntity
  8
Layer 1
  62
0
  100
AcDb2dVertex
  10
0.14500
  20
1.45900
  30
0.00000
  42
0.2308
  70
32
  0
VERTEX
  5
E1E
  100
AcDbEntity
  8
Layer 1
  62
0
  100
AcDb2dVertex
  10
0.13599
  20
1.47700
  30
0.00000
  70
32
  0
VERTEX
  5
E1F
  100
AcDbEntity
  8
Layer 1
  62
0
  100
AcDb2dVertex
  10
0.13200
  20
1.48000
  30
0.00000
  42
0.1434
  70
32
  0
VERTEX
  5
E20
  100
AcDbEntity
  8
Layer 1
  62
0
  100
AcDb2dVertex
  10
0.10500
  20
1.49100
  30
0.00000
  42
-0.2453
  70
32
  0
VERTEX
  5
E21
  100
AcDbEntity
  8
Layer 1
  62
0
  100
AcDb2dVertex
  10
0.10272
  20
1.48941
  30
0.00000
  70
32
  0
VERTEX
  5
E22
  100
AcDbEntity
  8
Layer 1
  62
0
  100
AcDb2dVertex
  10
0.09500
  20
1.48700
  30
0.00000
  42
0.0236
  70
32
  0
VERTEX
  5
E23
  100
AcDbEntity
  8
Layer 1
  62
0
  100
AcDb2dVertex
  10
0.06723
  20
1.44310
  30
0.00000
  42
0.0914
  70
32
  0
VERTEX
  5
E24
  100
AcDbEntity
  8
Layer 1
  62
0
  100
AcDb2dVertex
  10
0.06400
  20
1.43500
  30
0.00000
  42
0.1958
  70
32
  0
VERTEX
  5
E25
  100
AcDbEntity
  8
Layer 1
  62
0
  100
AcDb2dVertex
  10
0.06881
  20
1.42057
  30
0.00000
  42
0.1942
  70
32
  0
VERTEX
  5
E26
  100
AcDbEntity
  8
Layer 1
  62
0
  100
AcDb2dVertex
  10
0.08287
  20
1.41506
  30
0.00000
  70
32
  0
VERTEX
  5
E27
  100
AcDbEntity
  8
Layer 1
  62
0
  100
AcDb2dVertex
  10
0.08500
  20
1.41500
  30
0.00000
  42
0.1038
  70
32
  0
VERTEX
  5
E28
  100
AcDbEntity
  8
Layer 1
  62
0
  100
AcDb2dVertex
  10
0.09714
  20
1.41895
  30
0.00000
  42
0.0218
  70
32
  0
VERTEX
  5
E29
  100
AcDbEntity
  8
Layer 1
  62
0
  100
AcDb2dVertex
  10
0.12000
  20
1.43200
  30
0.00000
  42
0.0738
  70
32
  0
VERTEX
  5
E2A
  100
AcDbEntity
  8
Layer 1
  62
0
  100
AcDb2dVertex
  10
0.14036
  20
1.44872
  30
0.00000
  42
0.1711
  70
32
  0
VERTEX
  5
E2B
  100
AcDbEntity
  8
Layer 1
  62
0
  100
AcDb2dVertex
  10
0.14500
  20
1.45900
  30
0.00000
  70
32
  0
SEQEND
  5
E2C
  100
AcDbEntity
  8
Layer 1
  62
0
 0
ENDSEC
 0
EOF
