  0
SECTION
  2
HEADER
  9
$ACADVER
  1
AC1009
  9
$EXTMIN
 10
-724.99110525
 20
-209.00390625
 30
0.0
  9
$EXTMAX
 10
163.94728498
 20
509.00390625
 30
0.0
  0
ENDSEC
  0
SECTION
  2
TABLES
  0
TABLE
  2
LAYER
 70
1
 0
LAYER
 2
�����_�������
 70
0
 62
1
 6
CONTINUOUS
 0
ENDTAB
 0
ENDSEC
  0
SECTION
  2
ENTITIES
  0
POLYLINE
  8
�����_�������
 66
   1
 39
0.000000
 70
    1
  0
VERTEX
  8
0
 10
-13.28416033
 20
56.76127488
  0
VERTEX
  8
0
 10
-13.28416033
 20
33.77787644
  0
VERTEX
  8
0
 10
-7.27830096
 20
33.77787644
  0
VERTEX
  8
0
 10
-7.27830096
 20
7.54252488
  0
VERTEX
  8
0
 10
-13.28416033
 20
7.54252488
  0
VERTEX
  8
0
 10
-13.28416033
 20
-60.90962983
  0
VERTEX
  8
0
 10
-7.27830096
 20
-60.90962356
  0
VERTEX
  8
0
 10
-7.27830096
 20
-87.15962356
  0
VERTEX
  8
0
 10
-13.28416033
 20
-87.15962356
  0
VERTEX
  8
0
 10
-13.28416033
 20
-152.78462356
  0
VERTEX
  8
0
 10
-7.28562518
 20
-152.78828567
  0
VERTEX
  8
0
 10
-7.27830096
 20
-179.01997512
  0
VERTEX
  8
0
 10
-13.28416033
 20
-179.01999151
  0
VERTEX
  8
0
 10
-13.28416033
 20
-205.37056106
  0
VERTEX
  8
0
 10
19.75539045
 20
-205.37251418
  0
VERTEX
  8
0
 10
19.74806623
 20
-199.38130325
  0
VERTEX
  8
0
 10
46.73048811
 20
-199.36665481
  0
VERTEX
  8
0
 10
46.74147443
 20
-205.36885207
  0
VERTEX
  8
0
 10
100.75392561
 20
-205.35786575
  0
VERTEX
  8
0
 10
100.73927717
 20
-199.38130325
  0
VERTEX
  8
0
 10
127.75099592
 20
-199.38130325
  0
VERTEX
  8
0
 10
127.75099592
 20
-205.37251418
  0
VERTEX
  8
0
 10
163.94728498
 20
-205.37251418
  0
VERTEX
  8
0
 10
163.51167969
 20
-204.80864778
  0
VERTEX
  8
0
 10
163.12343408
 20
-204.36996293
  0
VERTEX
  8
0
 10
162.70776682
 20
-203.93592495
  0
VERTEX
  8
0
 10
162.27290442
 20
-203.50513978
  0
VERTEX
  8
0
 10
161.37850014
 20
-202.64775163
  0
VERTEX
  8
0
 10
160.50603317
 20
-201.78664598
  0
VERTEX
  8
0
 10
160.09859241
 20
-201.35121394
  0
VERTEX
  8
0
 10
159.72131545
 20
-200.91067034
  0
VERTEX
  8
0
 10
159.38242879
 20
-200.46362112
  0
VERTEX
  8
0
 10
159.09015892
 20
-200.00867222
  0
VERTEX
  8
0
 10
158.85273233
 20
-199.54442958
  0
VERTEX
  8
0
 10
158.75715605
 20
-199.30838746
  0
VERTEX
  8
0
 10
158.67837552
 20
-199.06949912
  0
VERTEX
  8
0
 10
158.61741905
 20
-198.82759033
  0
VERTEX
  8
0
 10
158.57531496
 20
-198.58248681
  0
VERTEX
  8
0
 10
158.55309157
 20
-198.33401430
  0
VERTEX
  8
0
 10
158.55177717
 20
-198.08199856
  0
VERTEX
  8
0
 10
158.57559811
 20
-197.83380468
  0
VERTEX
  8
0
 10
158.62687628
 20
-197.59643299
  0
VERTEX
  8
0
 10
158.70378336
 20
-197.36916212
  0
VERTEX
  8
0
 10
158.80449099
 20
-197.15127065
  0
VERTEX
  8
0
 10
158.92717085
 20
-196.94203720
  0
VERTEX
  8
0
 10
159.06999458
 20
-196.74074036
  0
VERTEX
  8
0
 10
159.23113386
 20
-196.54665875
  0
VERTEX
  8
0
 10
159.40876035
 20
-196.35907097
  0
VERTEX
  8
0
 10
159.80616158
 20
-196.00049130
  0
VERTEX
  8
0
 10
160.24757157
 20
-195.65923019
  0
VERTEX
  8
0
 10
160.71836361
 20
-195.32951648
  0
VERTEX
  8
0
 10
161.20391099
 20
-195.00557900
  0
VERTEX
  8
0
 10
161.68958700
 20
-194.68164659
  0
VERTEX
  8
0
 10
162.16076493
 20
-194.35194808
  0
VERTEX
  8
0
 10
162.60281807
 20
-194.01071230
  0
VERTEX
  8
0
 10
163.00111972
 20
-193.65216810
  0
VERTEX
  8
0
 10
163.17929288
 20
-193.46460184
  0
VERTEX
  8
0
 10
163.34104316
 20
-193.27054430
  0
VERTEX
  8
0
 10
163.48454221
 20
-193.06927406
  0
VERTEX
  8
0
 10
163.60796169
 20
-192.86006974
  0
VERTEX
  8
0
 10
163.70947326
 20
-192.64220994
  0
VERTEX
  8
0
 10
163.78724860
 20
-192.41497326
  0
VERTEX
  8
0
 10
163.83945934
 20
-192.17763831
  0
VERTEX
  8
0
 10
163.86427717
 20
-191.92948369
  0
VERTEX
  8
0
 10
163.85933066
 20
-191.67879375
  0
VERTEX
  8
0
 10
163.82477967
 20
-191.43407666
  0
VERTEX
  8
0
 10
163.76259273
 20
-191.19494674
  0
VERTEX
  8
0
 10
163.67473839
 20
-190.96101831
  0
VERTEX
  8
0
 10
163.56318520
 20
-190.73190572
  0
VERTEX
  8
0
 10
163.42990171
 20
-190.50722327
  0
VERTEX
  8
0
 10
163.27685646
 20
-190.28658531
  0
VERTEX
  8
0
 10
163.10601800
 20
-190.06960615
  0
VERTEX
  8
0
 10
162.71883564
 20
-189.64508157
  0
VERTEX
  8
0
 10
162.28410298
 20
-189.23056413
  0
VERTEX
  8
0
 10
161.81756841
 20
-188.82296846
  0
VERTEX
  8
0
 10
161.33498028
 20
-188.41920918
  0
VERTEX
  8
0
 10
160.85208699
 20
-188.01620089
  0
VERTEX
  8
0
 10
160.38463689
 20
-187.61085821
  0
VERTEX
  8
0
 10
159.94837835
 20
-187.20009577
  0
VERTEX
  8
0
 10
159.55905976
 20
-186.78082817
  0
VERTEX
  8
0
 10
159.38692430
 20
-186.56704076
  0
VERTEX
  8
0
 10
159.23242947
 20
-186.34997004
  0
VERTEX
  8
0
 10
159.09754381
 20
-186.12923034
  0
VERTEX
  8
0
 10
158.98423586
 20
-185.90443598
  0
VERTEX
  8
0
 10
158.89447418
 20
-185.67520130
  0
VERTEX
  8
0
 10
158.83022731
 20
-185.44114061
  0
VERTEX
  8
0
 10
158.79346379
 20
-185.20186826
  0
VERTEX
  8
0
 10
158.78615217
 20
-184.95699856
  0
VERTEX
  8
0
 10
158.80772099
 20
-184.71444456
  0
VERTEX
  8
0
 10
158.85515205
 20
-184.48193101
  0
VERTEX
  8
0
 10
158.92674378
 20
-184.25878978
  0
VERTEX
  8
0
 10
159.02079462
 20
-184.04435273
  0
VERTEX
  8
0
 10
159.13560301
 20
-183.83795174
  0
VERTEX
  8
0
 10
159.26946740
 20
-183.63891866
  0
VERTEX
  8
0
 10
159.42068620
 20
-183.44658537
  0
VERTEX
  8
0
 10
159.58755788
 20
-183.26028374
  0
VERTEX
  8
0
 10
159.96145358
 20
-182.90310292
  0
VERTEX
  8
0
 10
160.37754199
 20
-182.56203113
  0
VERTEX
  8
0
 10
160.82221064
 20
-182.23172334
  0
VERTEX
  8
0
 10
161.28184701
 20
-181.90683447
  0
VERTEX
  8
0
 10
161.74283863
 20
-181.58201948
  0
VERTEX
  8
0
 10
162.19157299
 20
-181.25193331
  0
VERTEX
  8
0
 10
162.61443761
 20
-180.91123090
  0
VERTEX
  8
0
 10
162.99781998
 20
-180.55456720
  0
VERTEX
  8
0
 10
163.17045142
 20
-180.36857954
  0
VERTEX
  8
0
 10
163.32810761
 20
-180.17659716
  0
VERTEX
  8
0
 10
163.46908700
 20
-179.97795192
  0
VERTEX
  8
0
 10
163.59168802
 20
-179.77197571
  0
VERTEX
  8
0
 10
163.69420911
 20
-179.55800038
  0
VERTEX
  8
0
 10
163.77494870
 20
-179.33535780
  0
VERTEX
  8
0
 10
163.83220524
 20
-179.10337985
  0
VERTEX
  8
0
 10
163.86427717
 20
-178.86139838
  0
VERTEX
  8
0
 10
163.86723061
 20
-178.61376908
  0
VERTEX
  8
0
 10
163.83960914
 20
-178.36528152
  0
VERTEX
  8
0
 10
163.78342739
 20
-178.11591838
  0
VERTEX
  8
0
 10
163.70069998
 20
-177.86566238
  0
VERTEX
  8
0
 10
163.59344152
 20
-177.61449620
  0
VERTEX
  8
0
 10
163.46366664
 20
-177.36240255
  0
VERTEX
  8
0
 10
163.31338996
 20
-177.10936414
  0
VERTEX
  8
0
 10
163.14462609
 20
-176.85536365
  0
VERTEX
  8
0
 10
162.75969530
 20
-176.34440725
  0
VERTEX
  8
0
 10
162.32499124
 20
-175.82939495
  0
VERTEX
  8
0
 10
161.37073111
 20
-174.78664905
  0
VERTEX
  8
0
 10
160.88340898
 20
-174.25863863
  0
VERTEX
  8
0
 10
160.41078143
 20
-173.72601870
  0
VERTEX
  8
0
 10
159.96896542
 20
-173.18865084
  0
VERTEX
  8
0
 10
159.57407791
 20
-172.64639666
  0
VERTEX
  8
0
 10
159.39926889
 20
-172.37339394
  0
VERTEX
  8
0
 10
159.24223586
 20
-172.09911774
  0
VERTEX
  8
0
 10
159.10499344
 20
-171.82355076
  0
VERTEX
  8
0
 10
158.98955625
 20
-171.54667569
  0
VERTEX
  8
0
 10
158.89793890
 20
-171.26847524
  0
VERTEX
  8
0
 10
158.83215603
 20
-170.98893210
  0
VERTEX
  8
0
 10
158.79422225
 20
-170.70802897
  0
VERTEX
  8
0
 10
158.78615217
 20
-170.42574856
  0
VERTEX
  8
0
 10
158.80781861
 20
-170.14723472
  0
VERTEX
  8
0
 10
158.85653718
 20
-169.87726307
  0
VERTEX
  8
0
 10
158.93048669
 20
-169.61526393
  0
VERTEX
  8
0
 10
159.02784596
 20
-169.36066760
  0
VERTEX
  8
0
 10
159.14679382
 20
-169.11290440
  0
VERTEX
  8
0
 10
159.28550907
 20
-168.87140465
  0
VERTEX
  8
0
 10
159.44217055
 20
-168.63559867
  0
VERTEX
  8
0
 10
159.61495707
 20
-168.40491676
  0
VERTEX
  8
0
 10
160.00162052
 20
-167.95664645
  0
VERTEX
  8
0
 10
160.43092997
 20
-167.52203624
  0
VERTEX
  8
0
 10
160.88831598
 20
-167.09652866
  0
VERTEX
  8
0
 10
161.35920910
 20
-166.67556623
  0
VERTEX
  8
0
 10
161.82903990
 20
-166.25459147
  0
VERTEX
  8
0
 10
162.28323893
 20
-165.82904691
  0
VERTEX
  8
0
 10
162.70723675
 20
-165.39437507
  0
VERTEX
  8
0
 10
163.08646391
 20
-164.94601847
  0
VERTEX
  8
0
 10
163.25473555
 20
-164.71528418
  0
VERTEX
  8
0
 10
163.40635098
 20
-164.47941964
  0
VERTEX
  8
0
 10
163.53948903
 20
-164.23785518
  0
VERTEX
  8
0
 10
163.65232851
 20
-163.99002111
  0
VERTEX
  8
0
 10
163.74304824
 20
-163.73534773
  0
VERTEX
  8
0
 10
163.80982705
 20
-163.47326538
  0
VERTEX
  8
0
 10
163.85084375
 20
-163.20320437
  0
VERTEX
  8
0
 10
163.86427717
 20
-162.92459500
  0
VERTEX
  8
0
 10
163.84825260
 20
-162.64562843
  0
VERTEX
  8
0
 10
163.80338706
 20
-162.37451266
  0
VERTEX
  8
0
 10
163.73159698
 20
-162.11070327
  0
VERTEX
  8
0
 10
163.63479876
 20
-161.85365586
  0
VERTEX
  8
0
 10
163.51490881
 20
-161.60282600
  0
VERTEX
  8
0
 10
163.37384355
 20
-161.35766929
  0
VERTEX
  8
0
 10
163.21351938
 20
-161.11764131
  0
VERTEX
  8
0
 10
163.03585273
 20
-160.88219765
  0
VERTEX
  8
0
 10
162.63615760
 20
-160.42288564
  0
VERTEX
  8
0
 10
162.19008945
 20
-159.97537798
  0
VERTEX
  8
0
 10
161.71297958
 20
-159.53531934
  0
VERTEX
  8
0
 10
161.22015929
 20
-159.09835443
  0
VERTEX
  8
0
 10
160.72695987
 20
-158.66012796
  0
VERTEX
  8
0
 10
160.24871262
 20
-158.21628462
  0
VERTEX
  8
0
 10
159.80074883
 20
-157.76246912
  0
VERTEX
  8
0
 10
159.39839979
 20
-157.29432614
  0
VERTEX
  8
0
 10
159.21912184
 20
-157.05352082
  0
VERTEX
  8
0
 10
159.05699682
 20
-156.80750040
  0
VERTEX
  8
0
 10
158.91394113
 20
-156.55572046
  0
VERTEX
  8
0
 10
158.79187119
 20
-156.29763659
  0
VERTEX
  8
0
 10
158.69270341
 20
-156.03270438
  0
VERTEX
  8
0
 10
158.61835421
 20
-155.76037941
  0
VERTEX
  8
0
 10
158.57073999
 20
-155.48011727
  0
VERTEX
  8
0
 10
158.55177717
 20
-155.19137356
  0
VERTEX
  8
0
 10
158.56285091
 20
-154.90194707
  0
VERTEX
  8
0
 10
158.60280951
 20
-154.61966538
  0
VERTEX
  8
0
 10
158.66976412
 20
-154.34402726
  0
VERTEX
  8
0
 10
158.76182588
 20
-154.07453146
  0
VERTEX
  8
0
 10
158.87710592
 20
-153.81067676
  0
VERTEX
  8
0
 10
159.01371538
 20
-153.55196192
  0
VERTEX
  8
0
 10
159.16976540
 20
-153.29788569
  0
VERTEX
  8
0
 10
159.34336712
 20
-153.04794684
  0
VERTEX
  8
0
 10
159.73567020
 20
-152.55847633
  0
VERTEX
  8
0
 10
160.17551374
 20
-152.07954049
  0
VERTEX
  8
0
 10
160.64778683
 20
-151.60712941
  0
VERTEX
  8
0
 10
161.13737858
 20
-151.13723319
  0
VERTEX
  8
0
 10
161.62917810
 20
-150.66584194
  0
VERTEX
  8
0
 10
162.10807450
 20
-150.18894576
  0
VERTEX
  8
0
 10
162.55895688
 20
-149.70253473
  0
VERTEX
  8
0
 10
162.96671434
 20
-149.20259897
  0
VERTEX
  8
0
 10
163.14969907
 20
-148.94630622
  0
VERTEX
  8
0
 10
163.31623599
 20
-148.68512857
  0
VERTEX
  8
0
 10
163.46443624
 20
-148.41856479
  0
VERTEX
  8
0
 10
163.59241095
 20
-148.14611363
  0
VERTEX
  8
0
 10
163.69827126
 20
-147.86727387
  0
VERTEX
  8
0
 10
163.78012830
 20
-147.58154425
  0
VERTEX
  8
0
 10
163.83609323
 20
-147.28842355
  0
VERTEX
  8
0
 10
163.86427717
 20
-146.98741053
  0
VERTEX
  8
0
 10
163.86144739
 20
-146.68138715
  0
VERTEX
  8
0
 10
163.82703409
 20
-146.37364581
  0
VERTEX
  8
0
 10
163.76314282
 20
-146.06430095
  0
VERTEX
  8
0
 10
163.67187910
 20
-145.75346699
  0
VERTEX
  8
0
 10
163.55534848
 20
-145.44125836
  0
VERTEX
  8
0
 10
163.41565650
 20
-145.12778949
  0
VERTEX
  8
0
 10
163.25490871
 20
-144.81317481
  0
VERTEX
  8
0
 10
163.07521063
 20
-144.49752875
  0
VERTEX
  8
0
 10
162.66738580
 20
-143.86360019
  0
VERTEX
  8
0
 10
162.20902633
 20
-143.22691925
  0
VERTEX
  8
0
 10
161.71697655
 20
-142.58840136
  0
VERTEX
  8
0
 10
161.20808077
 20
-141.94896195
  0
VERTEX
  8
0
 10
160.69918331
 20
-141.30951645
  0
VERTEX
  8
0
 10
160.20712851
 20
-140.67098029
  0
VERTEX
  8
0
 10
159.74876066
 20
-140.03426889
  0
VERTEX
  8
0
 10
159.34092411
 20
-139.40029770
  0
VERTEX
  8
0
 10
159.16121891
 20
-139.08462575
  0
VERTEX
  8
0
 10
159.00046316
 20
-138.76998214
  0
VERTEX
  8
0
 10
158.86076239
 20
-138.45648130
  0
VERTEX
  8
0
 10
158.74422214
 20
-138.14423765
  0
VERTEX
  8
0
 10
158.65294795
 20
-137.83336562
  0
VERTEX
  8
0
 10
158.58904537
 20
-137.52397964
  0
VERTEX
  8
0
 10
158.55461993
 20
-137.21619415
  0
VERTEX
  8
0
 10
158.55177717
 20
-136.91012356
  0
VERTEX
  8
0
 10
158.57976976
 20
-136.60943216
  0
VERTEX
  8
0
 10
158.63521043
 20
-136.31732597
  0
VERTEX
  8
0
 10
158.71624485
 20
-136.03323201
  0
VERTEX
  8
0
 10
158.82101868
 20
-135.75657732
  0
VERTEX
  8
0
 10
158.94767759
 20
-135.48678892
  0
VERTEX
  8
0
 10
159.09436724
 20
-135.22329384
  0
VERTEX
  8
0
 10
159.25923329
 20
-134.96551911
  0
VERTEX
  8
0
 10
159.44042140
 20
-134.71289177
  0
VERTEX
  8
0
 10
159.84434645
 20
-134.22078735
  0
VERTEX
  8
0
 10
160.29130771
 20
-133.74239681
  0
VERTEX
  8
0
 10
160.76647046
 20
-133.27313641
  0
VERTEX
  8
0
 10
161.25500001
 20
-132.80842236
  0
VERTEX
  8
0
 10
161.74206166
 20
-132.34367092
  0
VERTEX
  8
0
 10
162.21282071
 20
-131.87429832
  0
VERTEX
  8
0
 10
162.65244246
 20
-131.39572080
  0
VERTEX
  8
0
 10
163.04609220
 20
-130.90335459
  0
VERTEX
  8
0
 10
163.22104173
 20
-130.65056831
  0
VERTEX
  8
0
 10
163.37893525
 20
-130.39261594
  0
VERTEX
  8
0
 10
163.51791841
 20
-130.12892452
  0
VERTEX
  8
0
 10
163.63613689
 20
-129.85892108
  0
VERTEX
  8
0
 10
163.73173634
 20
-129.58203265
  0
VERTEX
  8
0
 10
163.80286243
 20
-129.29768625
  0
VERTEX
  8
0
 10
163.84766082
 20
-129.00530892
  0
VERTEX
  8
0
 10
163.86427717
 20
-128.70432769
  0
VERTEX
  8
0
 10
163.85085515
 20
-128.40288126
  0
VERTEX
  8
0
 10
163.80807549
 20
-128.10913950
  0
VERTEX
  8
0
 10
163.73788950
 20
-127.82257619
  0
VERTEX
  8
0
 10
163.64224846
 20
-127.54266510
  0
VERTEX
  8
0
 10
163.52310365
 20
-127.26888002
  0
VERTEX
  8
0
 10
163.38240637
 20
-127.00069472
  0
VERTEX
  8
0
 10
163.22210790
 20
-126.73758298
  0
VERTEX
  8
0
 10
163.04415952
 20
-126.47901858
  0
VERTEX
  8
0
 10
162.64311823
 20
-125.97342692
  0
VERTEX
  8
0
 10
162.19489280
 20
-125.47970995
  0
VERTEX
  8
0
 10
161.71509352
 20
-124.99365791
  0
VERTEX
  8
0
 10
161.21933070
 20
-124.51106102
  0
VERTEX
  8
0
 10
160.72321464
 20
-124.02770951
  0
VERTEX
  8
0
 10
160.24235566
 20
-123.53939360
  0
VERTEX
  8
0
 10
159.79236405
 20
-123.04190353
  0
VERTEX
  8
0
 10
159.38885011
 20
-122.53102951
  0
VERTEX
  8
0
 10
159.20940049
 20
-122.26925797
  0
VERTEX
  8
0
 10
159.04742415
 20
-122.00256178
  0
VERTEX
  8
0
 10
158.90487238
 20
-121.73041471
  0
VERTEX
  8
0
 10
158.78369647
 20
-121.45229056
  0
VERTEX
  8
0
 10
158.68584770
 20
-121.16766309
  0
VERTEX
  8
0
 10
158.61327738
 20
-120.87600608
  0
VERTEX
  8
0
 10
158.56793677
 20
-120.57679331
  0
VERTEX
  8
0
 10
158.55177717
 20
-120.26949856
  0
VERTEX
  8
0
 10
158.56653156
 20
-119.96186832
  0
VERTEX
  8
0
 10
158.61129269
 20
-119.66166248
  0
VERTEX
  8
0
 10
158.68405152
 20
-119.36837497
  0
VERTEX
  8
0
 10
158.78279901
 20
-119.08149968
  0
VERTEX
  8
0
 10
158.90552610
 20
-118.80053052
  0
VERTEX
  8
0
 10
159.05022376
 20
-118.52496141
  0
VERTEX
  8
0
 10
159.21488294
 20
-118.25428625
  0
VERTEX
  8
0
 10
159.39749459
 20
-117.98799895
  0
VERTEX
  8
0
 10
159.80853916
 20
-117.46656356
  0
VERTEX
  8
0
 10
160.26728510
 20
-116.95660651
  0
VERTEX
  8
0
 10
160.75766006
 20
-116.45407907
  0
VERTEX
  8
0
 10
161.26359169
 20
-115.95493251
  0
VERTEX
  8
0
 10
161.76900763
 20
-115.45511808
  0
VERTEX
  8
0
 10
162.25783552
 20
-114.95058707
  0
VERTEX
  8
0
 10
162.71400302
 20
-114.43729073
  0
VERTEX
  8
0
 10
163.12143777
 20
-113.91118034
  0
VERTEX
  8
0
 10
163.30185775
 20
-113.64205465
  0
VERTEX
  8
0
 10
163.46406742
 20
-113.36820716
  0
VERTEX
  8
0
 10
163.60605771
 20
-113.08913180
  0
VERTEX
  8
0
 10
163.72581960
 20
-112.80432246
  0
VERTEX
  8
0
 10
163.82134403
 20
-112.51327306
  0
VERTEX
  8
0
 10
163.89062197
 20
-112.21547750
  0
VERTEX
  8
0
 10
163.93164436
 20
-111.91042970
  0
VERTEX
  8
0
 10
163.94240217
 20
-111.59762356
  0
VERTEX
  8
0
 10
163.92183178
 20
-111.28564804
  0
VERTEX
  8
0
 10
163.87152388
 20
-110.98301446
  0
VERTEX
  8
0
 10
163.79345085
 20
-110.68910027
  0
VERTEX
  8
0
 10
163.68958509
 20
-110.40328290
  0
VERTEX
  8
0
 10
163.56189899
 20
-110.12493979
  0
VERTEX
  8
0
 10
163.41236494
 20
-109.85344840
  0
VERTEX
  8
0
 10
163.24295533
 20
-109.58818616
  0
VERTEX
  8
0
 10
163.05564255
 20
-109.32853051
  0
VERTEX
  8
0
 10
162.63519705
 20
-108.82354877
  0
VERTEX
  8
0
 10
162.16680758
 20
-108.33352271
  0
VERTEX
  8
0
 10
161.66625325
 20
-107.85347188
  0
VERTEX
  8
0
 10
161.14931319
 20
-107.37841582
  0
VERTEX
  8
0
 10
160.63176655
 20
-106.90337406
  0
VERTEX
  8
0
 10
160.12939243
 20
-106.42336614
  0
VERTEX
  8
0
 10
159.65796998
 20
-105.93341161
  0
VERTEX
  8
0
 10
159.23327832
 20
-105.42853000
  0
VERTEX
  8
0
 10
159.04338752
 20
-105.16893514
  0
VERTEX
  8
0
 10
158.87109658
 20
-104.90374085
  0
VERTEX
  8
0
 10
158.71837791
 20
-104.63232455
  0
VERTEX
  8
0
 10
158.58720389
 20
-104.35406370
  0
VERTEX
  8
0
 10
158.47954692
 20
-104.06833573
  0
VERTEX
  8
0
 10
158.39737938
 20
-103.77451809
  0
VERTEX
  8
0
 10
158.34267367
 20
-103.47198822
  0
VERTEX
  8
0
 10
158.31740217
 20
-103.16012356
  0
VERTEX
  8
0
 10
158.32413419
 20
-102.84481945
  0
VERTEX
  8
0
 10
158.36272064
 20
-102.53226719
  0
VERTEX
  8
0
 10
158.43105637
 20
-102.22228814
  0
VERTEX
  8
0
 10
158.52703619
 20
-101.91470368
  0
VERTEX
  8
0
 10
158.64855495
 20
-101.60933516
  0
VERTEX
  8
0
 10
158.79350748
 20
-101.30600397
  0
VERTEX
  8
0
 10
158.95978860
 20
-101.00453147
  0
VERTEX
  8
0
 10
159.14529315
 20
-100.70473904
  0
VERTEX
  8
0
 10
159.56555187
 20
-100.10947982
  0
VERTEX
  8
0
 10
160.03744229
 20
-99.51879729
  0
VERTEX
  8
0
 10
160.54412308
 20
-98.93126240
  0
VERTEX
  8
0
 10
161.06875287
 20
-98.34544610
  0
VERTEX
  8
0
 10
161.59449034
 20
-97.75991935
  0
VERTEX
  8
0
 10
162.10449413
 20
-97.17325311
  0
VERTEX
  8
0
 10
162.58192291
 20
-96.58401834
  0
VERTEX
  8
0
 10
163.00993533
 20
-95.99078598
  0
VERTEX
  8
0
 10
163.20014749
 20
-95.69222414
  0
VERTEX
  8
0
 10
163.37169005
 20
-95.39212701
  0
VERTEX
  8
0
 10
163.52245785
 20
-95.09031596
  0
VERTEX
  8
0
 10
163.65034572
 20
-94.78661237
  0
VERTEX
  8
0
 10
163.75324849
 20
-94.48083760
  0
VERTEX
  8
0
 10
163.82906100
 20
-94.17281302
  0
VERTEX
  8
0
 10
163.87567807
 20
-93.86236001
  0
VERTEX
  8
0
 10
163.89099454
 20
-93.54929992
  0
VERTEX
  8
0
 10
163.87561474
 20
-93.23886451
  0
VERTEX
  8
0
 10
163.83275824
 20
-92.93606534
  0
VERTEX
  8
0
 10
163.76424273
 20
-92.64039352
  0
VERTEX
  8
0
 10
163.67188591
 20
-92.35134018
  0
VERTEX
  8
0
 10
163.55750546
 20
-92.06839642
  0
VERTEX
  8
0
 10
163.42291909
 20
-91.79105337
  0
VERTEX
  8
0
 10
163.26994447
 20
-91.51880213
  0
VERTEX
  8
0
 10
163.10039931
 20
-91.25113382
  0
VERTEX
  8
0
 10
162.71886812
 20
-90.72751047
  0
VERTEX
  8
0
 10
162.29286706
 20
-90.21611222
  0
VERTEX
  8
0
 10
161.83693767
 20
-89.71286801
  0
VERTEX
  8
0
 10
161.36562148
 20
-89.21370675
  0
VERTEX
  8
0
 10
160.89346004
 20
-88.71455737
  0
VERTEX
  8
0
 10
160.43499488
 20
-88.21134878
  0
VERTEX
  8
0
 10
160.00476755
 20
-87.70000991
  0
VERTEX
  8
0
 10
159.61731959
 20
-87.17646967
  0
VERTEX
  8
0
 10
159.44418210
 20
-86.90885184
  0
VERTEX
  8
0
 10
159.28719253
 20
-86.63665700
  0
VERTEX
  8
0
 10
159.14816857
 20
-86.35937629
  0
VERTEX
  8
0
 10
159.02892791
 20
-86.07650081
  0
VERTEX
  8
0
 10
158.93128825
 20
-85.78752168
  0
VERTEX
  8
0
 10
158.85706728
 20
-85.49193002
  0
VERTEX
  8
0
 10
158.80808269
 20
-85.18921694
  0
VERTEX
  8
0
 10
158.78615217
 20
-84.87887356
  0
VERTEX
  8
0
 10
158.79383162
 20
-84.56537938
  0
VERTEX
  8
0
 10
158.83114928
 20
-84.25347263
  0
VERTEX
  8
0
 10
158.89613135
 20
-83.94303247
  0
VERTEX
  8
0
 10
158.98680403
 20
-83.63393809
  0
VERTEX
  8
0
 10
159.10119352
 20
-83.32606865
  0
VERTEX
  8
0
 10
159.23732602
 20
-83.01930333
  0
VERTEX
  8
0
 10
159.39322773
 20
-82.71352129
  0
VERTEX
  8
0
 10
159.56692485
 20
-82.40860173
  0
VERTEX
  8
0
 10
159.95981014
 20
-81.80086669
  0
VERTEX
  8
0
 10
160.40019149
 20
-81.19513160
  0
VERTEX
  8
0
 10
160.87227852
 20
-80.59042985
  0
VERTEX
  8
0
 10
161.36028082
 20
-79.98579483
  0
VERTEX
  8
0
 10
161.84840801
 20
-79.38025992
  0
VERTEX
  8
0
 10
162.32086969
 20
-78.77285852
  0
VERTEX
  8
0
 10
162.76187548
 20
-78.16262401
  0
VERTEX
  8
0
 10
163.15563497
 20
-77.54858979
  0
VERTEX
  8
0
 10
163.32986286
 20
-77.23984572
  0
VERTEX
  8
0
 10
163.48635777
 20
-76.92978924
  0
VERTEX
  8
0
 10
163.62314592
 20
-76.61829953
  0
VERTEX
  8
0
 10
163.73825351
 20
-76.30525576
  0
VERTEX
  8
0
 10
163.82970672
 20
-75.99053711
  0
VERTEX
  8
0
 10
163.89553177
 20
-75.67402274
  0
VERTEX
  8
0
 10
163.93375485
 20
-75.35559183
  0
VERTEX
  8
0
 10
163.94240217
 20
-75.03512356
  0
VERTEX
  8
0
 10
163.92109587
 20
-74.71695537
  0
VERTEX
  8
0
 10
163.87202364
 20
-74.40524607
  0
VERTEX
  8
0
 10
163.79705994
 20
-74.09960684
  0
VERTEX
  8
0
 10
163.69807929
 20
-73.79964888
  0
VERTEX
  8
0
 10
163.57695615
 20
-73.50498339
  0
VERTEX
  8
0
 10
163.43556502
 20
-73.21522156
  0
VERTEX
  8
0
 10
163.27578039
 20
-72.92997459
  0
VERTEX
  8
0
 10
163.09947675
 20
-72.64885367
  0
VERTEX
  8
0
 10
162.70481036
 20
-72.09743476
  0
VERTEX
  8
0
 10
162.26656175
 20
-71.55785439
  0
VERTEX
  8
0
 10
161.79972684
 20
-71.02700212
  0
VERTEX
  8
0
 10
161.31930151
 20
-70.50176752
  0
VERTEX
  8
0
 10
160.84028168
 20
-69.97904014
  0
VERTEX
  8
0
 10
160.37766323
 20
-69.45570953
  0
VERTEX
  8
0
 10
159.94644207
 20
-68.92866527
  0
VERTEX
  8
0
 10
159.56161411
 20
-68.39479690
  0
VERTEX
  8
0
 10
159.39128379
 20
-68.12433166
  0
VERTEX
  8
0
 10
159.23817524
 20
-67.85099398
  0
VERTEX
  8
0
 10
159.10416293
 20
-67.57439506
  0
VERTEX
  8
0
 10
158.99112135
 20
-67.29414608
  0
VERTEX
  8
0
 10
158.90092500
 20
-67.00985825
  0
VERTEX
  8
0
 10
158.83544837
 20
-66.72114275
  0
VERTEX
  8
0
 10
158.79656592
 20
-66.42761079
  0
VERTEX
  8
0
 10
158.78615217
 20
-66.12887356
  0
VERTEX
  8
0
 10
158.80489167
 20
-65.83154530
  0
VERTEX
  8
0
 10
158.85099689
 20
-65.54214701
  0
VERTEX
  8
0
 10
158.92263418
 20
-65.26014999
  0
VERTEX
  8
0
 10
159.01796987
 20
-64.98502556
  0
VERTEX
  8
0
 10
159.13517032
 20
-64.71624504
  0
VERTEX
  8
0
 10
159.27240187
 20
-64.45327972
  0
VERTEX
  8
0
 10
159.42783085
 20
-64.19560094
  0
VERTEX
  8
0
 10
159.59962362
 20
-63.94268000
  0
VERTEX
  8
0
 10
159.98496588
 20
-63.44899688
  0
VERTEX
  8
0
 10
160.41375938
 20
-62.96800087
  0
VERTEX
  8
0
 10
160.87133488
 20
-62.49546246
  0
VERTEX
  8
0
 10
161.34302312
 20
-62.02715216
  0
VERTEX
  8
0
 10
161.81415484
 20
-61.55884047
  0
VERTEX
  8
0
 10
162.27006080
 20
-61.08629789
  0
VERTEX
  8
0
 10
162.69607173
 20
-60.60529491
  0
VERTEX
  8
0
 10
163.07751839
 20
-60.11160204
  0
VERTEX
  8
0
 10
163.24694597
 20
-59.85867517
  0
VERTEX
  8
0
 10
163.39973151
 20
-59.60098977
  0
VERTEX
  8
0
 10
163.53404136
 20
-59.33801714
  0
VERTEX
  8
0
 10
163.64804186
 20
-59.06922861
  0
VERTEX
  8
0
 10
163.73989934
 20
-58.79409547
  0
VERTEX
  8
0
 10
163.80778016
 20
-58.51208905
  0
VERTEX
  8
0
 10
163.84985065
 20
-58.22268065
  0
VERTEX
  8
0
 10
163.86427717
 20
-57.92534159
  0
VERTEX
  8
0
 10
163.84941190
 20
-57.62707925
  0
VERTEX
  8
0
 10
163.80610685
 20
-57.33502025
  0
VERTEX
  8
0
 10
163.73627809
 20
-57.04881475
  0
VERTEX
  8
0
 10
163.64184169
 20
-56.76811291
  0
VERTEX
  8
0
 10
163.52471372
 20
-56.49256490
  0
VERTEX
  8
0
 10
163.38681023
 20
-56.22182090
  0
VERTEX
  8
0
 10
163.23004731
 20
-55.95553105
  0
VERTEX
  8
0
 10
163.05634101
 20
-55.69334554
  0
VERTEX
  8
0
 10
162.66576255
 20
-55.17988817
  0
VERTEX
  8
0
 10
162.23040341
 20
-54.67865011
  0
VERTEX
  8
0
 10
161.76559211
 20
-54.18683269
  0
VERTEX
  8
0
 10
161.28665720
 20
-53.70163723
  0
VERTEX
  8
0
 10
160.80892721
 20
-53.22026507
  0
VERTEX
  8
0
 10
160.34773067
 20
-52.73991752
  0
VERTEX
  8
0
 10
159.91839613
 20
-52.25779592
  0
VERTEX
  8
0
 10
159.53625213
 20
-51.77110159
  0
VERTEX
  8
0
 10
159.36766674
 20
-51.52516507
  0
VERTEX
  8
0
 10
159.21662719
 20
-51.27703587
  0
VERTEX
  8
0
 10
159.08504954
 20
-51.02636414
  0
VERTEX
  8
0
 10
158.97484986
 20
-50.77280007
  0
VERTEX
  8
0
 10
158.88794422
 20
-50.51599381
  0
VERTEX
  8
0
 10
158.82624868
 20
-50.25559552
  0
VERTEX
  8
0
 10
158.79167930
 20
-49.99125539
  0
VERTEX
  8
0
 10
158.78615217
 20
-49.72262356
  0
VERTEX
  8
0
 10
158.80963578
 20
-49.45642769
  0
VERTEX
  8
0
 10
158.85963507
 20
-49.19922858
  0
VERTEX
  8
0
 10
158.93437080
 20
-48.95042616
  0
VERTEX
  8
0
 10
159.03206370
 20
-48.70942035
  0
VERTEX
  8
0
 10
159.15093450
 20
-48.47561108
  0
VERTEX
  8
0
 10
159.28920396
 20
-48.24839827
  0
VERTEX
  8
0
 10
159.44509280
 20
-48.02718184
  0
VERTEX
  8
0
 10
159.61682177
 20
-47.81136171
  0
VERTEX
  8
0
 10
160.00068304
 20
-47.39351006
  0
VERTEX
  8
0
 10
160.42655369
 20
-46.99004272
  0
VERTEX
  8
0
 10
160.88019964
 20
-46.59615905
  0
VERTEX
  8
0
 10
161.34738679
 20
-46.20705846
  0
VERTEX
  8
0
 10
161.81388106
 20
-45.81794032
  0
VERTEX
  8
0
 10
162.26544837
 20
-45.42400403
  0
VERTEX
  8
0
 10
162.68785463
 20
-45.02044896
  0
VERTEX
  8
0
 10
163.06686575
 20
-44.60247450
  0
VERTEX
  8
0
 10
163.23564999
 20
-44.38657981
  0
VERTEX
  8
0
 10
163.38824765
 20
-44.16528004
  0
VERTEX
  8
0
 10
163.52287949
 20
-43.93797512
  0
VERTEX
  8
0
 10
163.63776625
 20
-43.70406497
  0
VERTEX
  8
0
 10
163.73112865
 20
-43.46294950
  0
VERTEX
  8
0
 10
163.80118745
 20
-43.21402866
  0
VERTEX
  8
0
 10
163.84616337
 20
-42.95670235
  0
VERTEX
  8
0
 10
163.86427717
 20
-42.69037051
  0
VERTEX
  8
0
 10
163.85348600
 20
-42.42288490
  0
VERTEX
  8
0
 10
163.81419695
 20
-42.16218734
  0
VERTEX
  8
0
 10
163.74830560
 20
-41.90781285
  0
VERTEX
  8
0
 10
163.65770754
 20
-41.65929645
  0
VERTEX
  8
0
 10
163.54429838
 20
-41.41617315
  0
VERTEX
  8
0
 10
163.40997371
 20
-41.17797795
  0
VERTEX
  8
0
 10
163.25662911
 20
-40.94424588
  0
VERTEX
  8
0
 10
163.08616019
 20
-40.71451195
  0
VERTEX
  8
0
 10
162.70143174
 20
-40.26517855
  0
VERTEX
  8
0
 10
162.27095311
 20
-39.82625786
  0
VERTEX
  8
0
 10
161.80988905
 20
-39.39402999
  0
VERTEX
  8
0
 10
161.33340432
 20
-38.96477504
  0
VERTEX
  8
0
 10
160.85666365
 20
-38.53477313
  0
VERTEX
  8
0
 10
160.39483182
 20
-38.10030435
  0
VERTEX
  8
0
 10
159.96307356
 20
-37.65764882
  0
VERTEX
  8
0
 10
159.57655362
 20
-37.20308663
  0
VERTEX
  8
0
 10
159.40499701
 20
-36.97017808
  0
VERTEX
  8
0
 10
159.25043676
 20
-36.73289791
  0
VERTEX
  8
0
 10
159.11476847
 20
-36.49078113
  0
VERTEX
  8
0
 10
158.99988774
 20
-36.24336275
  0
VERTEX
  8
0
 10
158.90769014
 20
-35.99017779
  0
VERTEX
  8
0
 10
158.84007129
 20
-35.73076127
  0
VERTEX
  8
0
 10
158.79892677
 20
-35.46464818
  0
VERTEX
  8
0
 10
158.78615217
 20
-35.19137356
  0
VERTEX
  8
0
 10
158.80229985
 20
-34.91894200
  0
VERTEX
  8
0
 10
158.84547003
 20
-34.65527869
  0
VERTEX
  8
0
 10
158.91388008
 20
-34.39979954
  0
VERTEX
  8
0
 10
159.00574741
 20
-34.15192045
  0
VERTEX
  8
0
 10
159.11928938
 20
-33.91105730
  0
VERTEX
  8
0
 10
159.25272340
 20
-33.67662600
  0
VERTEX
  8
0
 10
159.40426686
 20
-33.44804245
  0
VERTEX
  8
0
 10
159.57213713
 20
-33.22472255
  0
VERTEX
  8
0
 10
159.94972767
 20
-32.79153727
  0
VERTEX
  8
0
 10
160.37123415
 20
-32.37239734
  0
VERTEX
  8
0
 10
160.82239565
 20
-31.96262996
  0
VERTEX
  8
0
 10
161.28895128
 20
-31.55756229
  0
VERTEX
  8
0
 10
161.75664014
 20
-31.15252154
  0
VERTEX
  8
0
 10
162.21120133
 20
-30.74283488
  0
VERTEX
  8
0
 10
162.63837396
 20
-30.32382950
  0
VERTEX
  8
0
 10
163.02389713
 20
-29.89083258
  0
VERTEX
  8
0
 10
163.19658363
 20
-29.66762704
  0
VERTEX
  8
0
 10
163.35350993
 20
-29.43917131
  0
VERTEX
  8
0
 10
163.49289341
 20
-29.20488129
  0
VERTEX
  8
0
 10
163.61295147
 20
-28.96417287
  0
VERTEX
  8
0
 10
163.71190148
 20
-28.71646195
  0
VERTEX
  8
0
 10
163.78796085
 20
-28.46116444
  0
VERTEX
  8
0
 10
163.83934695
 20
-28.19769622
  0
VERTEX
  8
0
 10
163.86427717
 20
-27.92547320
  0
VERTEX
  8
0
 10
163.86002254
 20
-27.64995837
  0
VERTEX
  8
0
 10
163.82634009
 20
-27.37686231
  0
VERTEX
  8
0
 10
163.76517625
 20
-27.10597236
  0
VERTEX
  8
0
 10
163.67847742
 20
-26.83707586
  0
VERTEX
  8
0
 10
163.56819002
 20
-26.56996013
  0
VERTEX
  8
0
 10
163.43626047
 20
-26.30441251
  0
VERTEX
  8
0
 10
163.28463519
 20
-26.04022031
  0
VERTEX
  8
0
 10
163.11526057
 20
-25.77717089
  0
VERTEX
  8
0
 10
162.73104904
 20
-25.25364965
  0
VERTEX
  8
0
 10
162.29919720
 20
-24.73214744
  0
VERTEX
  8
0
 10
161.83527636
 20
-24.21096290
  0
VERTEX
  8
0
 10
161.35485786
 20
-23.68839467
  0
VERTEX
  8
0
 10
160.87351300
 20
-23.16274141
  0
VERTEX
  8
0
 10
160.40681312
 20
-22.63230174
  0
VERTEX
  8
0
 10
159.97032953
 20
-22.09537433
  0
VERTEX
  8
0
 10
159.57963355
 20
-21.55025781
  0
VERTEX
  8
0
 10
159.40632195
 20
-21.27409696
  0
VERTEX
  8
0
 10
159.25029650
 20
-20.99525083
  0
VERTEX
  8
0
 10
159.11350361
 20
-20.71350674
  0
VERTEX
  8
0
 10
158.99788971
 20
-20.42865203
  0
VERTEX
  8
0
 10
158.90540120
 20
-20.14047403
  0
VERTEX
  8
0
 10
158.83798449
 20
-19.84876006
  0
VERTEX
  8
0
 10
158.79758601
 20
-19.55329746
  0
VERTEX
  8
0
 10
158.78615217
 20
-19.25387356
  0
VERTEX
  8
0
 10
158.80424784
 20
-18.95635231
  0
VERTEX
  8
0
 10
158.84990740
 20
-18.66641117
  0
VERTEX
  8
0
 10
158.92128152
 20
-18.38355770
  0
VERTEX
  8
0
 10
159.01652090
 20
-18.10729949
  0
VERTEX
  8
0
 10
159.13377621
 20
-17.83714411
  0
VERTEX
  8
0
 10
159.27119813
 20
-17.57259914
  0
VERTEX
  8
0
 10
159.42693735
 20
-17.31317214
  0
VERTEX
  8
0
 10
159.59914453
 20
-17.05837069
  0
VERTEX
  8
0
 10
159.98556553
 20
-16.56067477
  0
VERTEX
  8
0
 10
160.41566659
 20
-16.07557196
  0
VERTEX
  8
0
 10
160.87465313
 20
-15.59912286
  0
VERTEX
  8
0
 10
161.34773061
 20
-15.12738808
  0
VERTEX
  8
0
 10
161.82010447
 20
-14.65642822
  0
VERTEX
  8
0
 10
162.27698015
 20
-14.18230386
  0
VERTEX
  8
0
 10
162.70356308
 20
-13.70107562
  0
VERTEX
  8
0
 10
163.08505872
 20
-13.20880410
  0
VERTEX
  8
0
 10
163.25427551
 20
-12.95729604
  0
VERTEX
  8
0
 10
163.40667251
 20
-12.70154989
  0
VERTEX
  8
0
 10
163.54040041
 20
-12.44107321
  0
VERTEX
  8
0
 10
163.65360989
 20
-12.17537359
  0
VERTEX
  8
0
 10
163.74445162
 20
-11.90395860
  0
VERTEX
  8
0
 10
163.81107629
 20
-11.62633580
  0
VERTEX
  8
0
 10
163.85163458
 20
-11.34201279
  0
VERTEX
  8
0
 10
163.86427717
 20
-11.05049713
  0
VERTEX
  8
0
 10
163.84789706
 20
-10.75946777
  0
VERTEX
  8
0
 10
163.80385235
 20
-10.47657050
  0
VERTEX
  8
0
 10
163.73399137
 20
-10.20126318
  0
VERTEX
  8
0
 10
163.64016243
 20
-9.93300364
  0
VERTEX
  8
0
 10
163.52421385
 20
-9.67124974
  0
VERTEX
  8
0
 10
163.38799397
 20
-9.41545933
  0
VERTEX
  8
0
 10
163.23335110
 20
-9.16509024
  0
VERTEX
  8
0
 10
163.06213357
 20
-8.91960033
  0
VERTEX
  8
0
 10
162.67736780
 20
-8.44108943
  0
VERTEX
  8
0
 10
162.24848325
 20
-7.97558942
  0
VERTEX
  8
0
 10
161.79026649
 20
-7.51876305
  0
VERTEX
  8
0
 10
161.31750411
 20
-7.06627312
  0
VERTEX
  8
0
 10
160.84498268
 20
-6.61378240
  0
VERTEX
  8
0
 10
160.38748879
 20
-6.15695366
  0
VERTEX
  8
0
 10
159.95980901
 20
-5.69144970
  0
VERTEX
  8
0
 10
159.57672993
 20
-5.21293327
  0
VERTEX
  8
0
 10
159.40653645
 20
-4.96744001
  0
VERTEX
  8
0
 10
159.25303812
 20
-4.71706717
  0
VERTEX
  8
0
 10
159.11808326
 20
-4.46127260
  0
VERTEX
  8
0
 10
159.00352017
 20
-4.19951416
  0
VERTEX
  8
0
 10
158.91119720
 20
-3.93124969
  0
VERTEX
  8
0
 10
158.84296266
 20
-3.65593703
  0
VERTEX
  8
0
 10
158.80066488
 20
-3.37303404
  0
VERTEX
  8
0
 10
158.78615217
 20
-3.08199856
  0
VERTEX
  8
0
 10
158.80049612
 20
-2.79095957
  0
VERTEX
  8
0
 10
158.84232463
 20
-2.50804644
  0
VERTEX
  8
0
 10
158.90982053
 20
-2.23271762
  0
VERTEX
  8
0
 10
159.00116663
 20
-1.96443152
  0
VERTEX
  8
0
 10
159.11454574
 20
-1.70264660
  0
VERTEX
  8
0
 10
159.24814069
 20
-1.44682127
  0
VERTEX
  8
0
 10
159.40013429
 20
-1.19641399
  0
VERTEX
  8
0
 10
159.56870936
 20
-0.95088318
  0
VERTEX
  8
0
 10
159.94833519
 20
-0.47228471
  0
VERTEX
  8
0
 10
160.37248070
 20
-0.00669336
  0
VERTEX
  8
0
 10
160.82660843
 20
0.45022341
  0
VERTEX
  8
0
 10
161.29618094
 20
0.90279810
  0
VERTEX
  8
0
 10
161.76666074
 20
1.35536326
  0
VERTEX
  8
0
 10
162.22351039
 20
1.81225138
  0
VERTEX
  8
0
 10
162.65219242
 20
2.27779500
  0
VERTEX
  8
0
 10
163.03816937
 20
2.75632664
  0
VERTEX
  8
0
 10
163.21060049
 20
3.00181688
  0
VERTEX
  8
0
 10
163.36690379
 20
3.25217882
  0
VERTEX
  8
0
 10
163.50526208
 20
3.50795403
  0
VERTEX
  8
0
 10
163.62385820
 20
3.76968406
  0
VERTEX
  8
0
 10
163.72087495
 20
4.03791049
  0
VERTEX
  8
0
 10
163.79449515
 20
4.31317488
  0
VERTEX
  8
0
 10
163.84290161
 20
4.59601879
  0
VERTEX
  8
0
 10
163.86427717
 20
4.88698380
  0
VERTEX
  8
0
 10
163.85651811
 20
5.17987715
  0
VERTEX
  8
0
 10
163.82000026
 20
5.46837535
  0
VERTEX
  8
0
 10
163.75662574
 20
5.75282386
  0
VERTEX
  8
0
 10
163.66829669
 20
6.03356811
  0
VERTEX
  8
0
 10
163.55691521
 20
6.31095357
  0
VERTEX
  8
0
 10
163.42438343
 20
6.58532567
  0
VERTEX
  8
0
 10
163.27260347
 20
6.85702986
  0
VERTEX
  8
0
 10
163.10347745
 20
7.12641160
  0
VERTEX
  8
0
 10
162.72079574
 20
7.65958949
  0
VERTEX
  8
0
 10
162.29155525
 20
8.18762294
  0
VERTEX
  8
0
 10
161.83097297
 20
8.71327552
  0
VERTEX
  8
0
 10
161.35426587
 20
9.23931082
  0
VERTEX
  8
0
 10
160.87665092
 20
9.76849242
  0
VERTEX
  8
0
 10
160.41334509
 20
10.30358392
  0
VERTEX
  8
0
 10
159.97956535
 20
10.84734890
  0
VERTEX
  8
0
 10
159.59052869
 20
11.40255094
  0
VERTEX
  8
0
 10
159.41754431
 20
11.68530448
  0
VERTEX
  8
0
 10
159.26145206
 20
11.97195363
  0
VERTEX
  8
0
 10
159.12415407
 20
12.26284383
  0
VERTEX
  8
0
 10
159.00755245
 20
12.55832055
  0
VERTEX
  8
0
 10
158.91354933
 20
12.85872922
  0
VERTEX
  8
0
 10
158.84404683
 20
13.16441529
  0
VERTEX
  8
0
 10
158.80094707
 20
13.47572422
  0
VERTEX
  8
0
 10
158.78615217
 20
13.79300144
  0
VERTEX
  8
0
 10
158.80093174
 20
14.11028267
  0
VERTEX
  8
0
 10
158.84401910
 20
14.42160323
  0
VERTEX
  8
0
 10
158.91351193
 20
14.72730801
  0
VERTEX
  8
0
 10
159.00750792
 20
15.02774187
  0
VERTEX
  8
0
 10
159.12410475
 20
15.32324970
  0
VERTEX
  8
0
 10
159.26140010
 20
15.61417638
  0
VERTEX
  8
0
 10
159.41749167
 20
15.90086678
  0
VERTEX
  8
0
 10
159.59047713
 20
16.18366579
  0
VERTEX
  8
0
 10
159.97952049
 20
16.73896914
  0
VERTEX
  8
0
 10
160.41331164
 20
17.28284545
  0
VERTEX
  8
0
 10
160.87663207
 20
17.81805376
  0
VERTEX
  8
0
 10
161.35426325
 20
18.34735309
  0
VERTEX
  8
0
 10
161.83098667
 20
18.87350248
  0
VERTEX
  8
0
 10
162.29158380
 20
19.39926095
  0
VERTEX
  8
0
 10
162.72083611
 20
19.92738754
  0
VERTEX
  8
0
 10
163.10352508
 20
20.46064127
  0
VERTEX
  8
0
 10
163.27265253
 20
20.73005301
  0
VERTEX
  8
0
 10
163.42443220
 20
21.00178117
  0
VERTEX
  8
0
 10
163.55696177
 20
21.27617064
  0
VERTEX
  8
0
 10
163.66833893
 20
21.55356629
  0
VERTEX
  8
0
 10
163.75666137
 20
21.83431299
  0
VERTEX
  8
0
 10
163.82002677
 20
22.11875564
  0
VERTEX
  8
0
 10
163.85653280
 20
22.40723910
  0
VERTEX
  8
0
 10
163.86427717
 20
22.70010825
  0
VERTEX
  8
0
 10
163.84288695
 20
22.99104329
  0
VERTEX
  8
0
 10
163.79446877
 20
23.27385564
  0
VERTEX
  8
0
 10
163.72083960
 20
23.54908698
  0
VERTEX
  8
0
 10
163.62381644
 20
23.81727902
  0
VERTEX
  8
0
 10
163.50521626
 20
24.07897346
  0
VERTEX
  8
0
 10
163.36685604
 20
24.33471199
  0
VERTEX
  8
0
 10
163.21055277
 20
24.58503632
  0
VERTEX
  8
0
 10
163.03812343
 20
24.83048816
  0
VERTEX
  8
0
 10
162.65215446
 20
25.30894111
  0
VERTEX
  8
0
 10
162.22348501
 20
25.77440446
  0
VERTEX
  8
0
 10
161.76665091
 20
26.23121180
  0
VERTEX
  8
0
 10
161.29618804
 20
26.68369673
  0
VERTEX
  8
0
 10
160.82663226
 20
27.13619286
  0
VERTEX
  8
0
 10
160.37251941
 20
27.59303377
  0
VERTEX
  8
0
 10
159.94838536
 20
28.05855307
  0
VERTEX
  8
0
 10
159.56876597
 20
28.53708437
  0
VERTEX
  8
0
 10
159.40019173
 20
28.78258376
  0
VERTEX
  8
0
 10
159.24819710
 20
29.03296125
  0
VERTEX
  8
0
 10
159.11459906
 20
29.28875854
  0
VERTEX
  8
0
 10
159.00121460
 20
29.55051733
  0
VERTEX
  8
0
 10
158.90986070
 20
29.81877931
  0
VERTEX
  8
0
 10
158.84235434
 20
30.09408619
  0
VERTEX
  8
0
 10
158.80051250
 20
30.37697967
  0
VERTEX
  8
0
 10
158.78615217
 20
30.66800144
  0
VERTEX
  8
0
 10
158.80055893
 20
30.95902515
  0
VERTEX
  8
0
 10
158.84258626
 20
31.24192441
  0
VERTEX
  8
0
 10
158.91040296
 20
31.51724085
  0
VERTEX
  8
0
 10
159.00217786
 20
31.78551610
  0
VERTEX
  8
0
 10
159.11607975
 20
32.04729181
  0
VERTEX
  8
0
 10
159.25027746
 20
32.30310961
  0
VERTEX
  8
0
 10
159.40293980
 20
32.55351114
  0
VERTEX
  8
0
 10
159.57223557
 20
32.79903803
  0
VERTEX
  8
0
 10
159.95340269
 20
33.27763449
  0
VERTEX
  8
0
 10
160.37912930
 20
33.74323207
  0
VERTEX
  8
0
 10
160.83476591
 20
34.20016387
  0
VERTEX
  8
0
 10
161.30566301
 20
34.65276301
  0
VERTEX
  8
0
 10
161.77717110
 20
35.10536258
  0
VERTEX
  8
0
 10
162.23464068
 20
35.56229568
  0
VERTEX
  8
0
 10
162.66342224
 20
36.02789542
  0
VERTEX
  8
0
 10
163.04886628
 20
36.50649490
  0
VERTEX
  8
0
 10
163.22075876
 20
36.75202364
  0
VERTEX
  8
0
 10
163.37632329
 20
37.00242722
  0
VERTEX
  8
0
 10
163.51372870
 20
37.25824730
  0
VERTEX
  8
0
 10
163.63114378
 20
37.52002549
  0
VERTEX
  8
0
 10
163.72673736
 20
37.78830345
  0
VERTEX
  8
0
 10
163.79867824
 20
38.06362280
  0
VERTEX
  8
0
 10
163.84513524
 20
38.34652519
  0
VERTEX
  8
0
 10
163.86427717
 20
38.63755226
  0
VERTEX
  8
0
 10
163.85278522
 20
38.93175974
  0
VERTEX
  8
0
 10
163.80995452
 20
39.22397000
  0
VERTEX
  8
0
 10
163.73787476
 20
39.51437460
  0
VERTEX
  8
0
 10
163.63863563
 20
39.80316512
  0
VERTEX
  8
0
 10
163.51432683
 20
40.09053312
  0
VERTEX
  8
0
 10
163.36703806
 20
40.37667018
  0
VERTEX
  8
0
 10
163.19885902
 20
40.66176785
  0
VERTEX
  8
0
 10
163.01187939
 20
40.94601772
  0
VERTEX
  8
0
 10
162.58987716
 20
41.51274030
  0
VERTEX
  8
0
 10
162.11774896
 20
42.07837048
  0
VERTEX
  8
0
 10
161.61221233
 20
42.64444080
  0
VERTEX
  8
0
 10
161.08998486
 20
43.21248382
  0
VERTEX
  8
0
 10
160.56778410
 20
43.78403209
  0
VERTEX
  8
0
 10
160.06232761
 20
44.36061816
  0
VERTEX
  8
0
 10
159.59033297
 20
44.94377459
  0
VERTEX
  8
0
 10
159.16851774
 20
45.53503393
  0
VERTEX
  8
0
 10
158.98165164
 20
45.83418111
  0
VERTEX
  8
0
 10
158.81359947
 20
46.13592873
  0
VERTEX
  8
0
 10
158.66645095
 20
46.44046835
  0
VERTEX
  8
0
 10
158.54229575
 20
46.74799155
  0
VERTEX
  8
0
 10
158.44322358
 20
47.05868989
  0
VERTEX
  8
0
 10
158.37132413
 20
47.37275493
  0
VERTEX
  8
0
 10
158.32868709
 20
47.69037826
  0
VERTEX
  8
0
 10
158.31740217
 20
48.01175144
  0
VERTEX
  8
0
 10
158.33284132
 20
48.33196587
  0
VERTEX
  8
0
 10
158.36832614
 20
48.64618192
  0
VERTEX
  8
0
 10
158.42287076
 20
48.95469458
  0
VERTEX
  8
0
 10
158.49548935
 20
49.25779885
  0
VERTEX
  8
0
 10
158.58519605
 20
49.55578975
  0
VERTEX
  8
0
 10
158.69100500
 20
49.84896228
  0
VERTEX
  8
0
 10
158.94698627
 20
50.42203221
  0
VERTEX
  8
0
 10
159.25554633
 20
50.97936866
  0
VERTEX
  8
0
 10
159.60879837
 20
51.52333167
  0
VERTEX
  8
0
 10
159.99885556
 20
52.05628124
  0
VERTEX
  8
0
 10
160.41783109
 20
52.58057740
  0
VERTEX
  8
0
 10
160.85783814
 20
53.09858017
  0
VERTEX
  8
0
 10
161.31098989
 20
53.61264958
  0
VERTEX
  8
0
 10
162.22518020
 20
54.63842836
  0
VERTEX
  8
0
 10
162.67044513
 20
55.15485779
  0
VERTEX
  8
0
 10
163.09730748
 20
55.67679393
  0
VERTEX
  8
0
 10
163.49788043
 20
56.20659681
  0
VERTEX
  8
0
 10
163.94552717
 20
56.76127488
  0
VERTEX
  8
0
 10
127.69239921
 20
56.76127488
  0
VERTEX
  8
0
 10
127.69240217
 20
50.77006394
  0
VERTEX
  8
0
 10
100.73927717
 20
50.77006394
  0
VERTEX
  8
0
 10
100.73908212
 20
56.76127488
  0
VERTEX
  8
0
 10
46.77443342
 20
56.76127488
  0
VERTEX
  8
0
 10
46.77443342
 20
50.77006394
  0
VERTEX
  8
0
 10
19.74806623
 20
50.76273972
  0
VERTEX
  8
0
 10
19.74806623
 20
56.76127488
  0
VERTEX
  8
0
 10
-13.28416033
 20
56.76127488
  0
SEQEND
  0
POLYLINE
  8
�����_�������
 66
   1
 39
0.000000
 70
    1
  0
VERTEX
  8
0
 10
-245.66042411
 20
428.45804716
  0
VERTEX
  8
0
 10
-206.05104911
 20
428.45804716
  0
VERTEX
  8
0
 10
-206.05104911
 20
460.56742216
  0
VERTEX
  8
0
 10
-206.26992369
 20
461.50550789
  0
VERTEX
  8
0
 10
-206.47846466
 20
462.46351537
  0
VERTEX
  8
0
 10
-206.70767286
 20
463.38167936
  0
VERTEX
  8
0
 10
-206.83971492
 20
463.80714342
  0
VERTEX
  8
0
 10
-206.98854911
 20
464.20023466
  0
VERTEX
  8
0
 10
-207.15963574
 20
464.57236337
  0
VERTEX
  8
0
 10
-207.35249052
 20
464.93926525
  0
VERTEX
  8
0
 10
-207.78333726
 20
465.65345814
  0
VERTEX
  8
0
 10
-208.24075480
 20
466.33495270
  0
VERTEX
  8
0
 10
-208.68440860
 20
466.97588824
  0
VERTEX
  8
0
 10
-209.11476656
 20
467.59028493
  0
VERTEX
  8
0
 10
-209.56034985
 20
468.19462662
  0
VERTEX
  8
0
 10
-210.02290389
 20
468.78474822
  0
VERTEX
  8
0
 10
-210.50417411
 20
469.35648466
  0
VERTEX
  8
0
 10
-210.99911892
 20
469.91661723
  0
VERTEX
  8
0
 10
-211.50859808
 20
470.46479727
  0
VERTEX
  8
0
 10
-212.04320901
 20
470.98616476
  0
VERTEX
  8
0
 10
-212.32325057
 20
471.23215003
  0
VERTEX
  8
0
 10
-212.61354911
 20
471.46585966
  0
VERTEX
  8
0
 10
-212.93218435
 20
471.69631347
  0
VERTEX
  8
0
 10
-213.28941416
 20
471.93125280
  0
VERTEX
  8
0
 10
-214.07802500
 20
472.39948713
  0
VERTEX
  8
0
 10
-214.89611665
 20
472.84036085
  0
VERTEX
  8
0
 10
-215.66042411
 20
473.22367216
  0
VERTEX
  8
0
 10
-216.37438892
 20
473.56268723
  0
VERTEX
  8
0
 10
-217.09881051
 20
473.88090575
  0
VERTEX
  8
0
 10
-217.83646078
 20
474.16347623
  0
VERTEX
  8
0
 10
-218.21111288
 20
474.28675236
  0
VERTEX
  8
0
 10
-218.59011161
 20
474.39554716
  0
VERTEX
  8
0
 10
-218.98729276
 20
474.48815916
  0
VERTEX
  8
0
 10
-219.41028746
 20
474.56585628
  0
VERTEX
  8
0
 10
-220.29787527
 20
474.68689665
  0
VERTEX
  8
0
 10
-221.98854911
 20
474.86429716
  0
VERTEX
  8
0
 10
-223.48040795
 20
475.03969867
  0
VERTEX
  8
0
 10
-224.22778744
 20
475.11105070
  0
VERTEX
  8
0
 10
-224.97683036
 20
475.15726591
  0
VERTEX
  8
0
 10
-225.78748617
 20
475.17722654
  0
VERTEX
  8
0
 10
-226.66685069
 20
475.17552405
  0
VERTEX
  8
0
 10
-227.53616598
 20
475.15004405
  0
VERTEX
  8
0
 10
-228.31667411
 20
475.09867216
  0
VERTEX
  8
0
 10
-229.02772095
 20
475.01609470
  0
VERTEX
  8
0
 10
-229.73732210
 20
474.90442574
  0
VERTEX
  8
0
 10
-230.43972426
 20
474.77269248
  0
VERTEX
  8
0
 10
-231.12917411
 20
474.62992216
  0
VERTEX
  8
0
 10
-231.82778413
 20
474.47013597
  0
VERTEX
  8
0
 10
-232.53568761
 20
474.29051169
  0
VERTEX
  8
0
 10
-233.82448661
 20
473.92679716
  0
VERTEX
  8
0
 10
-234.95119980
 20
473.58187705
  0
VERTEX
  8
0
 10
-235.50700661
 20
473.38812259
  0
VERTEX
  8
0
 10
-236.05104911
 20
473.16507841
  0
VERTEX
  8
0
 10
-236.59721052
 20
472.90273522
  0
VERTEX
  8
0
 10
-237.15166605
 20
472.60441989
  0
VERTEX
  8
0
 10
-237.69780529
 20
472.27881663
  0
VERTEX
  8
0
 10
-238.21901786
 20
471.93460966
  0
VERTEX
  8
0
 10
-238.72028947
 20
471.56416241
  0
VERTEX
  8
0
 10
-239.20877973
 20
471.16552847
  0
VERTEX
  8
0
 10
-239.67113906
 20
470.75592732
  0
VERTEX
  8
0
 10
-240.09401786
 20
470.35257841
  0
VERTEX
  8
0
 10
-240.48145559
 20
469.94728692
  0
VERTEX
  8
0
 10
-240.85056678
 20
469.52468250
  0
VERTEX
  8
0
 10
-241.55886161
 20
468.65335966
  0
VERTEX
  8
0
 10
-242.25860373
 20
467.76628148
  0
VERTEX
  8
0
 10
-242.59368684
 20
467.30874866
  0
VERTEX
  8
0
 10
-242.90651786
 20
466.83695341
  0
VERTEX
  8
0
 10
-243.20843288
 20
466.30977501
  0
VERTEX
  8
0
 10
-243.50579142
 20
465.73064005
  0
VERTEX
  8
0
 10
-244.01979911
 20
464.66898466
  0
VERTEX
  8
0
 10
-244.44136270
 20
463.79530504
  0
VERTEX
  8
0
 10
-244.84011161
 20
462.91117216
  0
VERTEX
  8
0
 10
-245.24299182
 20
461.89717901
  0
VERTEX
  8
0
 10
-245.66042411
 20
460.80179716
  0
VERTEX
  8
0
 10
-245.66042411
 20
428.45804716
  0
SEQEND
  0
POLYLINE
  8
�����_�������
 66
   1
 39
0.000000
 70
    1
  0
VERTEX
  8
0
 10
-251.36042411
 20
422.75804716
  0
VERTEX
  8
0
 10
-200.35104911
 20
422.75804716
  0
VERTEX
  8
0
 10
-200.35104911
 20
461.26955679
  0
VERTEX
  8
0
 10
-200.57012379
 20
462.14529902
 42
-0.00593925
  0
VERTEX
  8
0
 10
-200.70062629
 20
462.71920635
 42
0.00429343
  0
VERTEX
  8
0
 10
-200.98414063
 20
464.00499202
 42
0.01724893
  0
VERTEX
  8
0
 10
-201.32221439
 20
465.26963895
 42
0.03405043
  0
VERTEX
  8
0
 10
-201.90094543
 20
466.78767486
  0
VERTEX
  8
0
 10
-202.04864486
 20
467.09693587
  0
VERTEX
  8
0
 10
-202.20776879
 20
467.40862178
 42
0.02208254
  0
VERTEX
  8
0
 10
-202.99178677
 20
468.74088767
 42
0.00810268
  0
VERTEX
  8
0
 10
-203.54488354
 20
469.56593085
  0
VERTEX
  8
0
 10
-204.22909307
 20
470.55428170
 42
0.01339970
  0
VERTEX
  8
0
 10
-205.29586252
 20
471.99876106
 42
0.01360553
  0
VERTEX
  8
0
 10
-206.20833922
 20
473.10296706
 42
0.00770718
  0
VERTEX
  8
0
 10
-207.07324625
 20
474.07048742
 42
0.02072544
  0
VERTEX
  8
0
 10
-208.20001081
 20
475.19598362
 42
0.02151260
  0
VERTEX
  8
0
 10
-209.15039144
 20
475.99381445
  0
VERTEX
  8
0
 10
-209.42518251
 20
476.19820761
 42
0.01916135
  0
VERTEX
  8
0
 10
-210.50546089
 20
476.91217260
 42
0.01905843
  0
VERTEX
  8
0
 10
-212.50853201
 20
478.02194161
 42
0.01122661
  0
VERTEX
  8
0
 10
-214.21161246
 20
478.84110764
 42
0.02209779
  0
VERTEX
  8
0
 10
-215.96103421
 20
479.54632500
 42
0.01912157
  0
VERTEX
  8
0
 10
-217.12424516
 20
479.90408909
 42
0.00753671
  0
VERTEX
  8
0
 10
-217.51000973
 20
479.99977505
  0
VERTEX
  8
0
 10
-217.83471132
 20
480.07081836
 42
0.01713383
  0
VERTEX
  8
0
 10
-219.08577030
 20
480.27985530
  0
VERTEX
  8
0
 10
-219.37035651
 20
480.31664154
 42
0.00529006
  0
VERTEX
  8
0
 10
-220.15081209
 20
480.40447137
  0
VERTEX
  8
0
 10
-221.01197346
 20
480.49126628
 42
-0.00350581
  0
VERTEX
  8
0
 10
-221.32756583
 20
480.52587538
 42
0.00295781
  0
VERTEX
  8
0
 10
-222.87385737
 20
480.70740131
 42
0.01152373
  0
VERTEX
  8
0
 10
-224.24851419
 20
480.82706614
 42
0.00964044
  0
VERTEX
  8
0
 10
-225.23773817
 20
480.86839832
 42
0.01502247
  0
VERTEX
  8
0
 10
-227.53494929
 20
480.85490439
 42
0.01697411
  0
VERTEX
  8
0
 10
-229.08593503
 20
480.75056628
 42
0.01315917
  0
VERTEX
  8
0
 10
-230.28238772
 20
480.59205505
 42
0.01198040
  0
VERTEX
  8
0
 10
-231.94235672
 20
480.28371802
 42
0.01450781
  0
VERTEX
  8
0
 10
-233.99165161
 20
479.80148869
 42
0.00812505
  0
VERTEX
  8
0
 10
-235.46128770
 20
479.38673143
 42
0.00305348
  0
VERTEX
  8
0
 10
-236.37062872
 20
479.11193519
 42
0.01137285
  0
VERTEX
  8
0
 10
-237.30315913
 20
478.80077346
 42
0.02937947
  0
VERTEX
  8
0
 10
-238.98791171
 20
478.08054949
 42
0.04012849
  0
VERTEX
  8
0
 10
-241.67063058
 20
476.47489077
 42
0.02546210
  0
VERTEX
  8
0
 10
-243.23470638
 20
475.21809013
 42
0.01359319
  0
VERTEX
  8
0
 10
-244.09983652
 20
474.40790226
 42
0.01335332
  0
VERTEX
  8
0
 10
-244.70873225
 20
473.77119906
 42
0.01442498
  0
VERTEX
  8
0
 10
-245.64002811
 20
472.67510119
 42
0.00319565
  0
VERTEX
  8
0
 10
-246.58304363
 20
471.49286932
 42
0.01296444
  0
VERTEX
  8
0
 10
-247.26079600
 20
470.58123916
 42
0.03112130
  0
VERTEX
  8
0
 10
-248.23044770
 20
469.00613986
 42
0.01049838
  0
VERTEX
  8
0
 10
-248.77430260
 20
467.93259404
 42
-0.00177737
  0
VERTEX
  8
0
 10
-249.36592481
 20
466.71004806
 42
0.00664205
  0
VERTEX
  8
0
 10
-249.83928035
 20
465.70187574
 42
0.01515243
  0
VERTEX
  8
0
 10
-250.45515273
 20
464.22477680
  0
VERTEX
  8
0
 10
-250.57263327
 20
463.91829802
 42
-0.00164066
  0
VERTEX
  8
0
 10
-251.36042411
 20
461.85595837
  0
VERTEX
  8
0
 10
-251.36042411
 20
422.75804716
  0
SEQEND
  0
POLYLINE
  8
�����_�������
 66
   1
 39
0.000000
 70
    1
  0
VERTEX
  8
0
 10
-183.78542411
 20
428.45804716
  0
VERTEX
  8
0
 10
-144.17604911
 20
428.45804716
  0
VERTEX
  8
0
 10
-144.17604911
 20
460.56742216
  0
VERTEX
  8
0
 10
-144.39492369
 20
461.50550789
  0
VERTEX
  8
0
 10
-144.60346466
 20
462.46351537
  0
VERTEX
  8
0
 10
-144.83267286
 20
463.38167936
  0
VERTEX
  8
0
 10
-144.96471492
 20
463.80714342
  0
VERTEX
  8
0
 10
-145.11354911
 20
464.20023466
  0
VERTEX
  8
0
 10
-145.28463574
 20
464.57236337
  0
VERTEX
  8
0
 10
-145.47749052
 20
464.93926525
  0
VERTEX
  8
0
 10
-145.90833726
 20
465.65345814
  0
VERTEX
  8
0
 10
-146.36575480
 20
466.33495270
  0
VERTEX
  8
0
 10
-146.80940860
 20
466.97588824
  0
VERTEX
  8
0
 10
-147.23976656
 20
467.59028493
  0
VERTEX
  8
0
 10
-147.68534985
 20
468.19462662
  0
VERTEX
  8
0
 10
-148.14790389
 20
468.78474822
  0
VERTEX
  8
0
 10
-148.62917411
 20
469.35648466
  0
VERTEX
  8
0
 10
-149.12411892
 20
469.91661723
  0
VERTEX
  8
0
 10
-149.63359808
 20
470.46479727
  0
VERTEX
  8
0
 10
-150.16820901
 20
470.98616476
  0
VERTEX
  8
0
 10
-150.44825057
 20
471.23215003
  0
VERTEX
  8
0
 10
-150.73854911
 20
471.46585966
  0
VERTEX
  8
0
 10
-151.05718435
 20
471.69631347
  0
VERTEX
  8
0
 10
-151.41441416
 20
471.93125280
  0
VERTEX
  8
0
 10
-152.20302500
 20
472.39948713
  0
VERTEX
  8
0
 10
-153.02111665
 20
472.84036085
  0
VERTEX
  8
0
 10
-153.78542411
 20
473.22367216
  0
VERTEX
  8
0
 10
-154.49938892
 20
473.56268723
  0
VERTEX
  8
0
 10
-155.22381051
 20
473.88090575
  0
VERTEX
  8
0
 10
-155.96146078
 20
474.16347623
  0
VERTEX
  8
0
 10
-156.33611288
 20
474.28675236
  0
VERTEX
  8
0
 10
-156.71511161
 20
474.39554716
  0
VERTEX
  8
0
 10
-157.11229276
 20
474.48815916
  0
VERTEX
  8
0
 10
-157.53528746
 20
474.56585628
  0
VERTEX
  8
0
 10
-158.42287527
 20
474.68689665
  0
VERTEX
  8
0
 10
-160.11354911
 20
474.86429716
  0
VERTEX
  8
0
 10
-161.60540795
 20
475.03969867
  0
VERTEX
  8
0
 10
-162.35278744
 20
475.11105070
  0
VERTEX
  8
0
 10
-163.10183036
 20
475.15726591
  0
VERTEX
  8
0
 10
-163.91248617
 20
475.17722654
  0
VERTEX
  8
0
 10
-164.79185069
 20
475.17552405
  0
VERTEX
  8
0
 10
-165.66116598
 20
475.15004405
  0
VERTEX
  8
0
 10
-166.44167411
 20
475.09867216
  0
VERTEX
  8
0
 10
-167.15272095
 20
475.01609470
  0
VERTEX
  8
0
 10
-167.86232210
 20
474.90442574
  0
VERTEX
  8
0
 10
-168.56472426
 20
474.77269248
  0
VERTEX
  8
0
 10
-169.25417411
 20
474.62992216
  0
VERTEX
  8
0
 10
-169.95278413
 20
474.47013597
  0
VERTEX
  8
0
 10
-170.66068761
 20
474.29051169
  0
VERTEX
  8
0
 10
-171.94948661
 20
473.92679716
  0
VERTEX
  8
0
 10
-173.07619980
 20
473.58187705
  0
VERTEX
  8
0
 10
-173.63200661
 20
473.38812259
  0
VERTEX
  8
0
 10
-174.17604911
 20
473.16507841
  0
VERTEX
  8
0
 10
-174.72221052
 20
472.90273522
  0
VERTEX
  8
0
 10
-175.27666605
 20
472.60441989
  0
VERTEX
  8
0
 10
-175.82280529
 20
472.27881663
  0
VERTEX
  8
0
 10
-176.34401786
 20
471.93460966
  0
VERTEX
  8
0
 10
-176.84528947
 20
471.56416241
  0
VERTEX
  8
0
 10
-177.33377973
 20
471.16552847
  0
VERTEX
  8
0
 10
-177.79613906
 20
470.75592732
  0
VERTEX
  8
0
 10
-178.21901786
 20
470.35257841
  0
VERTEX
  8
0
 10
-178.60645559
 20
469.94728692
  0
VERTEX
  8
0
 10
-178.97556678
 20
469.52468250
  0
VERTEX
  8
0
 10
-179.68386161
 20
468.65335966
  0
VERTEX
  8
0
 10
-180.38360373
 20
467.76628148
  0
VERTEX
  8
0
 10
-180.71868684
 20
467.30874866
  0
VERTEX
  8
0
 10
-181.03151786
 20
466.83695341
  0
VERTEX
  8
0
 10
-181.33343288
 20
466.30977501
  0
VERTEX
  8
0
 10
-181.63079142
 20
465.73064005
  0
VERTEX
  8
0
 10
-182.14479911
 20
464.66898466
  0
VERTEX
  8
0
 10
-182.56636270
 20
463.79530504
  0
VERTEX
  8
0
 10
-182.96511161
 20
462.91117216
  0
VERTEX
  8
0
 10
-183.36799182
 20
461.89717901
  0
VERTEX
  8
0
 10
-183.78542411
 20
460.80179716
  0
VERTEX
  8
0
 10
-183.78542411
 20
428.45804716
  0
SEQEND
  0
POLYLINE
  8
�����_�������
 66
   1
 39
0.000000
 70
    1
  0
VERTEX
  8
0
 10
-189.48542411
 20
422.75804716
  0
VERTEX
  8
0
 10
-138.47604911
 20
422.75804716
  0
VERTEX
  8
0
 10
-138.47604911
 20
461.26955679
  0
VERTEX
  8
0
 10
-138.69512379
 20
462.14529902
 42
-0.00593925
  0
VERTEX
  8
0
 10
-138.82562629
 20
462.71920635
 42
0.00429343
  0
VERTEX
  8
0
 10
-139.10914063
 20
464.00499202
 42
0.01724893
  0
VERTEX
  8
0
 10
-139.44721439
 20
465.26963895
 42
0.03405043
  0
VERTEX
  8
0
 10
-140.02594543
 20
466.78767486
  0
VERTEX
  8
0
 10
-140.17364486
 20
467.09693587
  0
VERTEX
  8
0
 10
-140.33276879
 20
467.40862178
 42
0.02208254
  0
VERTEX
  8
0
 10
-141.11678677
 20
468.74088767
 42
0.00810268
  0
VERTEX
  8
0
 10
-141.66988354
 20
469.56593085
  0
VERTEX
  8
0
 10
-142.35409307
 20
470.55428170
 42
0.01339970
  0
VERTEX
  8
0
 10
-143.42086252
 20
471.99876106
 42
0.01360553
  0
VERTEX
  8
0
 10
-144.33333922
 20
473.10296706
 42
0.00770718
  0
VERTEX
  8
0
 10
-145.19824625
 20
474.07048742
 42
0.02072544
  0
VERTEX
  8
0
 10
-146.32501081
 20
475.19598362
 42
0.02151260
  0
VERTEX
  8
0
 10
-147.27539144
 20
475.99381445
  0
VERTEX
  8
0
 10
-147.55018251
 20
476.19820761
 42
0.01916135
  0
VERTEX
  8
0
 10
-148.63046089
 20
476.91217260
 42
0.01905843
  0
VERTEX
  8
0
 10
-150.63353201
 20
478.02194161
 42
0.01122661
  0
VERTEX
  8
0
 10
-152.33661246
 20
478.84110764
 42
0.02209779
  0
VERTEX
  8
0
 10
-154.08603421
 20
479.54632500
 42
0.01912157
  0
VERTEX
  8
0
 10
-155.24924516
 20
479.90408909
 42
0.00753671
  0
VERTEX
  8
0
 10
-155.63500973
 20
479.99977505
  0
VERTEX
  8
0
 10
-155.95971132
 20
480.07081836
 42
0.01713383
  0
VERTEX
  8
0
 10
-157.21077030
 20
480.27985530
  0
VERTEX
  8
0
 10
-157.49535651
 20
480.31664154
 42
0.00529006
  0
VERTEX
  8
0
 10
-158.27581209
 20
480.40447137
  0
VERTEX
  8
0
 10
-159.13697346
 20
480.49126628
 42
-0.00350581
  0
VERTEX
  8
0
 10
-159.45256583
 20
480.52587538
 42
0.00295781
  0
VERTEX
  8
0
 10
-160.99885737
 20
480.70740131
 42
0.01152373
  0
VERTEX
  8
0
 10
-162.37351419
 20
480.82706614
 42
0.00964044
  0
VERTEX
  8
0
 10
-163.36273817
 20
480.86839832
 42
0.01502247
  0
VERTEX
  8
0
 10
-165.65994929
 20
480.85490439
 42
0.01697411
  0
VERTEX
  8
0
 10
-167.21093503
 20
480.75056628
 42
0.01315917
  0
VERTEX
  8
0
 10
-168.40738772
 20
480.59205505
 42
0.01198040
  0
VERTEX
  8
0
 10
-170.06735672
 20
480.28371802
 42
0.01450781
  0
VERTEX
  8
0
 10
-172.11665161
 20
479.80148869
 42
0.00812505
  0
VERTEX
  8
0
 10
-173.58628770
 20
479.38673143
 42
0.00305348
  0
VERTEX
  8
0
 10
-174.49562872
 20
479.11193519
 42
0.01137285
  0
VERTEX
  8
0
 10
-175.42815913
 20
478.80077346
 42
0.02937947
  0
VERTEX
  8
0
 10
-177.11291171
 20
478.08054949
 42
0.04012849
  0
VERTEX
  8
0
 10
-179.79563058
 20
476.47489077
 42
0.02546210
  0
VERTEX
  8
0
 10
-181.35970638
 20
475.21809013
 42
0.01359319
  0
VERTEX
  8
0
 10
-182.22483652
 20
474.40790226
 42
0.01335332
  0
VERTEX
  8
0
 10
-182.83373225
 20
473.77119906
 42
0.01442498
  0
VERTEX
  8
0
 10
-183.76502811
 20
472.67510119
 42
0.00319565
  0
VERTEX
  8
0
 10
-184.70804363
 20
471.49286932
 42
0.01296444
  0
VERTEX
  8
0
 10
-185.38579600
 20
470.58123916
 42
0.03112130
  0
VERTEX
  8
0
 10
-186.35544770
 20
469.00613986
 42
0.01049838
  0
VERTEX
  8
0
 10
-186.89930260
 20
467.93259404
 42
-0.00177737
  0
VERTEX
  8
0
 10
-187.49092481
 20
466.71004806
 42
0.00664205
  0
VERTEX
  8
0
 10
-187.96428035
 20
465.70187574
 42
0.01515243
  0
VERTEX
  8
0
 10
-188.58015273
 20
464.22477680
  0
VERTEX
  8
0
 10
-188.69763327
 20
463.91829802
 42
-0.00164066
  0
VERTEX
  8
0
 10
-189.48542411
 20
461.85595837
  0
VERTEX
  8
0
 10
-189.48542411
 20
422.75804716
  0
SEQEND
  0
POLYLINE
  8
�����_�������
 66
   1
 39
0.000000
 70
    1
  0
VERTEX
  8
0
 10
-414.41042411
 20
427.40335966
  0
VERTEX
  8
0
 10
-374.80104911
 20
427.40335966
  0
VERTEX
  8
0
 10
-374.80104911
 20
459.51273466
  0
VERTEX
  8
0
 10
-375.01992369
 20
460.45082039
  0
VERTEX
  8
0
 10
-375.22846466
 20
461.40882787
  0
VERTEX
  8
0
 10
-375.45767286
 20
462.32699186
  0
VERTEX
  8
0
 10
-375.58971492
 20
462.75245592
  0
VERTEX
  8
0
 10
-375.73854911
 20
463.14554716
  0
VERTEX
  8
0
 10
-375.90963574
 20
463.51767587
  0
VERTEX
  8
0
 10
-376.10249052
 20
463.88457775
  0
VERTEX
  8
0
 10
-376.53333726
 20
464.59877064
  0
VERTEX
  8
0
 10
-376.99075480
 20
465.28026520
  0
VERTEX
  8
0
 10
-377.43440860
 20
465.92120074
  0
VERTEX
  8
0
 10
-377.86476656
 20
466.53559743
  0
VERTEX
  8
0
 10
-378.31034985
 20
467.13993912
  0
VERTEX
  8
0
 10
-378.77290389
 20
467.73006072
  0
VERTEX
  8
0
 10
-379.25417411
 20
468.30179716
  0
VERTEX
  8
0
 10
-379.74911892
 20
468.86192973
  0
VERTEX
  8
0
 10
-380.25859808
 20
469.41010977
  0
VERTEX
  8
0
 10
-380.79320901
 20
469.93147726
  0
VERTEX
  8
0
 10
-381.07325057
 20
470.17746253
  0
VERTEX
  8
0
 10
-381.36354911
 20
470.41117216
  0
VERTEX
  8
0
 10
-381.68218435
 20
470.64162597
  0
VERTEX
  8
0
 10
-382.03941416
 20
470.87656530
  0
VERTEX
  8
0
 10
-382.82802500
 20
471.34479963
  0
VERTEX
  8
0
 10
-383.64611665
 20
471.78567335
  0
VERTEX
  8
0
 10
-384.41042411
 20
472.16898466
  0
VERTEX
  8
0
 10
-385.12438892
 20
472.50799973
  0
VERTEX
  8
0
 10
-385.84881051
 20
472.82621825
  0
VERTEX
  8
0
 10
-386.58646078
 20
473.10878873
  0
VERTEX
  8
0
 10
-386.96111288
 20
473.23206486
  0
VERTEX
  8
0
 10
-387.34011161
 20
473.34085966
  0
VERTEX
  8
0
 10
-387.73729276
 20
473.43347166
  0
VERTEX
  8
0
 10
-388.16028746
 20
473.51116878
  0
VERTEX
  8
0
 10
-389.04787527
 20
473.63220915
  0
VERTEX
  8
0
 10
-390.73854911
 20
473.80960966
  0
VERTEX
  8
0
 10
-392.23040795
 20
473.98501117
  0
VERTEX
  8
0
 10
-392.97778744
 20
474.05636320
  0
VERTEX
  8
0
 10
-393.72683036
 20
474.10257841
  0
VERTEX
  8
0
 10
-394.53748617
 20
474.12253904
  0
VERTEX
  8
0
 10
-395.41685069
 20
474.12083655
  0
VERTEX
  8
0
 10
-396.28616598
 20
474.09535655
  0
VERTEX
  8
0
 10
-397.06667411
 20
474.04398466
  0
VERTEX
  8
0
 10
-397.77772095
 20
473.96140720
  0
VERTEX
  8
0
 10
-398.48732210
 20
473.84973824
  0
VERTEX
  8
0
 10
-399.18972426
 20
473.71800498
  0
VERTEX
  8
0
 10
-399.87917411
 20
473.57523466
  0
VERTEX
  8
0
 10
-400.57778413
 20
473.41544847
  0
VERTEX
  8
0
 10
-401.28568761
 20
473.23582419
  0
VERTEX
  8
0
 10
-402.57448661
 20
472.87210966
  0
VERTEX
  8
0
 10
-403.70119980
 20
472.52718955
  0
VERTEX
  8
0
 10
-404.25700661
 20
472.33343509
  0
VERTEX
  8
0
 10
-404.80104911
 20
472.11039091
  0
VERTEX
  8
0
 10
-405.34721052
 20
471.84804772
  0
VERTEX
  8
0
 10
-405.90166605
 20
471.54973239
  0
VERTEX
  8
0
 10
-406.44780529
 20
471.22412913
  0
VERTEX
  8
0
 10
-406.96901786
 20
470.87992216
  0
VERTEX
  8
0
 10
-407.47028947
 20
470.50947491
  0
VERTEX
  8
0
 10
-407.95877973
 20
470.11084097
  0
VERTEX
  8
0
 10
-408.42113906
 20
469.70123982
  0
VERTEX
  8
0
 10
-408.84401786
 20
469.29789091
  0
VERTEX
  8
0
 10
-409.23145559
 20
468.89259942
  0
VERTEX
  8
0
 10
-409.60056678
 20
468.46999500
  0
VERTEX
  8
0
 10
-410.30886161
 20
467.59867216
  0
VERTEX
  8
0
 10
-411.00860373
 20
466.71159398
  0
VERTEX
  8
0
 10
-411.34368684
 20
466.25406116
  0
VERTEX
  8
0
 10
-411.65651786
 20
465.78226591
  0
VERTEX
  8
0
 10
-411.95843288
 20
465.25508751
  0
VERTEX
  8
0
 10
-412.25579142
 20
464.67595255
  0
VERTEX
  8
0
 10
-412.76979911
 20
463.61429716
  0
VERTEX
  8
0
 10
-413.19136270
 20
462.74061754
  0
VERTEX
  8
0
 10
-413.59011161
 20
461.85648466
  0
VERTEX
  8
0
 10
-413.99299182
 20
460.84249151
  0
VERTEX
  8
0
 10
-414.41042411
 20
459.74710966
  0
VERTEX
  8
0
 10
-414.41042411
 20
427.40335966
  0
SEQEND
  0
POLYLINE
  8
�����_�������
 66
   1
 39
0.000000
 70
    1
  0
VERTEX
  8
0
 10
-420.11042411
 20
421.70335966
  0
VERTEX
  8
0
 10
-369.10104911
 20
421.70335966
  0
VERTEX
  8
0
 10
-369.10104911
 20
460.21486929
  0
VERTEX
  8
0
 10
-369.32012379
 20
461.09061152
 42
-0.00593925
  0
VERTEX
  8
0
 10
-369.45062629
 20
461.66451885
 42
0.00429343
  0
VERTEX
  8
0
 10
-369.73414063
 20
462.95030452
 42
0.01724893
  0
VERTEX
  8
0
 10
-370.07221439
 20
464.21495145
 42
0.03405043
  0
VERTEX
  8
0
 10
-370.65094543
 20
465.73298736
  0
VERTEX
  8
0
 10
-370.79864486
 20
466.04224837
  0
VERTEX
  8
0
 10
-370.95776879
 20
466.35393428
 42
0.02208254
  0
VERTEX
  8
0
 10
-371.74178677
 20
467.68620017
 42
0.00810268
  0
VERTEX
  8
0
 10
-372.29488354
 20
468.51124335
  0
VERTEX
  8
0
 10
-372.97909307
 20
469.49959420
 42
0.01339970
  0
VERTEX
  8
0
 10
-374.04586252
 20
470.94407356
 42
0.01360553
  0
VERTEX
  8
0
 10
-374.95833922
 20
472.04827956
 42
0.00770718
  0
VERTEX
  8
0
 10
-375.82324625
 20
473.01579992
 42
0.02072544
  0
VERTEX
  8
0
 10
-376.95001081
 20
474.14129612
 42
0.02151260
  0
VERTEX
  8
0
 10
-377.90039144
 20
474.93912695
  0
VERTEX
  8
0
 10
-378.17518251
 20
475.14352011
 42
0.01916135
  0
VERTEX
  8
0
 10
-379.25546089
 20
475.85748510
 42
0.01905843
  0
VERTEX
  8
0
 10
-381.25853201
 20
476.96725411
 42
0.01122661
  0
VERTEX
  8
0
 10
-382.96161246
 20
477.78642014
 42
0.02209779
  0
VERTEX
  8
0
 10
-384.71103421
 20
478.49163750
 42
0.01912157
  0
VERTEX
  8
0
 10
-385.87424516
 20
478.84940159
 42
0.00753671
  0
VERTEX
  8
0
 10
-386.26000973
 20
478.94508755
  0
VERTEX
  8
0
 10
-386.58471132
 20
479.01613086
 42
0.01713383
  0
VERTEX
  8
0
 10
-387.83577030
 20
479.22516780
  0
VERTEX
  8
0
 10
-388.12035651
 20
479.26195404
 42
0.00529006
  0
VERTEX
  8
0
 10
-388.90081209
 20
479.34978387
  0
VERTEX
  8
0
 10
-389.76197346
 20
479.43657878
 42
-0.00350581
  0
VERTEX
  8
0
 10
-390.07756583
 20
479.47118788
 42
0.00295781
  0
VERTEX
  8
0
 10
-391.62385737
 20
479.65271381
 42
0.01152373
  0
VERTEX
  8
0
 10
-392.99851419
 20
479.77237864
 42
0.00964044
  0
VERTEX
  8
0
 10
-393.98773817
 20
479.81371082
 42
0.01502247
  0
VERTEX
  8
0
 10
-396.28494929
 20
479.80021689
 42
0.01697411
  0
VERTEX
  8
0
 10
-397.83593503
 20
479.69587878
 42
0.01315917
  0
VERTEX
  8
0
 10
-399.03238772
 20
479.53736755
 42
0.01198040
  0
VERTEX
  8
0
 10
-400.69235672
 20
479.22903052
 42
0.01450781
  0
VERTEX
  8
0
 10
-402.74165161
 20
478.74680119
 42
0.00812505
  0
VERTEX
  8
0
 10
-404.21128770
 20
478.33204393
 42
0.00305348
  0
VERTEX
  8
0
 10
-405.12062872
 20
478.05724769
 42
0.01137285
  0
VERTEX
  8
0
 10
-406.05315913
 20
477.74608596
 42
0.02937947
  0
VERTEX
  8
0
 10
-407.73791171
 20
477.02586199
 42
0.04012849
  0
VERTEX
  8
0
 10
-410.42063058
 20
475.42020327
 42
0.02546210
  0
VERTEX
  8
0
 10
-411.98470638
 20
474.16340263
 42
0.01359319
  0
VERTEX
  8
0
 10
-412.84983652
 20
473.35321476
 42
0.01335332
  0
VERTEX
  8
0
 10
-413.45873225
 20
472.71651156
 42
0.01442498
  0
VERTEX
  8
0
 10
-414.39002811
 20
471.62041369
 42
0.00319565
  0
VERTEX
  8
0
 10
-415.33304363
 20
470.43818182
 42
0.01296444
  0
VERTEX
  8
0
 10
-416.01079600
 20
469.52655166
 42
0.03112130
  0
VERTEX
  8
0
 10
-416.98044770
 20
467.95145236
 42
0.01049838
  0
VERTEX
  8
0
 10
-417.52430260
 20
466.87790654
 42
-0.00177737
  0
VERTEX
  8
0
 10
-418.11592481
 20
465.65536056
 42
0.00664205
  0
VERTEX
  8
0
 10
-418.58928035
 20
464.64718824
 42
0.01515243
  0
VERTEX
  8
0
 10
-419.20515273
 20
463.17008930
  0
VERTEX
  8
0
 10
-419.32263327
 20
462.86361052
 42
-0.00164066
  0
VERTEX
  8
0
 10
-420.11042411
 20
460.80127087
  0
VERTEX
  8
0
 10
-420.11042411
 20
421.70335966
  0
SEQEND
  0
POLYLINE
  8
�����_�������
 66
   1
 39
0.000000
 70
    1
  0
VERTEX
  8
0
 10
5.58957589
 20
426.58304716
  0
VERTEX
  8
0
 10
45.19895089
 20
426.58304716
  0
VERTEX
  8
0
 10
45.19895089
 20
458.69242216
  0
VERTEX
  8
0
 10
44.98007631
 20
459.63050789
  0
VERTEX
  8
0
 10
44.77153534
 20
460.58851537
  0
VERTEX
  8
0
 10
44.54232714
 20
461.50667936
  0
VERTEX
  8
0
 10
44.41028508
 20
461.93214342
  0
VERTEX
  8
0
 10
44.26145089
 20
462.32523466
  0
VERTEX
  8
0
 10
44.09036426
 20
462.69736337
  0
VERTEX
  8
0
 10
43.89750948
 20
463.06426525
  0
VERTEX
  8
0
 10
43.46666274
 20
463.77845814
  0
VERTEX
  8
0
 10
43.00924520
 20
464.45995270
  0
VERTEX
  8
0
 10
42.56559140
 20
465.10088824
  0
VERTEX
  8
0
 10
42.13523344
 20
465.71528493
  0
VERTEX
  8
0
 10
41.68965015
 20
466.31962662
  0
VERTEX
  8
0
 10
41.22709611
 20
466.90974822
  0
VERTEX
  8
0
 10
40.74582589
 20
467.48148466
  0
VERTEX
  8
0
 10
40.25088108
 20
468.04161723
  0
VERTEX
  8
0
 10
39.74140192
 20
468.58979727
  0
VERTEX
  8
0
 10
39.20679099
 20
469.11116476
  0
VERTEX
  8
0
 10
38.92674943
 20
469.35715003
  0
VERTEX
  8
0
 10
38.63645089
 20
469.59085966
  0
VERTEX
  8
0
 10
38.31781565
 20
469.82131347
  0
VERTEX
  8
0
 10
37.96058584
 20
470.05625280
  0
VERTEX
  8
0
 10
37.17197500
 20
470.52448713
  0
VERTEX
  8
0
 10
36.35388335
 20
470.96536085
  0
VERTEX
  8
0
 10
35.58957589
 20
471.34867216
  0
VERTEX
  8
0
 10
34.87561108
 20
471.68768723
  0
VERTEX
  8
0
 10
34.15118949
 20
472.00590575
  0
VERTEX
  8
0
 10
33.41353922
 20
472.28847623
  0
VERTEX
  8
0
 10
33.03888712
 20
472.41175236
  0
VERTEX
  8
0
 10
32.65988839
 20
472.52054716
  0
VERTEX
  8
0
 10
32.26270724
 20
472.61315916
  0
VERTEX
  8
0
 10
31.83971254
 20
472.69085628
  0
VERTEX
  8
0
 10
30.95212473
 20
472.81189665
  0
VERTEX
  8
0
 10
29.26145089
 20
472.98929716
  0
VERTEX
  8
0
 10
27.76959205
 20
473.16469867
  0
VERTEX
  8
0
 10
27.02221256
 20
473.23605070
  0
VERTEX
  8
0
 10
26.27316964
 20
473.28226591
  0
VERTEX
  8
0
 10
25.46251383
 20
473.30222654
  0
VERTEX
  8
0
 10
24.58314931
 20
473.30052405
  0
VERTEX
  8
0
 10
23.71383402
 20
473.27504405
  0
VERTEX
  8
0
 10
22.93332589
 20
473.22367216
  0
VERTEX
  8
0
 10
22.22227905
 20
473.14109470
  0
VERTEX
  8
0
 10
21.51267790
 20
473.02942574
  0
VERTEX
  8
0
 10
20.81027574
 20
472.89769248
  0
VERTEX
  8
0
 10
20.12082589
 20
472.75492216
  0
VERTEX
  8
0
 10
19.42221587
 20
472.59513597
  0
VERTEX
  8
0
 10
18.71431239
 20
472.41551169
  0
VERTEX
  8
0
 10
17.42551339
 20
472.05179716
  0
VERTEX
  8
0
 10
16.29880020
 20
471.70687705
  0
VERTEX
  8
0
 10
15.74299339
 20
471.51312259
  0
VERTEX
  8
0
 10
15.19895089
 20
471.29007841
  0
VERTEX
  8
0
 10
14.65278948
 20
471.02773522
  0
VERTEX
  8
0
 10
14.09833395
 20
470.72941989
  0
VERTEX
  8
0
 10
13.55219471
 20
470.40381663
  0
VERTEX
  8
0
 10
13.03098214
 20
470.05960966
  0
VERTEX
  8
0
 10
12.52971053
 20
469.68916241
  0
VERTEX
  8
0
 10
12.04122027
 20
469.29052847
  0
VERTEX
  8
0
 10
11.57886094
 20
468.88092732
  0
VERTEX
  8
0
 10
11.15598214
 20
468.47757841
  0
VERTEX
  8
0
 10
10.76854441
 20
468.07228692
  0
VERTEX
  8
0
 10
10.39943322
 20
467.64968250
  0
VERTEX
  8
0
 10
9.69113839
 20
466.77835966
  0
VERTEX
  8
0
 10
8.99139627
 20
465.89128148
  0
VERTEX
  8
0
 10
8.65631316
 20
465.43374866
  0
VERTEX
  8
0
 10
8.34348214
 20
464.96195341
  0
VERTEX
  8
0
 10
8.04156712
 20
464.43477501
  0
VERTEX
  8
0
 10
7.74420858
 20
463.85564005
  0
VERTEX
  8
0
 10
7.23020089
 20
462.79398466
  0
VERTEX
  8
0
 10
6.80863730
 20
461.92030504
  0
VERTEX
  8
0
 10
6.40988839
 20
461.03617216
  0
VERTEX
  8
0
 10
6.00700818
 20
460.02217901
  0
VERTEX
  8
0
 10
5.58957589
 20
458.92679716
  0
VERTEX
  8
0
 10
5.58957589
 20
426.58304716
  0
SEQEND
  0
POLYLINE
  8
�����_�������
 66
   1
 39
0.000000
 70
    1
  0
VERTEX
  8
0
 10
-0.11042411
 20
420.88304716
  0
VERTEX
  8
0
 10
50.89895089
 20
420.88304716
  0
VERTEX
  8
0
 10
50.89895089
 20
459.39455679
  0
VERTEX
  8
0
 10
50.67987621
 20
460.27029902
 42
-0.00593925
  0
VERTEX
  8
0
 10
50.54937371
 20
460.84420635
 42
0.00429343
  0
VERTEX
  8
0
 10
50.26585937
 20
462.12999202
 42
0.01724893
  0
VERTEX
  8
0
 10
49.92778561
 20
463.39463895
 42
0.03405043
  0
VERTEX
  8
0
 10
49.34905457
 20
464.91267486
  0
VERTEX
  8
0
 10
49.20135514
 20
465.22193587
  0
VERTEX
  8
0
 10
49.04223121
 20
465.53362178
 42
0.02208254
  0
VERTEX
  8
0
 10
48.25821323
 20
466.86588767
 42
0.00810268
  0
VERTEX
  8
0
 10
47.70511646
 20
467.69093085
  0
VERTEX
  8
0
 10
47.02090693
 20
468.67928170
 42
0.01339970
  0
VERTEX
  8
0
 10
45.95413748
 20
470.12376106
 42
0.01360553
  0
VERTEX
  8
0
 10
45.04166078
 20
471.22796706
 42
0.00770718
  0
VERTEX
  8
0
 10
44.17675375
 20
472.19548742
 42
0.02072544
  0
VERTEX
  8
0
 10
43.04998919
 20
473.32098362
 42
0.02151260
  0
VERTEX
  8
0
 10
42.09960856
 20
474.11881445
  0
VERTEX
  8
0
 10
41.82481749
 20
474.32320761
 42
0.01916135
  0
VERTEX
  8
0
 10
40.74453911
 20
475.03717260
 42
0.01905843
  0
VERTEX
  8
0
 10
38.74146799
 20
476.14694161
 42
0.01122661
  0
VERTEX
  8
0
 10
37.03838754
 20
476.96610764
 42
0.02209779
  0
VERTEX
  8
0
 10
35.28896579
 20
477.67132500
 42
0.01912157
  0
VERTEX
  8
0
 10
34.12575484
 20
478.02908909
 42
0.00753671
  0
VERTEX
  8
0
 10
33.73999027
 20
478.12477505
  0
VERTEX
  8
0
 10
33.41528868
 20
478.19581836
 42
0.01713383
  0
VERTEX
  8
0
 10
32.16422970
 20
478.40485530
  0
VERTEX
  8
0
 10
31.87964349
 20
478.44164154
 42
0.00529006
  0
VERTEX
  8
0
 10
31.09918791
 20
478.52947137
  0
VERTEX
  8
0
 10
30.23802654
 20
478.61626628
 42
-0.00350581
  0
VERTEX
  8
0
 10
29.92243417
 20
478.65087538
 42
0.00295781
  0
VERTEX
  8
0
 10
28.37614263
 20
478.83240131
 42
0.01152373
  0
VERTEX
  8
0
 10
27.00148581
 20
478.95206614
 42
0.00964044
  0
VERTEX
  8
0
 10
26.01226183
 20
478.99339832
 42
0.01502247
  0
VERTEX
  8
0
 10
23.71505071
 20
478.97990439
 42
0.01697411
  0
VERTEX
  8
0
 10
22.16406497
 20
478.87556628
 42
0.01315917
  0
VERTEX
  8
0
 10
20.96761228
 20
478.71705505
 42
0.01198040
  0
VERTEX
  8
0
 10
19.30764328
 20
478.40871802
 42
0.01450781
  0
VERTEX
  8
0
 10
17.25834839
 20
477.92648869
 42
0.00812505
  0
VERTEX
  8
0
 10
15.78871230
 20
477.51173143
 42
0.00305348
  0
VERTEX
  8
0
 10
14.87937128
 20
477.23693519
 42
0.01137285
  0
VERTEX
  8
0
 10
13.94684087
 20
476.92577346
 42
0.02937947
  0
VERTEX
  8
0
 10
12.26208829
 20
476.20554949
 42
0.04012849
  0
VERTEX
  8
0
 10
9.57936942
 20
474.59989077
 42
0.02546210
  0
VERTEX
  8
0
 10
8.01529362
 20
473.34309013
 42
0.01359319
  0
VERTEX
  8
0
 10
7.15016348
 20
472.53290226
 42
0.01335332
  0
VERTEX
  8
0
 10
6.54126775
 20
471.89619906
 42
0.01442498
  0
VERTEX
  8
0
 10
5.60997189
 20
470.80010119
 42
0.00319565
  0
VERTEX
  8
0
 10
4.66695637
 20
469.61786932
 42
0.01296444
  0
VERTEX
  8
0
 10
3.98920400
 20
468.70623916
 42
0.03112130
  0
VERTEX
  8
0
 10
3.01955230
 20
467.13113986
 42
0.01049838
  0
VERTEX
  8
0
 10
2.47569740
 20
466.05759404
 42
-0.00177737
  0
VERTEX
  8
0
 10
1.88407519
 20
464.83504806
 42
0.00664205
  0
VERTEX
  8
0
 10
1.41071965
 20
463.82687574
 42
0.01515243
  0
VERTEX
  8
0
 10
0.79484727
 20
462.34977680
  0
VERTEX
  8
0
 10
0.67736673
 20
462.04329802
 42
-0.00164066
  0
VERTEX
  8
0
 10
-0.11042411
 20
459.98095837
  0
VERTEX
  8
0
 10
-0.11042411
 20
420.88304716
  0
SEQEND
  0
POLYLINE
  8
�����_�������
 66
   1
 39
0.000000
 70
    1
  0
VERTEX
  8
0
 10
-22.40498199
 20
264.57031250
  0
VERTEX
  8
0
 10
10.87626801
 20
264.57031250
  0
VERTEX
  8
0
 10
10.32637703
 20
266.10889037
  0
VERTEX
  8
0
 10
10.04984841
 20
266.85058634
  0
VERTEX
  8
0
 10
9.76804269
 20
267.50030574
  0
VERTEX
  8
0
 10
9.46571619
 20
268.07709702
  0
VERTEX
  8
0
 10
9.13461236
 20
268.63860139
  0
VERTEX
  8
0
 10
8.78204565
 20
269.18752213
  0
VERTEX
  8
0
 10
8.41533051
 20
269.72656250
  0
VERTEX
  8
0
 10
7.97424092
 20
270.33714754
  0
VERTEX
  8
0
 10
7.44686859
 20
271.02730754
  0
VERTEX
  8
0
 10
6.91300456
 20
271.68965361
  0
VERTEX
  8
0
 10
6.45243989
 20
272.21679688
  0
VERTEX
  8
0
 10
6.03164695
 20
272.64635863
  0
VERTEX
  8
0
 10
5.58360041
 20
273.06794385
  0
VERTEX
  8
0
 10
5.13784470
 20
273.45213917
  0
VERTEX
  8
0
 10
4.72392426
 20
273.76953125
  0
VERTEX
  8
0
 10
4.32667535
 20
274.03083137
  0
VERTEX
  8
0
 10
3.91358833
 20
274.26782915
  0
VERTEX
  8
0
 10
3.48818881
 20
274.48272876
  0
VERTEX
  8
0
 10
3.05400239
 20
274.67773438
  0
VERTEX
  8
0
 10
2.57508439
 20
274.85945416
  0
VERTEX
  8
0
 10
2.03606973
 20
275.03267948
  0
VERTEX
  8
0
 10
0.91533051
 20
275.35156250
  0
VERTEX
  8
0
 10
-0.44807127
 20
275.71644707
  0
VERTEX
  8
0
 10
-1.23989189
 20
275.90366234
  0
VERTEX
  8
0
 10
-2.01435699
 20
276.05468750
  0
VERTEX
  8
0
 10
-2.88046704
 20
276.18050933
  0
VERTEX
  8
0
 10
-3.89583005
 20
276.29642215
  0
VERTEX
  8
0
 10
-4.91528075
 20
276.37935828
  0
VERTEX
  8
0
 10
-5.38117483
 20
276.40125142
  0
VERTEX
  8
0
 10
-5.79365386
 20
276.40625000
  0
VERTEX
  8
0
 10
-6.18584275
 20
276.39202352
  0
VERTEX
  8
0
 10
-6.59565970
 20
276.36094932
  0
VERTEX
  8
0
 10
-7.42435503
 20
276.26497102
  0
VERTEX
  8
0
 10
-8.81123199
 20
276.05468750
  0
VERTEX
  8
0
 10
-9.83957760
 20
275.88038276
  0
VERTEX
  8
0
 10
-10.86201324
 20
275.67382813
  0
VERTEX
  8
0
 10
-11.92362847
 20
275.43798163
  0
VERTEX
  8
0
 10
-12.46668995
 20
275.30146320
  0
VERTEX
  8
0
 10
-13.00068511
 20
275.14648438
  0
VERTEX
  8
0
 10
-13.56049354
 20
274.95911492
  0
VERTEX
  8
0
 10
-14.15103861
 20
274.74178211
  0
VERTEX
  8
0
 10
-14.71445935
 20
274.51447453
  0
VERTEX
  8
0
 10
-15.19289481
 20
274.29718074
  0
VERTEX
  8
0
 10
-15.60481931
 20
274.08168821
  0
VERTEX
  8
0
 10
-16.00696156
 20
273.84756612
  0
VERTEX
  8
0
 10
-16.39884224
 20
273.59647569
  0
VERTEX
  8
0
 10
-16.77998199
 20
273.33007813
  0
VERTEX
  8
0
 10
-17.18390896
 20
273.02318963
  0
VERTEX
  8
0
 10
-17.62311263
 20
272.66313588
  0
VERTEX
  8
0
 10
-18.06555566
 20
272.27034231
  0
VERTEX
  8
0
 10
-18.47920074
 20
271.86523438
  0
VERTEX
  8
0
 10
-18.89651402
 20
271.40770287
  0
VERTEX
  8
0
 10
-19.34507073
 20
270.87138435
  0
VERTEX
  8
0
 10
-19.78549714
 20
270.29732287
  0
VERTEX
  8
0
 10
-20.17841949
 20
269.72656250
  0
VERTEX
  8
0
 10
-20.53246633
 20
269.11494915
  0
VERTEX
  8
0
 10
-20.86583983
 20
268.45482165
  0
VERTEX
  8
0
 10
-21.37051338
 20
267.37215774
  0
VERTEX
  8
0
 10
-21.72545248
 20
266.60848368
  0
VERTEX
  8
0
 10
-21.88866037
 20
266.23317584
  0
VERTEX
  8
0
 10
-22.02412261
 20
265.88867188
  0
VERTEX
  8
0
 10
-22.13160846
 20
265.56307611
  0
VERTEX
  8
0
 10
-22.22545986
 20
265.23304248
  0
VERTEX
  8
0
 10
-22.40498199
 20
264.57031250
  0
SEQEND
  0
POLYLINE
  8
�����_�������
 66
   1
 39
0.000000
 70
    1
  0
VERTEX
  8
0
 10
-22.92651981
 20
234.57055574
  0
VERTEX
  8
0
 10
-8.04439481
 20
234.57080574
  0
VERTEX
  8
0
 10
-8.04439481
 20
261.40680574
  0
VERTEX
  8
0
 10
-22.92651981
 20
261.40655574
  0
VERTEX
  8
0
 10
-22.92651981
 20
234.57055574
  0
SEQEND
  0
POLYLINE
  8
�����_�������
 66
   1
 39
0.000000
 70
    1
  0
VERTEX
  8
0
 10
-3.53205106
 20
234.57030574
  0
VERTEX
  8
0
 10
11.35007394
 20
234.57055574
  0
VERTEX
  8
0
 10
11.35007394
 20
261.40655574
  0
VERTEX
  8
0
 10
-3.53205106
 20
261.40630574
  0
VERTEX
  8
0
 10
-3.53205106
 20
234.57030574
  0
SEQEND
  0
POLYLINE
  8
�����_�������
 66
   1
 39
0.000000
 70
    1
  0
VERTEX
  8
0
 10
-114.47805106
 20
86.48437500
  0
VERTEX
  8
0
 10
102.52194894
 20
86.48437500
  0
VERTEX
  8
0
 10
102.52194894
 20
110.31738309
  0
VERTEX
  8
0
 10
96.51975167
 20
110.33203125
  0
VERTEX
  8
0
 10
96.52707589
 20
131.89453125
  0
VERTEX
  8
0
 10
102.52194894
 20
131.86523570
  0
VERTEX
  8
0
 10
102.52194894
 20
179.70703305
  0
VERTEX
  8
0
 10
96.51242745
 20
179.70703125
  0
VERTEX
  8
0
 10
96.48313058
 20
201.26953125
  0
VERTEX
  8
0
 10
102.52194894
 20
201.26953271
  0
VERTEX
  8
0
 10
102.52561105
 20
220.82519531
  0
VERTEX
  8
0
 10
89.53977120
 20
233.83300781
  0
VERTEX
  8
0
 10
93.75852120
 20
238.06640625
  0
VERTEX
  8
0
 10
74.80344308
 20
257.02148438
  0
VERTEX
  8
0
 10
70.58469308
 20
252.77343750
  0
VERTEX
  8
0
 10
32.24973214
 20
291.12304688
  0
VERTEX
  8
0
 10
36.50693429
 20
295.33630371
  0
VERTEX
  8
0
 10
17.51340402
 20
314.32617188
  0
VERTEX
  8
0
 10
13.26029419
 20
310.07306986
  0
VERTEX
  8
0
 10
-5.86184013
 20
329.22363281
  0
VERTEX
  8
0
 10
-25.05495536
 20
310.06347656
  0
VERTEX
  8
0
 10
-29.27370536
 20
314.29687500
  0
VERTEX
  8
0
 10
-48.23610770
 20
295.33447266
  0
VERTEX
  8
0
 10
-43.99538505
 20
291.12304688
  0
VERTEX
  8
0
 10
-82.31705570
 20
252.78943243
  0
VERTEX
  8
0
 10
-86.51979911
 20
257.02148438
  0
VERTEX
  8
0
 10
-105.44558036
 20
238.09570313
  0
VERTEX
  8
0
 10
-101.22683036
 20
233.84765625
  0
VERTEX
  8
0
 10
-114.49465263
 20
220.60180664
  0
VERTEX
  8
0
 10
-114.48598701
 20
201.26948948
  0
VERTEX
  8
0
 10
-108.46315848
 20
201.26220703
  0
VERTEX
  8
0
 10
-108.46315848
 20
179.71435547
  0
VERTEX
  8
0
 10
-114.47805106
 20
179.70703125
  0
VERTEX
  8
0
 10
-114.47805106
 20
131.89452696
  0
VERTEX
  8
0
 10
-108.46315848
 20
131.89453125
  0
VERTEX
  8
0
 10
-108.43386161
 20
110.33203125
  0
VERTEX
  8
0
 10
-114.47805106
 20
110.33197429
  0
VERTEX
  8
0
 10
-114.47805106
 20
86.48437500
  0
SEQEND
  0
POLYLINE
  8
�����_�������
 66
   1
 39
0.000000
 70
    1
  0
VERTEX
  8
0
 10
-287.14985503
 20
264.57031250
  0
VERTEX
  8
0
 10
-253.86860503
 20
264.57031250
  0
VERTEX
  8
0
 10
-254.41849602
 20
266.10889037
  0
VERTEX
  8
0
 10
-254.69502464
 20
266.85058634
  0
VERTEX
  8
0
 10
-254.97683036
 20
267.50030574
  0
VERTEX
  8
0
 10
-255.27915686
 20
268.07709702
  0
VERTEX
  8
0
 10
-255.61026069
 20
268.63860139
  0
VERTEX
  8
0
 10
-255.96282739
 20
269.18752213
  0
VERTEX
  8
0
 10
-256.32954253
 20
269.72656250
  0
VERTEX
  8
0
 10
-256.77063213
 20
270.33714754
  0
VERTEX
  8
0
 10
-257.29800446
 20
271.02730754
  0
VERTEX
  8
0
 10
-257.83186849
 20
271.68965361
  0
VERTEX
  8
0
 10
-258.29243316
 20
272.21679687
  0
VERTEX
  8
0
 10
-258.71322609
 20
272.64635863
  0
VERTEX
  8
0
 10
-259.16127264
 20
273.06794385
  0
VERTEX
  8
0
 10
-259.60702835
 20
273.45213917
  0
VERTEX
  8
0
 10
-260.02094878
 20
273.76953125
  0
VERTEX
  8
0
 10
-260.41819769
 20
274.03083137
  0
VERTEX
  8
0
 10
-260.83128472
 20
274.26782915
  0
VERTEX
  8
0
 10
-261.25668424
 20
274.48272876
  0
VERTEX
  8
0
 10
-261.69087066
 20
274.67773437
  0
VERTEX
  8
0
 10
-262.16978866
 20
274.85945416
  0
VERTEX
  8
0
 10
-262.70880332
 20
275.03267948
  0
VERTEX
  8
0
 10
-263.82954253
 20
275.35156250
  0
VERTEX
  8
0
 10
-265.19294431
 20
275.71644707
  0
VERTEX
  8
0
 10
-265.98476494
 20
275.90366234
  0
VERTEX
  8
0
 10
-266.75923003
 20
276.05468750
  0
VERTEX
  8
0
 10
-267.62534009
 20
276.18050933
  0
VERTEX
  8
0
 10
-268.64070310
 20
276.29642215
  0
VERTEX
  8
0
 10
-269.66015379
 20
276.37935828
  0
VERTEX
  8
0
 10
-270.12604788
 20
276.40125142
  0
VERTEX
  8
0
 10
-270.53852691
 20
276.40625000
  0
VERTEX
  8
0
 10
-270.93071579
 20
276.39202352
  0
VERTEX
  8
0
 10
-271.34053274
 20
276.36094932
  0
VERTEX
  8
0
 10
-272.16922808
 20
276.26497102
  0
VERTEX
  8
0
 10
-273.55610503
 20
276.05468750
  0
VERTEX
  8
0
 10
-274.58445065
 20
275.88038276
  0
VERTEX
  8
0
 10
-275.60688628
 20
275.67382812
  0
VERTEX
  8
0
 10
-276.66850152
 20
275.43798163
  0
VERTEX
  8
0
 10
-277.21156299
 20
275.30146320
  0
VERTEX
  8
0
 10
-277.74555816
 20
275.14648437
  0
VERTEX
  8
0
 10
-278.30536659
 20
274.95911492
  0
VERTEX
  8
0
 10
-278.89591165
 20
274.74178211
  0
VERTEX
  8
0
 10
-279.45933240
 20
274.51447453
  0
VERTEX
  8
0
 10
-279.93776786
 20
274.29718074
  0
VERTEX
  8
0
 10
-280.34969236
 20
274.08168821
  0
VERTEX
  8
0
 10
-280.75183461
 20
273.84756612
  0
VERTEX
  8
0
 10
-281.14371528
 20
273.59647569
  0
VERTEX
  8
0
 10
-281.52485503
 20
273.33007812
  0
VERTEX
  8
0
 10
-281.92878200
 20
273.02318963
  0
VERTEX
  8
0
 10
-282.36798567
 20
272.66313588
  0
VERTEX
  8
0
 10
-282.81042871
 20
272.27034231
  0
VERTEX
  8
0
 10
-283.22407378
 20
271.86523437
  0
VERTEX
  8
0
 10
-283.64138706
 20
271.40770287
  0
VERTEX
  8
0
 10
-284.08994378
 20
270.87138435
  0
VERTEX
  8
0
 10
-284.53037019
 20
270.29732287
  0
VERTEX
  8
0
 10
-284.92329253
 20
269.72656250
  0
VERTEX
  8
0
 10
-285.27733938
 20
269.11494915
  0
VERTEX
  8
0
 10
-285.61071288
 20
268.45482165
  0
VERTEX
  8
0
 10
-286.11538643
 20
267.37215774
  0
VERTEX
  8
0
 10
-286.47032553
 20
266.60848368
  0
VERTEX
  8
0
 10
-286.63353341
 20
266.23317584
  0
VERTEX
  8
0
 10
-286.76899566
 20
265.88867187
  0
VERTEX
  8
0
 10
-286.87648151
 20
265.56307611
  0
VERTEX
  8
0
 10
-286.97033291
 20
265.23304248
  0
VERTEX
  8
0
 10
-287.14985503
 20
264.57031250
  0
SEQEND
  0
POLYLINE
  8
�����_�������
 66
   1
 39
0.000000
 70
    1
  0
VERTEX
  8
0
 10
-287.67139286
 20
234.57055574
  0
VERTEX
  8
0
 10
-272.78926786
 20
234.57080574
  0
VERTEX
  8
0
 10
-272.78926786
 20
261.40680574
  0
VERTEX
  8
0
 10
-287.67139286
 20
261.40655574
  0
VERTEX
  8
0
 10
-287.67139286
 20
234.57055574
  0
SEQEND
  0
POLYLINE
  8
�����_�������
 66
   1
 39
0.000000
 70
    1
  0
VERTEX
  8
0
 10
-268.27692411
 20
234.57030574
  0
VERTEX
  8
0
 10
-253.39479911
 20
234.57055574
  0
VERTEX
  8
0
 10
-253.39479911
 20
261.40655574
  0
VERTEX
  8
0
 10
-268.27692411
 20
261.40630574
  0
VERTEX
  8
0
 10
-268.27692411
 20
234.57030574
  0
SEQEND
  0
POLYLINE
  8
�����_�������
 66
   1
 39
0.000000
 70
    1
  0
VERTEX
  8
0
 10
-227.07783482
 20
86.48474121
  0
VERTEX
  8
0
 10
-227.10488212
 20
157.73444310
  0
VERTEX
  8
0
 10
-227.11295020
 20
157.74646361
  0
VERTEX
  8
0
 10
-227.13069999
 20
157.74905749
  0
VERTEX
  8
0
 10
-227.14844978
 20
157.75165136
  0
VERTEX
  8
0
 10
-227.15651786
 20
157.76367187
  0
VERTEX
  8
0
 10
-227.17072528
 20
158.88642644
  0
VERTEX
  8
0
 10
-227.21311979
 20
160.00217611
  0
VERTEX
  8
0
 10
-227.28335973
 20
161.11057924
  0
VERTEX
  8
0
 10
-227.38110346
 20
162.21129418
  0
VERTEX
  8
0
 10
-227.50600932
 20
163.30397929
  0
VERTEX
  8
0
 10
-227.65773567
 20
164.38829292
  0
VERTEX
  8
0
 10
-227.83594087
 20
165.46389341
  0
VERTEX
  8
0
 10
-228.04028325
 20
166.53043913
  0
VERTEX
  8
0
 10
-228.27042118
 20
167.58758841
  0
VERTEX
  8
0
 10
-228.52601301
 20
168.63499962
  0
VERTEX
  8
0
 10
-228.80671709
 20
169.67233111
  0
VERTEX
  8
0
 10
-229.11219176
 20
170.69924122
  0
VERTEX
  8
0
 10
-229.44209539
 20
171.71538831
  0
VERTEX
  8
0
 10
-229.79608632
 20
172.72043074
  0
VERTEX
  8
0
 10
-230.17382290
 20
173.71402684
  0
VERTEX
  8
0
 10
-230.57496349
 20
174.69583498
  0
VERTEX
  8
0
 10
-230.99916644
 20
175.66551350
  0
VERTEX
  8
0
 10
-231.44609010
 20
176.62272077
  0
VERTEX
  8
0
 10
-231.91539282
 20
177.56711512
  0
VERTEX
  8
0
 10
-232.40673296
 20
178.49835491
  0
VERTEX
  8
0
 10
-232.91976886
 20
179.41609850
  0
VERTEX
  8
0
 10
-233.45415888
 20
180.32000423
  0
VERTEX
  8
0
 10
-234.00956136
 20
181.20973045
  0
VERTEX
  8
0
 10
-234.58563467
 20
182.08493553
  0
VERTEX
  8
0
 10
-235.18203715
 20
182.94527780
  0
VERTEX
  8
0
 10
-235.79842715
 20
183.79041562
  0
VERTEX
  8
0
 10
-236.43446303
 20
184.62000735
  0
VERTEX
  8
0
 10
-237.08980314
 20
185.43371134
  0
VERTEX
  8
0
 10
-237.76410583
 20
186.23118593
  0
VERTEX
  8
0
 10
-238.45702944
 20
187.01208948
  0
VERTEX
  8
0
 10
-239.16823234
 20
187.77608034
  0
VERTEX
  8
0
 10
-239.89737288
 20
188.52281686
  0
VERTEX
  8
0
 10
-240.64410940
 20
189.25195739
  0
VERTEX
  8
0
 10
-241.40810026
 20
189.96316029
  0
VERTEX
  8
0
 10
-242.18900381
 20
190.65608391
  0
VERTEX
  8
0
 10
-242.98647840
 20
191.33038660
  0
VERTEX
  8
0
 10
-243.80018238
 20
191.98572670
  0
VERTEX
  8
0
 10
-244.62977411
 20
192.62176258
  0
VERTEX
  8
0
 10
-245.47491194
 20
193.23815259
  0
VERTEX
  8
0
 10
-246.33525421
 20
193.83455507
  0
VERTEX
  8
0
 10
-247.21045928
 20
194.41062837
  0
VERTEX
  8
0
 10
-248.10018551
 20
194.96603086
  0
VERTEX
  8
0
 10
-249.00409124
 20
195.50042088
  0
VERTEX
  8
0
 10
-249.92183483
 20
196.01345678
  0
VERTEX
  8
0
 10
-250.85307462
 20
196.50479691
  0
VERTEX
  8
0
 10
-251.79746897
 20
196.97409963
  0
VERTEX
  8
0
 10
-252.75467623
 20
197.42102329
  0
VERTEX
  8
0
 10
-253.72435476
 20
197.84522624
  0
VERTEX
  8
0
 10
-254.70616289
 20
198.24636683
  0
VERTEX
  8
0
 10
-255.69975900
 20
198.62410342
  0
VERTEX
  8
0
 10
-256.70480142
 20
198.97809435
  0
VERTEX
  8
0
 10
-257.72094851
 20
199.30799797
  0
VERTEX
  8
0
 10
-258.74785863
 20
199.61347265
  0
VERTEX
  8
0
 10
-259.78519011
 20
199.89417672
  0
VERTEX
  8
0
 10
-260.83260132
 20
200.14976855
  0
VERTEX
  8
0
 10
-261.88975061
 20
200.37990648
  0
VERTEX
  8
0
 10
-262.95629632
 20
200.58424887
  0
VERTEX
  8
0
 10
-264.03189682
 20
200.76245406
  0
VERTEX
  8
0
 10
-265.11621044
 20
200.91418042
  0
VERTEX
  8
0
 10
-266.20889555
 20
201.03908628
  0
VERTEX
  8
0
 10
-267.30961050
 20
201.13683000
  0
VERTEX
  8
0
 10
-268.41801363
 20
201.20706994
  0
VERTEX
  8
0
 10
-269.53376330
 20
201.24946445
  0
VERTEX
  8
0
 10
-270.65651786
 20
201.26367187
  0
VERTEX
  8
0
 10
-271.77927242
 20
201.24946445
  0
VERTEX
  8
0
 10
-272.89502209
 20
201.20706994
  0
VERTEX
  8
0
 10
-274.00342522
 20
201.13683000
  0
VERTEX
  8
0
 10
-275.10414017
 20
201.03908628
  0
VERTEX
  8
0
 10
-276.19682528
 20
200.91418042
  0
VERTEX
  8
0
 10
-277.28113890
 20
200.76245406
  0
VERTEX
  8
0
 10
-278.35673940
 20
200.58424887
  0
VERTEX
  8
0
 10
-279.42328511
 20
200.37990648
  0
VERTEX
  8
0
 10
-280.48043440
 20
200.14976855
  0
VERTEX
  8
0
 10
-281.52784561
 20
199.89417672
  0
VERTEX
  8
0
 10
-282.56517709
 20
199.61347265
  0
VERTEX
  8
0
 10
-283.59208721
 20
199.30799797
  0
VERTEX
  8
0
 10
-284.60823430
 20
198.97809435
  0
VERTEX
  8
0
 10
-285.61327672
 20
198.62410342
  0
VERTEX
  8
0
 10
-286.60687283
 20
198.24636683
  0
VERTEX
  8
0
 10
-287.58868096
 20
197.84522624
  0
VERTEX
  8
0
 10
-288.55835949
 20
197.42102329
  0
VERTEX
  8
0
 10
-289.51556675
 20
196.97409963
  0
VERTEX
  8
0
 10
-290.45996110
 20
196.50479691
  0
VERTEX
  8
0
 10
-291.39120089
 20
196.01345678
  0
VERTEX
  8
0
 10
-292.30894448
 20
195.50042088
  0
VERTEX
  8
0
 10
-293.21285021
 20
194.96603086
  0
VERTEX
  8
0
 10
-294.10257644
 20
194.41062837
  0
VERTEX
  8
0
 10
-294.97778151
 20
193.83455507
  0
VERTEX
  8
0
 10
-295.83812378
 20
193.23815259
  0
VERTEX
  8
0
 10
-296.68326161
 20
192.62176258
  0
VERTEX
  8
0
 10
-297.51285334
 20
191.98572670
  0
VERTEX
  8
0
 10
-298.32655732
 20
191.33038660
  0
VERTEX
  8
0
 10
-299.12403191
 20
190.65608391
  0
VERTEX
  8
0
 10
-299.90493546
 20
189.96316029
  0
VERTEX
  8
0
 10
-300.66892632
 20
189.25195739
  0
VERTEX
  8
0
 10
-301.41566284
 20
188.52281686
  0
VERTEX
  8
0
 10
-302.14480338
 20
187.77608034
  0
VERTEX
  8
0
 10
-302.85600628
 20
187.01208948
  0
VERTEX
  8
0
 10
-303.54892989
 20
186.23118593
  0
VERTEX
  8
0
 10
-304.22323258
 20
185.43371134
  0
VERTEX
  8
0
 10
-304.87857269
 20
184.62000735
  0
VERTEX
  8
0
 10
-305.51460857
 20
183.79041562
  0
VERTEX
  8
0
 10
-306.13099857
 20
182.94527780
  0
VERTEX
  8
0
 10
-306.72740105
 20
182.08493553
  0
VERTEX
  8
0
 10
-307.30347436
 20
181.20973045
  0
VERTEX
  8
0
 10
-307.85887684
 20
180.32000423
  0
VERTEX
  8
0
 10
-308.39326686
 20
179.41609850
  0
VERTEX
  8
0
 10
-308.90630276
 20
178.49835491
  0
VERTEX
  8
0
 10
-309.39764290
 20
177.56711512
  0
VERTEX
  8
0
 10
-309.86694562
 20
176.62272077
  0
VERTEX
  8
0
 10
-310.31386928
 20
175.66551350
  0
VERTEX
  8
0
 10
-310.73807223
 20
174.69583498
  0
VERTEX
  8
0
 10
-311.13921282
 20
173.71402684
  0
VERTEX
  8
0
 10
-311.51694940
 20
172.72043074
  0
VERTEX
  8
0
 10
-311.87094033
 20
171.71538831
  0
VERTEX
  8
0
 10
-312.20084396
 20
170.69924122
  0
VERTEX
  8
0
 10
-312.50631863
 20
169.67233111
  0
VERTEX
  8
0
 10
-312.78702271
 20
168.63499962
  0
VERTEX
  8
0
 10
-313.04261454
 20
167.58758841
  0
VERTEX
  8
0
 10
-313.27275247
 20
166.53043913
  0
VERTEX
  8
0
 10
-313.47709485
 20
165.46389341
  0
VERTEX
  8
0
 10
-313.65530005
 20
164.38829292
  0
VERTEX
  8
0
 10
-313.80702640
 20
163.30397929
  0
VERTEX
  8
0
 10
-313.93193226
 20
162.21129418
  0
VERTEX
  8
0
 10
-314.02967599
 20
161.11057924
  0
VERTEX
  8
0
 10
-314.09991593
 20
160.00217611
  0
VERTEX
  8
0
 10
-314.14231044
 20
158.88642644
  0
VERTEX
  8
0
 10
-314.15651786
 20
157.76367187
  0
VERTEX
  8
0
 10
-314.14844978
 20
157.75155203
  0
VERTEX
  8
0
 10
-314.13069999
 20
157.77828990
  0
VERTEX
  8
0
 10
-314.11295020
 20
157.80502776
  0
VERTEX
  8
0
 10
-314.10488212
 20
157.79290792
  0
VERTEX
  8
0
 10
-314.09792411
 20
86.48437500
  0
VERTEX
  8
0
 10
-379.22292411
 20
86.48437500
  0
VERTEX
  8
0
 10
-379.22292411
 20
110.33197429
  0
VERTEX
  8
0
 10
-373.17873466
 20
110.33203125
  0
VERTEX
  8
0
 10
-373.20803153
 20
131.89453125
  0
VERTEX
  8
0
 10
-379.22292411
 20
131.89452696
  0
VERTEX
  8
0
 10
-379.22292411
 20
179.70703125
  0
VERTEX
  8
0
 10
-373.20803153
 20
179.71435547
  0
VERTEX
  8
0
 10
-373.20803153
 20
201.26220703
  0
VERTEX
  8
0
 10
-379.23086006
 20
201.26948948
  0
VERTEX
  8
0
 10
-379.23952567
 20
220.59082031
  0
VERTEX
  8
0
 10
-366.02663505
 20
233.81835938
  0
VERTEX
  8
0
 10
-370.27468192
 20
238.05175781
  0
VERTEX
  8
0
 10
-351.31960380
 20
257.00683594
  0
VERTEX
  8
0
 10
-347.08620536
 20
252.77343750
  0
VERTEX
  8
0
 10
-308.75856864
 20
291.08642578
  0
VERTEX
  8
0
 10
-312.99929130
 20
295.32714844
  0
VERTEX
  8
0
 10
-294.02956474
 20
314.29687500
  0
VERTEX
  8
0
 10
-289.77329988
 20
310.06996943
  0
VERTEX
  8
0
 10
-270.60671317
 20
329.22363281
  0
VERTEX
  8
0
 10
-251.34401786
 20
309.96093750
  0
VERTEX
  8
0
 10
-247.11061942
 20
314.19433594
  0
VERTEX
  8
0
 10
-228.28737723
 20
295.37109375
  0
VERTEX
  8
0
 10
-232.53542411
 20
291.15234375
  0
VERTEX
  8
0
 10
-194.08327567
 20
252.70019531
  0
VERTEX
  8
0
 10
-189.84987723
 20
256.93359375
  0
VERTEX
  8
0
 10
-171.01198661
 20
238.08105469
  0
VERTEX
  8
0
 10
-175.23073661
 20
233.86230469
  0
VERTEX
  8
0
 10
-162.21559989
 20
220.82519531
  0
VERTEX
  8
0
 10
-162.22292411
 20
201.26953271
  0
VERTEX
  8
0
 10
-168.26174247
 20
201.26953125
  0
VERTEX
  8
0
 10
-168.23244559
 20
179.70703125
  0
VERTEX
  8
0
 10
-162.22292411
 20
179.70703305
  0
VERTEX
  8
0
 10
-162.22292411
 20
131.86523570
  0
VERTEX
  8
0
 10
-168.21779716
 20
131.89453125
  0
VERTEX
  8
0
 10
-168.22512138
 20
110.33203125
  0
VERTEX
  8
0
 10
-162.22292411
 20
110.31738309
  0
VERTEX
  8
0
 10
-162.22292411
 20
86.48437500
  0
VERTEX
  8
0
 10
-227.07783482
 20
86.48474121
  0
SEQEND
  0
POLYLINE
  8
�����_�������
 66
   1
 39
0.000000
 70
    1
  0
VERTEX
  8
0
 10
-48.89042815
 20
30.02929687
  0
VERTEX
  8
0
 10
-42.88456877
 20
30.02929687
  0
VERTEX
  8
0
 10
-42.88456877
 20
4.02099609
  0
VERTEX
  8
0
 10
-48.89042815
 20
4.02832031
  0
VERTEX
  8
0
 10
-48.89042815
 20
-64.68017578
  0
VERTEX
  8
0
 10
-42.91386565
 20
-64.67285156
  0
VERTEX
  8
0
 10
-42.89921721
 20
-90.62988281
  0
VERTEX
  8
0
 10
-48.89042815
 20
-90.62988281
  0
VERTEX
  8
0
 10
-48.89042815
 20
-156.57714844
  0
VERTEX
  8
0
 10
-42.89921721
 20
-156.57714844
  0
VERTEX
  8
0
 10
-42.89921721
 20
-182.54150391
  0
VERTEX
  8
0
 10
-48.89042815
 20
-182.54150391
  0
VERTEX
  8
0
 10
-48.87752575
 20
-208.98334991
  0
VERTEX
  8
0
 10
-75.88493596
 20
-209.00390625
  0
VERTEX
  8
0
 10
-75.88493596
 20
-202.98339844
  0
VERTEX
  8
0
 10
-102.86735784
 20
-202.99804688
  0
VERTEX
  8
0
 10
-102.85270940
 20
-208.98925781
  0
VERTEX
  8
0
 10
-156.86149846
 20
-209.00390625
  0
VERTEX
  8
0
 10
-156.87614690
 20
-202.99804688
  0
VERTEX
  8
0
 10
-183.87321721
 20
-202.96875000
  0
VERTEX
  8
0
 10
-183.87321721
 20
-209.00390625
  0
VERTEX
  8
0
 10
-220.13542424
 20
-208.98193359
  0
VERTEX
  8
0
 10
-219.69505723
 20
-208.42539141
  0
VERTEX
  8
0
 10
-219.30681162
 20
-207.98670656
  0
VERTEX
  8
0
 10
-218.89114436
 20
-207.55266858
  0
VERTEX
  8
0
 10
-218.45628196
 20
-207.12188341
  0
VERTEX
  8
0
 10
-217.56187768
 20
-206.26449526
  0
VERTEX
  8
0
 10
-216.68941071
 20
-205.40338961
  0
VERTEX
  8
0
 10
-216.28196995
 20
-204.96795757
  0
VERTEX
  8
0
 10
-215.90469299
 20
-204.52741397
  0
VERTEX
  8
0
 10
-215.56580633
 20
-204.08036475
  0
VERTEX
  8
0
 10
-215.27353646
 20
-203.62541585
  0
VERTEX
  8
0
 10
-215.03610987
 20
-203.16117321
  0
VERTEX
  8
0
 10
-214.94053359
 20
-202.92513109
  0
VERTEX
  8
0
 10
-214.86175306
 20
-202.68624275
  0
VERTEX
  8
0
 10
-214.80079659
 20
-202.44433396
  0
VERTEX
  8
0
 10
-214.75869250
 20
-202.19923044
  0
VERTEX
  8
0
 10
-214.73646911
 20
-201.95075793
  0
VERTEX
  8
0
 10
-214.73515471
 20
-201.69874219
  0
VERTEX
  8
0
 10
-214.75897565
 20
-201.45054831
  0
VERTEX
  8
0
 10
-214.81025382
 20
-201.21317662
  0
VERTEX
  8
0
 10
-214.88716090
 20
-200.98590575
  0
VERTEX
  8
0
 10
-214.98786853
 20
-200.76801428
  0
VERTEX
  8
0
 10
-215.11054839
 20
-200.55878083
  0
VERTEX
  8
0
 10
-215.25337212
 20
-200.35748399
  0
VERTEX
  8
0
 10
-215.41451140
 20
-200.16340238
  0
VERTEX
  8
0
 10
-215.59213789
 20
-199.97581460
  0
VERTEX
  8
0
 10
-215.98953912
 20
-199.61723493
  0
VERTEX
  8
0
 10
-216.43094911
 20
-199.27597382
  0
VERTEX
  8
0
 10
-216.90174115
 20
-198.94626011
  0
VERTEX
  8
0
 10
-217.38728853
 20
-198.62232263
  0
VERTEX
  8
0
 10
-217.87296454
 20
-198.29839022
  0
VERTEX
  8
0
 10
-218.34414247
 20
-197.96869171
  0
VERTEX
  8
0
 10
-218.78619561
 20
-197.62745593
  0
VERTEX
  8
0
 10
-219.18449726
 20
-197.26891173
  0
VERTEX
  8
0
 10
-219.36267042
 20
-197.08134547
  0
VERTEX
  8
0
 10
-219.52442070
 20
-196.88728793
  0
VERTEX
  8
0
 10
-219.66791975
 20
-196.68601769
  0
VERTEX
  8
0
 10
-219.79133923
 20
-196.47681337
  0
VERTEX
  8
0
 10
-219.89285080
 20
-196.25895357
  0
VERTEX
  8
0
 10
-219.97062614
 20
-196.03171689
  0
VERTEX
  8
0
 10
-220.02283688
 20
-195.79438194
  0
VERTEX
  8
0
 10
-220.04765471
 20
-195.54622732
  0
VERTEX
  8
0
 10
-220.04270820
 20
-195.29553738
  0
VERTEX
  8
0
 10
-220.00815721
 20
-195.05082029
  0
VERTEX
  8
0
 10
-219.94597027
 20
-194.81169037
  0
VERTEX
  8
0
 10
-219.85811593
 20
-194.57776194
  0
VERTEX
  8
0
 10
-219.74656274
 20
-194.34864935
  0
VERTEX
  8
0
 10
-219.61327925
 20
-194.12396690
  0
VERTEX
  8
0
 10
-219.46023400
 20
-193.90332894
  0
VERTEX
  8
0
 10
-219.28939554
 20
-193.68634978
  0
VERTEX
  8
0
 10
-218.90221318
 20
-193.26182520
  0
VERTEX
  8
0
 10
-218.46748052
 20
-192.84730776
  0
VERTEX
  8
0
 10
-218.00094595
 20
-192.43971209
  0
VERTEX
  8
0
 10
-217.51835782
 20
-192.03595281
  0
VERTEX
  8
0
 10
-217.03546453
 20
-191.63294452
  0
VERTEX
  8
0
 10
-216.56801443
 20
-191.22760184
  0
VERTEX
  8
0
 10
-216.13175589
 20
-190.81683940
  0
VERTEX
  8
0
 10
-215.74243730
 20
-190.39757180
  0
VERTEX
  8
0
 10
-215.57030184
 20
-190.18378439
  0
VERTEX
  8
0
 10
-215.41580701
 20
-189.96671367
  0
VERTEX
  8
0
 10
-215.28092135
 20
-189.74597397
  0
VERTEX
  8
0
 10
-215.16761340
 20
-189.52117961
  0
VERTEX
  8
0
 10
-215.07785172
 20
-189.29194493
  0
VERTEX
  8
0
 10
-215.01360485
 20
-189.05788424
  0
VERTEX
  8
0
 10
-214.97684133
 20
-188.81861189
  0
VERTEX
  8
0
 10
-214.96952971
 20
-188.57374219
  0
VERTEX
  8
0
 10
-214.99109853
 20
-188.33118819
  0
VERTEX
  8
0
 10
-215.03852959
 20
-188.09867464
  0
VERTEX
  8
0
 10
-215.11012132
 20
-187.87553341
  0
VERTEX
  8
0
 10
-215.20417216
 20
-187.66109636
  0
VERTEX
  8
0
 10
-215.31898055
 20
-187.45469537
  0
VERTEX
  8
0
 10
-215.45284494
 20
-187.25566229
  0
VERTEX
  8
0
 10
-215.60406374
 20
-187.06332900
  0
VERTEX
  8
0
 10
-215.77093542
 20
-186.87702737
  0
VERTEX
  8
0
 10
-216.14483112
 20
-186.51984655
  0
VERTEX
  8
0
 10
-216.56091953
 20
-186.17877476
  0
VERTEX
  8
0
 10
-217.00558818
 20
-185.84846697
  0
VERTEX
  8
0
 10
-217.46522455
 20
-185.52357810
  0
VERTEX
  8
0
 10
-217.92621617
 20
-185.19876311
  0
VERTEX
  8
0
 10
-218.37495053
 20
-184.86867694
  0
VERTEX
  8
0
 10
-218.79781515
 20
-184.52797453
  0
VERTEX
  8
0
 10
-219.18119752
 20
-184.17131083
  0
VERTEX
  8
0
 10
-219.35382896
 20
-183.98532317
  0
VERTEX
  8
0
 10
-219.51148515
 20
-183.79334079
  0
VERTEX
  8
0
 10
-219.65246454
 20
-183.59469555
  0
VERTEX
  8
0
 10
-219.77506556
 20
-183.38871934
  0
VERTEX
  8
0
 10
-219.87758665
 20
-183.17474401
  0
VERTEX
  8
0
 10
-219.95832624
 20
-182.95210143
  0
VERTEX
  8
0
 10
-220.01558278
 20
-182.72012348
  0
VERTEX
  8
0
 10
-220.04765471
 20
-182.47814201
  0
VERTEX
  8
0
 10
-220.05060815
 20
-182.23051271
  0
VERTEX
  8
0
 10
-220.02298668
 20
-181.98202515
  0
VERTEX
  8
0
 10
-219.96680493
 20
-181.73266201
  0
VERTEX
  8
0
 10
-219.88407752
 20
-181.48240601
  0
VERTEX
  8
0
 10
-219.77681906
 20
-181.23123983
  0
VERTEX
  8
0
 10
-219.64704418
 20
-180.97914618
  0
VERTEX
  8
0
 10
-219.49676750
 20
-180.72610777
  0
VERTEX
  8
0
 10
-219.32800363
 20
-180.47210728
  0
VERTEX
  8
0
 10
-218.94307284
 20
-179.96115088
  0
VERTEX
  8
0
 10
-218.50836878
 20
-179.44613858
  0
VERTEX
  8
0
 10
-217.55410865
 20
-178.40339268
  0
VERTEX
  8
0
 10
-217.06678652
 20
-177.87538226
  0
VERTEX
  8
0
 10
-216.59415897
 20
-177.34276233
  0
VERTEX
  8
0
 10
-216.15234296
 20
-176.80539447
  0
VERTEX
  8
0
 10
-215.75745545
 20
-176.26314029
  0
VERTEX
  8
0
 10
-215.58264643
 20
-175.99013757
  0
VERTEX
  8
0
 10
-215.42561340
 20
-175.71586137
  0
VERTEX
  8
0
 10
-215.28837098
 20
-175.44029439
  0
VERTEX
  8
0
 10
-215.17293379
 20
-175.16341932
  0
VERTEX
  8
0
 10
-215.08131644
 20
-174.88521887
  0
VERTEX
  8
0
 10
-215.01553357
 20
-174.60567573
  0
VERTEX
  8
0
 10
-214.97759979
 20
-174.32477260
  0
VERTEX
  8
0
 10
-214.96952971
 20
-174.04249219
  0
VERTEX
  8
0
 10
-214.99119615
 20
-173.76397835
  0
VERTEX
  8
0
 10
-215.03991472
 20
-173.49400670
  0
VERTEX
  8
0
 10
-215.11386423
 20
-173.23200756
  0
VERTEX
  8
0
 10
-215.21122350
 20
-172.97741123
  0
VERTEX
  8
0
 10
-215.33017136
 20
-172.72964803
  0
VERTEX
  8
0
 10
-215.46888661
 20
-172.48814828
  0
VERTEX
  8
0
 10
-215.62554809
 20
-172.25234230
  0
VERTEX
  8
0
 10
-215.79833461
 20
-172.02166039
  0
VERTEX
  8
0
 10
-216.18499806
 20
-171.57339008
  0
VERTEX
  8
0
 10
-216.61430751
 20
-171.13877987
  0
VERTEX
  8
0
 10
-217.07169352
 20
-170.71327229
  0
VERTEX
  8
0
 10
-217.54258664
 20
-170.29230986
  0
VERTEX
  8
0
 10
-218.01241744
 20
-169.87133510
  0
VERTEX
  8
0
 10
-218.46661647
 20
-169.44579054
  0
VERTEX
  8
0
 10
-218.89061429
 20
-169.01111870
  0
VERTEX
  8
0
 10
-219.26984145
 20
-168.56276210
  0
VERTEX
  8
0
 10
-219.43811309
 20
-168.33202781
  0
VERTEX
  8
0
 10
-219.58972852
 20
-168.09616327
  0
VERTEX
  8
0
 10
-219.72286657
 20
-167.85459881
  0
VERTEX
  8
0
 10
-219.83570605
 20
-167.60676474
  0
VERTEX
  8
0
 10
-219.92642578
 20
-167.35209136
  0
VERTEX
  8
0
 10
-219.99320459
 20
-167.09000901
  0
VERTEX
  8
0
 10
-220.03422129
 20
-166.81994800
  0
VERTEX
  8
0
 10
-220.04765471
 20
-166.54133863
  0
VERTEX
  8
0
 10
-220.03163014
 20
-166.26237206
  0
VERTEX
  8
0
 10
-219.98676460
 20
-165.99125629
  0
VERTEX
  8
0
 10
-219.91497452
 20
-165.72744690
  0
VERTEX
  8
0
 10
-219.81817630
 20
-165.47039949
  0
VERTEX
  8
0
 10
-219.69828635
 20
-165.21956963
  0
VERTEX
  8
0
 10
-219.55722109
 20
-164.97441292
  0
VERTEX
  8
0
 10
-219.39689692
 20
-164.73438494
  0
VERTEX
  8
0
 10
-219.21923027
 20
-164.49894128
  0
VERTEX
  8
0
 10
-218.81953514
 20
-164.03962927
  0
VERTEX
  8
0
 10
-218.37346699
 20
-163.59212161
  0
VERTEX
  8
0
 10
-217.89635712
 20
-163.15206297
  0
VERTEX
  8
0
 10
-217.40353683
 20
-162.71509806
  0
VERTEX
  8
0
 10
-216.91033741
 20
-162.27687159
  0
VERTEX
  8
0
 10
-216.43209016
 20
-161.83302825
  0
VERTEX
  8
0
 10
-215.98412637
 20
-161.37921275
  0
VERTEX
  8
0
 10
-215.58177733
 20
-160.91106977
  0
VERTEX
  8
0
 10
-215.40249938
 20
-160.67026445
  0
VERTEX
  8
0
 10
-215.24037436
 20
-160.42424403
  0
VERTEX
  8
0
 10
-215.09731867
 20
-160.17246409
  0
VERTEX
  8
0
 10
-214.97524873
 20
-159.91438022
  0
VERTEX
  8
0
 10
-214.87608095
 20
-159.64944801
  0
VERTEX
  8
0
 10
-214.80173175
 20
-159.37712304
  0
VERTEX
  8
0
 10
-214.75411753
 20
-159.09686090
  0
VERTEX
  8
0
 10
-214.73515471
 20
-158.80811719
  0
VERTEX
  8
0
 10
-214.74622845
 20
-158.51869070
  0
VERTEX
  8
0
 10
-214.78618705
 20
-158.23640901
  0
VERTEX
  8
0
 10
-214.85314166
 20
-157.96077089
  0
VERTEX
  8
0
 10
-214.94520342
 20
-157.69127509
  0
VERTEX
  8
0
 10
-215.06048346
 20
-157.42742039
  0
VERTEX
  8
0
 10
-215.19709292
 20
-157.16870555
  0
VERTEX
  8
0
 10
-215.35314294
 20
-156.91462932
  0
VERTEX
  8
0
 10
-215.52674466
 20
-156.66469047
  0
VERTEX
  8
0
 10
-215.91904774
 20
-156.17521996
  0
VERTEX
  8
0
 10
-216.35889128
 20
-155.69628412
  0
VERTEX
  8
0
 10
-216.83116437
 20
-155.22387304
  0
VERTEX
  8
0
 10
-217.32075612
 20
-154.75397682
  0
VERTEX
  8
0
 10
-217.81255564
 20
-154.28258557
  0
VERTEX
  8
0
 10
-218.29145204
 20
-153.80568939
  0
VERTEX
  8
0
 10
-218.74233442
 20
-153.31927836
  0
VERTEX
  8
0
 10
-219.15009188
 20
-152.81934260
  0
VERTEX
  8
0
 10
-219.33307661
 20
-152.56304985
  0
VERTEX
  8
0
 10
-219.49961353
 20
-152.30187220
  0
VERTEX
  8
0
 10
-219.64781378
 20
-152.03530842
  0
VERTEX
  8
0
 10
-219.77578849
 20
-151.76285726
  0
VERTEX
  8
0
 10
-219.88164880
 20
-151.48401750
  0
VERTEX
  8
0
 10
-219.96350584
 20
-151.19828788
  0
VERTEX
  8
0
 10
-220.01947077
 20
-150.90516718
  0
VERTEX
  8
0
 10
-220.04765471
 20
-150.60415416
  0
VERTEX
  8
0
 10
-220.04482493
 20
-150.29813078
  0
VERTEX
  8
0
 10
-220.01041163
 20
-149.99038944
  0
VERTEX
  8
0
 10
-219.94652036
 20
-149.68104458
  0
VERTEX
  8
0
 10
-219.85525664
 20
-149.37021062
  0
VERTEX
  8
0
 10
-219.73872602
 20
-149.05800199
  0
VERTEX
  8
0
 10
-219.59903404
 20
-148.74453312
  0
VERTEX
  8
0
 10
-219.43828625
 20
-148.42991844
  0
VERTEX
  8
0
 10
-219.25858817
 20
-148.11427238
  0
VERTEX
  8
0
 10
-218.85076334
 20
-147.48034382
  0
VERTEX
  8
0
 10
-218.39240387
 20
-146.84366288
  0
VERTEX
  8
0
 10
-217.90035409
 20
-146.20514499
  0
VERTEX
  8
0
 10
-217.39145831
 20
-145.56570558
  0
VERTEX
  8
0
 10
-216.88256085
 20
-144.92626008
  0
VERTEX
  8
0
 10
-216.39050605
 20
-144.28772392
  0
VERTEX
  8
0
 10
-215.93213820
 20
-143.65101252
  0
VERTEX
  8
0
 10
-215.52430165
 20
-143.01704133
  0
VERTEX
  8
0
 10
-215.34459645
 20
-142.70136938
  0
VERTEX
  8
0
 10
-215.18384070
 20
-142.38672577
  0
VERTEX
  8
0
 10
-215.04413993
 20
-142.07322493
  0
VERTEX
  8
0
 10
-214.92759968
 20
-141.76098128
  0
VERTEX
  8
0
 10
-214.83632549
 20
-141.45010925
  0
VERTEX
  8
0
 10
-214.77242291
 20
-141.14072327
  0
VERTEX
  8
0
 10
-214.73799747
 20
-140.83293778
  0
VERTEX
  8
0
 10
-214.73515471
 20
-140.52686719
  0
VERTEX
  8
0
 10
-214.76314730
 20
-140.22617579
  0
VERTEX
  8
0
 10
-214.81858797
 20
-139.93406960
  0
VERTEX
  8
0
 10
-214.89962239
 20
-139.64997564
  0
VERTEX
  8
0
 10
-215.00439622
 20
-139.37332095
  0
VERTEX
  8
0
 10
-215.13105513
 20
-139.10353255
  0
VERTEX
  8
0
 10
-215.27774478
 20
-138.84003747
  0
VERTEX
  8
0
 10
-215.44261083
 20
-138.58226274
  0
VERTEX
  8
0
 10
-215.62379894
 20
-138.32963540
  0
VERTEX
  8
0
 10
-216.02772399
 20
-137.83753098
  0
VERTEX
  8
0
 10
-216.47468525
 20
-137.35914044
  0
VERTEX
  8
0
 10
-216.94984800
 20
-136.88988004
  0
VERTEX
  8
0
 10
-217.43837755
 20
-136.42516599
  0
VERTEX
  8
0
 10
-217.92543920
 20
-135.96041455
  0
VERTEX
  8
0
 10
-218.39619825
 20
-135.49104195
  0
VERTEX
  8
0
 10
-218.83582000
 20
-135.01246443
  0
VERTEX
  8
0
 10
-219.22946974
 20
-134.52009822
  0
VERTEX
  8
0
 10
-219.40441927
 20
-134.26731194
  0
VERTEX
  8
0
 10
-219.56231279
 20
-134.00935957
  0
VERTEX
  8
0
 10
-219.70129595
 20
-133.74566815
  0
VERTEX
  8
0
 10
-219.81951443
 20
-133.47566471
  0
VERTEX
  8
0
 10
-219.91511388
 20
-133.19877628
  0
VERTEX
  8
0
 10
-219.98623997
 20
-132.91442988
  0
VERTEX
  8
0
 10
-220.03103836
 20
-132.62205255
  0
VERTEX
  8
0
 10
-220.04765471
 20
-132.32107132
  0
VERTEX
  8
0
 10
-220.03423269
 20
-132.01962489
  0
VERTEX
  8
0
 10
-219.99145303
 20
-131.72588313
  0
VERTEX
  8
0
 10
-219.92126704
 20
-131.43931982
  0
VERTEX
  8
0
 10
-219.82562600
 20
-131.15940873
  0
VERTEX
  8
0
 10
-219.70648119
 20
-130.88562365
  0
VERTEX
  8
0
 10
-219.56578391
 20
-130.61743835
  0
VERTEX
  8
0
 10
-219.40548544
 20
-130.35432661
  0
VERTEX
  8
0
 10
-219.22753706
 20
-130.09576221
  0
VERTEX
  8
0
 10
-218.82649577
 20
-129.59017055
  0
VERTEX
  8
0
 10
-218.37827034
 20
-129.09645358
  0
VERTEX
  8
0
 10
-217.89847106
 20
-128.61040154
  0
VERTEX
  8
0
 10
-217.40270824
 20
-128.12780465
  0
VERTEX
  8
0
 10
-216.90659218
 20
-127.64445314
  0
VERTEX
  8
0
 10
-216.42573320
 20
-127.15613723
  0
VERTEX
  8
0
 10
-215.97574159
 20
-126.65864716
  0
VERTEX
  8
0
 10
-215.57222765
 20
-126.14777314
  0
VERTEX
  8
0
 10
-215.39277803
 20
-125.88600160
  0
VERTEX
  8
0
 10
-215.23080169
 20
-125.61930541
  0
VERTEX
  8
0
 10
-215.08824992
 20
-125.34715834
  0
VERTEX
  8
0
 10
-214.96707401
 20
-125.06903419
  0
VERTEX
  8
0
 10
-214.86922524
 20
-124.78440672
  0
VERTEX
  8
0
 10
-214.79665492
 20
-124.49274971
  0
VERTEX
  8
0
 10
-214.75131431
 20
-124.19353694
  0
VERTEX
  8
0
 10
-214.73515471
 20
-123.88624219
  0
VERTEX
  8
0
 10
-214.74990910
 20
-123.57861195
  0
VERTEX
  8
0
 10
-214.79467023
 20
-123.27840611
  0
VERTEX
  8
0
 10
-214.86742906
 20
-122.98511860
  0
VERTEX
  8
0
 10
-214.96617655
 20
-122.69824331
  0
VERTEX
  8
0
 10
-215.08890364
 20
-122.41727415
  0
VERTEX
  8
0
 10
-215.23360130
 20
-122.14170504
  0
VERTEX
  8
0
 10
-215.39826048
 20
-121.87102988
  0
VERTEX
  8
0
 10
-215.58087213
 20
-121.60474258
  0
VERTEX
  8
0
 10
-215.99191670
 20
-121.08330719
  0
VERTEX
  8
0
 10
-216.45066264
 20
-120.57335014
  0
VERTEX
  8
0
 10
-216.94103760
 20
-120.07082270
  0
VERTEX
  8
0
 10
-217.44696923
 20
-119.57167614
  0
VERTEX
  8
0
 10
-217.95238517
 20
-119.07186171
  0
VERTEX
  8
0
 10
-218.44121306
 20
-118.56733070
  0
VERTEX
  8
0
 10
-218.89738056
 20
-118.05403436
  0
VERTEX
  8
0
 10
-219.30481531
 20
-117.52792397
  0
VERTEX
  8
0
 10
-219.48523529
 20
-117.25879828
  0
VERTEX
  8
0
 10
-219.64744496
 20
-116.98495079
  0
VERTEX
  8
0
 10
-219.78943525
 20
-116.70587543
  0
VERTEX
  8
0
 10
-219.90919714
 20
-116.42106609
  0
VERTEX
  8
0
 10
-220.00472157
 20
-116.13001669
  0
VERTEX
  8
0
 10
-220.07399951
 20
-115.83222113
  0
VERTEX
  8
0
 10
-220.11502190
 20
-115.52717333
  0
VERTEX
  8
0
 10
-220.12577971
 20
-115.21436719
  0
VERTEX
  8
0
 10
-220.10520932
 20
-114.90239167
  0
VERTEX
  8
0
 10
-220.05490142
 20
-114.59975809
  0
VERTEX
  8
0
 10
-219.97682839
 20
-114.30584390
  0
VERTEX
  8
0
 10
-219.87296263
 20
-114.02002653
  0
VERTEX
  8
0
 10
-219.74527653
 20
-113.74168342
  0
VERTEX
  8
0
 10
-219.59574248
 20
-113.47019203
  0
VERTEX
  8
0
 10
-219.42633287
 20
-113.20492979
  0
VERTEX
  8
0
 10
-219.23902009
 20
-112.94527414
  0
VERTEX
  8
0
 10
-218.81857459
 20
-112.44029240
  0
VERTEX
  8
0
 10
-218.35018512
 20
-111.95026634
  0
VERTEX
  8
0
 10
-217.84963079
 20
-111.47021551
  0
VERTEX
  8
0
 10
-217.33269073
 20
-110.99515945
  0
VERTEX
  8
0
 10
-216.81514409
 20
-110.52011769
  0
VERTEX
  8
0
 10
-216.31276997
 20
-110.04010977
  0
VERTEX
  8
0
 10
-215.84134752
 20
-109.55015524
  0
VERTEX
  8
0
 10
-215.41665586
 20
-109.04527363
  0
VERTEX
  8
0
 10
-215.22676506
 20
-108.78567877
  0
VERTEX
  8
0
 10
-215.05447412
 20
-108.52048448
  0
VERTEX
  8
0
 10
-214.90175545
 20
-108.24906818
  0
VERTEX
  8
0
 10
-214.77058143
 20
-107.97080733
  0
VERTEX
  8
0
 10
-214.66292446
 20
-107.68507936
  0
VERTEX
  8
0
 10
-214.58075692
 20
-107.39126172
  0
VERTEX
  8
0
 10
-214.52605121
 20
-107.08873185
  0
VERTEX
  8
0
 10
-214.50077971
 20
-106.77686719
  0
VERTEX
  8
0
 10
-214.50751173
 20
-106.46156308
  0
VERTEX
  8
0
 10
-214.54609818
 20
-106.14901082
  0
VERTEX
  8
0
 10
-214.61443391
 20
-105.83903177
  0
VERTEX
  8
0
 10
-214.71041373
 20
-105.53144731
  0
VERTEX
  8
0
 10
-214.83193249
 20
-105.22607879
  0
VERTEX
  8
0
 10
-214.97688502
 20
-104.92274760
  0
VERTEX
  8
0
 10
-215.14316614
 20
-104.62127510
  0
VERTEX
  8
0
 10
-215.32867069
 20
-104.32148267
  0
VERTEX
  8
0
 10
-215.74892941
 20
-103.72622345
  0
VERTEX
  8
0
 10
-216.22081983
 20
-103.13554092
  0
VERTEX
  8
0
 10
-216.72750062
 20
-102.54800603
  0
VERTEX
  8
0
 10
-217.25213041
 20
-101.96218973
  0
VERTEX
  8
0
 10
-217.77786788
 20
-101.37666298
  0
VERTEX
  8
0
 10
-218.28787167
 20
-100.78999674
  0
VERTEX
  8
0
 10
-218.76530045
 20
-100.20076197
  0
VERTEX
  8
0
 10
-219.19331287
 20
-99.60752961
  0
VERTEX
  8
0
 10
-219.38352503
 20
-99.30896777
  0
VERTEX
  8
0
 10
-219.55506759
 20
-99.00887064
  0
VERTEX
  8
0
 10
-219.70583539
 20
-98.70705959
  0
VERTEX
  8
0
 10
-219.83372326
 20
-98.40335600
  0
VERTEX
  8
0
 10
-219.93662603
 20
-98.09758123
  0
VERTEX
  8
0
 10
-220.01243854
 20
-97.78955665
  0
VERTEX
  8
0
 10
-220.05905561
 20
-97.47910364
  0
VERTEX
  8
0
 10
-220.07437208
 20
-97.16604355
  0
VERTEX
  8
0
 10
-220.05899228
 20
-96.85560814
  0
VERTEX
  8
0
 10
-220.01613578
 20
-96.55280897
  0
VERTEX
  8
0
 10
-219.94762027
 20
-96.25713715
  0
VERTEX
  8
0
 10
-219.85526345
 20
-95.96808381
  0
VERTEX
  8
0
 10
-219.74088300
 20
-95.68514005
  0
VERTEX
  8
0
 10
-219.60629663
 20
-95.40779700
  0
VERTEX
  8
0
 10
-219.45332201
 20
-95.13554576
  0
VERTEX
  8
0
 10
-219.28377685
 20
-94.86787745
  0
VERTEX
  8
0
 10
-218.90224566
 20
-94.34425410
  0
VERTEX
  8
0
 10
-218.47624460
 20
-93.83285585
  0
VERTEX
  8
0
 10
-218.02031521
 20
-93.32961164
  0
VERTEX
  8
0
 10
-217.54899902
 20
-92.83045038
  0
VERTEX
  8
0
 10
-217.07683758
 20
-92.33130100
  0
VERTEX
  8
0
 10
-216.61837242
 20
-91.82809241
  0
VERTEX
  8
0
 10
-216.18814509
 20
-91.31675354
  0
VERTEX
  8
0
 10
-215.80069713
 20
-90.79321330
  0
VERTEX
  8
0
 10
-215.62755964
 20
-90.52559547
  0
VERTEX
  8
0
 10
-215.47057007
 20
-90.25340063
  0
VERTEX
  8
0
 10
-215.33154611
 20
-89.97611992
  0
VERTEX
  8
0
 10
-215.21230545
 20
-89.69324444
  0
VERTEX
  8
0
 10
-215.11466579
 20
-89.40426531
  0
VERTEX
  8
0
 10
-215.04044482
 20
-89.10867365
  0
VERTEX
  8
0
 10
-214.99146023
 20
-88.80596057
  0
VERTEX
  8
0
 10
-214.96952971
 20
-88.49561719
  0
VERTEX
  8
0
 10
-214.97720916
 20
-88.18212301
  0
VERTEX
  8
0
 10
-215.01452682
 20
-87.87021626
  0
VERTEX
  8
0
 10
-215.07950889
 20
-87.55977610
  0
VERTEX
  8
0
 10
-215.17018157
 20
-87.25068172
  0
VERTEX
  8
0
 10
-215.28457106
 20
-86.94281228
  0
VERTEX
  8
0
 10
-215.42070356
 20
-86.63604696
  0
VERTEX
  8
0
 10
-215.57660527
 20
-86.33026492
  0
VERTEX
  8
0
 10
-215.75030239
 20
-86.02534536
  0
VERTEX
  8
0
 10
-216.14318768
 20
-85.41761032
  0
VERTEX
  8
0
 10
-216.58356903
 20
-84.81187523
  0
VERTEX
  8
0
 10
-217.05565606
 20
-84.20717348
  0
VERTEX
  8
0
 10
-217.54365836
 20
-83.60253846
  0
VERTEX
  8
0
 10
-218.03178555
 20
-82.99700355
  0
VERTEX
  8
0
 10
-218.50424723
 20
-82.38960215
  0
VERTEX
  8
0
 10
-218.94525302
 20
-81.77936764
  0
VERTEX
  8
0
 10
-219.33901251
 20
-81.16533342
  0
VERTEX
  8
0
 10
-219.51324040
 20
-80.85658935
  0
VERTEX
  8
0
 10
-219.66973531
 20
-80.54653287
  0
VERTEX
  8
0
 10
-219.80652346
 20
-80.23504316
  0
VERTEX
  8
0
 10
-219.92163105
 20
-79.92199939
  0
VERTEX
  8
0
 10
-220.01308426
 20
-79.60728074
  0
VERTEX
  8
0
 10
-220.07890931
 20
-79.29076637
  0
VERTEX
  8
0
 10
-220.11713239
 20
-78.97233546
  0
VERTEX
  8
0
 10
-220.12577971
 20
-78.65186719
  0
VERTEX
  8
0
 10
-220.10447341
 20
-78.33369900
  0
VERTEX
  8
0
 10
-220.05540118
 20
-78.02198970
  0
VERTEX
  8
0
 10
-219.98043748
 20
-77.71635047
  0
VERTEX
  8
0
 10
-219.88145683
 20
-77.41639251
  0
VERTEX
  8
0
 10
-219.76033369
 20
-77.12172702
  0
VERTEX
  8
0
 10
-219.61894256
 20
-76.83196519
  0
VERTEX
  8
0
 10
-219.45915793
 20
-76.54671822
  0
VERTEX
  8
0
 10
-219.28285429
 20
-76.26559730
  0
VERTEX
  8
0
 10
-218.88818790
 20
-75.71417839
  0
VERTEX
  8
0
 10
-218.44993929
 20
-75.17459802
  0
VERTEX
  8
0
 10
-217.98310438
 20
-74.64374575
  0
VERTEX
  8
0
 10
-217.50267905
 20
-74.11851115
  0
VERTEX
  8
0
 10
-217.02365922
 20
-73.59578377
  0
VERTEX
  8
0
 10
-216.56104077
 20
-73.07245316
  0
VERTEX
  8
0
 10
-216.12981961
 20
-72.54540890
  0
VERTEX
  8
0
 10
-215.74499165
 20
-72.01154053
  0
VERTEX
  8
0
 10
-215.57466133
 20
-71.74107529
  0
VERTEX
  8
0
 10
-215.42155278
 20
-71.46773761
  0
VERTEX
  8
0
 10
-215.28754047
 20
-71.19113869
  0
VERTEX
  8
0
 10
-215.17449889
 20
-70.91088971
  0
VERTEX
  8
0
 10
-215.08430254
 20
-70.62660188
  0
VERTEX
  8
0
 10
-215.01882591
 20
-70.33788638
  0
VERTEX
  8
0
 10
-214.97994346
 20
-70.04435442
  0
VERTEX
  8
0
 10
-214.96952971
 20
-69.74561719
  0
VERTEX
  8
0
 10
-214.98826921
 20
-69.44828893
  0
VERTEX
  8
0
 10
-215.03437443
 20
-69.15889064
  0
VERTEX
  8
0
 10
-215.10601172
 20
-68.87689362
  0
VERTEX
  8
0
 10
-215.20134741
 20
-68.60176919
  0
VERTEX
  8
0
 10
-215.31854786
 20
-68.33298867
  0
VERTEX
  8
0
 10
-215.45577941
 20
-68.07002335
  0
VERTEX
  8
0
 10
-215.61120839
 20
-67.81234457
  0
VERTEX
  8
0
 10
-215.78300116
 20
-67.55942363
  0
VERTEX
  8
0
 10
-216.16834342
 20
-67.06574051
  0
VERTEX
  8
0
 10
-216.59713692
 20
-66.58474450
  0
VERTEX
  8
0
 10
-217.05471242
 20
-66.11220609
  0
VERTEX
  8
0
 10
-217.52640066
 20
-65.64389579
  0
VERTEX
  8
0
 10
-217.99753238
 20
-65.17558410
  0
VERTEX
  8
0
 10
-218.45343834
 20
-64.70304152
  0
VERTEX
  8
0
 10
-218.87944927
 20
-64.22203854
  0
VERTEX
  8
0
 10
-219.26089593
 20
-63.72834567
  0
VERTEX
  8
0
 10
-219.43032351
 20
-63.47541880
  0
VERTEX
  8
0
 10
-219.58310905
 20
-63.21773340
  0
VERTEX
  8
0
 10
-219.71741890
 20
-62.95476077
  0
VERTEX
  8
0
 10
-219.83141940
 20
-62.68597224
  0
VERTEX
  8
0
 10
-219.92327688
 20
-62.41083910
  0
VERTEX
  8
0
 10
-219.99115770
 20
-62.12883268
  0
VERTEX
  8
0
 10
-220.03322819
 20
-61.83942428
  0
VERTEX
  8
0
 10
-220.04765471
 20
-61.54208522
  0
VERTEX
  8
0
 10
-220.03278944
 20
-61.24382288
  0
VERTEX
  8
0
 10
-219.98948439
 20
-60.95176388
  0
VERTEX
  8
0
 10
-219.91965563
 20
-60.66555838
  0
VERTEX
  8
0
 10
-219.82521923
 20
-60.38485654
  0
VERTEX
  8
0
 10
-219.70809126
 20
-60.10930853
  0
VERTEX
  8
0
 10
-219.57018777
 20
-59.83856453
  0
VERTEX
  8
0
 10
-219.41342485
 20
-59.57227468
  0
VERTEX
  8
0
 10
-219.23971855
 20
-59.31008917
  0
VERTEX
  8
0
 10
-218.84914009
 20
-58.79663180
  0
VERTEX
  8
0
 10
-218.41378095
 20
-58.29539374
  0
VERTEX
  8
0
 10
-217.94896965
 20
-57.80357632
  0
VERTEX
  8
0
 10
-217.47003474
 20
-57.31838086
  0
VERTEX
  8
0
 10
-216.99230475
 20
-56.83700870
  0
VERTEX
  8
0
 10
-216.53110821
 20
-56.35666115
  0
VERTEX
  8
0
 10
-216.10177367
 20
-55.87453955
  0
VERTEX
  8
0
 10
-215.71962967
 20
-55.38784522
  0
VERTEX
  8
0
 10
-215.55104428
 20
-55.14190870
  0
VERTEX
  8
0
 10
-215.40000473
 20
-54.89377950
  0
VERTEX
  8
0
 10
-215.26842708
 20
-54.64310777
  0
VERTEX
  8
0
 10
-215.15822740
 20
-54.38954370
  0
VERTEX
  8
0
 10
-215.07132176
 20
-54.13273744
  0
VERTEX
  8
0
 10
-215.00962622
 20
-53.87233915
  0
VERTEX
  8
0
 10
-214.97505684
 20
-53.60799902
  0
VERTEX
  8
0
 10
-214.96952971
 20
-53.33936719
  0
VERTEX
  8
0
 10
-214.99301332
 20
-53.07317132
  0
VERTEX
  8
0
 10
-215.04301261
 20
-52.81597221
  0
VERTEX
  8
0
 10
-215.11774834
 20
-52.56716979
  0
VERTEX
  8
0
 10
-215.21544124
 20
-52.32616398
  0
VERTEX
  8
0
 10
-215.33431204
 20
-52.09235471
  0
VERTEX
  8
0
 10
-215.47258150
 20
-51.86514190
  0
VERTEX
  8
0
 10
-215.62847034
 20
-51.64392547
  0
VERTEX
  8
0
 10
-215.80019931
 20
-51.42810534
  0
VERTEX
  8
0
 10
-216.18406058
 20
-51.01025369
  0
VERTEX
  8
0
 10
-216.60993123
 20
-50.60678635
  0
VERTEX
  8
0
 10
-217.06357718
 20
-50.21290268
  0
VERTEX
  8
0
 10
-217.53076433
 20
-49.82380209
  0
VERTEX
  8
0
 10
-217.99725860
 20
-49.43468395
  0
VERTEX
  8
0
 10
-218.44882591
 20
-49.04074766
  0
VERTEX
  8
0
 10
-218.87123217
 20
-48.63719259
  0
VERTEX
  8
0
 10
-219.25024329
 20
-48.21921813
  0
VERTEX
  8
0
 10
-219.41902753
 20
-48.00332344
  0
VERTEX
  8
0
 10
-219.57162519
 20
-47.78202367
  0
VERTEX
  8
0
 10
-219.70625703
 20
-47.55471875
  0
VERTEX
  8
0
 10
-219.82114379
 20
-47.32080860
  0
VERTEX
  8
0
 10
-219.91450619
 20
-47.07969313
  0
VERTEX
  8
0
 10
-219.98456499
 20
-46.83077229
  0
VERTEX
  8
0
 10
-220.02954091
 20
-46.57344598
  0
VERTEX
  8
0
 10
-220.04765471
 20
-46.30711414
  0
VERTEX
  8
0
 10
-220.03686354
 20
-46.03962853
  0
VERTEX
  8
0
 10
-219.99757449
 20
-45.77893097
  0
VERTEX
  8
0
 10
-219.93168314
 20
-45.52455648
  0
VERTEX
  8
0
 10
-219.84108508
 20
-45.27604008
  0
VERTEX
  8
0
 10
-219.72767592
 20
-45.03291678
  0
VERTEX
  8
0
 10
-219.59335125
 20
-44.79472158
  0
VERTEX
  8
0
 10
-219.44000665
 20
-44.56098951
  0
VERTEX
  8
0
 10
-219.26953773
 20
-44.33125558
  0
VERTEX
  8
0
 10
-218.88480928
 20
-43.88192218
  0
VERTEX
  8
0
 10
-218.45433065
 20
-43.44300149
  0
VERTEX
  8
0
 10
-217.99326659
 20
-43.01077362
  0
VERTEX
  8
0
 10
-217.51678186
 20
-42.58151867
  0
VERTEX
  8
0
 10
-217.04004119
 20
-42.15151676
  0
VERTEX
  8
0
 10
-216.57820936
 20
-41.71704798
  0
VERTEX
  8
0
 10
-216.14645110
 20
-41.27439245
  0
VERTEX
  8
0
 10
-215.75993116
 20
-40.81983026
  0
VERTEX
  8
0
 10
-215.58837455
 20
-40.58692171
  0
VERTEX
  8
0
 10
-215.43381430
 20
-40.34964154
  0
VERTEX
  8
0
 10
-215.29814601
 20
-40.10752476
  0
VERTEX
  8
0
 10
-215.18326528
 20
-39.86010638
  0
VERTEX
  8
0
 10
-215.09106768
 20
-39.60692142
  0
VERTEX
  8
0
 10
-215.02344883
 20
-39.34750490
  0
VERTEX
  8
0
 10
-214.98230431
 20
-39.08139181
  0
VERTEX
  8
0
 10
-214.96952971
 20
-38.80811719
  0
VERTEX
  8
0
 10
-214.98567739
 20
-38.53568563
  0
VERTEX
  8
0
 10
-215.02884757
 20
-38.27202232
  0
VERTEX
  8
0
 10
-215.09725762
 20
-38.01654317
  0
VERTEX
  8
0
 10
-215.18912495
 20
-37.76866408
  0
VERTEX
  8
0
 10
-215.30266692
 20
-37.52780093
  0
VERTEX
  8
0
 10
-215.43610094
 20
-37.29336963
  0
VERTEX
  8
0
 10
-215.58764440
 20
-37.06478608
  0
VERTEX
  8
0
 10
-215.75551467
 20
-36.84146618
  0
VERTEX
  8
0
 10
-216.13310521
 20
-36.40828090
  0
VERTEX
  8
0
 10
-216.55461169
 20
-35.98914097
  0
VERTEX
  8
0
 10
-217.00577319
 20
-35.57937359
  0
VERTEX
  8
0
 10
-217.47232882
 20
-35.17430592
  0
VERTEX
  8
0
 10
-217.94001768
 20
-34.76926517
  0
VERTEX
  8
0
 10
-218.39457887
 20
-34.35957851
  0
VERTEX
  8
0
 10
-218.82175150
 20
-33.94057313
  0
VERTEX
  8
0
 10
-219.20727467
 20
-33.50757621
  0
VERTEX
  8
0
 10
-219.37996117
 20
-33.28437067
  0
VERTEX
  8
0
 10
-219.53688747
 20
-33.05591494
  0
VERTEX
  8
0
 10
-219.67627095
 20
-32.82162492
  0
VERTEX
  8
0
 10
-219.79632901
 20
-32.58091650
  0
VERTEX
  8
0
 10
-219.89527902
 20
-32.33320558
  0
VERTEX
  8
0
 10
-219.97133839
 20
-32.07790807
  0
VERTEX
  8
0
 10
-220.02272449
 20
-31.81443985
  0
VERTEX
  8
0
 10
-220.04765471
 20
-31.54221683
  0
VERTEX
  8
0
 10
-220.04340008
 20
-31.26670200
  0
VERTEX
  8
0
 10
-220.00971763
 20
-30.99360594
  0
VERTEX
  8
0
 10
-219.94855379
 20
-30.72271599
  0
VERTEX
  8
0
 10
-219.86185496
 20
-30.45381949
  0
VERTEX
  8
0
 10
-219.75156756
 20
-30.18670376
  0
VERTEX
  8
0
 10
-219.61963801
 20
-29.92115614
  0
VERTEX
  8
0
 10
-219.46801273
 20
-29.65696394
  0
VERTEX
  8
0
 10
-219.29863811
 20
-29.39391452
  0
VERTEX
  8
0
 10
-218.91442658
 20
-28.87039328
  0
VERTEX
  8
0
 10
-218.48257474
 20
-28.34889107
  0
VERTEX
  8
0
 10
-218.01865390
 20
-27.82770653
  0
VERTEX
  8
0
 10
-217.53823540
 20
-27.30513830
  0
VERTEX
  8
0
 10
-217.05689054
 20
-26.77948504
  0
VERTEX
  8
0
 10
-216.59019066
 20
-26.24904537
  0
VERTEX
  8
0
 10
-216.15370707
 20
-25.71211796
  0
VERTEX
  8
0
 10
-215.76301109
 20
-25.16700144
  0
VERTEX
  8
0
 10
-215.58969949
 20
-24.89084059
  0
VERTEX
  8
0
 10
-215.43367404
 20
-24.61199446
  0
VERTEX
  8
0
 10
-215.29688115
 20
-24.33025037
  0
VERTEX
  8
0
 10
-215.18126725
 20
-24.04539566
  0
VERTEX
  8
0
 10
-215.08877874
 20
-23.75721766
  0
VERTEX
  8
0
 10
-215.02136203
 20
-23.46550369
  0
VERTEX
  8
0
 10
-214.98096355
 20
-23.17004109
  0
VERTEX
  8
0
 10
-214.96952971
 20
-22.87061719
  0
VERTEX
  8
0
 10
-214.98762538
 20
-22.57309594
  0
VERTEX
  8
0
 10
-215.03328494
 20
-22.28315480
  0
VERTEX
  8
0
 10
-215.10465906
 20
-22.00030133
  0
VERTEX
  8
0
 10
-215.19989844
 20
-21.72404312
  0
VERTEX
  8
0
 10
-215.31715375
 20
-21.45388774
  0
VERTEX
  8
0
 10
-215.45457567
 20
-21.18934277
  0
VERTEX
  8
0
 10
-215.61031489
 20
-20.92991577
  0
VERTEX
  8
0
 10
-215.78252207
 20
-20.67511432
  0
VERTEX
  8
0
 10
-216.16894307
 20
-20.17741840
  0
VERTEX
  8
0
 10
-216.59904413
 20
-19.69231559
  0
VERTEX
  8
0
 10
-217.05803067
 20
-19.21586649
  0
VERTEX
  8
0
 10
-217.53110815
 20
-18.74413171
  0
VERTEX
  8
0
 10
-218.00348201
 20
-18.27317185
  0
VERTEX
  8
0
 10
-218.46035769
 20
-17.79904749
  0
VERTEX
  8
0
 10
-218.88694062
 20
-17.31781925
  0
VERTEX
  8
0
 10
-219.26843626
 20
-16.82554773
  0
VERTEX
  8
0
 10
-219.43765305
 20
-16.57403967
  0
VERTEX
  8
0
 10
-219.59005005
 20
-16.31829352
  0
VERTEX
  8
0
 10
-219.72377795
 20
-16.05781684
  0
VERTEX
  8
0
 10
-219.83698743
 20
-15.79211722
  0
VERTEX
  8
0
 10
-219.92782916
 20
-15.52070223
  0
VERTEX
  8
0
 10
-219.99445383
 20
-15.24307943
  0
VERTEX
  8
0
 10
-220.03501212
 20
-14.95875642
  0
VERTEX
  8
0
 10
-220.04765471
 20
-14.66724076
  0
VERTEX
  8
0
 10
-220.03127460
 20
-14.37621140
  0
VERTEX
  8
0
 10
-219.98722989
 20
-14.09331413
  0
VERTEX
  8
0
 10
-219.91736891
 20
-13.81800681
  0
VERTEX
  8
0
 10
-219.82353997
 20
-13.54974727
  0
VERTEX
  8
0
 10
-219.70759139
 20
-13.28799337
  0
VERTEX
  8
0
 10
-219.57137151
 20
-13.03220296
  0
VERTEX
  8
0
 10
-219.41672864
 20
-12.78183387
  0
VERTEX
  8
0
 10
-219.24551111
 20
-12.53634396
  0
VERTEX
  8
0
 10
-218.86074534
 20
-12.05783306
  0
VERTEX
  8
0
 10
-218.43186079
 20
-11.59233305
  0
VERTEX
  8
0
 10
-217.97364403
 20
-11.13550668
  0
VERTEX
  8
0
 10
-217.50088165
 20
-10.68301675
  0
VERTEX
  8
0
 10
-217.02836022
 20
-10.23052603
  0
VERTEX
  8
0
 10
-216.57086633
 20
-9.77369729
  0
VERTEX
  8
0
 10
-216.14318655
 20
-9.30819333
  0
VERTEX
  8
0
 10
-215.76010747
 20
-8.82967690
  0
VERTEX
  8
0
 10
-215.58991399
 20
-8.58418364
  0
VERTEX
  8
0
 10
-215.43641566
 20
-8.33381080
  0
VERTEX
  8
0
 10
-215.30146080
 20
-8.07801623
  0
VERTEX
  8
0
 10
-215.18689771
 20
-7.81625779
  0
VERTEX
  8
0
 10
-215.09457474
 20
-7.54799332
  0
VERTEX
  8
0
 10
-215.02634020
 20
-7.27268066
  0
VERTEX
  8
0
 10
-214.98404242
 20
-6.98977767
  0
VERTEX
  8
0
 10
-214.96952971
 20
-6.69874219
  0
VERTEX
  8
0
 10
-214.98387366
 20
-6.40770320
  0
VERTEX
  8
0
 10
-215.02570217
 20
-6.12479007
  0
VERTEX
  8
0
 10
-215.09319807
 20
-5.84946125
  0
VERTEX
  8
0
 10
-215.18454417
 20
-5.58117515
  0
VERTEX
  8
0
 10
-215.29792328
 20
-5.31939023
  0
VERTEX
  8
0
 10
-215.43151823
 20
-5.06356490
  0
VERTEX
  8
0
 10
-215.58351183
 20
-4.81315762
  0
VERTEX
  8
0
 10
-215.75208690
 20
-4.56762681
  0
VERTEX
  8
0
 10
-216.13171273
 20
-4.08902834
  0
VERTEX
  8
0
 10
-216.55585824
 20
-3.62343699
  0
VERTEX
  8
0
 10
-217.00998597
 20
-3.16652022
  0
VERTEX
  8
0
 10
-217.47955848
 20
-2.71394553
  0
VERTEX
  8
0
 10
-217.95003828
 20
-2.26138037
  0
VERTEX
  8
0
 10
-218.40688793
 20
-1.80449225
  0
VERTEX
  8
0
 10
-218.83556996
 20
-1.33894863
  0
VERTEX
  8
0
 10
-219.22154691
 20
-0.86041699
  0
VERTEX
  8
0
 10
-219.39397803
 20
-0.61492675
  0
VERTEX
  8
0
 10
-219.55028133
 20
-0.36456481
  0
VERTEX
  8
0
 10
-219.68863962
 20
-0.10878960
  0
VERTEX
  8
0
 10
-219.80723574
 20
0.15294043
  0
VERTEX
  8
0
 10
-219.90425249
 20
0.42116686
  0
VERTEX
  8
0
 10
-219.97787269
 20
0.69643125
  0
VERTEX
  8
0
 10
-220.02627915
 20
0.97927516
  0
VERTEX
  8
0
 10
-220.04765471
 20
1.27024017
  0
VERTEX
  8
0
 10
-220.03989565
 20
1.56313352
  0
VERTEX
  8
0
 10
-220.00337780
 20
1.85163172
  0
VERTEX
  8
0
 10
-219.94000328
 20
2.13608023
  0
VERTEX
  8
0
 10
-219.85167423
 20
2.41682448
  0
VERTEX
  8
0
 10
-219.74029275
 20
2.69420994
  0
VERTEX
  8
0
 10
-219.60776097
 20
2.96858204
  0
VERTEX
  8
0
 10
-219.45598101
 20
3.24028623
  0
VERTEX
  8
0
 10
-219.28685499
 20
3.50966797
  0
VERTEX
  8
0
 10
-218.90417328
 20
4.04284586
  0
VERTEX
  8
0
 10
-218.47493279
 20
4.57087931
  0
VERTEX
  8
0
 10
-218.01435051
 20
5.09653189
  0
VERTEX
  8
0
 10
-217.53764341
 20
5.62256719
  0
VERTEX
  8
0
 10
-217.06002846
 20
6.15174879
  0
VERTEX
  8
0
 10
-216.59672263
 20
6.68684029
  0
VERTEX
  8
0
 10
-216.16294289
 20
7.23060527
  0
VERTEX
  8
0
 10
-215.77390623
 20
7.78580731
  0
VERTEX
  8
0
 10
-215.60092185
 20
8.06856085
  0
VERTEX
  8
0
 10
-215.44482960
 20
8.35521000
  0
VERTEX
  8
0
 10
-215.30753161
 20
8.64610020
  0
VERTEX
  8
0
 10
-215.19092999
 20
8.94157692
  0
VERTEX
  8
0
 10
-215.09692687
 20
9.24198559
  0
VERTEX
  8
0
 10
-215.02742437
 20
9.54767166
  0
VERTEX
  8
0
 10
-214.98432461
 20
9.85898059
  0
VERTEX
  8
0
 10
-214.96952971
 20
10.17625781
  0
VERTEX
  8
0
 10
-214.98430928
 20
10.49353904
  0
VERTEX
  8
0
 10
-215.02739664
 20
10.80485960
  0
VERTEX
  8
0
 10
-215.09688947
 20
11.11056438
  0
VERTEX
  8
0
 10
-215.19088546
 20
11.41099824
  0
VERTEX
  8
0
 10
-215.30748229
 20
11.70650607
  0
VERTEX
  8
0
 10
-215.44477764
 20
11.99743275
  0
VERTEX
  8
0
 10
-215.60086921
 20
12.28412315
  0
VERTEX
  8
0
 10
-215.77385467
 20
12.56692216
  0
VERTEX
  8
0
 10
-216.16289803
 20
13.12222551
  0
VERTEX
  8
0
 10
-216.59668918
 20
13.66610182
  0
VERTEX
  8
0
 10
-217.06000961
 20
14.20131013
  0
VERTEX
  8
0
 10
-217.53764079
 20
14.73060946
  0
VERTEX
  8
0
 10
-218.01436421
 20
15.25675885
  0
VERTEX
  8
0
 10
-218.47496134
 20
15.78251732
  0
VERTEX
  8
0
 10
-218.90421365
 20
16.31064391
  0
VERTEX
  8
0
 10
-219.28690262
 20
16.84389764
  0
VERTEX
  8
0
 10
-219.45603007
 20
17.11330938
  0
VERTEX
  8
0
 10
-219.60780974
 20
17.38503754
  0
VERTEX
  8
0
 10
-219.74033931
 20
17.65942701
  0
VERTEX
  8
0
 10
-219.85171647
 20
17.93682266
  0
VERTEX
  8
0
 10
-219.94003891
 20
18.21756936
  0
VERTEX
  8
0
 10
-220.00340431
 20
18.50201201
  0
VERTEX
  8
0
 10
-220.03991034
 20
18.79049547
  0
VERTEX
  8
0
 10
-220.04765471
 20
19.08336462
  0
VERTEX
  8
0
 10
-220.02626449
 20
19.37429966
  0
VERTEX
  8
0
 10
-219.97784631
 20
19.65711201
  0
VERTEX
  8
0
 10
-219.90421714
 20
19.93234335
  0
VERTEX
  8
0
 10
-219.80719398
 20
20.20053539
  0
VERTEX
  8
0
 10
-219.68859380
 20
20.46222983
  0
VERTEX
  8
0
 10
-219.55023358
 20
20.71796836
  0
VERTEX
  8
0
 10
-219.39393031
 20
20.96829269
  0
VERTEX
  8
0
 10
-219.22150097
 20
21.21374453
  0
VERTEX
  8
0
 10
-218.83553200
 20
21.69219748
  0
VERTEX
  8
0
 10
-218.40686255
 20
22.15766083
  0
VERTEX
  8
0
 10
-217.95002845
 20
22.61446817
  0
VERTEX
  8
0
 10
-217.47956558
 20
23.06695310
  0
VERTEX
  8
0
 10
-217.01000980
 20
23.51944923
  0
VERTEX
  8
0
 10
-216.55589695
 20
23.97629014
  0
VERTEX
  8
0
 10
-216.13176290
 20
24.44180944
  0
VERTEX
  8
0
 10
-215.75214351
 20
24.92034074
  0
VERTEX
  8
0
 10
-215.58356927
 20
25.16584013
  0
VERTEX
  8
0
 10
-215.43157464
 20
25.41621762
  0
VERTEX
  8
0
 10
-215.29797660
 20
25.67201491
  0
VERTEX
  8
0
 10
-215.18459214
 20
25.93377370
  0
VERTEX
  8
0
 10
-215.09323824
 20
26.20203568
  0
VERTEX
  8
0
 10
-215.02573188
 20
26.47734256
  0
VERTEX
  8
0
 10
-214.98389004
 20
26.76023604
  0
VERTEX
  8
0
 10
-214.96952971
 20
27.05125781
  0
VERTEX
  8
0
 10
-214.98393647
 20
27.34228152
  0
VERTEX
  8
0
 10
-215.02596380
 20
27.62518078
  0
VERTEX
  8
0
 10
-215.09378050
 20
27.90049722
  0
VERTEX
  8
0
 10
-215.18555540
 20
28.16877247
  0
VERTEX
  8
0
 10
-215.29945729
 20
28.43054818
  0
VERTEX
  8
0
 10
-215.43365500
 20
28.68636598
  0
VERTEX
  8
0
 10
-215.58631734
 20
28.93676751
  0
VERTEX
  8
0
 10
-215.75561311
 20
29.18229440
  0
VERTEX
  8
0
 10
-216.13678023
 20
29.66089086
  0
VERTEX
  8
0
 10
-216.56250684
 20
30.12648844
  0
VERTEX
  8
0
 10
-217.01814345
 20
30.58342024
  0
VERTEX
  8
0
 10
-217.48904055
 20
31.03601938
  0
VERTEX
  8
0
 10
-217.96054864
 20
31.48861895
  0
VERTEX
  8
0
 10
-218.41801822
 20
31.94555205
  0
VERTEX
  8
0
 10
-218.84679978
 20
32.41115179
  0
VERTEX
  8
0
 10
-219.23224382
 20
32.88975127
  0
VERTEX
  8
0
 10
-219.40413630
 20
33.13528001
  0
VERTEX
  8
0
 10
-219.55970083
 20
33.38568359
  0
VERTEX
  8
0
 10
-219.69710624
 20
33.64150367
  0
VERTEX
  8
0
 10
-219.81452132
 20
33.90328186
  0
VERTEX
  8
0
 10
-219.91011490
 20
34.17155982
  0
VERTEX
  8
0
 10
-219.98205578
 20
34.44687917
  0
VERTEX
  8
0
 10
-220.02851278
 20
34.72978156
  0
VERTEX
  8
0
 10
-220.04765471
 20
35.02080863
  0
VERTEX
  8
0
 10
-220.03616276
 20
35.31501611
  0
VERTEX
  8
0
 10
-219.99333206
 20
35.60722637
  0
VERTEX
  8
0
 10
-219.92125230
 20
35.89763097
  0
VERTEX
  8
0
 10
-219.82201317
 20
36.18642149
  0
VERTEX
  8
0
 10
-219.69770437
 20
36.47378949
  0
VERTEX
  8
0
 10
-219.55041560
 20
36.75992655
  0
VERTEX
  8
0
 10
-219.38223656
 20
37.04502422
  0
VERTEX
  8
0
 10
-219.19525693
 20
37.32927409
  0
VERTEX
  8
0
 10
-218.77325470
 20
37.89599667
  0
VERTEX
  8
0
 10
-218.30112650
 20
38.46162685
  0
VERTEX
  8
0
 10
-217.79558987
 20
39.02769717
  0
VERTEX
  8
0
 10
-217.27336240
 20
39.59574019
  0
VERTEX
  8
0
 10
-216.75116164
 20
40.16728846
  0
VERTEX
  8
0
 10
-216.24570515
 20
40.74387453
  0
VERTEX
  8
0
 10
-215.77371051
 20
41.32703096
  0
VERTEX
  8
0
 10
-215.35189528
 20
41.91829030
  0
VERTEX
  8
0
 10
-215.16502918
 20
42.21743748
  0
VERTEX
  8
0
 10
-214.99697701
 20
42.51918510
  0
VERTEX
  8
0
 10
-214.84982849
 20
42.82372472
  0
VERTEX
  8
0
 10
-214.72567329
 20
43.13124792
  0
VERTEX
  8
0
 10
-214.62660112
 20
43.44194626
  0
VERTEX
  8
0
 10
-214.55470167
 20
43.75601130
  0
VERTEX
  8
0
 10
-214.51206463
 20
44.07363463
  0
VERTEX
  8
0
 10
-214.50077971
 20
44.39500781
  0
VERTEX
  8
0
 10
-214.51621886
 20
44.71522224
  0
VERTEX
  8
0
 10
-214.55170368
 20
45.02943829
  0
VERTEX
  8
0
 10
-214.60624830
 20
45.33795095
  0
VERTEX
  8
0
 10
-214.67886689
 20
45.64105522
  0
VERTEX
  8
0
 10
-214.76857359
 20
45.93904612
  0
VERTEX
  8
0
 10
-214.87438254
 20
46.23221865
  0
VERTEX
  8
0
 10
-215.13036381
 20
46.80528858
  0
VERTEX
  8
0
 10
-215.43892387
 20
47.36262503
  0
VERTEX
  8
0
 10
-215.79217591
 20
47.90658804
  0
VERTEX
  8
0
 10
-216.18223310
 20
48.43953761
  0
VERTEX
  8
0
 10
-216.60120863
 20
48.96383377
  0
VERTEX
  8
0
 10
-217.04121568
 20
49.48183654
  0
VERTEX
  8
0
 10
-217.49436743
 20
49.99590595
  0
VERTEX
  8
0
 10
-218.40855774
 20
51.02168473
  0
VERTEX
  8
0
 10
-218.85382267
 20
51.53811416
  0
VERTEX
  8
0
 10
-219.28068502
 20
52.06005030
  0
VERTEX
  8
0
 10
-219.68125797
 20
52.58985318
  0
VERTEX
  8
0
 10
-220.12890471
 20
53.14453125
  0
VERTEX
  8
0
 10
-183.87321425
 20
53.14453125
  0
VERTEX
  8
0
 10
-183.87321721
 20
47.15332031
  0
VERTEX
  8
0
 10
-156.86149846
 20
47.15332031
  0
VERTEX
  8
0
 10
-156.86149449
 20
53.14453125
  0
VERTEX
  8
0
 10
-102.87468206
 20
53.14453125
  0
VERTEX
  8
0
 10
-102.86735784
 20
47.15332031
  0
VERTEX
  8
0
 10
-75.88493596
 20
47.09472656
  0
VERTEX
  8
0
 10
-75.88483688
 20
53.14453125
  0
VERTEX
  8
0
 10
-48.87577407
 20
53.14453125
  0
VERTEX
  8
0
 10
-48.89042815
 20
30.02929687
  0
SEQEND
  0
POLYLINE
  8
�����_�������
 66
   1
 39
0.000000
 70
    1
  0
VERTEX
  8
0
 10
-24.39840812
 20
382.54147672
  0
VERTEX
  8
0
 10
-15.03542411
 20
382.54147672
  0
VERTEX
  8
0
 10
-15.03542411
 20
456.75856784
  0
VERTEX
  8
0
 10
-15.11212973
 20
457.01445625
  0
VERTEX
  8
0
 10
-15.14976759
 20
458.01402732
  0
VERTEX
  8
0
 10
-15.20705126
 20
459.01213602
  0
VERTEX
  8
0
 10
-15.28393237
 20
460.00852388
  0
VERTEX
  8
0
 10
-15.38036257
 20
461.00293243
  0
VERTEX
  8
0
 10
-15.49629348
 20
461.99510319
  0
VERTEX
  8
0
 10
-15.63167675
 20
462.98477769
  0
VERTEX
  8
0
 10
-15.78646401
 20
463.97169745
  0
VERTEX
  8
0
 10
-15.96060689
 20
464.95560399
  0
VERTEX
  8
0
 10
-16.15405704
 20
465.93623885
  0
VERTEX
  8
0
 10
-16.36676608
 20
466.91334354
  0
VERTEX
  8
0
 10
-16.59868565
 20
467.88665960
  0
VERTEX
  8
0
 10
-16.84976739
 20
468.85592854
  0
VERTEX
  8
0
 10
-17.11996293
 20
469.82089190
  0
VERTEX
  8
0
 10
-17.40922391
 20
470.78129119
  0
VERTEX
  8
0
 10
-17.71750197
 20
471.73686795
  0
VERTEX
  8
0
 10
-18.04474874
 20
472.68736370
  0
VERTEX
  8
0
 10
-18.48314086
 20
473.87258100
  0
VERTEX
  8
0
 10
-18.95024813
 20
475.04651754
  0
VERTEX
  8
0
 10
-19.44580264
 20
476.20872231
  0
VERTEX
  8
0
 10
-19.96953649
 20
477.35874426
  0
VERTEX
  8
0
 10
-20.52118176
 20
478.49613238
  0
VERTEX
  8
0
 10
-21.10047056
 20
479.62043562
  0
VERTEX
  8
0
 10
-21.70713497
 20
480.73120297
  0
VERTEX
  8
0
 10
-22.34090708
 20
481.82798339
  0
VERTEX
  8
0
 10
-23.00151898
 20
482.91032585
  0
VERTEX
  8
0
 10
-23.68870278
 20
483.97777933
  0
VERTEX
  8
0
 10
-24.40219054
 20
485.02989278
  0
VERTEX
  8
0
 10
-25.14171438
 20
486.06621520
  0
VERTEX
  8
0
 10
-25.90700638
 20
487.08629553
  0
VERTEX
  8
0
 10
-26.69779863
 20
488.08968277
  0
VERTEX
  8
0
 10
-27.51382323
 20
489.07592586
  0
VERTEX
  8
0
 10
-28.35481226
 20
490.04457380
  0
VERTEX
  8
0
 10
-29.32641074
 20
491.10986443
  0
VERTEX
  8
0
 10
-30.32588908
 20
492.14921291
  0
VERTEX
  8
0
 10
-31.35264440
 20
493.16217462
  0
VERTEX
  8
0
 10
-32.40607381
 20
494.14830496
  0
VERTEX
  8
0
 10
-33.48557444
 20
495.10715932
  0
VERTEX
  8
0
 10
-34.59054339
 20
496.03829310
  0
VERTEX
  8
0
 10
-35.72037779
 20
496.94126170
  0
VERTEX
  8
0
 10
-36.87447476
 20
497.81562050
  0
VERTEX
  8
0
 10
-38.05223140
 20
498.66092490
  0
VERTEX
  8
0
 10
-39.25304484
 20
499.47673029
  0
VERTEX
  8
0
 10
-40.47631220
 20
500.26259207
  0
VERTEX
  8
0
 10
-41.72143058
 20
501.01806564
  0
VERTEX
  8
0
 10
-42.98779712
 20
501.74270638
  0
VERTEX
  8
0
 10
-44.27480892
 20
502.43606969
  0
VERTEX
  8
0
 10
-45.58186310
 20
503.09771097
  0
VERTEX
  8
0
 10
-46.90835678
 20
503.72718561
  0
VERTEX
  8
0
 10
-48.15493677
 20
504.28071773
  0
VERTEX
  8
0
 10
-49.41409776
 20
504.80437203
  0
VERTEX
  8
0
 10
-50.68524036
 20
505.29800124
  0
VERTEX
  8
0
 10
-51.96776517
 20
505.76145811
  0
VERTEX
  8
0
 10
-53.26107280
 20
506.19459537
  0
VERTEX
  8
0
 10
-54.56456383
 20
506.59726574
  0
VERTEX
  8
0
 10
-55.87763887
 20
506.96932199
  0
VERTEX
  8
0
 10
-57.19969852
 20
507.31061682
  0
VERTEX
  8
0
 10
-58.53014339
 20
507.62100300
  0
VERTEX
  8
0
 10
-59.86837406
 20
507.90033324
  0
VERTEX
  8
0
 10
-61.21379116
 20
508.14846029
  0
VERTEX
  8
0
 10
-62.56579526
 20
508.36523688
  0
VERTEX
  8
0
 10
-63.92378698
 20
508.55051576
  0
VERTEX
  8
0
 10
-65.28716691
 20
508.70414965
  0
VERTEX
  8
0
 10
-66.65533566
 20
508.82599129
  0
VERTEX
  8
0
 10
-68.02769382
 20
508.91589342
  0
VERTEX
  8
0
 10
-69.76884044
 20
508.98541996
  0
VERTEX
  8
0
 10
-71.51017305
 20
509.00390625
  0
VERTEX
  8
0
 10
-73.25045811
 20
508.97142955
  0
VERTEX
  8
0
 10
-74.98846211
 20
508.88806715
  0
VERTEX
  8
0
 10
-76.72295152
 20
508.75389631
  0
VERTEX
  8
0
 10
-78.45269282
 20
508.56899431
  0
VERTEX
  8
0
 10
-80.17645246
 20
508.33343842
  0
VERTEX
  8
0
 10
-81.89299694
 20
508.04730592
  0
VERTEX
  8
0
 10
-83.36706373
 20
507.75861698
  0
VERTEX
  8
0
 10
-84.83058255
 20
507.43274100
  0
VERTEX
  8
0
 10
-86.28280941
 20
507.06998071
  0
VERTEX
  8
0
 10
-87.72300035
 20
506.67063882
  0
VERTEX
  8
0
 10
-89.15041138
 20
506.23501804
  0
VERTEX
  8
0
 10
-90.56429852
 20
505.76342110
  0
VERTEX
  8
0
 10
-91.96391779
 20
505.25615070
  0
VERTEX
  8
0
 10
-93.34852521
 20
504.71350957
  0
VERTEX
  8
0
 10
-94.71737680
 20
504.13580043
  0
VERTEX
  8
0
 10
-96.06972858
 20
503.52332598
  0
VERTEX
  8
0
 10
-97.40483657
 20
502.87638895
  0
VERTEX
  8
0
 10
-98.72195679
 20
502.19529205
  0
VERTEX
  8
0
 10
-100.02034527
 20
501.48033801
  0
VERTEX
  8
0
 10
-101.29925802
 20
500.73182953
  0
VERTEX
  8
0
 10
-102.55795106
 20
499.95006933
  0
VERTEX
  8
0
 10
-103.79568041
 20
499.13536013
  0
VERTEX
  8
0
 10
-105.16166893
 20
498.18141919
  0
VERTEX
  8
0
 10
-106.49482404
 20
497.19045142
  0
VERTEX
  8
0
 10
-107.79440341
 20
496.16327335
  0
VERTEX
  8
0
 10
-109.05966470
 20
495.10070149
  0
VERTEX
  8
0
 10
-110.28986560
 20
494.00355235
  0
VERTEX
  8
0
 10
-111.48426377
 20
492.87264245
  0
VERTEX
  8
0
 10
-112.64211689
 20
491.70878830
  0
VERTEX
  8
0
 10
-113.76268263
 20
490.51280642
  0
VERTEX
  8
0
 10
-114.84521866
 20
489.28551331
  0
VERTEX
  8
0
 10
-115.88898266
 20
488.02772550
  0
VERTEX
  8
0
 10
-116.89323229
 20
486.74025950
  0
VERTEX
  8
0
 10
-117.85722523
 20
485.42393181
  0
VERTEX
  8
0
 10
-118.78021916
 20
484.07955896
  0
VERTEX
  8
0
 10
-119.66147174
 20
482.70795746
  0
VERTEX
  8
0
 10
-120.50024065
 20
481.30994382
  0
VERTEX
  8
0
 10
-121.29578356
 20
479.88633456
  0
VERTEX
  8
0
 10
-121.94486429
 20
478.64021137
  0
VERTEX
  8
0
 10
-122.55879748
 20
477.37989699
  0
VERTEX
  8
0
 10
-123.13738896
 20
476.10607268
  0
VERTEX
  8
0
 10
-123.68044458
 20
474.81941972
  0
VERTEX
  8
0
 10
-124.18777016
 20
473.52061937
  0
VERTEX
  8
0
 10
-124.65917156
 20
472.21035292
  0
VERTEX
  8
0
 10
-125.09445462
 20
470.88930162
  0
VERTEX
  8
0
 10
-125.49342517
 20
469.55814675
  0
VERTEX
  8
0
 10
-125.85588905
 20
468.21756958
  0
VERTEX
  8
0
 10
-126.18165210
 20
466.86825138
  0
VERTEX
  8
0
 10
-126.47052017
 20
465.51087342
  0
VERTEX
  8
0
 10
-126.72229910
 20
464.14611697
  0
VERTEX
  8
0
 10
-126.93679472
 20
462.77466331
  0
VERTEX
  8
0
 10
-127.11381287
 20
461.39719370
  0
VERTEX
  8
0
 10
-127.25315941
 20
460.01438941
  0
VERTEX
  8
0
 10
-127.35464015
 20
458.62693172
  0
VERTEX
  8
0
 10
-127.41239853
 20
457.42949408
  0
VERTEX
  8
0
 10
-127.44226872
 20
456.23113268
  0
VERTEX
  8
0
 10
-127.44777876
 20
455.26323256
  0
VERTEX
  8
0
 10
-127.39123225
 20
454.44682090
  0
VERTEX
  8
0
 10
-127.44806407
 20
382.54147672
  0
VERTEX
  8
0
 10
-118.02824823
 20
382.54147672
  0
VERTEX
  8
0
 10
-118.02824823
 20
455.57241455
  0
VERTEX
  8
0
 10
-118.03693115
 20
455.58482720
  0
VERTEX
  8
0
 10
-118.05603356
 20
455.55744336
  0
VERTEX
  8
0
 10
-118.07513597
 20
455.53005953
  0
VERTEX
  8
0
 10
-118.08381888
 20
455.54247218
  0
VERTEX
  8
0
 10
-118.06852878
 20
456.69235195
  0
VERTEX
  8
0
 10
-118.02290360
 20
457.83505760
  0
VERTEX
  8
0
 10
-117.94731102
 20
458.97023922
  0
VERTEX
  8
0
 10
-117.84211873
 20
460.09754691
  0
VERTEX
  8
0
 10
-117.70769440
 20
461.21663076
  0
VERTEX
  8
0
 10
-117.54440574
 20
462.32714089
  0
VERTEX
  8
0
 10
-117.35262040
 20
463.42872737
  0
VERTEX
  8
0
 10
-117.13270609
 20
464.52104032
  0
VERTEX
  8
0
 10
-116.88503049
 20
465.60372983
  0
VERTEX
  8
0
 10
-116.60996127
 20
466.67644599
  0
VERTEX
  8
0
 10
-116.30786613
 20
467.73883891
  0
VERTEX
  8
0
 10
-115.97911274
 20
468.79055868
  0
VERTEX
  8
0
 10
-115.62406878
 20
469.83125540
  0
VERTEX
  8
0
 10
-115.24310196
 20
470.86057916
  0
VERTEX
  8
0
 10
-114.83657993
 20
471.87818007
  0
VERTEX
  8
0
 10
-114.40487040
 20
472.88370822
  0
VERTEX
  8
0
 10
-113.94834104
 20
473.87681372
  0
VERTEX
  8
0
 10
-113.46735954
 20
474.85714665
  0
VERTEX
  8
0
 10
-112.96229357
 20
475.82435711
  0
VERTEX
  8
0
 10
-112.43351083
 20
476.77809521
  0
VERTEX
  8
0
 10
-111.88137900
 20
477.71801104
  0
VERTEX
  8
0
 10
-111.30626576
 20
478.64375470
  0
VERTEX
  8
0
 10
-110.70853880
 20
479.55497629
  0
VERTEX
  8
0
 10
-110.08856579
 20
480.45132590
  0
VERTEX
  8
0
 10
-109.44671442
 20
481.33245363
  0
VERTEX
  8
0
 10
-108.78335238
 20
482.19800958
  0
VERTEX
  8
0
 10
-108.09884735
 20
483.04764384
  0
VERTEX
  8
0
 10
-107.39356701
 20
483.88100653
  0
VERTEX
  8
0
 10
-106.66787905
 20
484.69774772
  0
VERTEX
  8
0
 10
-105.92215115
 20
485.49751752
  0
VERTEX
  8
0
 10
-105.15675099
 20
486.27996604
  0
VERTEX
  8
0
 10
-104.37204626
 20
487.04474335
  0
VERTEX
  8
0
 10
-103.56840464
 20
487.79149957
  0
VERTEX
  8
0
 10
-102.74619381
 20
488.51988480
  0
VERTEX
  8
0
 10
-101.90578146
 20
489.22954912
  0
VERTEX
  8
0
 10
-101.04753527
 20
489.92014263
  0
VERTEX
  8
0
 10
-100.17182293
 20
490.59131544
  0
VERTEX
  8
0
 10
-99.27901211
 20
491.24271764
  0
VERTEX
  8
0
 10
-98.36947051
 20
491.87399933
  0
VERTEX
  8
0
 10
-97.44356580
 20
492.48481061
  0
VERTEX
  8
0
 10
-96.50166567
 20
493.07480157
  0
VERTEX
  8
0
 10
-95.54413781
 20
493.64362232
  0
VERTEX
  8
0
 10
-94.57134989
 20
494.19092294
  0
VERTEX
  8
0
 10
-93.58366960
 20
494.71635354
  0
VERTEX
  8
0
 10
-92.58146462
 20
495.21956422
  0
VERTEX
  8
0
 10
-91.56510264
 20
495.70020507
  0
VERTEX
  8
0
 10
-90.53495135
 20
496.15792619
  0
VERTEX
  8
0
 10
-89.49137841
 20
496.59237768
  0
VERTEX
  8
0
 10
-88.43475153
 20
497.00320964
  0
VERTEX
  8
0
 10
-87.36543837
 20
497.39007216
  0
VERTEX
  8
0
 10
-86.28380663
 20
497.75261534
  0
VERTEX
  8
0
 10
-85.19022399
 20
498.09048928
  0
VERTEX
  8
0
 10
-84.08505814
 20
498.40334407
  0
VERTEX
  8
0
 10
-82.96867674
 20
498.69082982
  0
VERTEX
  8
0
 10
-81.84144750
 20
498.95259663
  0
VERTEX
  8
0
 10
-80.70373809
 20
499.18829458
  0
VERTEX
  8
0
 10
-79.55591620
 20
499.39757378
  0
VERTEX
  8
0
 10
-78.39834950
 20
499.58008433
  0
VERTEX
  8
0
 10
-77.23140569
 20
499.73547631
  0
VERTEX
  8
0
 10
-76.05545245
 20
499.86339984
  0
VERTEX
  8
0
 10
-74.87085746
 20
499.96350501
  0
VERTEX
  8
0
 10
-73.67798840
 20
500.03544192
  0
VERTEX
  8
0
 10
-72.47721296
 20
500.07886065
  0
VERTEX
  8
0
 10
-71.26889882
 20
500.09341132
  0
VERTEX
  8
0
 10
-70.06058469
 20
500.07886065
  0
VERTEX
  8
0
 10
-68.85980925
 20
500.03544192
  0
VERTEX
  8
0
 10
-67.66694019
 20
499.96350501
  0
VERTEX
  8
0
 10
-66.48234520
 20
499.86339984
  0
VERTEX
  8
0
 10
-65.30639196
 20
499.73547631
  0
VERTEX
  8
0
 10
-64.13944815
 20
499.58008433
  0
VERTEX
  8
0
 10
-62.98188145
 20
499.39757378
  0
VERTEX
  8
0
 10
-61.83405956
 20
499.18829458
  0
VERTEX
  8
0
 10
-60.69635015
 20
498.95259663
  0
VERTEX
  8
0
 10
-59.56912091
 20
498.69082982
  0
VERTEX
  8
0
 10
-58.45273951
 20
498.40334407
  0
VERTEX
  8
0
 10
-57.34757366
 20
498.09048928
  0
VERTEX
  8
0
 10
-56.25399101
 20
497.75261534
  0
VERTEX
  8
0
 10
-55.17235928
 20
497.39007216
  0
VERTEX
  8
0
 10
-54.10304612
 20
497.00320964
  0
VERTEX
  8
0
 10
-53.04641924
 20
496.59237768
  0
VERTEX
  8
0
 10
-52.00284630
 20
496.15792619
  0
VERTEX
  8
0
 10
-50.97269500
 20
495.70020507
  0
VERTEX
  8
0
 10
-49.95633303
 20
495.21956422
  0
VERTEX
  8
0
 10
-48.95412805
 20
494.71635354
  0
VERTEX
  8
0
 10
-47.96644776
 20
494.19092294
  0
VERTEX
  8
0
 10
-46.99365984
 20
493.64362232
  0
VERTEX
  8
0
 10
-46.03613198
 20
493.07480157
  0
VERTEX
  8
0
 10
-45.09423185
 20
492.48481061
  0
VERTEX
  8
0
 10
-44.16832714
 20
491.87399933
  0
VERTEX
  8
0
 10
-43.25878554
 20
491.24271764
  0
VERTEX
  8
0
 10
-42.36597472
 20
490.59131544
  0
VERTEX
  8
0
 10
-41.49026238
 20
489.92014263
  0
VERTEX
  8
0
 10
-40.63201619
 20
489.22954912
  0
VERTEX
  8
0
 10
-39.79160384
 20
488.51988480
  0
VERTEX
  8
0
 10
-38.96939301
 20
487.79149957
  0
VERTEX
  8
0
 10
-38.16575139
 20
487.04474335
  0
VERTEX
  8
0
 10
-37.38104666
 20
486.27996604
  0
VERTEX
  8
0
 10
-36.61564650
 20
485.49751752
  0
VERTEX
  8
0
 10
-35.86991860
 20
484.69774772
  0
VERTEX
  8
0
 10
-35.14423064
 20
483.88100653
  0
VERTEX
  8
0
 10
-34.43895030
 20
483.04764384
  0
VERTEX
  8
0
 10
-33.75444527
 20
482.19800958
  0
VERTEX
  8
0
 10
-33.09108323
 20
481.33245363
  0
VERTEX
  8
0
 10
-32.44923186
 20
480.45132590
  0
VERTEX
  8
0
 10
-31.82925885
 20
479.55497629
  0
VERTEX
  8
0
 10
-31.23153189
 20
478.64375470
  0
VERTEX
  8
0
 10
-30.65641865
 20
477.71801104
  0
VERTEX
  8
0
 10
-30.10428682
 20
476.77809521
  0
VERTEX
  8
0
 10
-29.57550408
 20
475.82435711
  0
VERTEX
  8
0
 10
-29.07043811
 20
474.85714665
  0
VERTEX
  8
0
 10
-28.58945661
 20
473.87681372
  0
VERTEX
  8
0
 10
-28.13292725
 20
472.88370822
  0
VERTEX
  8
0
 10
-27.70121772
 20
471.87818007
  0
VERTEX
  8
0
 10
-27.29469569
 20
470.86057916
  0
VERTEX
  8
0
 10
-26.91372886
 20
469.83125540
  0
VERTEX
  8
0
 10
-26.55868491
 20
468.79055868
  0
VERTEX
  8
0
 10
-26.22993152
 20
467.73883891
  0
VERTEX
  8
0
 10
-25.92783638
 20
466.67644599
  0
VERTEX
  8
0
 10
-25.65276716
 20
465.60372983
  0
VERTEX
  8
0
 10
-25.40509155
 20
464.52104032
  0
VERTEX
  8
0
 10
-25.18517724
 20
463.42872737
  0
VERTEX
  8
0
 10
-24.99339191
 20
462.32714089
  0
VERTEX
  8
0
 10
-24.83010325
 20
461.21663076
  0
VERTEX
  8
0
 10
-24.69567892
 20
460.09754691
  0
VERTEX
  8
0
 10
-24.59048663
 20
458.97023922
  0
VERTEX
  8
0
 10
-24.51489405
 20
457.83505760
  0
VERTEX
  8
0
 10
-24.46926887
 20
456.69235195
  0
VERTEX
  8
0
 10
-24.45397877
 20
455.54247218
  0
VERTEX
  8
0
 10
-24.44529585
 20
455.53016126
  0
VERTEX
  8
0
 10
-24.42619344
 20
455.52750471
  0
VERTEX
  8
0
 10
-24.40709103
 20
455.52484817
  0
VERTEX
  8
0
 10
-24.39840812
 20
455.51253725
  0
VERTEX
  8
0
 10
-24.39840812
 20
382.54147672
  0
SEQEND
  0
POLYLINE
  8
�����_�������
 66
   1
 39
0.000000
 70
    1
  0
VERTEX
  8
0
 10
-701.83281474
 20
106.44237305
  0
VERTEX
  8
0
 10
-674.70923805
 20
106.44237305
  0
VERTEX
  8
0
 10
-674.70923805
 20
100.40061908
  0
VERTEX
  8
0
 10
-648.00513649
 20
100.41526752
  0
VERTEX
  8
0
 10
-648.00513649
 20
106.39183002
  0
VERTEX
  8
0
 10
-505.72486305
 20
106.44237305
  0
VERTEX
  8
0
 10
-505.72486305
 20
100.40061908
  0
VERTEX
  8
0
 10
-478.96216774
 20
100.38597064
  0
VERTEX
  8
0
 10
-478.94019508
 20
106.39915424
  0
VERTEX
  8
0
 10
-451.83281474
 20
106.44237305
  0
VERTEX
  8
0
 10
-451.83669255
 20
130.41507988
  0
VERTEX
  8
0
 10
-445.82741630
 20
130.40039062
  0
VERTEX
  8
0
 10
-445.82741630
 20
151.77246094
  0
VERTEX
  8
0
 10
-451.84792411
 20
151.77978516
  0
VERTEX
  8
0
 10
-451.84792411
 20
199.84863281
  0
VERTEX
  8
0
 10
-445.79811942
 20
199.83398438
  0
VERTEX
  8
0
 10
-445.82741630
 20
221.04492188
  0
VERTEX
  8
0
 10
-451.81862723
 20
221.05957031
  0
VERTEX
  8
0
 10
-451.83178348
 20
240.64502930
  0
VERTEX
  8
0
 10
-701.83281474
 20
240.64403320
  0
VERTEX
  8
0
 10
-701.83281474
 20
221.02245117
  0
VERTEX
  8
0
 10
-707.85951786
 20
221.02245117
  0
VERTEX
  8
0
 10
-707.85951786
 20
199.84081055
  0
VERTEX
  8
0
 10
-701.83281474
 20
199.84081055
  0
VERTEX
  8
0
 10
-701.83281474
 20
151.67674805
  0
VERTEX
  8
0
 10
-707.84486942
 20
151.67674805
  0
VERTEX
  8
0
 10
-707.84486942
 20
130.42186523
  0
VERTEX
  8
0
 10
-701.83281474
 20
130.40720667
  0
VERTEX
  8
0
 10
-701.83281474
 20
106.44237305
  0
SEQEND
  0
POLYLINE
  8
�����_�������
 66
   1
 39
0.000000
 70
    1
  0
VERTEX
  8
0
 10
-659.77288772
 20
187.49995396
  0
VERTEX
  8
0
 10
-626.49163772
 20
187.49995396
  0
VERTEX
  8
0
 10
-627.04152871
 20
189.03853183
  0
VERTEX
  8
0
 10
-627.31805733
 20
189.78022779
  0
VERTEX
  8
0
 10
-627.59986305
 20
190.42994720
  0
VERTEX
  8
0
 10
-627.90218955
 20
191.00673847
  0
VERTEX
  8
0
 10
-628.23329338
 20
191.56824285
  0
VERTEX
  8
0
 10
-628.58586008
 20
192.11716359
  0
VERTEX
  8
0
 10
-628.95257522
 20
192.65620396
  0
VERTEX
  8
0
 10
-629.39366482
 20
193.26678900
  0
VERTEX
  8
0
 10
-629.92103715
 20
193.95694899
  0
VERTEX
  8
0
 10
-630.45490118
 20
194.61929506
  0
VERTEX
  8
0
 10
-630.91546585
 20
195.14643833
  0
VERTEX
  8
0
 10
-631.33625878
 20
195.57600009
  0
VERTEX
  8
0
 10
-631.78430533
 20
195.99758530
  0
VERTEX
  8
0
 10
-632.23006104
 20
196.38178063
  0
VERTEX
  8
0
 10
-632.64398147
 20
196.69917271
  0
VERTEX
  8
0
 10
-633.04123038
 20
196.96047282
  0
VERTEX
  8
0
 10
-633.45431741
 20
197.19747061
  0
VERTEX
  8
0
 10
-633.87971693
 20
197.41237022
  0
VERTEX
  8
0
 10
-634.31390335
 20
197.60737583
  0
VERTEX
  8
0
 10
-634.79282135
 20
197.78909562
  0
VERTEX
  8
0
 10
-635.33183601
 20
197.96232094
  0
VERTEX
  8
0
 10
-636.45257522
 20
198.28120396
  0
VERTEX
  8
0
 10
-637.81597700
 20
198.64608853
  0
VERTEX
  8
0
 10
-638.60779763
 20
198.83330379
  0
VERTEX
  8
0
 10
-639.38226272
 20
198.98432896
  0
VERTEX
  8
0
 10
-640.24837278
 20
199.11015078
  0
VERTEX
  8
0
 10
-641.26373579
 20
199.22606361
  0
VERTEX
  8
0
 10
-642.28318648
 20
199.30899973
  0
VERTEX
  8
0
 10
-642.74908057
 20
199.33089288
  0
VERTEX
  8
0
 10
-643.16155960
 20
199.33589146
  0
VERTEX
  8
0
 10
-643.55374848
 20
199.32166497
  0
VERTEX
  8
0
 10
-643.96356543
 20
199.29059077
  0
VERTEX
  8
0
 10
-644.79226077
 20
199.19461248
  0
VERTEX
  8
0
 10
-646.17913772
 20
198.98432896
  0
VERTEX
  8
0
 10
-647.20748334
 20
198.81002422
  0
VERTEX
  8
0
 10
-648.22991897
 20
198.60346958
  0
VERTEX
  8
0
 10
-649.29153421
 20
198.36762309
  0
VERTEX
  8
0
 10
-649.83459568
 20
198.23110465
  0
VERTEX
  8
0
 10
-650.36859085
 20
198.07612583
  0
VERTEX
  8
0
 10
-650.92839928
 20
197.88875638
  0
VERTEX
  8
0
 10
-651.51894434
 20
197.67142357
  0
VERTEX
  8
0
 10
-652.08236509
 20
197.44411598
  0
VERTEX
  8
0
 10
-652.56080055
 20
197.22682220
  0
VERTEX
  8
0
 10
-652.97272504
 20
197.01132966
  0
VERTEX
  8
0
 10
-653.37486730
 20
196.77720757
  0
VERTEX
  8
0
 10
-653.76674797
 20
196.52611714
  0
VERTEX
  8
0
 10
-654.14788772
 20
196.25971958
  0
VERTEX
  8
0
 10
-654.55181469
 20
195.95283108
  0
VERTEX
  8
0
 10
-654.99101836
 20
195.59277733
  0
VERTEX
  8
0
 10
-655.43346140
 20
195.19998377
  0
VERTEX
  8
0
 10
-655.84710647
 20
194.79487583
  0
VERTEX
  8
0
 10
-656.26441975
 20
194.33734433
  0
VERTEX
  8
0
 10
-656.71297647
 20
193.80102581
  0
VERTEX
  8
0
 10
-657.15340288
 20
193.22696433
  0
VERTEX
  8
0
 10
-657.54632522
 20
192.65620396
  0
VERTEX
  8
0
 10
-657.90037207
 20
192.04459061
  0
VERTEX
  8
0
 10
-658.23374557
 20
191.38446310
  0
VERTEX
  8
0
 10
-658.73841912
 20
190.30179920
  0
VERTEX
  8
0
 10
-659.09335822
 20
189.53812513
  0
VERTEX
  8
0
 10
-659.25656610
 20
189.16281729
  0
VERTEX
  8
0
 10
-659.39202835
 20
188.81831333
  0
VERTEX
  8
0
 10
-659.49951420
 20
188.49271757
  0
VERTEX
  8
0
 10
-659.59336560
 20
188.16268394
  0
VERTEX
  8
0
 10
-659.77288772
 20
187.49995396
  0
SEQEND
  0
POLYLINE
  8
�����_�������
 66
   1
 39
0.000000
 70
    1
  0
VERTEX
  8
0
 10
-640.89995680
 20
157.49994720
  0
VERTEX
  8
0
 10
-626.01783180
 20
157.50019720
  0
VERTEX
  8
0
 10
-626.01783180
 20
184.33619720
  0
VERTEX
  8
0
 10
-640.89995680
 20
184.33594720
  0
VERTEX
  8
0
 10
-640.89995680
 20
157.49994720
  0
SEQEND
  0
POLYLINE
  8
�����_�������
 66
   1
 39
0.000000
 70
    1
  0
VERTEX
  8
0
 10
-660.29442555
 20
157.50019720
  0
VERTEX
  8
0
 10
-645.41230055
 20
157.50044720
  0
VERTEX
  8
0
 10
-645.41230055
 20
184.33644720
  0
VERTEX
  8
0
 10
-660.29442555
 20
184.33619720
  0
VERTEX
  8
0
 10
-660.29442555
 20
157.50019720
  0
SEQEND
  0
POLYLINE
  8
�����_�������
 66
   1
 39
0.000000
 70
    1
  0
VERTEX
  8
0
 10
-527.26757298
 20
187.33768555
  0
VERTEX
  8
0
 10
-493.98632298
 20
187.33768555
  0
VERTEX
  8
0
 10
-494.53621397
 20
188.87626342
  0
VERTEX
  8
0
 10
-494.81274259
 20
189.61795938
  0
VERTEX
  8
0
 10
-495.09454831
 20
190.26767879
  0
VERTEX
  8
0
 10
-495.39687481
 20
190.84447006
  0
VERTEX
  8
0
 10
-495.72797864
 20
191.40597444
  0
VERTEX
  8
0
 10
-496.08054534
 20
191.95489518
  0
VERTEX
  8
0
 10
-496.44726048
 20
192.49393555
  0
VERTEX
  8
0
 10
-496.88835008
 20
193.10452059
  0
VERTEX
  8
0
 10
-497.41572241
 20
193.79468058
  0
VERTEX
  8
0
 10
-497.94958644
 20
194.45702665
  0
VERTEX
  8
0
 10
-498.41015111
 20
194.98416992
  0
VERTEX
  8
0
 10
-498.83094404
 20
195.41373168
  0
VERTEX
  8
0
 10
-499.27899059
 20
195.83531689
  0
VERTEX
  8
0
 10
-499.72474630
 20
196.21951222
  0
VERTEX
  8
0
 10
-500.13866673
 20
196.53690430
  0
VERTEX
  8
0
 10
-500.53591564
 20
196.79820441
  0
VERTEX
  8
0
 10
-500.94900267
 20
197.03520220
  0
VERTEX
  8
0
 10
-501.37440219
 20
197.25010181
  0
VERTEX
  8
0
 10
-501.80858861
 20
197.44510742
  0
VERTEX
  8
0
 10
-502.28750661
 20
197.62682721
  0
VERTEX
  8
0
 10
-502.82652127
 20
197.80005253
  0
VERTEX
  8
0
 10
-503.94726048
 20
198.11893555
  0
VERTEX
  8
0
 10
-505.31066226
 20
198.48382012
  0
VERTEX
  8
0
 10
-506.10248289
 20
198.67103538
  0
VERTEX
  8
0
 10
-506.87694798
 20
198.82206055
  0
VERTEX
  8
0
 10
-507.74305804
 20
198.94788237
  0
VERTEX
  8
0
 10
-508.75842105
 20
199.06379520
  0
VERTEX
  8
0
 10
-509.77787174
 20
199.14673132
  0
VERTEX
  8
0
 10
-510.24376583
 20
199.16862447
  0
VERTEX
  8
0
 10
-510.65624486
 20
199.17362305
  0
VERTEX
  8
0
 10
-511.04843374
 20
199.15939656
  0
VERTEX
  8
0
 10
-511.45825069
 20
199.12832236
  0
VERTEX
  8
0
 10
-512.28694603
 20
199.03234407
  0
VERTEX
  8
0
 10
-513.67382298
 20
198.82206055
  0
VERTEX
  8
0
 10
-514.70216860
 20
198.64775581
  0
VERTEX
  8
0
 10
-515.72460423
 20
198.44120117
  0
VERTEX
  8
0
 10
-516.78621947
 20
198.20535468
  0
VERTEX
  8
0
 10
-517.32928094
 20
198.06883624
  0
VERTEX
  8
0
 10
-517.86327611
 20
197.91385742
  0
VERTEX
  8
0
 10
-518.42308454
 20
197.72648797
  0
VERTEX
  8
0
 10
-519.01362960
 20
197.50915516
  0
VERTEX
  8
0
 10
-519.57705035
 20
197.28184757
  0
VERTEX
  8
0
 10
-520.05548581
 20
197.06455379
  0
VERTEX
  8
0
 10
-520.46741030
 20
196.84906125
  0
VERTEX
  8
0
 10
-520.86955256
 20
196.61493916
  0
VERTEX
  8
0
 10
-521.26143323
 20
196.36384873
  0
VERTEX
  8
0
 10
-521.64257298
 20
196.09745117
  0
VERTEX
  8
0
 10
-522.04649995
 20
195.79056267
  0
VERTEX
  8
0
 10
-522.48570362
 20
195.43050892
  0
VERTEX
  8
0
 10
-522.92814666
 20
195.03771536
  0
VERTEX
  8
0
 10
-523.34179173
 20
194.63260742
  0
VERTEX
  8
0
 10
-523.75910501
 20
194.17507592
  0
VERTEX
  8
0
 10
-524.20766173
 20
193.63875740
  0
VERTEX
  8
0
 10
-524.64808814
 20
193.06469592
  0
VERTEX
  8
0
 10
-525.04101048
 20
192.49393555
  0
VERTEX
  8
0
 10
-525.39505733
 20
191.88232220
  0
VERTEX
  8
0
 10
-525.72843083
 20
191.22219469
  0
VERTEX
  8
0
 10
-526.23310438
 20
190.13953079
  0
VERTEX
  8
0
 10
-526.58804348
 20
189.37585672
  0
VERTEX
  8
0
 10
-526.75125136
 20
189.00054888
  0
VERTEX
  8
0
 10
-526.88671361
 20
188.65604492
  0
VERTEX
  8
0
 10
-526.99419946
 20
188.33044916
  0
VERTEX
  8
0
 10
-527.08805086
 20
188.00041553
  0
VERTEX
  8
0
 10
-527.26757298
 20
187.33768555
  0
SEQEND
  0
POLYLINE
  8
�����_�������
 66
   1
 39
0.000000
 70
    1
  0
VERTEX
  8
0
 10
-527.78911081
 20
157.33792879
  0
VERTEX
  8
0
 10
-512.90698581
 20
157.33817879
  0
VERTEX
  8
0
 10
-512.90698581
 20
184.17417879
  0
VERTEX
  8
0
 10
-527.78911081
 20
184.17392879
  0
VERTEX
  8
0
 10
-527.78911081
 20
157.33792879
  0
SEQEND
  0
POLYLINE
  8
�����_�������
 66
   1
 39
0.000000
 70
    1
  0
VERTEX
  8
0
 10
-508.39464206
 20
157.33767879
  0
VERTEX
  8
0
 10
-493.51251706
 20
157.33792879
  0
VERTEX
  8
0
 10
-493.51251706
 20
184.17392879
  0
VERTEX
  8
0
 10
-508.39464206
 20
184.17367879
  0
VERTEX
  8
0
 10
-508.39464206
 20
157.33767879
  0
SEQEND
  0
POLYLINE
  8
�����_�������
 66
   1
 39
0.000000
 70
    1
  0
VERTEX
  8
0
 10
-368.25417411
 20
63.89453125
  0
VERTEX
  8
0
 10
-401.22684517
 20
63.89453125
  0
VERTEX
  8
0
 10
-401.22683036
 20
57.89062500
  0
VERTEX
  8
0
 10
-428.20192802
 20
57.87597656
  0
VERTEX
  8
0
 10
-428.23872323
 20
63.89453125
  0
VERTEX
  8
0
 10
-570.21120778
 20
63.89453125
  0
VERTEX
  8
0
 10
-570.21120536
 20
57.89062500
  0
VERTEX
  8
0
 10
-597.22292411
 20
57.89062500
  0
VERTEX
  8
0
 10
-597.22292624
 20
63.89453125
  0
VERTEX
  8
0
 10
-630.25417411
 20
63.89453125
  0
VERTEX
  8
0
 10
-630.25417411
 20
-153.10546875
  0
VERTEX
  8
0
 10
-597.22292411
 20
-153.10546875
  0
VERTEX
  8
0
 10
-597.23757255
 20
-147.09960938
  0
VERTEX
  8
0
 10
-570.22585380
 20
-147.12890625
  0
VERTEX
  8
0
 10
-570.21120536
 20
-153.10546875
  0
VERTEX
  8
0
 10
-428.19460380
 20
-153.10546875
  0
VERTEX
  8
0
 10
-428.20925224
 20
-147.11425781
  0
VERTEX
  8
0
 10
-401.21218192
 20
-147.08496094
  0
VERTEX
  8
0
 10
-401.19753349
 20
-153.10546875
  0
VERTEX
  8
0
 10
-368.25417411
 20
-153.10546875
  0
VERTEX
  8
0
 10
-366.85182648
 20
-153.09659177
  0
VERTEX
  8
0
 10
-365.45374032
 20
-153.07003184
  0
VERTEX
  8
0
 10
-364.06002216
 20
-153.02589549
  0
VERTEX
  8
0
 10
-362.67077850
 20
-152.96428922
  0
VERTEX
  8
0
 10
-361.28611588
 20
-152.88531957
  0
VERTEX
  8
0
 10
-359.90614081
 20
-152.78909305
  0
VERTEX
  8
0
 10
-358.53095980
 20
-152.67571618
  0
VERTEX
  8
0
 10
-357.16067939
 20
-152.54529548
  0
VERTEX
  8
0
 10
-355.79540609
 20
-152.39793747
  0
VERTEX
  8
0
 10
-354.43524642
 20
-152.23374867
  0
VERTEX
  8
0
 10
-353.08030689
 20
-152.05283560
  0
VERTEX
  8
0
 10
-351.73069404
 20
-151.85530478
  0
VERTEX
  8
0
 10
-350.38651437
 20
-151.64126273
  0
VERTEX
  8
0
 10
-349.04787441
 20
-151.41081596
  0
VERTEX
  8
0
 10
-347.71488068
 20
-151.16407101
  0
VERTEX
  8
0
 10
-346.38763970
 20
-150.90113438
  0
VERTEX
  8
0
 10
-345.06625798
 20
-150.62211260
  0
VERTEX
  8
0
 10
-343.75084205
 20
-150.32711218
  0
VERTEX
  8
0
 10
-342.44149843
 20
-150.01623966
  0
VERTEX
  8
0
 10
-341.13833363
 20
-149.68960153
  0
VERTEX
  8
0
 10
-339.84145418
 20
-149.34730434
  0
VERTEX
  8
0
 10
-338.55096659
 20
-148.98945459
  0
VERTEX
  8
0
 10
-337.26697739
 20
-148.61615880
  0
VERTEX
  8
0
 10
-335.98959309
 20
-148.22752350
  0
VERTEX
  8
0
 10
-334.71892022
 20
-147.82365521
  0
VERTEX
  8
0
 10
-333.45506529
 20
-147.40466044
  0
VERTEX
  8
0
 10
-332.19813483
 20
-146.97064571
  0
VERTEX
  8
0
 10
-330.94823534
 20
-146.52171754
  0
VERTEX
  8
0
 10
-329.70547336
 20
-146.05798246
  0
VERTEX
  8
0
 10
-328.46995540
 20
-145.57954698
  0
VERTEX
  8
0
 10
-327.24178799
 20
-145.08651762
  0
VERTEX
  8
0
 10
-326.02107763
 20
-144.57900091
  0
VERTEX
  8
0
 10
-324.80793086
 20
-144.05710336
  0
VERTEX
  8
0
 10
-323.60245419
 20
-143.52093148
  0
VERTEX
  8
0
 10
-322.40475413
 20
-142.97059181
  0
VERTEX
  8
0
 10
-321.21493722
 20
-142.40619086
  0
VERTEX
  8
0
 10
-320.03310997
 20
-141.82783515
  0
VERTEX
  8
0
 10
-318.85937890
 20
-141.23563120
  0
VERTEX
  8
0
 10
-317.69385052
 20
-140.62968553
  0
VERTEX
  8
0
 10
-316.53663137
 20
-140.01010466
  0
VERTEX
  8
0
 10
-315.38782795
 20
-139.37699510
  0
VERTEX
  8
0
 10
-314.24754679
 20
-138.73046339
  0
VERTEX
  8
0
 10
-313.11589441
 20
-138.07061603
  0
VERTEX
  8
0
 10
-311.99297733
 20
-137.39755955
  0
VERTEX
  8
0
 10
-310.87890206
 20
-136.71140047
  0
VERTEX
  8
0
 10
-309.77377513
 20
-136.01224530
  0
VERTEX
  8
0
 10
-308.67770306
 20
-135.30020057
  0
VERTEX
  8
0
 10
-307.59079236
 20
-134.57537280
  0
VERTEX
  8
0
 10
-306.51314956
 20
-133.83786850
  0
VERTEX
  8
0
 10
-305.44488117
 20
-133.08779420
  0
VERTEX
  8
0
 10
-304.38609372
 20
-132.32525641
  0
VERTEX
  8
0
 10
-303.33689372
 20
-131.55036166
  0
VERTEX
  8
0
 10
-302.29738770
 20
-130.76321647
  0
VERTEX
  8
0
 10
-301.26768217
 20
-129.96392734
  0
VERTEX
  8
0
 10
-300.24788365
 20
-129.15260081
  0
VERTEX
  8
0
 10
-299.23809867
 20
-128.32934340
  0
VERTEX
  8
0
 10
-298.23843374
 20
-127.49426161
  0
VERTEX
  8
0
 10
-297.24899538
 20
-126.64746198
  0
VERTEX
  8
0
 10
-296.26989012
 20
-125.78905103
  0
VERTEX
  8
0
 10
-295.30122446
 20
-124.91913526
  0
VERTEX
  8
0
 10
-294.34310494
 20
-124.03782121
  0
VERTEX
  8
0
 10
-293.39563806
 20
-123.14521538
  0
VERTEX
  8
0
 10
-292.45893036
 20
-122.24142431
  0
VERTEX
  8
0
 10
-291.53308835
 20
-121.32655451
  0
VERTEX
  8
0
 10
-290.61821855
 20
-120.40071250
  0
VERTEX
  8
0
 10
-289.71442748
 20
-119.46400480
  0
VERTEX
  8
0
 10
-288.82182165
 20
-118.51653792
  0
VERTEX
  8
0
 10
-287.94050760
 20
-117.55841840
  0
VERTEX
  8
0
 10
-287.07059183
 20
-116.58975274
  0
VERTEX
  8
0
 10
-286.21218088
 20
-115.61064748
  0
VERTEX
  8
0
 10
-285.36538125
 20
-114.62120912
  0
VERTEX
  8
0
 10
-284.53029946
 20
-113.62154419
  0
VERTEX
  8
0
 10
-283.70704205
 20
-112.61175921
  0
VERTEX
  8
0
 10
-282.89571552
 20
-111.59196069
  0
VERTEX
  8
0
 10
-282.09642639
 20
-110.56225516
  0
VERTEX
  8
0
 10
-281.30928120
 20
-109.52274914
  0
VERTEX
  8
0
 10
-280.53438645
 20
-108.47354914
  0
VERTEX
  8
0
 10
-279.77184866
 20
-107.41476169
  0
VERTEX
  8
0
 10
-279.02177436
 20
-106.34649330
  0
VERTEX
  8
0
 10
-278.28427006
 20
-105.26885050
  0
VERTEX
  8
0
 10
-277.55944229
 20
-104.18193980
  0
VERTEX
  8
0
 10
-276.84739756
 20
-103.08586773
  0
VERTEX
  8
0
 10
-276.14824239
 20
-101.98074080
  0
VERTEX
  8
0
 10
-275.46208331
 20
-100.86666553
  0
VERTEX
  8
0
 10
-274.78902683
 20
-99.74374845
  0
VERTEX
  8
0
 10
-274.12917947
 20
-98.61209607
  0
VERTEX
  8
0
 10
-273.48264776
 20
-97.47181491
  0
VERTEX
  8
0
 10
-272.84953820
 20
-96.32301149
  0
VERTEX
  8
0
 10
-272.22995733
 20
-95.16579234
  0
VERTEX
  8
0
 10
-271.62401166
 20
-94.00026396
  0
VERTEX
  8
0
 10
-271.03180771
 20
-92.82653289
  0
VERTEX
  8
0
 10
-270.45345200
 20
-91.64470564
  0
VERTEX
  8
0
 10
-269.88905105
 20
-90.45488873
  0
VERTEX
  8
0
 10
-269.33871138
 20
-89.25718867
  0
VERTEX
  8
0
 10
-268.80253950
 20
-88.05171200
  0
VERTEX
  8
0
 10
-268.28064195
 20
-86.83856523
  0
VERTEX
  8
0
 10
-267.77312524
 20
-85.61785487
  0
VERTEX
  8
0
 10
-267.28009588
 20
-84.38968746
  0
VERTEX
  8
0
 10
-266.80166040
 20
-83.15416950
  0
VERTEX
  8
0
 10
-266.33792532
 20
-81.91140752
  0
VERTEX
  8
0
 10
-265.88899715
 20
-80.66150803
  0
VERTEX
  8
0
 10
-265.45498242
 20
-79.40457757
  0
VERTEX
  8
0
 10
-265.03598765
 20
-78.14072264
  0
VERTEX
  8
0
 10
-264.63211936
 20
-76.87004977
  0
VERTEX
  8
0
 10
-264.24348406
 20
-75.59266547
  0
VERTEX
  8
0
 10
-263.87018827
 20
-74.30867627
  0
VERTEX
  8
0
 10
-263.51233852
 20
-73.01818868
  0
VERTEX
  8
0
 10
-263.17004133
 20
-71.72130923
  0
VERTEX
  8
0
 10
-262.84340320
 20
-70.41814443
  0
VERTEX
  8
0
 10
-262.53253068
 20
-69.10880081
  0
VERTEX
  8
0
 10
-262.23753026
 20
-67.79338488
  0
VERTEX
  8
0
 10
-261.95850848
 20
-66.47200316
  0
VERTEX
  8
0
 10
-261.69557185
 20
-65.14476218
  0
VERTEX
  8
0
 10
-261.44882690
 20
-63.81176845
  0
VERTEX
  8
0
 10
-261.21838013
 20
-62.47312849
  0
VERTEX
  8
0
 10
-261.00433808
 20
-61.12894882
  0
VERTEX
  8
0
 10
-260.80680726
 20
-59.77933597
  0
VERTEX
  8
0
 10
-260.62589419
 20
-58.42439644
  0
VERTEX
  8
0
 10
-260.46170539
 20
-57.06423677
  0
VERTEX
  8
0
 10
-260.31434738
 20
-55.69896347
  0
VERTEX
  8
0
 10
-260.18392668
 20
-54.32868306
  0
VERTEX
  8
0
 10
-260.07054981
 20
-52.95350205
  0
VERTEX
  8
0
 10
-259.97432329
 20
-51.57352698
  0
VERTEX
  8
0
 10
-259.89535364
 20
-50.18886436
  0
VERTEX
  8
0
 10
-259.83374737
 20
-48.79962070
  0
VERTEX
  8
0
 10
-259.78961102
 20
-47.40590254
  0
VERTEX
  8
0
 10
-259.76305109
 20
-46.00781638
  0
VERTEX
  8
0
 10
-259.75417411
 20
-44.60546875
  0
VERTEX
  8
0
 10
-259.76305109
 20
-43.20312112
  0
VERTEX
  8
0
 10
-259.78961102
 20
-41.80503496
  0
VERTEX
  8
0
 10
-259.83374737
 20
-40.41131680
  0
VERTEX
  8
0
 10
-259.89535364
 20
-39.02207314
  0
VERTEX
  8
0
 10
-259.97432329
 20
-37.63741052
  0
VERTEX
  8
0
 10
-260.07054981
 20
-36.25743545
  0
VERTEX
  8
0
 10
-260.18392668
 20
-34.88225444
  0
VERTEX
  8
0
 10
-260.31434738
 20
-33.51197403
  0
VERTEX
  8
0
 10
-260.46170539
 20
-32.14670073
  0
VERTEX
  8
0
 10
-260.62589419
 20
-30.78654106
  0
VERTEX
  8
0
 10
-260.80680726
 20
-29.43160153
  0
VERTEX
  8
0
 10
-261.00433808
 20
-28.08198868
  0
VERTEX
  8
0
 10
-261.21838013
 20
-26.73780901
  0
VERTEX
  8
0
 10
-261.44882690
 20
-25.39916905
  0
VERTEX
  8
0
 10
-261.69557185
 20
-24.06617532
  0
VERTEX
  8
0
 10
-261.95850848
 20
-22.73893434
  0
VERTEX
  8
0
 10
-262.23753026
 20
-21.41755262
  0
VERTEX
  8
0
 10
-262.53253068
 20
-20.10213669
  0
VERTEX
  8
0
 10
-262.84340320
 20
-18.79279307
  0
VERTEX
  8
0
 10
-263.17004133
 20
-17.48962827
  0
VERTEX
  8
0
 10
-263.51233852
 20
-16.19274882
  0
VERTEX
  8
0
 10
-263.87018827
 20
-14.90226123
  0
VERTEX
  8
0
 10
-264.24348406
 20
-13.61827203
  0
VERTEX
  8
0
 10
-264.63211936
 20
-12.34088773
  0
VERTEX
  8
0
 10
-265.03598765
 20
-11.07021486
  0
VERTEX
  8
0
 10
-265.45498242
 20
-9.80635993
  0
VERTEX
  8
0
 10
-265.88899715
 20
-8.54942947
  0
VERTEX
  8
0
 10
-266.33792532
 20
-7.29952998
  0
VERTEX
  8
0
 10
-266.80166040
 20
-6.05676800
  0
VERTEX
  8
0
 10
-267.28009588
 20
-4.82125004
  0
VERTEX
  8
0
 10
-267.77312524
 20
-3.59308263
  0
VERTEX
  8
0
 10
-268.28064195
 20
-2.37237227
  0
VERTEX
  8
0
 10
-268.80253950
 20
-1.15922550
  0
VERTEX
  8
0
 10
-269.33871138
 20
0.04625117
  0
VERTEX
  8
0
 10
-269.88905105
 20
1.24395123
  0
VERTEX
  8
0
 10
-270.45345200
 20
2.43376814
  0
VERTEX
  8
0
 10
-271.03180771
 20
3.61559539
  0
VERTEX
  8
0
 10
-271.62401166
 20
4.78932646
  0
VERTEX
  8
0
 10
-272.22995733
 20
5.95485484
  0
VERTEX
  8
0
 10
-272.84953820
 20
7.11207399
  0
VERTEX
  8
0
 10
-273.48264776
 20
8.26087741
  0
VERTEX
  8
0
 10
-274.12917947
 20
9.40115857
  0
VERTEX
  8
0
 10
-274.78902683
 20
10.53281095
  0
VERTEX
  8
0
 10
-275.46208331
 20
11.65572803
  0
VERTEX
  8
0
 10
-276.14824239
 20
12.76980330
  0
VERTEX
  8
0
 10
-276.84739756
 20
13.87493023
  0
VERTEX
  8
0
 10
-277.55944229
 20
14.97100230
  0
VERTEX
  8
0
 10
-278.28427006
 20
16.05791300
  0
VERTEX
  8
0
 10
-279.02177436
 20
17.13555580
  0
VERTEX
  8
0
 10
-279.77184866
 20
18.20382419
  0
VERTEX
  8
0
 10
-280.53438645
 20
19.26261164
  0
VERTEX
  8
0
 10
-281.30928120
 20
20.31181164
  0
VERTEX
  8
0
 10
-282.09642639
 20
21.35131766
  0
VERTEX
  8
0
 10
-282.89571552
 20
22.38102319
  0
VERTEX
  8
0
 10
-283.70704205
 20
23.40082171
  0
VERTEX
  8
0
 10
-284.53029946
 20
24.41060669
  0
VERTEX
  8
0
 10
-285.36538125
 20
25.41027162
  0
VERTEX
  8
0
 10
-286.21218088
 20
26.39970998
  0
VERTEX
  8
0
 10
-287.07059183
 20
27.37881524
  0
VERTEX
  8
0
 10
-287.94050760
 20
28.34748090
  0
VERTEX
  8
0
 10
-288.82182165
 20
29.30560042
  0
VERTEX
  8
0
 10
-289.71442748
 20
30.25306730
  0
VERTEX
  8
0
 10
-290.61821855
 20
31.18977500
  0
VERTEX
  8
0
 10
-291.53308835
 20
32.11561701
  0
VERTEX
  8
0
 10
-292.45893036
 20
33.03048681
  0
VERTEX
  8
0
 10
-293.39563806
 20
33.93427788
  0
VERTEX
  8
0
 10
-294.34310494
 20
34.82688371
  0
VERTEX
  8
0
 10
-295.30122446
 20
35.70819776
  0
VERTEX
  8
0
 10
-296.26989012
 20
36.57811353
  0
VERTEX
  8
0
 10
-297.24899538
 20
37.43652448
  0
VERTEX
  8
0
 10
-298.23843374
 20
38.28332411
  0
VERTEX
  8
0
 10
-299.23809867
 20
39.11840590
  0
VERTEX
  8
0
 10
-300.24788365
 20
39.94166331
  0
VERTEX
  8
0
 10
-301.26768217
 20
40.75298984
  0
VERTEX
  8
0
 10
-302.29738770
 20
41.55227897
  0
VERTEX
  8
0
 10
-303.33689372
 20
42.33942416
  0
VERTEX
  8
0
 10
-304.38609372
 20
43.11431891
  0
VERTEX
  8
0
 10
-305.44488117
 20
43.87685670
  0
VERTEX
  8
0
 10
-306.51314956
 20
44.62693100
  0
VERTEX
  8
0
 10
-307.59079236
 20
45.36443530
  0
VERTEX
  8
0
 10
-308.67770306
 20
46.08926307
  0
VERTEX
  8
0
 10
-309.77377513
 20
46.80130780
  0
VERTEX
  8
0
 10
-310.87890206
 20
47.50046297
  0
VERTEX
  8
0
 10
-311.99297733
 20
48.18662205
  0
VERTEX
  8
0
 10
-313.11589441
 20
48.85967853
  0
VERTEX
  8
0
 10
-314.24754679
 20
49.51952589
  0
VERTEX
  8
0
 10
-315.38782795
 20
50.16605760
  0
VERTEX
  8
0
 10
-316.53663137
 20
50.79916716
  0
VERTEX
  8
0
 10
-317.69385052
 20
51.41874803
  0
VERTEX
  8
0
 10
-318.85937890
 20
52.02469370
  0
VERTEX
  8
0
 10
-320.03310997
 20
52.61689765
  0
VERTEX
  8
0
 10
-321.21493722
 20
53.19525336
  0
VERTEX
  8
0
 10
-322.40475413
 20
53.75965431
  0
VERTEX
  8
0
 10
-323.60245419
 20
54.30999398
  0
VERTEX
  8
0
 10
-324.80793086
 20
54.84616586
  0
VERTEX
  8
0
 10
-326.02107763
 20
55.36806341
  0
VERTEX
  8
0
 10
-327.24178799
 20
55.87558012
  0
VERTEX
  8
0
 10
-328.46995540
 20
56.36860948
  0
VERTEX
  8
0
 10
-329.70547336
 20
56.84704496
  0
VERTEX
  8
0
 10
-330.94823534
 20
57.31078004
  0
VERTEX
  8
0
 10
-332.19813483
 20
57.75970821
  0
VERTEX
  8
0
 10
-333.45506529
 20
58.19372294
  0
VERTEX
  8
0
 10
-334.71892022
 20
58.61271771
  0
VERTEX
  8
0
 10
-335.98959309
 20
59.01658600
  0
VERTEX
  8
0
 10
-337.26697739
 20
59.40522130
  0
VERTEX
  8
0
 10
-338.55096659
 20
59.77851709
  0
VERTEX
  8
0
 10
-339.84145418
 20
60.13636684
  0
VERTEX
  8
0
 10
-341.13833363
 20
60.47866403
  0
VERTEX
  8
0
 10
-342.44149843
 20
60.80530216
  0
VERTEX
  8
0
 10
-343.75084205
 20
61.11617468
  0
VERTEX
  8
0
 10
-345.06625798
 20
61.41117510
  0
VERTEX
  8
0
 10
-346.38763970
 20
61.69019688
  0
VERTEX
  8
0
 10
-347.71488068
 20
61.95313351
  0
VERTEX
  8
0
 10
-349.04787441
 20
62.19987846
  0
VERTEX
  8
0
 10
-350.38651437
 20
62.43032523
  0
VERTEX
  8
0
 10
-351.73069404
 20
62.64436728
  0
VERTEX
  8
0
 10
-353.08030689
 20
62.84189810
  0
VERTEX
  8
0
 10
-354.43524642
 20
63.02281117
  0
VERTEX
  8
0
 10
-355.79540609
 20
63.18699997
  0
VERTEX
  8
0
 10
-357.16067939
 20
63.33435798
  0
VERTEX
  8
0
 10
-358.53095980
 20
63.46477868
  0
VERTEX
  8
0
 10
-359.90614081
 20
63.57815555
  0
VERTEX
  8
0
 10
-361.28611588
 20
63.67438207
  0
VERTEX
  8
0
 10
-362.67077850
 20
63.75335172
  0
VERTEX
  8
0
 10
-364.06002216
 20
63.81495799
  0
VERTEX
  8
0
 10
-365.45374032
 20
63.85909434
  0
VERTEX
  8
0
 10
-366.85182648
 20
63.88565427
  0
VERTEX
  8
0
 10
-368.25417411
 20
63.89453125
  0
SEQEND
  0
POLYLINE
  8
�����_�������
 66
   1
 39
0.000000
 70
    1
  0
VERTEX
  8
0
 10
-718.96440213
 20
326.01378864
  0
VERTEX
  8
0
 10
-691.84082544
 20
326.01378864
  0
VERTEX
  8
0
 10
-691.84082544
 20
319.97203467
  0
VERTEX
  8
0
 10
-665.13672388
 20
319.98668311
  0
VERTEX
  8
0
 10
-665.13672388
 20
325.96324561
  0
VERTEX
  8
0
 10
-522.85645044
 20
326.01378864
  0
VERTEX
  8
0
 10
-522.85645044
 20
319.97203467
  0
VERTEX
  8
0
 10
-496.09375513
 20
319.95738623
  0
VERTEX
  8
0
 10
-496.07178247
 20
325.97056983
  0
VERTEX
  8
0
 10
-468.96440213
 20
326.01378864
  0
VERTEX
  8
0
 10
-468.96827994
 20
349.98649547
  0
VERTEX
  8
0
 10
-462.95900369
 20
349.97180621
  0
VERTEX
  8
0
 10
-462.95900369
 20
371.34387653
  0
VERTEX
  8
0
 10
-468.97951150
 20
371.35120075
  0
VERTEX
  8
0
 10
-468.97951150
 20
419.42004840
  0
VERTEX
  8
0
 10
-462.92970681
 20
419.40539997
  0
VERTEX
  8
0
 10
-462.95900369
 20
440.61633747
  0
VERTEX
  8
0
 10
-468.95021462
 20
440.63098590
  0
VERTEX
  8
0
 10
-468.96337087
 20
460.21644489
  0
VERTEX
  8
0
 10
-718.96440213
 20
460.21544879
  0
VERTEX
  8
0
 10
-718.96440213
 20
440.59386676
  0
VERTEX
  8
0
 10
-724.99110525
 20
440.59386676
  0
VERTEX
  8
0
 10
-724.99110525
 20
419.41222614
  0
VERTEX
  8
0
 10
-718.96440213
 20
419.41222614
  0
VERTEX
  8
0
 10
-718.96440213
 20
371.24816364
  0
VERTEX
  8
0
 10
-724.97645681
 20
371.24816364
  0
VERTEX
  8
0
 10
-724.97645681
 20
349.99328082
  0
VERTEX
  8
0
 10
-718.96440213
 20
349.97862226
  0
VERTEX
  8
0
 10
-718.96440213
 20
326.01378864
  0
SEQEND
  0
POLYLINE
  8
�����_�������
 66
   1
 39
0.000000
 70
    1
  0
VERTEX
  8
0
 10
-676.90447511
 20
407.07136955
  0
VERTEX
  8
0
 10
-643.62322511
 20
407.07136955
  0
VERTEX
  8
0
 10
-644.17311610
 20
408.60994742
  0
VERTEX
  8
0
 10
-644.44964472
 20
409.35164338
  0
VERTEX
  8
0
 10
-644.73145044
 20
410.00136279
  0
VERTEX
  8
0
 10
-645.03377694
 20
410.57815406
  0
VERTEX
  8
0
 10
-645.36488077
 20
411.13965844
  0
VERTEX
  8
0
 10
-645.71744747
 20
411.68857918
  0
VERTEX
  8
0
 10
-646.08416261
 20
412.22761955
  0
VERTEX
  8
0
 10
-646.52525221
 20
412.83820459
  0
VERTEX
  8
0
 10
-647.05262454
 20
413.52836458
  0
VERTEX
  8
0
 10
-647.58648857
 20
414.19071065
  0
VERTEX
  8
0
 10
-648.04705324
 20
414.71785392
  0
VERTEX
  8
0
 10
-648.46784617
 20
415.14741568
  0
VERTEX
  8
0
 10
-648.91589272
 20
415.56900089
  0
VERTEX
  8
0
 10
-649.36164843
 20
415.95319622
  0
VERTEX
  8
0
 10
-649.77556886
 20
416.27058830
  0
VERTEX
  8
0
 10
-650.17281777
 20
416.53188841
  0
VERTEX
  8
0
 10
-650.58590480
 20
416.76888620
  0
VERTEX
  8
0
 10
-651.01130432
 20
416.98378581
  0
VERTEX
  8
0
 10
-651.44549074
 20
417.17879142
  0
VERTEX
  8
0
 10
-651.92440874
 20
417.36051121
  0
VERTEX
  8
0
 10
-652.46342340
 20
417.53373653
  0
VERTEX
  8
0
 10
-653.58416261
 20
417.85261955
  0
VERTEX
  8
0
 10
-654.94756439
 20
418.21750412
  0
VERTEX
  8
0
 10
-655.73938502
 20
418.40471938
  0
VERTEX
  8
0
 10
-656.51385011
 20
418.55574455
  0
VERTEX
  8
0
 10
-657.37996017
 20
418.68156637
  0
VERTEX
  8
0
 10
-658.39532318
 20
418.79747920
  0
VERTEX
  8
0
 10
-659.41477387
 20
418.88041532
  0
VERTEX
  8
0
 10
-659.88066796
 20
418.90230847
  0
VERTEX
  8
0
 10
-660.29314699
 20
418.90730705
  0
VERTEX
  8
0
 10
-660.68533587
 20
418.89308056
  0
VERTEX
  8
0
 10
-661.09515282
 20
418.86200636
  0
VERTEX
  8
0
 10
-661.92384816
 20
418.76602807
  0
VERTEX
  8
0
 10
-663.31072511
 20
418.55574455
  0
VERTEX
  8
0
 10
-664.33907073
 20
418.38143981
  0
VERTEX
  8
0
 10
-665.36150636
 20
418.17488517
  0
VERTEX
  8
0
 10
-666.42312160
 20
417.93903868
  0
VERTEX
  8
0
 10
-666.96618307
 20
417.80252024
  0
VERTEX
  8
0
 10
-667.50017824
 20
417.64754142
  0
VERTEX
  8
0
 10
-668.05998667
 20
417.46017197
  0
VERTEX
  8
0
 10
-668.65053173
 20
417.24283916
  0
VERTEX
  8
0
 10
-669.21395248
 20
417.01553157
  0
VERTEX
  8
0
 10
-669.69238794
 20
416.79823779
  0
VERTEX
  8
0
 10
-670.10431243
 20
416.58274525
  0
VERTEX
  8
0
 10
-670.50645469
 20
416.34862316
  0
VERTEX
  8
0
 10
-670.89833536
 20
416.09753273
  0
VERTEX
  8
0
 10
-671.27947511
 20
415.83113517
  0
VERTEX
  8
0
 10
-671.68340208
 20
415.52424667
  0
VERTEX
  8
0
 10
-672.12260575
 20
415.16419292
  0
VERTEX
  8
0
 10
-672.56504879
 20
414.77139936
  0
VERTEX
  8
0
 10
-672.97869386
 20
414.36629142
  0
VERTEX
  8
0
 10
-673.39600714
 20
413.90875992
  0
VERTEX
  8
0
 10
-673.84456386
 20
413.37244140
  0
VERTEX
  8
0
 10
-674.28499027
 20
412.79837992
  0
VERTEX
  8
0
 10
-674.67791261
 20
412.22761955
  0
VERTEX
  8
0
 10
-675.03195946
 20
411.61600620
  0
VERTEX
  8
0
 10
-675.36533296
 20
410.95587869
  0
VERTEX
  8
0
 10
-675.87000651
 20
409.87321479
  0
VERTEX
  8
0
 10
-676.22494561
 20
409.10954072
  0
VERTEX
  8
0
 10
-676.38815349
 20
408.73423288
  0
VERTEX
  8
0
 10
-676.52361574
 20
408.38972892
  0
VERTEX
  8
0
 10
-676.63110159
 20
408.06413316
  0
VERTEX
  8
0
 10
-676.72495299
 20
407.73409953
  0
VERTEX
  8
0
 10
-676.90447511
 20
407.07136955
  0
SEQEND
  0
POLYLINE
  8
�����_�������
 66
   1
 39
0.000000
 70
    1
  0
VERTEX
  8
0
 10
-658.03154419
 20
377.07136279
  0
VERTEX
  8
0
 10
-643.14941919
 20
377.07161279
  0
VERTEX
  8
0
 10
-643.14941919
 20
403.90761279
  0
VERTEX
  8
0
 10
-658.03154419
 20
403.90736279
  0
VERTEX
  8
0
 10
-658.03154419
 20
377.07136279
  0
SEQEND
  0
POLYLINE
  8
�����_�������
 66
   1
 39
0.000000
 70
    1
  0
VERTEX
  8
0
 10
-677.42601294
 20
377.07161279
  0
VERTEX
  8
0
 10
-662.54388794
 20
377.07186279
  0
VERTEX
  8
0
 10
-662.54388794
 20
403.90786279
  0
VERTEX
  8
0
 10
-677.42601294
 20
403.90761279
  0
VERTEX
  8
0
 10
-677.42601294
 20
377.07161279
  0
SEQEND
  0
POLYLINE
  8
�����_�������
 66
   1
 39
0.000000
 70
    1
  0
VERTEX
  8
0
 10
-544.39916037
 20
406.90910114
  0
VERTEX
  8
0
 10
-511.11791037
 20
406.90910114
  0
VERTEX
  8
0
 10
-511.66780136
 20
408.44767901
  0
VERTEX
  8
0
 10
-511.94432998
 20
409.18937497
  0
VERTEX
  8
0
 10
-512.22613570
 20
409.83909438
  0
VERTEX
  8
0
 10
-512.52846220
 20
410.41588565
  0
VERTEX
  8
0
 10
-512.85956603
 20
410.97739003
  0
VERTEX
  8
0
 10
-513.21213273
 20
411.52631077
  0
VERTEX
  8
0
 10
-513.57884787
 20
412.06535114
  0
VERTEX
  8
0
 10
-514.01993747
 20
412.67593618
  0
VERTEX
  8
0
 10
-514.54730980
 20
413.36609617
  0
VERTEX
  8
0
 10
-515.08117383
 20
414.02844224
  0
VERTEX
  8
0
 10
-515.54173850
 20
414.55558551
  0
VERTEX
  8
0
 10
-515.96253143
 20
414.98514727
  0
VERTEX
  8
0
 10
-516.41057798
 20
415.40673248
  0
VERTEX
  8
0
 10
-516.85633369
 20
415.79092781
  0
VERTEX
  8
0
 10
-517.27025412
 20
416.10831989
  0
VERTEX
  8
0
 10
-517.66750303
 20
416.36962000
  0
VERTEX
  8
0
 10
-518.08059006
 20
416.60661779
  0
VERTEX
  8
0
 10
-518.50598958
 20
416.82151740
  0
VERTEX
  8
0
 10
-518.94017600
 20
417.01652301
  0
VERTEX
  8
0
 10
-519.41909400
 20
417.19824280
  0
VERTEX
  8
0
 10
-519.95810866
 20
417.37146812
  0
VERTEX
  8
0
 10
-521.07884787
 20
417.69035114
  0
VERTEX
  8
0
 10
-522.44224965
 20
418.05523571
  0
VERTEX
  8
0
 10
-523.23407028
 20
418.24245097
  0
VERTEX
  8
0
 10
-524.00853537
 20
418.39347614
  0
VERTEX
  8
0
 10
-524.87464543
 20
418.51929796
  0
VERTEX
  8
0
 10
-525.89000844
 20
418.63521079
  0
VERTEX
  8
0
 10
-526.90945913
 20
418.71814691
  0
VERTEX
  8
0
 10
-527.37535322
 20
418.74004006
  0
VERTEX
  8
0
 10
-527.78783225
 20
418.74503864
  0
VERTEX
  8
0
 10
-528.18002113
 20
418.73081215
  0
VERTEX
  8
0
 10
-528.58983808
 20
418.69973795
  0
VERTEX
  8
0
 10
-529.41853342
 20
418.60375966
  0
VERTEX
  8
0
 10
-530.80541037
 20
418.39347614
  0
VERTEX
  8
0
 10
-531.83375599
 20
418.21917140
  0
VERTEX
  8
0
 10
-532.85619162
 20
418.01261676
  0
VERTEX
  8
0
 10
-533.91780686
 20
417.77677027
  0
VERTEX
  8
0
 10
-534.46086833
 20
417.64025183
  0
VERTEX
  8
0
 10
-534.99486350
 20
417.48527301
  0
VERTEX
  8
0
 10
-535.55467193
 20
417.29790356
  0
VERTEX
  8
0
 10
-536.14521699
 20
417.08057075
  0
VERTEX
  8
0
 10
-536.70863774
 20
416.85326316
  0
VERTEX
  8
0
 10
-537.18707320
 20
416.63596938
  0
VERTEX
  8
0
 10
-537.59899769
 20
416.42047684
  0
VERTEX
  8
0
 10
-538.00113995
 20
416.18635475
  0
VERTEX
  8
0
 10
-538.39302062
 20
415.93526432
  0
VERTEX
  8
0
 10
-538.77416037
 20
415.66886676
  0
VERTEX
  8
0
 10
-539.17808734
 20
415.36197826
  0
VERTEX
  8
0
 10
-539.61729101
 20
415.00192451
  0
VERTEX
  8
0
 10
-540.05973405
 20
414.60913095
  0
VERTEX
  8
0
 10
-540.47337912
 20
414.20402301
  0
VERTEX
  8
0
 10
-540.89069240
 20
413.74649151
  0
VERTEX
  8
0
 10
-541.33924912
 20
413.21017299
  0
VERTEX
  8
0
 10
-541.77967553
 20
412.63611151
  0
VERTEX
  8
0
 10
-542.17259787
 20
412.06535114
  0
VERTEX
  8
0
 10
-542.52664472
 20
411.45373779
  0
VERTEX
  8
0
 10
-542.86001822
 20
410.79361028
  0
VERTEX
  8
0
 10
-543.36469177
 20
409.71094638
  0
VERTEX
  8
0
 10
-543.71963087
 20
408.94727231
  0
VERTEX
  8
0
 10
-543.88283875
 20
408.57196447
  0
VERTEX
  8
0
 10
-544.01830100
 20
408.22746051
  0
VERTEX
  8
0
 10
-544.12578685
 20
407.90186475
  0
VERTEX
  8
0
 10
-544.21963825
 20
407.57183112
  0
VERTEX
  8
0
 10
-544.39916037
 20
406.90910114
  0
SEQEND
  0
POLYLINE
  8
�����_�������
 66
   1
 39
0.000000
 70
    1
  0
VERTEX
  8
0
 10
-544.92069820
 20
376.90934438
  0
VERTEX
  8
0
 10
-530.03857320
 20
376.90959438
  0
VERTEX
  8
0
 10
-530.03857320
 20
403.74559438
  0
VERTEX
  8
0
 10
-544.92069820
 20
403.74534438
  0
VERTEX
  8
0
 10
-544.92069820
 20
376.90934438
  0
SEQEND
  0
POLYLINE
  8
�����_�������
 66
   1
 39
0.000000
 70
    1
  0
VERTEX
  8
0
 10
-525.52622945
 20
376.90909438
  0
VERTEX
  8
0
 10
-510.64410445
 20
376.90934438
  0
VERTEX
  8
0
 10
-510.64410445
 20
403.74534438
  0
VERTEX
  8
0
 10
-525.52622945
 20
403.74509438
  0
VERTEX
  8
0
 10
-525.52622945
 20
376.90909438
  0
SEQEND
  0
ENDSEC
  0
EOF
