  0
SECTION
  2
ENTITIES
  0
POLYLINE
  5
3E8
  100
AcDbEntity
  8
Layer 1
  62
0
  100
AcDb2dPolyline
 66
     1
  10
0
  20
0
  30
0
  70
1
  0
VERTEX
  5
3E9
  100
AcDbEntity
  8
Layer 1
  62
0
  100
AcDb2dVertex
  10
2.01400
  20
1.41700
  30
0.00000
  70
32
  0
VERTEX
  5
3EA
  100
AcDbEntity
  8
Layer 1
  62
0
  100
AcDb2dVertex
  10
1.98700
  20
1.42000
  30
0.00000
  70
32
  0
VERTEX
  5
3EB
  100
AcDbEntity
  8
Layer 1
  62
0
  100
AcDb2dVertex
  10
2.01400
  20
1.41700
  30
0.00000
  42
-0.0943
  70
32
  0
VERTEX
  5
3EC
  100
AcDbEntity
  8
Layer 1
  62
0
  100
AcDb2dVertex
  10
2.00706
  20
1.39383
  30
0.00000
  42
-0.2128
  70
32
  0
VERTEX
  5
3ED
  100
AcDbEntity
  8
Layer 1
  62
0
  100
AcDb2dVertex
  10
1.99676
  20
1.38530
  30
0.00000
  70
32
  0
VERTEX
  5
3EE
  100
AcDbEntity
  8
Layer 1
  62
0
  100
AcDb2dVertex
  10
1.99400
  20
1.38500
  30
0.00000
  42
-0.0618
  70
32
  0
VERTEX
  5
3EF
  100
AcDbEntity
  8
Layer 1
  62
0
  100
AcDb2dVertex
  10
1.95954
  20
1.39068
  30
0.00000
  42
-0.0205
  70
32
  0
VERTEX
  5
3F0
  100
AcDbEntity
  8
Layer 1
  62
0
  100
AcDb2dVertex
  10
1.93000
  20
1.40000
  30
0.00000
  42
0.0459
  70
32
  0
VERTEX
  5
3F1
  100
AcDbEntity
  8
Layer 1
  62
0
  100
AcDb2dVertex
  10
1.87574
  20
1.41309
  30
0.00000
  42
0.0301
  70
32
  0
VERTEX
  5
3F2
  100
AcDbEntity
  8
Layer 1
  62
0
  100
AcDb2dVertex
  10
1.86200
  20
1.41400
  30
0.00000
  42
0.1265
  70
32
  0
VERTEX
  5
3F3
  100
AcDbEntity
  8
Layer 1
  62
0
  100
AcDb2dVertex
  10
1.78800
  20
1.39600
  30
0.00000
  70
32
  0
VERTEX
  5
3F4
  100
AcDbEntity
  8
Layer 1
  62
0
  100
AcDb2dVertex
  10
1.75600
  20
1.37900
  30
0.00000
  42
-0.2298
  70
32
  0
VERTEX
  5
3F5
  100
AcDbEntity
  8
Layer 1
  62
0
  100
AcDb2dVertex
  10
1.74624
  20
1.38269
  30
0.00000
  42
-0.1751
  70
32
  0
VERTEX
  5
3F6
  100
AcDbEntity
  8
Layer 1
  62
0
  100
AcDb2dVertex
  10
1.74400
  20
1.39000
  30
0.00000
  42
-0.2371
  70
32
  0
VERTEX
  5
3F7
  100
AcDbEntity
  8
Layer 1
  62
0
  100
AcDb2dVertex
  10
1.75642
  20
1.41482
  30
0.00000
  42
-0.0980
  70
32
  0
VERTEX
  5
3F8
  100
AcDbEntity
  8
Layer 1
  62
0
  100
AcDb2dVertex
  10
1.78333
  20
1.42779
  30
0.00000
  42
-0.0474
  70
32
  0
VERTEX
  5
3F9
  100
AcDbEntity
  8
Layer 1
  62
0
  100
AcDb2dVertex
  10
1.82400
  20
1.43500
  30
0.00000
  70
32
  0
VERTEX
  5
3FA
  100
AcDbEntity
  8
Layer 1
  62
0
  100
AcDb2dVertex
  10
1.82401
  20
1.43482
  30
0.00000
  42
0.0313
  70
32
  0
VERTEX
  5
3FB
  100
AcDbEntity
  8
Layer 1
  62
0
  100
AcDb2dVertex
  10
1.84186
  20
1.43416
  30
0.00000
  70
32
  0
VERTEX
  5
3FC
  100
AcDbEntity
  8
Layer 1
  62
0
  100
AcDb2dVertex
  10
1.91700
  20
1.43400
  30
0.00000
  42
0.0843
  70
32
  0
VERTEX
  5
3FD
  100
AcDbEntity
  8
Layer 1
  62
0
  100
AcDb2dVertex
  10
1.94087
  20
1.43936
  30
0.00000
  70
32
  0
VERTEX
  5
3FE
  100
AcDbEntity
  8
Layer 1
  62
0
  100
AcDb2dVertex
  10
1.95000
  20
1.44300
  30
0.00000
  42
-0.0838
  70
32
  0
VERTEX
  5
3FF
  100
AcDbEntity
  8
Layer 1
  62
0
  100
AcDb2dVertex
  10
1.98259
  20
1.45189
  30
0.00000
  70
32
  0
VERTEX
  5
400
  100
AcDbEntity
  8
Layer 1
  62
0
  100
AcDb2dVertex
  10
1.98600
  20
1.45200
  30
0.00000
  42
-0.1004
  70
32
  0
VERTEX
  5
401
  100
AcDbEntity
  8
Layer 1
  62
0
  100
AcDb2dVertex
  10
2.00570
  20
1.44895
  30
0.00000
  42
-0.2903
  70
32
  0
VERTEX
  5
402
  100
AcDbEntity
  8
Layer 1
  62
0
  100
AcDb2dVertex
  10
2.01393
  20
1.43853
  30
0.00000
  70
32
  0
VERTEX
  5
403
  100
AcDbEntity
  8
Layer 1
  62
0
  100
AcDb2dVertex
  10
2.01400
  20
1.43700
  30
0.00000
  70
32
  0
VERTEX
  5
404
  100
AcDbEntity
  8
Layer 1
  62
0
  100
AcDb2dVertex
  10
2.01400
  20
1.41700
  30
0.00000
  70
32
  0
SEQEND
  5
405
  100
AcDbEntity
  8
Layer 1
  62
0
  0
POLYLINE
  5
406
  100
AcDbEntity
  8
Layer 1
  62
0
  100
AcDb2dPolyline
 66
     1
  10
0
  20
0
  30
0
  70
1
  0
VERTEX
  5
407
  100
AcDbEntity
  8
Layer 1
  62
0
  100
AcDb2dVertex
  10
2.01100
  20
1.30700
  30
0.00000
  42
-0.0982
  70
32
  0
VERTEX
  5
408
  100
AcDbEntity
  8
Layer 1
  62
0
  100
AcDb2dVertex
  10
2.00169
  20
1.28380
  30
0.00000
  42
-0.2394
  70
32
  0
VERTEX
  5
409
  100
AcDbEntity
  8
Layer 1
  62
0
  100
AcDb2dVertex
  10
1.98511
  20
1.27403
  30
0.00000
  70
32
  0
VERTEX
  5
40A
  100
AcDbEntity
  8
Layer 1
  62
0
  100
AcDb2dVertex
  10
1.98400
  20
1.27400
  30
0.00000
  42
-0.0512
  70
32
  0
VERTEX
  5
40B
  100
AcDbEntity
  8
Layer 1
  62
0
  100
AcDb2dVertex
  10
1.95606
  20
1.27837
  30
0.00000
  42
-0.0125
  70
32
  0
VERTEX
  5
40C
  100
AcDbEntity
  8
Layer 1
  62
0
  100
AcDb2dVertex
  10
1.92700
  20
1.28600
  30
0.00000
  42
0.0524
  70
32
  0
VERTEX
  5
40D
  100
AcDbEntity
  8
Layer 1
  62
0
  100
AcDb2dVertex
  10
1.86942
  20
1.29843
  30
0.00000
  42
0.0219
  70
32
  0
VERTEX
  5
40E
  100
AcDbEntity
  8
Layer 1
  62
0
  100
AcDb2dVertex
  10
1.85700
  20
1.29900
  30
0.00000
  42
0.0715
  70
32
  0
VERTEX
  5
40F
  100
AcDbEntity
  8
Layer 1
  62
0
  100
AcDb2dVertex
  10
1.82479
  20
1.29302
  30
0.00000
  42
0.0139
  70
32
  0
VERTEX
  5
410
  100
AcDbEntity
  8
Layer 1
  62
0
  100
AcDb2dVertex
  10
1.81000
  20
1.28800
  30
0.00000
  42
-0.0338
  70
32
  0
VERTEX
  5
411
  100
AcDbEntity
  8
Layer 1
  62
0
  100
AcDb2dVertex
  10
1.77628
  20
1.27779
  30
0.00000
  42
-0.0456
  70
32
  0
VERTEX
  5
412
  100
AcDbEntity
  8
Layer 1
  62
0
  100
AcDb2dVertex
  10
1.76900
  20
1.27700
  30
0.00000
  42
-0.2136
  70
32
  0
VERTEX
  5
413
  100
AcDbEntity
  8
Layer 1
  62
0
  100
AcDb2dVertex
  10
1.76076
  20
1.27972
  30
0.00000
  42
-0.1891
  70
32
  0
VERTEX
  5
414
  100
AcDbEntity
  8
Layer 1
  62
0
  100
AcDb2dVertex
  10
1.75900
  20
1.28500
  30
0.00000
  42
-0.2286
  70
32
  0
VERTEX
  5
415
  100
AcDbEntity
  8
Layer 1
  62
0
  100
AcDb2dVertex
  10
1.76760
  20
1.30219
  30
0.00000
  42
-0.0905
  70
32
  0
VERTEX
  5
416
  100
AcDbEntity
  8
Layer 1
  62
0
  100
AcDb2dVertex
  10
1.79020
  20
1.31414
  30
0.00000
  70
32
  0
VERTEX
  5
417
  100
AcDbEntity
  8
Layer 1
  62
0
  100
AcDb2dVertex
  10
1.79900
  20
1.31700
  30
0.00000
  42
-0.0755
  70
32
  0
VERTEX
  5
418
  100
AcDbEntity
  8
Layer 1
  62
0
  100
AcDb2dVertex
  10
1.85700
  20
1.32700
  30
0.00000
  42
-0.0386
  70
32
  0
VERTEX
  5
419
  100
AcDbEntity
  8
Layer 1
  62
0
  100
AcDb2dVertex
  10
1.88600
  20
1.32400
  30
0.00000
  70
32
  0
VERTEX
  5
41A
  100
AcDbEntity
  8
Layer 1
  62
0
  100
AcDb2dVertex
  10
1.89584
  20
1.32228
  30
0.00000
  42
0.0364
  70
32
  0
VERTEX
  5
41B
  100
AcDbEntity
  8
Layer 1
  62
0
  100
AcDb2dVertex
  10
1.91200
  20
1.32000
  30
0.00000
  42
0.0598
  70
32
  0
VERTEX
  5
41C
  100
AcDbEntity
  8
Layer 1
  62
0
  100
AcDb2dVertex
  10
1.93557
  20
1.32421
  30
0.00000
  70
32
  0
VERTEX
  5
41D
  100
AcDbEntity
  8
Layer 1
  62
0
  100
AcDb2dVertex
  10
1.94900
  20
1.32800
  30
0.00000
  42
-0.0648
  70
32
  0
VERTEX
  5
41E
  100
AcDbEntity
  8
Layer 1
  62
0
  100
AcDb2dVertex
  10
1.98727
  20
1.33498
  30
0.00000
  70
32
  0
VERTEX
  5
41F
  100
AcDbEntity
  8
Layer 1
  62
0
  100
AcDb2dVertex
  10
1.98900
  20
1.33500
  30
0.00000
  42
-0.2693
  70
32
  0
VERTEX
  5
420
  100
AcDbEntity
  8
Layer 1
  62
0
  100
AcDb2dVertex
  10
2.00382
  20
1.32646
  30
0.00000
  42
-0.0923
  70
32
  0
VERTEX
  5
421
  100
AcDbEntity
  8
Layer 1
  62
0
  100
AcDb2dVertex
  10
2.01100
  20
1.30700
  30
0.00000
  70
32
  0
SEQEND
  5
422
  100
AcDbEntity
  8
Layer 1
  62
0
  0
POLYLINE
  5
423
  100
AcDbEntity
  8
Layer 1
  62
0
  100
AcDb2dPolyline
 66
     1
  10
0
  20
0
  30
0
  70
1
  0
VERTEX
  5
424
  100
AcDbEntity
  8
Layer 1
  62
0
  100
AcDb2dVertex
  10
2.04200
  20
1.19700
  30
0.00000
  42
-0.1986
  70
32
  0
VERTEX
  5
425
  100
AcDbEntity
  8
Layer 1
  62
0
  100
AcDb2dVertex
  10
2.03399
  20
1.17937
  30
0.00000
  42
-0.0633
  70
32
  0
VERTEX
  5
426
  100
AcDbEntity
  8
Layer 1
  62
0
  100
AcDb2dVertex
  10
2.02200
  20
1.17000
  30
0.00000
  42
-0.1253
  70
32
  0
VERTEX
  5
427
  100
AcDbEntity
  8
Layer 1
  62
0
  100
AcDb2dVertex
  10
1.99749
  20
1.16079
  30
0.00000
  42
-0.0919
  70
32
  0
VERTEX
  5
428
  100
AcDbEntity
  8
Layer 1
  62
0
  100
AcDb2dVertex
  10
1.98600
  20
1.16200
  30
0.00000
  70
32
  0
VERTEX
  5
429
  100
AcDbEntity
  8
Layer 1
  62
0
  100
AcDb2dVertex
  10
1.97400
  20
1.15400
  30
0.00000
  42
0.2975
  70
32
  0
VERTEX
  5
42A
  100
AcDbEntity
  8
Layer 1
  62
0
  100
AcDb2dVertex
  10
1.97833
  20
1.14817
  30
0.00000
  42
0.0892
  70
32
  0
VERTEX
  5
42B
  100
AcDbEntity
  8
Layer 1
  62
0
  100
AcDb2dVertex
  10
1.99488
  20
1.14445
  30
0.00000
  70
32
  0
VERTEX
  5
42C
  100
AcDbEntity
  8
Layer 1
  62
0
  100
AcDb2dVertex
  10
2.00100
  20
1.14400
  30
0.00000
  70
32
  0
VERTEX
  5
42D
  100
AcDbEntity
  8
Layer 1
  62
0
  100
AcDb2dVertex
  10
2.02200
  20
1.10400
  30
0.00000
  42
-0.1452
  70
32
  0
VERTEX
  5
42E
  100
AcDbEntity
  8
Layer 1
  62
0
  100
AcDb2dVertex
  10
2.01855
  20
1.08906
  30
0.00000
  42
-0.2326
  70
32
  0
VERTEX
  5
42F
  100
AcDbEntity
  8
Layer 1
  62
0
  100
AcDb2dVertex
  10
2.00603
  20
1.08222
  30
0.00000
  70
32
  0
VERTEX
  5
430
  100
AcDbEntity
  8
Layer 1
  62
0
  100
AcDb2dVertex
  10
2.00200
  20
1.08200
  30
0.00000
  42
-0.2396
  70
32
  0
VERTEX
  5
431
  100
AcDbEntity
  8
Layer 1
  62
0
  100
AcDb2dVertex
  10
1.98461
  20
1.09164
  30
0.00000
  70
32
  0
VERTEX
  5
432
  100
AcDbEntity
  8
Layer 1
  62
0
  100
AcDb2dVertex
  10
1.98300
  20
1.09400
  30
0.00000
  42
0.0377
  70
32
  0
VERTEX
  5
433
  100
AcDbEntity
  8
Layer 1
  62
0
  100
AcDb2dVertex
  10
1.97100
  20
1.10900
  30
0.00000
  42
-0.0176
  70
32
  0
VERTEX
  5
434
  100
AcDbEntity
  8
Layer 1
  62
0
  100
AcDb2dVertex
  10
1.93200
  20
1.11900
  30
0.00000
  70
32
  0
VERTEX
  5
435
  100
AcDbEntity
  8
Layer 1
  62
0
  100
AcDb2dVertex
  10
1.93700
  20
1.14400
  30
0.00000
  70
32
  0
VERTEX
  5
436
  100
AcDbEntity
  8
Layer 1
  62
0
  100
AcDb2dVertex
  10
1.93200
  20
1.11900
  30
0.00000
  70
32
  0
VERTEX
  5
437
  100
AcDbEntity
  8
Layer 1
  62
0
  100
AcDb2dVertex
  10
1.91641
  20
1.12138
  30
0.00000
  42
0.0088
  70
32
  0
VERTEX
  5
438
  100
AcDbEntity
  8
Layer 1
  62
0
  100
AcDb2dVertex
  10
1.87700
  20
1.12700
  30
0.00000
  70
32
  0
VERTEX
  5
439
  100
AcDbEntity
  8
Layer 1
  62
0
  100
AcDb2dVertex
  10
1.88600
  20
1.15900
  30
0.00000
  70
32
  0
VERTEX
  5
43A
  100
AcDbEntity
  8
Layer 1
  62
0
  100
AcDb2dVertex
  10
1.87700
  20
1.12700
  30
0.00000
  70
32
  0
VERTEX
  5
43B
  100
AcDbEntity
  8
Layer 1
  62
0
  100
AcDb2dVertex
  10
1.82400
  20
1.13400
  30
0.00000
  42
0.0298
  70
32
  0
VERTEX
  5
43C
  100
AcDbEntity
  8
Layer 1
  62
0
  100
AcDb2dVertex
  10
1.80191
  20
1.13902
  30
0.00000
  70
32
  0
VERTEX
  5
43D
  100
AcDbEntity
  8
Layer 1
  62
0
  100
AcDb2dVertex
  10
1.76900
  20
1.14500
  30
0.00000
  70
32
  0
VERTEX
  5
43E
  100
AcDbEntity
  8
Layer 1
  62
0
  100
AcDb2dVertex
  10
1.77400
  20
1.17700
  30
0.00000
  70
32
  0
VERTEX
  5
43F
  100
AcDbEntity
  8
Layer 1
  62
0
  100
AcDb2dVertex
  10
1.76900
  20
1.14500
  30
0.00000
  42
0.0133
  70
32
  0
VERTEX
  5
440
  100
AcDbEntity
  8
Layer 1
  62
0
  100
AcDb2dVertex
  10
1.73158
  20
1.15262
  30
0.00000
  70
32
  0
VERTEX
  5
441
  100
AcDbEntity
  8
Layer 1
  62
0
  100
AcDb2dVertex
  10
1.71900
  20
1.15500
  30
0.00000
  70
32
  0
VERTEX
  5
442
  100
AcDbEntity
  8
Layer 1
  62
0
  100
AcDb2dVertex
  10
1.72400
  20
1.18900
  30
0.00000
  70
32
  0
VERTEX
  5
443
  100
AcDbEntity
  8
Layer 1
  62
0
  100
AcDb2dVertex
  10
1.71900
  20
1.15500
  30
0.00000
  70
32
  0
VERTEX
  5
444
  100
AcDbEntity
  8
Layer 1
  62
0
  100
AcDb2dVertex
  10
1.69575
  20
1.16175
  30
0.00000
  42
-0.0520
  70
32
  0
VERTEX
  5
445
  100
AcDbEntity
  8
Layer 1
  62
0
  100
AcDb2dVertex
  10
1.68900
  20
1.16400
  30
0.00000
  42
0.1218
  70
32
  0
VERTEX
  5
446
  100
AcDbEntity
  8
Layer 1
  62
0
  100
AcDb2dVertex
  10
1.67625
  20
1.15922
  30
0.00000
  70
32
  0
VERTEX
  5
447
  100
AcDbEntity
  8
Layer 1
  62
0
  100
AcDb2dVertex
  10
1.67000
  20
1.15500
  30
0.00000
  42
-0.1602
  70
32
  0
VERTEX
  5
448
  100
AcDbEntity
  8
Layer 1
  62
0
  100
AcDb2dVertex
  10
1.64912
  20
1.14509
  30
0.00000
  70
32
  0
VERTEX
  5
449
  100
AcDbEntity
  8
Layer 1
  62
0
  100
AcDb2dVertex
  10
1.64700
  20
1.14500
  30
0.00000
  42
-0.2218
  70
32
  0
VERTEX
  5
44A
  100
AcDbEntity
  8
Layer 1
  62
0
  100
AcDb2dVertex
  10
1.63201
  20
1.15088
  30
0.00000
  42
-0.1810
  70
32
  0
VERTEX
  5
44B
  100
AcDbEntity
  8
Layer 1
  62
0
  100
AcDb2dVertex
  10
1.62700
  20
1.16664
  30
0.00000
  70
32
  0
VERTEX
  5
44C
  100
AcDbEntity
  8
Layer 1
  62
0
  100
AcDb2dVertex
  10
1.62700
  20
1.16700
  30
0.00000
  42
-0.2136
  70
32
  0
VERTEX
  5
44D
  100
AcDbEntity
  8
Layer 1
  62
0
  100
AcDb2dVertex
  10
1.63372
  20
1.18045
  30
0.00000
  42
-0.0833
  70
32
  0
VERTEX
  5
44E
  100
AcDbEntity
  8
Layer 1
  62
0
  100
AcDb2dVertex
  10
1.65100
  20
1.19100
  30
0.00000
  42
-0.0818
  70
32
  0
VERTEX
  5
44F
  100
AcDbEntity
  8
Layer 1
  62
0
  100
AcDb2dVertex
  10
1.67749
  20
1.19942
  30
0.00000
  42
-0.0795
  70
32
  0
VERTEX
  5
450
  100
AcDbEntity
  8
Layer 1
  62
0
  100
AcDb2dVertex
  10
1.68700
  20
1.19900
  30
0.00000
  42
-0.0403
  70
32
  0
VERTEX
  5
451
  100
AcDbEntity
  8
Layer 1
  62
0
  100
AcDb2dVertex
  10
1.68821
  20
1.20621
  30
0.00000
  70
32
  0
VERTEX
  5
452
  100
AcDbEntity
  8
Layer 1
  62
0
  100
AcDb2dVertex
  10
1.68900
  20
1.21000
  30
0.00000
  42
-0.0511
  70
32
  0
VERTEX
  5
453
  100
AcDbEntity
  8
Layer 1
  62
0
  100
AcDb2dVertex
  10
1.65587
  20
1.23866
  30
0.00000
  42
-0.1078
  70
32
  0
VERTEX
  5
454
  100
AcDbEntity
  8
Layer 1
  62
0
  100
AcDb2dVertex
  10
1.64485
  20
1.25641
  30
0.00000
  42
-0.0713
  70
32
  0
VERTEX
  5
455
  100
AcDbEntity
  8
Layer 1
  62
0
  100
AcDb2dVertex
  10
1.64400
  20
1.26200
  30
0.00000
  42
-0.2169
  70
32
  0
VERTEX
  5
456
  100
AcDbEntity
  8
Layer 1
  62
0
  100
AcDb2dVertex
  10
1.64884
  20
1.27503
  30
0.00000
  42
-0.1694
  70
32
  0
VERTEX
  5
457
  100
AcDbEntity
  8
Layer 1
  62
0
  100
AcDb2dVertex
  10
1.66242
  20
1.27988
  30
0.00000
  70
32
  0
VERTEX
  5
458
  100
AcDbEntity
  8
Layer 1
  62
0
  100
AcDb2dVertex
  10
1.66600
  20
1.28000
  30
0.00000
  42
-0.0873
  70
32
  0
VERTEX
  5
459
  100
AcDbEntity
  8
Layer 1
  62
0
  100
AcDb2dVertex
  10
1.67594
  20
1.27622
  30
0.00000
  42
-0.0288
  70
32
  0
VERTEX
  5
45A
  100
AcDbEntity
  8
Layer 1
  62
0
  100
AcDb2dVertex
  10
1.69800
  20
1.26300
  30
0.00000
  70
32
  0
VERTEX
  5
45B
  100
AcDbEntity
  8
Layer 1
  62
0
  100
AcDb2dVertex
  10
1.70277
  20
1.25998
  30
0.00000
  42
0.0143
  70
32
  0
VERTEX
  5
45C
  100
AcDbEntity
  8
Layer 1
  62
0
  100
AcDb2dVertex
  10
1.73200
  20
1.24200
  30
0.00000
  70
32
  0
VERTEX
  5
45D
  100
AcDbEntity
  8
Layer 1
  62
0
  100
AcDb2dVertex
  10
1.78600
  20
1.23200
  30
0.00000
  70
32
  0
VERTEX
  5
45E
  100
AcDbEntity
  8
Layer 1
  62
0
  100
AcDb2dVertex
  10
1.77900
  20
1.20400
  30
0.00000
  70
32
  0
VERTEX
  5
45F
  100
AcDbEntity
  8
Layer 1
  62
0
  100
AcDb2dVertex
  10
1.78600
  20
1.23200
  30
0.00000
  70
32
  0
VERTEX
  5
460
  100
AcDbEntity
  8
Layer 1
  62
0
  100
AcDb2dVertex
  10
1.84400
  20
1.22200
  30
0.00000
  70
32
  0
VERTEX
  5
461
  100
AcDbEntity
  8
Layer 1
  62
0
  100
AcDb2dVertex
  10
1.89400
  20
1.21200
  30
0.00000
  70
32
  0
VERTEX
  5
462
  100
AcDbEntity
  8
Layer 1
  62
0
  100
AcDb2dVertex
  10
1.88900
  20
1.18500
  30
0.00000
  70
32
  0
VERTEX
  5
463
  100
AcDbEntity
  8
Layer 1
  62
0
  100
AcDb2dVertex
  10
1.89400
  20
1.21200
  30
0.00000
  70
32
  0
VERTEX
  5
464
  100
AcDbEntity
  8
Layer 1
  62
0
  100
AcDb2dVertex
  10
1.94900
  20
1.20000
  30
0.00000
  70
32
  0
VERTEX
  5
465
  100
AcDbEntity
  8
Layer 1
  62
0
  100
AcDb2dVertex
  10
1.94400
  20
1.17400
  30
0.00000
  70
32
  0
VERTEX
  5
466
  100
AcDbEntity
  8
Layer 1
  62
0
  100
AcDb2dVertex
  10
1.94900
  20
1.20000
  30
0.00000
  42
-0.0850
  70
32
  0
VERTEX
  5
467
  100
AcDbEntity
  8
Layer 1
  62
0
  100
AcDb2dVertex
  10
1.96300
  20
1.19800
  30
0.00000
  42
0.0627
  70
32
  0
VERTEX
  5
468
  100
AcDbEntity
  8
Layer 1
  62
0
  100
AcDb2dVertex
  10
1.97600
  20
1.19500
  30
0.00000
  42
0.1443
  70
32
  0
VERTEX
  5
469
  100
AcDbEntity
  8
Layer 1
  62
0
  100
AcDb2dVertex
  10
1.99545
  20
1.20182
  30
0.00000
  70
32
  0
VERTEX
  5
46A
  100
AcDbEntity
  8
Layer 1
  62
0
  100
AcDb2dVertex
  10
2.00000
  20
1.20500
  30
0.00000
  42
-0.1510
  70
32
  0
VERTEX
  5
46B
  100
AcDbEntity
  8
Layer 1
  62
0
  100
AcDb2dVertex
  10
2.01992
  20
1.21489
  30
0.00000
  70
32
  0
VERTEX
  5
46C
  100
AcDbEntity
  8
Layer 1
  62
0
  100
AcDb2dVertex
  10
2.02200
  20
1.21500
  30
0.00000
  42
-0.1558
  70
32
  0
VERTEX
  5
46D
  100
AcDbEntity
  8
Layer 1
  62
0
  100
AcDb2dVertex
  10
2.03599
  20
1.21152
  30
0.00000
  42
-0.2310
  70
32
  0
VERTEX
  5
46E
  100
AcDbEntity
  8
Layer 1
  62
0
  100
AcDb2dVertex
  10
2.04191
  20
1.19947
  30
0.00000
  70
32
  0
VERTEX
  5
46F
  100
AcDbEntity
  8
Layer 1
  62
0
  100
AcDb2dVertex
  10
2.04200
  20
1.19700
  30
0.00000
  70
32
  0
SEQEND
  5
470
  100
AcDbEntity
  8
Layer 1
  62
0
  0
POLYLINE
  5
471
  100
AcDbEntity
  8
Layer 1
  62
0
  100
AcDb2dPolyline
 66
     1
  10
0
  20
0
  30
0
  70
1
  0
VERTEX
  5
472
  100
AcDbEntity
  8
Layer 1
  62
0
  100
AcDb2dVertex
  10
2.03600
  20
0.95900
  30
0.00000
  42
-0.1318
  70
32
  0
VERTEX
  5
473
  100
AcDbEntity
  8
Layer 1
  62
0
  100
AcDb2dVertex
  10
2.02956
  20
0.93909
  30
0.00000
  70
32
  0
VERTEX
  5
474
  100
AcDbEntity
  8
Layer 1
  62
0
  100
AcDb2dVertex
  10
2.02700
  20
0.93500
  30
0.00000
  42
-0.1706
  70
32
  0
VERTEX
  5
475
  100
AcDbEntity
  8
Layer 1
  62
0
  100
AcDb2dVertex
  10
2.01464
  20
0.92167
  30
0.00000
  42
-0.1098
  70
32
  0
VERTEX
  5
476
  100
AcDbEntity
  8
Layer 1
  62
0
  100
AcDb2dVertex
  10
2.00700
  20
0.92000
  30
0.00000
  42
-0.1117
  70
32
  0
VERTEX
  5
477
  100
AcDbEntity
  8
Layer 1
  62
0
  100
AcDb2dVertex
  10
1.99265
  20
0.92458
  30
0.00000
  70
32
  0
VERTEX
  5
478
  100
AcDbEntity
  8
Layer 1
  62
0
  100
AcDb2dVertex
  10
1.98300
  20
0.93000
  30
0.00000
  42
0.0921
  70
32
  0
VERTEX
  5
479
  100
AcDbEntity
  8
Layer 1
  62
0
  100
AcDb2dVertex
  10
1.96607
  20
0.93968
  30
0.00000
  70
32
  0
VERTEX
  5
47A
  100
AcDbEntity
  8
Layer 1
  62
0
  100
AcDb2dVertex
  10
1.96400
  20
0.94000
  30
0.00000
  42
-0.0924
  70
32
  0
VERTEX
  5
47B
  100
AcDbEntity
  8
Layer 1
  62
0
  100
AcDb2dVertex
  10
1.93118
  20
0.92225
  30
0.00000
  42
-0.0705
  70
32
  0
VERTEX
  5
47C
  100
AcDbEntity
  8
Layer 1
  62
0
  100
AcDb2dVertex
  10
1.91600
  20
0.92000
  30
0.00000
  42
-0.0806
  70
32
  0
VERTEX
  5
47D
  100
AcDbEntity
  8
Layer 1
  62
0
  100
AcDb2dVertex
  10
1.89452
  20
0.92468
  30
0.00000
  70
32
  0
VERTEX
  5
47E
  100
AcDbEntity
  8
Layer 1
  62
0
  100
AcDb2dVertex
  10
1.88800
  20
0.92700
  30
0.00000
  42
-0.1514
  70
32
  0
VERTEX
  5
47F
  100
AcDbEntity
  8
Layer 1
  62
0
  100
AcDb2dVertex
  10
1.87416
  20
0.93700
  30
0.00000
  42
-0.1469
  70
32
  0
VERTEX
  5
480
  100
AcDbEntity
  8
Layer 1
  62
0
  100
AcDb2dVertex
  10
1.87200
  20
0.94400
  30
0.00000
  42
-0.3189
  70
32
  0
VERTEX
  5
481
  100
AcDbEntity
  8
Layer 1
  62
0
  100
AcDb2dVertex
  10
1.87873
  20
0.95320
  30
0.00000
  42
-0.0747
  70
32
  0
VERTEX
  5
482
  100
AcDbEntity
  8
Layer 1
  62
0
  100
AcDb2dVertex
  10
1.88600
  20
0.95500
  30
0.00000
  42
-0.0074
  70
32
  0
VERTEX
  5
483
  100
AcDbEntity
  8
Layer 1
  62
0
  100
AcDb2dVertex
  10
1.92400
  20
0.95000
  30
0.00000
  42
0.1715
  70
32
  0
VERTEX
  5
484
  100
AcDbEntity
  8
Layer 1
  62
0
  100
AcDb2dVertex
  10
1.94806
  20
0.95932
  30
0.00000
  42
0.0644
  70
32
  0
VERTEX
  5
485
  100
AcDbEntity
  8
Layer 1
  62
0
  100
AcDb2dVertex
  10
1.96200
  20
0.97400
  30
0.00000
  42
0.2694
  70
32
  0
VERTEX
  5
486
  100
AcDbEntity
  8
Layer 1
  62
0
  100
AcDb2dVertex
  10
1.96575
  20
1.01459
  30
0.00000
  42
0.0329
  70
32
  0
VERTEX
  5
487
  100
AcDbEntity
  8
Layer 1
  62
0
  100
AcDb2dVertex
  10
1.96200
  20
1.02200
  30
0.00000
  42
0.0329
  70
32
  0
VERTEX
  5
488
  100
AcDbEntity
  8
Layer 1
  62
0
  100
AcDb2dVertex
  10
1.94600
  20
1.03600
  30
0.00000
  42
-0.0949
  70
32
  0
VERTEX
  5
489
  100
AcDbEntity
  8
Layer 1
  62
0
  100
AcDb2dVertex
  10
1.93352
  20
1.04885
  30
0.00000
  42
-0.1270
  70
32
  0
VERTEX
  5
48A
  100
AcDbEntity
  8
Layer 1
  62
0
  100
AcDb2dVertex
  10
1.93200
  20
1.05400
  30
0.00000
  42
-0.2345
  70
32
  0
VERTEX
  5
48B
  100
AcDbEntity
  8
Layer 1
  62
0
  100
AcDb2dVertex
  10
1.93600
  20
1.06419
  30
0.00000
  42
-0.1714
  70
32
  0
VERTEX
  5
48C
  100
AcDbEntity
  8
Layer 1
  62
0
  100
AcDb2dVertex
  10
1.94600
  20
1.06700
  30
0.00000
  42
-0.1731
  70
32
  0
VERTEX
  5
48D
  100
AcDbEntity
  8
Layer 1
  62
0
  100
AcDb2dVertex
  10
1.96813
  20
1.05840
  30
0.00000
  42
-0.0410
  70
32
  0
VERTEX
  5
48E
  100
AcDbEntity
  8
Layer 1
  62
0
  100
AcDb2dVertex
  10
1.97700
  20
1.05000
  30
0.00000
  42
-0.1199
  70
32
  0
VERTEX
  5
48F
  100
AcDbEntity
  8
Layer 1
  62
0
  100
AcDb2dVertex
  10
1.99038
  20
1.02138
  30
0.00000
  42
-0.0416
  70
32
  0
VERTEX
  5
490
  100
AcDbEntity
  8
Layer 1
  62
0
  100
AcDb2dVertex
  10
1.99100
  20
1.01400
  30
0.00000
  70
32
  0
VERTEX
  5
491
  100
AcDbEntity
  8
Layer 1
  62
0
  100
AcDb2dVertex
  10
1.99049
  20
1.01253
  30
0.00000
  42
0.0975
  70
32
  0
VERTEX
  5
492
  100
AcDbEntity
  8
Layer 1
  62
0
  100
AcDb2dVertex
  10
1.98900
  20
1.00500
  30
0.00000
  42
0.2017
  70
32
  0
VERTEX
  5
493
  100
AcDbEntity
  8
Layer 1
  62
0
  100
AcDb2dVertex
  10
1.99538
  20
0.99159
  30
0.00000
  42
0.0743
  70
32
  0
VERTEX
  5
494
  100
AcDbEntity
  8
Layer 1
  62
0
  100
AcDb2dVertex
  10
2.01200
  20
0.98000
  30
0.00000
  42
-0.0979
  70
32
  0
VERTEX
  5
495
  100
AcDbEntity
  8
Layer 1
  62
0
  100
AcDb2dVertex
  10
2.03185
  20
0.96731
  30
0.00000
  42
-0.1860
  70
32
  0
VERTEX
  5
496
  100
AcDbEntity
  8
Layer 1
  62
0
  100
AcDb2dVertex
  10
2.03600
  20
0.95900
  30
0.00000
  70
32
  0
SEQEND
  5
497
  100
AcDbEntity
  8
Layer 1
  62
0
  0
POLYLINE
  5
498
  100
AcDbEntity
  8
Layer 1
  62
0
  100
AcDb2dPolyline
 66
     1
  10
0
  20
0
  30
0
  70
1
  0
VERTEX
  5
499
  100
AcDbEntity
  8
Layer 1
  62
0
  100
AcDb2dVertex
  10
2.03200
  20
1.59900
  30
0.00000
  42
-0.0641
  70
32
  0
VERTEX
  5
49A
  100
AcDbEntity
  8
Layer 1
  62
0
  100
AcDb2dVertex
  10
2.02673
  20
1.57108
  30
0.00000
  42
-0.1640
  70
32
  0
VERTEX
  5
49B
  100
AcDbEntity
  8
Layer 1
  62
0
  100
AcDb2dVertex
  10
2.02007
  20
1.56155
  30
0.00000
  70
32
  0
VERTEX
  5
49C
  100
AcDbEntity
  8
Layer 1
  62
0
  100
AcDb2dVertex
  10
2.01900
  20
1.56100
  30
0.00000
  70
32
  0
VERTEX
  5
49D
  100
AcDbEntity
  8
Layer 1
  62
0
  100
AcDb2dVertex
  10
2.02400
  20
1.54700
  30
0.00000
  42
-0.0858
  70
32
  0
VERTEX
  5
49E
  100
AcDbEntity
  8
Layer 1
  62
0
  100
AcDb2dVertex
  10
2.02700
  20
1.53400
  30
0.00000
  42
-0.3003
  70
32
  0
VERTEX
  5
49F
  100
AcDbEntity
  8
Layer 1
  62
0
  100
AcDb2dVertex
  10
2.02078
  20
1.52268
  30
0.00000
  42
-0.1382
  70
32
  0
VERTEX
  5
4A0
  100
AcDbEntity
  8
Layer 1
  62
0
  100
AcDb2dVertex
  10
2.00900
  20
1.52100
  30
0.00000
  42
-0.0435
  70
32
  0
VERTEX
  5
4A1
  100
AcDbEntity
  8
Layer 1
  62
0
  100
AcDb2dVertex
  10
1.97400
  20
1.52200
  30
0.00000
  42
0.0162
  70
32
  0
VERTEX
  5
4A2
  100
AcDbEntity
  8
Layer 1
  62
0
  100
AcDb2dVertex
  10
1.95670
  20
1.52086
  30
0.00000
  70
32
  0
VERTEX
  5
4A3
  100
AcDbEntity
  8
Layer 1
  62
0
  100
AcDb2dVertex
  10
1.94600
  20
1.52000
  30
0.00000
  42
-0.0310
  70
32
  0
VERTEX
  5
4A4
  100
AcDbEntity
  8
Layer 1
  62
0
  100
AcDb2dVertex
  10
1.91600
  20
1.51700
  30
0.00000
  42
-0.1601
  70
32
  0
VERTEX
  5
4A5
  100
AcDbEntity
  8
Layer 1
  62
0
  100
AcDb2dVertex
  10
1.89612
  20
1.52249
  30
0.00000
  42
-0.1844
  70
32
  0
VERTEX
  5
4A6
  100
AcDbEntity
  8
Layer 1
  62
0
  100
AcDb2dVertex
  10
1.88700
  20
1.53700
  30
0.00000
  42
0.0817
  70
32
  0
VERTEX
  5
4A7
  100
AcDbEntity
  8
Layer 1
  62
0
  100
AcDb2dVertex
  10
1.87979
  20
1.55344
  30
0.00000
  42
0.2394
  70
32
  0
VERTEX
  5
4A8
  100
AcDbEntity
  8
Layer 1
  62
0
  100
AcDb2dVertex
  10
1.87400
  20
1.55700
  30
0.00000
  42
0.1415
  70
32
  0
VERTEX
  5
4A9
  100
AcDbEntity
  8
Layer 1
  62
0
  100
AcDb2dVertex
  10
1.86774
  20
1.55339
  30
0.00000
  70
32
  0
VERTEX
  5
4AA
  100
AcDbEntity
  8
Layer 1
  62
0
  100
AcDb2dVertex
  10
1.86300
  20
1.54900
  30
0.00000
  42
-0.2575
  70
32
  0
VERTEX
  5
4AB
  100
AcDbEntity
  8
Layer 1
  62
0
  100
AcDb2dVertex
  10
1.84776
  20
1.54313
  30
0.00000
  42
-0.0376
  70
32
  0
VERTEX
  5
4AC
  100
AcDbEntity
  8
Layer 1
  62
0
  100
AcDb2dVertex
  10
1.84200
  20
1.54400
  30
0.00000
  42
0.0511
  70
32
  0
VERTEX
  5
4AD
  100
AcDbEntity
  8
Layer 1
  62
0
  100
AcDb2dVertex
  10
1.82700
  20
1.52900
  30
0.00000
  42
0.0969
  70
32
  0
VERTEX
  5
4AE
  100
AcDbEntity
  8
Layer 1
  62
0
  100
AcDb2dVertex
  10
1.80437
  20
1.51947
  30
0.00000
  42
0.1405
  70
32
  0
VERTEX
  5
4AF
  100
AcDbEntity
  8
Layer 1
  62
0
  100
AcDb2dVertex
  10
1.79600
  20
1.50900
  30
0.00000
  70
32
  0
VERTEX
  5
4B0
  100
AcDbEntity
  8
Layer 1
  62
0
  100
AcDb2dVertex
  10
1.78200
  20
1.50900
  30
0.00000
  42
0.2592
  70
32
  0
VERTEX
  5
4B1
  100
AcDbEntity
  8
Layer 1
  62
0
  100
AcDb2dVertex
  10
1.77129
  20
1.50256
  30
0.00000
  42
0.1013
  70
32
  0
VERTEX
  5
4B2
  100
AcDbEntity
  8
Layer 1
  62
0
  100
AcDb2dVertex
  10
1.76432
  20
1.48281
  30
0.00000
  70
32
  0
VERTEX
  5
4B3
  100
AcDbEntity
  8
Layer 1
  62
0
  100
AcDb2dVertex
  10
1.76400
  20
1.48100
  30
0.00000
  42
-0.2291
  70
32
  0
VERTEX
  5
4B4
  100
AcDbEntity
  8
Layer 1
  62
0
  100
AcDb2dVertex
  10
1.75939
  20
1.47754
  30
0.00000
  70
32
  0
VERTEX
  5
4B5
  100
AcDbEntity
  8
Layer 1
  62
0
  100
AcDb2dVertex
  10
1.75184
  20
1.47546
  30
0.00000
  70
32
  0
VERTEX
  5
4B6
  100
AcDbEntity
  8
Layer 1
  62
0
  100
AcDb2dVertex
  10
1.75000
  20
1.47500
  30
0.00000
  42
0.2817
  70
32
  0
VERTEX
  5
4B7
  100
AcDbEntity
  8
Layer 1
  62
0
  100
AcDb2dVertex
  10
1.73954
  20
1.46630
  30
0.00000
  42
0.0995
  70
32
  0
VERTEX
  5
4B8
  100
AcDbEntity
  8
Layer 1
  62
0
  100
AcDb2dVertex
  10
1.73700
  20
1.45100
  30
0.00000
  42
-0.1746
  70
32
  0
VERTEX
  5
4B9
  100
AcDbEntity
  8
Layer 1
  62
0
  100
AcDb2dVertex
  10
1.73457
  20
1.44163
  30
0.00000
  70
32
  0
VERTEX
  5
4BA
  100
AcDbEntity
  8
Layer 1
  62
0
  100
AcDb2dVertex
  10
1.73400
  20
1.44100
  30
0.00000
  42
0.1125
  70
32
  0
VERTEX
  5
4BB
  100
AcDbEntity
  8
Layer 1
  62
0
  100
AcDb2dVertex
  10
1.71683
  20
1.43559
  30
0.00000
  42
0.2646
  70
32
  0
VERTEX
  5
4BC
  100
AcDbEntity
  8
Layer 1
  62
0
  100
AcDb2dVertex
  10
1.71100
  20
1.42500
  30
0.00000
  70
32
  0
VERTEX
  5
4BD
  100
AcDbEntity
  8
Layer 1
  62
0
  100
AcDb2dVertex
  10
1.71700
  20
1.40200
  30
0.00000
  70
32
  0
VERTEX
  5
4BE
  100
AcDbEntity
  8
Layer 1
  62
0
  100
AcDb2dVertex
  10
1.71600
  20
1.39400
  30
0.00000
  42
-0.1446
  70
32
  0
VERTEX
  5
4BF
  100
AcDbEntity
  8
Layer 1
  62
0
  100
AcDb2dVertex
  10
1.70967
  20
1.38993
  30
0.00000
  42
-0.0414
  70
32
  0
VERTEX
  5
4C0
  100
AcDbEntity
  8
Layer 1
  62
0
  100
AcDb2dVertex
  10
1.70000
  20
1.38700
  30
0.00000
  42
0.1470
  70
32
  0
VERTEX
  5
4C1
  100
AcDbEntity
  8
Layer 1
  62
0
  100
AcDb2dVertex
  10
1.68872
  20
1.38200
  30
0.00000
  42
0.2054
  70
32
  0
VERTEX
  5
4C2
  100
AcDbEntity
  8
Layer 1
  62
0
  100
AcDb2dVertex
  10
1.68600
  20
1.37500
  30
0.00000
  70
32
  0
VERTEX
  5
4C3
  100
AcDbEntity
  8
Layer 1
  62
0
  100
AcDb2dVertex
  10
1.69200
  20
1.35200
  30
0.00000
  70
32
  0
VERTEX
  5
4C4
  100
AcDbEntity
  8
Layer 1
  62
0
  100
AcDb2dVertex
  10
1.68900
  20
1.34400
  30
0.00000
  42
-0.0841
  70
32
  0
VERTEX
  5
4C5
  100
AcDbEntity
  8
Layer 1
  62
0
  100
AcDb2dVertex
  10
1.68162
  20
1.34210
  30
0.00000
  70
32
  0
VERTEX
  5
4C6
  100
AcDbEntity
  8
Layer 1
  62
0
  100
AcDb2dVertex
  10
1.67416
  20
1.34085
  30
0.00000
  70
32
  0
VERTEX
  5
4C7
  100
AcDbEntity
  8
Layer 1
  62
0
  100
AcDb2dVertex
  10
1.66900
  20
1.34000
  30
0.00000
  42
0.1907
  70
32
  0
VERTEX
  5
4C8
  100
AcDbEntity
  8
Layer 1
  62
0
  100
AcDb2dVertex
  10
1.65957
  20
1.33725
  30
0.00000
  42
0.2119
  70
32
  0
VERTEX
  5
4C9
  100
AcDbEntity
  8
Layer 1
  62
0
  100
AcDb2dVertex
  10
1.65700
  20
1.33000
  30
0.00000
  42
0.1024
  70
32
  0
VERTEX
  5
4CA
  100
AcDbEntity
  8
Layer 1
  62
0
  100
AcDb2dVertex
  10
1.66038
  20
1.32026
  30
0.00000
  70
32
  0
VERTEX
  5
4CB
  100
AcDbEntity
  8
Layer 1
  62
0
  100
AcDb2dVertex
  10
1.66200
  20
1.31700
  30
0.00000
  70
32
  0
VERTEX
  5
4CC
  100
AcDbEntity
  8
Layer 1
  62
0
  100
AcDb2dVertex
  10
1.66418
  20
1.31127
  30
0.00000
  42
-0.0950
  70
32
  0
VERTEX
  5
4CD
  100
AcDbEntity
  8
Layer 1
  62
0
  100
AcDb2dVertex
  10
1.66600
  20
1.30500
  30
0.00000
  70
32
  0
VERTEX
  5
4CE
  100
AcDbEntity
  8
Layer 1
  62
0
  100
AcDb2dVertex
  10
1.66400
  20
1.30000
  30
0.00000
  70
32
  0
VERTEX
  5
4CF
  100
AcDbEntity
  8
Layer 1
  62
0
  100
AcDb2dVertex
  10
1.65400
  20
1.29500
  30
0.00000
  42
0.0367
  70
32
  0
VERTEX
  5
4D0
  100
AcDbEntity
  8
Layer 1
  62
0
  100
AcDb2dVertex
  10
1.63600
  20
1.29700
  30
0.00000
  42
0.1578
  70
32
  0
VERTEX
  5
4D1
  100
AcDbEntity
  8
Layer 1
  62
0
  100
AcDb2dVertex
  10
1.62308
  20
1.29379
  30
0.00000
  42
0.2494
  70
32
  0
VERTEX
  5
4D2
  100
AcDbEntity
  8
Layer 1
  62
0
  100
AcDb2dVertex
  10
1.61900
  20
1.28500
  30
0.00000
  42
0.1227
  70
32
  0
VERTEX
  5
4D3
  100
AcDbEntity
  8
Layer 1
  62
0
  100
AcDb2dVertex
  10
1.62235
  20
1.27611
  30
0.00000
  70
32
  0
VERTEX
  5
4D4
  100
AcDbEntity
  8
Layer 1
  62
0
  100
AcDb2dVertex
  10
1.62300
  20
1.27500
  30
0.00000
  42
-0.1287
  70
32
  0
VERTEX
  5
4D5
  100
AcDbEntity
  8
Layer 1
  62
0
  100
AcDb2dVertex
  10
1.62700
  20
1.26200
  30
0.00000
  42
-0.3285
  70
32
  0
VERTEX
  5
4D6
  100
AcDbEntity
  8
Layer 1
  62
0
  100
AcDb2dVertex
  10
1.61985
  20
1.25295
  30
0.00000
  42
-0.0530
  70
32
  0
VERTEX
  5
4D7
  100
AcDbEntity
  8
Layer 1
  62
0
  100
AcDb2dVertex
  10
1.61600
  20
1.25200
  30
0.00000
  70
32
  0
VERTEX
  5
4D8
  100
AcDbEntity
  8
Layer 1
  62
0
  100
AcDb2dVertex
  10
1.59400
  20
1.25900
  30
0.00000
  42
0.1976
  70
32
  0
VERTEX
  5
4D9
  100
AcDbEntity
  8
Layer 1
  62
0
  100
AcDb2dVertex
  10
1.58400
  20
1.25588
  30
0.00000
  42
0.2056
  70
32
  0
VERTEX
  5
4DA
  100
AcDbEntity
  8
Layer 1
  62
0
  100
AcDb2dVertex
  10
1.58100
  20
1.24700
  30
0.00000
  42
0.1017
  70
32
  0
VERTEX
  5
4DB
  100
AcDbEntity
  8
Layer 1
  62
0
  100
AcDb2dVertex
  10
1.58500
  20
1.23500
  30
0.00000
  42
-0.0957
  70
32
  0
VERTEX
  5
4DC
  100
AcDbEntity
  8
Layer 1
  62
0
  100
AcDb2dVertex
  10
1.58899
  20
1.22077
  30
0.00000
  70
32
  0
VERTEX
  5
4DD
  100
AcDbEntity
  8
Layer 1
  62
0
  100
AcDb2dVertex
  10
1.58900
  20
1.22000
  30
0.00000
  42
-0.3715
  70
32
  0
VERTEX
  5
4DE
  100
AcDbEntity
  8
Layer 1
  62
0
  100
AcDb2dVertex
  10
1.58104
  20
1.20986
  30
0.00000
  42
-0.0696
  70
32
  0
VERTEX
  5
4DF
  100
AcDbEntity
  8
Layer 1
  62
0
  100
AcDb2dVertex
  10
1.57400
  20
1.20900
  30
0.00000
  42
-0.1060
  70
32
  0
VERTEX
  5
4E0
  100
AcDbEntity
  8
Layer 1
  62
0
  100
AcDb2dVertex
  10
1.56284
  20
1.21290
  30
0.00000
  70
32
  0
VERTEX
  5
4E1
  100
AcDbEntity
  8
Layer 1
  62
0
  100
AcDb2dVertex
  10
1.55900
  20
1.21500
  30
0.00000
  42
0.0756
  70
32
  0
VERTEX
  5
4E2
  100
AcDbEntity
  8
Layer 1
  62
0
  100
AcDb2dVertex
  10
1.54379
  20
1.21992
  30
0.00000
  70
32
  0
VERTEX
  5
4E3
  100
AcDbEntity
  8
Layer 1
  62
0
  100
AcDb2dVertex
  10
1.54200
  20
1.22000
  30
0.00000
  42
0.2197
  70
32
  0
VERTEX
  5
4E4
  100
AcDbEntity
  8
Layer 1
  62
0
  100
AcDb2dVertex
  10
1.53314
  20
1.21695
  30
0.00000
  42
0.1412
  70
32
  0
VERTEX
  5
4E5
  100
AcDbEntity
  8
Layer 1
  62
0
  100
AcDb2dVertex
  10
1.53100
  20
1.21200
  30
0.00000
  42
0.1022
  70
32
  0
VERTEX
  5
4E6
  100
AcDbEntity
  8
Layer 1
  62
0
  100
AcDb2dVertex
  10
1.53082
  20
1.19833
  30
0.00000
  70
32
  0
VERTEX
  5
4E7
  100
AcDbEntity
  8
Layer 1
  62
0
  100
AcDb2dVertex
  10
1.53100
  20
1.19700
  30
0.00000
  42
-0.0246
  70
32
  0
VERTEX
  5
4E8
  100
AcDbEntity
  8
Layer 1
  62
0
  100
AcDb2dVertex
  10
1.53200
  20
1.18000
  30
0.00000
  42
-0.2075
  70
32
  0
VERTEX
  5
4E9
  100
AcDbEntity
  8
Layer 1
  62
0
  100
AcDb2dVertex
  10
1.52810
  20
1.16860
  30
0.00000
  42
-0.1964
  70
32
  0
VERTEX
  5
4EA
  100
AcDbEntity
  8
Layer 1
  62
0
  100
AcDb2dVertex
  10
1.51700
  20
1.16500
  30
0.00000
  42
-0.1841
  70
32
  0
VERTEX
  5
4EB
  100
AcDbEntity
  8
Layer 1
  62
0
  100
AcDb2dVertex
  10
1.50382
  20
1.17106
  30
0.00000
  70
32
  0
VERTEX
  5
4EC
  100
AcDbEntity
  8
Layer 1
  62
0
  100
AcDb2dVertex
  10
1.50000
  20
1.17500
  30
0.00000
  42
0.1416
  70
32
  0
VERTEX
  5
4ED
  100
AcDbEntity
  8
Layer 1
  62
0
  100
AcDb2dVertex
  10
1.48583
  20
1.18382
  30
0.00000
  70
32
  0
VERTEX
  5
4EE
  100
AcDbEntity
  8
Layer 1
  62
0
  100
AcDb2dVertex
  10
1.48400
  20
1.18400
  30
0.00000
  42
0.2988
  70
32
  0
VERTEX
  5
4EF
  100
AcDbEntity
  8
Layer 1
  62
0
  100
AcDb2dVertex
  10
1.47326
  20
1.17691
  30
0.00000
  42
0.1049
  70
32
  0
VERTEX
  5
4F0
  100
AcDbEntity
  8
Layer 1
  62
0
  100
AcDb2dVertex
  10
1.46915
  20
1.15794
  30
0.00000
  70
32
  0
VERTEX
  5
4F1
  100
AcDbEntity
  8
Layer 1
  62
0
  100
AcDb2dVertex
  10
1.46900
  20
1.15200
  30
0.00000
  42
-0.1881
  70
32
  0
VERTEX
  5
4F2
  100
AcDbEntity
  8
Layer 1
  62
0
  100
AcDb2dVertex
  10
1.46486
  20
1.13875
  30
0.00000
  42
-0.2165
  70
32
  0
VERTEX
  5
4F3
  100
AcDbEntity
  8
Layer 1
  62
0
  100
AcDb2dVertex
  10
1.45200
  20
1.13400
  30
0.00000
  42
-0.2448
  70
32
  0
VERTEX
  5
4F4
  100
AcDbEntity
  8
Layer 1
  62
0
  100
AcDb2dVertex
  10
1.43848
  20
1.14188
  30
0.00000
  70
32
  0
VERTEX
  5
4F5
  100
AcDbEntity
  8
Layer 1
  62
0
  100
AcDb2dVertex
  10
1.43600
  20
1.14600
  30
0.00000
  42
0.1278
  70
32
  0
VERTEX
  5
4F6
  100
AcDbEntity
  8
Layer 1
  62
0
  100
AcDb2dVertex
  10
1.42636
  20
1.15742
  30
0.00000
  42
0.1377
  70
32
  0
VERTEX
  5
4F7
  100
AcDbEntity
  8
Layer 1
  62
0
  100
AcDb2dVertex
  10
1.42100
  20
1.15900
  30
0.00000
  42
0.2645
  70
32
  0
VERTEX
  5
4F8
  100
AcDbEntity
  8
Layer 1
  62
0
  100
AcDb2dVertex
  10
1.40904
  20
1.15176
  30
0.00000
  42
0.0879
  70
32
  0
VERTEX
  5
4F9
  100
AcDbEntity
  8
Layer 1
  62
0
  100
AcDb2dVertex
  10
1.40400
  20
1.13900
  30
0.00000
  42
-0.1313
  70
32
  0
VERTEX
  5
4FA
  100
AcDbEntity
  8
Layer 1
  62
0
  100
AcDb2dVertex
  10
1.39729
  20
1.12379
  30
0.00000
  42
-0.2207
  70
32
  0
VERTEX
  5
4FB
  100
AcDbEntity
  8
Layer 1
  62
0
  100
AcDb2dVertex
  10
1.38600
  20
1.11900
  30
0.00000
  42
-0.2210
  70
32
  0
VERTEX
  5
4FC
  100
AcDbEntity
  8
Layer 1
  62
0
  100
AcDb2dVertex
  10
1.37362
  20
1.12530
  30
0.00000
  42
-0.0588
  70
32
  0
VERTEX
  5
4FD
  100
AcDbEntity
  8
Layer 1
  62
0
  100
AcDb2dVertex
  10
1.36700
  20
1.13500
  30
0.00000
  42
0.1186
  70
32
  0
VERTEX
  5
4FE
  100
AcDbEntity
  8
Layer 1
  62
0
  100
AcDb2dVertex
  10
1.35659
  20
1.14979
  30
0.00000
  42
0.1628
  70
32
  0
VERTEX
  5
4FF
  100
AcDbEntity
  8
Layer 1
  62
0
  100
AcDb2dVertex
  10
1.35100
  20
1.15200
  30
0.00000
  42
0.2829
  70
32
  0
VERTEX
  5
500
  100
AcDbEntity
  8
Layer 1
  62
0
  100
AcDb2dVertex
  10
1.33869
  20
1.14437
  30
0.00000
  42
0.1010
  70
32
  0
VERTEX
  5
501
  100
AcDbEntity
  8
Layer 1
  62
0
  100
AcDb2dVertex
  10
1.33301
  20
1.12439
  30
0.00000
  42
0.0296
  70
32
  0
VERTEX
  5
502
  100
AcDbEntity
  8
Layer 1
  62
0
  100
AcDb2dVertex
  10
1.33200
  20
1.10500
  30
0.00000
  42
-0.1069
  70
32
  0
VERTEX
  5
503
  100
AcDbEntity
  8
Layer 1
  62
0
  100
AcDb2dVertex
  10
1.32824
  20
1.09969
  30
0.00000
  42
-0.0283
  70
32
  0
VERTEX
  5
504
  100
AcDbEntity
  8
Layer 1
  62
0
  100
AcDb2dVertex
  10
1.29700
  20
1.07000
  30
0.00000
  42
0.0352
  70
32
  0
VERTEX
  5
505
  100
AcDbEntity
  8
Layer 1
  62
0
  100
AcDb2dVertex
  10
1.26421
  20
1.03685
  30
0.00000
  42
0.0716
  70
32
  0
VERTEX
  5
506
  100
AcDbEntity
  8
Layer 1
  62
0
  100
AcDb2dVertex
  10
1.25600
  20
1.02400
  30
0.00000
  42
0.1438
  70
32
  0
VERTEX
  5
507
  100
AcDbEntity
  8
Layer 1
  62
0
  100
AcDb2dVertex
  10
1.25433
  20
1.01956
  30
0.00000
  42
0.0142
  70
32
  0
VERTEX
  5
508
  100
AcDbEntity
  8
Layer 1
  62
0
  100
AcDb2dVertex
  10
1.25022
  20
0.99383
  30
0.00000
  70
32
  0
VERTEX
  5
509
  100
AcDbEntity
  8
Layer 1
  62
0
  100
AcDb2dVertex
  10
1.24700
  20
0.97200
  30
0.00000
  42
-0.1038
  70
32
  0
VERTEX
  5
50A
  100
AcDbEntity
  8
Layer 1
  62
0
  100
AcDb2dVertex
  10
1.23862
  20
0.94894
  30
0.00000
  42
-0.2548
  70
32
  0
VERTEX
  5
50B
  100
AcDbEntity
  8
Layer 1
  62
0
  100
AcDb2dVertex
  10
1.22146
  20
0.93900
  30
0.00000
  70
32
  0
VERTEX
  5
50C
  100
AcDbEntity
  8
Layer 1
  62
0
  100
AcDb2dVertex
  10
1.22100
  20
0.93900
  30
0.00000
  42
-0.0349
  70
32
  0
VERTEX
  5
50D
  100
AcDbEntity
  8
Layer 1
  62
0
  100
AcDb2dVertex
  10
1.18300
  20
0.94077
  30
0.00000
  42
-0.0872
  70
32
  0
VERTEX
  5
50E
  100
AcDbEntity
  8
Layer 1
  62
0
  100
AcDb2dVertex
  10
1.17200
  20
0.94400
  30
0.00000
  70
32
  0
VERTEX
  5
50F
  100
AcDbEntity
  8
Layer 1
  62
0
  100
AcDb2dVertex
  10
1.21700
  20
1.04900
  30
0.00000
  70
32
  0
VERTEX
  5
510
  100
AcDbEntity
  8
Layer 1
  62
0
  100
AcDb2dVertex
  10
1.17200
  20
0.94400
  30
0.00000
  70
32
  0
VERTEX
  5
511
  100
AcDbEntity
  8
Layer 1
  62
0
  100
AcDb2dVertex
  10
1.14100
  20
0.93200
  30
0.00000
  42
-0.1371
  70
32
  0
VERTEX
  5
512
  100
AcDbEntity
  8
Layer 1
  62
0
  100
AcDb2dVertex
  10
1.12132
  20
0.93858
  30
0.00000
  42
-0.0343
  70
32
  0
VERTEX
  5
513
  100
AcDbEntity
  8
Layer 1
  62
0
  100
AcDb2dVertex
  10
1.11100
  20
0.94600
  30
0.00000
  42
-0.0898
  70
32
  0
VERTEX
  5
514
  100
AcDbEntity
  8
Layer 1
  62
0
  100
AcDb2dVertex
  10
1.09211
  20
0.96708
  30
0.00000
  42
-0.0481
  70
32
  0
VERTEX
  5
515
  100
AcDbEntity
  8
Layer 1
  62
0
  100
AcDb2dVertex
  10
1.08900
  20
0.97400
  30
0.00000
  70
32
  0
VERTEX
  5
516
  100
AcDbEntity
  8
Layer 1
  62
0
  100
AcDb2dVertex
  10
1.12700
  20
0.98000
  30
0.00000
  70
32
  0
VERTEX
  5
517
  100
AcDbEntity
  8
Layer 1
  62
0
  100
AcDb2dVertex
  10
1.08900
  20
0.97400
  30
0.00000
  42
-0.1418
  70
32
  0
VERTEX
  5
518
  100
AcDbEntity
  8
Layer 1
  62
0
  100
AcDb2dVertex
  10
1.09822
  20
1.00152
  30
0.00000
  42
-0.1774
  70
32
  0
VERTEX
  5
519
  100
AcDbEntity
  8
Layer 1
  62
0
  100
AcDb2dVertex
  10
1.12383
  20
1.01773
  30
0.00000
  70
32
  0
VERTEX
  5
51A
  100
AcDbEntity
  8
Layer 1
  62
0
  100
AcDb2dVertex
  10
1.13000
  20
1.01900
  30
0.00000
  42
0.0798
  70
32
  0
VERTEX
  5
51B
  100
AcDbEntity
  8
Layer 1
  62
0
  100
AcDb2dVertex
  10
1.15583
  20
1.02543
  30
0.00000
  42
0.1829
  70
32
  0
VERTEX
  5
51C
  100
AcDbEntity
  8
Layer 1
  62
0
  100
AcDb2dVertex
  10
1.16596
  20
1.03475
  30
0.00000
  42
0.1017
  70
32
  0
VERTEX
  5
51D
  100
AcDbEntity
  8
Layer 1
  62
0
  100
AcDb2dVertex
  10
1.16700
  20
1.04000
  30
0.00000
  42
0.0526
  70
32
  0
VERTEX
  5
51E
  100
AcDbEntity
  8
Layer 1
  62
0
  100
AcDb2dVertex
  10
1.16426
  20
1.05395
  30
0.00000
  70
32
  0
VERTEX
  5
51F
  100
AcDbEntity
  8
Layer 1
  62
0
  100
AcDb2dVertex
  10
1.16400
  20
1.05500
  30
0.00000
  42
-0.0604
  70
32
  0
VERTEX
  5
520
  100
AcDbEntity
  8
Layer 1
  62
0
  100
AcDb2dVertex
  10
1.16100
  20
1.07000
  30
0.00000
  42
-0.2095
  70
32
  0
VERTEX
  5
521
  100
AcDbEntity
  8
Layer 1
  62
0
  100
AcDb2dVertex
  10
1.16890
  20
1.09070
  30
0.00000
  42
-0.1398
  70
32
  0
VERTEX
  5
522
  100
AcDbEntity
  8
Layer 1
  62
0
  100
AcDb2dVertex
  10
1.18800
  20
1.10000
  30
0.00000
  42
0.2189
  70
32
  0
VERTEX
  5
523
  100
AcDbEntity
  8
Layer 1
  62
0
  100
AcDb2dVertex
  10
1.20836
  20
1.11746
  30
0.00000
  42
0.0978
  70
32
  0
VERTEX
  5
524
  100
AcDbEntity
  8
Layer 1
  62
0
  100
AcDb2dVertex
  10
1.21556
  20
1.14696
  30
0.00000
  42
0.0192
  70
32
  0
VERTEX
  5
525
  100
AcDbEntity
  8
Layer 1
  62
0
  100
AcDb2dVertex
  10
1.21600
  20
1.15900
  30
0.00000
  70
32
  0
VERTEX
  5
526
  100
AcDbEntity
  8
Layer 1
  62
0
  100
AcDb2dVertex
  10
1.28200
  20
1.17000
  30
0.00000
  70
32
  0
VERTEX
  5
527
  100
AcDbEntity
  8
Layer 1
  62
0
  100
AcDb2dVertex
  10
1.21600
  20
1.15900
  30
0.00000
  70
32
  0
VERTEX
  5
528
  100
AcDbEntity
  8
Layer 1
  62
0
  100
AcDb2dVertex
  10
1.20100
  20
1.24900
  30
0.00000
  42
-0.1602
  70
32
  0
VERTEX
  5
529
  100
AcDbEntity
  8
Layer 1
  62
0
  100
AcDb2dVertex
  10
1.20098
  20
1.26127
  30
0.00000
  42
-0.2881
  70
32
  0
VERTEX
  5
52A
  100
AcDbEntity
  8
Layer 1
  62
0
  100
AcDb2dVertex
  10
1.20970
  20
1.26688
  30
0.00000
  70
32
  0
VERTEX
  5
52B
  100
AcDbEntity
  8
Layer 1
  62
0
  100
AcDb2dVertex
  10
1.21200
  20
1.26700
  30
0.00000
  42
-0.1139
  70
32
  0
VERTEX
  5
52C
  100
AcDbEntity
  8
Layer 1
  62
0
  100
AcDb2dVertex
  10
1.22996
  20
1.26379
  30
0.00000
  42
-0.1112
  70
32
  0
VERTEX
  5
52D
  100
AcDbEntity
  8
Layer 1
  62
0
  100
AcDb2dVertex
  10
1.23600
  20
1.25900
  30
0.00000
  70
32
  0
VERTEX
  5
52E
  100
AcDbEntity
  8
Layer 1
  62
0
  100
AcDb2dVertex
  10
1.23900
  20
1.22700
  30
0.00000
  70
32
  0
VERTEX
  5
52F
  100
AcDbEntity
  8
Layer 1
  62
0
  100
AcDb2dVertex
  10
1.23600
  20
1.25900
  30
0.00000
  42
0.0276
  70
32
  0
VERTEX
  5
530
  100
AcDbEntity
  8
Layer 1
  62
0
  100
AcDb2dVertex
  10
1.30600
  20
1.24200
  30
0.00000
  70
32
  0
VERTEX
  5
531
  100
AcDbEntity
  8
Layer 1
  62
0
  100
AcDb2dVertex
  10
1.30700
  20
1.21500
  30
0.00000
  70
32
  0
VERTEX
  5
532
  100
AcDbEntity
  8
Layer 1
  62
0
  100
AcDb2dVertex
  10
1.30600
  20
1.24200
  30
0.00000
  70
32
  0
VERTEX
  5
533
  100
AcDbEntity
  8
Layer 1
  62
0
  100
AcDb2dVertex
  10
1.37400
  20
1.24200
  30
0.00000
  70
32
  0
VERTEX
  5
534
  100
AcDbEntity
  8
Layer 1
  62
0
  100
AcDb2dVertex
  10
1.43600
  20
1.25700
  30
0.00000
  70
32
  0
VERTEX
  5
535
  100
AcDbEntity
  8
Layer 1
  62
0
  100
AcDb2dVertex
  10
1.44600
  20
1.23400
  30
0.00000
  70
32
  0
VERTEX
  5
536
  100
AcDbEntity
  8
Layer 1
  62
0
  100
AcDb2dVertex
  10
1.43600
  20
1.25700
  30
0.00000
  70
32
  0
VERTEX
  5
537
  100
AcDbEntity
  8
Layer 1
  62
0
  100
AcDb2dVertex
  10
1.49100
  20
1.28200
  30
0.00000
  42
-0.0961
  70
32
  0
VERTEX
  5
538
  100
AcDbEntity
  8
Layer 1
  62
0
  100
AcDb2dVertex
  10
1.53400
  20
1.31900
  30
0.00000
  70
32
  0
VERTEX
  5
539
  100
AcDbEntity
  8
Layer 1
  62
0
  100
AcDb2dVertex
  10
1.57700
  20
1.36500
  30
0.00000
  70
32
  0
VERTEX
  5
53A
  100
AcDbEntity
  8
Layer 1
  62
0
  100
AcDb2dVertex
  10
1.61400
  20
1.40900
  30
0.00000
  70
32
  0
VERTEX
  5
53B
  100
AcDbEntity
  8
Layer 1
  62
0
  100
AcDb2dVertex
  10
1.64400
  20
1.46400
  30
0.00000
  70
32
  0
VERTEX
  5
53C
  100
AcDbEntity
  8
Layer 1
  62
0
  100
AcDb2dVertex
  10
1.66700
  20
1.44400
  30
0.00000
  70
32
  0
VERTEX
  5
53D
  100
AcDbEntity
  8
Layer 1
  62
0
  100
AcDb2dVertex
  10
1.64400
  20
1.46400
  30
0.00000
  70
32
  0
VERTEX
  5
53E
  100
AcDbEntity
  8
Layer 1
  62
0
  100
AcDb2dVertex
  10
1.67400
  20
1.51600
  30
0.00000
  70
32
  0
VERTEX
  5
53F
  100
AcDbEntity
  8
Layer 1
  62
0
  100
AcDb2dVertex
  10
1.69900
  20
1.49200
  30
0.00000
  70
32
  0
VERTEX
  5
540
  100
AcDbEntity
  8
Layer 1
  62
0
  100
AcDb2dVertex
  10
1.67400
  20
1.51600
  30
0.00000
  42
-0.0375
  70
32
  0
VERTEX
  5
541
  100
AcDbEntity
  8
Layer 1
  62
0
  100
AcDb2dVertex
  10
1.71139
  20
1.55703
  30
0.00000
  70
32
  0
VERTEX
  5
542
  100
AcDbEntity
  8
Layer 1
  62
0
  100
AcDb2dVertex
  10
1.71600
  20
1.56100
  30
0.00000
  70
32
  0
VERTEX
  5
543
  100
AcDbEntity
  8
Layer 1
  62
0
  100
AcDb2dVertex
  10
1.73600
  20
1.53700
  30
0.00000
  70
32
  0
VERTEX
  5
544
  100
AcDbEntity
  8
Layer 1
  62
0
  100
AcDb2dVertex
  10
1.71600
  20
1.56100
  30
0.00000
  42
0.0144
  70
32
  0
VERTEX
  5
545
  100
AcDbEntity
  8
Layer 1
  62
0
  100
AcDb2dVertex
  10
1.76700
  20
1.59100
  30
0.00000
  70
32
  0
VERTEX
  5
546
  100
AcDbEntity
  8
Layer 1
  62
0
  100
AcDb2dVertex
  10
1.79673
  20
1.59970
  30
0.00000
  70
32
  0
VERTEX
  5
547
  100
AcDbEntity
  8
Layer 1
  62
0
  100
AcDb2dVertex
  10
1.82200
  20
1.60700
  30
0.00000
  42
0.1492
  70
32
  0
VERTEX
  5
548
  100
AcDbEntity
  8
Layer 1
  62
0
  100
AcDb2dVertex
  10
1.84208
  20
1.61636
  30
0.00000
  42
0.1467
  70
32
  0
VERTEX
  5
549
  100
AcDbEntity
  8
Layer 1
  62
0
  100
AcDb2dVertex
  10
1.85000
  20
1.63100
  30
0.00000
  42
-0.2407
  70
32
  0
VERTEX
  5
54A
  100
AcDbEntity
  8
Layer 1
  62
0
  100
AcDb2dVertex
  10
1.86223
  20
1.64460
  30
0.00000
  42
-0.0988
  70
32
  0
VERTEX
  5
54B
  100
AcDbEntity
  8
Layer 1
  62
0
  100
AcDb2dVertex
  10
1.88645
  20
1.64897
  30
0.00000
  70
32
  0
VERTEX
  5
54C
  100
AcDbEntity
  8
Layer 1
  62
0
  100
AcDb2dVertex
  10
1.88900
  20
1.64900
  30
0.00000
  42
0.0862
  70
32
  0
VERTEX
  5
54D
  100
AcDbEntity
  8
Layer 1
  62
0
  100
AcDb2dVertex
  10
1.91226
  20
1.65433
  30
0.00000
  70
32
  0
VERTEX
  5
54E
  100
AcDbEntity
  8
Layer 1
  62
0
  100
AcDb2dVertex
  10
1.91900
  20
1.65700
  30
0.00000
  42
-0.0886
  70
32
  0
VERTEX
  5
54F
  100
AcDbEntity
  8
Layer 1
  62
0
  100
AcDb2dVertex
  10
1.94900
  20
1.66600
  30
0.00000
  70
32
  0
VERTEX
  5
550
  100
AcDbEntity
  8
Layer 1
  62
0
  100
AcDb2dVertex
  10
1.95058
  20
1.66580
  30
0.00000
  42
-0.0380
  70
32
  0
VERTEX
  5
551
  100
AcDbEntity
  8
Layer 1
  62
0
  100
AcDb2dVertex
  10
1.97700
  20
1.66100
  30
0.00000
  42
-0.0116
  70
32
  0
VERTEX
  5
552
  100
AcDbEntity
  8
Layer 1
  62
0
  100
AcDb2dVertex
  10
2.00266
  20
1.64022
  30
0.00000
  70
32
  0
VERTEX
  5
553
  100
AcDbEntity
  8
Layer 1
  62
0
  100
AcDb2dVertex
  10
2.02600
  20
1.62100
  30
0.00000
  70
32
  0
VERTEX
  5
554
  100
AcDbEntity
  8
Layer 1
  62
0
  100
AcDb2dVertex
  10
2.03200
  20
1.59900
  30
0.00000
  70
32
  0
SEQEND
  5
555
  100
AcDbEntity
  8
Layer 1
  62
0
  0
POLYLINE
  5
556
  100
AcDbEntity
  8
Layer 1
  62
0
  100
AcDb2dPolyline
 66
     1
  10
0
  20
0
  30
0
  70
1
  0
VERTEX
  5
557
  100
AcDbEntity
  8
Layer 1
  62
0
  100
AcDb2dVertex
  10
1.66200
  20
1.56200
  30
0.00000
  42
-0.0107
  70
32
  0
VERTEX
  5
558
  100
AcDbEntity
  8
Layer 1
  62
0
  100
AcDb2dVertex
  10
1.60197
  20
1.46735
  30
0.00000
  42
-0.0343
  70
32
  0
VERTEX
  5
559
  100
AcDbEntity
  8
Layer 1
  62
0
  100
AcDb2dVertex
  10
1.58200
  20
1.44100
  30
0.00000
  42
-0.0652
  70
32
  0
VERTEX
  5
55A
  100
AcDbEntity
  8
Layer 1
  62
0
  100
AcDb2dVertex
  10
1.52692
  20
1.38391
  30
0.00000
  42
-0.0907
  70
32
  0
VERTEX
  5
55B
  100
AcDbEntity
  8
Layer 1
  62
0
  100
AcDb2dVertex
  10
1.47100
  20
1.35400
  30
0.00000
  42
0.0250
  70
32
  0
VERTEX
  5
55C
  100
AcDbEntity
  8
Layer 1
  62
0
  100
AcDb2dVertex
  10
1.39043
  20
1.32204
  30
0.00000
  42
0.0065
  70
32
  0
VERTEX
  5
55D
  100
AcDbEntity
  8
Layer 1
  62
0
  100
AcDb2dVertex
  10
1.33600
  20
1.29700
  30
0.00000
  42
-0.1886
  70
32
  0
VERTEX
  5
55E
  100
AcDbEntity
  8
Layer 1
  62
0
  100
AcDb2dVertex
  10
1.32175
  20
1.30317
  30
0.00000
  42
-0.0338
  70
32
  0
VERTEX
  5
55F
  100
AcDbEntity
  8
Layer 1
  62
0
  100
AcDb2dVertex
  10
1.31600
  20
1.30900
  30
0.00000
  42
0.1000
  70
32
  0
VERTEX
  5
560
  100
AcDbEntity
  8
Layer 1
  62
0
  100
AcDb2dVertex
  10
1.30628
  20
1.31881
  30
0.00000
  42
0.1297
  70
32
  0
VERTEX
  5
561
  100
AcDbEntity
  8
Layer 1
  62
0
  100
AcDb2dVertex
  10
1.30200
  20
1.32000
  30
0.00000
  42
0.2882
  70
32
  0
VERTEX
  5
562
  100
AcDbEntity
  8
Layer 1
  62
0
  100
AcDb2dVertex
  10
1.29347
  20
1.31416
  30
0.00000
  42
0.1054
  70
32
  0
VERTEX
  5
563
  100
AcDbEntity
  8
Layer 1
  62
0
  100
AcDb2dVertex
  10
1.29000
  20
1.30000
  30
0.00000
  42
-0.1747
  70
32
  0
VERTEX
  5
564
  100
AcDbEntity
  8
Layer 1
  62
0
  100
AcDb2dVertex
  10
1.28279
  20
1.28470
  30
0.00000
  42
-0.1895
  70
32
  0
VERTEX
  5
565
  100
AcDbEntity
  8
Layer 1
  62
0
  100
AcDb2dVertex
  10
1.26900
  20
1.28000
  30
0.00000
  42
-0.1297
  70
32
  0
VERTEX
  5
566
  100
AcDbEntity
  8
Layer 1
  62
0
  100
AcDb2dVertex
  10
1.25392
  20
1.28494
  30
0.00000
  42
-0.0236
  70
32
  0
VERTEX
  5
567
  100
AcDbEntity
  8
Layer 1
  62
0
  100
AcDb2dVertex
  10
1.24600
  20
1.29000
  30
0.00000
  42
0.0946
  70
32
  0
VERTEX
  5
568
  100
AcDbEntity
  8
Layer 1
  62
0
  100
AcDb2dVertex
  10
1.22805
  20
1.29858
  30
0.00000
  42
0.0497
  70
32
  0
VERTEX
  5
569
  100
AcDbEntity
  8
Layer 1
  62
0
  100
AcDb2dVertex
  10
1.22400
  20
1.29900
  30
0.00000
  42
0.0774
  70
32
  0
VERTEX
  5
56A
  100
AcDbEntity
  8
Layer 1
  62
0
  100
AcDb2dVertex
  10
1.21095
  20
1.29443
  30
0.00000
  70
32
  0
VERTEX
  5
56B
  100
AcDbEntity
  8
Layer 1
  62
0
  100
AcDb2dVertex
  10
1.20800
  20
1.29300
  30
0.00000
  42
-0.0794
  70
32
  0
VERTEX
  5
56C
  100
AcDbEntity
  8
Layer 1
  62
0
  100
AcDb2dVertex
  10
1.19178
  20
1.28704
  30
0.00000
  70
32
  0
VERTEX
  5
56D
  100
AcDbEntity
  8
Layer 1
  62
0
  100
AcDb2dVertex
  10
1.19100
  20
1.28700
  30
0.00000
  42
-0.2779
  70
32
  0
VERTEX
  5
56E
  100
AcDbEntity
  8
Layer 1
  62
0
  100
AcDb2dVertex
  10
1.17792
  20
1.29508
  30
0.00000
  42
-0.0745
  70
32
  0
VERTEX
  5
56F
  100
AcDbEntity
  8
Layer 1
  62
0
  100
AcDb2dVertex
  10
1.17400
  20
1.30500
  30
0.00000
  70
32
  0
VERTEX
  5
570
  100
AcDbEntity
  8
Layer 1
  62
0
  100
AcDb2dVertex
  10
1.17049
  20
1.31853
  30
0.00000
  70
32
  0
VERTEX
  5
571
  100
AcDbEntity
  8
Layer 1
  62
0
  100
AcDb2dVertex
  10
1.16700
  20
1.33200
  30
0.00000
  70
32
  0
VERTEX
  5
572
  100
AcDbEntity
  8
Layer 1
  62
0
  100
AcDb2dVertex
  10
1.16250
  20
1.35450
  30
0.00000
  42
-0.0328
  70
32
  0
VERTEX
  5
573
  100
AcDbEntity
  8
Layer 1
  62
0
  100
AcDb2dVertex
  10
1.16100
  20
1.36500
  30
0.00000
  42
-0.2459
  70
32
  0
VERTEX
  5
574
  100
AcDbEntity
  8
Layer 1
  62
0
  100
AcDb2dVertex
  10
1.16953
  20
1.38065
  30
0.00000
  42
-0.0553
  70
32
  0
VERTEX
  5
575
  100
AcDbEntity
  8
Layer 1
  62
0
  100
AcDb2dVertex
  10
1.17700
  20
1.38500
  30
0.00000
  42
0.1598
  70
32
  0
VERTEX
  5
576
  100
AcDbEntity
  8
Layer 1
  62
0
  100
AcDb2dVertex
  10
1.21167
  20
1.41838
  30
0.00000
  42
0.0221
  70
32
  0
VERTEX
  5
577
  100
AcDbEntity
  8
Layer 1
  62
0
  100
AcDb2dVertex
  10
1.21600
  20
1.42700
  30
0.00000
  42
-0.0314
  70
32
  0
VERTEX
  5
578
  100
AcDbEntity
  8
Layer 1
  62
0
  100
AcDb2dVertex
  10
1.24100
  20
1.43500
  30
0.00000
  42
-0.1334
  70
32
  0
VERTEX
  5
579
  100
AcDbEntity
  8
Layer 1
  62
0
  100
AcDb2dVertex
  10
1.25674
  20
1.42939
  30
0.00000
  42
-0.0460
  70
32
  0
VERTEX
  5
57A
  100
AcDbEntity
  8
Layer 1
  62
0
  100
AcDb2dVertex
  10
1.26900
  20
1.42000
  30
0.00000
  42
-0.0444
  70
32
  0
VERTEX
  5
57B
  100
AcDbEntity
  8
Layer 1
  62
0
  100
AcDb2dVertex
  10
1.29700
  20
1.45400
  30
0.00000
  42
0.0225
  70
32
  0
VERTEX
  5
57C
  100
AcDbEntity
  8
Layer 1
  62
0
  100
AcDb2dVertex
  10
1.40700
  20
1.46400
  30
0.00000
  42
0.0463
  70
32
  0
VERTEX
  5
57D
  100
AcDbEntity
  8
Layer 1
  62
0
  100
AcDb2dVertex
  10
1.44088
  20
1.47871
  30
0.00000
  42
0.0170
  70
32
  0
VERTEX
  5
57E
  100
AcDbEntity
  8
Layer 1
  62
0
  100
AcDb2dVertex
  10
1.52400
  20
1.52700
  30
0.00000
  42
-0.0465
  70
32
  0
VERTEX
  5
57F
  100
AcDbEntity
  8
Layer 1
  62
0
  100
AcDb2dVertex
  10
1.58868
  20
1.56185
  30
0.00000
  42
-0.0773
  70
32
  0
VERTEX
  5
580
  100
AcDbEntity
  8
Layer 1
  62
0
  100
AcDb2dVertex
  10
1.63498
  20
1.57374
  30
0.00000
  70
32
  0
VERTEX
  5
581
  100
AcDbEntity
  8
Layer 1
  62
0
  100
AcDb2dVertex
  10
1.64200
  20
1.57400
  30
0.00000
  42
-0.1204
  70
32
  0
VERTEX
  5
582
  100
AcDbEntity
  8
Layer 1
  62
0
  100
AcDb2dVertex
  10
1.65666
  20
1.57134
  30
0.00000
  42
-0.2989
  70
32
  0
VERTEX
  5
583
  100
AcDbEntity
  8
Layer 1
  62
0
  100
AcDb2dVertex
  10
1.66200
  20
1.56200
  30
0.00000
  70
32
  0
SEQEND
  5
584
  100
AcDbEntity
  8
Layer 1
  62
0
  0
POLYLINE
  5
585
  100
AcDbEntity
  8
Layer 1
  62
0
  100
AcDb2dPolyline
 66
     1
  10
0
  20
0
  30
0
  70
1
  0
VERTEX
  5
586
  100
AcDbEntity
  8
Layer 1
  62
0
  100
AcDb2dVertex
  10
1.55200
  20
1.58700
  30
0.00000
  42
-0.2599
  70
32
  0
VERTEX
  5
587
  100
AcDbEntity
  8
Layer 1
  62
0
  100
AcDb2dVertex
  10
1.55173
  20
1.57916
  30
0.00000
  42
-0.2194
  70
32
  0
VERTEX
  5
588
  100
AcDbEntity
  8
Layer 1
  62
0
  100
AcDb2dVertex
  10
1.54383
  20
1.57590
  30
0.00000
  70
32
  0
VERTEX
  5
589
  100
AcDbEntity
  8
Layer 1
  62
0
  100
AcDb2dVertex
  10
1.53900
  20
1.57600
  30
0.00000
  70
32
  0
VERTEX
  5
58A
  100
AcDbEntity
  8
Layer 1
  62
0
  100
AcDb2dVertex
  10
1.53939
  20
1.57593
  30
0.00000
  70
32
  0
VERTEX
  5
58B
  100
AcDbEntity
  8
Layer 1
  62
0
  100
AcDb2dVertex
  10
1.53915
  20
1.57642
  30
0.00000
  42
0.0359
  70
32
  0
VERTEX
  5
58C
  100
AcDbEntity
  8
Layer 1
  62
0
  100
AcDb2dVertex
  10
1.52047
  20
1.58923
  30
0.00000
  70
32
  0
VERTEX
  5
58D
  100
AcDbEntity
  8
Layer 1
  62
0
  100
AcDb2dVertex
  10
1.50100
  20
1.60100
  30
0.00000
  42
0.1422
  70
32
  0
VERTEX
  5
58E
  100
AcDbEntity
  8
Layer 1
  62
0
  100
AcDb2dVertex
  10
1.41200
  20
1.62700
  30
0.00000
  42
0.1049
  70
32
  0
VERTEX
  5
58F
  100
AcDbEntity
  8
Layer 1
  62
0
  100
AcDb2dVertex
  10
1.32781
  20
1.60830
  30
0.00000
  42
0.0672
  70
32
  0
VERTEX
  5
590
  100
AcDbEntity
  8
Layer 1
  62
0
  100
AcDb2dVertex
  10
1.25248
  20
1.56094
  30
0.00000
  42
0.0235
  70
32
  0
VERTEX
  5
591
  100
AcDbEntity
  8
Layer 1
  62
0
  100
AcDb2dVertex
  10
1.21700
  20
1.52900
  30
0.00000
  42
0.0722
  70
32
  0
VERTEX
  5
592
  100
AcDbEntity
  8
Layer 1
  62
0
  100
AcDb2dVertex
  10
1.15648
  20
1.44832
  30
0.00000
  42
0.1247
  70
32
  0
VERTEX
  5
593
  100
AcDbEntity
  8
Layer 1
  62
0
  100
AcDb2dVertex
  10
1.12600
  20
1.32900
  30
0.00000
  42
0.1035
  70
32
  0
VERTEX
  5
594
  100
AcDbEntity
  8
Layer 1
  62
0
  100
AcDb2dVertex
  10
1.13842
  20
1.27361
  30
0.00000
  42
0.0306
  70
32
  0
VERTEX
  5
595
  100
AcDbEntity
  8
Layer 1
  62
0
  100
AcDb2dVertex
  10
1.15100
  20
1.24900
  30
0.00000
  42
0.0081
  70
32
  0
VERTEX
  5
596
  100
AcDbEntity
  8
Layer 1
  62
0
  100
AcDb2dVertex
  10
1.17600
  20
1.20500
  30
0.00000
  42
-0.4371
  70
32
  0
VERTEX
  5
597
  100
AcDbEntity
  8
Layer 1
  62
0
  100
AcDb2dVertex
  10
1.16870
  20
1.19709
  30
0.00000
  70
32
  0
VERTEX
  5
598
  100
AcDbEntity
  8
Layer 1
  62
0
  100
AcDb2dVertex
  10
1.16700
  20
1.19700
  30
0.00000
  42
-0.1717
  70
32
  0
VERTEX
  5
599
  100
AcDbEntity
  8
Layer 1
  62
0
  100
AcDb2dVertex
  10
1.15134
  20
1.20350
  30
0.00000
  42
-0.0816
  70
32
  0
VERTEX
  5
59A
  100
AcDbEntity
  8
Layer 1
  62
0
  100
AcDb2dVertex
  10
1.13234
  20
1.22650
  30
0.00000
  42
-0.0353
  70
32
  0
VERTEX
  5
59B
  100
AcDbEntity
  8
Layer 1
  62
0
  100
AcDb2dVertex
  10
1.11400
  20
1.26200
  30
0.00000
  42
-0.0485
  70
32
  0
VERTEX
  5
59C
  100
AcDbEntity
  8
Layer 1
  62
0
  100
AcDb2dVertex
  10
1.09365
  20
1.32835
  30
0.00000
  42
-0.0450
  70
32
  0
VERTEX
  5
59D
  100
AcDbEntity
  8
Layer 1
  62
0
  100
AcDb2dVertex
  10
1.09100
  20
1.35400
  30
0.00000
  42
-0.1203
  70
32
  0
VERTEX
  5
59E
  100
AcDbEntity
  8
Layer 1
  62
0
  100
AcDb2dVertex
  10
1.11138
  20
1.43550
  30
0.00000
  42
-0.0432
  70
32
  0
VERTEX
  5
59F
  100
AcDbEntity
  8
Layer 1
  62
0
  100
AcDb2dVertex
  10
1.13500
  20
1.47300
  30
0.00000
  42
-0.0184
  70
32
  0
VERTEX
  5
5A0
  100
AcDbEntity
  8
Layer 1
  62
0
  100
AcDb2dVertex
  10
1.17253
  20
1.52105
  30
0.00000
  42
-0.0920
  70
32
  0
VERTEX
  5
5A1
  100
AcDbEntity
  8
Layer 1
  62
0
  100
AcDb2dVertex
  10
1.17845
  20
1.52652
  30
0.00000
  42
-0.6417
  70
32
  0
VERTEX
  5
5A2
  100
AcDbEntity
  8
Layer 1
  62
0
  100
AcDb2dVertex
  10
1.17900
  20
1.52600
  30
0.00000
  42
0.2206
  70
32
  0
VERTEX
  5
5A3
  100
AcDbEntity
  8
Layer 1
  62
0
  100
AcDb2dVertex
  10
1.17414
  20
1.53453
  30
0.00000
  42
0.0890
  70
32
  0
VERTEX
  5
5A4
  100
AcDbEntity
  8
Layer 1
  62
0
  100
AcDb2dVertex
  10
1.15473
  20
1.54448
  30
0.00000
  42
0.0301
  70
32
  0
VERTEX
  5
5A5
  100
AcDbEntity
  8
Layer 1
  62
0
  100
AcDb2dVertex
  10
1.13100
  20
1.55100
  30
0.00000
  42
-0.1605
  70
32
  0
VERTEX
  5
5A6
  100
AcDbEntity
  8
Layer 1
  62
0
  100
AcDb2dVertex
  10
1.12266
  20
1.56013
  30
0.00000
  42
-0.0873
  70
32
  0
VERTEX
  5
5A7
  100
AcDbEntity
  8
Layer 1
  62
0
  100
AcDb2dVertex
  10
1.12200
  20
1.56400
  30
0.00000
  42
-0.1385
  70
32
  0
VERTEX
  5
5A8
  100
AcDbEntity
  8
Layer 1
  62
0
  100
AcDb2dVertex
  10
1.12795
  20
1.58105
  30
0.00000
  42
-0.0633
  70
32
  0
VERTEX
  5
5A9
  100
AcDbEntity
  8
Layer 1
  62
0
  100
AcDb2dVertex
  10
1.14600
  20
1.60200
  30
0.00000
  42
-0.0735
  70
32
  0
VERTEX
  5
5AA
  100
AcDbEntity
  8
Layer 1
  62
0
  100
AcDb2dVertex
  10
1.17255
  20
1.62165
  30
0.00000
  42
-0.0919
  70
32
  0
VERTEX
  5
5AB
  100
AcDbEntity
  8
Layer 1
  62
0
  100
AcDb2dVertex
  10
1.18700
  20
1.62600
  30
0.00000
  70
32
  0
VERTEX
  5
5AC
  100
AcDbEntity
  8
Layer 1
  62
0
  100
AcDb2dVertex
  10
1.19200
  20
1.62600
  30
0.00000
  42
-0.0260
  70
32
  0
VERTEX
  5
5AD
  100
AcDbEntity
  8
Layer 1
  62
0
  100
AcDb2dVertex
  10
1.20400
  20
1.59600
  30
0.00000
  42
0.0772
  70
32
  0
VERTEX
  5
5AE
  100
AcDbEntity
  8
Layer 1
  62
0
  100
AcDb2dVertex
  10
1.21517
  20
1.57778
  30
0.00000
  42
0.2017
  70
32
  0
VERTEX
  5
5AF
  100
AcDbEntity
  8
Layer 1
  62
0
  100
AcDb2dVertex
  10
1.22200
  20
1.57400
  30
0.00000
  42
-0.8784
  70
32
  0
VERTEX
  5
5B0
  100
AcDbEntity
  8
Layer 1
  62
0
  100
AcDb2dVertex
  10
1.22190
  20
1.57472
  30
0.00000
  42
-0.0445
  70
32
  0
VERTEX
  5
5B1
  100
AcDbEntity
  8
Layer 1
  62
0
  100
AcDb2dVertex
  10
1.23376
  20
1.58516
  30
0.00000
  42
-0.0045
  70
32
  0
VERTEX
  5
5B2
  100
AcDbEntity
  8
Layer 1
  62
0
  100
AcDb2dVertex
  10
1.27600
  20
1.61800
  30
0.00000
  42
-0.0756
  70
32
  0
VERTEX
  5
5B3
  100
AcDbEntity
  8
Layer 1
  62
0
  100
AcDb2dVertex
  10
1.34176
  20
1.65416
  30
0.00000
  42
-0.0788
  70
32
  0
VERTEX
  5
5B4
  100
AcDbEntity
  8
Layer 1
  62
0
  100
AcDb2dVertex
  10
1.39400
  20
1.66400
  30
0.00000
  42
-0.0574
  70
32
  0
VERTEX
  5
5B5
  100
AcDbEntity
  8
Layer 1
  62
0
  100
AcDb2dVertex
  10
1.46395
  20
1.65930
  30
0.00000
  42
-0.0916
  70
32
  0
VERTEX
  5
5B6
  100
AcDbEntity
  8
Layer 1
  62
0
  100
AcDb2dVertex
  10
1.51229
  20
1.64107
  30
0.00000
  42
-0.1942
  70
32
  0
VERTEX
  5
5B7
  100
AcDbEntity
  8
Layer 1
  62
0
  100
AcDb2dVertex
  10
1.55200
  20
1.58700
  30
0.00000
  70
32
  0
SEQEND
  5
5B8
  100
AcDbEntity
  8
Layer 1
  62
0
  0
POLYLINE
  5
5B9
  100
AcDbEntity
  8
Layer 1
  62
0
  100
AcDb2dPolyline
 66
     1
  10
0
  20
0
  30
0
  70
1
  0
VERTEX
  5
5BA
  100
AcDbEntity
  8
Layer 1
  62
0
  100
AcDb2dVertex
  10
1.85600
  20
1.03900
  30
0.00000
  42
-0.0303
  70
32
  0
VERTEX
  5
5BB
  100
AcDbEntity
  8
Layer 1
  62
0
  100
AcDb2dVertex
  10
1.85456
  20
1.00269
  30
0.00000
  70
32
  0
VERTEX
  5
5BC
  100
AcDbEntity
  8
Layer 1
  62
0
  100
AcDb2dVertex
  10
1.85400
  20
1.00000
  30
0.00000
  70
32
  0
VERTEX
  5
5BD
  100
AcDbEntity
  8
Layer 1
  62
0
  100
AcDb2dVertex
  10
1.79100
  20
1.00500
  30
0.00000
  70
32
  0
VERTEX
  5
5BE
  100
AcDbEntity
  8
Layer 1
  62
0
  100
AcDb2dVertex
  10
1.85400
  20
1.00000
  30
0.00000
  70
32
  0
VERTEX
  5
5BF
  100
AcDbEntity
  8
Layer 1
  62
0
  100
AcDb2dVertex
  10
1.85400
  20
0.98500
  30
0.00000
  42
-0.1579
  70
32
  0
VERTEX
  5
5C0
  100
AcDbEntity
  8
Layer 1
  62
0
  100
AcDb2dVertex
  10
1.84745
  20
0.96616
  30
0.00000
  42
-0.1565
  70
32
  0
VERTEX
  5
5C1
  100
AcDbEntity
  8
Layer 1
  62
0
  100
AcDb2dVertex
  10
1.83600
  20
0.95900
  30
0.00000
  70
32
  0
VERTEX
  5
5C2
  100
AcDbEntity
  8
Layer 1
  62
0
  100
AcDb2dVertex
  10
1.80200
  20
0.95900
  30
0.00000
  42
0.2035
  70
32
  0
VERTEX
  5
5C3
  100
AcDbEntity
  8
Layer 1
  62
0
  100
AcDb2dVertex
  10
1.79095
  20
0.95333
  30
0.00000
  42
0.0755
  70
32
  0
VERTEX
  5
5C4
  100
AcDbEntity
  8
Layer 1
  62
0
  100
AcDb2dVertex
  10
1.78200
  20
0.94000
  30
0.00000
  42
-0.1752
  70
32
  0
VERTEX
  5
5C5
  100
AcDbEntity
  8
Layer 1
  62
0
  100
AcDb2dVertex
  10
1.76859
  20
0.92299
  30
0.00000
  42
-0.1307
  70
32
  0
VERTEX
  5
5C6
  100
AcDbEntity
  8
Layer 1
  62
0
  100
AcDb2dVertex
  10
1.75700
  20
0.92000
  30
0.00000
  42
-0.1891
  70
32
  0
VERTEX
  5
5C7
  100
AcDbEntity
  8
Layer 1
  62
0
  100
AcDb2dVertex
  10
1.73898
  20
0.92599
  30
0.00000
  42
-0.1747
  70
32
  0
VERTEX
  5
5C8
  100
AcDbEntity
  8
Layer 1
  62
0
  100
AcDb2dVertex
  10
1.73200
  20
0.94000
  30
0.00000
  42
0.1014
  70
32
  0
VERTEX
  5
5C9
  100
AcDbEntity
  8
Layer 1
  62
0
  100
AcDb2dVertex
  10
1.72563
  20
0.95538
  30
0.00000
  42
0.2372
  70
32
  0
VERTEX
  5
5CA
  100
AcDbEntity
  8
Layer 1
  62
0
  100
AcDb2dVertex
  10
1.71900
  20
0.95900
  30
0.00000
  42
0.1855
  70
32
  0
VERTEX
  5
5CB
  100
AcDbEntity
  8
Layer 1
  62
0
  100
AcDb2dVertex
  10
1.70955
  20
0.95421
  30
0.00000
  42
0.0570
  70
32
  0
VERTEX
  5
5CC
  100
AcDbEntity
  8
Layer 1
  62
0
  100
AcDb2dVertex
  10
1.70200
  20
0.94500
  30
0.00000
  42
-0.1706
  70
32
  0
VERTEX
  5
5CD
  100
AcDbEntity
  8
Layer 1
  62
0
  100
AcDb2dVertex
  10
1.68964
  20
0.93167
  30
0.00000
  42
-0.1098
  70
32
  0
VERTEX
  5
5CE
  100
AcDbEntity
  8
Layer 1
  62
0
  100
AcDb2dVertex
  10
1.68200
  20
0.93000
  30
0.00000
  42
-0.0531
  70
32
  0
VERTEX
  5
5CF
  100
AcDbEntity
  8
Layer 1
  62
0
  100
AcDb2dVertex
  10
1.65514
  20
0.93434
  30
0.00000
  42
-0.0148
  70
32
  0
VERTEX
  5
5D0
  100
AcDbEntity
  8
Layer 1
  62
0
  100
AcDb2dVertex
  10
1.61000
  20
0.94700
  30
0.00000
  42
0.0365
  70
32
  0
VERTEX
  5
5D1
  100
AcDbEntity
  8
Layer 1
  62
0
  100
AcDb2dVertex
  10
1.54670
  20
0.96238
  30
0.00000
  42
0.0356
  70
32
  0
VERTEX
  5
5D2
  100
AcDbEntity
  8
Layer 1
  62
0
  100
AcDb2dVertex
  10
1.52700
  20
0.96400
  30
0.00000
  42
0.0554
  70
32
  0
VERTEX
  5
5D3
  100
AcDbEntity
  8
Layer 1
  62
0
  100
AcDb2dVertex
  10
1.48260
  20
0.95776
  30
0.00000
  42
0.0260
  70
32
  0
VERTEX
  5
5D4
  100
AcDbEntity
  8
Layer 1
  62
0
  100
AcDb2dVertex
  10
1.42300
  20
0.94000
  30
0.00000
  42
-0.0423
  70
32
  0
VERTEX
  5
5D5
  100
AcDbEntity
  8
Layer 1
  62
0
  100
AcDb2dVertex
  10
1.34813
  20
0.91832
  30
0.00000
  42
-0.0447
  70
32
  0
VERTEX
  5
5D6
  100
AcDbEntity
  8
Layer 1
  62
0
  100
AcDb2dVertex
  10
1.31600
  20
0.91500
  30
0.00000
  42
-0.0742
  70
32
  0
VERTEX
  5
5D7
  100
AcDbEntity
  8
Layer 1
  62
0
  100
AcDb2dVertex
  10
1.28424
  20
0.91879
  30
0.00000
  42
-0.1523
  70
32
  0
VERTEX
  5
5D8
  100
AcDbEntity
  8
Layer 1
  62
0
  100
AcDb2dVertex
  10
1.27019
  20
0.92742
  30
0.00000
  42
-0.1698
  70
32
  0
VERTEX
  5
5D9
  100
AcDbEntity
  8
Layer 1
  62
0
  100
AcDb2dVertex
  10
1.26700
  20
0.93700
  30
0.00000
  42
-0.1605
  70
32
  0
VERTEX
  5
5DA
  100
AcDbEntity
  8
Layer 1
  62
0
  100
AcDb2dVertex
  10
1.27108
  20
0.94584
  30
0.00000
  42
-0.0361
  70
32
  0
VERTEX
  5
5DB
  100
AcDbEntity
  8
Layer 1
  62
0
  100
AcDb2dVertex
  10
1.28900
  20
0.96400
  30
0.00000
  42
0.0157
  70
32
  0
VERTEX
  5
5DC
  100
AcDbEntity
  8
Layer 1
  62
0
  100
AcDb2dVertex
  10
1.31900
  20
0.98700
  30
0.00000
  42
-0.0251
  70
32
  0
VERTEX
  5
5DD
  100
AcDbEntity
  8
Layer 1
  62
0
  100
AcDb2dVertex
  10
1.40253
  20
1.06147
  30
0.00000
  42
-0.0443
  70
32
  0
VERTEX
  5
5DE
  100
AcDbEntity
  8
Layer 1
  62
0
  100
AcDb2dVertex
  10
1.44890
  20
1.09283
  30
0.00000
  42
-0.0255
  70
32
  0
VERTEX
  5
5DF
  100
AcDbEntity
  8
Layer 1
  62
0
  100
AcDb2dVertex
  10
1.46000
  20
1.09800
  30
0.00000
  42
-0.0520
  70
32
  0
VERTEX
  5
5E0
  100
AcDbEntity
  8
Layer 1
  62
0
  100
AcDb2dVertex
  10
1.50147
  20
1.10757
  30
0.00000
  42
-0.0285
  70
32
  0
VERTEX
  5
5E1
  100
AcDbEntity
  8
Layer 1
  62
0
  100
AcDb2dVertex
  10
1.59413
  20
1.11440
  30
0.00000
  42
-0.0067
  70
32
  0
VERTEX
  5
5E2
  100
AcDbEntity
  8
Layer 1
  62
0
  100
AcDb2dVertex
  10
1.64100
  20
1.11500
  30
0.00000
  42
0.0486
  70
32
  0
VERTEX
  5
5E3
  100
AcDbEntity
  8
Layer 1
  62
0
  100
AcDb2dVertex
  10
1.66981
  20
1.11950
  30
0.00000
  70
32
  0
VERTEX
  5
5E4
  100
AcDbEntity
  8
Layer 1
  62
0
  100
AcDb2dVertex
  10
1.67200
  20
1.12000
  30
0.00000
  70
32
  0
VERTEX
  5
5E5
  100
AcDbEntity
  8
Layer 1
  62
0
  100
AcDb2dVertex
  10
1.68399
  20
1.12182
  30
0.00000
  42
-0.0329
  70
32
  0
VERTEX
  5
5E6
  100
AcDbEntity
  8
Layer 1
  62
0
  100
AcDb2dVertex
  10
1.70200
  20
1.12400
  30
0.00000
  42
-0.3104
  70
32
  0
VERTEX
  5
5E7
  100
AcDbEntity
  8
Layer 1
  62
0
  100
AcDb2dVertex
  10
1.72323
  20
1.11040
  30
0.00000
  70
32
  0
VERTEX
  5
5E8
  100
AcDbEntity
  8
Layer 1
  62
0
  100
AcDb2dVertex
  10
1.72500
  20
1.10600
  30
0.00000
  42
0.1146
  70
32
  0
VERTEX
  5
5E9
  100
AcDbEntity
  8
Layer 1
  62
0
  100
AcDb2dVertex
  10
1.73334
  20
1.09156
  30
0.00000
  42
0.1894
  70
32
  0
VERTEX
  5
5EA
  100
AcDbEntity
  8
Layer 1
  62
0
  100
AcDb2dVertex
  10
1.73900
  20
1.08900
  30
0.00000
  42
0.2243
  70
32
  0
VERTEX
  5
5EB
  100
AcDbEntity
  8
Layer 1
  62
0
  100
AcDb2dVertex
  10
1.74835
  20
1.09414
  30
0.00000
  42
0.0619
  70
32
  0
VERTEX
  5
5EC
  100
AcDbEntity
  8
Layer 1
  62
0
  100
AcDb2dVertex
  10
1.75400
  20
1.10300
  30
0.00000
  42
-0.1254
  70
32
  0
VERTEX
  5
5ED
  100
AcDbEntity
  8
Layer 1
  62
0
  100
AcDb2dVertex
  10
1.76594
  20
1.11505
  30
0.00000
  42
-0.1222
  70
32
  0
VERTEX
  5
5EE
  100
AcDbEntity
  8
Layer 1
  62
0
  100
AcDb2dVertex
  10
1.77400
  20
1.11700
  30
0.00000
  42
-0.1585
  70
32
  0
VERTEX
  5
5EF
  100
AcDbEntity
  8
Layer 1
  62
0
  100
AcDb2dVertex
  10
1.79012
  20
1.11278
  30
0.00000
  42
-0.1989
  70
32
  0
VERTEX
  5
5F0
  100
AcDbEntity
  8
Layer 1
  62
0
  100
AcDb2dVertex
  10
1.79700
  20
1.10100
  30
0.00000
  42
-0.0473
  70
32
  0
VERTEX
  5
5F1
  100
AcDbEntity
  8
Layer 1
  62
0
  100
AcDb2dVertex
  10
1.80186
  20
1.07138
  30
0.00000
  70
32
  0
VERTEX
  5
5F2
  100
AcDbEntity
  8
Layer 1
  62
0
  100
AcDb2dVertex
  10
1.80200
  20
1.07000
  30
0.00000
  42
0.1331
  70
32
  0
VERTEX
  5
5F3
  100
AcDbEntity
  8
Layer 1
  62
0
  100
AcDb2dVertex
  10
1.81187
  20
1.06388
  30
0.00000
  42
0.0459
  70
32
  0
VERTEX
  5
5F4
  100
AcDbEntity
  8
Layer 1
  62
0
  100
AcDb2dVertex
  10
1.83100
  20
1.05900
  30
0.00000
  42
-0.1004
  70
32
  0
VERTEX
  5
5F5
  100
AcDbEntity
  8
Layer 1
  62
0
  100
AcDb2dVertex
  10
1.84965
  20
1.05114
  30
0.00000
  42
-0.2451
  70
32
  0
VERTEX
  5
5F6
  100
AcDbEntity
  8
Layer 1
  62
0
  100
AcDb2dVertex
  10
1.85600
  20
1.03900
  30
0.00000
  70
32
  0
SEQEND
  5
5F7
  100
AcDbEntity
  8
Layer 1
  62
0
  0
POLYLINE
  5
5F8
  100
AcDbEntity
  8
Layer 1
  62
0
  100
AcDb2dPolyline
 66
     1
  10
0
  20
0
  30
0
  70
1
  0
VERTEX
  5
5F9
  100
AcDbEntity
  8
Layer 1
  62
0
  100
AcDb2dVertex
  10
1.95100
  20
0.52500
  30
0.00000
  70
32
  0
VERTEX
  5
5FA
  100
AcDbEntity
  8
Layer 1
  62
0
  100
AcDb2dVertex
  10
1.93900
  20
0.52000
  30
0.00000
  70
32
  0
VERTEX
  5
5FB
  100
AcDbEntity
  8
Layer 1
  62
0
  100
AcDb2dVertex
  10
1.92700
  20
0.52400
  30
0.00000
  42
0.0471
  70
32
  0
VERTEX
  5
5FC
  100
AcDbEntity
  8
Layer 1
  62
0
  100
AcDb2dVertex
  10
1.90553
  20
0.55338
  30
0.00000
  70
32
  0
VERTEX
  5
5FD
  100
AcDbEntity
  8
Layer 1
  62
0
  100
AcDb2dVertex
  10
1.89100
  20
0.57000
  30
0.00000
  42
0.1123
  70
32
  0
VERTEX
  5
5FE
  100
AcDbEntity
  8
Layer 1
  62
0
  100
AcDb2dVertex
  10
1.83348
  20
0.59810
  30
0.00000
  42
0.0619
  70
32
  0
VERTEX
  5
5FF
  100
AcDbEntity
  8
Layer 1
  62
0
  100
AcDb2dVertex
  10
1.77200
  20
0.60500
  30
0.00000
  42
-0.0760
  70
32
  0
VERTEX
  5
600
  100
AcDbEntity
  8
Layer 1
  62
0
  100
AcDb2dVertex
  10
1.73895
  20
0.60908
  30
0.00000
  42
-0.1540
  70
32
  0
VERTEX
  5
601
  100
AcDbEntity
  8
Layer 1
  62
0
  100
AcDb2dVertex
  10
1.72309
  20
0.61916
  30
0.00000
  42
-0.1674
  70
32
  0
VERTEX
  5
602
  100
AcDbEntity
  8
Layer 1
  62
0
  100
AcDb2dVertex
  10
1.71900
  20
0.63200
  30
0.00000
  42
-0.0476
  70
32
  0
VERTEX
  5
603
  100
AcDbEntity
  8
Layer 1
  62
0
  100
AcDb2dVertex
  10
1.72100
  20
0.65500
  30
0.00000
  42
-0.0643
  70
32
  0
VERTEX
  5
604
  100
AcDbEntity
  8
Layer 1
  62
0
  100
AcDb2dVertex
  10
1.73807
  20
0.67415
  30
0.00000
  42
-0.1525
  70
32
  0
VERTEX
  5
605
  100
AcDbEntity
  8
Layer 1
  62
0
  100
AcDb2dVertex
  10
1.74400
  20
0.67700
  30
0.00000
  42
-0.1233
  70
32
  0
VERTEX
  5
606
  100
AcDbEntity
  8
Layer 1
  62
0
  100
AcDb2dVertex
  10
1.77263
  20
0.67088
  30
0.00000
  42
-0.0884
  70
32
  0
VERTEX
  5
607
  100
AcDbEntity
  8
Layer 1
  62
0
  100
AcDb2dVertex
  10
1.78400
  20
0.66200
  30
0.00000
  42
-0.0345
  70
32
  0
VERTEX
  5
608
  100
AcDbEntity
  8
Layer 1
  62
0
  100
AcDb2dVertex
  10
1.80527
  20
0.64027
  30
0.00000
  70
32
  0
VERTEX
  5
609
  100
AcDbEntity
  8
Layer 1
  62
0
  100
AcDb2dVertex
  10
1.80600
  20
0.63900
  30
0.00000
  42
0.0039
  70
32
  0
VERTEX
  5
60A
  100
AcDbEntity
  8
Layer 1
  62
0
  100
AcDb2dVertex
  10
1.89400
  20
0.59900
  30
0.00000
  42
-0.1084
  70
32
  0
VERTEX
  5
60B
  100
AcDbEntity
  8
Layer 1
  62
0
  100
AcDb2dVertex
  10
1.93377
  20
0.56586
  30
0.00000
  42
-0.1226
  70
32
  0
VERTEX
  5
60C
  100
AcDbEntity
  8
Layer 1
  62
0
  100
AcDb2dVertex
  10
1.95100
  20
0.52500
  30
0.00000
  70
32
  0
SEQEND
  5
60D
  100
AcDbEntity
  8
Layer 1
  62
0
  0
POLYLINE
  5
60E
  100
AcDbEntity
  8
Layer 1
  62
0
  100
AcDb2dPolyline
 66
     1
  10
0
  20
0
  30
0
  70
1
  0
VERTEX
  5
60F
  100
AcDbEntity
  8
Layer 1
  62
0
  100
AcDb2dVertex
  10
2.05200
  20
0.48000
  30
0.00000
  42
-0.0738
  70
32
  0
VERTEX
  5
610
  100
AcDbEntity
  8
Layer 1
  62
0
  100
AcDb2dVertex
  10
2.04305
  20
0.42750
  30
0.00000
  42
-0.0208
  70
32
  0
VERTEX
  5
611
  100
AcDbEntity
  8
Layer 1
  62
0
  100
AcDb2dVertex
  10
2.03400
  20
0.40200
  30
0.00000
  42
-0.0647
  70
32
  0
VERTEX
  5
612
  100
AcDbEntity
  8
Layer 1
  62
0
  100
AcDb2dVertex
  10
2.01531
  20
0.36418
  30
0.00000
  42
-0.1216
  70
32
  0
VERTEX
  5
613
  100
AcDbEntity
  8
Layer 1
  62
0
  100
AcDb2dVertex
  10
1.99787
  20
0.34790
  30
0.00000
  42
-0.1182
  70
32
  0
VERTEX
  5
614
  100
AcDbEntity
  8
Layer 1
  62
0
  100
AcDb2dVertex
  10
1.98600
  20
0.34500
  30
0.00000
  42
-0.2729
  70
32
  0
VERTEX
  5
615
  100
AcDbEntity
  8
Layer 1
  62
0
  100
AcDb2dVertex
  10
1.97748
  20
0.34893
  30
0.00000
  42
-0.1392
  70
32
  0
VERTEX
  5
616
  100
AcDbEntity
  8
Layer 1
  62
0
  100
AcDb2dVertex
  10
1.97600
  20
0.35500
  30
0.00000
  42
0.0369
  70
32
  0
VERTEX
  5
617
  100
AcDbEntity
  8
Layer 1
  62
0
  100
AcDb2dVertex
  10
2.00364
  20
0.42458
  30
0.00000
  42
0.0675
  70
32
  0
VERTEX
  5
618
  100
AcDbEntity
  8
Layer 1
  62
0
  100
AcDb2dVertex
  10
2.01099
  20
0.46595
  30
0.00000
  70
32
  0
VERTEX
  5
619
  100
AcDbEntity
  8
Layer 1
  62
0
  100
AcDb2dVertex
  10
2.01100
  20
0.46700
  30
0.00000
  42
0.1433
  70
32
  0
VERTEX
  5
61A
  100
AcDbEntity
  8
Layer 1
  62
0
  100
AcDb2dVertex
  10
1.98242
  20
0.56431
  30
0.00000
  42
0.0755
  70
32
  0
VERTEX
  5
61B
  100
AcDbEntity
  8
Layer 1
  62
0
  100
AcDb2dVertex
  10
1.92866
  20
0.62536
  30
0.00000
  70
32
  0
VERTEX
  5
61C
  100
AcDbEntity
  8
Layer 1
  62
0
  100
AcDb2dVertex
  10
1.91700
  20
0.63500
  30
0.00000
  70
32
  0
VERTEX
  5
61D
  100
AcDbEntity
  8
Layer 1
  62
0
  100
AcDb2dVertex
  10
1.93600
  20
0.65200
  30
0.00000
  70
32
  0
VERTEX
  5
61E
  100
AcDbEntity
  8
Layer 1
  62
0
  100
AcDb2dVertex
  10
1.91700
  20
0.63500
  30
0.00000
  42
0.0584
  70
32
  0
VERTEX
  5
61F
  100
AcDbEntity
  8
Layer 1
  62
0
  100
AcDb2dVertex
  10
1.85371
  20
0.68918
  30
0.00000
  42
0.0881
  70
32
  0
VERTEX
  5
620
  100
AcDbEntity
  8
Layer 1
  62
0
  100
AcDb2dVertex
  10
1.79256
  20
0.71633
  30
0.00000
  42
0.0569
  70
32
  0
VERTEX
  5
621
  100
AcDbEntity
  8
Layer 1
  62
0
  100
AcDb2dVertex
  10
1.76100
  20
0.72000
  30
0.00000
  42
0.1048
  70
32
  0
VERTEX
  5
622
  100
AcDbEntity
  8
Layer 1
  62
0
  100
AcDb2dVertex
  10
1.69515
  20
0.70528
  30
0.00000
  70
32
  0
VERTEX
  5
623
  100
AcDbEntity
  8
Layer 1
  62
0
  100
AcDb2dVertex
  10
1.68800
  20
0.70200
  30
0.00000
  70
32
  0
VERTEX
  5
624
  100
AcDbEntity
  8
Layer 1
  62
0
  100
AcDb2dVertex
  10
1.65100
  20
0.68400
  30
0.00000
  70
32
  0
VERTEX
  5
625
  100
AcDbEntity
  8
Layer 1
  62
0
  100
AcDb2dVertex
  10
1.63900
  20
0.69200
  30
0.00000
  42
-0.1841
  70
32
  0
VERTEX
  5
626
  100
AcDbEntity
  8
Layer 1
  62
0
  100
AcDb2dVertex
  10
1.64612
  20
0.70868
  30
0.00000
  42
-0.0833
  70
32
  0
VERTEX
  5
627
  100
AcDbEntity
  8
Layer 1
  62
0
  100
AcDb2dVertex
  10
1.66883
  20
0.72591
  30
0.00000
  42
-0.0290
  70
32
  0
VERTEX
  5
628
  100
AcDbEntity
  8
Layer 1
  62
0
  100
AcDb2dVertex
  10
1.69600
  20
0.73900
  30
0.00000
  42
-0.0479
  70
32
  0
VERTEX
  5
629
  100
AcDbEntity
  8
Layer 1
  62
0
  100
AcDb2dVertex
  10
1.75167
  20
0.75664
  30
0.00000
  42
-0.0471
  70
32
  0
VERTEX
  5
62A
  100
AcDbEntity
  8
Layer 1
  62
0
  100
AcDb2dVertex
  10
1.77400
  20
0.75900
  30
0.00000
  42
-0.1154
  70
32
  0
VERTEX
  5
62B
  100
AcDbEntity
  8
Layer 1
  62
0
  100
AcDb2dVertex
  10
1.84173
  20
0.74231
  30
0.00000
  42
-0.0729
  70
32
  0
VERTEX
  5
62C
  100
AcDbEntity
  8
Layer 1
  62
0
  100
AcDb2dVertex
  10
1.90269
  20
0.69917
  30
0.00000
  42
-0.0252
  70
32
  0
VERTEX
  5
62D
  100
AcDbEntity
  8
Layer 1
  62
0
  100
AcDb2dVertex
  10
1.93100
  20
0.67000
  30
0.00000
  42
-0.0114
  70
32
  0
VERTEX
  5
62E
  100
AcDbEntity
  8
Layer 1
  62
0
  100
AcDb2dVertex
  10
1.93912
  20
0.69209
  30
0.00000
  70
32
  0
VERTEX
  5
62F
  100
AcDbEntity
  8
Layer 1
  62
0
  100
AcDb2dVertex
  10
1.94400
  20
0.70500
  30
0.00000
  42
-0.0732
  70
32
  0
VERTEX
  5
630
  100
AcDbEntity
  8
Layer 1
  62
0
  100
AcDb2dVertex
  10
1.95664
  20
0.72561
  30
0.00000
  42
-0.1868
  70
32
  0
VERTEX
  5
631
  100
AcDbEntity
  8
Layer 1
  62
0
  100
AcDb2dVertex
  10
1.96376
  20
0.72999
  30
0.00000
  70
32
  0
VERTEX
  5
632
  100
AcDbEntity
  8
Layer 1
  62
0
  100
AcDb2dVertex
  10
1.96400
  20
0.73000
  30
0.00000
  42
-0.1294
  70
32
  0
VERTEX
  5
633
  100
AcDbEntity
  8
Layer 1
  62
0
  100
AcDb2dVertex
  10
1.97404
  20
0.72599
  30
0.00000
  42
-0.0377
  70
32
  0
VERTEX
  5
634
  100
AcDbEntity
  8
Layer 1
  62
0
  100
AcDb2dVertex
  10
1.99800
  20
0.70700
  30
0.00000
  42
-0.0425
  70
32
  0
VERTEX
  5
635
  100
AcDbEntity
  8
Layer 1
  62
0
  100
AcDb2dVertex
  10
2.02141
  20
0.68360
  30
0.00000
  42
-0.1161
  70
32
  0
VERTEX
  5
636
  100
AcDbEntity
  8
Layer 1
  62
0
  100
AcDb2dVertex
  10
2.02600
  20
0.67500
  30
0.00000
  70
32
  0
VERTEX
  5
637
  100
AcDbEntity
  8
Layer 1
  62
0
  100
AcDb2dVertex
  10
2.01900
  20
0.66200
  30
0.00000
  42
0.0517
  70
32
  0
VERTEX
  5
638
  100
AcDbEntity
  8
Layer 1
  62
0
  100
AcDb2dVertex
  10
1.98491
  20
0.64757
  30
0.00000
  42
0.1222
  70
32
  0
VERTEX
  5
639
  100
AcDbEntity
  8
Layer 1
  62
0
  100
AcDb2dVertex
  10
1.97334
  20
0.63734
  30
0.00000
  42
0.0774
  70
32
  0
VERTEX
  5
63A
  100
AcDbEntity
  8
Layer 1
  62
0
  100
AcDb2dVertex
  10
1.97200
  20
0.63400
  30
0.00000
  42
-0.0627
  70
32
  0
VERTEX
  5
63B
  100
AcDbEntity
  8
Layer 1
  62
0
  100
AcDb2dVertex
  10
2.02390
  20
0.57135
  30
0.00000
  42
-0.0974
  70
32
  0
VERTEX
  5
63C
  100
AcDbEntity
  8
Layer 1
  62
0
  100
AcDb2dVertex
  10
2.04989
  20
0.50510
  30
0.00000
  42
-0.0418
  70
32
  0
VERTEX
  5
63D
  100
AcDbEntity
  8
Layer 1
  62
0
  100
AcDb2dVertex
  10
2.05200
  20
0.48000
  30
0.00000
  70
32
  0
SEQEND
  5
63E
  100
AcDbEntity
  8
Layer 1
  62
0
  0
POLYLINE
  5
63F
  100
AcDbEntity
  8
Layer 1
  62
0
  100
AcDb2dPolyline
 66
     1
  10
0
  20
0
  30
0
  70
1
  0
VERTEX
  5
640
  100
AcDbEntity
  8
Layer 1
  62
0
  100
AcDb2dVertex
  10
1.97900
  20
0.47500
  30
0.00000
  42
-0.2838
  70
32
  0
VERTEX
  5
641
  100
AcDbEntity
  8
Layer 1
  62
0
  100
AcDb2dVertex
  10
1.97180
  20
0.46356
  30
0.00000
  42
-0.0997
  70
32
  0
VERTEX
  5
642
  100
AcDbEntity
  8
Layer 1
  62
0
  100
AcDb2dVertex
  10
1.95242
  20
0.45807
  30
0.00000
  42
-0.0302
  70
32
  0
VERTEX
  5
643
  100
AcDbEntity
  8
Layer 1
  62
0
  100
AcDb2dVertex
  10
1.93200
  20
0.45700
  30
0.00000
  42
-0.0778
  70
32
  0
VERTEX
  5
644
  100
AcDbEntity
  8
Layer 1
  62
0
  100
AcDb2dVertex
  10
1.88752
  20
0.46518
  30
0.00000
  42
-0.0339
  70
32
  0
VERTEX
  5
645
  100
AcDbEntity
  8
Layer 1
  62
0
  100
AcDb2dVertex
  10
1.84900
  20
0.48100
  30
0.00000
  42
0.0543
  70
32
  0
VERTEX
  5
646
  100
AcDbEntity
  8
Layer 1
  62
0
  100
AcDb2dVertex
  10
1.79367
  20
0.50180
  30
0.00000
  42
0.0570
  70
32
  0
VERTEX
  5
647
  100
AcDbEntity
  8
Layer 1
  62
0
  100
AcDb2dVertex
  10
1.76900
  20
0.50500
  30
0.00000
  42
-0.0984
  70
32
  0
VERTEX
  5
648
  100
AcDbEntity
  8
Layer 1
  62
0
  100
AcDb2dVertex
  10
1.75253
  20
0.50953
  30
0.00000
  70
32
  0
VERTEX
  5
649
  100
AcDbEntity
  8
Layer 1
  62
0
  100
AcDb2dVertex
  10
1.74100
  20
0.51500
  30
0.00000
  42
-0.1037
  70
32
  0
VERTEX
  5
64A
  100
AcDbEntity
  8
Layer 1
  62
0
  100
AcDb2dVertex
  10
1.72501
  20
0.52730
  30
0.00000
  42
-0.1640
  70
32
  0
VERTEX
  5
64B
  100
AcDbEntity
  8
Layer 1
  62
0
  100
AcDb2dVertex
  10
1.72200
  20
0.53500
  30
0.00000
  42
-0.0515
  70
32
  0
VERTEX
  5
64C
  100
AcDbEntity
  8
Layer 1
  62
0
  100
AcDb2dVertex
  10
1.72547
  20
0.55385
  30
0.00000
  70
32
  0
VERTEX
  5
64D
  100
AcDbEntity
  8
Layer 1
  62
0
  100
AcDb2dVertex
  10
1.72700
  20
0.56000
  30
0.00000
  70
32
  0
VERTEX
  5
64E
  100
AcDbEntity
  8
Layer 1
  62
0
  100
AcDb2dVertex
  10
1.75700
  20
0.54200
  30
0.00000
  70
32
  0
VERTEX
  5
64F
  100
AcDbEntity
  8
Layer 1
  62
0
  100
AcDb2dVertex
  10
1.72700
  20
0.56000
  30
0.00000
  42
-0.3477
  70
32
  0
VERTEX
  5
650
  100
AcDbEntity
  8
Layer 1
  62
0
  100
AcDb2dVertex
  10
1.74102
  20
0.57610
  30
0.00000
  42
-0.0607
  70
32
  0
VERTEX
  5
651
  100
AcDbEntity
  8
Layer 1
  62
0
  100
AcDb2dVertex
  10
1.74900
  20
0.57700
  30
0.00000
  42
-0.1544
  70
32
  0
VERTEX
  5
652
  100
AcDbEntity
  8
Layer 1
  62
0
  100
AcDb2dVertex
  10
1.78547
  20
0.56658
  30
0.00000
  42
-0.0660
  70
32
  0
VERTEX
  5
653
  100
AcDbEntity
  8
Layer 1
  62
0
  100
AcDb2dVertex
  10
1.79600
  20
0.55700
  30
0.00000
  42
0.1611
  70
32
  0
VERTEX
  5
654
  100
AcDbEntity
  8
Layer 1
  62
0
  100
AcDb2dVertex
  10
1.80209
  20
0.54185
  30
0.00000
  42
0.0815
  70
32
  0
VERTEX
  5
655
  100
AcDbEntity
  8
Layer 1
  62
0
  100
AcDb2dVertex
  10
1.82529
  20
0.52128
  30
0.00000
  42
0.0264
  70
32
  0
VERTEX
  5
656
  100
AcDbEntity
  8
Layer 1
  62
0
  100
AcDb2dVertex
  10
1.84600
  20
0.50900
  30
0.00000
  42
0.0425
  70
32
  0
VERTEX
  5
657
  100
AcDbEntity
  8
Layer 1
  62
0
  100
AcDb2dVertex
  10
1.89239
  20
0.48629
  30
0.00000
  42
0.0891
  70
32
  0
VERTEX
  5
658
  100
AcDbEntity
  8
Layer 1
  62
0
  100
AcDb2dVertex
  10
1.91291
  20
0.48194
  30
0.00000
  70
32
  0
VERTEX
  5
659
  100
AcDbEntity
  8
Layer 1
  62
0
  100
AcDb2dVertex
  10
1.91400
  20
0.48200
  30
0.00000
  70
32
  0
VERTEX
  5
65A
  100
AcDbEntity
  8
Layer 1
  62
0
  100
AcDb2dVertex
  10
1.96100
  20
0.48700
  30
0.00000
  42
-0.1503
  70
32
  0
VERTEX
  5
65B
  100
AcDbEntity
  8
Layer 1
  62
0
  100
AcDb2dVertex
  10
1.97396
  20
0.48509
  30
0.00000
  42
-0.2844
  70
32
  0
VERTEX
  5
65C
  100
AcDbEntity
  8
Layer 1
  62
0
  100
AcDb2dVertex
  10
1.97900
  20
0.47500
  30
0.00000
  70
32
  0
SEQEND
  5
65D
  100
AcDbEntity
  8
Layer 1
  62
0
  0
POLYLINE
  5
65E
  100
AcDbEntity
  8
Layer 1
  62
0
  100
AcDb2dPolyline
 66
     1
  10
0
  20
0
  30
0
  70
1
  0
VERTEX
  5
65F
  100
AcDbEntity
  8
Layer 1
  62
0
  100
AcDb2dVertex
  10
0.94600
  20
1.54700
  30
0.00000
  42
-0.2860
  70
32
  0
VERTEX
  5
660
  100
AcDbEntity
  8
Layer 1
  62
0
  100
AcDb2dVertex
  10
0.93964
  20
1.53725
  30
0.00000
  42
-0.1034
  70
32
  0
VERTEX
  5
661
  100
AcDbEntity
  8
Layer 1
  62
0
  100
AcDb2dVertex
  10
0.92097
  20
1.53249
  30
0.00000
  42
-0.0226
  70
32
  0
VERTEX
  5
662
  100
AcDbEntity
  8
Layer 1
  62
0
  100
AcDb2dVertex
  10
0.90900
  20
1.53200
  30
0.00000
  42
0.2484
  70
32
  0
VERTEX
  5
663
  100
AcDbEntity
  8
Layer 1
  62
0
  100
AcDb2dVertex
  10
0.88433
  20
1.51934
  30
0.00000
  70
32
  0
VERTEX
  5
664
  100
AcDbEntity
  8
Layer 1
  62
0
  100
AcDb2dVertex
  10
0.88200
  20
1.51600
  30
0.00000
  42
-0.1277
  70
32
  0
VERTEX
  5
665
  100
AcDbEntity
  8
Layer 1
  62
0
  100
AcDb2dVertex
  10
0.86970
  20
1.50260
  30
0.00000
  42
-0.1651
  70
32
  0
VERTEX
  5
666
  100
AcDbEntity
  8
Layer 1
  62
0
  100
AcDb2dVertex
  10
0.86200
  20
1.50100
  30
0.00000
  42
-0.1616
  70
32
  0
VERTEX
  5
667
  100
AcDbEntity
  8
Layer 1
  62
0
  100
AcDb2dVertex
  10
0.84165
  20
1.50690
  30
0.00000
  42
-0.0662
  70
32
  0
VERTEX
  5
668
  100
AcDbEntity
  8
Layer 1
  62
0
  100
AcDb2dVertex
  10
0.82400
  20
1.52200
  30
0.00000
  42
0.2085
  70
32
  0
VERTEX
  5
669
  100
AcDbEntity
  8
Layer 1
  62
0
  100
AcDb2dVertex
  10
0.81413
  20
1.51680
  30
0.00000
  42
0.0498
  70
32
  0
VERTEX
  5
66A
  100
AcDbEntity
  8
Layer 1
  62
0
  100
AcDb2dVertex
  10
0.80900
  20
1.51000
  30
0.00000
  42
-0.1737
  70
32
  0
VERTEX
  5
66B
  100
AcDbEntity
  8
Layer 1
  62
0
  100
AcDb2dVertex
  10
0.79474
  20
1.49816
  30
0.00000
  42
-0.0789
  70
32
  0
VERTEX
  5
66C
  100
AcDbEntity
  8
Layer 1
  62
0
  100
AcDb2dVertex
  10
0.78700
  20
1.49700
  30
0.00000
  42
-0.0166
  70
32
  0
VERTEX
  5
66D
  100
AcDbEntity
  8
Layer 1
  62
0
  100
AcDb2dVertex
  10
0.72600
  20
1.50000
  30
0.00000
  42
0.0262
  70
32
  0
VERTEX
  5
66E
  100
AcDbEntity
  8
Layer 1
  62
0
  100
AcDb2dVertex
  10
0.66200
  20
1.50400
  30
0.00000
  42
-0.1038
  70
32
  0
VERTEX
  5
66F
  100
AcDbEntity
  8
Layer 1
  62
0
  100
AcDb2dVertex
  10
0.55086
  20
1.52791
  30
0.00000
  42
-0.0224
  70
32
  0
VERTEX
  5
670
  100
AcDbEntity
  8
Layer 1
  62
0
  100
AcDb2dVertex
  10
0.52200
  20
1.54200
  30
0.00000
  42
0.0057
  70
32
  0
VERTEX
  5
671
  100
AcDbEntity
  8
Layer 1
  62
0
  100
AcDb2dVertex
  10
0.40000
  20
1.62600
  30
0.00000
  42
-0.1764
  70
32
  0
VERTEX
  5
672
  100
AcDbEntity
  8
Layer 1
  62
0
  100
AcDb2dVertex
  10
0.39769
  20
1.63356
  30
0.00000
  42
-0.1560
  70
32
  0
VERTEX
  5
673
  100
AcDbEntity
  8
Layer 1
  62
0
  100
AcDb2dVertex
  10
0.39900
  20
1.63600
  30
0.00000
  42
-0.2314
  70
32
  0
VERTEX
  5
674
  100
AcDbEntity
  8
Layer 1
  62
0
  100
AcDb2dVertex
  10
0.40318
  20
1.64260
  30
0.00000
  42
-0.0799
  70
32
  0
VERTEX
  5
675
  100
AcDbEntity
  8
Layer 1
  62
0
  100
AcDb2dVertex
  10
0.42166
  20
1.65129
  30
0.00000
  42
-0.0212
  70
32
  0
VERTEX
  5
676
  100
AcDbEntity
  8
Layer 1
  62
0
  100
AcDb2dVertex
  10
0.44200
  20
1.65700
  30
0.00000
  42
-0.0443
  70
32
  0
VERTEX
  5
677
  100
AcDbEntity
  8
Layer 1
  62
0
  100
AcDb2dVertex
  10
0.49500
  20
1.66600
  30
0.00000
  42
-0.0527
  70
32
  0
VERTEX
  5
678
  100
AcDbEntity
  8
Layer 1
  62
0
  100
AcDb2dVertex
  10
0.54094
  20
1.65724
  30
0.00000
  42
-0.0163
  70
32
  0
VERTEX
  5
679
  100
AcDbEntity
  8
Layer 1
  62
0
  100
AcDb2dVertex
  10
0.57300
  20
1.64700
  30
0.00000
  42
0.0418
  70
32
  0
VERTEX
  5
67A
  100
AcDbEntity
  8
Layer 1
  62
0
  100
AcDb2dVertex
  10
0.63132
  20
1.63078
  30
0.00000
  42
0.0408
  70
32
  0
VERTEX
  5
67B
  100
AcDbEntity
  8
Layer 1
  62
0
  100
AcDb2dVertex
  10
0.65000
  20
1.62900
  30
0.00000
  42
0.0610
  70
32
  0
VERTEX
  5
67C
  100
AcDbEntity
  8
Layer 1
  62
0
  100
AcDb2dVertex
  10
0.69423
  20
1.63568
  30
0.00000
  42
0.0151
  70
32
  0
VERTEX
  5
67D
  100
AcDbEntity
  8
Layer 1
  62
0
  100
AcDb2dVertex
  10
0.71600
  20
1.64200
  30
0.00000
  42
-0.0390
  70
32
  0
VERTEX
  5
67E
  100
AcDbEntity
  8
Layer 1
  62
0
  100
AcDb2dVertex
  10
0.77053
  20
1.65527
  30
0.00000
  70
32
  0
VERTEX
  5
67F
  100
AcDbEntity
  8
Layer 1
  62
0
  100
AcDb2dVertex
  10
0.77700
  20
1.65600
  30
0.00000
  42
-0.1894
  70
32
  0
VERTEX
  5
680
  100
AcDbEntity
  8
Layer 1
  62
0
  100
AcDb2dVertex
  10
0.79700
  20
1.64500
  30
0.00000
  42
0.1573
  70
32
  0
VERTEX
  5
681
  100
AcDbEntity
  8
Layer 1
  62
0
  100
AcDb2dVertex
  10
0.81267
  20
1.63451
  30
0.00000
  42
0.0577
  70
32
  0
VERTEX
  5
682
  100
AcDbEntity
  8
Layer 1
  62
0
  100
AcDb2dVertex
  10
0.81700
  20
1.63400
  30
0.00000
  42
0.0317
  70
32
  0
VERTEX
  5
683
  100
AcDbEntity
  8
Layer 1
  62
0
  100
AcDb2dVertex
  10
0.82589
  20
1.64456
  30
0.00000
  70
32
  0
VERTEX
  5
684
  100
AcDbEntity
  8
Layer 1
  62
0
  100
AcDb2dVertex
  10
0.83100
  20
1.65100
  30
0.00000
  42
-0.1978
  70
32
  0
VERTEX
  5
685
  100
AcDbEntity
  8
Layer 1
  62
0
  100
AcDb2dVertex
  10
0.84591
  20
1.66017
  30
0.00000
  70
32
  0
VERTEX
  5
686
  100
AcDbEntity
  8
Layer 1
  62
0
  100
AcDb2dVertex
  10
0.85100
  20
1.66100
  30
0.00000
  42
-0.2423
  70
32
  0
VERTEX
  5
687
  100
AcDbEntity
  8
Layer 1
  62
0
  100
AcDb2dVertex
  10
0.87418
  20
1.64632
  30
0.00000
  70
32
  0
VERTEX
  5
688
  100
AcDbEntity
  8
Layer 1
  62
0
  100
AcDb2dVertex
  10
0.87500
  20
1.64500
  30
0.00000
  42
0.1158
  70
32
  0
VERTEX
  5
689
  100
AcDbEntity
  8
Layer 1
  62
0
  100
AcDb2dVertex
  10
0.88490
  20
1.63257
  30
0.00000
  42
0.2327
  70
32
  0
VERTEX
  5
68A
  100
AcDbEntity
  8
Layer 1
  62
0
  100
AcDb2dVertex
  10
0.89400
  20
1.63100
  30
0.00000
  70
32
  0
VERTEX
  5
68B
  100
AcDbEntity
  8
Layer 1
  62
0
  100
AcDb2dVertex
  10
0.91562
  20
1.63325
  30
0.00000
  70
32
  0
VERTEX
  5
68C
  100
AcDbEntity
  8
Layer 1
  62
0
  100
AcDb2dVertex
  10
0.91889
  20
1.63381
  30
0.00000
  70
32
  0
VERTEX
  5
68D
  100
AcDbEntity
  8
Layer 1
  62
0
  100
AcDb2dVertex
  10
0.91860
  20
1.63395
  30
0.00000
  70
32
  0
VERTEX
  5
68E
  100
AcDbEntity
  8
Layer 1
  62
0
  100
AcDb2dVertex
  10
0.91700
  20
1.63400
  30
0.00000
  42
-0.3001
  70
32
  0
VERTEX
  5
68F
  100
AcDbEntity
  8
Layer 1
  62
0
  100
AcDb2dVertex
  10
0.93761
  20
1.62133
  30
0.00000
  42
-0.1008
  70
32
  0
VERTEX
  5
690
  100
AcDbEntity
  8
Layer 1
  62
0
  100
AcDb2dVertex
  10
0.94359
  20
1.59704
  30
0.00000
  42
-0.0195
  70
32
  0
VERTEX
  5
691
  100
AcDbEntity
  8
Layer 1
  62
0
  100
AcDb2dVertex
  10
0.94400
  20
1.58600
  30
0.00000
  70
32
  0
VERTEX
  5
692
  100
AcDbEntity
  8
Layer 1
  62
0
  100
AcDb2dVertex
  10
0.87400
  20
1.57900
  30
0.00000
  70
32
  0
VERTEX
  5
693
  100
AcDbEntity
  8
Layer 1
  62
0
  100
AcDb2dVertex
  10
0.94400
  20
1.58600
  30
0.00000
  70
32
  0
VERTEX
  5
694
  100
AcDbEntity
  8
Layer 1
  62
0
  100
AcDb2dVertex
  10
0.94600
  20
1.54700
  30
0.00000
  70
32
  0
SEQEND
  5
695
  100
AcDbEntity
  8
Layer 1
  62
0
  0
POLYLINE
  5
696
  100
AcDbEntity
  8
Layer 1
  62
0
  100
AcDb2dPolyline
 66
     1
  10
0
  20
0
  30
0
  70
1
  0
VERTEX
  5
697
  100
AcDbEntity
  8
Layer 1
  62
0
  100
AcDb2dVertex
  10
0.95400
  20
1.37400
  30
0.00000
  42
-0.1840
  70
32
  0
VERTEX
  5
698
  100
AcDbEntity
  8
Layer 1
  62
0
  100
AcDb2dVertex
  10
0.95016
  20
1.36127
  30
0.00000
  42
-0.2208
  70
32
  0
VERTEX
  5
699
  100
AcDbEntity
  8
Layer 1
  62
0
  100
AcDb2dVertex
  10
0.93900
  20
1.35700
  30
0.00000
  42
-0.0857
  70
32
  0
VERTEX
  5
69A
  100
AcDbEntity
  8
Layer 1
  62
0
  100
AcDb2dVertex
  10
0.91833
  20
1.36188
  30
0.00000
  70
32
  0
VERTEX
  5
69B
  100
AcDbEntity
  8
Layer 1
  62
0
  100
AcDb2dVertex
  10
0.91800
  20
1.36200
  30
0.00000
  42
0.0697
  70
32
  0
VERTEX
  5
69C
  100
AcDbEntity
  8
Layer 1
  62
0
  100
AcDb2dVertex
  10
0.89936
  20
1.36699
  30
0.00000
  70
32
  0
VERTEX
  5
69D
  100
AcDbEntity
  8
Layer 1
  62
0
  100
AcDb2dVertex
  10
0.89900
  20
1.36700
  30
0.00000
  42
0.1686
  70
32
  0
VERTEX
  5
69E
  100
AcDbEntity
  8
Layer 1
  62
0
  100
AcDb2dVertex
  10
0.89501
  20
1.36389
  30
0.00000
  42
0.0351
  70
32
  0
VERTEX
  5
69F
  100
AcDbEntity
  8
Layer 1
  62
0
  100
AcDb2dVertex
  10
0.87733
  20
1.33778
  30
0.00000
  70
32
  0
VERTEX
  5
6A0
  100
AcDbEntity
  8
Layer 1
  62
0
  100
AcDb2dVertex
  10
0.87200
  20
1.32900
  30
0.00000
  42
-0.1481
  70
32
  0
VERTEX
  5
6A1
  100
AcDbEntity
  8
Layer 1
  62
0
  100
AcDb2dVertex
  10
0.84305
  20
1.29864
  30
0.00000
  42
-0.1267
  70
32
  0
VERTEX
  5
6A2
  100
AcDbEntity
  8
Layer 1
  62
0
  100
AcDb2dVertex
  10
0.80600
  20
1.29000
  30
0.00000
  42
-0.1026
  70
32
  0
VERTEX
  5
6A3
  100
AcDbEntity
  8
Layer 1
  62
0
  100
AcDb2dVertex
  10
0.78768
  20
1.29290
  30
0.00000
  42
-0.2618
  70
32
  0
VERTEX
  5
6A4
  100
AcDbEntity
  8
Layer 1
  62
0
  100
AcDb2dVertex
  10
0.78207
  20
1.29908
  30
0.00000
  70
32
  0
VERTEX
  5
6A5
  100
AcDbEntity
  8
Layer 1
  62
0
  100
AcDb2dVertex
  10
0.78200
  20
1.30000
  30
0.00000
  42
-0.1479
  70
32
  0
VERTEX
  5
6A6
  100
AcDbEntity
  8
Layer 1
  62
0
  100
AcDb2dVertex
  10
0.78900
  20
1.31200
  30
0.00000
  42
0.0647
  70
32
  0
VERTEX
  5
6A7
  100
AcDbEntity
  8
Layer 1
  62
0
  100
AcDb2dVertex
  10
0.82543
  20
1.32330
  30
0.00000
  42
0.1054
  70
32
  0
VERTEX
  5
6A8
  100
AcDbEntity
  8
Layer 1
  62
0
  100
AcDb2dVertex
  10
0.84100
  20
1.33500
  30
0.00000
  42
0.1102
  70
32
  0
VERTEX
  5
6A9
  100
AcDbEntity
  8
Layer 1
  62
0
  100
AcDb2dVertex
  10
0.85063
  20
1.35731
  30
0.00000
  42
0.0559
  70
32
  0
VERTEX
  5
6AA
  100
AcDbEntity
  8
Layer 1
  62
0
  100
AcDb2dVertex
  10
0.85400
  20
1.39200
  30
0.00000
  70
32
  0
VERTEX
  5
6AB
  100
AcDbEntity
  8
Layer 1
  62
0
  100
AcDb2dVertex
  10
0.89100
  20
1.39400
  30
0.00000
  70
32
  0
VERTEX
  5
6AC
  100
AcDbEntity
  8
Layer 1
  62
0
  100
AcDb2dVertex
  10
0.85400
  20
1.39200
  30
0.00000
  42
0.0659
  70
32
  0
VERTEX
  5
6AD
  100
AcDbEntity
  8
Layer 1
  62
0
  100
AcDb2dVertex
  10
0.84067
  20
1.42833
  30
0.00000
  42
0.1219
  70
32
  0
VERTEX
  5
6AE
  100
AcDbEntity
  8
Layer 1
  62
0
  100
AcDb2dVertex
  10
0.82700
  20
1.44400
  30
0.00000
  42
-0.0262
  70
32
  0
VERTEX
  5
6AF
  100
AcDbEntity
  8
Layer 1
  62
0
  100
AcDb2dVertex
  10
0.77400
  20
1.45900
  30
0.00000
  42
-0.2210
  70
32
  0
VERTEX
  5
6B0
  100
AcDbEntity
  8
Layer 1
  62
0
  100
AcDb2dVertex
  10
0.76689
  20
1.46395
  30
0.00000
  42
-0.1932
  70
32
  0
VERTEX
  5
6B1
  100
AcDbEntity
  8
Layer 1
  62
0
  100
AcDb2dVertex
  10
0.76700
  20
1.47100
  30
0.00000
  42
-0.3210
  70
32
  0
VERTEX
  5
6B2
  100
AcDbEntity
  8
Layer 1
  62
0
  100
AcDb2dVertex
  10
0.77180
  20
1.47716
  30
0.00000
  42
-0.1044
  70
32
  0
VERTEX
  5
6B3
  100
AcDbEntity
  8
Layer 1
  62
0
  100
AcDb2dVertex
  10
0.78804
  20
1.47914
  30
0.00000
  70
32
  0
VERTEX
  5
6B4
  100
AcDbEntity
  8
Layer 1
  62
0
  100
AcDb2dVertex
  10
0.79100
  20
1.47900
  30
0.00000
  70
32
  0
VERTEX
  5
6B5
  100
AcDbEntity
  8
Layer 1
  62
0
  100
AcDb2dVertex
  10
0.79400
  20
1.47900
  30
0.00000
  42
-0.0781
  70
32
  0
VERTEX
  5
6B6
  100
AcDbEntity
  8
Layer 1
  62
0
  100
AcDb2dVertex
  10
0.83881
  20
1.47149
  30
0.00000
  42
-0.0909
  70
32
  0
VERTEX
  5
6B7
  100
AcDbEntity
  8
Layer 1
  62
0
  100
AcDb2dVertex
  10
0.86100
  20
1.45900
  30
0.00000
  42
0.0362
  70
32
  0
VERTEX
  5
6B8
  100
AcDbEntity
  8
Layer 1
  62
0
  100
AcDb2dVertex
  10
0.87500
  20
1.43600
  30
0.00000
  42
0.0712
  70
32
  0
VERTEX
  5
6B9
  100
AcDbEntity
  8
Layer 1
  62
0
  100
AcDb2dVertex
  10
0.88797
  20
1.41909
  30
0.00000
  42
0.1637
  70
32
  0
VERTEX
  5
6BA
  100
AcDbEntity
  8
Layer 1
  62
0
  100
AcDb2dVertex
  10
0.89200
  20
1.41700
  30
0.00000
  42
-0.0707
  70
32
  0
VERTEX
  5
6BB
  100
AcDbEntity
  8
Layer 1
  62
0
  100
AcDb2dVertex
  10
0.92236
  20
1.43577
  30
0.00000
  42
-0.0938
  70
32
  0
VERTEX
  5
6BC
  100
AcDbEntity
  8
Layer 1
  62
0
  100
AcDb2dVertex
  10
0.93700
  20
1.43900
  30
0.00000
  42
-0.2648
  70
32
  0
VERTEX
  5
6BD
  100
AcDbEntity
  8
Layer 1
  62
0
  100
AcDb2dVertex
  10
0.94512
  20
1.43373
  30
0.00000
  42
-0.0956
  70
32
  0
VERTEX
  5
6BE
  100
AcDbEntity
  8
Layer 1
  62
0
  100
AcDb2dVertex
  10
0.95120
  20
1.41538
  30
0.00000
  42
-0.0422
  70
32
  0
VERTEX
  5
6BF
  100
AcDbEntity
  8
Layer 1
  62
0
  100
AcDb2dVertex
  10
0.95400
  20
1.37400
  30
0.00000
  70
32
  0
SEQEND
  5
6C0
  100
AcDbEntity
  8
Layer 1
  62
0
  0
POLYLINE
  5
6C1
  100
AcDbEntity
  8
Layer 1
  62
0
  100
AcDb2dPolyline
 66
     1
  10
0
  20
0
  30
0
  70
1
  0
VERTEX
  5
6C2
  100
AcDbEntity
  8
Layer 1
  62
0
  100
AcDb2dVertex
  10
1.69600
  20
0.58200
  30
0.00000
  42
-0.1535
  70
32
  0
VERTEX
  5
6C3
  100
AcDbEntity
  8
Layer 1
  62
0
  100
AcDb2dVertex
  10
1.69272
  20
0.56857
  30
0.00000
  42
-0.2509
  70
32
  0
VERTEX
  5
6C4
  100
AcDbEntity
  8
Layer 1
  62
0
  100
AcDb2dVertex
  10
1.68600
  20
0.56500
  30
0.00000
  42
-0.2217
  70
32
  0
VERTEX
  5
6C5
  100
AcDbEntity
  8
Layer 1
  62
0
  100
AcDb2dVertex
  10
1.67728
  20
0.56972
  30
0.00000
  42
-0.0430
  70
32
  0
VERTEX
  5
6C6
  100
AcDbEntity
  8
Layer 1
  62
0
  100
AcDb2dVertex
  10
1.67200
  20
0.57700
  30
0.00000
  42
0.0155
  70
32
  0
VERTEX
  5
6C7
  100
AcDbEntity
  8
Layer 1
  62
0
  100
AcDb2dVertex
  10
1.66572
  20
0.58845
  30
0.00000
  70
32
  0
VERTEX
  5
6C8
  100
AcDbEntity
  8
Layer 1
  62
0
  100
AcDb2dVertex
  10
1.66100
  20
0.59700
  30
0.00000
  42
0.1055
  70
32
  0
VERTEX
  5
6C9
  100
AcDbEntity
  8
Layer 1
  62
0
  100
AcDb2dVertex
  10
1.60433
  20
0.64481
  30
0.00000
  42
0.0574
  70
32
  0
VERTEX
  5
6CA
  100
AcDbEntity
  8
Layer 1
  62
0
  100
AcDb2dVertex
  10
1.54400
  20
0.66900
  30
0.00000
  42
-0.0458
  70
32
  0
VERTEX
  5
6CB
  100
AcDbEntity
  8
Layer 1
  62
0
  100
AcDb2dVertex
  10
1.49700
  20
0.67900
  30
0.00000
  42
-0.2895
  70
32
  0
VERTEX
  5
6CC
  100
AcDbEntity
  8
Layer 1
  62
0
  100
AcDb2dVertex
  10
1.47551
  20
0.70099
  30
0.00000
  42
-0.0629
  70
32
  0
VERTEX
  5
6CD
  100
AcDbEntity
  8
Layer 1
  62
0
  100
AcDb2dVertex
  10
1.47400
  20
0.71400
  30
0.00000
  70
32
  0
VERTEX
  5
6CE
  100
AcDbEntity
  8
Layer 1
  62
0
  100
AcDb2dVertex
  10
1.50700
  20
0.70200
  30
0.00000
  70
32
  0
VERTEX
  5
6CF
  100
AcDbEntity
  8
Layer 1
  62
0
  100
AcDb2dVertex
  10
1.47400
  20
0.71400
  30
0.00000
  42
-0.0687
  70
32
  0
VERTEX
  5
6D0
  100
AcDbEntity
  8
Layer 1
  62
0
  100
AcDb2dVertex
  10
1.48510
  20
0.73387
  30
0.00000
  42
-0.2108
  70
32
  0
VERTEX
  5
6D1
  100
AcDbEntity
  8
Layer 1
  62
0
  100
AcDb2dVertex
  10
1.49366
  20
0.73899
  30
0.00000
  70
32
  0
VERTEX
  5
6D2
  100
AcDbEntity
  8
Layer 1
  62
0
  100
AcDb2dVertex
  10
1.49400
  20
0.73900
  30
0.00000
  42
-0.1497
  70
32
  0
VERTEX
  5
6D3
  100
AcDbEntity
  8
Layer 1
  62
0
  100
AcDb2dVertex
  10
1.52248
  20
0.73138
  30
0.00000
  42
-0.0641
  70
32
  0
VERTEX
  5
6D4
  100
AcDbEntity
  8
Layer 1
  62
0
  100
AcDb2dVertex
  10
1.53100
  20
0.72400
  30
0.00000
  42
-0.0180
  70
32
  0
VERTEX
  5
6D5
  100
AcDbEntity
  8
Layer 1
  62
0
  100
AcDb2dVertex
  10
1.54787
  20
0.70542
  30
0.00000
  70
32
  0
VERTEX
  5
6D6
  100
AcDbEntity
  8
Layer 1
  62
0
  100
AcDb2dVertex
  10
1.55700
  20
0.69500
  30
0.00000
  42
-0.0072
  70
32
  0
VERTEX
  5
6D7
  100
AcDbEntity
  8
Layer 1
  62
0
  100
AcDb2dVertex
  10
1.64100
  20
0.65400
  30
0.00000
  42
-0.0784
  70
32
  0
VERTEX
  5
6D8
  100
AcDbEntity
  8
Layer 1
  62
0
  100
AcDb2dVertex
  10
1.67795
  20
0.62513
  30
0.00000
  42
-0.1386
  70
32
  0
VERTEX
  5
6D9
  100
AcDbEntity
  8
Layer 1
  62
0
  100
AcDb2dVertex
  10
1.69508
  20
0.59219
  30
0.00000
  42
-0.0455
  70
32
  0
VERTEX
  5
6DA
  100
AcDbEntity
  8
Layer 1
  62
0
  100
AcDb2dVertex
  10
1.69600
  20
0.58200
  30
0.00000
  70
32
  0
SEQEND
  5
6DB
  100
AcDbEntity
  8
Layer 1
  62
0
  0
POLYLINE
  5
6DC
  100
AcDbEntity
  8
Layer 1
  62
0
  100
AcDb2dPolyline
 66
     1
  10
0
  20
0
  30
0
  70
1
  0
VERTEX
  5
6DD
  100
AcDbEntity
  8
Layer 1
  62
0
  100
AcDb2dVertex
  10
1.90200
  20
0.40000
  30
0.00000
  42
-0.0473
  70
32
  0
VERTEX
  5
6DE
  100
AcDbEntity
  8
Layer 1
  62
0
  100
AcDb2dVertex
  10
1.90040
  20
0.37402
  30
0.00000
  42
-0.1714
  70
32
  0
VERTEX
  5
6DF
  100
AcDbEntity
  8
Layer 1
  62
0
  100
AcDb2dVertex
  10
1.89700
  20
0.36700
  30
0.00000
  42
0.0878
  70
32
  0
VERTEX
  5
6E0
  100
AcDbEntity
  8
Layer 1
  62
0
  100
AcDb2dVertex
  10
1.86252
  20
0.36303
  30
0.00000
  42
0.1739
  70
32
  0
VERTEX
  5
6E1
  100
AcDbEntity
  8
Layer 1
  62
0
  100
AcDb2dVertex
  10
1.84091
  20
0.34735
  30
0.00000
  70
32
  0
VERTEX
  5
6E2
  100
AcDbEntity
  8
Layer 1
  62
0
  100
AcDb2dVertex
  10
1.83900
  20
0.34400
  30
0.00000
  42
-0.2605
  70
32
  0
VERTEX
  5
6E3
  100
AcDbEntity
  8
Layer 1
  62
0
  100
AcDb2dVertex
  10
1.80646
  20
0.32066
  30
0.00000
  42
-0.0366
  70
32
  0
VERTEX
  5
6E4
  100
AcDbEntity
  8
Layer 1
  62
0
  100
AcDb2dVertex
  10
1.79700
  20
0.32000
  30
0.00000
  42
-0.1284
  70
32
  0
VERTEX
  5
6E5
  100
AcDbEntity
  8
Layer 1
  62
0
  100
AcDb2dVertex
  10
1.78020
  20
0.32343
  30
0.00000
  42
-0.2854
  70
32
  0
VERTEX
  5
6E6
  100
AcDbEntity
  8
Layer 1
  62
0
  100
AcDb2dVertex
  10
1.77400
  20
0.33400
  30
0.00000
  42
0.0629
  70
32
  0
VERTEX
  5
6E7
  100
AcDbEntity
  8
Layer 1
  62
0
  100
AcDb2dVertex
  10
1.80980
  20
0.35163
  30
0.00000
  42
0.1222
  70
32
  0
VERTEX
  5
6E8
  100
AcDbEntity
  8
Layer 1
  62
0
  100
AcDb2dVertex
  10
1.82390
  20
0.36650
  30
0.00000
  42
0.1170
  70
32
  0
VERTEX
  5
6E9
  100
AcDbEntity
  8
Layer 1
  62
0
  100
AcDb2dVertex
  10
1.82600
  20
0.37500
  30
0.00000
  42
0.0491
  70
32
  0
VERTEX
  5
6EA
  100
AcDbEntity
  8
Layer 1
  62
0
  100
AcDb2dVertex
  10
1.82400
  20
0.39000
  30
0.00000
  70
32
  0
VERTEX
  5
6EB
  100
AcDbEntity
  8
Layer 1
  62
0
  100
AcDb2dVertex
  10
1.84600
  20
0.39000
  30
0.00000
  70
32
  0
VERTEX
  5
6EC
  100
AcDbEntity
  8
Layer 1
  62
0
  100
AcDb2dVertex
  10
1.82400
  20
0.39000
  30
0.00000
  42
0.1173
  70
32
  0
VERTEX
  5
6ED
  100
AcDbEntity
  8
Layer 1
  62
0
  100
AcDb2dVertex
  10
1.82428
  20
0.41472
  30
0.00000
  42
0.2552
  70
32
  0
VERTEX
  5
6EE
  100
AcDbEntity
  8
Layer 1
  62
0
  100
AcDb2dVertex
  10
1.80600
  20
0.43400
  30
0.00000
  42
-0.0595
  70
32
  0
VERTEX
  5
6EF
  100
AcDbEntity
  8
Layer 1
  62
0
  100
AcDb2dVertex
  10
1.78606
  20
0.44415
  30
0.00000
  42
-0.2076
  70
32
  0
VERTEX
  5
6F0
  100
AcDbEntity
  8
Layer 1
  62
0
  100
AcDb2dVertex
  10
1.78104
  20
0.45128
  30
0.00000
  70
32
  0
VERTEX
  5
6F1
  100
AcDbEntity
  8
Layer 1
  62
0
  100
AcDb2dVertex
  10
1.78100
  20
0.45200
  30
0.00000
  42
-0.3087
  70
32
  0
VERTEX
  5
6F2
  100
AcDbEntity
  8
Layer 1
  62
0
  100
AcDb2dVertex
  10
1.78717
  20
0.46079
  30
0.00000
  42
-0.1043
  70
32
  0
VERTEX
  5
6F3
  100
AcDbEntity
  8
Layer 1
  62
0
  100
AcDb2dVertex
  10
1.80513
  20
0.46398
  30
0.00000
  70
32
  0
VERTEX
  5
6F4
  100
AcDbEntity
  8
Layer 1
  62
0
  100
AcDb2dVertex
  10
1.80700
  20
0.46400
  30
0.00000
  42
-0.2627
  70
32
  0
VERTEX
  5
6F5
  100
AcDbEntity
  8
Layer 1
  62
0
  100
AcDb2dVertex
  10
1.83646
  20
0.44864
  30
0.00000
  42
-0.0442
  70
32
  0
VERTEX
  5
6F6
  100
AcDbEntity
  8
Layer 1
  62
0
  100
AcDb2dVertex
  10
1.84200
  20
0.43900
  30
0.00000
  42
0.0536
  70
32
  0
VERTEX
  5
6F7
  100
AcDbEntity
  8
Layer 1
  62
0
  100
AcDb2dVertex
  10
1.85302
  20
0.41807
  30
0.00000
  42
0.2073
  70
32
  0
VERTEX
  5
6F8
  100
AcDbEntity
  8
Layer 1
  62
0
  100
AcDb2dVertex
  10
1.85700
  20
0.41500
  30
0.00000
  42
-0.0665
  70
32
  0
VERTEX
  5
6F9
  100
AcDbEntity
  8
Layer 1
  62
0
  100
AcDb2dVertex
  10
1.88305
  20
0.41014
  30
0.00000
  42
-0.0133
  70
32
  0
VERTEX
  5
6FA
  100
AcDbEntity
  8
Layer 1
  62
0
  100
AcDb2dVertex
  10
1.90200
  20
0.40400
  30
0.00000
  70
32
  0
VERTEX
  5
6FB
  100
AcDbEntity
  8
Layer 1
  62
0
  100
AcDb2dVertex
  10
1.90200
  20
0.40000
  30
0.00000
  70
32
  0
SEQEND
  5
6FC
  100
AcDbEntity
  8
Layer 1
  62
0
  0
POLYLINE
  5
6FD
  100
AcDbEntity
  8
Layer 1
  62
0
  100
AcDb2dPolyline
 66
     1
  10
0
  20
0
  30
0
  70
1
  0
VERTEX
  5
6FE
  100
AcDbEntity
  8
Layer 1
  62
0
  100
AcDb2dVertex
  10
2.04200
  20
0.32200
  30
0.00000
  42
-0.1309
  70
32
  0
VERTEX
  5
6FF
  100
AcDbEntity
  8
Layer 1
  62
0
  100
AcDb2dVertex
  10
2.03608
  20
0.30405
  30
0.00000
  42
-0.0613
  70
32
  0
VERTEX
  5
700
  100
AcDbEntity
  8
Layer 1
  62
0
  100
AcDb2dVertex
  10
2.01272
  20
0.27544
  30
0.00000
  42
-0.0232
  70
32
  0
VERTEX
  5
701
  100
AcDbEntity
  8
Layer 1
  62
0
  100
AcDb2dVertex
  10
1.97900
  20
0.24500
  30
0.00000
  42
-0.1412
  70
32
  0
VERTEX
  5
702
  100
AcDbEntity
  8
Layer 1
  62
0
  100
AcDb2dVertex
  10
1.98600
  20
0.22400
  30
0.00000
  42
-0.2968
  70
32
  0
VERTEX
  5
703
  100
AcDbEntity
  8
Layer 1
  62
0
  100
AcDb2dVertex
  10
1.97715
  20
0.20992
  30
0.00000
  42
-0.0984
  70
32
  0
VERTEX
  5
704
  100
AcDbEntity
  8
Layer 1
  62
0
  100
AcDb2dVertex
  10
1.95634
  20
0.20465
  30
0.00000
  42
-0.0236
  70
32
  0
VERTEX
  5
705
  100
AcDbEntity
  8
Layer 1
  62
0
  100
AcDb2dVertex
  10
1.94100
  20
0.20400
  30
0.00000
  70
32
  0
VERTEX
  5
706
  100
AcDbEntity
  8
Layer 1
  62
0
  100
AcDb2dVertex
  10
1.92600
  20
0.20700
  30
0.00000
  42
-0.1746
  70
32
  0
VERTEX
  5
707
  100
AcDbEntity
  8
Layer 1
  62
0
  100
AcDb2dVertex
  10
1.92275
  20
0.21405
  30
0.00000
  42
-0.0518
  70
32
  0
VERTEX
  5
708
  100
AcDbEntity
  8
Layer 1
  62
0
  100
AcDb2dVertex
  10
1.92185
  20
0.24028
  30
0.00000
  70
32
  0
VERTEX
  5
709
  100
AcDbEntity
  8
Layer 1
  62
0
  100
AcDb2dVertex
  10
1.92200
  20
0.24400
  30
0.00000
  70
32
  0
VERTEX
  5
70A
  100
AcDbEntity
  8
Layer 1
  62
0
  100
AcDb2dVertex
  10
1.90663
  20
0.25282
  30
0.00000
  42
0.0095
  70
32
  0
VERTEX
  5
70B
  100
AcDbEntity
  8
Layer 1
  62
0
  100
AcDb2dVertex
  10
1.88700
  20
0.26400
  30
0.00000
  42
-0.1015
  70
32
  0
VERTEX
  5
70C
  100
AcDbEntity
  8
Layer 1
  62
0
  100
AcDb2dVertex
  10
1.86156
  20
0.28725
  30
0.00000
  42
-0.1520
  70
32
  0
VERTEX
  5
70D
  100
AcDbEntity
  8
Layer 1
  62
0
  100
AcDb2dVertex
  10
1.85400
  20
0.31000
  30
0.00000
  42
-0.3827
  70
32
  0
VERTEX
  5
70E
  100
AcDbEntity
  8
Layer 1
  62
0
  100
AcDb2dVertex
  10
1.86282
  20
0.32139
  30
0.00000
  70
32
  0
VERTEX
  5
70F
  100
AcDbEntity
  8
Layer 1
  62
0
  100
AcDb2dVertex
  10
1.86600
  20
0.32200
  30
0.00000
  42
0.0437
  70
32
  0
VERTEX
  5
710
  100
AcDbEntity
  8
Layer 1
  62
0
  100
AcDb2dVertex
  10
1.90700
  20
0.29200
  30
0.00000
  42
0.0058
  70
32
  0
VERTEX
  5
711
  100
AcDbEntity
  8
Layer 1
  62
0
  100
AcDb2dVertex
  10
1.94154
  20
0.27402
  30
0.00000
  42
-0.0256
  70
32
  0
VERTEX
  5
712
  100
AcDbEntity
  8
Layer 1
  62
0
  100
AcDb2dVertex
  10
1.95100
  20
0.26900
  30
0.00000
  42
0.1189
  70
32
  0
VERTEX
  5
713
  100
AcDbEntity
  8
Layer 1
  62
0
  100
AcDb2dVertex
  10
1.98324
  20
0.28571
  30
0.00000
  42
0.0386
  70
32
  0
VERTEX
  5
714
  100
AcDbEntity
  8
Layer 1
  62
0
  100
AcDb2dVertex
  10
2.00200
  20
0.30400
  30
0.00000
  42
-0.0476
  70
32
  0
VERTEX
  5
715
  100
AcDbEntity
  8
Layer 1
  62
0
  100
AcDb2dVertex
  10
2.02540
  20
0.32938
  30
0.00000
  42
-0.1325
  70
32
  0
VERTEX
  5
716
  100
AcDbEntity
  8
Layer 1
  62
0
  100
AcDb2dVertex
  10
2.03361
  20
0.33398
  30
0.00000
  70
32
  0
VERTEX
  5
717
  100
AcDbEntity
  8
Layer 1
  62
0
  100
AcDb2dVertex
  10
2.03400
  20
0.33400
  30
0.00000
  42
-0.4097
  70
32
  0
VERTEX
  5
718
  100
AcDbEntity
  8
Layer 1
  62
0
  100
AcDb2dVertex
  10
2.04146
  20
0.32790
  30
0.00000
  42
-0.0555
  70
32
  0
VERTEX
  5
719
  100
AcDbEntity
  8
Layer 1
  62
0
  100
AcDb2dVertex
  10
2.04200
  20
0.32200
  30
0.00000
  70
32
  0
SEQEND
  5
71A
  100
AcDbEntity
  8
Layer 1
  62
0
  0
POLYLINE
  5
71B
  100
AcDbEntity
  8
Layer 1
  62
0
  100
AcDb2dPolyline
 66
     1
  10
0
  20
0
  30
0
  70
1
  0
VERTEX
  5
71C
  100
AcDbEntity
  8
Layer 1
  62
0
  100
AcDb2dVertex
  10
0.79900
  20
1.37700
  30
0.00000
  42
-0.1048
  70
32
  0
VERTEX
  5
71D
  100
AcDbEntity
  8
Layer 1
  62
0
  100
AcDb2dVertex
  10
0.79555
  20
1.35630
  30
0.00000
  42
-0.2746
  70
32
  0
VERTEX
  5
71E
  100
AcDbEntity
  8
Layer 1
  62
0
  100
AcDb2dVertex
  10
0.78412
  20
1.34713
  30
0.00000
  70
32
  0
VERTEX
  5
71F
  100
AcDbEntity
  8
Layer 1
  62
0
  100
AcDb2dVertex
  10
0.78200
  20
1.34700
  30
0.00000
  70
32
  0
VERTEX
  5
720
  100
AcDbEntity
  8
Layer 1
  62
0
  100
AcDb2dVertex
  10
0.74000
  20
1.36200
  30
0.00000
  42
0.0792
  70
32
  0
VERTEX
  5
721
  100
AcDbEntity
  8
Layer 1
  62
0
  100
AcDb2dVertex
  10
0.73533
  20
1.35713
  30
0.00000
  70
32
  0
VERTEX
  5
722
  100
AcDbEntity
  8
Layer 1
  62
0
  100
AcDb2dVertex
  10
0.72814
  20
1.34847
  30
0.00000
  70
32
  0
VERTEX
  5
723
  100
AcDbEntity
  8
Layer 1
  62
0
  100
AcDb2dVertex
  10
0.71700
  20
1.33500
  30
0.00000
  42
-0.1706
  70
32
  0
VERTEX
  5
724
  100
AcDbEntity
  8
Layer 1
  62
0
  100
AcDb2dVertex
  10
0.67883
  20
1.31059
  30
0.00000
  42
-0.0549
  70
32
  0
VERTEX
  5
725
  100
AcDbEntity
  8
Layer 1
  62
0
  100
AcDb2dVertex
  10
0.66400
  20
1.30900
  30
0.00000
  42
-0.0950
  70
32
  0
VERTEX
  5
726
  100
AcDbEntity
  8
Layer 1
  62
0
  100
AcDb2dVertex
  10
0.64291
  20
1.31211
  30
0.00000
  42
-0.2437
  70
32
  0
VERTEX
  5
727
  100
AcDbEntity
  8
Layer 1
  62
0
  100
AcDb2dVertex
  10
0.63440
  20
1.32072
  30
0.00000
  42
-0.0644
  70
32
  0
VERTEX
  5
728
  100
AcDbEntity
  8
Layer 1
  62
0
  100
AcDb2dVertex
  10
0.63400
  20
1.32400
  30
0.00000
  42
-0.1518
  70
32
  0
VERTEX
  5
729
  100
AcDbEntity
  8
Layer 1
  62
0
  100
AcDb2dVertex
  10
0.63572
  20
1.33250
  30
0.00000
  42
-0.2447
  70
32
  0
VERTEX
  5
72A
  100
AcDbEntity
  8
Layer 1
  62
0
  100
AcDb2dVertex
  10
0.63900
  20
1.33400
  30
0.00000
  42
0.0301
  70
32
  0
VERTEX
  5
72B
  100
AcDbEntity
  8
Layer 1
  62
0
  100
AcDb2dVertex
  10
0.68900
  20
1.34800
  30
0.00000
  42
0.2770
  70
32
  0
VERTEX
  5
72C
  100
AcDbEntity
  8
Layer 1
  62
0
  100
AcDb2dVertex
  10
0.71251
  20
1.37376
  30
0.00000
  42
0.0699
  70
32
  0
VERTEX
  5
72D
  100
AcDbEntity
  8
Layer 1
  62
0
  100
AcDb2dVertex
  10
0.71400
  20
1.39200
  30
0.00000
  70
32
  0
VERTEX
  5
72E
  100
AcDbEntity
  8
Layer 1
  62
0
  100
AcDb2dVertex
  10
0.73700
  20
1.39200
  30
0.00000
  70
32
  0
VERTEX
  5
72F
  100
AcDbEntity
  8
Layer 1
  62
0
  100
AcDb2dVertex
  10
0.71400
  20
1.39200
  30
0.00000
  42
0.2424
  70
32
  0
VERTEX
  5
730
  100
AcDbEntity
  8
Layer 1
  62
0
  100
AcDb2dVertex
  10
0.69305
  20
1.43491
  30
0.00000
  42
0.0906
  70
32
  0
VERTEX
  5
731
  100
AcDbEntity
  8
Layer 1
  62
0
  100
AcDb2dVertex
  10
0.65844
  20
1.45207
  30
0.00000
  42
0.0188
  70
32
  0
VERTEX
  5
732
  100
AcDbEntity
  8
Layer 1
  62
0
  100
AcDb2dVertex
  10
0.64400
  20
1.45600
  30
0.00000
  42
-0.1351
  70
32
  0
VERTEX
  5
733
  100
AcDbEntity
  8
Layer 1
  62
0
  100
AcDb2dVertex
  10
0.63774
  20
1.46697
  30
0.00000
  42
-0.3518
  70
32
  0
VERTEX
  5
734
  100
AcDbEntity
  8
Layer 1
  62
0
  100
AcDb2dVertex
  10
0.64000
  20
1.47200
  30
0.00000
  42
-0.1554
  70
32
  0
VERTEX
  5
735
  100
AcDbEntity
  8
Layer 1
  62
0
  100
AcDb2dVertex
  10
0.65337
  20
1.47791
  30
0.00000
  42
-0.0424
  70
32
  0
VERTEX
  5
736
  100
AcDbEntity
  8
Layer 1
  62
0
  100
AcDb2dVertex
  10
0.66900
  20
1.47900
  30
0.00000
  42
-0.1292
  70
32
  0
VERTEX
  5
737
  100
AcDbEntity
  8
Layer 1
  62
0
  100
AcDb2dVertex
  10
0.70190
  20
1.47143
  30
0.00000
  42
-0.1588
  70
32
  0
VERTEX
  5
738
  100
AcDbEntity
  8
Layer 1
  62
0
  100
AcDb2dVertex
  10
0.72400
  20
1.44700
  30
0.00000
  42
0.0420
  70
32
  0
VERTEX
  5
739
  100
AcDbEntity
  8
Layer 1
  62
0
  100
AcDb2dVertex
  10
0.73930
  20
1.41917
  30
0.00000
  42
0.1556
  70
32
  0
VERTEX
  5
73A
  100
AcDbEntity
  8
Layer 1
  62
0
  100
AcDb2dVertex
  10
0.74376
  20
1.41502
  30
0.00000
  70
32
  0
VERTEX
  5
73B
  100
AcDbEntity
  8
Layer 1
  62
0
  100
AcDb2dVertex
  10
0.74400
  20
1.41500
  30
0.00000
  42
0.0606
  70
32
  0
VERTEX
  5
73C
  100
AcDbEntity
  8
Layer 1
  62
0
  100
AcDb2dVertex
  10
0.75749
  20
1.41850
  30
0.00000
  70
32
  0
VERTEX
  5
73D
  100
AcDbEntity
  8
Layer 1
  62
0
  100
AcDb2dVertex
  10
0.76200
  20
1.42000
  30
0.00000
  70
32
  0
VERTEX
  5
73E
  100
AcDbEntity
  8
Layer 1
  62
0
  100
AcDb2dVertex
  10
0.76880
  20
1.42157
  30
0.00000
  42
-0.0475
  70
32
  0
VERTEX
  5
73F
  100
AcDbEntity
  8
Layer 1
  62
0
  100
AcDb2dVertex
  10
0.78200
  20
1.42400
  30
0.00000
  42
-0.2714
  70
32
  0
VERTEX
  5
740
  100
AcDbEntity
  8
Layer 1
  62
0
  100
AcDb2dVertex
  10
0.79192
  20
1.41778
  30
0.00000
  42
-0.1027
  70
32
  0
VERTEX
  5
741
  100
AcDbEntity
  8
Layer 1
  62
0
  100
AcDb2dVertex
  10
0.79770
  20
1.39886
  30
0.00000
  42
-0.0341
  70
32
  0
VERTEX
  5
742
  100
AcDbEntity
  8
Layer 1
  62
0
  100
AcDb2dVertex
  10
0.79900
  20
1.37700
  30
0.00000
  70
32
  0
SEQEND
  5
743
  100
AcDbEntity
  8
Layer 1
  62
0
  0
POLYLINE
  5
744
  100
AcDbEntity
  8
Layer 1
  62
0
  100
AcDb2dPolyline
 66
     1
  10
0
  20
0
  30
0
  70
1
  0
VERTEX
  5
745
  100
AcDbEntity
  8
Layer 1
  62
0
  100
AcDb2dVertex
  10
1.49400
  20
0.62400
  30
0.00000
  42
-0.2190
  70
32
  0
VERTEX
  5
746
  100
AcDbEntity
  8
Layer 1
  62
0
  100
AcDb2dVertex
  10
1.48424
  20
0.60394
  30
0.00000
  42
-0.0517
  70
32
  0
VERTEX
  5
747
  100
AcDbEntity
  8
Layer 1
  62
0
  100
AcDb2dVertex
  10
1.47600
  20
0.59800
  30
0.00000
  42
-0.1197
  70
32
  0
VERTEX
  5
748
  100
AcDbEntity
  8
Layer 1
  62
0
  100
AcDb2dVertex
  10
1.44726
  20
0.58714
  30
0.00000
  70
32
  0
VERTEX
  5
749
  100
AcDbEntity
  8
Layer 1
  62
0
  100
AcDb2dVertex
  10
1.44400
  20
0.58700
  30
0.00000
  42
-0.1584
  70
32
  0
VERTEX
  5
74A
  100
AcDbEntity
  8
Layer 1
  62
0
  100
AcDb2dVertex
  10
1.40289
  20
0.60060
  30
0.00000
  70
32
  0
VERTEX
  5
74B
  100
AcDbEntity
  8
Layer 1
  62
0
  100
AcDb2dVertex
  10
1.39700
  20
0.60500
  30
0.00000
  42
0.1864
  70
32
  0
VERTEX
  5
74C
  100
AcDbEntity
  8
Layer 1
  62
0
  100
AcDb2dVertex
  10
1.38836
  20
0.60048
  30
0.00000
  42
0.0769
  70
32
  0
VERTEX
  5
74D
  100
AcDbEntity
  8
Layer 1
  62
0
  100
AcDb2dVertex
  10
1.37800
  20
0.58600
  30
0.00000
  42
-0.1049
  70
32
  0
VERTEX
  5
74E
  100
AcDbEntity
  8
Layer 1
  62
0
  100
AcDb2dVertex
  10
1.36590
  20
0.57031
  30
0.00000
  42
-0.1658
  70
32
  0
VERTEX
  5
74F
  100
AcDbEntity
  8
Layer 1
  62
0
  100
AcDb2dVertex
  10
1.35700
  20
0.56700
  30
0.00000
  42
-0.1442
  70
32
  0
VERTEX
  5
750
  100
AcDbEntity
  8
Layer 1
  62
0
  100
AcDb2dVertex
  10
1.34293
  20
0.57248
  30
0.00000
  42
-0.0581
  70
32
  0
VERTEX
  5
751
  100
AcDbEntity
  8
Layer 1
  62
0
  100
AcDb2dVertex
  10
1.33000
  20
0.58400
  30
0.00000
  42
-0.0938
  70
32
  0
VERTEX
  5
752
  100
AcDbEntity
  8
Layer 1
  62
0
  100
AcDb2dVertex
  10
1.31575
  20
0.60521
  30
0.00000
  42
-0.0896
  70
32
  0
VERTEX
  5
753
  100
AcDbEntity
  8
Layer 1
  62
0
  100
AcDb2dVertex
  10
1.31400
  20
0.61400
  30
0.00000
  70
32
  0
VERTEX
  5
754
  100
AcDbEntity
  8
Layer 1
  62
0
  100
AcDb2dVertex
  10
1.31400
  20
0.61700
  30
0.00000
  42
-0.0295
  70
32
  0
VERTEX
  5
755
  100
AcDbEntity
  8
Layer 1
  62
0
  100
AcDb2dVertex
  10
1.34600
  20
0.63200
  30
0.00000
  42
0.1984
  70
32
  0
VERTEX
  5
756
  100
AcDbEntity
  8
Layer 1
  62
0
  100
AcDb2dVertex
  10
1.35370
  20
0.64225
  30
0.00000
  42
0.0803
  70
32
  0
VERTEX
  5
757
  100
AcDbEntity
  8
Layer 1
  62
0
  100
AcDb2dVertex
  10
1.35600
  20
0.65900
  30
0.00000
  42
-0.0636
  70
32
  0
VERTEX
  5
758
  100
AcDbEntity
  8
Layer 1
  62
0
  100
AcDb2dVertex
  10
1.36087
  20
0.70491
  30
0.00000
  42
-0.1145
  70
32
  0
VERTEX
  5
759
  100
AcDbEntity
  8
Layer 1
  62
0
  100
AcDb2dVertex
  10
1.37261
  20
0.72913
  30
0.00000
  42
-0.2264
  70
32
  0
VERTEX
  5
75A
  100
AcDbEntity
  8
Layer 1
  62
0
  100
AcDb2dVertex
  10
1.39700
  20
0.74000
  30
0.00000
  42
-0.1740
  70
32
  0
VERTEX
  5
75B
  100
AcDbEntity
  8
Layer 1
  62
0
  100
AcDb2dVertex
  10
1.40868
  20
0.73679
  30
0.00000
  42
-0.2307
  70
32
  0
VERTEX
  5
75C
  100
AcDbEntity
  8
Layer 1
  62
0
  100
AcDb2dVertex
  10
1.41200
  20
0.72900
  30
0.00000
  42
-0.1570
  70
32
  0
VERTEX
  5
75D
  100
AcDbEntity
  8
Layer 1
  62
0
  100
AcDb2dVertex
  10
1.40732
  20
0.71794
  30
0.00000
  42
-0.0493
  70
32
  0
VERTEX
  5
75E
  100
AcDbEntity
  8
Layer 1
  62
0
  100
AcDb2dVertex
  10
1.39800
  20
0.70800
  30
0.00000
  42
0.1028
  70
32
  0
VERTEX
  5
75F
  100
AcDbEntity
  8
Layer 1
  62
0
  100
AcDb2dVertex
  10
1.38538
  20
0.68831
  30
0.00000
  42
0.0797
  70
32
  0
VERTEX
  5
760
  100
AcDbEntity
  8
Layer 1
  62
0
  100
AcDb2dVertex
  10
1.38400
  20
0.68000
  30
0.00000
  42
0.0990
  70
32
  0
VERTEX
  5
761
  100
AcDbEntity
  8
Layer 1
  62
0
  100
AcDb2dVertex
  10
1.38792
  20
0.66852
  30
0.00000
  42
0.0306
  70
32
  0
VERTEX
  5
762
  100
AcDbEntity
  8
Layer 1
  62
0
  100
AcDb2dVertex
  10
1.40200
  20
0.64500
  30
0.00000
  42
0.0777
  70
32
  0
VERTEX
  5
763
  100
AcDbEntity
  8
Layer 1
  62
0
  100
AcDb2dVertex
  10
1.42459
  20
0.62278
  30
0.00000
  42
0.1472
  70
32
  0
VERTEX
  5
764
  100
AcDbEntity
  8
Layer 1
  62
0
  100
AcDb2dVertex
  10
1.44100
  20
0.61700
  30
0.00000
  42
0.1237
  70
32
  0
VERTEX
  5
765
  100
AcDbEntity
  8
Layer 1
  62
0
  100
AcDb2dVertex
  10
1.45296
  20
0.62145
  30
0.00000
  42
0.0309
  70
32
  0
VERTEX
  5
766
  100
AcDbEntity
  8
Layer 1
  62
0
  100
AcDb2dVertex
  10
1.46100
  20
0.62700
  30
0.00000
  42
-0.0807
  70
32
  0
VERTEX
  5
767
  100
AcDbEntity
  8
Layer 1
  62
0
  100
AcDb2dVertex
  10
1.47872
  20
0.63650
  30
0.00000
  42
-0.0648
  70
32
  0
VERTEX
  5
768
  100
AcDbEntity
  8
Layer 1
  62
0
  100
AcDb2dVertex
  10
1.48200
  20
0.63700
  30
0.00000
  42
-0.2366
  70
32
  0
VERTEX
  5
769
  100
AcDbEntity
  8
Layer 1
  62
0
  100
AcDb2dVertex
  10
1.49147
  20
0.63333
  30
0.00000
  42
-0.1692
  70
32
  0
VERTEX
  5
76A
  100
AcDbEntity
  8
Layer 1
  62
0
  100
AcDb2dVertex
  10
1.49400
  20
0.62400
  30
0.00000
  70
32
  0
SEQEND
  5
76B
  100
AcDbEntity
  8
Layer 1
  62
0
  0
POLYLINE
  5
76C
  100
AcDbEntity
  8
Layer 1
  62
0
  100
AcDb2dPolyline
 66
     1
  10
0
  20
0
  30
0
  70
1
  0
VERTEX
  5
76D
  100
AcDbEntity
  8
Layer 1
  62
0
  100
AcDb2dVertex
  10
0.63000
  20
1.39700
  30
0.00000
  42
-0.1153
  70
32
  0
VERTEX
  5
76E
  100
AcDbEntity
  8
Layer 1
  62
0
  100
AcDb2dVertex
  10
0.62337
  20
1.37366
  30
0.00000
  42
-0.0481
  70
32
  0
VERTEX
  5
76F
  100
AcDbEntity
  8
Layer 1
  62
0
  100
AcDb2dVertex
  10
0.61000
  20
1.35300
  30
0.00000
  42
-0.0771
  70
32
  0
VERTEX
  5
770
  100
AcDbEntity
  8
Layer 1
  62
0
  100
AcDb2dVertex
  10
0.58912
  20
1.33053
  30
0.00000
  42
-0.1564
  70
32
  0
VERTEX
  5
771
  100
AcDbEntity
  8
Layer 1
  62
0
  100
AcDb2dVertex
  10
0.57500
  20
1.32500
  30
0.00000
  42
-0.3809
  70
32
  0
VERTEX
  5
772
  100
AcDbEntity
  8
Layer 1
  62
0
  100
AcDb2dVertex
  10
0.56461
  20
1.33347
  30
0.00000
  42
-0.0609
  70
32
  0
VERTEX
  5
773
  100
AcDbEntity
  8
Layer 1
  62
0
  100
AcDb2dVertex
  10
0.56400
  20
1.33900
  30
0.00000
  42
0.1072
  70
32
  0
VERTEX
  5
774
  100
AcDbEntity
  8
Layer 1
  62
0
  100
AcDb2dVertex
  10
0.58488
  20
1.36544
  30
0.00000
  42
0.1069
  70
32
  0
VERTEX
  5
775
  100
AcDbEntity
  8
Layer 1
  62
0
  100
AcDb2dVertex
  10
0.58900
  20
1.38400
  30
0.00000
  42
0.1535
  70
32
  0
VERTEX
  5
776
  100
AcDbEntity
  8
Layer 1
  62
0
  100
AcDb2dVertex
  10
0.56000
  20
1.40400
  30
0.00000
  42
0.0306
  70
32
  0
VERTEX
  5
777
  100
AcDbEntity
  8
Layer 1
  62
0
  100
AcDb2dVertex
  10
0.54700
  20
1.40000
  30
0.00000
  42
-0.3073
  70
32
  0
VERTEX
  5
778
  100
AcDbEntity
  8
Layer 1
  62
0
  100
AcDb2dVertex
  10
0.53678
  20
1.40568
  30
0.00000
  42
-0.1149
  70
32
  0
VERTEX
  5
779
  100
AcDbEntity
  8
Layer 1
  62
0
  100
AcDb2dVertex
  10
0.53500
  20
1.41500
  30
0.00000
  42
-0.3082
  70
32
  0
VERTEX
  5
77A
  100
AcDbEntity
  8
Layer 1
  62
0
  100
AcDb2dVertex
  10
0.54248
  20
1.42589
  30
0.00000
  42
-0.1099
  70
32
  0
VERTEX
  5
77B
  100
AcDbEntity
  8
Layer 1
  62
0
  100
AcDb2dVertex
  10
0.56000
  20
1.42900
  30
0.00000
  42
-0.0693
  70
32
  0
VERTEX
  5
77C
  100
AcDbEntity
  8
Layer 1
  62
0
  100
AcDb2dVertex
  10
0.58354
  20
1.42431
  30
0.00000
  42
-0.0137
  70
32
  0
VERTEX
  5
77D
  100
AcDbEntity
  8
Layer 1
  62
0
  100
AcDb2dVertex
  10
0.60200
  20
1.41800
  30
0.00000
  42
-0.0761
  70
32
  0
VERTEX
  5
77E
  100
AcDbEntity
  8
Layer 1
  62
0
  100
AcDb2dVertex
  10
0.62381
  20
1.40697
  30
0.00000
  42
-0.1896
  70
32
  0
VERTEX
  5
77F
  100
AcDbEntity
  8
Layer 1
  62
0
  100
AcDb2dVertex
  10
0.62991
  20
1.39819
  30
0.00000
  70
32
  0
VERTEX
  5
780
  100
AcDbEntity
  8
Layer 1
  62
0
  100
AcDb2dVertex
  10
0.63000
  20
1.39700
  30
0.00000
  70
32
  0
SEQEND
  5
781
  100
AcDbEntity
  8
Layer 1
  62
0
  0
POLYLINE
  5
782
  100
AcDbEntity
  8
Layer 1
  62
0
  100
AcDb2dPolyline
 66
     1
  10
0
  20
0
  30
0
  70
1
  0
VERTEX
  5
783
  100
AcDbEntity
  8
Layer 1
  62
0
  100
AcDb2dVertex
  10
2.04600
  20
0.01400
  30
0.00000
  42
-0.2254
  70
32
  0
VERTEX
  5
784
  100
AcDbEntity
  8
Layer 1
  62
0
  100
AcDb2dVertex
  10
2.04231
  20
0.00408
  30
0.00000
  42
-0.1784
  70
32
  0
VERTEX
  5
785
  100
AcDbEntity
  8
Layer 1
  62
0
  100
AcDb2dVertex
  10
2.03600
  20
0.00200
  30
0.00000
  42
-0.1447
  70
32
  0
VERTEX
  5
786
  100
AcDbEntity
  8
Layer 1
  62
0
  100
AcDb2dVertex
  10
2.02941
  20
0.00549
  30
0.00000
  42
-0.0443
  70
32
  0
VERTEX
  5
787
  100
AcDbEntity
  8
Layer 1
  62
0
  100
AcDb2dVertex
  10
2.00702
  20
0.02880
  30
0.00000
  70
32
  0
VERTEX
  5
788
  100
AcDbEntity
  8
Layer 1
  62
0
  100
AcDb2dVertex
  10
2.00600
  20
0.03000
  30
0.00000
  70
32
  0
VERTEX
  5
789
  100
AcDbEntity
  8
Layer 1
  62
0
  100
AcDb2dVertex
  10
1.98263
  20
0.05412
  30
0.00000
  42
0.0334
  70
32
  0
VERTEX
  5
78A
  100
AcDbEntity
  8
Layer 1
  62
0
  100
AcDb2dVertex
  10
1.97200
  20
0.06400
  30
0.00000
  42
-0.0255
  70
32
  0
VERTEX
  5
78B
  100
AcDbEntity
  8
Layer 1
  62
0
  100
AcDb2dVertex
  10
1.93076
  20
0.09415
  30
0.00000
  70
32
  0
VERTEX
  5
78C
  100
AcDbEntity
  8
Layer 1
  62
0
  100
AcDb2dVertex
  10
1.91700
  20
0.10500
  30
0.00000
  42
0.0683
  70
32
  0
VERTEX
  5
78D
  100
AcDbEntity
  8
Layer 1
  62
0
  100
AcDb2dVertex
  10
1.90900
  20
0.12700
  30
0.00000
  70
32
  0
VERTEX
  5
78E
  100
AcDbEntity
  8
Layer 1
  62
0
  100
AcDb2dVertex
  10
1.88900
  20
0.12900
  30
0.00000
  42
0.0820
  70
32
  0
VERTEX
  5
78F
  100
AcDbEntity
  8
Layer 1
  62
0
  100
AcDb2dVertex
  10
1.88404
  20
0.14687
  30
0.00000
  42
0.1778
  70
32
  0
VERTEX
  5
790
  100
AcDbEntity
  8
Layer 1
  62
0
  100
AcDb2dVertex
  10
1.88100
  20
0.15000
  30
0.00000
  70
32
  0
VERTEX
  5
791
  100
AcDbEntity
  8
Layer 1
  62
0
  100
AcDb2dVertex
  10
1.85900
  20
0.15000
  30
0.00000
  42
-0.2840
  70
32
  0
VERTEX
  5
792
  100
AcDbEntity
  8
Layer 1
  62
0
  100
AcDb2dVertex
  10
1.84927
  20
0.15668
  30
0.00000
  42
-0.0694
  70
32
  0
VERTEX
  5
793
  100
AcDbEntity
  8
Layer 1
  62
0
  100
AcDb2dVertex
  10
1.84700
  20
0.16300
  30
0.00000
  42
0.2132
  70
32
  0
VERTEX
  5
794
  100
AcDbEntity
  8
Layer 1
  62
0
  100
AcDb2dVertex
  10
1.83783
  20
0.17123
  30
0.00000
  42
0.0875
  70
32
  0
VERTEX
  5
795
  100
AcDbEntity
  8
Layer 1
  62
0
  100
AcDb2dVertex
  10
1.81483
  20
0.17495
  30
0.00000
  70
32
  0
VERTEX
  5
796
  100
AcDbEntity
  8
Layer 1
  62
0
  100
AcDb2dVertex
  10
1.81100
  20
0.17500
  30
0.00000
  70
32
  0
VERTEX
  5
797
  100
AcDbEntity
  8
Layer 1
  62
0
  100
AcDb2dVertex
  10
1.79700
  20
0.19900
  30
0.00000
  70
32
  0
VERTEX
  5
798
  100
AcDbEntity
  8
Layer 1
  62
0
  100
AcDb2dVertex
  10
1.78100
  20
0.19500
  30
0.00000
  42
0.0295
  70
32
  0
VERTEX
  5
799
  100
AcDbEntity
  8
Layer 1
  62
0
  100
AcDb2dVertex
  10
1.75274
  20
0.22475
  30
0.00000
  42
0.0321
  70
32
  0
VERTEX
  5
79A
  100
AcDbEntity
  8
Layer 1
  62
0
  100
AcDb2dVertex
  10
1.74600
  20
0.23000
  30
0.00000
  70
32
  0
VERTEX
  5
79B
  100
AcDbEntity
  8
Layer 1
  62
0
  100
AcDb2dVertex
  10
1.75400
  20
0.25000
  30
0.00000
  70
32
  0
VERTEX
  5
79C
  100
AcDbEntity
  8
Layer 1
  62
0
  100
AcDb2dVertex
  10
1.74600
  20
0.23000
  30
0.00000
  42
0.0332
  70
32
  0
VERTEX
  5
79D
  100
AcDbEntity
  8
Layer 1
  62
0
  100
AcDb2dVertex
  10
1.70946
  20
0.24240
  30
0.00000
  70
32
  0
VERTEX
  5
79E
  100
AcDbEntity
  8
Layer 1
  62
0
  100
AcDb2dVertex
  10
1.70701
  20
0.24312
  30
0.00000
  70
32
  0
VERTEX
  5
79F
  100
AcDbEntity
  8
Layer 1
  62
0
  100
AcDb2dVertex
  10
1.70400
  20
0.24400
  30
0.00000
  70
32
  0
VERTEX
  5
7A0
  100
AcDbEntity
  8
Layer 1
  62
0
  100
AcDb2dVertex
  10
1.71100
  20
0.27200
  30
0.00000
  70
32
  0
VERTEX
  5
7A1
  100
AcDbEntity
  8
Layer 1
  62
0
  100
AcDb2dVertex
  10
1.70400
  20
0.24400
  30
0.00000
  70
32
  0
VERTEX
  5
7A2
  100
AcDbEntity
  8
Layer 1
  62
0
  100
AcDb2dVertex
  10
1.65700
  20
0.25200
  30
0.00000
  70
32
  0
VERTEX
  5
7A3
  100
AcDbEntity
  8
Layer 1
  62
0
  100
AcDb2dVertex
  10
1.66200
  20
0.28000
  30
0.00000
  70
32
  0
VERTEX
  5
7A4
  100
AcDbEntity
  8
Layer 1
  62
0
  100
AcDb2dVertex
  10
1.65700
  20
0.25200
  30
0.00000
  70
32
  0
VERTEX
  5
7A5
  100
AcDbEntity
  8
Layer 1
  62
0
  100
AcDb2dVertex
  10
1.63146
  20
0.25803
  30
0.00000
  42
0.0092
  70
32
  0
VERTEX
  5
7A6
  100
AcDbEntity
  8
Layer 1
  62
0
  100
AcDb2dVertex
  10
1.60100
  20
0.26500
  30
0.00000
  70
32
  0
VERTEX
  5
7A7
  100
AcDbEntity
  8
Layer 1
  62
0
  100
AcDb2dVertex
  10
1.60700
  20
0.28900
  30
0.00000
  70
32
  0
VERTEX
  5
7A8
  100
AcDbEntity
  8
Layer 1
  62
0
  100
AcDb2dVertex
  10
1.60100
  20
0.26500
  30
0.00000
  70
32
  0
VERTEX
  5
7A9
  100
AcDbEntity
  8
Layer 1
  62
0
  100
AcDb2dVertex
  10
1.53400
  20
0.27400
  30
0.00000
  42
-0.0287
  70
32
  0
VERTEX
  5
7AA
  100
AcDbEntity
  8
Layer 1
  62
0
  100
AcDb2dVertex
  10
1.46900
  20
0.27700
  30
0.00000
  70
32
  0
VERTEX
  5
7AB
  100
AcDbEntity
  8
Layer 1
  62
0
  100
AcDb2dVertex
  10
1.48200
  20
0.31000
  30
0.00000
  70
32
  0
VERTEX
  5
7AC
  100
AcDbEntity
  8
Layer 1
  62
0
  100
AcDb2dVertex
  10
1.46900
  20
0.27700
  30
0.00000
  42
0.0232
  70
32
  0
VERTEX
  5
7AD
  100
AcDbEntity
  8
Layer 1
  62
0
  100
AcDb2dVertex
  10
1.41529
  20
0.29508
  30
0.00000
  70
32
  0
VERTEX
  5
7AE
  100
AcDbEntity
  8
Layer 1
  62
0
  100
AcDb2dVertex
  10
1.40700
  20
0.29700
  30
0.00000
  70
32
  0
VERTEX
  5
7AF
  100
AcDbEntity
  8
Layer 1
  62
0
  100
AcDb2dVertex
  10
1.41900
  20
0.32900
  30
0.00000
  70
32
  0
VERTEX
  5
7B0
  100
AcDbEntity
  8
Layer 1
  62
0
  100
AcDb2dVertex
  10
1.40700
  20
0.29700
  30
0.00000
  70
32
  0
VERTEX
  5
7B1
  100
AcDbEntity
  8
Layer 1
  62
0
  100
AcDb2dVertex
  10
1.34700
  20
0.32400
  30
0.00000
  70
32
  0
VERTEX
  5
7B2
  100
AcDbEntity
  8
Layer 1
  62
0
  100
AcDb2dVertex
  10
1.36100
  20
0.35500
  30
0.00000
  70
32
  0
VERTEX
  5
7B3
  100
AcDbEntity
  8
Layer 1
  62
0
  100
AcDb2dVertex
  10
1.34700
  20
0.32400
  30
0.00000
  42
-0.0069
  70
32
  0
VERTEX
  5
7B4
  100
AcDbEntity
  8
Layer 1
  62
0
  100
AcDb2dVertex
  10
1.30246
  20
0.34901
  30
0.00000
  70
32
  0
VERTEX
  5
7B5
  100
AcDbEntity
  8
Layer 1
  62
0
  100
AcDb2dVertex
  10
1.29200
  20
0.35500
  30
0.00000
  70
32
  0
VERTEX
  5
7B6
  100
AcDbEntity
  8
Layer 1
  62
0
  100
AcDb2dVertex
  10
1.28302
  20
0.36124
  30
0.00000
  42
0.0052
  70
32
  0
VERTEX
  5
7B7
  100
AcDbEntity
  8
Layer 1
  62
0
  100
AcDb2dVertex
  10
1.24100
  20
0.39000
  30
0.00000
  70
32
  0
VERTEX
  5
7B8
  100
AcDbEntity
  8
Layer 1
  62
0
  100
AcDb2dVertex
  10
1.26100
  20
0.41500
  30
0.00000
  70
32
  0
VERTEX
  5
7B9
  100
AcDbEntity
  8
Layer 1
  62
0
  100
AcDb2dVertex
  10
1.24100
  20
0.39000
  30
0.00000
  70
32
  0
VERTEX
  5
7BA
  100
AcDbEntity
  8
Layer 1
  62
0
  100
AcDb2dVertex
  10
1.19200
  20
0.43400
  30
0.00000
  70
32
  0
VERTEX
  5
7BB
  100
AcDbEntity
  8
Layer 1
  62
0
  100
AcDb2dVertex
  10
1.21400
  20
0.45700
  30
0.00000
  70
32
  0
VERTEX
  5
7BC
  100
AcDbEntity
  8
Layer 1
  62
0
  100
AcDb2dVertex
  10
1.19200
  20
0.43400
  30
0.00000
  70
32
  0
VERTEX
  5
7BD
  100
AcDbEntity
  8
Layer 1
  62
0
  100
AcDb2dVertex
  10
1.14600
  20
0.48400
  30
0.00000
  70
32
  0
VERTEX
  5
7BE
  100
AcDbEntity
  8
Layer 1
  62
0
  100
AcDb2dVertex
  10
1.16900
  20
0.50000
  30
0.00000
  70
32
  0
VERTEX
  5
7BF
  100
AcDbEntity
  8
Layer 1
  62
0
  100
AcDb2dVertex
  10
1.14600
  20
0.48400
  30
0.00000
  42
-0.0524
  70
32
  0
VERTEX
  5
7C0
  100
AcDbEntity
  8
Layer 1
  62
0
  100
AcDb2dVertex
  10
1.11400
  20
0.54200
  30
0.00000
  70
32
  0
VERTEX
  5
7C1
  100
AcDbEntity
  8
Layer 1
  62
0
  100
AcDb2dVertex
  10
1.14700
  20
0.56200
  30
0.00000
  70
32
  0
VERTEX
  5
7C2
  100
AcDbEntity
  8
Layer 1
  62
0
  100
AcDb2dVertex
  10
1.11400
  20
0.54200
  30
0.00000
  70
32
  0
VERTEX
  5
7C3
  100
AcDbEntity
  8
Layer 1
  62
0
  100
AcDb2dVertex
  10
1.09100
  20
0.61400
  30
0.00000
  70
32
  0
VERTEX
  5
7C4
  100
AcDbEntity
  8
Layer 1
  62
0
  100
AcDb2dVertex
  10
1.12400
  20
0.63200
  30
0.00000
  70
32
  0
VERTEX
  5
7C5
  100
AcDbEntity
  8
Layer 1
  62
0
  100
AcDb2dVertex
  10
1.09100
  20
0.61400
  30
0.00000
  42
-0.0269
  70
32
  0
VERTEX
  5
7C6
  100
AcDbEntity
  8
Layer 1
  62
0
  100
AcDb2dVertex
  10
1.08600
  20
0.64000
  30
0.00000
  42
-0.1267
  70
32
  0
VERTEX
  5
7C7
  100
AcDbEntity
  8
Layer 1
  62
0
  100
AcDb2dVertex
  10
1.09139
  20
0.65615
  30
0.00000
  42
-0.0650
  70
32
  0
VERTEX
  5
7C8
  100
AcDbEntity
  8
Layer 1
  62
0
  100
AcDb2dVertex
  10
1.11534
  20
0.68545
  30
0.00000
  70
32
  0
VERTEX
  5
7C9
  100
AcDbEntity
  8
Layer 1
  62
0
  100
AcDb2dVertex
  10
1.11900
  20
0.68900
  30
0.00000
  70
32
  0
VERTEX
  5
7CA
  100
AcDbEntity
  8
Layer 1
  62
0
  100
AcDb2dVertex
  10
1.13475
  20
0.70214
  30
0.00000
  42
-0.0113
  70
32
  0
VERTEX
  5
7CB
  100
AcDbEntity
  8
Layer 1
  62
0
  100
AcDb2dVertex
  10
1.16900
  20
0.73000
  30
0.00000
  42
-0.1864
  70
32
  0
VERTEX
  5
7CC
  100
AcDbEntity
  8
Layer 1
  62
0
  100
AcDb2dVertex
  10
1.17336
  20
0.73878
  30
0.00000
  42
-0.0587
  70
32
  0
VERTEX
  5
7CD
  100
AcDbEntity
  8
Layer 1
  62
0
  100
AcDb2dVertex
  10
1.18600
  20
0.74900
  30
0.00000
  42
-0.0598
  70
32
  0
VERTEX
  5
7CE
  100
AcDbEntity
  8
Layer 1
  62
0
  100
AcDb2dVertex
  10
1.20578
  20
0.75943
  30
0.00000
  42
-0.0710
  70
32
  0
VERTEX
  5
7CF
  100
AcDbEntity
  8
Layer 1
  62
0
  100
AcDb2dVertex
  10
1.20900
  20
0.76000
  30
0.00000
  42
-0.1621
  70
32
  0
VERTEX
  5
7D0
  100
AcDbEntity
  8
Layer 1
  62
0
  100
AcDb2dVertex
  10
1.23400
  20
0.75090
  30
0.00000
  42
-0.0840
  70
32
  0
VERTEX
  5
7D1
  100
AcDbEntity
  8
Layer 1
  62
0
  100
AcDb2dVertex
  10
1.25830
  20
0.72423
  30
0.00000
  70
32
  0
VERTEX
  5
7D2
  100
AcDbEntity
  8
Layer 1
  62
0
  100
AcDb2dVertex
  10
1.26300
  20
0.71700
  30
0.00000
  42
-0.0506
  70
32
  0
VERTEX
  5
7D3
  100
AcDbEntity
  8
Layer 1
  62
0
  100
AcDb2dVertex
  10
1.28576
  20
0.67266
  30
0.00000
  42
-0.0863
  70
32
  0
VERTEX
  5
7D4
  100
AcDbEntity
  8
Layer 1
  62
0
  100
AcDb2dVertex
  10
1.29100
  20
0.64700
  30
0.00000
  42
-0.1386
  70
32
  0
VERTEX
  5
7D5
  100
AcDbEntity
  8
Layer 1
  62
0
  100
AcDb2dVertex
  10
1.28551
  20
0.62394
  30
0.00000
  42
-0.2231
  70
32
  0
VERTEX
  5
7D6
  100
AcDbEntity
  8
Layer 1
  62
0
  100
AcDb2dVertex
  10
1.26480
  20
0.61072
  30
0.00000
  42
-0.0435
  70
32
  0
VERTEX
  5
7D7
  100
AcDbEntity
  8
Layer 1
  62
0
  100
AcDb2dVertex
  10
1.25600
  20
0.61000
  30
0.00000
  42
-0.1926
  70
32
  0
VERTEX
  5
7D8
  100
AcDbEntity
  8
Layer 1
  62
0
  100
AcDb2dVertex
  10
1.23157
  20
0.62007
  30
0.00000
  42
-0.0520
  70
32
  0
VERTEX
  5
7D9
  100
AcDbEntity
  8
Layer 1
  62
0
  100
AcDb2dVertex
  10
1.22100
  20
0.63200
  30
0.00000
  42
0.0482
  70
32
  0
VERTEX
  5
7DA
  100
AcDbEntity
  8
Layer 1
  62
0
  100
AcDb2dVertex
  10
1.20486
  20
0.65180
  30
0.00000
  42
0.1598
  70
32
  0
VERTEX
  5
7DB
  100
AcDbEntity
  8
Layer 1
  62
0
  100
AcDb2dVertex
  10
1.20100
  20
0.65400
  30
0.00000
  42
0.1604
  70
32
  0
VERTEX
  5
7DC
  100
AcDbEntity
  8
Layer 1
  62
0
  100
AcDb2dVertex
  10
1.18358
  20
0.64708
  30
0.00000
  70
32
  0
VERTEX
  5
7DD
  100
AcDbEntity
  8
Layer 1
  62
0
  100
AcDb2dVertex
  10
1.18100
  20
0.64500
  30
0.00000
  42
0.1604
  70
32
  0
VERTEX
  5
7DE
  100
AcDbEntity
  8
Layer 1
  62
0
  100
AcDb2dVertex
  10
1.16976
  20
0.63294
  30
0.00000
  42
0.0900
  70
32
  0
VERTEX
  5
7DF
  100
AcDbEntity
  8
Layer 1
  62
0
  100
AcDb2dVertex
  10
1.16900
  20
0.62900
  30
0.00000
  42
0.2988
  70
32
  0
VERTEX
  5
7E0
  100
AcDbEntity
  8
Layer 1
  62
0
  100
AcDb2dVertex
  10
1.17444
  20
0.62115
  30
0.00000
  42
0.0525
  70
32
  0
VERTEX
  5
7E1
  100
AcDbEntity
  8
Layer 1
  62
0
  100
AcDb2dVertex
  10
1.18000
  20
0.61900
  30
0.00000
  42
0.0220
  70
32
  0
VERTEX
  5
7E2
  100
AcDbEntity
  8
Layer 1
  62
0
  100
AcDb2dVertex
  10
1.19900
  20
0.61200
  30
0.00000
  70
32
  0
VERTEX
  5
7E3
  100
AcDbEntity
  8
Layer 1
  62
0
  100
AcDb2dVertex
  10
1.20100
  20
0.60500
  30
0.00000
  42
0.0189
  70
32
  0
VERTEX
  5
7E4
  100
AcDbEntity
  8
Layer 1
  62
0
  100
AcDb2dVertex
  10
1.19400
  20
0.58000
  30
0.00000
  42
0.3200
  70
32
  0
VERTEX
  5
7E5
  100
AcDbEntity
  8
Layer 1
  62
0
  100
AcDb2dVertex
  10
1.20104
  20
0.57006
  30
0.00000
  70
32
  0
VERTEX
  5
7E6
  100
AcDbEntity
  8
Layer 1
  62
0
  100
AcDb2dVertex
  10
1.20400
  20
0.56900
  30
0.00000
  42
0.0445
  70
32
  0
VERTEX
  5
7E7
  100
AcDbEntity
  8
Layer 1
  62
0
  100
AcDb2dVertex
  10
1.22183
  20
0.56201
  30
0.00000
  70
32
  0
VERTEX
  5
7E8
  100
AcDbEntity
  8
Layer 1
  62
0
  100
AcDb2dVertex
  10
1.22200
  20
0.56200
  30
0.00000
  70
32
  0
VERTEX
  5
7E9
  100
AcDbEntity
  8
Layer 1
  62
0
  100
AcDb2dVertex
  10
1.22700
  20
0.55000
  30
0.00000
  42
-0.0171
  70
32
  0
VERTEX
  5
7EA
  100
AcDbEntity
  8
Layer 1
  62
0
  100
AcDb2dVertex
  10
1.22200
  20
0.53200
  30
0.00000
  42
0.3744
  70
32
  0
VERTEX
  5
7EB
  100
AcDbEntity
  8
Layer 1
  62
0
  100
AcDb2dVertex
  10
1.23249
  20
0.51864
  30
0.00000
  70
32
  0
VERTEX
  5
7EC
  100
AcDbEntity
  8
Layer 1
  62
0
  100
AcDb2dVertex
  10
1.23600
  20
0.51800
  30
0.00000
  70
32
  0
VERTEX
  5
7ED
  100
AcDbEntity
  8
Layer 1
  62
0
  100
AcDb2dVertex
  10
1.24201
  20
0.51682
  30
0.00000
  42
-0.0435
  70
32
  0
VERTEX
  5
7EE
  100
AcDbEntity
  8
Layer 1
  62
0
  100
AcDb2dVertex
  10
1.25400
  20
0.51400
  30
0.00000
  70
32
  0
VERTEX
  5
7EF
  100
AcDbEntity
  8
Layer 1
  62
0
  100
AcDb2dVertex
  10
1.25330
  20
0.51494
  30
0.00000
  42
0.5063
  70
32
  0
VERTEX
  5
7F0
  100
AcDbEntity
  8
Layer 1
  62
0
  100
AcDb2dVertex
  10
1.25233
  20
0.51398
  30
0.00000
  42
0.0536
  70
32
  0
VERTEX
  5
7F1
  100
AcDbEntity
  8
Layer 1
  62
0
  100
AcDb2dVertex
  10
1.25106
  20
0.49790
  30
0.00000
  70
32
  0
VERTEX
  5
7F2
  100
AcDbEntity
  8
Layer 1
  62
0
  100
AcDb2dVertex
  10
1.25100
  20
0.49000
  30
0.00000
  42
0.2055
  70
32
  0
VERTEX
  5
7F3
  100
AcDbEntity
  8
Layer 1
  62
0
  100
AcDb2dVertex
  10
1.25405
  20
0.48058
  30
0.00000
  42
0.1279
  70
32
  0
VERTEX
  5
7F4
  100
AcDbEntity
  8
Layer 1
  62
0
  100
AcDb2dVertex
  10
1.25700
  20
0.47900
  30
0.00000
  42
0.2338
  70
32
  0
VERTEX
  5
7F5
  100
AcDbEntity
  8
Layer 1
  62
0
  100
AcDb2dVertex
  10
1.26572
  20
0.47804
  30
0.00000
  70
32
  0
VERTEX
  5
7F6
  100
AcDbEntity
  8
Layer 1
  62
0
  100
AcDb2dVertex
  10
1.26900
  20
0.47900
  30
0.00000
  42
-0.0253
  70
32
  0
VERTEX
  5
7F7
  100
AcDbEntity
  8
Layer 1
  62
0
  100
AcDb2dVertex
  10
1.28200
  20
0.48200
  30
0.00000
  42
-0.2980
  70
32
  0
VERTEX
  5
7F8
  100
AcDbEntity
  8
Layer 1
  62
0
  100
AcDb2dVertex
  10
1.28755
  20
0.47776
  30
0.00000
  42
-0.0963
  70
32
  0
VERTEX
  5
7F9
  100
AcDbEntity
  8
Layer 1
  62
0
  100
AcDb2dVertex
  10
1.29082
  20
0.46115
  30
0.00000
  70
32
  0
VERTEX
  5
7FA
  100
AcDbEntity
  8
Layer 1
  62
0
  100
AcDb2dVertex
  10
1.29100
  20
0.45400
  30
0.00000
  42
0.2064
  70
32
  0
VERTEX
  5
7FB
  100
AcDbEntity
  8
Layer 1
  62
0
  100
AcDb2dVertex
  10
1.29357
  20
0.44580
  30
0.00000
  42
0.1322
  70
32
  0
VERTEX
  5
7FC
  100
AcDbEntity
  8
Layer 1
  62
0
  100
AcDb2dVertex
  10
1.29700
  20
0.44400
  30
0.00000
  42
0.2338
  70
32
  0
VERTEX
  5
7FD
  100
AcDbEntity
  8
Layer 1
  62
0
  100
AcDb2dVertex
  10
1.30572
  20
0.44304
  30
0.00000
  70
32
  0
VERTEX
  5
7FE
  100
AcDbEntity
  8
Layer 1
  62
0
  100
AcDb2dVertex
  10
1.30900
  20
0.44400
  30
0.00000
  42
-0.0308
  70
32
  0
VERTEX
  5
7FF
  100
AcDbEntity
  8
Layer 1
  62
0
  100
AcDb2dVertex
  10
1.31900
  20
0.44500
  30
0.00000
  42
-0.3420
  70
32
  0
VERTEX
  5
800
  100
AcDbEntity
  8
Layer 1
  62
0
  100
AcDb2dVertex
  10
1.32936
  20
0.43746
  30
0.00000
  42
-0.0669
  70
32
  0
VERTEX
  5
801
  100
AcDbEntity
  8
Layer 1
  62
0
  100
AcDb2dVertex
  10
1.33100
  20
0.43000
  30
0.00000
  42
0.2485
  70
32
  0
VERTEX
  5
802
  100
AcDbEntity
  8
Layer 1
  62
0
  100
AcDb2dVertex
  10
1.34037
  20
0.41920
  30
0.00000
  42
0.0995
  70
32
  0
VERTEX
  5
803
  100
AcDbEntity
  8
Layer 1
  62
0
  100
AcDb2dVertex
  10
1.36226
  20
0.41506
  30
0.00000
  70
32
  0
VERTEX
  5
804
  100
AcDbEntity
  8
Layer 1
  62
0
  100
AcDb2dVertex
  10
1.36600
  20
0.41500
  30
0.00000
  42
-0.2622
  70
32
  0
VERTEX
  5
805
  100
AcDbEntity
  8
Layer 1
  62
0
  100
AcDb2dVertex
  10
1.37611
  20
0.40873
  30
0.00000
  42
-0.0730
  70
32
  0
VERTEX
  5
806
  100
AcDbEntity
  8
Layer 1
  62
0
  100
AcDb2dVertex
  10
1.38000
  20
0.40000
  30
0.00000
  42
0.1298
  70
32
  0
VERTEX
  5
807
  100
AcDbEntity
  8
Layer 1
  62
0
  100
AcDb2dVertex
  10
1.38634
  20
0.38790
  30
0.00000
  42
0.1976
  70
32
  0
VERTEX
  5
808
  100
AcDbEntity
  8
Layer 1
  62
0
  100
AcDb2dVertex
  10
1.39400
  20
0.38500
  30
0.00000
  70
32
  0
VERTEX
  5
809
  100
AcDbEntity
  8
Layer 1
  62
0
  100
AcDb2dVertex
  10
1.41400
  20
0.39400
  30
0.00000
  42
-0.3205
  70
32
  0
VERTEX
  5
80A
  100
AcDbEntity
  8
Layer 1
  62
0
  100
AcDb2dVertex
  10
1.43044
  20
0.38317
  30
0.00000
  70
32
  0
VERTEX
  5
80B
  100
AcDbEntity
  8
Layer 1
  62
0
  100
AcDb2dVertex
  10
1.43200
  20
0.37900
  30
0.00000
  42
0.1107
  70
32
  0
VERTEX
  5
80C
  100
AcDbEntity
  8
Layer 1
  62
0
  100
AcDb2dVertex
  10
1.43941
  20
0.36660
  30
0.00000
  42
0.1917
  70
32
  0
VERTEX
  5
80D
  100
AcDbEntity
  8
Layer 1
  62
0
  100
AcDb2dVertex
  10
1.44600
  20
0.36400
  30
0.00000
  70
32
  0
VERTEX
  5
80E
  100
AcDbEntity
  8
Layer 1
  62
0
  100
AcDb2dVertex
  10
1.46700
  20
0.37500
  30
0.00000
  42
-0.3001
  70
32
  0
VERTEX
  5
80F
  100
AcDbEntity
  8
Layer 1
  62
0
  100
AcDb2dVertex
  10
1.48034
  20
0.36661
  30
0.00000
  42
-0.0515
  70
32
  0
VERTEX
  5
810
  100
AcDbEntity
  8
Layer 1
  62
0
  100
AcDb2dVertex
  10
1.48300
  20
0.36000
  30
0.00000
  42
0.1575
  70
32
  0
VERTEX
  5
811
  100
AcDbEntity
  8
Layer 1
  62
0
  100
AcDb2dVertex
  10
1.49030
  20
0.34774
  30
0.00000
  42
0.1689
  70
32
  0
VERTEX
  5
812
  100
AcDbEntity
  8
Layer 1
  62
0
  100
AcDb2dVertex
  10
1.49900
  20
0.34500
  30
0.00000
  42
0.2161
  70
32
  0
VERTEX
  5
813
  100
AcDbEntity
  8
Layer 1
  62
0
  100
AcDb2dVertex
  10
1.50504
  20
0.34910
  30
0.00000
  42
0.0642
  70
32
  0
VERTEX
  5
814
  100
AcDbEntity
  8
Layer 1
  62
0
  100
AcDb2dVertex
  10
1.50900
  20
0.35600
  30
0.00000
  42
-0.1657
  70
32
  0
VERTEX
  5
815
  100
AcDbEntity
  8
Layer 1
  62
0
  100
AcDb2dVertex
  10
1.51668
  20
0.36590
  30
0.00000
  42
-0.1258
  70
32
  0
VERTEX
  5
816
  100
AcDbEntity
  8
Layer 1
  62
0
  100
AcDb2dVertex
  10
1.52100
  20
0.36700
  30
0.00000
  42
-0.2172
  70
32
  0
VERTEX
  5
817
  100
AcDbEntity
  8
Layer 1
  62
0
  100
AcDb2dVertex
  10
1.52994
  20
0.36185
  30
0.00000
  42
-0.0612
  70
32
  0
VERTEX
  5
818
  100
AcDbEntity
  8
Layer 1
  62
0
  100
AcDb2dVertex
  10
1.53500
  20
0.35400
  30
0.00000
  42
0.1436
  70
32
  0
VERTEX
  5
819
  100
AcDbEntity
  8
Layer 1
  62
0
  100
AcDb2dVertex
  10
1.54388
  20
0.34208
  30
0.00000
  42
0.1474
  70
32
  0
VERTEX
  5
81A
  100
AcDbEntity
  8
Layer 1
  62
0
  100
AcDb2dVertex
  10
1.55100
  20
0.34000
  30
0.00000
  42
0.1491
  70
32
  0
VERTEX
  5
81B
  100
AcDbEntity
  8
Layer 1
  62
0
  100
AcDb2dVertex
  10
1.55816
  20
0.34374
  30
0.00000
  42
0.0266
  70
32
  0
VERTEX
  5
81C
  100
AcDbEntity
  8
Layer 1
  62
0
  100
AcDb2dVertex
  10
1.56500
  20
0.35000
  30
0.00000
  42
-0.1273
  70
32
  0
VERTEX
  5
81D
  100
AcDbEntity
  8
Layer 1
  62
0
  100
AcDb2dVertex
  10
1.57571
  20
0.35858
  30
0.00000
  42
-0.1374
  70
32
  0
VERTEX
  5
81E
  100
AcDbEntity
  8
Layer 1
  62
0
  100
AcDb2dVertex
  10
1.58100
  20
0.35900
  30
0.00000
  42
0.0940
  70
32
  0
VERTEX
  5
81F
  100
AcDbEntity
  8
Layer 1
  62
0
  100
AcDb2dVertex
  10
1.59746
  20
0.33676
  30
0.00000
  42
0.1815
  70
32
  0
VERTEX
  5
820
  100
AcDbEntity
  8
Layer 1
  62
0
  100
AcDb2dVertex
  10
1.61400
  20
0.33000
  30
0.00000
  42
0.1653
  70
32
  0
VERTEX
  5
821
  100
AcDbEntity
  8
Layer 1
  62
0
  100
AcDb2dVertex
  10
1.63050
  20
0.33459
  30
0.00000
  42
0.1991
  70
32
  0
VERTEX
  5
822
  100
AcDbEntity
  8
Layer 1
  62
0
  100
AcDb2dVertex
  10
1.63847
  20
0.34959
  30
0.00000
  42
0.0386
  70
32
  0
VERTEX
  5
823
  100
AcDbEntity
  8
Layer 1
  62
0
  100
AcDb2dVertex
  10
1.63900
  20
0.35700
  30
0.00000
  42
0.2535
  70
32
  0
VERTEX
  5
824
  100
AcDbEntity
  8
Layer 1
  62
0
  100
AcDb2dVertex
  10
1.62334
  20
0.38687
  30
0.00000
  42
0.0931
  70
32
  0
VERTEX
  5
825
  100
AcDbEntity
  8
Layer 1
  62
0
  100
AcDb2dVertex
  10
1.59800
  20
0.39800
  30
0.00000
  42
-0.0545
  70
32
  0
VERTEX
  5
826
  100
AcDbEntity
  8
Layer 1
  62
0
  100
AcDb2dVertex
  10
1.56729
  20
0.40867
  30
0.00000
  42
-0.1410
  70
32
  0
VERTEX
  5
827
  100
AcDbEntity
  8
Layer 1
  62
0
  100
AcDb2dVertex
  10
1.55795
  20
0.41645
  30
0.00000
  42
-0.1270
  70
32
  0
VERTEX
  5
828
  100
AcDbEntity
  8
Layer 1
  62
0
  100
AcDb2dVertex
  10
1.55700
  20
0.42000
  30
0.00000
  42
-0.1488
  70
32
  0
VERTEX
  5
829
  100
AcDbEntity
  8
Layer 1
  62
0
  100
AcDb2dVertex
  10
1.56121
  20
0.43713
  30
0.00000
  42
-0.2099
  70
32
  0
VERTEX
  5
82A
  100
AcDbEntity
  8
Layer 1
  62
0
  100
AcDb2dVertex
  10
1.57400
  20
0.44500
  30
0.00000
  42
-0.2030
  70
32
  0
VERTEX
  5
82B
  100
AcDbEntity
  8
Layer 1
  62
0
  100
AcDb2dVertex
  10
1.53700
  20
0.46100
  30
0.00000
  42
-0.1645
  70
32
  0
VERTEX
  5
82C
  100
AcDbEntity
  8
Layer 1
  62
0
  100
AcDb2dVertex
  10
1.52152
  20
0.48987
  30
0.00000
  42
-0.0372
  70
32
  0
VERTEX
  5
82D
  100
AcDbEntity
  8
Layer 1
  62
0
  100
AcDb2dVertex
  10
1.52100
  20
0.49700
  30
0.00000
  42
-0.0508
  70
32
  0
VERTEX
  5
82E
  100
AcDbEntity
  8
Layer 1
  62
0
  100
AcDb2dVertex
  10
1.54254
  20
0.54229
  30
0.00000
  42
-0.0970
  70
32
  0
VERTEX
  5
82F
  100
AcDbEntity
  8
Layer 1
  62
0
  100
AcDb2dVertex
  10
1.55900
  20
0.56082
  30
0.00000
  42
-0.1534
  70
32
  0
VERTEX
  5
830
  100
AcDbEntity
  8
Layer 1
  62
0
  100
AcDb2dVertex
  10
1.57100
  20
0.56500
  30
0.00000
  42
-0.0629
  70
32
  0
VERTEX
  5
831
  100
AcDbEntity
  8
Layer 1
  62
0
  100
AcDb2dVertex
  10
1.60000
  20
0.58357
  30
0.00000
  42
-0.1009
  70
32
  0
VERTEX
  5
832
  100
AcDbEntity
  8
Layer 1
  62
0
  100
AcDb2dVertex
  10
1.61400
  20
0.58700
  30
0.00000
  42
-0.1579
  70
32
  0
VERTEX
  5
833
  100
AcDbEntity
  8
Layer 1
  62
0
  100
AcDb2dVertex
  10
1.63688
  20
0.57868
  30
0.00000
  42
-0.0414
  70
32
  0
VERTEX
  5
834
  100
AcDbEntity
  8
Layer 1
  62
0
  100
AcDb2dVertex
  10
1.64700
  20
0.57000
  30
0.00000
  42
-0.1282
  70
32
  0
VERTEX
  5
835
  100
AcDbEntity
  8
Layer 1
  62
0
  100
AcDb2dVertex
  10
1.66102
  20
0.54544
  30
0.00000
  42
-0.0574
  70
32
  0
VERTEX
  5
836
  100
AcDbEntity
  8
Layer 1
  62
0
  100
AcDb2dVertex
  10
1.66200
  20
0.53700
  30
0.00000
  42
-0.3350
  70
32
  0
VERTEX
  5
837
  100
AcDbEntity
  8
Layer 1
  62
0
  100
AcDb2dVertex
  10
1.65624
  20
0.52921
  30
0.00000
  42
-0.0929
  70
32
  0
VERTEX
  5
838
  100
AcDbEntity
  8
Layer 1
  62
0
  100
AcDb2dVertex
  10
1.64000
  20
0.52700
  30
0.00000
  42
0.1626
  70
32
  0
VERTEX
  5
839
  100
AcDbEntity
  8
Layer 1
  62
0
  100
AcDb2dVertex
  10
1.62377
  20
0.52260
  30
0.00000
  42
0.2372
  70
32
  0
VERTEX
  5
83A
  100
AcDbEntity
  8
Layer 1
  62
0
  100
AcDb2dVertex
  10
1.61701
  20
0.50785
  30
0.00000
  70
32
  0
VERTEX
  5
83B
  100
AcDbEntity
  8
Layer 1
  62
0
  100
AcDb2dVertex
  10
1.61700
  20
0.50700
  30
0.00000
  42
0.2623
  70
32
  0
VERTEX
  5
83C
  100
AcDbEntity
  8
Layer 1
  62
0
  100
AcDb2dVertex
  10
1.62044
  20
0.50260
  30
0.00000
  42
0.0727
  70
32
  0
VERTEX
  5
83D
  100
AcDbEntity
  8
Layer 1
  62
0
  100
AcDb2dVertex
  10
1.63816
  20
0.49671
  30
0.00000
  70
32
  0
VERTEX
  5
83E
  100
AcDbEntity
  8
Layer 1
  62
0
  100
AcDb2dVertex
  10
1.65200
  20
0.49400
  30
0.00000
  42
0.0119
  70
32
  0
VERTEX
  5
83F
  100
AcDbEntity
  8
Layer 1
  62
0
  100
AcDb2dVertex
  10
1.68803
  20
0.48791
  30
0.00000
  70
32
  0
VERTEX
  5
840
  100
AcDbEntity
  8
Layer 1
  62
0
  100
AcDb2dVertex
  10
1.69400
  20
0.48700
  30
0.00000
  42
-0.0770
  70
32
  0
VERTEX
  5
841
  100
AcDbEntity
  8
Layer 1
  62
0
  100
AcDb2dVertex
  10
1.71544
  20
0.47535
  30
0.00000
  42
-0.0184
  70
32
  0
VERTEX
  5
842
  100
AcDbEntity
  8
Layer 1
  62
0
  100
AcDb2dVertex
  10
1.73400
  20
0.46100
  30
0.00000
  42
-0.0718
  70
32
  0
VERTEX
  5
843
  100
AcDbEntity
  8
Layer 1
  62
0
  100
AcDb2dVertex
  10
1.75428
  20
0.44011
  30
0.00000
  42
-0.1466
  70
32
  0
VERTEX
  5
844
  100
AcDbEntity
  8
Layer 1
  62
0
  100
AcDb2dVertex
  10
1.75900
  20
0.42700
  30
0.00000
  42
-0.1937
  70
32
  0
VERTEX
  5
845
  100
AcDbEntity
  8
Layer 1
  62
0
  100
AcDb2dVertex
  10
1.75604
  20
0.41719
  30
0.00000
  42
-0.1726
  70
32
  0
VERTEX
  5
846
  100
AcDbEntity
  8
Layer 1
  62
0
  100
AcDb2dVertex
  10
1.74900
  20
0.41400
  30
0.00000
  42
0.0356
  70
32
  0
VERTEX
  5
847
  100
AcDbEntity
  8
Layer 1
  62
0
  100
AcDb2dVertex
  10
1.69828
  20
0.43527
  30
0.00000
  42
0.0712
  70
32
  0
VERTEX
  5
848
  100
AcDbEntity
  8
Layer 1
  62
0
  100
AcDb2dVertex
  10
1.67900
  20
0.43900
  30
0.00000
  42
0.2520
  70
32
  0
VERTEX
  5
849
  100
AcDbEntity
  8
Layer 1
  62
0
  100
AcDb2dVertex
  10
1.66505
  20
0.43267
  30
0.00000
  42
0.1567
  70
32
  0
VERTEX
  5
84A
  100
AcDbEntity
  8
Layer 1
  62
0
  100
AcDb2dVertex
  10
1.66100
  20
0.41700
  30
0.00000
  42
0.2088
  70
32
  0
VERTEX
  5
84B
  100
AcDbEntity
  8
Layer 1
  62
0
  100
AcDb2dVertex
  10
1.66603
  20
0.40758
  30
0.00000
  42
0.0830
  70
32
  0
VERTEX
  5
84C
  100
AcDbEntity
  8
Layer 1
  62
0
  100
AcDb2dVertex
  10
1.68588
  20
0.39588
  30
0.00000
  70
32
  0
VERTEX
  5
84D
  100
AcDbEntity
  8
Layer 1
  62
0
  100
AcDb2dVertex
  10
1.69300
  20
0.39300
  30
0.00000
  42
-0.0731
  70
32
  0
VERTEX
  5
84E
  100
AcDbEntity
  8
Layer 1
  62
0
  100
AcDb2dVertex
  10
1.71756
  20
0.37954
  30
0.00000
  42
-0.1720
  70
32
  0
VERTEX
  5
84F
  100
AcDbEntity
  8
Layer 1
  62
0
  100
AcDb2dVertex
  10
1.72573
  20
0.36767
  30
0.00000
  70
32
  0
VERTEX
  5
850
  100
AcDbEntity
  8
Layer 1
  62
0
  100
AcDb2dVertex
  10
1.72600
  20
0.36500
  30
0.00000
  70
32
  0
VERTEX
  5
851
  100
AcDbEntity
  8
Layer 1
  62
0
  100
AcDb2dVertex
  10
1.72200
  20
0.35500
  30
0.00000
  42
-0.1014
  70
32
  0
VERTEX
  5
852
  100
AcDbEntity
  8
Layer 1
  62
0
  100
AcDb2dVertex
  10
1.71544
  20
0.35346
  30
0.00000
  42
-0.0147
  70
32
  0
VERTEX
  5
853
  100
AcDbEntity
  8
Layer 1
  62
0
  100
AcDb2dVertex
  10
1.69900
  20
0.35200
  30
0.00000
  42
0.2457
  70
32
  0
VERTEX
  5
854
  100
AcDbEntity
  8
Layer 1
  62
0
  100
AcDb2dVertex
  10
1.68721
  20
0.34696
  30
0.00000
  42
0.1620
  70
32
  0
VERTEX
  5
855
  100
AcDbEntity
  8
Layer 1
  62
0
  100
AcDb2dVertex
  10
1.68400
  20
0.33500
  30
0.00000
  42
0.1180
  70
32
  0
VERTEX
  5
856
  100
AcDbEntity
  8
Layer 1
  62
0
  100
AcDb2dVertex
  10
1.68729
  20
0.31723
  30
0.00000
  42
0.2951
  70
32
  0
VERTEX
  5
857
  100
AcDbEntity
  8
Layer 1
  62
0
  100
AcDb2dVertex
  10
1.70132
  20
0.30901
  30
0.00000
  70
32
  0
VERTEX
  5
858
  100
AcDbEntity
  8
Layer 1
  62
0
  100
AcDb2dVertex
  10
1.70200
  20
0.30900
  30
0.00000
  42
-0.1525
  70
32
  0
VERTEX
  5
859
  100
AcDbEntity
  8
Layer 1
  62
0
  100
AcDb2dVertex
  10
1.72009
  20
0.32127
  30
0.00000
  42
-0.0618
  70
32
  0
VERTEX
  5
85A
  100
AcDbEntity
  8
Layer 1
  62
0
  100
AcDb2dVertex
  10
1.72600
  20
0.32200
  30
0.00000
  42
-0.3313
  70
32
  0
VERTEX
  5
85B
  100
AcDbEntity
  8
Layer 1
  62
0
  100
AcDb2dVertex
  10
1.73654
  20
0.31404
  30
0.00000
  42
-0.0903
  70
32
  0
VERTEX
  5
85C
  100
AcDbEntity
  8
Layer 1
  62
0
  100
AcDb2dVertex
  10
1.73800
  20
0.30500
  30
0.00000
  42
0.1480
  70
32
  0
VERTEX
  5
85D
  100
AcDbEntity
  8
Layer 1
  62
0
  100
AcDb2dVertex
  10
1.74195
  20
0.29278
  30
0.00000
  42
0.2355
  70
32
  0
VERTEX
  5
85E
  100
AcDbEntity
  8
Layer 1
  62
0
  100
AcDb2dVertex
  10
1.75100
  20
0.28900
  30
0.00000
  70
32
  0
VERTEX
  5
85F
  100
AcDbEntity
  8
Layer 1
  62
0
  100
AcDb2dVertex
  10
1.76400
  20
0.29500
  30
0.00000
  42
-0.1313
  70
32
  0
VERTEX
  5
860
  100
AcDbEntity
  8
Layer 1
  62
0
  100
AcDb2dVertex
  10
1.77228
  20
0.29364
  30
0.00000
  42
-0.2738
  70
32
  0
VERTEX
  5
861
  100
AcDbEntity
  8
Layer 1
  62
0
  100
AcDb2dVertex
  10
1.77400
  20
0.29000
  30
0.00000
  70
32
  0
VERTEX
  5
862
  100
AcDbEntity
  8
Layer 1
  62
0
  100
AcDb2dVertex
  10
1.77400
  20
0.28500
  30
0.00000
  70
32
  0
VERTEX
  5
863
  100
AcDbEntity
  8
Layer 1
  62
0
  100
AcDb2dVertex
  10
1.77263
  20
0.28212
  30
0.00000
  70
32
  0
VERTEX
  5
864
  100
AcDbEntity
  8
Layer 1
  62
0
  100
AcDb2dVertex
  10
1.77200
  20
0.28000
  30
0.00000
  42
0.2851
  70
32
  0
VERTEX
  5
865
  100
AcDbEntity
  8
Layer 1
  62
0
  100
AcDb2dVertex
  10
1.77635
  20
0.27413
  30
0.00000
  42
0.1012
  70
32
  0
VERTEX
  5
866
  100
AcDbEntity
  8
Layer 1
  62
0
  100
AcDb2dVertex
  10
1.79325
  20
0.27029
  30
0.00000
  70
32
  0
VERTEX
  5
867
  100
AcDbEntity
  8
Layer 1
  62
0
  100
AcDb2dVertex
  10
1.80200
  20
0.27000
  30
0.00000
  42
-0.2980
  70
32
  0
VERTEX
  5
868
  100
AcDbEntity
  8
Layer 1
  62
0
  100
AcDb2dVertex
  10
1.80994
  20
0.26449
  30
0.00000
  42
-0.0975
  70
32
  0
VERTEX
  5
869
  100
AcDbEntity
  8
Layer 1
  62
0
  100
AcDb2dVertex
  10
1.81386
  20
0.24710
  30
0.00000
  70
32
  0
VERTEX
  5
86A
  100
AcDbEntity
  8
Layer 1
  62
0
  100
AcDb2dVertex
  10
1.81400
  20
0.24500
  30
0.00000
  42
0.1854
  70
32
  0
VERTEX
  5
86B
  100
AcDbEntity
  8
Layer 1
  62
0
  100
AcDb2dVertex
  10
1.82235
  20
0.24071
  30
0.00000
  42
0.0497
  70
32
  0
VERTEX
  5
86C
  100
AcDbEntity
  8
Layer 1
  62
0
  100
AcDb2dVertex
  10
1.83000
  20
0.24000
  30
0.00000
  42
-0.2250
  70
32
  0
VERTEX
  5
86D
  100
AcDbEntity
  8
Layer 1
  62
0
  100
AcDb2dVertex
  10
1.84900
  20
0.23200
  30
0.00000
  42
0.2322
  70
32
  0
VERTEX
  5
86E
  100
AcDbEntity
  8
Layer 1
  62
0
  100
AcDb2dVertex
  10
1.85539
  20
0.22017
  30
0.00000
  42
0.0889
  70
32
  0
VERTEX
  5
86F
  100
AcDbEntity
  8
Layer 1
  62
0
  100
AcDb2dVertex
  10
1.87562
  20
0.21013
  30
0.00000
  70
32
  0
VERTEX
  5
870
  100
AcDbEntity
  8
Layer 1
  62
0
  100
AcDb2dVertex
  10
1.87600
  20
0.21000
  30
0.00000
  42
0.0248
  70
32
  0
VERTEX
  5
871
  100
AcDbEntity
  8
Layer 1
  62
0
  100
AcDb2dVertex
  10
1.92100
  20
0.15900
  30
0.00000
  42
-0.0660
  70
32
  0
VERTEX
  5
872
  100
AcDbEntity
  8
Layer 1
  62
0
  100
AcDb2dVertex
  10
1.94700
  20
0.14700
  30
0.00000
  42
-0.0333
  70
32
  0
VERTEX
  5
873
  100
AcDbEntity
  8
Layer 1
  62
0
  100
AcDb2dVertex
  10
1.97899
  20
0.11117
  30
0.00000
  42
-0.0055
  70
32
  0
VERTEX
  5
874
  100
AcDbEntity
  8
Layer 1
  62
0
  100
AcDb2dVertex
  10
2.00200
  20
0.08200
  30
0.00000
  42
-0.0267
  70
32
  0
VERTEX
  5
875
  100
AcDbEntity
  8
Layer 1
  62
0
  100
AcDb2dVertex
  10
2.03799
  20
0.03218
  30
0.00000
  42
-0.0732
  70
32
  0
VERTEX
  5
876
  100
AcDbEntity
  8
Layer 1
  62
0
  100
AcDb2dVertex
  10
2.04575
  20
0.01606
  30
0.00000
  70
32
  0
VERTEX
  5
877
  100
AcDbEntity
  8
Layer 1
  62
0
  100
AcDb2dVertex
  10
2.04600
  20
0.01400
  30
0.00000
  70
32
  0
SEQEND
  5
878
  100
AcDbEntity
  8
Layer 1
  62
0
  0
POLYLINE
  5
879
  100
AcDbEntity
  8
Layer 1
  62
0
  100
AcDb2dPolyline
 66
     1
  10
0
  20
0
  30
0
  70
1
  0
VERTEX
  5
87A
  100
AcDbEntity
  8
Layer 1
  62
0
  100
AcDb2dVertex
  10
1.47700
  20
0.48400
  30
0.00000
  42
-0.1403
  70
32
  0
VERTEX
  5
87B
  100
AcDbEntity
  8
Layer 1
  62
0
  100
AcDb2dVertex
  10
1.47294
  20
0.46628
  30
0.00000
  42
-0.2221
  70
32
  0
VERTEX
  5
87C
  100
AcDbEntity
  8
Layer 1
  62
0
  100
AcDb2dVertex
  10
1.45809
  20
0.45717
  30
0.00000
  70
32
  0
VERTEX
  5
87D
  100
AcDbEntity
  8
Layer 1
  62
0
  100
AcDb2dVertex
  10
1.45700
  20
0.45700
  30
0.00000
  42
0.0201
  70
32
  0
VERTEX
  5
87E
  100
AcDbEntity
  8
Layer 1
  62
0
  100
AcDb2dVertex
  10
1.42200
  20
0.45900
  30
0.00000
  42
0.0717
  70
32
  0
VERTEX
  5
87F
  100
AcDbEntity
  8
Layer 1
  62
0
  100
AcDb2dVertex
  10
1.40800
  20
0.45600
  30
0.00000
  42
-0.0871
  70
32
  0
VERTEX
  5
880
  100
AcDbEntity
  8
Layer 1
  62
0
  100
AcDb2dVertex
  10
1.39600
  20
0.45400
  30
0.00000
  42
-0.0999
  70
32
  0
VERTEX
  5
881
  100
AcDbEntity
  8
Layer 1
  62
0
  100
AcDb2dVertex
  10
1.37361
  20
0.45757
  30
0.00000
  42
-0.2731
  70
32
  0
VERTEX
  5
882
  100
AcDbEntity
  8
Layer 1
  62
0
  100
AcDb2dVertex
  10
1.36229
  20
0.47128
  30
0.00000
  70
32
  0
VERTEX
  5
883
  100
AcDbEntity
  8
Layer 1
  62
0
  100
AcDb2dVertex
  10
1.36200
  20
0.47500
  30
0.00000
  42
-0.2731
  70
32
  0
VERTEX
  5
884
  100
AcDbEntity
  8
Layer 1
  62
0
  100
AcDb2dVertex
  10
1.36545
  20
0.48269
  30
0.00000
  42
-0.1386
  70
32
  0
VERTEX
  5
885
  100
AcDbEntity
  8
Layer 1
  62
0
  100
AcDb2dVertex
  10
1.37100
  20
0.48400
  30
0.00000
  42
0.0100
  70
32
  0
VERTEX
  5
886
  100
AcDbEntity
  8
Layer 1
  62
0
  100
AcDb2dVertex
  10
1.40100
  20
0.47400
  30
0.00000
  42
0.1485
  70
32
  0
VERTEX
  5
887
  100
AcDbEntity
  8
Layer 1
  62
0
  100
AcDb2dVertex
  10
1.40686
  20
0.47743
  30
0.00000
  42
0.0500
  70
32
  0
VERTEX
  5
888
  100
AcDbEntity
  8
Layer 1
  62
0
  100
AcDb2dVertex
  10
1.42400
  20
0.49700
  30
0.00000
  42
-0.0535
  70
32
  0
VERTEX
  5
889
  100
AcDbEntity
  8
Layer 1
  62
0
  100
AcDb2dVertex
  10
1.42938
  20
0.51527
  30
0.00000
  70
32
  0
VERTEX
  5
88A
  100
AcDbEntity
  8
Layer 1
  62
0
  100
AcDb2dVertex
  10
1.43006
  20
0.51625
  30
0.00000
  42
-0.8097
  70
32
  0
VERTEX
  5
88B
  100
AcDbEntity
  8
Layer 1
  62
0
  100
AcDb2dVertex
  10
1.43087
  20
0.51571
  30
0.00000
  70
32
  0
VERTEX
  5
88C
  100
AcDbEntity
  8
Layer 1
  62
0
  100
AcDb2dVertex
  10
1.43100
  20
0.51400
  30
0.00000
  42
0.2802
  70
32
  0
VERTEX
  5
88D
  100
AcDbEntity
  8
Layer 1
  62
0
  100
AcDb2dVertex
  10
1.42100
  20
0.53200
  30
0.00000
  42
-0.2806
  70
32
  0
VERTEX
  5
88E
  100
AcDbEntity
  8
Layer 1
  62
0
  100
AcDb2dVertex
  10
1.40900
  20
0.54700
  30
0.00000
  42
-0.3454
  70
32
  0
VERTEX
  5
88F
  100
AcDbEntity
  8
Layer 1
  62
0
  100
AcDb2dVertex
  10
1.40859
  20
0.55373
  30
0.00000
  70
32
  0
VERTEX
  5
890
  100
AcDbEntity
  8
Layer 1
  62
0
  100
AcDb2dVertex
  10
1.41000
  20
0.55500
  30
0.00000
  70
32
  0
VERTEX
  5
891
  100
AcDbEntity
  8
Layer 1
  62
0
  100
AcDb2dVertex
  10
1.41450
  20
0.55775
  30
0.00000
  42
-0.1162
  70
32
  0
VERTEX
  5
892
  100
AcDbEntity
  8
Layer 1
  62
0
  100
AcDb2dVertex
  10
1.41900
  20
0.55900
  30
0.00000
  42
-0.1041
  70
32
  0
VERTEX
  5
893
  100
AcDbEntity
  8
Layer 1
  62
0
  100
AcDb2dVertex
  10
1.43482
  20
0.54831
  30
0.00000
  42
-0.0422
  70
32
  0
VERTEX
  5
894
  100
AcDbEntity
  8
Layer 1
  62
0
  100
AcDb2dVertex
  10
1.45500
  20
0.52500
  30
0.00000
  42
-0.0543
  70
32
  0
VERTEX
  5
895
  100
AcDbEntity
  8
Layer 1
  62
0
  100
AcDb2dVertex
  10
1.47415
  20
0.49442
  30
0.00000
  42
-0.0974
  70
32
  0
VERTEX
  5
896
  100
AcDbEntity
  8
Layer 1
  62
0
  100
AcDb2dVertex
  10
1.47700
  20
0.48400
  30
0.00000
  70
32
  0
SEQEND
  5
897
  100
AcDbEntity
  8
Layer 1
  62
0
  0
POLYLINE
  5
898
  100
AcDbEntity
  8
Layer 1
  62
0
  100
AcDb2dPolyline
 66
     1
  10
0
  20
0
  30
0
  70
1
  0
VERTEX
  5
899
  100
AcDbEntity
  8
Layer 1
  62
0
  100
AcDb2dVertex
  10
0.52000
  20
1.43900
  30
0.00000
  70
32
  0
VERTEX
  5
89A
  100
AcDbEntity
  8
Layer 1
  62
0
  100
AcDb2dVertex
  10
0.51900
  20
1.43000
  30
0.00000
  70
32
  0
VERTEX
  5
89B
  100
AcDbEntity
  8
Layer 1
  62
0
  100
AcDb2dVertex
  10
0.51000
  20
1.43000
  30
0.00000
  42
0.0568
  70
32
  0
VERTEX
  5
89C
  100
AcDbEntity
  8
Layer 1
  62
0
  100
AcDb2dVertex
  10
0.44903
  20
1.48459
  30
0.00000
  42
0.0870
  70
32
  0
VERTEX
  5
89D
  100
AcDbEntity
  8
Layer 1
  62
0
  100
AcDb2dVertex
  10
0.39051
  20
1.51254
  30
0.00000
  42
0.0592
  70
32
  0
VERTEX
  5
89E
  100
AcDbEntity
  8
Layer 1
  62
0
  100
AcDb2dVertex
  10
0.35900
  20
1.51700
  30
0.00000
  42
-0.1230
  70
32
  0
VERTEX
  5
89F
  100
AcDbEntity
  8
Layer 1
  62
0
  100
AcDb2dVertex
  10
0.33340
  20
1.51084
  30
0.00000
  70
32
  0
VERTEX
  5
8A0
  100
AcDbEntity
  8
Layer 1
  62
0
  100
AcDb2dVertex
  10
0.32500
  20
1.51100
  30
0.00000
  42
-0.0958
  70
32
  0
VERTEX
  5
8A1
  100
AcDbEntity
  8
Layer 1
  62
0
  100
AcDb2dVertex
  10
0.30010
  20
1.51383
  30
0.00000
  42
-0.2131
  70
32
  0
VERTEX
  5
8A2
  100
AcDbEntity
  8
Layer 1
  62
0
  100
AcDb2dVertex
  10
0.28834
  20
1.52392
  30
0.00000
  42
-0.1009
  70
32
  0
VERTEX
  5
8A3
  100
AcDbEntity
  8
Layer 1
  62
0
  100
AcDb2dVertex
  10
0.28700
  20
1.53100
  30
0.00000
  42
-0.0260
  70
32
  0
VERTEX
  5
8A4
  100
AcDbEntity
  8
Layer 1
  62
0
  100
AcDb2dVertex
  10
0.28869
  20
1.54309
  30
0.00000
  70
32
  0
VERTEX
  5
8A5
  100
AcDbEntity
  8
Layer 1
  62
0
  100
AcDb2dVertex
  10
0.29000
  20
1.55100
  30
0.00000
  70
32
  0
VERTEX
  5
8A6
  100
AcDbEntity
  8
Layer 1
  62
0
  100
AcDb2dVertex
  10
0.31500
  20
1.54100
  30
0.00000
  70
32
  0
VERTEX
  5
8A7
  100
AcDbEntity
  8
Layer 1
  62
0
  100
AcDb2dVertex
  10
0.29000
  20
1.55100
  30
0.00000
  42
-0.1282
  70
32
  0
VERTEX
  5
8A8
  100
AcDbEntity
  8
Layer 1
  62
0
  100
AcDb2dVertex
  10
0.29733
  20
1.56878
  30
0.00000
  42
-0.2085
  70
32
  0
VERTEX
  5
8A9
  100
AcDbEntity
  8
Layer 1
  62
0
  100
AcDb2dVertex
  10
0.31200
  20
1.57600
  30
0.00000
  42
-0.1120
  70
32
  0
VERTEX
  5
8AA
  100
AcDbEntity
  8
Layer 1
  62
0
  100
AcDb2dVertex
  10
0.33676
  20
1.56965
  30
0.00000
  42
-0.0848
  70
32
  0
VERTEX
  5
8AB
  100
AcDbEntity
  8
Layer 1
  62
0
  100
AcDb2dVertex
  10
0.34500
  20
1.56300
  30
0.00000
  70
32
  0
VERTEX
  5
8AC
  100
AcDbEntity
  8
Layer 1
  62
0
  100
AcDb2dVertex
  10
0.36900
  20
1.53900
  30
0.00000
  42
-0.0451
  70
32
  0
VERTEX
  5
8AD
  100
AcDbEntity
  8
Layer 1
  62
0
  100
AcDb2dVertex
  10
0.44673
  20
1.51641
  30
0.00000
  42
-0.0706
  70
32
  0
VERTEX
  5
8AE
  100
AcDbEntity
  8
Layer 1
  62
0
  100
AcDb2dVertex
  10
0.49125
  20
1.49154
  30
0.00000
  42
-0.1199
  70
32
  0
VERTEX
  5
8AF
  100
AcDbEntity
  8
Layer 1
  62
0
  100
AcDb2dVertex
  10
0.51494
  20
1.46266
  30
0.00000
  42
-0.1072
  70
32
  0
VERTEX
  5
8B0
  100
AcDbEntity
  8
Layer 1
  62
0
  100
AcDb2dVertex
  10
0.52000
  20
1.43900
  30
0.00000
  70
32
  0
SEQEND
  5
8B1
  100
AcDbEntity
  8
Layer 1
  62
0
  0
POLYLINE
  5
8B2
  100
AcDbEntity
  8
Layer 1
  62
0
  100
AcDb2dPolyline
 66
     1
  10
0
  20
0
  30
0
  70
1
  0
VERTEX
  5
8B3
  100
AcDbEntity
  8
Layer 1
  62
0
  100
AcDb2dVertex
  10
0.95600
  20
1.12200
  30
0.00000
  42
-0.1331
  70
32
  0
VERTEX
  5
8B4
  100
AcDbEntity
  8
Layer 1
  62
0
  100
AcDb2dVertex
  10
0.95095
  20
1.10760
  30
0.00000
  42
-0.0377
  70
32
  0
VERTEX
  5
8B5
  100
AcDbEntity
  8
Layer 1
  62
0
  100
AcDb2dVertex
  10
0.94100
  20
1.09400
  30
0.00000
  42
0.0750
  70
32
  0
VERTEX
  5
8B6
  100
AcDbEntity
  8
Layer 1
  62
0
  100
AcDb2dVertex
  10
0.92748
  20
1.07149
  30
0.00000
  42
0.0844
  70
32
  0
VERTEX
  5
8B7
  100
AcDbEntity
  8
Layer 1
  62
0
  100
AcDb2dVertex
  10
0.92600
  20
1.06400
  30
0.00000
  42
0.0212
  70
32
  0
VERTEX
  5
8B8
  100
AcDbEntity
  8
Layer 1
  62
0
  100
AcDb2dVertex
  10
0.93700
  20
1.02700
  30
0.00000
  42
-0.1614
  70
32
  0
VERTEX
  5
8B9
  100
AcDbEntity
  8
Layer 1
  62
0
  100
AcDb2dVertex
  10
0.92244
  20
1.00088
  30
0.00000
  42
-0.1470
  70
32
  0
VERTEX
  5
8BA
  100
AcDbEntity
  8
Layer 1
  62
0
  100
AcDb2dVertex
  10
0.89700
  20
0.99000
  30
0.00000
  42
0.1695
  70
32
  0
VERTEX
  5
8BB
  100
AcDbEntity
  8
Layer 1
  62
0
  100
AcDb2dVertex
  10
0.85191
  20
0.96759
  30
0.00000
  42
0.0587
  70
32
  0
VERTEX
  5
8BC
  100
AcDbEntity
  8
Layer 1
  62
0
  100
AcDb2dVertex
  10
0.83400
  20
0.94500
  30
0.00000
  70
32
  0
VERTEX
  5
8BD
  100
AcDbEntity
  8
Layer 1
  62
0
  100
AcDb2dVertex
  10
0.80600
  20
0.93200
  30
0.00000
  70
32
  0
VERTEX
  5
8BE
  100
AcDbEntity
  8
Layer 1
  62
0
  100
AcDb2dVertex
  10
0.74200
  20
0.94700
  30
0.00000
  42
0.1531
  70
32
  0
VERTEX
  5
8BF
  100
AcDbEntity
  8
Layer 1
  62
0
  100
AcDb2dVertex
  10
0.71254
  20
0.93695
  30
0.00000
  70
32
  0
VERTEX
  5
8C0
  100
AcDbEntity
  8
Layer 1
  62
0
  100
AcDb2dVertex
  10
0.70600
  20
0.93200
  30
0.00000
  42
-0.0856
  70
32
  0
VERTEX
  5
8C1
  100
AcDbEntity
  8
Layer 1
  62
0
  100
AcDb2dVertex
  10
0.68634
  20
0.91841
  30
0.00000
  42
-0.0932
  70
32
  0
VERTEX
  5
8C2
  100
AcDbEntity
  8
Layer 1
  62
0
  100
AcDb2dVertex
  10
0.68000
  20
0.91700
  30
0.00000
  42
-0.2869
  70
32
  0
VERTEX
  5
8C3
  100
AcDbEntity
  8
Layer 1
  62
0
  100
AcDb2dVertex
  10
0.66358
  20
0.92697
  30
0.00000
  42
-0.1047
  70
32
  0
VERTEX
  5
8C4
  100
AcDbEntity
  8
Layer 1
  62
0
  100
AcDb2dVertex
  10
0.65758
  20
0.94905
  30
0.00000
  42
-0.0242
  70
32
  0
VERTEX
  5
8C5
  100
AcDbEntity
  8
Layer 1
  62
0
  100
AcDb2dVertex
  10
0.65700
  20
0.96200
  30
0.00000
  42
0.0326
  70
32
  0
VERTEX
  5
8C6
  100
AcDbEntity
  8
Layer 1
  62
0
  100
AcDb2dVertex
  10
0.65051
  20
0.98990
  30
0.00000
  70
32
  0
VERTEX
  5
8C7
  100
AcDbEntity
  8
Layer 1
  62
0
  100
AcDb2dVertex
  10
0.65013
  20
0.99052
  30
0.00000
  70
32
  0
VERTEX
  5
8C8
  100
AcDbEntity
  8
Layer 1
  62
0
  100
AcDb2dVertex
  10
0.65000
  20
0.99000
  30
0.00000
  42
-0.1168
  70
32
  0
VERTEX
  5
8C9
  100
AcDbEntity
  8
Layer 1
  62
0
  100
AcDb2dVertex
  10
0.65383
  20
1.01031
  30
0.00000
  42
-0.3035
  70
32
  0
VERTEX
  5
8CA
  100
AcDbEntity
  8
Layer 1
  62
0
  100
AcDb2dVertex
  10
0.67000
  20
1.02000
  30
0.00000
  42
-0.0682
  70
32
  0
VERTEX
  5
8CB
  100
AcDbEntity
  8
Layer 1
  62
0
  100
AcDb2dVertex
  10
0.68800
  20
1.01700
  30
0.00000
  42
0.0642
  70
32
  0
VERTEX
  5
8CC
  100
AcDbEntity
  8
Layer 1
  62
0
  100
AcDb2dVertex
  10
0.70500
  20
1.01400
  30
0.00000
  42
0.0241
  70
32
  0
VERTEX
  5
8CD
  100
AcDbEntity
  8
Layer 1
  62
0
  100
AcDb2dVertex
  10
0.75109
  20
1.01543
  30
0.00000
  42
0.0921
  70
32
  0
VERTEX
  5
8CE
  100
AcDbEntity
  8
Layer 1
  62
0
  100
AcDb2dVertex
  10
0.75800
  20
1.01700
  30
0.00000
  42
0.1682
  70
32
  0
VERTEX
  5
8CF
  100
AcDbEntity
  8
Layer 1
  62
0
  100
AcDb2dVertex
  10
0.76018
  20
1.02228
  30
0.00000
  42
0.0381
  70
32
  0
VERTEX
  5
8D0
  100
AcDbEntity
  8
Layer 1
  62
0
  100
AcDb2dVertex
  10
0.76195
  20
1.05193
  30
0.00000
  70
32
  0
VERTEX
  5
8D1
  100
AcDbEntity
  8
Layer 1
  62
0
  100
AcDb2dVertex
  10
0.76200
  20
1.06200
  30
0.00000
  42
-0.1581
  70
32
  0
VERTEX
  5
8D2
  100
AcDbEntity
  8
Layer 1
  62
0
  100
AcDb2dVertex
  10
0.77277
  20
1.09235
  30
0.00000
  42
-0.0300
  70
32
  0
VERTEX
  5
8D3
  100
AcDbEntity
  8
Layer 1
  62
0
  100
AcDb2dVertex
  10
0.77900
  20
1.10000
  30
0.00000
  42
-0.1753
  70
32
  0
VERTEX
  5
8D4
  100
AcDbEntity
  8
Layer 1
  62
0
  100
AcDb2dVertex
  10
0.79445
  20
1.12112
  30
0.00000
  42
-0.0770
  70
32
  0
VERTEX
  5
8D5
  100
AcDbEntity
  8
Layer 1
  62
0
  100
AcDb2dVertex
  10
0.82100
  20
1.13400
  30
0.00000
  42
0.0699
  70
32
  0
VERTEX
  5
8D6
  100
AcDbEntity
  8
Layer 1
  62
0
  100
AcDb2dVertex
  10
0.84864
  20
1.14585
  30
0.00000
  42
0.1545
  70
32
  0
VERTEX
  5
8D7
  100
AcDbEntity
  8
Layer 1
  62
0
  100
AcDb2dVertex
  10
0.85571
  20
1.15334
  30
0.00000
  70
32
  0
VERTEX
  5
8D8
  100
AcDbEntity
  8
Layer 1
  62
0
  100
AcDb2dVertex
  10
0.85600
  20
1.15500
  30
0.00000
  42
-0.1356
  70
32
  0
VERTEX
  5
8D9
  100
AcDbEntity
  8
Layer 1
  62
0
  100
AcDb2dVertex
  10
0.84400
  20
1.19900
  30
0.00000
  42
0.1218
  70
32
  0
VERTEX
  5
8DA
  100
AcDbEntity
  8
Layer 1
  62
0
  100
AcDb2dVertex
  10
0.83922
  20
1.21175
  30
0.00000
  70
32
  0
VERTEX
  5
8DB
  100
AcDbEntity
  8
Layer 1
  62
0
  100
AcDb2dVertex
  10
0.83500
  20
1.21800
  30
0.00000
  42
-0.1614
  70
32
  0
VERTEX
  5
8DC
  100
AcDbEntity
  8
Layer 1
  62
0
  100
AcDb2dVertex
  10
0.82600
  20
1.24158
  30
0.00000
  70
32
  0
VERTEX
  5
8DD
  100
AcDbEntity
  8
Layer 1
  62
0
  100
AcDb2dVertex
  10
0.82600
  20
1.24200
  30
0.00000
  42
-0.2795
  70
32
  0
VERTEX
  5
8DE
  100
AcDbEntity
  8
Layer 1
  62
0
  100
AcDb2dVertex
  10
0.83691
  20
1.26127
  30
0.00000
  42
-0.0347
  70
32
  0
VERTEX
  5
8DF
  100
AcDbEntity
  8
Layer 1
  62
0
  100
AcDb2dVertex
  10
0.84200
  20
1.26400
  30
0.00000
  70
32
  0
VERTEX
  5
8E0
  100
AcDbEntity
  8
Layer 1
  62
0
  100
AcDb2dVertex
  10
0.85837
  20
1.26987
  30
0.00000
  70
32
  0
VERTEX
  5
8E1
  100
AcDbEntity
  8
Layer 1
  62
0
  100
AcDb2dVertex
  10
0.87400
  20
1.27500
  30
0.00000
  70
32
  0
VERTEX
  5
8E2
  100
AcDbEntity
  8
Layer 1
  62
0
  100
AcDb2dVertex
  10
0.90200
  20
1.27500
  30
0.00000
  42
-0.1970
  70
32
  0
VERTEX
  5
8E3
  100
AcDbEntity
  8
Layer 1
  62
0
  100
AcDb2dVertex
  10
0.91603
  20
1.27233
  30
0.00000
  42
-0.1889
  70
32
  0
VERTEX
  5
8E4
  100
AcDbEntity
  8
Layer 1
  62
0
  100
AcDb2dVertex
  10
0.92304
  20
1.25974
  30
0.00000
  42
-0.0502
  70
32
  0
VERTEX
  5
8E5
  100
AcDbEntity
  8
Layer 1
  62
0
  100
AcDb2dVertex
  10
0.92400
  20
1.24900
  30
0.00000
  42
-0.0384
  70
32
  0
VERTEX
  5
8E6
  100
AcDbEntity
  8
Layer 1
  62
0
  100
AcDb2dVertex
  10
0.92100
  20
1.22300
  30
0.00000
  42
0.0605
  70
32
  0
VERTEX
  5
8E7
  100
AcDbEntity
  8
Layer 1
  62
0
  100
AcDb2dVertex
  10
0.91700
  20
1.19700
  30
0.00000
  42
0.1172
  70
32
  0
VERTEX
  5
8E8
  100
AcDbEntity
  8
Layer 1
  62
0
  100
AcDb2dVertex
  10
0.92174
  20
1.18249
  30
0.00000
  42
0.0369
  70
32
  0
VERTEX
  5
8E9
  100
AcDbEntity
  8
Layer 1
  62
0
  100
AcDb2dVertex
  10
0.93600
  20
1.16100
  30
0.00000
  42
-0.0702
  70
32
  0
VERTEX
  5
8EA
  100
AcDbEntity
  8
Layer 1
  62
0
  100
AcDb2dVertex
  10
0.95319
  20
1.13430
  30
0.00000
  42
-0.0973
  70
32
  0
VERTEX
  5
8EB
  100
AcDbEntity
  8
Layer 1
  62
0
  100
AcDb2dVertex
  10
0.95600
  20
1.12200
  30
0.00000
  70
32
  0
SEQEND
  5
8EC
  100
AcDbEntity
  8
Layer 1
  62
0
  0
POLYLINE
  5
8ED
  100
AcDbEntity
  8
Layer 1
  62
0
  100
AcDb2dPolyline
 66
     1
  10
0
  20
0
  30
0
  70
1
  0
VERTEX
  5
8EE
  100
AcDbEntity
  8
Layer 1
  62
0
  100
AcDb2dVertex
  10
0.79700
  20
1.24900
  30
0.00000
  42
-0.1912
  70
32
  0
VERTEX
  5
8EF
  100
AcDbEntity
  8
Layer 1
  62
0
  100
AcDb2dVertex
  10
0.78569
  20
1.21577
  30
0.00000
  42
-0.0634
  70
32
  0
VERTEX
  5
8F0
  100
AcDbEntity
  8
Layer 1
  62
0
  100
AcDb2dVertex
  10
0.76900
  20
1.20000
  30
0.00000
  42
-0.1232
  70
32
  0
VERTEX
  5
8F1
  100
AcDbEntity
  8
Layer 1
  62
0
  100
AcDb2dVertex
  10
0.71500
  20
1.17400
  30
0.00000
  70
32
  0
VERTEX
  5
8F2
  100
AcDbEntity
  8
Layer 1
  62
0
  100
AcDb2dVertex
  10
0.70700
  20
1.16500
  30
0.00000
  70
32
  0
VERTEX
  5
8F3
  100
AcDbEntity
  8
Layer 1
  62
0
  100
AcDb2dVertex
  10
0.71900
  20
1.12500
  30
0.00000
  42
-0.2781
  70
32
  0
VERTEX
  5
8F4
  100
AcDbEntity
  8
Layer 1
  62
0
  100
AcDb2dVertex
  10
0.71308
  20
1.11578
  30
0.00000
  42
-0.0985
  70
32
  0
VERTEX
  5
8F5
  100
AcDbEntity
  8
Layer 1
  62
0
  100
AcDb2dVertex
  10
0.69468
  20
1.11042
  30
0.00000
  42
-0.0329
  70
32
  0
VERTEX
  5
8F6
  100
AcDbEntity
  8
Layer 1
  62
0
  100
AcDb2dVertex
  10
0.66900
  20
1.10900
  30
0.00000
  42
-0.1015
  70
32
  0
VERTEX
  5
8F7
  100
AcDbEntity
  8
Layer 1
  62
0
  100
AcDb2dVertex
  10
0.65541
  20
1.11087
  30
0.00000
  42
-0.1723
  70
32
  0
VERTEX
  5
8F8
  100
AcDbEntity
  8
Layer 1
  62
0
  100
AcDb2dVertex
  10
0.65200
  20
1.11400
  30
0.00000
  42
-0.1667
  70
32
  0
VERTEX
  5
8F9
  100
AcDbEntity
  8
Layer 1
  62
0
  100
AcDb2dVertex
  10
0.64975
  20
1.12681
  30
0.00000
  70
32
  0
VERTEX
  5
8FA
  100
AcDbEntity
  8
Layer 1
  62
0
  100
AcDb2dVertex
  10
0.65000
  20
1.12900
  30
0.00000
  42
0.0516
  70
32
  0
VERTEX
  5
8FB
  100
AcDbEntity
  8
Layer 1
  62
0
  100
AcDb2dVertex
  10
0.65200
  20
1.14700
  30
0.00000
  42
0.2012
  70
32
  0
VERTEX
  5
8FC
  100
AcDbEntity
  8
Layer 1
  62
0
  100
AcDb2dVertex
  10
0.64639
  20
1.15828
  30
0.00000
  42
0.0847
  70
32
  0
VERTEX
  5
8FD
  100
AcDbEntity
  8
Layer 1
  62
0
  100
AcDb2dVertex
  10
0.62578
  20
1.17139
  30
0.00000
  42
0.0258
  70
32
  0
VERTEX
  5
8FE
  100
AcDbEntity
  8
Layer 1
  62
0
  100
AcDb2dVertex
  10
0.60400
  20
1.18000
  30
0.00000
  42
-0.0976
  70
32
  0
VERTEX
  5
8FF
  100
AcDbEntity
  8
Layer 1
  62
0
  100
AcDb2dVertex
  10
0.57133
  20
1.19780
  30
0.00000
  42
-0.1915
  70
32
  0
VERTEX
  5
900
  100
AcDbEntity
  8
Layer 1
  62
0
  100
AcDb2dVertex
  10
0.55527
  20
1.22707
  30
0.00000
  70
32
  0
VERTEX
  5
901
  100
AcDbEntity
  8
Layer 1
  62
0
  100
AcDb2dVertex
  10
0.55500
  20
1.23200
  30
0.00000
  42
-0.1755
  70
32
  0
VERTEX
  5
902
  100
AcDbEntity
  8
Layer 1
  62
0
  100
AcDb2dVertex
  10
0.55817
  20
1.24345
  30
0.00000
  42
-0.2295
  70
32
  0
VERTEX
  5
903
  100
AcDbEntity
  8
Layer 1
  62
0
  100
AcDb2dVertex
  10
0.56700
  20
1.24700
  30
0.00000
  42
-0.1663
  70
32
  0
VERTEX
  5
904
  100
AcDbEntity
  8
Layer 1
  62
0
  100
AcDb2dVertex
  10
0.57475
  20
1.24317
  30
0.00000
  42
-0.0405
  70
32
  0
VERTEX
  5
905
  100
AcDbEntity
  8
Layer 1
  62
0
  100
AcDb2dVertex
  10
0.59000
  20
1.22700
  30
0.00000
  42
0.0365
  70
32
  0
VERTEX
  5
906
  100
AcDbEntity
  8
Layer 1
  62
0
  100
AcDb2dVertex
  10
0.60792
  20
1.20578
  30
0.00000
  70
32
  0
VERTEX
  5
907
  100
AcDbEntity
  8
Layer 1
  62
0
  100
AcDb2dVertex
  10
0.60900
  20
1.20500
  30
0.00000
  42
0.1146
  70
32
  0
VERTEX
  5
908
  100
AcDbEntity
  8
Layer 1
  62
0
  100
AcDb2dVertex
  10
0.62742
  20
1.19720
  30
0.00000
  42
0.0395
  70
32
  0
VERTEX
  5
909
  100
AcDbEntity
  8
Layer 1
  62
0
  100
AcDb2dVertex
  10
0.64400
  20
1.19500
  30
0.00000
  70
32
  0
VERTEX
  5
90A
  100
AcDbEntity
  8
Layer 1
  62
0
  100
AcDb2dVertex
  10
0.68200
  20
1.19200
  30
0.00000
  70
32
  0
VERTEX
  5
90B
  100
AcDbEntity
  8
Layer 1
  62
0
  100
AcDb2dVertex
  10
0.68400
  20
1.17200
  30
0.00000
  70
32
  0
VERTEX
  5
90C
  100
AcDbEntity
  8
Layer 1
  62
0
  100
AcDb2dVertex
  10
0.68200
  20
1.19200
  30
0.00000
  42
0.1742
  70
32
  0
VERTEX
  5
90D
  100
AcDbEntity
  8
Layer 1
  62
0
  100
AcDb2dVertex
  10
0.74000
  20
1.21200
  30
0.00000
  70
32
  0
VERTEX
  5
90E
  100
AcDbEntity
  8
Layer 1
  62
0
  100
AcDb2dVertex
  10
0.76104
  20
1.23354
  30
0.00000
  70
32
  0
VERTEX
  5
90F
  100
AcDbEntity
  8
Layer 1
  62
0
  100
AcDb2dVertex
  10
0.78200
  20
1.25500
  30
0.00000
  70
32
  0
VERTEX
  5
910
  100
AcDbEntity
  8
Layer 1
  62
0
  100
AcDb2dVertex
  10
0.78900
  20
1.25700
  30
0.00000
  70
32
  0
VERTEX
  5
911
  100
AcDbEntity
  8
Layer 1
  62
0
  100
AcDb2dVertex
  10
0.79600
  20
1.25400
  30
0.00000
  70
32
  0
VERTEX
  5
912
  100
AcDbEntity
  8
Layer 1
  62
0
  100
AcDb2dVertex
  10
0.79700
  20
1.24900
  30
0.00000
  70
32
  0
SEQEND
  5
913
  100
AcDbEntity
  8
Layer 1
  62
0
  0
POLYLINE
  5
914
  100
AcDbEntity
  8
Layer 1
  62
0
  100
AcDb2dPolyline
 66
     1
  10
0
  20
0
  30
0
  70
1
  0
VERTEX
  5
915
  100
AcDbEntity
  8
Layer 1
  62
0
  100
AcDb2dVertex
  10
0.70000
  20
1.23400
  30
0.00000
  42
-0.2668
  70
32
  0
VERTEX
  5
916
  100
AcDbEntity
  8
Layer 1
  62
0
  100
AcDb2dVertex
  10
0.69769
  20
1.22820
  30
0.00000
  42
-0.1424
  70
32
  0
VERTEX
  5
917
  100
AcDbEntity
  8
Layer 1
  62
0
  100
AcDb2dVertex
  10
0.69200
  20
1.22700
  30
0.00000
  42
0.5339
  70
32
  0
VERTEX
  5
918
  100
AcDbEntity
  8
Layer 1
  62
0
  100
AcDb2dVertex
  10
0.69309
  20
1.22758
  30
0.00000
  42
0.1177
  70
32
  0
VERTEX
  5
919
  100
AcDbEntity
  8
Layer 1
  62
0
  100
AcDb2dVertex
  10
0.68848
  20
1.23133
  30
0.00000
  42
0.0178
  70
32
  0
VERTEX
  5
91A
  100
AcDbEntity
  8
Layer 1
  62
0
  100
AcDb2dVertex
  10
0.65800
  20
1.24800
  30
0.00000
  42
0.0878
  70
32
  0
VERTEX
  5
91B
  100
AcDbEntity
  8
Layer 1
  62
0
  100
AcDb2dVertex
  10
0.59461
  20
1.26671
  30
0.00000
  42
0.0319
  70
32
  0
VERTEX
  5
91C
  100
AcDbEntity
  8
Layer 1
  62
0
  100
AcDb2dVertex
  10
0.55700
  20
1.26900
  30
0.00000
  42
0.0622
  70
32
  0
VERTEX
  5
91D
  100
AcDbEntity
  8
Layer 1
  62
0
  100
AcDb2dVertex
  10
0.51972
  20
1.26303
  30
0.00000
  70
32
  0
VERTEX
  5
91E
  100
AcDbEntity
  8
Layer 1
  62
0
  100
AcDb2dVertex
  10
0.50900
  20
1.26000
  30
0.00000
  42
-0.0413
  70
32
  0
VERTEX
  5
91F
  100
AcDbEntity
  8
Layer 1
  62
0
  100
AcDb2dVertex
  10
0.46701
  20
1.25218
  30
0.00000
  70
32
  0
VERTEX
  5
920
  100
AcDbEntity
  8
Layer 1
  62
0
  100
AcDb2dVertex
  10
0.46200
  20
1.25200
  30
0.00000
  42
-0.2866
  70
32
  0
VERTEX
  5
921
  100
AcDbEntity
  8
Layer 1
  62
0
  100
AcDb2dVertex
  10
0.44431
  20
1.26169
  30
0.00000
  42
-0.1280
  70
32
  0
VERTEX
  5
922
  100
AcDbEntity
  8
Layer 1
  62
0
  100
AcDb2dVertex
  10
0.44000
  20
1.28165
  30
0.00000
  70
32
  0
VERTEX
  5
923
  100
AcDbEntity
  8
Layer 1
  62
0
  100
AcDb2dVertex
  10
0.44000
  20
1.28200
  30
0.00000
  70
32
  0
VERTEX
  5
924
  100
AcDbEntity
  8
Layer 1
  62
0
  100
AcDb2dVertex
  10
0.46700
  20
1.28400
  30
0.00000
  70
32
  0
VERTEX
  5
925
  100
AcDbEntity
  8
Layer 1
  62
0
  100
AcDb2dVertex
  10
0.44000
  20
1.28200
  30
0.00000
  42
-0.0810
  70
32
  0
VERTEX
  5
926
  100
AcDbEntity
  8
Layer 1
  62
0
  100
AcDb2dVertex
  10
0.44615
  20
1.30520
  30
0.00000
  42
-0.2081
  70
32
  0
VERTEX
  5
927
  100
AcDbEntity
  8
Layer 1
  62
0
  100
AcDb2dVertex
  10
0.45581
  20
1.31440
  30
0.00000
  42
-0.0750
  70
32
  0
VERTEX
  5
928
  100
AcDbEntity
  8
Layer 1
  62
0
  100
AcDb2dVertex
  10
0.46000
  20
1.31500
  30
0.00000
  42
-0.1122
  70
32
  0
VERTEX
  5
929
  100
AcDbEntity
  8
Layer 1
  62
0
  100
AcDb2dVertex
  10
0.50300
  20
1.30500
  30
0.00000
  70
32
  0
VERTEX
  5
92A
  100
AcDbEntity
  8
Layer 1
  62
0
  100
AcDb2dVertex
  10
0.51431
  20
1.30042
  30
0.00000
  70
32
  0
VERTEX
  5
92B
  100
AcDbEntity
  8
Layer 1
  62
0
  100
AcDb2dVertex
  10
0.52421
  20
1.29645
  30
0.00000
  42
0.0636
  70
32
  0
VERTEX
  5
92C
  100
AcDbEntity
  8
Layer 1
  62
0
  100
AcDb2dVertex
  10
0.52900
  20
1.29500
  30
0.00000
  42
-0.0366
  70
32
  0
VERTEX
  5
92D
  100
AcDbEntity
  8
Layer 1
  62
0
  100
AcDb2dVertex
  10
0.61593
  20
1.28962
  30
0.00000
  42
-0.0608
  70
32
  0
VERTEX
  5
92E
  100
AcDbEntity
  8
Layer 1
  62
0
  100
AcDb2dVertex
  10
0.66401
  20
1.27727
  30
0.00000
  42
-0.1079
  70
32
  0
VERTEX
  5
92F
  100
AcDbEntity
  8
Layer 1
  62
0
  100
AcDb2dVertex
  10
0.68962
  20
1.26050
  30
0.00000
  42
-0.1942
  70
32
  0
VERTEX
  5
930
  100
AcDbEntity
  8
Layer 1
  62
0
  100
AcDb2dVertex
  10
0.70000
  20
1.23400
  30
0.00000
  70
32
  0
SEQEND
  5
931
  100
AcDbEntity
  8
Layer 1
  62
0
  0
POLYLINE
  5
932
  100
AcDbEntity
  8
Layer 1
  62
0
  100
AcDb2dPolyline
 66
     1
  10
0
  20
0
  30
0
  70
1
  0
VERTEX
  5
933
  100
AcDbEntity
  8
Layer 1
  62
0
  100
AcDb2dVertex
  10
1.83400
  20
0.08900
  30
0.00000
  70
32
  0
VERTEX
  5
934
  100
AcDbEntity
  8
Layer 1
  62
0
  100
AcDb2dVertex
  10
1.83200
  20
0.07400
  30
0.00000
  70
32
  0
VERTEX
  5
935
  100
AcDbEntity
  8
Layer 1
  62
0
  100
AcDb2dVertex
  10
1.83100
  20
0.02900
  30
0.00000
  42
-0.1806
  70
32
  0
VERTEX
  5
936
  100
AcDbEntity
  8
Layer 1
  62
0
  100
AcDb2dVertex
  10
1.82587
  20
0.01244
  30
0.00000
  42
-0.1990
  70
32
  0
VERTEX
  5
937
  100
AcDbEntity
  8
Layer 1
  62
0
  100
AcDb2dVertex
  10
1.81006
  20
0.00519
  30
0.00000
  70
32
  0
VERTEX
  5
938
  100
AcDbEntity
  8
Layer 1
  62
0
  100
AcDb2dVertex
  10
1.80600
  20
0.00500
  30
0.00000
  42
-0.1006
  70
32
  0
VERTEX
  5
939
  100
AcDbEntity
  8
Layer 1
  62
0
  100
AcDb2dVertex
  10
1.79399
  20
0.00879
  30
0.00000
  42
-0.0131
  70
32
  0
VERTEX
  5
93A
  100
AcDbEntity
  8
Layer 1
  62
0
  100
AcDb2dVertex
  10
1.78000
  20
0.01600
  30
0.00000
  42
0.1267
  70
32
  0
VERTEX
  5
93B
  100
AcDbEntity
  8
Layer 1
  62
0
  100
AcDb2dVertex
  10
1.73400
  20
0.02700
  30
0.00000
  42
-0.1831
  70
32
  0
VERTEX
  5
93C
  100
AcDbEntity
  8
Layer 1
  62
0
  100
AcDb2dVertex
  10
1.71813
  20
0.03386
  30
0.00000
  42
-0.0348
  70
32
  0
VERTEX
  5
93D
  100
AcDbEntity
  8
Layer 1
  62
0
  100
AcDb2dVertex
  10
1.71300
  20
0.03900
  30
0.00000
  42
0.0665
  70
32
  0
VERTEX
  5
93E
  100
AcDbEntity
  8
Layer 1
  62
0
  100
AcDb2dVertex
  10
1.70049
  20
0.04956
  30
0.00000
  70
32
  0
VERTEX
  5
93F
  100
AcDbEntity
  8
Layer 1
  62
0
  100
AcDb2dVertex
  10
1.69900
  20
0.05000
  30
0.00000
  42
0.1559
  70
32
  0
VERTEX
  5
940
  100
AcDbEntity
  8
Layer 1
  62
0
  100
AcDb2dVertex
  10
1.69015
  20
0.04509
  30
0.00000
  70
32
  0
VERTEX
  5
941
  100
AcDbEntity
  8
Layer 1
  62
0
  100
AcDb2dVertex
  10
1.68900
  20
0.04400
  30
0.00000
  70
32
  0
VERTEX
  5
942
  100
AcDbEntity
  8
Layer 1
  62
0
  100
AcDb2dVertex
  10
1.68388
  20
0.03800
  30
0.00000
  70
32
  0
VERTEX
  5
943
  100
AcDbEntity
  8
Layer 1
  62
0
  100
AcDb2dVertex
  10
1.68100
  20
0.03500
  30
0.00000
  42
-0.0178
  70
32
  0
VERTEX
  5
944
  100
AcDbEntity
  8
Layer 1
  62
0
  100
AcDb2dVertex
  10
1.63600
  20
0.02900
  30
0.00000
  42
-0.0588
  70
32
  0
VERTEX
  5
945
  100
AcDbEntity
  8
Layer 1
  62
0
  100
AcDb2dVertex
  10
1.60542
  20
0.00885
  30
0.00000
  42
-0.1051
  70
32
  0
VERTEX
  5
946
  100
AcDbEntity
  8
Layer 1
  62
0
  100
AcDb2dVertex
  10
1.59100
  20
0.00500
  30
0.00000
  42
-0.1806
  70
32
  0
VERTEX
  5
947
  100
AcDbEntity
  8
Layer 1
  62
0
  100
AcDb2dVertex
  10
1.57444
  20
0.01013
  30
0.00000
  42
-0.1990
  70
32
  0
VERTEX
  5
948
  100
AcDbEntity
  8
Layer 1
  62
0
  100
AcDb2dVertex
  10
1.56719
  20
0.02594
  30
0.00000
  70
32
  0
VERTEX
  5
949
  100
AcDbEntity
  8
Layer 1
  62
0
  100
AcDb2dVertex
  10
1.56700
  20
0.03000
  30
0.00000
  70
32
  0
VERTEX
  5
94A
  100
AcDbEntity
  8
Layer 1
  62
0
  100
AcDb2dVertex
  10
1.56700
  20
0.07400
  30
0.00000
  70
32
  0
VERTEX
  5
94B
  100
AcDbEntity
  8
Layer 1
  62
0
  100
AcDb2dVertex
  10
1.56700
  20
0.11700
  30
0.00000
  42
-0.2291
  70
32
  0
VERTEX
  5
94C
  100
AcDbEntity
  8
Layer 1
  62
0
  100
AcDb2dVertex
  10
1.57385
  20
0.13355
  30
0.00000
  42
-0.1720
  70
32
  0
VERTEX
  5
94D
  100
AcDbEntity
  8
Layer 1
  62
0
  100
AcDb2dVertex
  10
1.59114
  20
0.13899
  30
0.00000
  70
32
  0
VERTEX
  5
94E
  100
AcDbEntity
  8
Layer 1
  62
0
  100
AcDb2dVertex
  10
1.59200
  20
0.13900
  30
0.00000
  42
-0.1406
  70
32
  0
VERTEX
  5
94F
  100
AcDbEntity
  8
Layer 1
  62
0
  100
AcDb2dVertex
  10
1.60747
  20
0.13360
  30
0.00000
  42
-0.0257
  70
32
  0
VERTEX
  5
950
  100
AcDbEntity
  8
Layer 1
  62
0
  100
AcDb2dVertex
  10
1.61400
  20
0.12900
  30
0.00000
  42
0.0986
  70
32
  0
VERTEX
  5
951
  100
AcDbEntity
  8
Layer 1
  62
0
  100
AcDb2dVertex
  10
1.63218
  20
0.12047
  30
0.00000
  42
0.0479
  70
32
  0
VERTEX
  5
952
  100
AcDbEntity
  8
Layer 1
  62
0
  100
AcDb2dVertex
  10
1.63700
  20
0.12000
  30
0.00000
  42
-0.0240
  70
32
  0
VERTEX
  5
953
  100
AcDbEntity
  8
Layer 1
  62
0
  100
AcDb2dVertex
  10
1.67100
  20
0.11700
  30
0.00000
  42
-0.0804
  70
32
  0
VERTEX
  5
954
  100
AcDbEntity
  8
Layer 1
  62
0
  100
AcDb2dVertex
  10
1.67979
  20
0.11060
  30
0.00000
  70
32
  0
VERTEX
  5
955
  100
AcDbEntity
  8
Layer 1
  62
0
  100
AcDb2dVertex
  10
1.68400
  20
0.10700
  30
0.00000
  42
0.1450
  70
32
  0
VERTEX
  5
956
  100
AcDbEntity
  8
Layer 1
  62
0
  100
AcDb2dVertex
  10
1.69636
  20
0.09928
  30
0.00000
  70
32
  0
VERTEX
  5
957
  100
AcDbEntity
  8
Layer 1
  62
0
  100
AcDb2dVertex
  10
1.69900
  20
0.09900
  30
0.00000
  42
0.0891
  70
32
  0
VERTEX
  5
958
  100
AcDbEntity
  8
Layer 1
  62
0
  100
AcDb2dVertex
  10
1.70623
  20
0.10345
  30
0.00000
  70
32
  0
VERTEX
  5
959
  100
AcDbEntity
  8
Layer 1
  62
0
  100
AcDb2dVertex
  10
1.71300
  20
0.10900
  30
0.00000
  42
-0.1493
  70
32
  0
VERTEX
  5
95A
  100
AcDbEntity
  8
Layer 1
  62
0
  100
AcDb2dVertex
  10
1.74900
  20
0.11900
  30
0.00000
  42
0.1503
  70
32
  0
VERTEX
  5
95B
  100
AcDbEntity
  8
Layer 1
  62
0
  100
AcDb2dVertex
  10
1.77625
  20
0.12809
  30
0.00000
  70
32
  0
VERTEX
  5
95C
  100
AcDbEntity
  8
Layer 1
  62
0
  100
AcDb2dVertex
  10
1.77900
  20
0.13000
  30
0.00000
  42
-0.1041
  70
32
  0
VERTEX
  5
95D
  100
AcDbEntity
  8
Layer 1
  62
0
  100
AcDb2dVertex
  10
1.80243
  20
0.14151
  30
0.00000
  42
-0.0487
  70
32
  0
VERTEX
  5
95E
  100
AcDbEntity
  8
Layer 1
  62
0
  100
AcDb2dVertex
  10
1.80700
  20
0.14200
  30
0.00000
  42
-0.2833
  70
32
  0
VERTEX
  5
95F
  100
AcDbEntity
  8
Layer 1
  62
0
  100
AcDb2dVertex
  10
1.82610
  20
0.13072
  30
0.00000
  42
-0.1028
  70
32
  0
VERTEX
  5
960
  100
AcDbEntity
  8
Layer 1
  62
0
  100
AcDb2dVertex
  10
1.83303
  20
0.10703
  30
0.00000
  42
-0.0295
  70
32
  0
VERTEX
  5
961
  100
AcDbEntity
  8
Layer 1
  62
0
  100
AcDb2dVertex
  10
1.83400
  20
0.08900
  30
0.00000
  70
32
  0
SEQEND
  5
962
  100
AcDbEntity
  8
Layer 1
  62
0
  0
POLYLINE
  5
963
  100
AcDbEntity
  8
Layer 1
  62
0
  100
AcDb2dPolyline
 66
     1
  10
0
  20
0
  30
0
  70
1
  0
VERTEX
  5
964
  100
AcDbEntity
  8
Layer 1
  62
0
  100
AcDb2dVertex
  10
0.43400
  20
1.39000
  30
0.00000
  42
-0.2812
  70
32
  0
VERTEX
  5
965
  100
AcDbEntity
  8
Layer 1
  62
0
  100
AcDb2dVertex
  10
0.42985
  20
1.38432
  30
0.00000
  42
-0.0940
  70
32
  0
VERTEX
  5
966
  100
AcDbEntity
  8
Layer 1
  62
0
  100
AcDb2dVertex
  10
0.41302
  20
1.38001
  30
0.00000
  42
-0.0279
  70
32
  0
VERTEX
  5
967
  100
AcDbEntity
  8
Layer 1
  62
0
  100
AcDb2dVertex
  10
0.39200
  20
1.37900
  30
0.00000
  42
-0.1059
  70
32
  0
VERTEX
  5
968
  100
AcDbEntity
  8
Layer 1
  62
0
  100
AcDb2dVertex
  10
0.36500
  20
1.38500
  30
0.00000
  42
0.0625
  70
32
  0
VERTEX
  5
969
  100
AcDbEntity
  8
Layer 1
  62
0
  100
AcDb2dVertex
  10
0.34720
  20
1.39000
  30
0.00000
  70
32
  0
VERTEX
  5
96A
  100
AcDbEntity
  8
Layer 1
  62
0
  100
AcDb2dVertex
  10
0.34700
  20
1.39000
  30
0.00000
  42
0.0461
  70
32
  0
VERTEX
  5
96B
  100
AcDbEntity
  8
Layer 1
  62
0
  100
AcDb2dVertex
  10
0.27640
  20
1.38447
  30
0.00000
  42
0.0787
  70
32
  0
VERTEX
  5
96C
  100
AcDbEntity
  8
Layer 1
  62
0
  100
AcDb2dVertex
  10
0.23363
  20
1.37019
  30
0.00000
  42
0.0347
  70
32
  0
VERTEX
  5
96D
  100
AcDbEntity
  8
Layer 1
  62
0
  100
AcDb2dVertex
  10
0.22400
  20
1.36400
  30
0.00000
  70
32
  0
VERTEX
  5
96E
  100
AcDbEntity
  8
Layer 1
  62
0
  100
AcDb2dVertex
  10
0.22174
  20
1.36136
  30
0.00000
  42
-0.0200
  70
32
  0
VERTEX
  5
96F
  100
AcDbEntity
  8
Layer 1
  62
0
  100
AcDb2dVertex
  10
0.20700
  20
1.34500
  30
0.00000
  42
-0.0657
  70
32
  0
VERTEX
  5
970
  100
AcDbEntity
  8
Layer 1
  62
0
  100
AcDb2dVertex
  10
0.19167
  20
1.33499
  30
0.00000
  42
-0.0935
  70
32
  0
VERTEX
  5
971
  100
AcDbEntity
  8
Layer 1
  62
0
  100
AcDb2dVertex
  10
0.18700
  20
1.33400
  30
0.00000
  70
32
  0
VERTEX
  5
972
  100
AcDbEntity
  8
Layer 1
  62
0
  100
AcDb2dVertex
  10
0.17900
  20
1.33700
  30
0.00000
  70
32
  0
VERTEX
  5
973
  100
AcDbEntity
  8
Layer 1
  62
0
  100
AcDb2dVertex
  10
0.17700
  20
1.34400
  30
0.00000
  42
-0.2277
  70
32
  0
VERTEX
  5
974
  100
AcDbEntity
  8
Layer 1
  62
0
  100
AcDb2dVertex
  10
0.19399
  20
1.38026
  30
0.00000
  42
-0.0948
  70
32
  0
VERTEX
  5
975
  100
AcDbEntity
  8
Layer 1
  62
0
  100
AcDb2dVertex
  10
0.22596
  20
1.39754
  30
0.00000
  42
-0.0563
  70
32
  0
VERTEX
  5
976
  100
AcDbEntity
  8
Layer 1
  62
0
  100
AcDb2dVertex
  10
0.28304
  20
1.40915
  30
0.00000
  42
-0.0260
  70
32
  0
VERTEX
  5
977
  100
AcDbEntity
  8
Layer 1
  62
0
  100
AcDb2dVertex
  10
0.34400
  20
1.41200
  30
0.00000
  42
0.1544
  70
32
  0
VERTEX
  5
978
  100
AcDbEntity
  8
Layer 1
  62
0
  100
AcDb2dVertex
  10
0.35636
  20
1.41712
  30
0.00000
  42
0.0511
  70
32
  0
VERTEX
  5
979
  100
AcDbEntity
  8
Layer 1
  62
0
  100
AcDb2dVertex
  10
0.36700
  20
1.42700
  30
0.00000
  42
-0.2226
  70
32
  0
VERTEX
  5
97A
  100
AcDbEntity
  8
Layer 1
  62
0
  100
AcDb2dVertex
  10
0.40000
  20
1.44200
  30
0.00000
  42
-0.1730
  70
32
  0
VERTEX
  5
97B
  100
AcDbEntity
  8
Layer 1
  62
0
  100
AcDb2dVertex
  10
0.41956
  20
1.43419
  30
0.00000
  70
32
  0
VERTEX
  5
97C
  100
AcDbEntity
  8
Layer 1
  62
0
  100
AcDb2dVertex
  10
0.42100
  20
1.43300
  30
0.00000
  42
-0.1878
  70
32
  0
VERTEX
  5
97D
  100
AcDbEntity
  8
Layer 1
  62
0
  100
AcDb2dVertex
  10
0.43028
  20
1.41994
  30
0.00000
  42
-0.1120
  70
32
  0
VERTEX
  5
97E
  100
AcDbEntity
  8
Layer 1
  62
0
  100
AcDb2dVertex
  10
0.43000
  20
1.41200
  30
0.00000
  70
32
  0
VERTEX
  5
97F
  100
AcDbEntity
  8
Layer 1
  62
0
  100
AcDb2dVertex
  10
0.39700
  20
1.40900
  30
0.00000
  70
32
  0
VERTEX
  5
980
  100
AcDbEntity
  8
Layer 1
  62
0
  100
AcDb2dVertex
  10
0.43000
  20
1.41200
  30
0.00000
  70
32
  0
VERTEX
  5
981
  100
AcDbEntity
  8
Layer 1
  62
0
  100
AcDb2dVertex
  10
0.43400
  20
1.39000
  30
0.00000
  70
32
  0
SEQEND
  5
982
  100
AcDbEntity
  8
Layer 1
  62
0
  0
POLYLINE
  5
983
  100
AcDbEntity
  8
Layer 1
  62
0
  100
AcDb2dPolyline
 66
     1
  10
0
  20
0
  30
0
  70
1
  0
VERTEX
  5
984
  100
AcDbEntity
  8
Layer 1
  62
0
  100
AcDb2dVertex
  10
0.43700
  20
1.56200
  30
0.00000
  42
-0.1898
  70
32
  0
VERTEX
  5
985
  100
AcDbEntity
  8
Layer 1
  62
0
  100
AcDb2dVertex
  10
0.42400
  20
1.55700
  30
0.00000
  42
-0.0134
  70
32
  0
VERTEX
  5
986
  100
AcDbEntity
  8
Layer 1
  62
0
  100
AcDb2dVertex
  10
0.38400
  20
1.58200
  30
0.00000
  42
0.1120
  70
32
  0
VERTEX
  5
987
  100
AcDbEntity
  8
Layer 1
  62
0
  100
AcDb2dVertex
  10
0.31943
  20
1.60594
  30
0.00000
  42
0.0305
  70
32
  0
VERTEX
  5
988
  100
AcDbEntity
  8
Layer 1
  62
0
  100
AcDb2dVertex
  10
0.30200
  20
1.60700
  30
0.00000
  42
0.1076
  70
32
  0
VERTEX
  5
989
  100
AcDbEntity
  8
Layer 1
  62
0
  100
AcDb2dVertex
  10
0.22586
  20
1.58961
  30
0.00000
  42
0.0289
  70
32
  0
VERTEX
  5
98A
  100
AcDbEntity
  8
Layer 1
  62
0
  100
AcDb2dVertex
  10
0.20000
  20
1.57600
  30
0.00000
  42
-0.0128
  70
32
  0
VERTEX
  5
98B
  100
AcDbEntity
  8
Layer 1
  62
0
  100
AcDb2dVertex
  10
0.16753
  20
1.55179
  30
0.00000
  70
32
  0
VERTEX
  5
98C
  100
AcDbEntity
  8
Layer 1
  62
0
  100
AcDb2dVertex
  10
0.15400
  20
1.54200
  30
0.00000
  42
-0.0582
  70
32
  0
VERTEX
  5
98D
  100
AcDbEntity
  8
Layer 1
  62
0
  100
AcDb2dVertex
  10
0.13679
  20
1.55958
  30
0.00000
  42
-0.1917
  70
32
  0
VERTEX
  5
98E
  100
AcDbEntity
  8
Layer 1
  62
0
  100
AcDb2dVertex
  10
0.13470
  20
1.56530
  30
0.00000
  70
32
  0
VERTEX
  5
98F
  100
AcDbEntity
  8
Layer 1
  62
0
  100
AcDb2dVertex
  10
0.13500
  20
1.56600
  30
0.00000
  70
32
  0
VERTEX
  5
990
  100
AcDbEntity
  8
Layer 1
  62
0
  100
AcDb2dVertex
  10
0.15400
  20
1.54200
  30
0.00000
  42
0.0529
  70
32
  0
VERTEX
  5
991
  100
AcDbEntity
  8
Layer 1
  62
0
  100
AcDb2dVertex
  10
0.08808
  20
1.48284
  30
0.00000
  42
0.0796
  70
32
  0
VERTEX
  5
992
  100
AcDbEntity
  8
Layer 1
  62
0
  100
AcDb2dVertex
  10
0.05076
  20
1.42554
  30
0.00000
  42
0.1020
  70
32
  0
VERTEX
  5
993
  100
AcDbEntity
  8
Layer 1
  62
0
  100
AcDb2dVertex
  10
0.03900
  20
1.37000
  30
0.00000
  42
0.0598
  70
32
  0
VERTEX
  5
994
  100
AcDbEntity
  8
Layer 1
  62
0
  100
AcDb2dVertex
  10
0.04447
  20
1.33580
  30
0.00000
  42
0.0261
  70
32
  0
VERTEX
  5
995
  100
AcDbEntity
  8
Layer 1
  62
0
  100
AcDb2dVertex
  10
0.06200
  20
1.28200
  30
0.00000
  42
-0.2013
  70
32
  0
VERTEX
  5
996
  100
AcDbEntity
  8
Layer 1
  62
0
  100
AcDb2dVertex
  10
0.05809
  20
1.27369
  30
0.00000
  42
-0.1648
  70
32
  0
VERTEX
  5
997
  100
AcDbEntity
  8
Layer 1
  62
0
  100
AcDb2dVertex
  10
0.05200
  20
1.27200
  30
0.00000
  42
-0.2199
  70
32
  0
VERTEX
  5
998
  100
AcDbEntity
  8
Layer 1
  62
0
  100
AcDb2dVertex
  10
0.03360
  20
1.28104
  30
0.00000
  42
-0.1041
  70
32
  0
VERTEX
  5
999
  100
AcDbEntity
  8
Layer 1
  62
0
  100
AcDb2dVertex
  10
0.02098
  20
1.30515
  30
0.00000
  70
32
  0
VERTEX
  5
99A
  100
AcDbEntity
  8
Layer 1
  62
0
  100
AcDb2dVertex
  10
0.01900
  20
1.31200
  30
0.00000
  42
-0.0796
  70
32
  0
VERTEX
  5
99B
  100
AcDbEntity
  8
Layer 1
  62
0
  100
AcDb2dVertex
  10
0.00900
  20
1.37000
  30
0.00000
  42
-0.0808
  70
32
  0
VERTEX
  5
99C
  100
AcDbEntity
  8
Layer 1
  62
0
  100
AcDb2dVertex
  10
0.01930
  20
1.44006
  30
0.00000
  42
-0.0561
  70
32
  0
VERTEX
  5
99D
  100
AcDbEntity
  8
Layer 1
  62
0
  100
AcDb2dVertex
  10
0.03400
  20
1.47200
  30
0.00000
  42
-0.0723
  70
32
  0
VERTEX
  5
99E
  100
AcDbEntity
  8
Layer 1
  62
0
  100
AcDb2dVertex
  10
0.07263
  20
1.51470
  30
0.00000
  70
32
  0
VERTEX
  5
99F
  100
AcDbEntity
  8
Layer 1
  62
0
  100
AcDb2dVertex
  10
0.08400
  20
1.52400
  30
0.00000
  42
0.0590
  70
32
  0
VERTEX
  5
9A0
  100
AcDbEntity
  8
Layer 1
  62
0
  100
AcDb2dVertex
  10
0.10629
  20
1.54442
  30
0.00000
  42
0.1515
  70
32
  0
VERTEX
  5
9A1
  100
AcDbEntity
  8
Layer 1
  62
0
  100
AcDb2dVertex
  10
0.11000
  20
1.55200
  30
0.00000
  42
0.1480
  70
32
  0
VERTEX
  5
9A2
  100
AcDbEntity
  8
Layer 1
  62
0
  100
AcDb2dVertex
  10
0.10675
  20
1.55614
  30
0.00000
  42
0.0383
  70
32
  0
VERTEX
  5
9A3
  100
AcDbEntity
  8
Layer 1
  62
0
  100
AcDb2dVertex
  10
0.08500
  20
1.57200
  30
0.00000
  42
-0.0617
  70
32
  0
VERTEX
  5
9A4
  100
AcDbEntity
  8
Layer 1
  62
0
  100
AcDb2dVertex
  10
0.05976
  20
1.59092
  30
0.00000
  42
-0.0876
  70
32
  0
VERTEX
  5
9A5
  100
AcDbEntity
  8
Layer 1
  62
0
  100
AcDb2dVertex
  10
0.05400
  20
1.59900
  30
0.00000
  42
-0.1678
  70
32
  0
VERTEX
  5
9A6
  100
AcDbEntity
  8
Layer 1
  62
0
  100
AcDb2dVertex
  10
0.06057
  20
1.61533
  30
0.00000
  42
-0.0728
  70
32
  0
VERTEX
  5
9A7
  100
AcDbEntity
  8
Layer 1
  62
0
  100
AcDb2dVertex
  10
0.07900
  20
1.63200
  30
0.00000
  42
-0.0748
  70
32
  0
VERTEX
  5
9A8
  100
AcDbEntity
  8
Layer 1
  62
0
  100
AcDb2dVertex
  10
0.10854
  20
1.64897
  30
0.00000
  42
-0.0554
  70
32
  0
VERTEX
  5
9A9
  100
AcDbEntity
  8
Layer 1
  62
0
  100
AcDb2dVertex
  10
0.11700
  20
1.65100
  30
0.00000
  42
-0.2443
  70
32
  0
VERTEX
  5
9AA
  100
AcDbEntity
  8
Layer 1
  62
0
  100
AcDb2dVertex
  10
0.12966
  20
1.64231
  30
0.00000
  42
-0.0973
  70
32
  0
VERTEX
  5
9AB
  100
AcDbEntity
  8
Layer 1
  62
0
  100
AcDb2dVertex
  10
0.13658
  20
1.62082
  30
0.00000
  70
32
  0
VERTEX
  5
9AC
  100
AcDbEntity
  8
Layer 1
  62
0
  100
AcDb2dVertex
  10
0.13700
  20
1.61800
  30
0.00000
  42
0.0993
  70
32
  0
VERTEX
  5
9AD
  100
AcDbEntity
  8
Layer 1
  62
0
  100
AcDb2dVertex
  10
0.14401
  20
1.59489
  30
0.00000
  42
0.2171
  70
32
  0
VERTEX
  5
9AE
  100
AcDbEntity
  8
Layer 1
  62
0
  100
AcDb2dVertex
  10
0.15503
  20
1.58618
  30
0.00000
  42
0.0707
  70
32
  0
VERTEX
  5
9AF
  100
AcDbEntity
  8
Layer 1
  62
0
  100
AcDb2dVertex
  10
0.15900
  20
1.58600
  30
0.00000
  42
0.1753
  70
32
  0
VERTEX
  5
9B0
  100
AcDbEntity
  8
Layer 1
  62
0
  100
AcDb2dVertex
  10
0.16126
  20
1.58695
  30
0.00000
  70
32
  0
VERTEX
  5
9B1
  100
AcDbEntity
  8
Layer 1
  62
0
  100
AcDb2dVertex
  10
0.17399
  20
1.59468
  30
0.00000
  70
32
  0
VERTEX
  5
9B2
  100
AcDbEntity
  8
Layer 1
  62
0
  100
AcDb2dVertex
  10
0.20400
  20
1.61300
  30
0.00000
  42
-0.0903
  70
32
  0
VERTEX
  5
9B3
  100
AcDbEntity
  8
Layer 1
  62
0
  100
AcDb2dVertex
  10
0.26923
  20
1.63870
  30
0.00000
  42
-0.0359
  70
32
  0
VERTEX
  5
9B4
  100
AcDbEntity
  8
Layer 1
  62
0
  100
AcDb2dVertex
  10
0.29000
  20
1.64100
  30
0.00000
  42
-0.1056
  70
32
  0
VERTEX
  5
9B5
  100
AcDbEntity
  8
Layer 1
  62
0
  100
AcDb2dVertex
  10
0.37389
  20
1.62269
  30
0.00000
  42
-0.0920
  70
32
  0
VERTEX
  5
9B6
  100
AcDbEntity
  8
Layer 1
  62
0
  100
AcDb2dVertex
  10
0.43200
  20
1.58100
  30
0.00000
  42
-0.1786
  70
32
  0
VERTEX
  5
9B7
  100
AcDbEntity
  8
Layer 1
  62
0
  100
AcDb2dVertex
  10
0.43793
  20
1.56776
  30
0.00000
  42
-0.0860
  70
32
  0
VERTEX
  5
9B8
  100
AcDbEntity
  8
Layer 1
  62
0
  100
AcDb2dVertex
  10
0.43700
  20
1.56200
  30
0.00000
  70
32
  0
SEQEND
  5
9B9
  100
AcDbEntity
  8
Layer 1
  62
0
  0
POLYLINE
  5
9BA
  100
AcDbEntity
  8
Layer 1
  62
0
  100
AcDb2dPolyline
 66
     1
  10
0
  20
0
  30
0
  70
1
  0
VERTEX
  5
9BB
  100
AcDbEntity
  8
Layer 1
  62
0
  100
AcDb2dVertex
  10
0.48400
  20
1.19700
  30
0.00000
  42
-0.2827
  70
32
  0
VERTEX
  5
9BC
  100
AcDbEntity
  8
Layer 1
  62
0
  100
AcDb2dVertex
  10
0.47790
  20
1.18768
  30
0.00000
  42
-0.1016
  70
32
  0
VERTEX
  5
9BD
  100
AcDbEntity
  8
Layer 1
  62
0
  100
AcDb2dVertex
  10
0.45939
  20
1.18273
  30
0.00000
  42
-0.0263
  70
32
  0
VERTEX
  5
9BE
  100
AcDbEntity
  8
Layer 1
  62
0
  100
AcDb2dVertex
  10
0.44400
  20
1.18200
  30
0.00000
  42
-0.1631
  70
32
  0
VERTEX
  5
9BF
  100
AcDbEntity
  8
Layer 1
  62
0
  100
AcDb2dVertex
  10
0.40207
  20
1.19484
  30
0.00000
  42
-0.0751
  70
32
  0
VERTEX
  5
9C0
  100
AcDbEntity
  8
Layer 1
  62
0
  100
AcDb2dVertex
  10
0.38500
  20
1.21200
  30
0.00000
  42
0.0319
  70
32
  0
VERTEX
  5
9C1
  100
AcDbEntity
  8
Layer 1
  62
0
  100
AcDb2dVertex
  10
0.36479
  20
1.23857
  30
0.00000
  70
32
  0
VERTEX
  5
9C2
  100
AcDbEntity
  8
Layer 1
  62
0
  100
AcDb2dVertex
  10
0.36195
  20
1.24114
  30
0.00000
  42
0.1472
  70
32
  0
VERTEX
  5
9C3
  100
AcDbEntity
  8
Layer 1
  62
0
  100
AcDb2dVertex
  10
0.36000
  20
1.24200
  30
0.00000
  42
0.0901
  70
32
  0
VERTEX
  5
9C4
  100
AcDbEntity
  8
Layer 1
  62
0
  100
AcDb2dVertex
  10
0.35031
  20
1.23859
  30
0.00000
  70
32
  0
VERTEX
  5
9C5
  100
AcDbEntity
  8
Layer 1
  62
0
  100
AcDb2dVertex
  10
0.34283
  20
1.23491
  30
0.00000
  70
32
  0
VERTEX
  5
9C6
  100
AcDbEntity
  8
Layer 1
  62
0
  100
AcDb2dVertex
  10
0.34100
  20
1.23400
  30
0.00000
  42
-0.1056
  70
32
  0
VERTEX
  5
9C7
  100
AcDbEntity
  8
Layer 1
  62
0
  100
AcDb2dVertex
  10
0.32111
  20
1.22515
  30
0.00000
  70
32
  0
VERTEX
  5
9C8
  100
AcDbEntity
  8
Layer 1
  62
0
  100
AcDb2dVertex
  10
0.31900
  20
1.22500
  30
0.00000
  42
-0.2845
  70
32
  0
VERTEX
  5
9C9
  100
AcDbEntity
  8
Layer 1
  62
0
  100
AcDb2dVertex
  10
0.30748
  20
1.23236
  30
0.00000
  42
-0.1072
  70
32
  0
VERTEX
  5
9CA
  100
AcDbEntity
  8
Layer 1
  62
0
  100
AcDb2dVertex
  10
0.30238
  20
1.25222
  30
0.00000
  42
-0.0207
  70
32
  0
VERTEX
  5
9CB
  100
AcDbEntity
  8
Layer 1
  62
0
  100
AcDb2dVertex
  10
0.30200
  20
1.26200
  30
0.00000
  70
32
  0
VERTEX
  5
9CC
  100
AcDbEntity
  8
Layer 1
  62
0
  100
AcDb2dVertex
  10
0.30200
  20
1.28500
  30
0.00000
  42
-0.1186
  70
32
  0
VERTEX
  5
9CD
  100
AcDbEntity
  8
Layer 1
  62
0
  100
AcDb2dVertex
  10
0.30557
  20
1.30387
  30
0.00000
  42
-0.3002
  70
32
  0
VERTEX
  5
9CE
  100
AcDbEntity
  8
Layer 1
  62
0
  100
AcDb2dVertex
  10
0.31900
  20
1.31200
  30
0.00000
  42
-0.1141
  70
32
  0
VERTEX
  5
9CF
  100
AcDbEntity
  8
Layer 1
  62
0
  100
AcDb2dVertex
  10
0.33028
  20
1.30796
  30
0.00000
  70
32
  0
VERTEX
  5
9D0
  100
AcDbEntity
  8
Layer 1
  62
0
  100
AcDb2dVertex
  10
0.33700
  20
1.30400
  30
0.00000
  42
0.1117
  70
32
  0
VERTEX
  5
9D1
  100
AcDbEntity
  8
Layer 1
  62
0
  100
AcDb2dVertex
  10
0.35435
  20
1.29525
  30
0.00000
  70
32
  0
VERTEX
  5
9D2
  100
AcDbEntity
  8
Layer 1
  62
0
  100
AcDb2dVertex
  10
0.35700
  20
1.29500
  30
0.00000
  42
0.1786
  70
32
  0
VERTEX
  5
9D3
  100
AcDbEntity
  8
Layer 1
  62
0
  100
AcDb2dVertex
  10
0.36293
  20
1.29850
  30
0.00000
  42
0.0480
  70
32
  0
VERTEX
  5
9D4
  100
AcDbEntity
  8
Layer 1
  62
0
  100
AcDb2dVertex
  10
0.37888
  20
1.31956
  30
0.00000
  70
32
  0
VERTEX
  5
9D5
  100
AcDbEntity
  8
Layer 1
  62
0
  100
AcDb2dVertex
  10
0.38500
  20
1.32900
  30
0.00000
  42
-0.2141
  70
32
  0
VERTEX
  5
9D6
  100
AcDbEntity
  8
Layer 1
  62
0
  100
AcDb2dVertex
  10
0.42766
  20
1.35964
  30
0.00000
  42
-0.0564
  70
32
  0
VERTEX
  5
9D7
  100
AcDbEntity
  8
Layer 1
  62
0
  100
AcDb2dVertex
  10
0.45000
  20
1.36200
  30
0.00000
  42
-0.0753
  70
32
  0
VERTEX
  5
9D8
  100
AcDbEntity
  8
Layer 1
  62
0
  100
AcDb2dVertex
  10
0.47168
  20
1.35961
  30
0.00000
  42
-0.2168
  70
32
  0
VERTEX
  5
9D9
  100
AcDbEntity
  8
Layer 1
  62
0
  100
AcDb2dVertex
  10
0.47853
  20
1.35445
  30
0.00000
  42
-0.0995
  70
32
  0
VERTEX
  5
9DA
  100
AcDbEntity
  8
Layer 1
  62
0
  100
AcDb2dVertex
  10
0.47900
  20
1.35200
  30
0.00000
  70
32
  0
VERTEX
  5
9DB
  100
AcDbEntity
  8
Layer 1
  62
0
  100
AcDb2dVertex
  10
0.47200
  20
1.34200
  30
0.00000
  42
0.0599
  70
32
  0
VERTEX
  5
9DC
  100
AcDbEntity
  8
Layer 1
  62
0
  100
AcDb2dVertex
  10
0.43129
  20
1.33373
  30
0.00000
  42
0.0895
  70
32
  0
VERTEX
  5
9DD
  100
AcDbEntity
  8
Layer 1
  62
0
  100
AcDb2dVertex
  10
0.41700
  20
1.32600
  30
0.00000
  42
0.1058
  70
32
  0
VERTEX
  5
9DE
  100
AcDbEntity
  8
Layer 1
  62
0
  100
AcDb2dVertex
  10
0.40755
  20
1.31123
  30
0.00000
  42
0.0439
  70
32
  0
VERTEX
  5
9DF
  100
AcDbEntity
  8
Layer 1
  62
0
  100
AcDb2dVertex
  10
0.39527
  20
1.27017
  30
0.00000
  70
32
  0
VERTEX
  5
9E0
  100
AcDbEntity
  8
Layer 1
  62
0
  100
AcDb2dVertex
  10
0.39500
  20
1.26900
  30
0.00000
  42
0.0630
  70
32
  0
VERTEX
  5
9E1
  100
AcDbEntity
  8
Layer 1
  62
0
  100
AcDb2dVertex
  10
0.40547
  20
1.23394
  30
0.00000
  42
0.1266
  70
32
  0
VERTEX
  5
9E2
  100
AcDbEntity
  8
Layer 1
  62
0
  100
AcDb2dVertex
  10
0.41700
  20
1.21900
  30
0.00000
  42
0.1152
  70
32
  0
VERTEX
  5
9E3
  100
AcDbEntity
  8
Layer 1
  62
0
  100
AcDb2dVertex
  10
0.43903
  20
1.20975
  30
0.00000
  42
0.0514
  70
32
  0
VERTEX
  5
9E4
  100
AcDbEntity
  8
Layer 1
  62
0
  100
AcDb2dVertex
  10
0.47000
  20
1.20700
  30
0.00000
  42
-0.1671
  70
32
  0
VERTEX
  5
9E5
  100
AcDbEntity
  8
Layer 1
  62
0
  100
AcDb2dVertex
  10
0.48094
  20
1.20421
  30
0.00000
  42
-0.2376
  70
32
  0
VERTEX
  5
9E6
  100
AcDbEntity
  8
Layer 1
  62
0
  100
AcDb2dVertex
  10
0.48400
  20
1.19700
  30
0.00000
  70
32
  0
SEQEND
  5
9E7
  100
AcDbEntity
  8
Layer 1
  62
0
  0
POLYLINE
  5
9E8
  100
AcDbEntity
  8
Layer 1
  62
0
  100
AcDb2dPolyline
 66
     1
  10
0
  20
0
  30
0
  70
1
  0
VERTEX
  5
9E9
  100
AcDbEntity
  8
Layer 1
  62
0
  100
AcDb2dVertex
  10
1.60200
  20
0.22500
  30
0.00000
  42
-0.1779
  70
32
  0
VERTEX
  5
9EA
  100
AcDbEntity
  8
Layer 1
  62
0
  100
AcDb2dVertex
  10
1.58819
  20
0.19334
  30
0.00000
  42
-0.0941
  70
32
  0
VERTEX
  5
9EB
  100
AcDbEntity
  8
Layer 1
  62
0
  100
AcDb2dVertex
  10
1.55611
  20
0.17032
  30
0.00000
  70
32
  0
VERTEX
  5
9EC
  100
AcDbEntity
  8
Layer 1
  62
0
  100
AcDb2dVertex
  10
1.54900
  20
0.16700
  30
0.00000
  42
-0.0963
  70
32
  0
VERTEX
  5
9ED
  100
AcDbEntity
  8
Layer 1
  62
0
  100
AcDb2dVertex
  10
1.48005
  20
0.14567
  30
0.00000
  42
-0.0236
  70
32
  0
VERTEX
  5
9EE
  100
AcDbEntity
  8
Layer 1
  62
0
  100
AcDb2dVertex
  10
1.46600
  20
0.14500
  30
0.00000
  42
-0.0685
  70
32
  0
VERTEX
  5
9EF
  100
AcDbEntity
  8
Layer 1
  62
0
  100
AcDb2dVertex
  10
1.43625
  20
0.15063
  30
0.00000
  70
32
  0
VERTEX
  5
9F0
  100
AcDbEntity
  8
Layer 1
  62
0
  100
AcDb2dVertex
  10
1.42600
  20
0.15400
  30
0.00000
  42
0.0374
  70
32
  0
VERTEX
  5
9F1
  100
AcDbEntity
  8
Layer 1
  62
0
  100
AcDb2dVertex
  10
1.39163
  20
0.16173
  30
0.00000
  70
32
  0
VERTEX
  5
9F2
  100
AcDbEntity
  8
Layer 1
  62
0
  100
AcDb2dVertex
  10
1.38700
  20
0.16200
  30
0.00000
  42
0.3127
  70
32
  0
VERTEX
  5
9F3
  100
AcDbEntity
  8
Layer 1
  62
0
  100
AcDb2dVertex
  10
1.37020
  20
0.15135
  30
0.00000
  42
0.0587
  70
32
  0
VERTEX
  5
9F4
  100
AcDbEntity
  8
Layer 1
  62
0
  100
AcDb2dVertex
  10
1.36700
  20
0.14200
  30
0.00000
  70
32
  0
VERTEX
  5
9F5
  100
AcDbEntity
  8
Layer 1
  62
0
  100
AcDb2dVertex
  10
1.36700
  20
0.10700
  30
0.00000
  42
-0.1062
  70
32
  0
VERTEX
  5
9F6
  100
AcDbEntity
  8
Layer 1
  62
0
  100
AcDb2dVertex
  10
1.36391
  20
0.08825
  30
0.00000
  42
-0.3190
  70
32
  0
VERTEX
  5
9F7
  100
AcDbEntity
  8
Layer 1
  62
0
  100
AcDb2dVertex
  10
1.35100
  20
0.08000
  30
0.00000
  42
-0.0751
  70
32
  0
VERTEX
  5
9F8
  100
AcDbEntity
  8
Layer 1
  62
0
  100
AcDb2dVertex
  10
1.32587
  20
0.08510
  30
0.00000
  70
32
  0
VERTEX
  5
9F9
  100
AcDbEntity
  8
Layer 1
  62
0
  100
AcDb2dVertex
  10
1.31200
  20
0.09000
  30
0.00000
  42
-0.0807
  70
32
  0
VERTEX
  5
9FA
  100
AcDbEntity
  8
Layer 1
  62
0
  100
AcDb2dVertex
  10
1.29029
  20
0.10252
  30
0.00000
  42
-0.1909
  70
32
  0
VERTEX
  5
9FB
  100
AcDbEntity
  8
Layer 1
  62
0
  100
AcDb2dVertex
  10
1.28404
  20
0.11308
  30
0.00000
  70
32
  0
VERTEX
  5
9FC
  100
AcDbEntity
  8
Layer 1
  62
0
  100
AcDb2dVertex
  10
1.28400
  20
0.11400
  30
0.00000
  42
0.0199
  70
32
  0
VERTEX
  5
9FD
  100
AcDbEntity
  8
Layer 1
  62
0
  100
AcDb2dVertex
  10
1.28900
  20
0.12900
  30
0.00000
  42
0.0358
  70
32
  0
VERTEX
  5
9FE
  100
AcDbEntity
  8
Layer 1
  62
0
  100
AcDb2dVertex
  10
1.31883
  20
0.16809
  30
0.00000
  42
0.0951
  70
32
  0
VERTEX
  5
9FF
  100
AcDbEntity
  8
Layer 1
  62
0
  100
AcDb2dVertex
  10
1.32397
  20
0.17945
  30
0.00000
  70
32
  0
VERTEX
  5
A00
  100
AcDbEntity
  8
Layer 1
  62
0
  100
AcDb2dVertex
  10
1.32400
  20
0.18000
  30
0.00000
  42
0.2370
  70
32
  0
VERTEX
  5
A01
  100
AcDbEntity
  8
Layer 1
  62
0
  100
AcDb2dVertex
  10
1.31896
  20
0.18871
  30
0.00000
  42
0.0740
  70
32
  0
VERTEX
  5
A02
  100
AcDbEntity
  8
Layer 1
  62
0
  100
AcDb2dVertex
  10
1.30500
  20
0.19600
  30
0.00000
  70
32
  0
VERTEX
  5
A03
  100
AcDbEntity
  8
Layer 1
  62
0
  100
AcDb2dVertex
  10
1.29052
  20
0.20150
  30
0.00000
  70
32
  0
VERTEX
  5
A04
  100
AcDbEntity
  8
Layer 1
  62
0
  100
AcDb2dVertex
  10
1.27100
  20
0.20900
  30
0.00000
  42
-0.1273
  70
32
  0
VERTEX
  5
A05
  100
AcDbEntity
  8
Layer 1
  62
0
  100
AcDb2dVertex
  10
1.21682
  20
0.25405
  30
0.00000
  42
-0.1123
  70
32
  0
VERTEX
  5
A06
  100
AcDbEntity
  8
Layer 1
  62
0
  100
AcDb2dVertex
  10
1.19216
  20
0.31602
  30
0.00000
  42
-0.0429
  70
32
  0
VERTEX
  5
A07
  100
AcDbEntity
  8
Layer 1
  62
0
  100
AcDb2dVertex
  10
1.18900
  20
0.35500
  30
0.00000
  42
-0.1066
  70
32
  0
VERTEX
  5
A08
  100
AcDbEntity
  8
Layer 1
  62
0
  100
AcDb2dVertex
  10
1.19186
  20
0.37258
  30
0.00000
  42
-0.2811
  70
32
  0
VERTEX
  5
A09
  100
AcDbEntity
  8
Layer 1
  62
0
  100
AcDb2dVertex
  10
1.20200
  20
0.38000
  30
0.00000
  42
-0.2647
  70
32
  0
VERTEX
  5
A0A
  100
AcDbEntity
  8
Layer 1
  62
0
  100
AcDb2dVertex
  10
1.20610
  20
0.38197
  30
0.00000
  42
-0.2002
  70
32
  0
VERTEX
  5
A0B
  100
AcDbEntity
  8
Layer 1
  62
0
  100
AcDb2dVertex
  10
1.20968
  20
0.37787
  30
0.00000
  70
32
  0
VERTEX
  5
A0C
  100
AcDbEntity
  8
Layer 1
  62
0
  100
AcDb2dVertex
  10
1.21100
  20
0.37500
  30
0.00000
  42
0.0222
  70
32
  0
VERTEX
  5
A0D
  100
AcDbEntity
  8
Layer 1
  62
0
  100
AcDb2dVertex
  10
1.24611
  20
0.28862
  30
0.00000
  42
0.0401
  70
32
  0
VERTEX
  5
A0E
  100
AcDbEntity
  8
Layer 1
  62
0
  100
AcDb2dVertex
  10
1.26200
  20
0.26000
  30
0.00000
  42
0.1172
  70
32
  0
VERTEX
  5
A0F
  100
AcDbEntity
  8
Layer 1
  62
0
  100
AcDb2dVertex
  10
1.30791
  20
0.22281
  30
0.00000
  42
0.0640
  70
32
  0
VERTEX
  5
A10
  100
AcDbEntity
  8
Layer 1
  62
0
  100
AcDb2dVertex
  10
1.36400
  20
0.20400
  30
0.00000
  70
32
  0
VERTEX
  5
A11
  100
AcDbEntity
  8
Layer 1
  62
0
  100
AcDb2dVertex
  10
1.35600
  20
0.18000
  30
0.00000
  70
32
  0
VERTEX
  5
A12
  100
AcDbEntity
  8
Layer 1
  62
0
  100
AcDb2dVertex
  10
1.36400
  20
0.20400
  30
0.00000
  42
0.0924
  70
32
  0
VERTEX
  5
A13
  100
AcDbEntity
  8
Layer 1
  62
0
  100
AcDb2dVertex
  10
1.42638
  20
0.18261
  30
0.00000
  42
0.0405
  70
32
  0
VERTEX
  5
A14
  100
AcDbEntity
  8
Layer 1
  62
0
  100
AcDb2dVertex
  10
1.47400
  20
0.17900
  30
0.00000
  42
0.1576
  70
32
  0
VERTEX
  5
A15
  100
AcDbEntity
  8
Layer 1
  62
0
  100
AcDb2dVertex
  10
1.55600
  20
0.20500
  30
0.00000
  42
-0.0087
  70
32
  0
VERTEX
  5
A16
  100
AcDbEntity
  8
Layer 1
  62
0
  100
AcDb2dVertex
  10
1.59600
  20
0.23200
  30
0.00000
  70
32
  0
VERTEX
  5
A17
  100
AcDbEntity
  8
Layer 1
  62
0
  100
AcDb2dVertex
  10
1.60200
  20
0.22500
  30
0.00000
  70
32
  0
SEQEND
  5
A18
  100
AcDbEntity
  8
Layer 1
  62
0
  0
POLYLINE
  5
A19
  100
AcDbEntity
  8
Layer 1
  62
0
  100
AcDb2dPolyline
 66
     1
  10
0
  20
0
  30
0
  70
1
  0
VERTEX
  5
A1A
  100
AcDbEntity
  8
Layer 1
  62
0
  100
AcDb2dVertex
  10
0.36000
  20
1.45400
  30
0.00000
  70
32
  0
VERTEX
  5
A1B
  100
AcDbEntity
  8
Layer 1
  62
0
  100
AcDb2dVertex
  10
0.34900
  20
1.44600
  30
0.00000
  70
32
  0
VERTEX
  5
A1C
  100
AcDbEntity
  8
Layer 1
  62
0
  100
AcDb2dVertex
  10
0.30750
  20
1.45412
  30
0.00000
  42
0.0356
  70
32
  0
VERTEX
  5
A1D
  100
AcDbEntity
  8
Layer 1
  62
0
  100
AcDb2dVertex
  10
0.28700
  20
1.45700
  30
0.00000
  42
0.1417
  70
32
  0
VERTEX
  5
A1E
  100
AcDbEntity
  8
Layer 1
  62
0
  100
AcDb2dVertex
  10
0.21363
  20
1.43518
  30
0.00000
  42
0.0448
  70
32
  0
VERTEX
  5
A1F
  100
AcDbEntity
  8
Layer 1
  62
0
  100
AcDb2dVertex
  10
0.18700
  20
1.41500
  30
0.00000
  42
0.1317
  70
32
  0
VERTEX
  5
A20
  100
AcDbEntity
  8
Layer 1
  62
0
  100
AcDb2dVertex
  10
0.13203
  20
1.35060
  30
0.00000
  42
0.0987
  70
32
  0
VERTEX
  5
A21
  100
AcDbEntity
  8
Layer 1
  62
0
  100
AcDb2dVertex
  10
0.11529
  20
1.27922
  30
0.00000
  70
32
  0
VERTEX
  5
A22
  100
AcDbEntity
  8
Layer 1
  62
0
  100
AcDb2dVertex
  10
0.11500
  20
1.26700
  30
0.00000
  42
-0.1483
  70
32
  0
VERTEX
  5
A23
  100
AcDbEntity
  8
Layer 1
  62
0
  100
AcDb2dVertex
  10
0.11245
  20
1.25549
  30
0.00000
  42
-0.2605
  70
32
  0
VERTEX
  5
A24
  100
AcDbEntity
  8
Layer 1
  62
0
  100
AcDb2dVertex
  10
0.10500
  20
1.25200
  30
0.00000
  42
-0.3023
  70
32
  0
VERTEX
  5
A25
  100
AcDbEntity
  8
Layer 1
  62
0
  100
AcDb2dVertex
  10
0.08985
  20
1.26163
  30
0.00000
  42
-0.1047
  70
32
  0
VERTEX
  5
A26
  100
AcDbEntity
  8
Layer 1
  62
0
  100
AcDb2dVertex
  10
0.08515
  20
1.28294
  30
0.00000
  70
32
  0
VERTEX
  5
A27
  100
AcDbEntity
  8
Layer 1
  62
0
  100
AcDb2dVertex
  10
0.08500
  20
1.28900
  30
0.00000
  42
-0.1027
  70
32
  0
VERTEX
  5
A28
  100
AcDbEntity
  8
Layer 1
  62
0
  100
AcDb2dVertex
  10
0.09773
  20
1.34549
  30
0.00000
  42
-0.0661
  70
32
  0
VERTEX
  5
A29
  100
AcDbEntity
  8
Layer 1
  62
0
  100
AcDb2dVertex
  10
0.13534
  20
1.40603
  30
0.00000
  42
-0.0110
  70
32
  0
VERTEX
  5
A2A
  100
AcDbEntity
  8
Layer 1
  62
0
  100
AcDb2dVertex
  10
0.14700
  20
1.42000
  30
0.00000
  42
0.0243
  70
32
  0
VERTEX
  5
A2B
  100
AcDbEntity
  8
Layer 1
  62
0
  100
AcDb2dVertex
  10
0.12614
  20
1.44186
  30
0.00000
  70
32
  0
VERTEX
  5
A2C
  100
AcDbEntity
  8
Layer 1
  62
0
  100
AcDb2dVertex
  10
0.12400
  20
1.44400
  30
0.00000
  42
-0.0546
  70
32
  0
VERTEX
  5
A2D
  100
AcDbEntity
  8
Layer 1
  62
0
  100
AcDb2dVertex
  10
0.10854
  20
1.45856
  30
0.00000
  42
-0.1471
  70
32
  0
VERTEX
  5
A2E
  100
AcDbEntity
  8
Layer 1
  62
0
  100
AcDb2dVertex
  10
0.10700
  20
1.46200
  30
0.00000
  42
-0.1707
  70
32
  0
VERTEX
  5
A2F
  100
AcDbEntity
  8
Layer 1
  62
0
  100
AcDb2dVertex
  10
0.11259
  20
1.47515
  30
0.00000
  42
-0.0644
  70
32
  0
VERTEX
  5
A30
  100
AcDbEntity
  8
Layer 1
  62
0
  100
AcDb2dVertex
  10
0.12900
  20
1.49000
  30
0.00000
  42
-0.0880
  70
32
  0
VERTEX
  5
A31
  100
AcDbEntity
  8
Layer 1
  62
0
  100
AcDb2dVertex
  10
0.15797
  20
1.50484
  30
0.00000
  42
-0.0372
  70
32
  0
VERTEX
  5
A32
  100
AcDbEntity
  8
Layer 1
  62
0
  100
AcDb2dVertex
  10
0.16400
  20
1.50600
  30
0.00000
  42
-0.1880
  70
32
  0
VERTEX
  5
A33
  100
AcDbEntity
  8
Layer 1
  62
0
  100
AcDb2dVertex
  10
0.17304
  20
1.49944
  30
0.00000
  42
-0.0891
  70
32
  0
VERTEX
  5
A34
  100
AcDbEntity
  8
Layer 1
  62
0
  100
AcDb2dVertex
  10
0.18200
  20
1.48000
  30
0.00000
  42
0.0626
  70
32
  0
VERTEX
  5
A35
  100
AcDbEntity
  8
Layer 1
  62
0
  100
AcDb2dVertex
  10
0.19138
  20
1.45846
  30
0.00000
  42
0.1936
  70
32
  0
VERTEX
  5
A36
  100
AcDbEntity
  8
Layer 1
  62
0
  100
AcDb2dVertex
  10
0.19649
  20
1.45404
  30
0.00000
  70
32
  0
VERTEX
  5
A37
  100
AcDbEntity
  8
Layer 1
  62
0
  100
AcDb2dVertex
  10
0.19700
  20
1.45400
  30
0.00000
  42
0.0172
  70
32
  0
VERTEX
  5
A38
  100
AcDbEntity
  8
Layer 1
  62
0
  100
AcDb2dVertex
  10
0.23000
  20
1.46800
  30
0.00000
  42
-0.0725
  70
32
  0
VERTEX
  5
A39
  100
AcDbEntity
  8
Layer 1
  62
0
  100
AcDb2dVertex
  10
0.27629
  20
1.48138
  30
0.00000
  42
-0.0281
  70
32
  0
VERTEX
  5
A3A
  100
AcDbEntity
  8
Layer 1
  62
0
  100
AcDb2dVertex
  10
0.28700
  20
1.48200
  30
0.00000
  42
-0.0557
  70
32
  0
VERTEX
  5
A3B
  100
AcDbEntity
  8
Layer 1
  62
0
  100
AcDb2dVertex
  10
0.32900
  20
1.47600
  30
0.00000
  42
-0.0769
  70
32
  0
VERTEX
  5
A3C
  100
AcDbEntity
  8
Layer 1
  62
0
  100
AcDb2dVertex
  10
0.35195
  20
1.46642
  30
0.00000
  42
-0.1915
  70
32
  0
VERTEX
  5
A3D
  100
AcDbEntity
  8
Layer 1
  62
0
  100
AcDb2dVertex
  10
0.35971
  20
1.45657
  30
0.00000
  70
32
  0
VERTEX
  5
A3E
  100
AcDbEntity
  8
Layer 1
  62
0
  100
AcDb2dVertex
  10
0.36000
  20
1.45400
  30
0.00000
  70
32
  0
SEQEND
  5
A3F
  100
AcDbEntity
  8
Layer 1
  62
0
  0
POLYLINE
  5
A40
  100
AcDbEntity
  8
Layer 1
  62
0
  100
AcDb2dPolyline
 66
     1
  10
0
  20
0
  30
0
  70
1
  0
VERTEX
  5
A41
  100
AcDbEntity
  8
Layer 1
  62
0
  100
AcDb2dVertex
  10
0.62000
  20
0.99400
  30
0.00000
  42
-0.1138
  70
32
  0
VERTEX
  5
A42
  100
AcDbEntity
  8
Layer 1
  62
0
  100
AcDb2dVertex
  10
0.61768
  20
0.97996
  30
0.00000
  42
-0.3081
  70
32
  0
VERTEX
  5
A43
  100
AcDbEntity
  8
Layer 1
  62
0
  100
AcDb2dVertex
  10
0.60900
  20
0.97500
  30
0.00000
  42
-0.2356
  70
32
  0
VERTEX
  5
A44
  100
AcDbEntity
  8
Layer 1
  62
0
  100
AcDb2dVertex
  10
0.60469
  20
0.97830
  30
0.00000
  42
-0.0633
  70
32
  0
VERTEX
  5
A45
  100
AcDbEntity
  8
Layer 1
  62
0
  100
AcDb2dVertex
  10
0.59646
  20
0.99740
  30
0.00000
  42
-0.0127
  70
32
  0
VERTEX
  5
A46
  100
AcDbEntity
  8
Layer 1
  62
0
  100
AcDb2dVertex
  10
0.59000
  20
1.01900
  30
0.00000
  42
0.0997
  70
32
  0
VERTEX
  5
A47
  100
AcDbEntity
  8
Layer 1
  62
0
  100
AcDb2dVertex
  10
0.57805
  20
1.04211
  30
0.00000
  42
0.0580
  70
32
  0
VERTEX
  5
A48
  100
AcDbEntity
  8
Layer 1
  62
0
  100
AcDb2dVertex
  10
0.54194
  20
1.07858
  30
0.00000
  70
32
  0
VERTEX
  5
A49
  100
AcDbEntity
  8
Layer 1
  62
0
  100
AcDb2dVertex
  10
0.53400
  20
1.08500
  30
0.00000
  42
0.1273
  70
32
  0
VERTEX
  5
A4A
  100
AcDbEntity
  8
Layer 1
  62
0
  100
AcDb2dVertex
  10
0.46681
  20
1.11545
  30
0.00000
  42
0.0470
  70
32
  0
VERTEX
  5
A4B
  100
AcDbEntity
  8
Layer 1
  62
0
  100
AcDb2dVertex
  10
0.42700
  20
1.11900
  30
0.00000
  42
-0.0968
  70
32
  0
VERTEX
  5
A4C
  100
AcDbEntity
  8
Layer 1
  62
0
  100
AcDb2dVertex
  10
0.40847
  20
1.12172
  30
0.00000
  42
-0.2645
  70
32
  0
VERTEX
  5
A4D
  100
AcDbEntity
  8
Layer 1
  62
0
  100
AcDb2dVertex
  10
0.40212
  20
1.12855
  30
0.00000
  70
32
  0
VERTEX
  5
A4E
  100
AcDbEntity
  8
Layer 1
  62
0
  100
AcDb2dVertex
  10
0.40200
  20
1.13000
  30
0.00000
  42
-0.2752
  70
32
  0
VERTEX
  5
A4F
  100
AcDbEntity
  8
Layer 1
  62
0
  100
AcDb2dVertex
  10
0.40900
  20
1.14140
  30
0.00000
  42
-0.1000
  70
32
  0
VERTEX
  5
A50
  100
AcDbEntity
  8
Layer 1
  62
0
  100
AcDb2dVertex
  10
0.42844
  20
1.14740
  30
0.00000
  42
-0.0356
  70
32
  0
VERTEX
  5
A51
  100
AcDbEntity
  8
Layer 1
  62
0
  100
AcDb2dVertex
  10
0.45500
  20
1.14900
  30
0.00000
  42
-0.1062
  70
32
  0
VERTEX
  5
A52
  100
AcDbEntity
  8
Layer 1
  62
0
  100
AcDb2dVertex
  10
0.49170
  20
1.14007
  30
0.00000
  70
32
  0
VERTEX
  5
A53
  100
AcDbEntity
  8
Layer 1
  62
0
  100
AcDb2dVertex
  10
0.50000
  20
1.13600
  30
0.00000
  70
32
  0
VERTEX
  5
A54
  100
AcDbEntity
  8
Layer 1
  62
0
  100
AcDb2dVertex
  10
0.52100
  20
1.12700
  30
0.00000
  42
0.0570
  70
32
  0
VERTEX
  5
A55
  100
AcDbEntity
  8
Layer 1
  62
0
  100
AcDb2dVertex
  10
0.53000
  20
1.12400
  30
0.00000
  42
0.2713
  70
32
  0
VERTEX
  5
A56
  100
AcDbEntity
  8
Layer 1
  62
0
  100
AcDb2dVertex
  10
0.53673
  20
1.12855
  30
0.00000
  42
0.0853
  70
32
  0
VERTEX
  5
A57
  100
AcDbEntity
  8
Layer 1
  62
0
  100
AcDb2dVertex
  10
0.54242
  20
1.14588
  30
0.00000
  70
32
  0
VERTEX
  5
A58
  100
AcDbEntity
  8
Layer 1
  62
0
  100
AcDb2dVertex
  10
0.54300
  20
1.14900
  30
0.00000
  42
-0.1079
  70
32
  0
VERTEX
  5
A59
  100
AcDbEntity
  8
Layer 1
  62
0
  100
AcDb2dVertex
  10
0.55014
  20
1.16823
  30
0.00000
  42
-0.2480
  70
32
  0
VERTEX
  5
A5A
  100
AcDbEntity
  8
Layer 1
  62
0
  100
AcDb2dVertex
  10
0.56000
  20
1.17400
  30
0.00000
  42
-0.1147
  70
32
  0
VERTEX
  5
A5B
  100
AcDbEntity
  8
Layer 1
  62
0
  100
AcDb2dVertex
  10
0.57102
  20
1.17005
  30
0.00000
  42
-0.0261
  70
32
  0
VERTEX
  5
A5C
  100
AcDbEntity
  8
Layer 1
  62
0
  100
AcDb2dVertex
  10
0.59400
  20
1.15500
  30
0.00000
  42
-0.0452
  70
32
  0
VERTEX
  5
A5D
  100
AcDbEntity
  8
Layer 1
  62
0
  100
AcDb2dVertex
  10
0.61593
  20
1.13481
  30
0.00000
  42
-0.1510
  70
32
  0
VERTEX
  5
A5E
  100
AcDbEntity
  8
Layer 1
  62
0
  100
AcDb2dVertex
  10
0.61900
  20
1.12900
  30
0.00000
  42
-0.1327
  70
32
  0
VERTEX
  5
A5F
  100
AcDbEntity
  8
Layer 1
  62
0
  100
AcDb2dVertex
  10
0.60998
  20
1.11629
  30
0.00000
  42
-0.0437
  70
32
  0
VERTEX
  5
A60
  100
AcDbEntity
  8
Layer 1
  62
0
  100
AcDb2dVertex
  10
0.59500
  20
1.10500
  30
0.00000
  42
0.0590
  70
32
  0
VERTEX
  5
A61
  100
AcDbEntity
  8
Layer 1
  62
0
  100
AcDb2dVertex
  10
0.57730
  20
1.09154
  30
0.00000
  42
0.1844
  70
32
  0
VERTEX
  5
A62
  100
AcDbEntity
  8
Layer 1
  62
0
  100
AcDb2dVertex
  10
0.57400
  20
1.08500
  30
0.00000
  70
32
  0
VERTEX
  5
A63
  100
AcDbEntity
  8
Layer 1
  62
0
  100
AcDb2dVertex
  10
0.60400
  20
1.04400
  30
0.00000
  42
-0.1328
  70
32
  0
VERTEX
  5
A64
  100
AcDbEntity
  8
Layer 1
  62
0
  100
AcDb2dVertex
  10
0.61990
  20
0.99786
  30
0.00000
  70
32
  0
VERTEX
  5
A65
  100
AcDbEntity
  8
Layer 1
  62
0
  100
AcDb2dVertex
  10
0.62000
  20
0.99400
  30
0.00000
  70
32
  0
SEQEND
  5
A66
  100
AcDbEntity
  8
Layer 1
  62
0
  0
POLYLINE
  5
A67
  100
AcDbEntity
  8
Layer 1
  62
0
  100
AcDb2dPolyline
 66
     1
  10
0
  20
0
  30
0
  70
1
  0
VERTEX
  5
A68
  100
AcDbEntity
  8
Layer 1
  62
0
  100
AcDb2dVertex
  10
1.53200
  20
0.07700
  30
0.00000
  42
-0.1744
  70
32
  0
VERTEX
  5
A69
  100
AcDbEntity
  8
Layer 1
  62
0
  100
AcDb2dVertex
  10
1.52427
  20
0.05778
  30
0.00000
  42
-0.0850
  70
32
  0
VERTEX
  5
A6A
  100
AcDbEntity
  8
Layer 1
  62
0
  100
AcDb2dVertex
  10
1.50014
  20
0.03810
  30
0.00000
  42
-0.0284
  70
32
  0
VERTEX
  5
A6B
  100
AcDbEntity
  8
Layer 1
  62
0
  100
AcDb2dVertex
  10
1.47700
  20
0.02600
  30
0.00000
  42
-0.0414
  70
32
  0
VERTEX
  5
A6C
  100
AcDbEntity
  8
Layer 1
  62
0
  100
AcDb2dVertex
  10
1.41904
  20
0.00460
  30
0.00000
  42
-0.0625
  70
32
  0
VERTEX
  5
A6D
  100
AcDbEntity
  8
Layer 1
  62
0
  100
AcDb2dVertex
  10
1.38700
  20
0.00000
  30
0.00000
  42
-0.1371
  70
32
  0
VERTEX
  5
A6E
  100
AcDbEntity
  8
Layer 1
  62
0
  100
AcDb2dVertex
  10
1.28246
  20
0.02935
  30
0.00000
  42
-0.0195
  70
32
  0
VERTEX
  5
A6F
  100
AcDbEntity
  8
Layer 1
  62
0
  100
AcDb2dVertex
  10
1.26600
  20
0.04000
  30
0.00000
  42
-0.0206
  70
32
  0
VERTEX
  5
A70
  100
AcDbEntity
  8
Layer 1
  62
0
  100
AcDb2dVertex
  10
1.22333
  20
0.07381
  30
0.00000
  42
-0.0998
  70
32
  0
VERTEX
  5
A71
  100
AcDbEntity
  8
Layer 1
  62
0
  100
AcDb2dVertex
  10
1.21839
  20
0.07941
  30
0.00000
  42
-0.6136
  70
32
  0
VERTEX
  5
A72
  100
AcDbEntity
  8
Layer 1
  62
0
  100
AcDb2dVertex
  10
1.21900
  20
0.08000
  30
0.00000
  42
0.2472
  70
32
  0
VERTEX
  5
A73
  100
AcDbEntity
  8
Layer 1
  62
0
  100
AcDb2dVertex
  10
1.20709
  20
0.07320
  30
0.00000
  42
0.1025
  70
32
  0
VERTEX
  5
A74
  100
AcDbEntity
  8
Layer 1
  62
0
  100
AcDb2dVertex
  10
1.19900
  20
0.05300
  30
0.00000
  42
-0.1102
  70
32
  0
VERTEX
  5
A75
  100
AcDbEntity
  8
Layer 1
  62
0
  100
AcDb2dVertex
  10
1.19064
  20
0.03237
  30
0.00000
  42
-0.2428
  70
32
  0
VERTEX
  5
A76
  100
AcDbEntity
  8
Layer 1
  62
0
  100
AcDb2dVertex
  10
1.17700
  20
0.02500
  30
0.00000
  42
-0.1243
  70
32
  0
VERTEX
  5
A77
  100
AcDbEntity
  8
Layer 1
  62
0
  100
AcDb2dVertex
  10
1.16737
  20
0.02892
  30
0.00000
  42
-0.0468
  70
32
  0
VERTEX
  5
A78
  100
AcDbEntity
  8
Layer 1
  62
0
  100
AcDb2dVertex
  10
1.14500
  20
0.04700
  30
0.00000
  42
-0.0580
  70
32
  0
VERTEX
  5
A79
  100
AcDbEntity
  8
Layer 1
  62
0
  100
AcDb2dVertex
  10
1.12470
  20
0.06808
  30
0.00000
  42
-0.1440
  70
32
  0
VERTEX
  5
A7A
  100
AcDbEntity
  8
Layer 1
  62
0
  100
AcDb2dVertex
  10
1.12100
  20
0.07700
  30
0.00000
  42
-0.0483
  70
32
  0
VERTEX
  5
A7B
  100
AcDbEntity
  8
Layer 1
  62
0
  100
AcDb2dVertex
  10
1.12600
  20
0.08900
  30
0.00000
  42
0.0523
  70
32
  0
VERTEX
  5
A7C
  100
AcDbEntity
  8
Layer 1
  62
0
  100
AcDb2dVertex
  10
1.15970
  20
0.10809
  30
0.00000
  42
0.1183
  70
32
  0
VERTEX
  5
A7D
  100
AcDbEntity
  8
Layer 1
  62
0
  100
AcDb2dVertex
  10
1.17021
  20
0.11967
  30
0.00000
  70
32
  0
VERTEX
  5
A7E
  100
AcDbEntity
  8
Layer 1
  62
0
  100
AcDb2dVertex
  10
1.17100
  20
0.12200
  30
0.00000
  42
-0.0489
  70
32
  0
VERTEX
  5
A7F
  100
AcDbEntity
  8
Layer 1
  62
0
  100
AcDb2dVertex
  10
1.11378
  20
0.19476
  30
0.00000
  42
-0.0723
  70
32
  0
VERTEX
  5
A80
  100
AcDbEntity
  8
Layer 1
  62
0
  100
AcDb2dVertex
  10
1.08615
  20
0.25546
  30
0.00000
  42
-0.0666
  70
32
  0
VERTEX
  5
A81
  100
AcDbEntity
  8
Layer 1
  62
0
  100
AcDb2dVertex
  10
1.08100
  20
0.29200
  30
0.00000
  42
-0.0677
  70
32
  0
VERTEX
  5
A82
  100
AcDbEntity
  8
Layer 1
  62
0
  100
AcDb2dVertex
  10
1.08837
  20
0.33744
  30
0.00000
  42
-0.0263
  70
32
  0
VERTEX
  5
A83
  100
AcDbEntity
  8
Layer 1
  62
0
  100
AcDb2dVertex
  10
1.10100
  20
0.37400
  30
0.00000
  42
-0.0584
  70
32
  0
VERTEX
  5
A84
  100
AcDbEntity
  8
Layer 1
  62
0
  100
AcDb2dVertex
  10
1.12043
  20
0.41381
  30
0.00000
  42
-0.1115
  70
32
  0
VERTEX
  5
A85
  100
AcDbEntity
  8
Layer 1
  62
0
  100
AcDb2dVertex
  10
1.13709
  20
0.43064
  30
0.00000
  42
-0.1328
  70
32
  0
VERTEX
  5
A86
  100
AcDbEntity
  8
Layer 1
  62
0
  100
AcDb2dVertex
  10
1.14900
  20
0.43400
  30
0.00000
  42
-0.3603
  70
32
  0
VERTEX
  5
A87
  100
AcDbEntity
  8
Layer 1
  62
0
  100
AcDb2dVertex
  10
1.15900
  20
0.42900
  30
0.00000
  70
32
  0
VERTEX
  5
A88
  100
AcDbEntity
  8
Layer 1
  62
0
  100
AcDb2dVertex
  10
1.13200
  20
0.37200
  30
0.00000
  42
0.0890
  70
32
  0
VERTEX
  5
A89
  100
AcDbEntity
  8
Layer 1
  62
0
  100
AcDb2dVertex
  10
1.11642
  20
0.31921
  30
0.00000
  42
0.0222
  70
32
  0
VERTEX
  5
A8A
  100
AcDbEntity
  8
Layer 1
  62
0
  100
AcDb2dVertex
  10
1.11600
  20
0.31000
  30
0.00000
  42
0.0903
  70
32
  0
VERTEX
  5
A8B
  100
AcDbEntity
  8
Layer 1
  62
0
  100
AcDb2dVertex
  10
1.12710
  20
0.24305
  30
0.00000
  42
0.0775
  70
32
  0
VERTEX
  5
A8C
  100
AcDbEntity
  8
Layer 1
  62
0
  100
AcDb2dVertex
  10
1.14900
  20
0.20400
  30
0.00000
  42
0.0153
  70
32
  0
VERTEX
  5
A8D
  100
AcDbEntity
  8
Layer 1
  62
0
  100
AcDb2dVertex
  10
1.21900
  20
0.12400
  30
0.00000
  70
32
  0
VERTEX
  5
A8E
  100
AcDbEntity
  8
Layer 1
  62
0
  100
AcDb2dVertex
  10
1.20100
  20
0.10700
  30
0.00000
  70
32
  0
VERTEX
  5
A8F
  100
AcDbEntity
  8
Layer 1
  62
0
  100
AcDb2dVertex
  10
1.21900
  20
0.12400
  30
0.00000
  42
0.0502
  70
32
  0
VERTEX
  5
A90
  100
AcDbEntity
  8
Layer 1
  62
0
  100
AcDb2dVertex
  10
1.29480
  20
0.06756
  30
0.00000
  42
0.0754
  70
32
  0
VERTEX
  5
A91
  100
AcDbEntity
  8
Layer 1
  62
0
  100
AcDb2dVertex
  10
1.36295
  20
0.03946
  30
0.00000
  42
0.0568
  70
32
  0
VERTEX
  5
A92
  100
AcDbEntity
  8
Layer 1
  62
0
  100
AcDb2dVertex
  10
1.40100
  20
0.03500
  30
0.00000
  42
0.1171
  70
32
  0
VERTEX
  5
A93
  100
AcDbEntity
  8
Layer 1
  62
0
  100
AcDb2dVertex
  10
1.46173
  20
0.05046
  30
0.00000
  42
0.0285
  70
32
  0
VERTEX
  5
A94
  100
AcDbEntity
  8
Layer 1
  62
0
  100
AcDb2dVertex
  10
1.48000
  20
0.06100
  30
0.00000
  70
32
  0
VERTEX
  5
A95
  100
AcDbEntity
  8
Layer 1
  62
0
  100
AcDb2dVertex
  10
1.50988
  20
0.08037
  30
0.00000
  42
-0.0360
  70
32
  0
VERTEX
  5
A96
  100
AcDbEntity
  8
Layer 1
  62
0
  100
AcDb2dVertex
  10
1.52100
  20
0.08700
  30
0.00000
  42
-0.3200
  70
32
  0
VERTEX
  5
A97
  100
AcDbEntity
  8
Layer 1
  62
0
  100
AcDb2dVertex
  10
1.53094
  20
0.07996
  30
0.00000
  70
32
  0
VERTEX
  5
A98
  100
AcDbEntity
  8
Layer 1
  62
0
  100
AcDb2dVertex
  10
1.53200
  20
0.07700
  30
0.00000
  70
32
  0
SEQEND
  5
A99
  100
AcDbEntity
  8
Layer 1
  62
0
  0
POLYLINE
  5
A9A
  100
AcDbEntity
  8
Layer 1
  62
0
  100
AcDb2dPolyline
 66
     1
  10
0
  20
0
  30
0
  70
1
  0
VERTEX
  5
A9B
  100
AcDbEntity
  8
Layer 1
  62
0
  100
AcDb2dVertex
  10
0.32900
  20
1.19400
  30
0.00000
  42
-0.2761
  70
32
  0
VERTEX
  5
A9C
  100
AcDbEntity
  8
Layer 1
  62
0
  100
AcDb2dVertex
  10
0.32247
  20
1.18366
  30
0.00000
  42
-0.1025
  70
32
  0
VERTEX
  5
A9D
  100
AcDbEntity
  8
Layer 1
  62
0
  100
AcDb2dVertex
  10
0.30338
  20
1.17807
  30
0.00000
  42
-0.0313
  70
32
  0
VERTEX
  5
A9E
  100
AcDbEntity
  8
Layer 1
  62
0
  100
AcDb2dVertex
  10
0.28400
  20
1.17700
  30
0.00000
  42
-0.2058
  70
32
  0
VERTEX
  5
A9F
  100
AcDbEntity
  8
Layer 1
  62
0
  100
AcDb2dVertex
  10
0.23524
  20
1.19769
  30
0.00000
  70
32
  0
VERTEX
  5
AA0
  100
AcDbEntity
  8
Layer 1
  62
0
  100
AcDb2dVertex
  10
0.23300
  20
1.20000
  30
0.00000
  42
0.0281
  70
32
  0
VERTEX
  5
AA1
  100
AcDbEntity
  8
Layer 1
  62
0
  100
AcDb2dVertex
  10
0.21266
  20
1.22052
  30
0.00000
  42
0.1362
  70
32
  0
VERTEX
  5
AA2
  100
AcDbEntity
  8
Layer 1
  62
0
  100
AcDb2dVertex
  10
0.21000
  20
1.22200
  30
0.00000
  42
0.1584
  70
32
  0
VERTEX
  5
AA3
  100
AcDbEntity
  8
Layer 1
  62
0
  100
AcDb2dVertex
  10
0.20117
  20
1.21788
  30
0.00000
  42
0.0444
  70
32
  0
VERTEX
  5
AA4
  100
AcDbEntity
  8
Layer 1
  62
0
  100
AcDb2dVertex
  10
0.19200
  20
1.20900
  30
0.00000
  42
-0.1039
  70
32
  0
VERTEX
  5
AA5
  100
AcDbEntity
  8
Layer 1
  62
0
  100
AcDb2dVertex
  10
0.17711
  20
1.19679
  30
0.00000
  42
-0.1071
  70
32
  0
VERTEX
  5
AA6
  100
AcDbEntity
  8
Layer 1
  62
0
  100
AcDb2dVertex
  10
0.16900
  20
1.19500
  30
0.00000
  42
-0.2653
  70
32
  0
VERTEX
  5
AA7
  100
AcDbEntity
  8
Layer 1
  62
0
  100
AcDb2dVertex
  10
0.15443
  20
1.20343
  30
0.00000
  42
-0.0993
  70
32
  0
VERTEX
  5
AA8
  100
AcDbEntity
  8
Layer 1
  62
0
  100
AcDb2dVertex
  10
0.14688
  20
1.22467
  30
0.00000
  42
-0.0448
  70
32
  0
VERTEX
  5
AA9
  100
AcDbEntity
  8
Layer 1
  62
0
  100
AcDb2dVertex
  10
0.14400
  20
1.26400
  30
0.00000
  42
-0.2075
  70
32
  0
VERTEX
  5
AAA
  100
AcDbEntity
  8
Layer 1
  62
0
  100
AcDb2dVertex
  10
0.14790
  20
1.27540
  30
0.00000
  42
-0.1964
  70
32
  0
VERTEX
  5
AAB
  100
AcDbEntity
  8
Layer 1
  62
0
  100
AcDb2dVertex
  10
0.15900
  20
1.27900
  30
0.00000
  42
-0.0515
  70
32
  0
VERTEX
  5
AAC
  100
AcDbEntity
  8
Layer 1
  62
0
  100
AcDb2dVertex
  10
0.16910
  20
1.27682
  30
0.00000
  70
32
  0
VERTEX
  5
AAD
  100
AcDbEntity
  8
Layer 1
  62
0
  100
AcDb2dVertex
  10
0.17600
  20
1.27500
  30
0.00000
  70
32
  0
VERTEX
  5
AAE
  100
AcDbEntity
  8
Layer 1
  62
0
  100
AcDb2dVertex
  10
0.18046
  20
1.27349
  30
0.00000
  70
32
  0
VERTEX
  5
AAF
  100
AcDbEntity
  8
Layer 1
  62
0
  100
AcDb2dVertex
  10
0.18836
  20
1.27094
  30
0.00000
  42
0.0670
  70
32
  0
VERTEX
  5
AB0
  100
AcDbEntity
  8
Layer 1
  62
0
  100
AcDb2dVertex
  10
0.19400
  20
1.27000
  30
0.00000
  42
0.2187
  70
32
  0
VERTEX
  5
AB1
  100
AcDbEntity
  8
Layer 1
  62
0
  100
AcDb2dVertex
  10
0.20167
  20
1.27450
  30
0.00000
  42
0.0766
  70
32
  0
VERTEX
  5
AB2
  100
AcDbEntity
  8
Layer 1
  62
0
  100
AcDb2dVertex
  10
0.21211
  20
1.29369
  30
0.00000
  42
0.0184
  70
32
  0
VERTEX
  5
AB3
  100
AcDbEntity
  8
Layer 1
  62
0
  100
AcDb2dVertex
  10
0.21900
  20
1.31300
  30
0.00000
  42
-0.1348
  70
32
  0
VERTEX
  5
AB4
  100
AcDbEntity
  8
Layer 1
  62
0
  100
AcDb2dVertex
  10
0.23632
  20
1.34143
  30
0.00000
  42
-0.1617
  70
32
  0
VERTEX
  5
AB5
  100
AcDbEntity
  8
Layer 1
  62
0
  100
AcDb2dVertex
  10
0.26824
  20
1.35457
  30
0.00000
  42
-0.0254
  70
32
  0
VERTEX
  5
AB6
  100
AcDbEntity
  8
Layer 1
  62
0
  100
AcDb2dVertex
  10
0.27700
  20
1.35500
  30
0.00000
  42
-0.1225
  70
32
  0
VERTEX
  5
AB7
  100
AcDbEntity
  8
Layer 1
  62
0
  100
AcDb2dVertex
  10
0.29067
  20
1.35253
  30
0.00000
  42
-0.2937
  70
32
  0
VERTEX
  5
AB8
  100
AcDbEntity
  8
Layer 1
  62
0
  100
AcDb2dVertex
  10
0.29500
  20
1.34500
  30
0.00000
  42
-0.2604
  70
32
  0
VERTEX
  5
AB9
  100
AcDbEntity
  8
Layer 1
  62
0
  100
AcDb2dVertex
  10
0.28865
  20
1.33437
  30
0.00000
  42
-0.0909
  70
32
  0
VERTEX
  5
ABA
  100
AcDbEntity
  8
Layer 1
  62
0
  100
AcDb2dVertex
  10
0.26931
  20
1.32701
  30
0.00000
  70
32
  0
VERTEX
  5
ABB
  100
AcDbEntity
  8
Layer 1
  62
0
  100
AcDb2dVertex
  10
0.25900
  20
1.32500
  30
0.00000
  42
0.1342
  70
32
  0
VERTEX
  5
ABC
  100
AcDbEntity
  8
Layer 1
  62
0
  100
AcDb2dVertex
  10
0.23963
  20
1.31064
  30
0.00000
  42
0.1410
  70
32
  0
VERTEX
  5
ABD
  100
AcDbEntity
  8
Layer 1
  62
0
  100
AcDb2dVertex
  10
0.23400
  20
1.29500
  30
0.00000
  42
-0.0681
  70
32
  0
VERTEX
  5
ABE
  100
AcDbEntity
  8
Layer 1
  62
0
  100
AcDb2dVertex
  10
0.23541
  20
1.30338
  30
0.00000
  42
-0.6298
  70
32
  0
VERTEX
  5
ABF
  100
AcDbEntity
  8
Layer 1
  62
0
  100
AcDb2dVertex
  10
0.23583
  20
1.30282
  30
0.00000
  42
-0.0316
  70
32
  0
VERTEX
  5
AC0
  100
AcDbEntity
  8
Layer 1
  62
0
  100
AcDb2dVertex
  10
0.23686
  20
1.28043
  30
0.00000
  70
32
  0
VERTEX
  5
AC1
  100
AcDbEntity
  8
Layer 1
  62
0
  100
AcDb2dVertex
  10
0.23700
  20
1.25500
  30
0.00000
  42
0.0589
  70
32
  0
VERTEX
  5
AC2
  100
AcDbEntity
  8
Layer 1
  62
0
  100
AcDb2dVertex
  10
0.25408
  20
1.21988
  30
0.00000
  42
0.0789
  70
32
  0
VERTEX
  5
AC3
  100
AcDbEntity
  8
Layer 1
  62
0
  100
AcDb2dVertex
  10
0.26300
  20
1.21000
  30
0.00000
  42
0.0942
  70
32
  0
VERTEX
  5
AC4
  100
AcDbEntity
  8
Layer 1
  62
0
  100
AcDb2dVertex
  10
0.28218
  20
1.20401
  30
0.00000
  42
0.0389
  70
32
  0
VERTEX
  5
AC5
  100
AcDbEntity
  8
Layer 1
  62
0
  100
AcDb2dVertex
  10
0.31200
  20
1.20200
  30
0.00000
  42
-0.1297
  70
32
  0
VERTEX
  5
AC6
  100
AcDbEntity
  8
Layer 1
  62
0
  100
AcDb2dVertex
  10
0.32567
  20
1.19931
  30
0.00000
  42
-0.2765
  70
32
  0
VERTEX
  5
AC7
  100
AcDbEntity
  8
Layer 1
  62
0
  100
AcDb2dVertex
  10
0.32900
  20
1.19400
  30
0.00000
  70
32
  0
SEQEND
  5
AC8
  100
AcDbEntity
  8
Layer 1
  62
0
  0
POLYLINE
  5
AC9
  100
AcDbEntity
  8
Layer 1
  62
0
  100
AcDb2dPolyline
 66
     1
  10
0
  20
0
  30
0
  70
1
  0
VERTEX
  5
ACA
  100
AcDbEntity
  8
Layer 1
  62
0
  100
AcDb2dVertex
  10
0.95900
  20
0.52000
  30
0.00000
  42
-0.0566
  70
32
  0
VERTEX
  5
ACB
  100
AcDbEntity
  8
Layer 1
  62
0
  100
AcDb2dVertex
  10
0.95544
  20
0.48039
  30
0.00000
  42
-0.1173
  70
32
  0
VERTEX
  5
ACC
  100
AcDbEntity
  8
Layer 1
  62
0
  100
AcDb2dVertex
  10
0.94807
  20
0.46384
  30
0.00000
  42
-0.2039
  70
32
  0
VERTEX
  5
ACD
  100
AcDbEntity
  8
Layer 1
  62
0
  100
AcDb2dVertex
  10
0.93900
  20
0.45900
  30
0.00000
  70
32
  0
VERTEX
  5
ACE
  100
AcDbEntity
  8
Layer 1
  62
0
  100
AcDb2dVertex
  10
0.92900
  20
0.46400
  30
0.00000
  42
0.0203
  70
32
  0
VERTEX
  5
ACF
  100
AcDbEntity
  8
Layer 1
  62
0
  100
AcDb2dVertex
  10
0.93109
  20
0.47691
  30
0.00000
  70
32
  0
VERTEX
  5
AD0
  100
AcDbEntity
  8
Layer 1
  62
0
  100
AcDb2dVertex
  10
0.93300
  20
0.49000
  30
0.00000
  42
0.0341
  70
32
  0
VERTEX
  5
AD1
  100
AcDbEntity
  8
Layer 1
  62
0
  100
AcDb2dVertex
  10
0.93600
  20
0.52200
  30
0.00000
  42
0.1406
  70
32
  0
VERTEX
  5
AD2
  100
AcDbEntity
  8
Layer 1
  62
0
  100
AcDb2dVertex
  10
0.91716
  20
0.58588
  30
0.00000
  42
0.0789
  70
32
  0
VERTEX
  5
AD3
  100
AcDbEntity
  8
Layer 1
  62
0
  100
AcDb2dVertex
  10
0.87483
  20
0.63378
  30
0.00000
  42
0.0285
  70
32
  0
VERTEX
  5
AD4
  100
AcDbEntity
  8
Layer 1
  62
0
  100
AcDb2dVertex
  10
0.84400
  20
0.65700
  30
0.00000
  70
32
  0
VERTEX
  5
AD5
  100
AcDbEntity
  8
Layer 1
  62
0
  100
AcDb2dVertex
  10
0.86200
  20
0.67700
  30
0.00000
  70
32
  0
VERTEX
  5
AD6
  100
AcDbEntity
  8
Layer 1
  62
0
  100
AcDb2dVertex
  10
0.84400
  20
0.65700
  30
0.00000
  42
0.0810
  70
32
  0
VERTEX
  5
AD7
  100
AcDbEntity
  8
Layer 1
  62
0
  100
AcDb2dVertex
  10
0.78280
  20
0.70235
  30
0.00000
  42
0.1175
  70
32
  0
VERTEX
  5
AD8
  100
AcDbEntity
  8
Layer 1
  62
0
  100
AcDb2dVertex
  10
0.71000
  20
0.72000
  30
0.00000
  42
0.0581
  70
32
  0
VERTEX
  5
AD9
  100
AcDbEntity
  8
Layer 1
  62
0
  100
AcDb2dVertex
  10
0.67769
  20
0.71470
  30
0.00000
  70
32
  0
VERTEX
  5
ADA
  100
AcDbEntity
  8
Layer 1
  62
0
  100
AcDb2dVertex
  10
0.67500
  20
0.71400
  30
0.00000
  42
-0.0728
  70
32
  0
VERTEX
  5
ADB
  100
AcDbEntity
  8
Layer 1
  62
0
  100
AcDb2dVertex
  10
0.64081
  20
0.70701
  30
0.00000
  70
32
  0
VERTEX
  5
ADC
  100
AcDbEntity
  8
Layer 1
  62
0
  100
AcDb2dVertex
  10
0.64000
  20
0.70700
  30
0.00000
  70
32
  0
VERTEX
  5
ADD
  100
AcDbEntity
  8
Layer 1
  62
0
  100
AcDb2dVertex
  10
0.63200
  20
0.71700
  30
0.00000
  42
-0.2160
  70
32
  0
VERTEX
  5
ADE
  100
AcDbEntity
  8
Layer 1
  62
0
  100
AcDb2dVertex
  10
0.63696
  20
0.72590
  30
0.00000
  42
-0.0875
  70
32
  0
VERTEX
  5
ADF
  100
AcDbEntity
  8
Layer 1
  62
0
  100
AcDb2dVertex
  10
0.65664
  20
0.73650
  30
0.00000
  70
32
  0
VERTEX
  5
AE0
  100
AcDbEntity
  8
Layer 1
  62
0
  100
AcDb2dVertex
  10
0.66700
  20
0.74000
  30
0.00000
  42
-0.0533
  70
32
  0
VERTEX
  5
AE1
  100
AcDbEntity
  8
Layer 1
  62
0
  100
AcDb2dVertex
  10
0.70914
  20
0.74883
  30
0.00000
  70
32
  0
VERTEX
  5
AE2
  100
AcDbEntity
  8
Layer 1
  62
0
  100
AcDb2dVertex
  10
0.71400
  20
0.74900
  30
0.00000
  42
-0.0842
  70
32
  0
VERTEX
  5
AE3
  100
AcDbEntity
  8
Layer 1
  62
0
  100
AcDb2dVertex
  10
0.75239
  20
0.74139
  30
0.00000
  42
-0.0371
  70
32
  0
VERTEX
  5
AE4
  100
AcDbEntity
  8
Layer 1
  62
0
  100
AcDb2dVertex
  10
0.79100
  20
0.72400
  30
0.00000
  70
32
  0
VERTEX
  5
AE5
  100
AcDbEntity
  8
Layer 1
  62
0
  100
AcDb2dVertex
  10
0.83700
  20
0.70000
  30
0.00000
  42
0.2113
  70
32
  0
VERTEX
  5
AE6
  100
AcDbEntity
  8
Layer 1
  62
0
  100
AcDb2dVertex
  10
0.84307
  20
0.70376
  30
0.00000
  42
0.0647
  70
32
  0
VERTEX
  5
AE7
  100
AcDbEntity
  8
Layer 1
  62
0
  100
AcDb2dVertex
  10
0.85413
  20
0.72287
  30
0.00000
  70
32
  0
VERTEX
  5
AE8
  100
AcDbEntity
  8
Layer 1
  62
0
  100
AcDb2dVertex
  10
0.85600
  20
0.72700
  30
0.00000
  42
-0.0770
  70
32
  0
VERTEX
  5
AE9
  100
AcDbEntity
  8
Layer 1
  62
0
  100
AcDb2dVertex
  10
0.86752
  20
0.74869
  30
0.00000
  42
-0.1888
  70
32
  0
VERTEX
  5
AEA
  100
AcDbEntity
  8
Layer 1
  62
0
  100
AcDb2dVertex
  10
0.87533
  20
0.75396
  30
0.00000
  70
32
  0
VERTEX
  5
AEB
  100
AcDbEntity
  8
Layer 1
  62
0
  100
AcDb2dVertex
  10
0.87600
  20
0.75400
  30
0.00000
  42
-0.1220
  70
32
  0
VERTEX
  5
AEC
  100
AcDbEntity
  8
Layer 1
  62
0
  100
AcDb2dVertex
  10
0.88367
  20
0.75046
  30
0.00000
  42
-0.0330
  70
32
  0
VERTEX
  5
AED
  100
AcDbEntity
  8
Layer 1
  62
0
  100
AcDb2dVertex
  10
0.91000
  20
0.72900
  30
0.00000
  42
-0.0330
  70
32
  0
VERTEX
  5
AEE
  100
AcDbEntity
  8
Layer 1
  62
0
  100
AcDb2dVertex
  10
0.93355
  20
0.70630
  30
0.00000
  70
32
  0
VERTEX
  5
AEF
  100
AcDbEntity
  8
Layer 1
  62
0
  100
AcDb2dVertex
  10
0.93614
  20
0.70264
  30
0.00000
  42
-0.1221
  70
32
  0
VERTEX
  5
AF0
  100
AcDbEntity
  8
Layer 1
  62
0
  100
AcDb2dVertex
  10
0.93700
  20
0.70000
  30
0.00000
  42
-0.1939
  70
32
  0
VERTEX
  5
AF1
  100
AcDbEntity
  8
Layer 1
  62
0
  100
AcDb2dVertex
  10
0.93292
  20
0.69287
  30
0.00000
  42
-0.0792
  70
32
  0
VERTEX
  5
AF2
  100
AcDbEntity
  8
Layer 1
  62
0
  100
AcDb2dVertex
  10
0.91400
  20
0.68100
  30
0.00000
  42
0.0720
  70
32
  0
VERTEX
  5
AF3
  100
AcDbEntity
  8
Layer 1
  62
0
  100
AcDb2dVertex
  10
0.89404
  20
0.66963
  30
0.00000
  42
0.1731
  70
32
  0
VERTEX
  5
AF4
  100
AcDbEntity
  8
Layer 1
  62
0
  100
AcDb2dVertex
  10
0.88900
  20
0.66200
  30
0.00000
  42
-0.0201
  70
32
  0
VERTEX
  5
AF5
  100
AcDbEntity
  8
Layer 1
  62
0
  100
AcDb2dVertex
  10
0.93900
  20
0.59900
  30
0.00000
  42
-0.1273
  70
32
  0
VERTEX
  5
AF6
  100
AcDbEntity
  8
Layer 1
  62
0
  100
AcDb2dVertex
  10
0.95900
  20
0.52000
  30
0.00000
  70
32
  0
SEQEND
  5
AF7
  100
AcDbEntity
  8
Layer 1
  62
0
  0
POLYLINE
  5
AF8
  100
AcDbEntity
  8
Layer 1
  62
0
  100
AcDb2dPolyline
 66
     1
  10
0
  20
0
  30
0
  70
1
  0
VERTEX
  5
AF9
  100
AcDbEntity
  8
Layer 1
  62
0
  100
AcDb2dVertex
  10
0.82600
  20
0.60900
  30
0.00000
  70
32
  0
VERTEX
  5
AFA
  100
AcDbEntity
  8
Layer 1
  62
0
  100
AcDb2dVertex
  10
0.82100
  20
0.58900
  30
0.00000
  42
0.0671
  70
32
  0
VERTEX
  5
AFB
  100
AcDbEntity
  8
Layer 1
  62
0
  100
AcDb2dVertex
  10
0.79193
  20
0.57587
  30
0.00000
  70
32
  0
VERTEX
  5
AFC
  100
AcDbEntity
  8
Layer 1
  62
0
  100
AcDb2dVertex
  10
0.78100
  20
0.56900
  30
0.00000
  42
-0.0508
  70
32
  0
VERTEX
  5
AFD
  100
AcDbEntity
  8
Layer 1
  62
0
  100
AcDb2dVertex
  10
0.75342
  20
0.53850
  30
0.00000
  42
-0.1112
  70
32
  0
VERTEX
  5
AFE
  100
AcDbEntity
  8
Layer 1
  62
0
  100
AcDb2dVertex
  10
0.73964
  20
0.53033
  30
0.00000
  70
32
  0
VERTEX
  5
AFF
  100
AcDbEntity
  8
Layer 1
  62
0
  100
AcDb2dVertex
  10
0.73700
  20
0.53000
  30
0.00000
  42
-0.3420
  70
32
  0
VERTEX
  5
B00
  100
AcDbEntity
  8
Layer 1
  62
0
  100
AcDb2dVertex
  10
0.72400
  20
0.53900
  30
0.00000
  70
32
  0
VERTEX
  5
B01
  100
AcDbEntity
  8
Layer 1
  62
0
  100
AcDb2dVertex
  10
0.72900
  20
0.54700
  30
0.00000
  42
0.0607
  70
32
  0
VERTEX
  5
B02
  100
AcDbEntity
  8
Layer 1
  62
0
  100
AcDb2dVertex
  10
0.75796
  20
0.57499
  30
0.00000
  42
0.1197
  70
32
  0
VERTEX
  5
B03
  100
AcDbEntity
  8
Layer 1
  62
0
  100
AcDb2dVertex
  10
0.76650
  20
0.59225
  30
0.00000
  42
0.1224
  70
32
  0
VERTEX
  5
B04
  100
AcDbEntity
  8
Layer 1
  62
0
  100
AcDb2dVertex
  10
0.76600
  20
0.60000
  30
0.00000
  70
32
  0
VERTEX
  5
B05
  100
AcDbEntity
  8
Layer 1
  62
0
  100
AcDb2dVertex
  10
0.78400
  20
0.60200
  30
0.00000
  70
32
  0
VERTEX
  5
B06
  100
AcDbEntity
  8
Layer 1
  62
0
  100
AcDb2dVertex
  10
0.76600
  20
0.60000
  30
0.00000
  42
0.1626
  70
32
  0
VERTEX
  5
B07
  100
AcDbEntity
  8
Layer 1
  62
0
  100
AcDb2dVertex
  10
0.75792
  20
0.62750
  30
0.00000
  42
0.1387
  70
32
  0
VERTEX
  5
B08
  100
AcDbEntity
  8
Layer 1
  62
0
  100
AcDb2dVertex
  10
0.74000
  20
0.64100
  30
0.00000
  42
-0.0941
  70
32
  0
VERTEX
  5
B09
  100
AcDbEntity
  8
Layer 1
  62
0
  100
AcDb2dVertex
  10
0.71981
  20
0.65253
  30
0.00000
  42
-0.2104
  70
32
  0
VERTEX
  5
B0A
  100
AcDbEntity
  8
Layer 1
  62
0
  100
AcDb2dVertex
  10
0.71400
  20
0.66400
  30
0.00000
  42
-0.3610
  70
32
  0
VERTEX
  5
B0B
  100
AcDbEntity
  8
Layer 1
  62
0
  100
AcDb2dVertex
  10
0.71969
  20
0.67106
  30
0.00000
  42
-0.0768
  70
32
  0
VERTEX
  5
B0C
  100
AcDbEntity
  8
Layer 1
  62
0
  100
AcDb2dVertex
  10
0.72700
  20
0.67200
  30
0.00000
  42
-0.1719
  70
32
  0
VERTEX
  5
B0D
  100
AcDbEntity
  8
Layer 1
  62
0
  100
AcDb2dVertex
  10
0.75549
  20
0.66307
  30
0.00000
  42
-0.0456
  70
32
  0
VERTEX
  5
B0E
  100
AcDbEntity
  8
Layer 1
  62
0
  100
AcDb2dVertex
  10
0.76200
  20
0.65700
  30
0.00000
  70
32
  0
VERTEX
  5
B0F
  100
AcDbEntity
  8
Layer 1
  62
0
  100
AcDb2dVertex
  10
0.78200
  20
0.63400
  30
0.00000
  42
-0.0220
  70
32
  0
VERTEX
  5
B10
  100
AcDbEntity
  8
Layer 1
  62
0
  100
AcDb2dVertex
  10
0.79974
  20
0.63050
  30
0.00000
  70
32
  0
VERTEX
  5
B11
  100
AcDbEntity
  8
Layer 1
  62
0
  100
AcDb2dVertex
  10
0.81600
  20
0.62700
  30
0.00000
  42
-0.2788
  70
32
  0
VERTEX
  5
B12
  100
AcDbEntity
  8
Layer 1
  62
0
  100
AcDb2dVertex
  10
0.82594
  20
0.61090
  30
0.00000
  70
32
  0
VERTEX
  5
B13
  100
AcDbEntity
  8
Layer 1
  62
0
  100
AcDb2dVertex
  10
0.82600
  20
0.60900
  30
0.00000
  70
32
  0
SEQEND
  5
B14
  100
AcDbEntity
  8
Layer 1
  62
0
  0
POLYLINE
  5
B15
  100
AcDbEntity
  8
Layer 1
  62
0
  100
AcDb2dPolyline
 66
     1
  10
0
  20
0
  30
0
  70
1
  0
VERTEX
  5
B16
  100
AcDbEntity
  8
Layer 1
  62
0
  100
AcDb2dVertex
  10
0.60400
  20
0.93900
  30
0.00000
  42
-0.2824
  70
32
  0
VERTEX
  5
B17
  100
AcDbEntity
  8
Layer 1
  62
0
  100
AcDb2dVertex
  10
0.59424
  20
0.92265
  30
0.00000
  42
-0.1014
  70
32
  0
VERTEX
  5
B18
  100
AcDbEntity
  8
Layer 1
  62
0
  100
AcDb2dVertex
  10
0.57227
  20
0.91613
  30
0.00000
  42
-0.0314
  70
32
  0
VERTEX
  5
B19
  100
AcDbEntity
  8
Layer 1
  62
0
  100
AcDb2dVertex
  10
0.55200
  20
0.91500
  30
0.00000
  42
-0.0515
  70
32
  0
VERTEX
  5
B1A
  100
AcDbEntity
  8
Layer 1
  62
0
  100
AcDb2dVertex
  10
0.49908
  20
0.92178
  30
0.00000
  42
-0.0220
  70
32
  0
VERTEX
  5
B1B
  100
AcDbEntity
  8
Layer 1
  62
0
  100
AcDb2dVertex
  10
0.44600
  20
0.93600
  30
0.00000
  42
0.0348
  70
32
  0
VERTEX
  5
B1C
  100
AcDbEntity
  8
Layer 1
  62
0
  100
AcDb2dVertex
  10
0.37216
  20
0.95443
  30
0.00000
  42
0.0389
  70
32
  0
VERTEX
  5
B1D
  100
AcDbEntity
  8
Layer 1
  62
0
  100
AcDb2dVertex
  10
0.34400
  20
0.95700
  30
0.00000
  42
0.0557
  70
32
  0
VERTEX
  5
B1E
  100
AcDbEntity
  8
Layer 1
  62
0
  100
AcDb2dVertex
  10
0.28320
  20
0.94904
  30
0.00000
  42
0.0133
  70
32
  0
VERTEX
  5
B1F
  100
AcDbEntity
  8
Layer 1
  62
0
  100
AcDb2dVertex
  10
0.25600
  20
0.94200
  30
0.00000
  42
-0.0284
  70
32
  0
VERTEX
  5
B20
  100
AcDbEntity
  8
Layer 1
  62
0
  100
AcDb2dVertex
  10
0.19961
  20
0.92837
  30
0.00000
  42
-0.0380
  70
32
  0
VERTEX
  5
B21
  100
AcDbEntity
  8
Layer 1
  62
0
  100
AcDb2dVertex
  10
0.18500
  20
0.92700
  30
0.00000
  42
-0.1506
  70
32
  0
VERTEX
  5
B22
  100
AcDbEntity
  8
Layer 1
  62
0
  100
AcDb2dVertex
  10
0.17889
  20
0.93043
  30
0.00000
  42
-0.0420
  70
32
  0
VERTEX
  5
B23
  100
AcDbEntity
  8
Layer 1
  62
0
  100
AcDb2dVertex
  10
0.15749
  20
0.95390
  30
0.00000
  70
32
  0
VERTEX
  5
B24
  100
AcDbEntity
  8
Layer 1
  62
0
  100
AcDb2dVertex
  10
0.15500
  20
0.95700
  30
0.00000
  42
0.0880
  70
32
  0
VERTEX
  5
B25
  100
AcDbEntity
  8
Layer 1
  62
0
  100
AcDb2dVertex
  10
0.14514
  20
0.94397
  30
0.00000
  42
0.0224
  70
32
  0
VERTEX
  5
B26
  100
AcDbEntity
  8
Layer 1
  62
0
  100
AcDb2dVertex
  10
0.13900
  20
0.93200
  30
0.00000
  42
-0.1176
  70
32
  0
VERTEX
  5
B27
  100
AcDbEntity
  8
Layer 1
  62
0
  100
AcDb2dVertex
  10
0.12581
  20
0.91576
  30
0.00000
  42
-0.1551
  70
32
  0
VERTEX
  5
B28
  100
AcDbEntity
  8
Layer 1
  62
0
  100
AcDb2dVertex
  10
0.11400
  20
0.91200
  30
0.00000
  42
-0.2172
  70
32
  0
VERTEX
  5
B29
  100
AcDbEntity
  8
Layer 1
  62
0
  100
AcDb2dVertex
  10
0.09976
  20
0.91891
  30
0.00000
  42
-0.0419
  70
32
  0
VERTEX
  5
B2A
  100
AcDbEntity
  8
Layer 1
  62
0
  100
AcDb2dVertex
  10
0.09500
  20
0.92500
  30
0.00000
  70
32
  0
VERTEX
  5
B2B
  100
AcDbEntity
  8
Layer 1
  62
0
  100
AcDb2dVertex
  10
0.08000
  20
0.95200
  30
0.00000
  42
0.0243
  70
32
  0
VERTEX
  5
B2C
  100
AcDbEntity
  8
Layer 1
  62
0
  100
AcDb2dVertex
  10
0.06680
  20
0.95079
  30
0.00000
  70
32
  0
VERTEX
  5
B2D
  100
AcDbEntity
  8
Layer 1
  62
0
  100
AcDb2dVertex
  10
0.06000
  20
0.95000
  30
0.00000
  42
-0.0322
  70
32
  0
VERTEX
  5
B2E
  100
AcDbEntity
  8
Layer 1
  62
0
  100
AcDb2dVertex
  10
0.04000
  20
0.94900
  30
0.00000
  42
-0.2272
  70
32
  0
VERTEX
  5
B2F
  100
AcDbEntity
  8
Layer 1
  62
0
  100
AcDb2dVertex
  10
0.02969
  20
0.95467
  30
0.00000
  42
-0.0879
  70
32
  0
VERTEX
  5
B30
  100
AcDbEntity
  8
Layer 1
  62
0
  100
AcDb2dVertex
  10
0.01962
  20
0.97452
  30
0.00000
  42
-0.0203
  70
32
  0
VERTEX
  5
B31
  100
AcDbEntity
  8
Layer 1
  62
0
  100
AcDb2dVertex
  10
0.01500
  20
0.99000
  30
0.00000
  70
32
  0
VERTEX
  5
B32
  100
AcDbEntity
  8
Layer 1
  62
0
  100
AcDb2dVertex
  10
0.08200
  20
1.00000
  30
0.00000
  70
32
  0
VERTEX
  5
B33
  100
AcDbEntity
  8
Layer 1
  62
0
  100
AcDb2dVertex
  10
0.01500
  20
0.99000
  30
0.00000
  70
32
  0
VERTEX
  5
B34
  100
AcDbEntity
  8
Layer 1
  62
0
  100
AcDb2dVertex
  10
0.01400
  20
1.03000
  30
0.00000
  42
-0.1506
  70
32
  0
VERTEX
  5
B35
  100
AcDbEntity
  8
Layer 1
  62
0
  100
AcDb2dVertex
  10
0.01645
  20
1.04703
  30
0.00000
  42
-0.1200
  70
32
  0
VERTEX
  5
B36
  100
AcDbEntity
  8
Layer 1
  62
0
  100
AcDb2dVertex
  10
0.02100
  20
1.05200
  30
0.00000
  42
-0.1394
  70
32
  0
VERTEX
  5
B37
  100
AcDbEntity
  8
Layer 1
  62
0
  100
AcDb2dVertex
  10
0.04031
  20
1.05722
  30
0.00000
  42
-0.0278
  70
32
  0
VERTEX
  5
B38
  100
AcDbEntity
  8
Layer 1
  62
0
  100
AcDb2dVertex
  10
0.04900
  20
1.05700
  30
0.00000
  42
0.1397
  70
32
  0
VERTEX
  5
B39
  100
AcDbEntity
  8
Layer 1
  62
0
  100
AcDb2dVertex
  10
0.06038
  20
1.07042
  30
0.00000
  42
0.0613
  70
32
  0
VERTEX
  5
B3A
  100
AcDbEntity
  8
Layer 1
  62
0
  100
AcDb2dVertex
  10
0.06700
  20
1.08900
  30
0.00000
  42
-0.1314
  70
32
  0
VERTEX
  5
B3B
  100
AcDbEntity
  8
Layer 1
  62
0
  100
AcDb2dVertex
  10
0.07719
  20
1.10467
  30
0.00000
  42
-0.1765
  70
32
  0
VERTEX
  5
B3C
  100
AcDbEntity
  8
Layer 1
  62
0
  100
AcDb2dVertex
  10
0.09000
  20
1.10900
  30
0.00000
  42
-0.1508
  70
32
  0
VERTEX
  5
B3D
  100
AcDbEntity
  8
Layer 1
  62
0
  100
AcDb2dVertex
  10
0.10698
  20
1.10307
  30
0.00000
  70
32
  0
VERTEX
  5
B3E
  100
AcDbEntity
  8
Layer 1
  62
0
  100
AcDb2dVertex
  10
0.11000
  20
1.10100
  30
0.00000
  42
0.1396
  70
32
  0
VERTEX
  5
B3F
  100
AcDbEntity
  8
Layer 1
  62
0
  100
AcDb2dVertex
  10
0.12333
  20
1.09411
  30
0.00000
  70
32
  0
VERTEX
  5
B40
  100
AcDbEntity
  8
Layer 1
  62
0
  100
AcDb2dVertex
  10
0.12500
  20
1.09400
  30
0.00000
  42
0.0999
  70
32
  0
VERTEX
  5
B41
  100
AcDbEntity
  8
Layer 1
  62
0
  100
AcDb2dVertex
  10
0.13086
  20
1.09848
  30
0.00000
  42
0.0226
  70
32
  0
VERTEX
  5
B42
  100
AcDbEntity
  8
Layer 1
  62
0
  100
AcDb2dVertex
  10
0.13800
  20
1.10600
  30
0.00000
  42
-0.1786
  70
32
  0
VERTEX
  5
B43
  100
AcDbEntity
  8
Layer 1
  62
0
  100
AcDb2dVertex
  10
0.15589
  20
1.11834
  30
0.00000
  42
-0.0553
  70
32
  0
VERTEX
  5
B44
  100
AcDbEntity
  8
Layer 1
  62
0
  100
AcDb2dVertex
  10
0.16200
  20
1.11900
  30
0.00000
  42
-0.0253
  70
32
  0
VERTEX
  5
B45
  100
AcDbEntity
  8
Layer 1
  62
0
  100
AcDb2dVertex
  10
0.19022
  20
1.11647
  30
0.00000
  70
32
  0
VERTEX
  5
B46
  100
AcDbEntity
  8
Layer 1
  62
0
  100
AcDb2dVertex
  10
0.20300
  20
1.11500
  30
0.00000
  42
0.0319
  70
32
  0
VERTEX
  5
B47
  100
AcDbEntity
  8
Layer 1
  62
0
  100
AcDb2dVertex
  10
0.24302
  20
1.11002
  30
0.00000
  70
32
  0
VERTEX
  5
B48
  100
AcDbEntity
  8
Layer 1
  62
0
  100
AcDb2dVertex
  10
0.24500
  20
1.11000
  30
0.00000
  42
-0.0079
  70
32
  0
VERTEX
  5
B49
  100
AcDbEntity
  8
Layer 1
  62
0
  100
AcDb2dVertex
  10
0.32500
  20
1.11500
  30
0.00000
  42
-0.1531
  70
32
  0
VERTEX
  5
B4A
  100
AcDbEntity
  8
Layer 1
  62
0
  100
AcDb2dVertex
  10
0.44264
  20
1.07864
  30
0.00000
  42
-0.0295
  70
32
  0
VERTEX
  5
B4B
  100
AcDbEntity
  8
Layer 1
  62
0
  100
AcDb2dVertex
  10
0.46700
  20
1.06000
  30
0.00000
  42
-0.0031
  70
32
  0
VERTEX
  5
B4C
  100
AcDbEntity
  8
Layer 1
  62
0
  100
AcDb2dVertex
  10
0.55123
  20
0.99025
  30
0.00000
  70
32
  0
VERTEX
  5
B4D
  100
AcDbEntity
  8
Layer 1
  62
0
  100
AcDb2dVertex
  10
0.57900
  20
0.96700
  30
0.00000
  42
-0.0660
  70
32
  0
VERTEX
  5
B4E
  100
AcDbEntity
  8
Layer 1
  62
0
  100
AcDb2dVertex
  10
0.60019
  20
0.94749
  30
0.00000
  42
-0.1532
  70
32
  0
VERTEX
  5
B4F
  100
AcDbEntity
  8
Layer 1
  62
0
  100
AcDb2dVertex
  10
0.60400
  20
0.93900
  30
0.00000
  70
32
  0
SEQEND
  5
B50
  100
AcDbEntity
  8
Layer 1
  62
0
  0
POLYLINE
  5
B51
  100
AcDbEntity
  8
Layer 1
  62
0
  100
AcDb2dPolyline
 66
     1
  10
0
  20
0
  30
0
  70
1
  0
VERTEX
  5
B52
  100
AcDbEntity
  8
Layer 1
  62
0
  100
AcDb2dVertex
  10
0.12400
  20
1.19500
  30
0.00000
  42
-0.1863
  70
32
  0
VERTEX
  5
B53
  100
AcDbEntity
  8
Layer 1
  62
0
  100
AcDb2dVertex
  10
0.11856
  20
1.17844
  30
0.00000
  70
32
  0
VERTEX
  5
B54
  100
AcDbEntity
  8
Layer 1
  62
0
  100
AcDb2dVertex
  10
0.11700
  20
1.17700
  30
0.00000
  42
0.1459
  70
32
  0
VERTEX
  5
B55
  100
AcDbEntity
  8
Layer 1
  62
0
  100
AcDb2dVertex
  10
0.07765
  20
1.15475
  30
0.00000
  70
32
  0
VERTEX
  5
B56
  100
AcDbEntity
  8
Layer 1
  62
0
  100
AcDb2dVertex
  10
0.07500
  20
1.15200
  30
0.00000
  42
-0.0912
  70
32
  0
VERTEX
  5
B57
  100
AcDbEntity
  8
Layer 1
  62
0
  100
AcDb2dVertex
  10
0.05158
  20
1.13469
  30
0.00000
  42
-0.1029
  70
32
  0
VERTEX
  5
B58
  100
AcDbEntity
  8
Layer 1
  62
0
  100
AcDb2dVertex
  10
0.04000
  20
1.13200
  30
0.00000
  42
-0.1715
  70
32
  0
VERTEX
  5
B59
  100
AcDbEntity
  8
Layer 1
  62
0
  100
AcDb2dVertex
  10
0.01900
  20
1.13900
  30
0.00000
  42
-0.3179
  70
32
  0
VERTEX
  5
B5A
  100
AcDbEntity
  8
Layer 1
  62
0
  100
AcDb2dVertex
  10
0.03759
  20
1.15635
  30
0.00000
  42
-0.0465
  70
32
  0
VERTEX
  5
B5B
  100
AcDbEntity
  8
Layer 1
  62
0
  100
AcDb2dVertex
  10
0.04500
  20
1.15700
  30
0.00000
  42
0.2578
  70
32
  0
VERTEX
  5
B5C
  100
AcDbEntity
  8
Layer 1
  62
0
  100
AcDb2dVertex
  10
0.05678
  20
1.16395
  30
0.00000
  42
0.1024
  70
32
  0
VERTEX
  5
B5D
  100
AcDbEntity
  8
Layer 1
  62
0
  100
AcDb2dVertex
  10
0.06405
  20
1.18408
  30
0.00000
  70
32
  0
VERTEX
  5
B5E
  100
AcDbEntity
  8
Layer 1
  62
0
  100
AcDb2dVertex
  10
0.06500
  20
1.19000
  30
0.00000
  70
32
  0
VERTEX
  5
B5F
  100
AcDbEntity
  8
Layer 1
  62
0
  100
AcDb2dVertex
  10
0.08200
  20
1.19200
  30
0.00000
  70
32
  0
VERTEX
  5
B60
  100
AcDbEntity
  8
Layer 1
  62
0
  100
AcDb2dVertex
  10
0.06500
  20
1.19000
  30
0.00000
  42
0.1207
  70
32
  0
VERTEX
  5
B61
  100
AcDbEntity
  8
Layer 1
  62
0
  100
AcDb2dVertex
  10
0.05667
  20
1.21244
  30
0.00000
  42
0.1883
  70
32
  0
VERTEX
  5
B62
  100
AcDbEntity
  8
Layer 1
  62
0
  100
AcDb2dVertex
  10
0.04000
  20
1.22300
  30
0.00000
  42
-0.0938
  70
32
  0
VERTEX
  5
B63
  100
AcDbEntity
  8
Layer 1
  62
0
  100
AcDb2dVertex
  10
0.02363
  20
1.22923
  30
0.00000
  42
-0.2464
  70
32
  0
VERTEX
  5
B64
  100
AcDbEntity
  8
Layer 1
  62
0
  100
AcDb2dVertex
  10
0.02000
  20
1.23500
  30
0.00000
  42
-0.3235
  70
32
  0
VERTEX
  5
B65
  100
AcDbEntity
  8
Layer 1
  62
0
  100
AcDb2dVertex
  10
0.02797
  20
1.24638
  30
0.00000
  42
-0.1012
  70
32
  0
VERTEX
  5
B66
  100
AcDbEntity
  8
Layer 1
  62
0
  100
AcDb2dVertex
  10
0.04400
  20
1.24900
  30
0.00000
  42
-0.1845
  70
32
  0
VERTEX
  5
B67
  100
AcDbEntity
  8
Layer 1
  62
0
  100
AcDb2dVertex
  10
0.06539
  20
1.24034
  30
0.00000
  70
32
  0
VERTEX
  5
B68
  100
AcDbEntity
  8
Layer 1
  62
0
  100
AcDb2dVertex
  10
0.06900
  20
1.23700
  30
0.00000
  70
32
  0
VERTEX
  5
B69
  100
AcDbEntity
  8
Layer 1
  62
0
  100
AcDb2dVertex
  10
0.07581
  20
1.22886
  30
0.00000
  70
32
  0
VERTEX
  5
B6A
  100
AcDbEntity
  8
Layer 1
  62
0
  100
AcDb2dVertex
  10
0.08408
  20
1.21916
  30
0.00000
  42
0.1049
  70
32
  0
VERTEX
  5
B6B
  100
AcDbEntity
  8
Layer 1
  62
0
  100
AcDb2dVertex
  10
0.08900
  20
1.21500
  30
0.00000
  42
-0.0696
  70
32
  0
VERTEX
  5
B6C
  100
AcDbEntity
  8
Layer 1
  62
0
  100
AcDb2dVertex
  10
0.11900
  20
1.20500
  30
0.00000
  42
-0.1534
  70
32
  0
VERTEX
  5
B6D
  100
AcDbEntity
  8
Layer 1
  62
0
  100
AcDb2dVertex
  10
0.12400
  20
1.19500
  30
0.00000
  70
32
  0
SEQEND
  5
B6E
  100
AcDbEntity
  8
Layer 1
  62
0
  0
POLYLINE
  5
B6F
  100
AcDbEntity
  8
Layer 1
  62
0
  100
AcDb2dPolyline
 66
     1
  10
0
  20
0
  30
0
  70
1
  0
VERTEX
  5
B70
  100
AcDbEntity
  8
Layer 1
  62
0
  100
AcDb2dVertex
  10
0.64400
  20
0.59200
  30
0.00000
  42
-0.1932
  70
32
  0
VERTEX
  5
B71
  100
AcDbEntity
  8
Layer 1
  62
0
  100
AcDb2dVertex
  10
0.64105
  20
0.58873
  30
0.00000
  42
-0.0444
  70
32
  0
VERTEX
  5
B72
  100
AcDbEntity
  8
Layer 1
  62
0
  100
AcDb2dVertex
  10
0.61679
  20
0.57640
  30
0.00000
  70
32
  0
VERTEX
  5
B73
  100
AcDbEntity
  8
Layer 1
  62
0
  100
AcDb2dVertex
  10
0.59900
  20
0.56900
  30
0.00000
  42
-0.0214
  70
32
  0
VERTEX
  5
B74
  100
AcDbEntity
  8
Layer 1
  62
0
  100
AcDb2dVertex
  10
0.55239
  20
0.55327
  30
0.00000
  42
-0.0556
  70
32
  0
VERTEX
  5
B75
  100
AcDbEntity
  8
Layer 1
  62
0
  100
AcDb2dVertex
  10
0.54500
  20
0.55200
  30
0.00000
  42
-0.3339
  70
32
  0
VERTEX
  5
B76
  100
AcDbEntity
  8
Layer 1
  62
0
  100
AcDb2dVertex
  10
0.53846
  20
0.55718
  30
0.00000
  42
-0.0910
  70
32
  0
VERTEX
  5
B77
  100
AcDbEntity
  8
Layer 1
  62
0
  100
AcDb2dVertex
  10
0.53700
  20
0.56700
  30
0.00000
  42
-0.0369
  70
32
  0
VERTEX
  5
B78
  100
AcDbEntity
  8
Layer 1
  62
0
  100
AcDb2dVertex
  10
0.53500
  20
0.58900
  30
0.00000
  70
32
  0
VERTEX
  5
B79
  100
AcDbEntity
  8
Layer 1
  62
0
  100
AcDb2dVertex
  10
0.57900
  20
0.60000
  30
0.00000
  70
32
  0
VERTEX
  5
B7A
  100
AcDbEntity
  8
Layer 1
  62
0
  100
AcDb2dVertex
  10
0.53500
  20
0.58900
  30
0.00000
  70
32
  0
VERTEX
  5
B7B
  100
AcDbEntity
  8
Layer 1
  62
0
  100
AcDb2dVertex
  10
0.50900
  20
0.61000
  30
0.00000
  42
-0.0297
  70
32
  0
VERTEX
  5
B7C
  100
AcDbEntity
  8
Layer 1
  62
0
  100
AcDb2dVertex
  10
0.45114
  20
0.59009
  30
0.00000
  42
-0.0585
  70
32
  0
VERTEX
  5
B7D
  100
AcDbEntity
  8
Layer 1
  62
0
  100
AcDb2dVertex
  10
0.43200
  20
0.58700
  30
0.00000
  42
-0.1538
  70
32
  0
VERTEX
  5
B7E
  100
AcDbEntity
  8
Layer 1
  62
0
  100
AcDb2dVertex
  10
0.41782
  20
0.59047
  30
0.00000
  42
-0.2402
  70
32
  0
VERTEX
  5
B7F
  100
AcDbEntity
  8
Layer 1
  62
0
  100
AcDb2dVertex
  10
0.41204
  20
0.60250
  30
0.00000
  70
32
  0
VERTEX
  5
B80
  100
AcDbEntity
  8
Layer 1
  62
0
  100
AcDb2dVertex
  10
0.41200
  20
0.60400
  30
0.00000
  42
-0.2015
  70
32
  0
VERTEX
  5
B81
  100
AcDbEntity
  8
Layer 1
  62
0
  100
AcDb2dVertex
  10
0.41644
  20
0.61199
  30
0.00000
  42
-0.0821
  70
32
  0
VERTEX
  5
B82
  100
AcDbEntity
  8
Layer 1
  62
0
  100
AcDb2dVertex
  10
0.43635
  20
0.62397
  30
0.00000
  42
-0.0177
  70
32
  0
VERTEX
  5
B83
  100
AcDbEntity
  8
Layer 1
  62
0
  100
AcDb2dVertex
  10
0.44900
  20
0.62900
  30
0.00000
  70
32
  0
VERTEX
  5
B84
  100
AcDbEntity
  8
Layer 1
  62
0
  100
AcDb2dVertex
  10
0.46404
  20
0.63416
  30
0.00000
  42
-0.0122
  70
32
  0
VERTEX
  5
B85
  100
AcDbEntity
  8
Layer 1
  62
0
  100
AcDb2dVertex
  10
0.49700
  20
0.64500
  30
0.00000
  70
32
  0
VERTEX
  5
B86
  100
AcDbEntity
  8
Layer 1
  62
0
  100
AcDb2dVertex
  10
0.50500
  20
0.67400
  30
0.00000
  42
0.1019
  70
32
  0
VERTEX
  5
B87
  100
AcDbEntity
  8
Layer 1
  62
0
  100
AcDb2dVertex
  10
0.49745
  20
0.68051
  30
0.00000
  70
32
  0
VERTEX
  5
B88
  100
AcDbEntity
  8
Layer 1
  62
0
  100
AcDb2dVertex
  10
0.49000
  20
0.68500
  30
0.00000
  42
-0.0531
  70
32
  0
VERTEX
  5
B89
  100
AcDbEntity
  8
Layer 1
  62
0
  100
AcDb2dVertex
  10
0.47776
  20
0.69532
  30
0.00000
  42
-0.1534
  70
32
  0
VERTEX
  5
B8A
  100
AcDbEntity
  8
Layer 1
  62
0
  100
AcDb2dVertex
  10
0.47700
  20
0.69700
  30
0.00000
  42
-0.1923
  70
32
  0
VERTEX
  5
B8B
  100
AcDbEntity
  8
Layer 1
  62
0
  100
AcDb2dVertex
  10
0.48094
  20
0.70954
  30
0.00000
  42
-0.0719
  70
32
  0
VERTEX
  5
B8C
  100
AcDbEntity
  8
Layer 1
  62
0
  100
AcDb2dVertex
  10
0.48400
  20
0.71200
  30
0.00000
  42
0.0346
  70
32
  0
VERTEX
  5
B8D
  100
AcDbEntity
  8
Layer 1
  62
0
  100
AcDb2dVertex
  10
0.51518
  20
0.71898
  30
0.00000
  70
32
  0
VERTEX
  5
B8E
  100
AcDbEntity
  8
Layer 1
  62
0
  100
AcDb2dVertex
  10
0.51705
  20
0.71948
  30
0.00000
  70
32
  0
VERTEX
  5
B8F
  100
AcDbEntity
  8
Layer 1
  62
0
  100
AcDb2dVertex
  10
0.51900
  20
0.72000
  30
0.00000
  42
-0.0293
  70
32
  0
VERTEX
  5
B90
  100
AcDbEntity
  8
Layer 1
  62
0
  100
AcDb2dVertex
  10
0.54060
  20
0.73656
  30
0.00000
  70
32
  0
VERTEX
  5
B91
  100
AcDbEntity
  8
Layer 1
  62
0
  100
AcDb2dVertex
  10
0.54400
  20
0.73900
  30
0.00000
  42
-0.0905
  70
32
  0
VERTEX
  5
B92
  100
AcDbEntity
  8
Layer 1
  62
0
  100
AcDb2dVertex
  10
0.56635
  20
0.74849
  30
0.00000
  42
-0.0435
  70
32
  0
VERTEX
  5
B93
  100
AcDbEntity
  8
Layer 1
  62
0
  100
AcDb2dVertex
  10
0.57200
  20
0.74900
  30
0.00000
  42
-0.1412
  70
32
  0
VERTEX
  5
B94
  100
AcDbEntity
  8
Layer 1
  62
0
  100
AcDb2dVertex
  10
0.59265
  20
0.74407
  30
0.00000
  42
-0.2326
  70
32
  0
VERTEX
  5
B95
  100
AcDbEntity
  8
Layer 1
  62
0
  100
AcDb2dVertex
  10
0.60365
  20
0.72558
  30
0.00000
  70
32
  0
VERTEX
  5
B96
  100
AcDbEntity
  8
Layer 1
  62
0
  100
AcDb2dVertex
  10
0.60400
  20
0.72000
  30
0.00000
  42
0.0250
  70
32
  0
VERTEX
  5
B97
  100
AcDbEntity
  8
Layer 1
  62
0
  100
AcDb2dVertex
  10
0.59400
  20
0.69200
  30
0.00000
  70
32
  0
VERTEX
  5
B98
  100
AcDbEntity
  8
Layer 1
  62
0
  100
AcDb2dVertex
  10
0.60200
  20
0.66400
  30
0.00000
  70
32
  0
VERTEX
  5
B99
  100
AcDbEntity
  8
Layer 1
  62
0
  100
AcDb2dVertex
  10
0.61547
  20
0.64703
  30
0.00000
  70
32
  0
VERTEX
  5
B9A
  100
AcDbEntity
  8
Layer 1
  62
0
  100
AcDb2dVertex
  10
0.62900
  20
0.63000
  30
0.00000
  42
-0.1026
  70
32
  0
VERTEX
  5
B9B
  100
AcDbEntity
  8
Layer 1
  62
0
  100
AcDb2dVertex
  10
0.64308
  20
0.60054
  30
0.00000
  42
-0.0513
  70
32
  0
VERTEX
  5
B9C
  100
AcDbEntity
  8
Layer 1
  62
0
  100
AcDb2dVertex
  10
0.64400
  20
0.59200
  30
0.00000
  70
32
  0
SEQEND
  5
B9D
  100
AcDbEntity
  8
Layer 1
  62
0
  0
POLYLINE
  5
B9E
  100
AcDbEntity
  8
Layer 1
  62
0
  100
AcDb2dPolyline
 66
     1
  10
0
  20
0
  30
0
  70
1
  0
VERTEX
  5
B9F
  100
AcDbEntity
  8
Layer 1
  62
0
  100
AcDb2dVertex
  10
0.88700
  20
0.29500
  30
0.00000
  42
-0.1517
  70
32
  0
VERTEX
  5
BA0
  100
AcDbEntity
  8
Layer 1
  62
0
  100
AcDb2dVertex
  10
0.88344
  20
0.28809
  30
0.00000
  42
-0.0451
  70
32
  0
VERTEX
  5
BA1
  100
AcDbEntity
  8
Layer 1
  62
0
  100
AcDb2dVertex
  10
0.86119
  20
0.26708
  30
0.00000
  70
32
  0
VERTEX
  5
BA2
  100
AcDbEntity
  8
Layer 1
  62
0
  100
AcDb2dVertex
  10
0.85500
  20
0.26200
  30
0.00000
  42
0.1440
  70
32
  0
VERTEX
  5
BA3
  100
AcDbEntity
  8
Layer 1
  62
0
  100
AcDb2dVertex
  10
0.81827
  20
0.21069
  30
0.00000
  42
0.0346
  70
32
  0
VERTEX
  5
BA4
  100
AcDbEntity
  8
Layer 1
  62
0
  100
AcDb2dVertex
  10
0.81200
  20
0.18900
  30
0.00000
  42
-0.1488
  70
32
  0
VERTEX
  5
BA5
  100
AcDbEntity
  8
Layer 1
  62
0
  100
AcDb2dVertex
  10
0.79801
  20
0.16023
  30
0.00000
  42
-0.1543
  70
32
  0
VERTEX
  5
BA6
  100
AcDbEntity
  8
Layer 1
  62
0
  100
AcDb2dVertex
  10
0.76900
  20
0.14554
  30
0.00000
  70
32
  0
VERTEX
  5
BA7
  100
AcDbEntity
  8
Layer 1
  62
0
  100
AcDb2dVertex
  10
0.76600
  20
0.14500
  30
0.00000
  42
0.0269
  70
32
  0
VERTEX
  5
BA8
  100
AcDbEntity
  8
Layer 1
  62
0
  100
AcDb2dVertex
  10
0.71185
  20
0.13718
  30
0.00000
  42
0.0663
  70
32
  0
VERTEX
  5
BA9
  100
AcDbEntity
  8
Layer 1
  62
0
  100
AcDb2dVertex
  10
0.70200
  20
0.13400
  30
0.00000
  42
0.1389
  70
32
  0
VERTEX
  5
BAA
  100
AcDbEntity
  8
Layer 1
  62
0
  100
AcDb2dVertex
  10
0.68303
  20
0.10921
  30
0.00000
  42
0.0310
  70
32
  0
VERTEX
  5
BAB
  100
AcDbEntity
  8
Layer 1
  62
0
  100
AcDb2dVertex
  10
0.67900
  20
0.09800
  30
0.00000
  42
-0.1043
  70
32
  0
VERTEX
  5
BAC
  100
AcDbEntity
  8
Layer 1
  62
0
  100
AcDb2dVertex
  10
0.66881
  20
0.07871
  30
0.00000
  42
-0.2199
  70
32
  0
VERTEX
  5
BAD
  100
AcDbEntity
  8
Layer 1
  62
0
  100
AcDb2dVertex
  10
0.65400
  20
0.07200
  30
0.00000
  42
-0.0837
  70
32
  0
VERTEX
  5
BAE
  100
AcDbEntity
  8
Layer 1
  62
0
  100
AcDb2dVertex
  10
0.64384
  20
0.07548
  30
0.00000
  42
-0.0119
  70
32
  0
VERTEX
  5
BAF
  100
AcDbEntity
  8
Layer 1
  62
0
  100
AcDb2dVertex
  10
0.61500
  20
0.09000
  30
0.00000
  70
32
  0
VERTEX
  5
BB0
  100
AcDbEntity
  8
Layer 1
  62
0
  100
AcDb2dVertex
  10
0.66000
  20
0.14500
  30
0.00000
  70
32
  0
VERTEX
  5
BB1
  100
AcDbEntity
  8
Layer 1
  62
0
  100
AcDb2dVertex
  10
0.61500
  20
0.09000
  30
0.00000
  42
-0.0419
  70
32
  0
VERTEX
  5
BB2
  100
AcDbEntity
  8
Layer 1
  62
0
  100
AcDb2dVertex
  10
0.59159
  20
0.11784
  30
0.00000
  42
-0.1252
  70
32
  0
VERTEX
  5
BB3
  100
AcDbEntity
  8
Layer 1
  62
0
  100
AcDb2dVertex
  10
0.58701
  20
0.12872
  30
0.00000
  70
32
  0
VERTEX
  5
BB4
  100
AcDbEntity
  8
Layer 1
  62
0
  100
AcDb2dVertex
  10
0.58700
  20
0.12900
  30
0.00000
  42
-0.1611
  70
32
  0
VERTEX
  5
BB5
  100
AcDbEntity
  8
Layer 1
  62
0
  100
AcDb2dVertex
  10
0.59083
  20
0.13663
  30
0.00000
  42
-0.0543
  70
32
  0
VERTEX
  5
BB6
  100
AcDbEntity
  8
Layer 1
  62
0
  100
AcDb2dVertex
  10
0.61218
  20
0.15551
  30
0.00000
  42
-0.0125
  70
32
  0
VERTEX
  5
BB7
  100
AcDbEntity
  8
Layer 1
  62
0
  100
AcDb2dVertex
  10
0.63400
  20
0.17100
  30
0.00000
  42
0.0966
  70
32
  0
VERTEX
  5
BB8
  100
AcDbEntity
  8
Layer 1
  62
0
  100
AcDb2dVertex
  10
0.66800
  20
0.20371
  30
0.00000
  42
0.1432
  70
32
  0
VERTEX
  5
BB9
  100
AcDbEntity
  8
Layer 1
  62
0
  100
AcDb2dVertex
  10
0.68200
  20
0.24700
  30
0.00000
  70
32
  0
VERTEX
  5
BBA
  100
AcDbEntity
  8
Layer 1
  62
0
  100
AcDb2dVertex
  10
0.67700
  20
0.26200
  30
0.00000
  42
-0.0604
  70
32
  0
VERTEX
  5
BBB
  100
AcDbEntity
  8
Layer 1
  62
0
  100
AcDb2dVertex
  10
0.65027
  20
0.29308
  30
0.00000
  42
-0.1222
  70
32
  0
VERTEX
  5
BBC
  100
AcDbEntity
  8
Layer 1
  62
0
  100
AcDb2dVertex
  10
0.64207
  20
0.31499
  30
0.00000
  70
32
  0
VERTEX
  5
BBD
  100
AcDbEntity
  8
Layer 1
  62
0
  100
AcDb2dVertex
  10
0.64200
  20
0.31700
  30
0.00000
  42
-0.1699
  70
32
  0
VERTEX
  5
BBE
  100
AcDbEntity
  8
Layer 1
  62
0
  100
AcDb2dVertex
  10
0.65120
  20
0.34654
  30
0.00000
  42
-0.1011
  70
32
  0
VERTEX
  5
BBF
  100
AcDbEntity
  8
Layer 1
  62
0
  100
AcDb2dVertex
  10
0.66600
  20
0.35900
  30
0.00000
  42
0.1286
  70
32
  0
VERTEX
  5
BC0
  100
AcDbEntity
  8
Layer 1
  62
0
  100
AcDb2dVertex
  10
0.68514
  20
0.37900
  30
0.00000
  42
0.1199
  70
32
  0
VERTEX
  5
BC1
  100
AcDbEntity
  8
Layer 1
  62
0
  100
AcDb2dVertex
  10
0.68900
  20
0.39500
  30
0.00000
  42
0.1976
  70
32
  0
VERTEX
  5
BC2
  100
AcDbEntity
  8
Layer 1
  62
0
  100
AcDb2dVertex
  10
0.66729
  20
0.44842
  30
0.00000
  42
0.0592
  70
32
  0
VERTEX
  5
BC3
  100
AcDbEntity
  8
Layer 1
  62
0
  100
AcDb2dVertex
  10
0.64600
  20
0.46600
  30
0.00000
  42
-0.0533
  70
32
  0
VERTEX
  5
BC4
  100
AcDbEntity
  8
Layer 1
  62
0
  100
AcDb2dVertex
  10
0.61346
  20
0.49234
  30
0.00000
  42
-0.1109
  70
32
  0
VERTEX
  5
BC5
  100
AcDbEntity
  8
Layer 1
  62
0
  100
AcDb2dVertex
  10
0.60448
  20
0.50592
  30
0.00000
  42
-0.0709
  70
32
  0
VERTEX
  5
BC6
  100
AcDbEntity
  8
Layer 1
  62
0
  100
AcDb2dVertex
  10
0.60400
  20
0.50900
  30
0.00000
  42
-0.0983
  70
32
  0
VERTEX
  5
BC7
  100
AcDbEntity
  8
Layer 1
  62
0
  100
AcDb2dVertex
  10
0.60764
  20
0.51663
  30
0.00000
  42
-0.0199
  70
32
  0
VERTEX
  5
BC8
  100
AcDbEntity
  8
Layer 1
  62
0
  100
AcDb2dVertex
  10
0.62700
  20
0.54400
  30
0.00000
  42
-0.0700
  70
32
  0
VERTEX
  5
BC9
  100
AcDbEntity
  8
Layer 1
  62
0
  100
AcDb2dVertex
  10
0.65032
  20
0.56277
  30
0.00000
  42
-0.1255
  70
32
  0
VERTEX
  5
BCA
  100
AcDbEntity
  8
Layer 1
  62
0
  100
AcDb2dVertex
  10
0.66500
  20
0.56700
  30
0.00000
  42
-0.1899
  70
32
  0
VERTEX
  5
BCB
  100
AcDbEntity
  8
Layer 1
  62
0
  100
AcDb2dVertex
  10
0.67902
  20
0.56056
  30
0.00000
  42
-0.0885
  70
32
  0
VERTEX
  5
BCC
  100
AcDbEntity
  8
Layer 1
  62
0
  100
AcDb2dVertex
  10
0.69400
  20
0.53900
  30
0.00000
  42
0.0267
  70
32
  0
VERTEX
  5
BCD
  100
AcDbEntity
  8
Layer 1
  62
0
  100
AcDb2dVertex
  10
0.71349
  20
0.49881
  30
0.00000
  70
32
  0
VERTEX
  5
BCE
  100
AcDbEntity
  8
Layer 1
  62
0
  100
AcDb2dVertex
  10
0.71400
  20
0.49800
  30
0.00000
  42
0.1393
  70
32
  0
VERTEX
  5
BCF
  100
AcDbEntity
  8
Layer 1
  62
0
  100
AcDb2dVertex
  10
0.72004
  20
0.49503
  30
0.00000
  42
0.0290
  70
32
  0
VERTEX
  5
BD0
  100
AcDbEntity
  8
Layer 1
  62
0
  100
AcDb2dVertex
  10
0.75628
  20
0.48811
  30
0.00000
  70
32
  0
VERTEX
  5
BD1
  100
AcDbEntity
  8
Layer 1
  62
0
  100
AcDb2dVertex
  10
0.75700
  20
0.48800
  30
0.00000
  42
-0.0990
  70
32
  0
VERTEX
  5
BD2
  100
AcDbEntity
  8
Layer 1
  62
0
  100
AcDb2dVertex
  10
0.79612
  20
0.47505
  30
0.00000
  42
-0.0997
  70
32
  0
VERTEX
  5
BD3
  100
AcDbEntity
  8
Layer 1
  62
0
  100
AcDb2dVertex
  10
0.81400
  20
0.45900
  30
0.00000
  42
-0.0929
  70
32
  0
VERTEX
  5
BD4
  100
AcDbEntity
  8
Layer 1
  62
0
  100
AcDb2dVertex
  10
0.82056
  20
0.43876
  30
0.00000
  42
-0.0308
  70
32
  0
VERTEX
  5
BD5
  100
AcDbEntity
  8
Layer 1
  62
0
  100
AcDb2dVertex
  10
0.82300
  20
0.41400
  30
0.00000
  42
0.1091
  70
32
  0
VERTEX
  5
BD6
  100
AcDbEntity
  8
Layer 1
  62
0
  100
AcDb2dVertex
  10
0.83089
  20
0.38047
  30
0.00000
  42
0.0995
  70
32
  0
VERTEX
  5
BD7
  100
AcDbEntity
  8
Layer 1
  62
0
  100
AcDb2dVertex
  10
0.84400
  20
0.36400
  30
0.00000
  42
-0.1376
  70
32
  0
VERTEX
  5
BD8
  100
AcDbEntity
  8
Layer 1
  62
0
  100
AcDb2dVertex
  10
0.87032
  20
0.35105
  30
0.00000
  42
-0.1772
  70
32
  0
VERTEX
  5
BD9
  100
AcDbEntity
  8
Layer 1
  62
0
  100
AcDb2dVertex
  10
0.88345
  20
0.32316
  30
0.00000
  42
-0.0312
  70
32
  0
VERTEX
  5
BDA
  100
AcDbEntity
  8
Layer 1
  62
0
  100
AcDb2dVertex
  10
0.88400
  20
0.31400
  30
0.00000
  70
32
  0
VERTEX
  5
BDB
  100
AcDbEntity
  8
Layer 1
  62
0
  100
AcDb2dVertex
  10
0.88700
  20
0.29500
  30
0.00000
  70
32
  0
SEQEND
  5
BDC
  100
AcDbEntity
  8
Layer 1
  62
0
  0
POLYLINE
  5
BDD
  100
AcDbEntity
  8
Layer 1
  62
0
  100
AcDb2dPolyline
 66
     1
  10
0
  20
0
  30
0
  70
1
  0
VERTEX
  5
BDE
  100
AcDbEntity
  8
Layer 1
  62
0
  100
AcDb2dVertex
  10
0.96400
  20
0.31400
  30
0.00000
  42
-0.1045
  70
32
  0
VERTEX
  5
BDF
  100
AcDbEntity
  8
Layer 1
  62
0
  100
AcDb2dVertex
  10
0.94870
  20
0.24570
  30
0.00000
  42
-0.0494
  70
32
  0
VERTEX
  5
BE0
  100
AcDbEntity
  8
Layer 1
  62
0
  100
AcDb2dVertex
  10
0.92200
  20
0.19900
  30
0.00000
  70
32
  0
VERTEX
  5
BE1
  100
AcDbEntity
  8
Layer 1
  62
0
  100
AcDb2dVertex
  10
0.90633
  20
0.17710
  30
0.00000
  70
32
  0
VERTEX
  5
BE2
  100
AcDbEntity
  8
Layer 1
  62
0
  100
AcDb2dVertex
  10
0.88721
  20
0.15062
  30
0.00000
  70
32
  0
VERTEX
  5
BE3
  100
AcDbEntity
  8
Layer 1
  62
0
  100
AcDb2dVertex
  10
0.88254
  20
0.14478
  30
0.00000
  70
32
  0
VERTEX
  5
BE4
  100
AcDbEntity
  8
Layer 1
  62
0
  100
AcDb2dVertex
  10
0.88138
  20
0.14375
  30
0.00000
  42
-0.8201
  70
32
  0
VERTEX
  5
BE5
  100
AcDbEntity
  8
Layer 1
  62
0
  100
AcDb2dVertex
  10
0.88100
  20
0.14400
  30
0.00000
  42
0.2224
  70
32
  0
VERTEX
  5
BE6
  100
AcDbEntity
  8
Layer 1
  62
0
  100
AcDb2dVertex
  10
0.88617
  20
0.13475
  30
0.00000
  42
0.0865
  70
32
  0
VERTEX
  5
BE7
  100
AcDbEntity
  8
Layer 1
  62
0
  100
AcDb2dVertex
  10
0.90564
  20
0.12460
  30
0.00000
  42
0.0290
  70
32
  0
VERTEX
  5
BE8
  100
AcDbEntity
  8
Layer 1
  62
0
  100
AcDb2dVertex
  10
0.93200
  20
0.11700
  30
0.00000
  42
-0.3750
  70
32
  0
VERTEX
  5
BE9
  100
AcDbEntity
  8
Layer 1
  62
0
  100
AcDb2dVertex
  10
0.93600
  20
0.10700
  30
0.00000
  42
-0.0866
  70
32
  0
VERTEX
  5
BEA
  100
AcDbEntity
  8
Layer 1
  62
0
  100
AcDb2dVertex
  10
0.92702
  20
0.09156
  30
0.00000
  42
-0.0248
  70
32
  0
VERTEX
  5
BEB
  100
AcDbEntity
  8
Layer 1
  62
0
  100
AcDb2dVertex
  10
0.91100
  20
0.07300
  30
0.00000
  42
-0.0495
  70
32
  0
VERTEX
  5
BEC
  100
AcDbEntity
  8
Layer 1
  62
0
  100
AcDb2dVertex
  10
0.88868
  20
0.05234
  30
0.00000
  42
-0.1382
  70
32
  0
VERTEX
  5
BED
  100
AcDbEntity
  8
Layer 1
  62
0
  100
AcDb2dVertex
  10
0.88100
  20
0.04900
  30
0.00000
  42
-0.2093
  70
32
  0
VERTEX
  5
BEE
  100
AcDbEntity
  8
Layer 1
  62
0
  100
AcDb2dVertex
  10
0.87152
  20
0.05398
  30
0.00000
  42
-0.0788
  70
32
  0
VERTEX
  5
BEF
  100
AcDbEntity
  8
Layer 1
  62
0
  100
AcDb2dVertex
  10
0.85980
  20
0.07323
  30
0.00000
  70
32
  0
VERTEX
  5
BF0
  100
AcDbEntity
  8
Layer 1
  62
0
  100
AcDb2dVertex
  10
0.85900
  20
0.07500
  30
0.00000
  42
0.0552
  70
32
  0
VERTEX
  5
BF1
  100
AcDbEntity
  8
Layer 1
  62
0
  100
AcDb2dVertex
  10
0.84670
  20
0.09776
  30
0.00000
  42
0.1800
  70
32
  0
VERTEX
  5
BF2
  100
AcDbEntity
  8
Layer 1
  62
0
  100
AcDb2dVertex
  10
0.84137
  20
0.10198
  30
0.00000
  70
32
  0
VERTEX
  5
BF3
  100
AcDbEntity
  8
Layer 1
  62
0
  100
AcDb2dVertex
  10
0.84100
  20
0.10200
  30
0.00000
  42
-0.7733
  70
32
  0
VERTEX
  5
BF4
  100
AcDbEntity
  8
Layer 1
  62
0
  100
AcDb2dVertex
  10
0.84163
  20
0.10061
  30
0.00000
  42
-0.0712
  70
32
  0
VERTEX
  5
BF5
  100
AcDbEntity
  8
Layer 1
  62
0
  100
AcDb2dVertex
  10
0.83327
  20
0.09140
  30
0.00000
  42
-0.0196
  70
32
  0
VERTEX
  5
BF6
  100
AcDbEntity
  8
Layer 1
  62
0
  100
AcDb2dVertex
  10
0.78800
  20
0.05400
  30
0.00000
  42
-0.0729
  70
32
  0
VERTEX
  5
BF7
  100
AcDbEntity
  8
Layer 1
  62
0
  100
AcDb2dVertex
  10
0.72406
  20
0.01771
  30
0.00000
  42
-0.0899
  70
32
  0
VERTEX
  5
BF8
  100
AcDbEntity
  8
Layer 1
  62
0
  100
AcDb2dVertex
  10
0.66700
  20
0.00700
  30
0.00000
  42
-0.1052
  70
32
  0
VERTEX
  5
BF9
  100
AcDbEntity
  8
Layer 1
  62
0
  100
AcDb2dVertex
  10
0.57865
  20
0.02665
  30
0.00000
  42
-0.0600
  70
32
  0
VERTEX
  5
BFA
  100
AcDbEntity
  8
Layer 1
  62
0
  100
AcDb2dVertex
  10
0.51200
  20
0.06700
  30
0.00000
  42
-0.1877
  70
32
  0
VERTEX
  5
BFB
  100
AcDbEntity
  8
Layer 1
  62
0
  100
AcDb2dVertex
  10
0.50482
  20
0.07869
  30
0.00000
  42
-0.1504
  70
32
  0
VERTEX
  5
BFC
  100
AcDbEntity
  8
Layer 1
  62
0
  100
AcDb2dVertex
  10
0.50700
  20
0.08900
  30
0.00000
  42
-0.0276
  70
32
  0
VERTEX
  5
BFD
  100
AcDbEntity
  8
Layer 1
  62
0
  100
AcDb2dVertex
  10
0.51900
  20
0.09000
  30
0.00000
  42
-0.0563
  70
32
  0
VERTEX
  5
BFE
  100
AcDbEntity
  8
Layer 1
  62
0
  100
AcDb2dVertex
  10
0.52924
  20
0.08537
  30
0.00000
  42
-0.0065
  70
32
  0
VERTEX
  5
BFF
  100
AcDbEntity
  8
Layer 1
  62
0
  100
AcDb2dVertex
  10
0.56300
  20
0.06700
  30
0.00000
  42
0.1375
  70
32
  0
VERTEX
  5
C00
  100
AcDbEntity
  8
Layer 1
  62
0
  100
AcDb2dVertex
  10
0.64700
  20
0.04400
  30
0.00000
  42
0.1060
  70
32
  0
VERTEX
  5
C01
  100
AcDbEntity
  8
Layer 1
  62
0
  100
AcDb2dVertex
  10
0.74046
  20
0.06286
  30
0.00000
  42
0.1049
  70
32
  0
VERTEX
  5
C02
  100
AcDbEntity
  8
Layer 1
  62
0
  100
AcDb2dVertex
  10
0.81664
  20
0.11900
  30
0.00000
  42
0.0268
  70
32
  0
VERTEX
  5
C03
  100
AcDbEntity
  8
Layer 1
  62
0
  100
AcDb2dVertex
  10
0.83700
  20
0.14400
  30
0.00000
  42
0.0235
  70
32
  0
VERTEX
  5
C04
  100
AcDbEntity
  8
Layer 1
  62
0
  100
AcDb2dVertex
  10
0.88769
  20
0.20727
  30
0.00000
  42
0.0255
  70
32
  0
VERTEX
  5
C05
  100
AcDbEntity
  8
Layer 1
  62
0
  100
AcDb2dVertex
  10
0.89900
  20
0.22500
  30
0.00000
  42
0.1332
  70
32
  0
VERTEX
  5
C06
  100
AcDbEntity
  8
Layer 1
  62
0
  100
AcDb2dVertex
  10
0.92600
  20
0.32200
  30
0.00000
  42
0.1033
  70
32
  0
VERTEX
  5
C07
  100
AcDbEntity
  8
Layer 1
  62
0
  100
AcDb2dVertex
  10
0.91025
  20
0.39314
  30
0.00000
  42
0.0307
  70
32
  0
VERTEX
  5
C08
  100
AcDbEntity
  8
Layer 1
  62
0
  100
AcDb2dVertex
  10
0.89600
  20
0.42100
  30
0.00000
  70
32
  0
VERTEX
  5
C09
  100
AcDbEntity
  8
Layer 1
  62
0
  100
AcDb2dVertex
  10
0.87350
  20
0.45950
  30
0.00000
  70
32
  0
VERTEX
  5
C0A
  100
AcDbEntity
  8
Layer 1
  62
0
  100
AcDb2dVertex
  10
0.86787
  20
0.46966
  30
0.00000
  42
-0.0711
  70
32
  0
VERTEX
  5
C0B
  100
AcDbEntity
  8
Layer 1
  62
0
  100
AcDb2dVertex
  10
0.86600
  20
0.47400
  30
0.00000
  42
-0.0374
  70
32
  0
VERTEX
  5
C0C
  100
AcDbEntity
  8
Layer 1
  62
0
  100
AcDb2dVertex
  10
0.87600
  20
0.47500
  30
0.00000
  42
-0.1711
  70
32
  0
VERTEX
  5
C0D
  100
AcDbEntity
  8
Layer 1
  62
0
  100
AcDb2dVertex
  10
0.89914
  20
0.46613
  30
0.00000
  42
-0.0848
  70
32
  0
VERTEX
  5
C0E
  100
AcDbEntity
  8
Layer 1
  62
0
  100
AcDb2dVertex
  10
0.92089
  20
0.44047
  30
0.00000
  42
-0.0337
  70
32
  0
VERTEX
  5
C0F
  100
AcDbEntity
  8
Layer 1
  62
0
  100
AcDb2dVertex
  10
0.93700
  20
0.41000
  30
0.00000
  42
-0.0508
  70
32
  0
VERTEX
  5
C10
  100
AcDbEntity
  8
Layer 1
  62
0
  100
AcDb2dVertex
  10
0.95992
  20
0.34632
  30
0.00000
  42
-0.0562
  70
32
  0
VERTEX
  5
C11
  100
AcDbEntity
  8
Layer 1
  62
0
  100
AcDb2dVertex
  10
0.96400
  20
0.31400
  30
0.00000
  70
32
  0
SEQEND
  5
C12
  100
AcDbEntity
  8
Layer 1
  62
0
  0
POLYLINE
  5
C13
  100
AcDbEntity
  8
Layer 1
  62
0
  100
AcDb2dPolyline
 66
     1
  10
0
  20
0
  30
0
  70
1
  0
VERTEX
  5
C14
  100
AcDbEntity
  8
Layer 1
  62
0
  100
AcDb2dVertex
  10
0.58200
  20
0.45700
  30
0.00000
  42
-0.1930
  70
32
  0
VERTEX
  5
C15
  100
AcDbEntity
  8
Layer 1
  62
0
  100
AcDb2dVertex
  10
0.57732
  20
0.44756
  30
0.00000
  42
-0.0547
  70
32
  0
VERTEX
  5
C16
  100
AcDbEntity
  8
Layer 1
  62
0
  100
AcDb2dVertex
  10
0.56400
  20
0.43700
  30
0.00000
  70
32
  0
VERTEX
  5
C17
  100
AcDbEntity
  8
Layer 1
  62
0
  100
AcDb2dVertex
  10
0.55801
  20
0.43303
  30
0.00000
  70
32
  0
VERTEX
  5
C18
  100
AcDbEntity
  8
Layer 1
  62
0
  100
AcDb2dVertex
  10
0.54697
  20
0.42559
  30
0.00000
  42
0.0403
  70
32
  0
VERTEX
  5
C19
  100
AcDbEntity
  8
Layer 1
  62
0
  100
AcDb2dVertex
  10
0.54000
  20
0.42000
  30
0.00000
  42
-0.0345
  70
32
  0
VERTEX
  5
C1A
  100
AcDbEntity
  8
Layer 1
  62
0
  100
AcDb2dVertex
  10
0.53200
  20
0.39400
  30
0.00000
  42
-0.2555
  70
32
  0
VERTEX
  5
C1B
  100
AcDbEntity
  8
Layer 1
  62
0
  100
AcDb2dVertex
  10
0.51529
  20
0.37756
  30
0.00000
  42
-0.0809
  70
32
  0
VERTEX
  5
C1C
  100
AcDbEntity
  8
Layer 1
  62
0
  100
AcDb2dVertex
  10
0.49700
  20
0.37500
  30
0.00000
  42
-0.1506
  70
32
  0
VERTEX
  5
C1D
  100
AcDbEntity
  8
Layer 1
  62
0
  100
AcDb2dVertex
  10
0.48216
  20
0.37860
  30
0.00000
  42
-0.2584
  70
32
  0
VERTEX
  5
C1E
  100
AcDbEntity
  8
Layer 1
  62
0
  100
AcDb2dVertex
  10
0.47700
  20
0.38900
  30
0.00000
  42
-0.0814
  70
32
  0
VERTEX
  5
C1F
  100
AcDbEntity
  8
Layer 1
  62
0
  100
AcDb2dVertex
  10
0.48160
  20
0.39389
  30
0.00000
  70
32
  0
VERTEX
  5
C20
  100
AcDbEntity
  8
Layer 1
  62
0
  100
AcDb2dVertex
  10
0.48762
  20
0.39940
  30
0.00000
  70
32
  0
VERTEX
  5
C21
  100
AcDbEntity
  8
Layer 1
  62
0
  100
AcDb2dVertex
  10
0.49700
  20
0.40800
  30
0.00000
  42
0.1434
  70
32
  0
VERTEX
  5
C22
  100
AcDbEntity
  8
Layer 1
  62
0
  100
AcDb2dVertex
  10
0.51529
  20
0.43385
  30
0.00000
  42
0.0748
  70
32
  0
VERTEX
  5
C23
  100
AcDbEntity
  8
Layer 1
  62
0
  100
AcDb2dVertex
  10
0.51700
  20
0.44500
  30
0.00000
  70
32
  0
VERTEX
  5
C24
  100
AcDbEntity
  8
Layer 1
  62
0
  100
AcDb2dVertex
  10
0.53700
  20
0.45400
  30
0.00000
  70
32
  0
VERTEX
  5
C25
  100
AcDbEntity
  8
Layer 1
  62
0
  100
AcDb2dVertex
  10
0.51700
  20
0.44500
  30
0.00000
  42
0.1296
  70
32
  0
VERTEX
  5
C26
  100
AcDbEntity
  8
Layer 1
  62
0
  100
AcDb2dVertex
  10
0.49720
  20
0.47074
  30
0.00000
  42
0.1623
  70
32
  0
VERTEX
  5
C27
  100
AcDbEntity
  8
Layer 1
  62
0
  100
AcDb2dVertex
  10
0.46700
  20
0.48000
  30
0.00000
  42
-0.1976
  70
32
  0
VERTEX
  5
C28
  100
AcDbEntity
  8
Layer 1
  62
0
  100
AcDb2dVertex
  10
0.45700
  20
0.48312
  30
0.00000
  42
-0.2056
  70
32
  0
VERTEX
  5
C29
  100
AcDbEntity
  8
Layer 1
  62
0
  100
AcDb2dVertex
  10
0.45400
  20
0.49200
  30
0.00000
  42
-0.3121
  70
32
  0
VERTEX
  5
C2A
  100
AcDbEntity
  8
Layer 1
  62
0
  100
AcDb2dVertex
  10
0.46291
  20
0.50537
  30
0.00000
  42
-0.1072
  70
32
  0
VERTEX
  5
C2B
  100
AcDbEntity
  8
Layer 1
  62
0
  100
AcDb2dVertex
  10
0.48321
  20
0.50900
  30
0.00000
  70
32
  0
VERTEX
  5
C2C
  100
AcDbEntity
  8
Layer 1
  62
0
  100
AcDb2dVertex
  10
0.48400
  20
0.50900
  30
0.00000
  42
-0.1833
  70
32
  0
VERTEX
  5
C2D
  100
AcDbEntity
  8
Layer 1
  62
0
  100
AcDb2dVertex
  10
0.51600
  20
0.49800
  30
0.00000
  70
32
  0
VERTEX
  5
C2E
  100
AcDbEntity
  8
Layer 1
  62
0
  100
AcDb2dVertex
  10
0.52281
  20
0.49253
  30
0.00000
  70
32
  0
VERTEX
  5
C2F
  100
AcDbEntity
  8
Layer 1
  62
0
  100
AcDb2dVertex
  10
0.52920
  20
0.48751
  30
0.00000
  42
0.0898
  70
32
  0
VERTEX
  5
C30
  100
AcDbEntity
  8
Layer 1
  62
0
  100
AcDb2dVertex
  10
0.53400
  20
0.48500
  30
0.00000
  42
-0.0518
  70
32
  0
VERTEX
  5
C31
  100
AcDbEntity
  8
Layer 1
  62
0
  100
AcDb2dVertex
  10
0.56539
  20
0.48051
  30
0.00000
  70
32
  0
VERTEX
  5
C32
  100
AcDbEntity
  8
Layer 1
  62
0
  100
AcDb2dVertex
  10
0.57200
  20
0.47900
  30
0.00000
  42
-0.1328
  70
32
  0
VERTEX
  5
C33
  100
AcDbEntity
  8
Layer 1
  62
0
  100
AcDb2dVertex
  10
0.58158
  20
0.46422
  30
0.00000
  42
-0.1007
  70
32
  0
VERTEX
  5
C34
  100
AcDbEntity
  8
Layer 1
  62
0
  100
AcDb2dVertex
  10
0.58200
  20
0.45700
  30
0.00000
  70
32
  0
SEQEND
  5
C35
  100
AcDbEntity
  8
Layer 1
  62
0
  0
POLYLINE
  5
C36
  100
AcDbEntity
  8
Layer 1
  62
0
  100
AcDb2dPolyline
 66
     1
  10
0
  20
0
  30
0
  70
1
  0
VERTEX
  5
C37
  100
AcDbEntity
  8
Layer 1
  62
0
  100
AcDb2dVertex
  10
0.41500
  20
0.54900
  30
0.00000
  42
-0.0356
  70
32
  0
VERTEX
  5
C38
  100
AcDbEntity
  8
Layer 1
  62
0
  100
AcDb2dVertex
  10
0.35521
  20
0.51235
  30
0.00000
  42
-0.0666
  70
32
  0
VERTEX
  5
C39
  100
AcDbEntity
  8
Layer 1
  62
0
  100
AcDb2dVertex
  10
0.32886
  20
0.50248
  30
0.00000
  42
-0.0437
  70
32
  0
VERTEX
  5
C3A
  100
AcDbEntity
  8
Layer 1
  62
0
  100
AcDb2dVertex
  10
0.32400
  20
0.50200
  30
0.00000
  42
-0.0924
  70
32
  0
VERTEX
  5
C3B
  100
AcDbEntity
  8
Layer 1
  62
0
  100
AcDb2dVertex
  10
0.30567
  20
0.50678
  30
0.00000
  42
-0.0282
  70
32
  0
VERTEX
  5
C3C
  100
AcDbEntity
  8
Layer 1
  62
0
  100
AcDb2dVertex
  10
0.28500
  20
0.51700
  30
0.00000
  42
0.0923
  70
32
  0
VERTEX
  5
C3D
  100
AcDbEntity
  8
Layer 1
  62
0
  100
AcDb2dVertex
  10
0.24713
  20
0.52945
  30
0.00000
  42
0.0395
  70
32
  0
VERTEX
  5
C3E
  100
AcDbEntity
  8
Layer 1
  62
0
  100
AcDb2dVertex
  10
0.21200
  20
0.53200
  30
0.00000
  42
-0.0703
  70
32
  0
VERTEX
  5
C3F
  100
AcDbEntity
  8
Layer 1
  62
0
  100
AcDb2dVertex
  10
0.17470
  20
0.53631
  30
0.00000
  42
-0.1364
  70
32
  0
VERTEX
  5
C40
  100
AcDbEntity
  8
Layer 1
  62
0
  100
AcDb2dVertex
  10
0.15558
  20
0.54712
  30
0.00000
  42
-0.1933
  70
32
  0
VERTEX
  5
C41
  100
AcDbEntity
  8
Layer 1
  62
0
  100
AcDb2dVertex
  10
0.14900
  20
0.56500
  30
0.00000
  42
-0.2366
  70
32
  0
VERTEX
  5
C42
  100
AcDbEntity
  8
Layer 1
  62
0
  100
AcDb2dVertex
  10
0.15267
  20
0.57447
  30
0.00000
  42
-0.1692
  70
32
  0
VERTEX
  5
C43
  100
AcDbEntity
  8
Layer 1
  62
0
  100
AcDb2dVertex
  10
0.16200
  20
0.57700
  30
0.00000
  42
-0.0685
  70
32
  0
VERTEX
  5
C44
  100
AcDbEntity
  8
Layer 1
  62
0
  100
AcDb2dVertex
  10
0.17731
  20
0.57372
  30
0.00000
  70
32
  0
VERTEX
  5
C45
  100
AcDbEntity
  8
Layer 1
  62
0
  100
AcDb2dVertex
  10
0.17983
  20
0.57296
  30
0.00000
  70
32
  0
VERTEX
  5
C46
  100
AcDbEntity
  8
Layer 1
  62
0
  100
AcDb2dVertex
  10
0.18300
  20
0.57200
  30
0.00000
  42
0.0659
  70
32
  0
VERTEX
  5
C47
  100
AcDbEntity
  8
Layer 1
  62
0
  100
AcDb2dVertex
  10
0.20461
  20
0.56700
  30
0.00000
  70
32
  0
VERTEX
  5
C48
  100
AcDbEntity
  8
Layer 1
  62
0
  100
AcDb2dVertex
  10
0.20500
  20
0.56700
  30
0.00000
  42
0.0837
  70
32
  0
VERTEX
  5
C49
  100
AcDbEntity
  8
Layer 1
  62
0
  100
AcDb2dVertex
  10
0.24000
  20
0.57400
  30
0.00000
  42
0.1074
  70
32
  0
VERTEX
  5
C4A
  100
AcDbEntity
  8
Layer 1
  62
0
  100
AcDb2dVertex
  10
0.25624
  20
0.58357
  30
0.00000
  42
0.1968
  70
32
  0
VERTEX
  5
C4B
  100
AcDbEntity
  8
Layer 1
  62
0
  100
AcDb2dVertex
  10
0.26000
  20
0.59200
  30
0.00000
  42
0.1934
  70
32
  0
VERTEX
  5
C4C
  100
AcDbEntity
  8
Layer 1
  62
0
  100
AcDb2dVertex
  10
0.25727
  20
0.60125
  30
0.00000
  42
0.2087
  70
32
  0
VERTEX
  5
C4D
  100
AcDbEntity
  8
Layer 1
  62
0
  100
AcDb2dVertex
  10
0.24900
  20
0.60400
  30
0.00000
  42
0.0597
  70
32
  0
VERTEX
  5
C4E
  100
AcDbEntity
  8
Layer 1
  62
0
  100
AcDb2dVertex
  10
0.22841
  20
0.60019
  30
0.00000
  70
32
  0
VERTEX
  5
C4F
  100
AcDbEntity
  8
Layer 1
  62
0
  100
AcDb2dVertex
  10
0.22400
  20
0.59900
  30
0.00000
  70
32
  0
VERTEX
  5
C50
  100
AcDbEntity
  8
Layer 1
  62
0
  100
AcDb2dVertex
  10
0.21659
  20
0.59761
  30
0.00000
  42
-0.0379
  70
32
  0
VERTEX
  5
C51
  100
AcDbEntity
  8
Layer 1
  62
0
  100
AcDb2dVertex
  10
0.19900
  20
0.59500
  30
0.00000
  42
-0.0832
  70
32
  0
VERTEX
  5
C52
  100
AcDbEntity
  8
Layer 1
  62
0
  100
AcDb2dVertex
  10
0.17716
  20
0.59775
  30
0.00000
  42
-0.2173
  70
32
  0
VERTEX
  5
C53
  100
AcDbEntity
  8
Layer 1
  62
0
  100
AcDb2dVertex
  10
0.16955
  20
0.60397
  30
0.00000
  42
-0.0943
  70
32
  0
VERTEX
  5
C54
  100
AcDbEntity
  8
Layer 1
  62
0
  100
AcDb2dVertex
  10
0.16900
  20
0.60700
  30
0.00000
  42
-0.2439
  70
32
  0
VERTEX
  5
C55
  100
AcDbEntity
  8
Layer 1
  62
0
  100
AcDb2dVertex
  10
0.17417
  20
0.61567
  30
0.00000
  42
-0.0901
  70
32
  0
VERTEX
  5
C56
  100
AcDbEntity
  8
Layer 1
  62
0
  100
AcDb2dVertex
  10
0.19271
  20
0.62359
  30
0.00000
  42
-0.0298
  70
32
  0
VERTEX
  5
C57
  100
AcDbEntity
  8
Layer 1
  62
0
  100
AcDb2dVertex
  10
0.22000
  20
0.62900
  30
0.00000
  70
32
  0
VERTEX
  5
C58
  100
AcDbEntity
  8
Layer 1
  62
0
  100
AcDb2dVertex
  10
0.22557
  20
0.62949
  30
0.00000
  42
-0.0104
  70
32
  0
VERTEX
  5
C59
  100
AcDbEntity
  8
Layer 1
  62
0
  100
AcDb2dVertex
  10
0.28700
  20
0.63400
  30
0.00000
  42
0.0517
  70
32
  0
VERTEX
  5
C5A
  100
AcDbEntity
  8
Layer 1
  62
0
  100
AcDb2dVertex
  10
0.30603
  20
0.64073
  30
0.00000
  70
32
  0
VERTEX
  5
C5B
  100
AcDbEntity
  8
Layer 1
  62
0
  100
AcDb2dVertex
  10
0.31277
  20
0.64361
  30
0.00000
  70
32
  0
VERTEX
  5
C5C
  100
AcDbEntity
  8
Layer 1
  62
0
  100
AcDb2dVertex
  10
0.31600
  20
0.64500
  30
0.00000
  42
-0.0823
  70
32
  0
VERTEX
  5
C5D
  100
AcDbEntity
  8
Layer 1
  62
0
  100
AcDb2dVertex
  10
0.34424
  20
0.65468
  30
0.00000
  70
32
  0
VERTEX
  5
C5E
  100
AcDbEntity
  8
Layer 1
  62
0
  100
AcDb2dVertex
  10
0.34900
  20
0.65500
  30
0.00000
  42
-0.1567
  70
32
  0
VERTEX
  5
C5F
  100
AcDbEntity
  8
Layer 1
  62
0
  100
AcDb2dVertex
  10
0.36684
  20
0.65030
  30
0.00000
  42
-0.1959
  70
32
  0
VERTEX
  5
C60
  100
AcDbEntity
  8
Layer 1
  62
0
  100
AcDb2dVertex
  10
0.37608
  20
0.63460
  30
0.00000
  42
-0.0601
  70
32
  0
VERTEX
  5
C61
  100
AcDbEntity
  8
Layer 1
  62
0
  100
AcDb2dVertex
  10
0.37700
  20
0.62000
  30
0.00000
  70
32
  0
VERTEX
  5
C62
  100
AcDbEntity
  8
Layer 1
  62
0
  100
AcDb2dVertex
  10
0.37400
  20
0.59000
  30
0.00000
  70
32
  0
VERTEX
  5
C63
  100
AcDbEntity
  8
Layer 1
  62
0
  100
AcDb2dVertex
  10
0.32700
  20
0.58900
  30
0.00000
  70
32
  0
VERTEX
  5
C64
  100
AcDbEntity
  8
Layer 1
  62
0
  100
AcDb2dVertex
  10
0.37400
  20
0.59000
  30
0.00000
  42
-0.3017
  70
32
  0
VERTEX
  5
C65
  100
AcDbEntity
  8
Layer 1
  62
0
  100
AcDb2dVertex
  10
0.37920
  20
0.58586
  30
0.00000
  42
-0.0788
  70
32
  0
VERTEX
  5
C66
  100
AcDbEntity
  8
Layer 1
  62
0
  100
AcDb2dVertex
  10
0.38100
  20
0.57900
  30
0.00000
  42
0.0840
  70
32
  0
VERTEX
  5
C67
  100
AcDbEntity
  8
Layer 1
  62
0
  100
AcDb2dVertex
  10
0.38650
  20
0.56557
  30
0.00000
  70
32
  0
VERTEX
  5
C68
  100
AcDbEntity
  8
Layer 1
  62
0
  100
AcDb2dVertex
  10
0.38700
  20
0.56500
  30
0.00000
  42
-0.0408
  70
32
  0
VERTEX
  5
C69
  100
AcDbEntity
  8
Layer 1
  62
0
  100
AcDb2dVertex
  10
0.41000
  20
0.55900
  30
0.00000
  70
32
  0
VERTEX
  5
C6A
  100
AcDbEntity
  8
Layer 1
  62
0
  100
AcDb2dVertex
  10
0.41500
  20
0.54900
  30
0.00000
  70
32
  0
SEQEND
  5
C6B
  100
AcDbEntity
  8
Layer 1
  62
0
  0
POLYLINE
  5
C6C
  100
AcDbEntity
  8
Layer 1
  62
0
  100
AcDb2dPolyline
 66
     1
  10
0
  20
0
  30
0
  70
1
  0
VERTEX
  5
C6D
  100
AcDbEntity
  8
Layer 1
  62
0
  100
AcDb2dVertex
  10
0.60500
  20
0.30900
  30
0.00000
  42
-0.1144
  70
32
  0
VERTEX
  5
C6E
  100
AcDbEntity
  8
Layer 1
  62
0
  100
AcDb2dVertex
  10
0.59407
  20
0.28664
  30
0.00000
  42
-0.2253
  70
32
  0
VERTEX
  5
C6F
  100
AcDbEntity
  8
Layer 1
  62
0
  100
AcDb2dVertex
  10
0.57200
  20
0.27700
  30
0.00000
  42
-0.0754
  70
32
  0
VERTEX
  5
C70
  100
AcDbEntity
  8
Layer 1
  62
0
  100
AcDb2dVertex
  10
0.54585
  20
0.28220
  30
0.00000
  70
32
  0
VERTEX
  5
C71
  100
AcDbEntity
  8
Layer 1
  62
0
  100
AcDb2dVertex
  10
0.53500
  20
0.28600
  30
0.00000
  42
0.0790
  70
32
  0
VERTEX
  5
C72
  100
AcDbEntity
  8
Layer 1
  62
0
  100
AcDb2dVertex
  10
0.49995
  20
0.29492
  30
0.00000
  70
32
  0
VERTEX
  5
C73
  100
AcDbEntity
  8
Layer 1
  62
0
  100
AcDb2dVertex
  10
0.49700
  20
0.29500
  30
0.00000
  42
0.0448
  70
32
  0
VERTEX
  5
C74
  100
AcDbEntity
  8
Layer 1
  62
0
  100
AcDb2dVertex
  10
0.42269
  20
0.28933
  30
0.00000
  42
0.0697
  70
32
  0
VERTEX
  5
C75
  100
AcDbEntity
  8
Layer 1
  62
0
  100
AcDb2dVertex
  10
0.38000
  20
0.27600
  30
0.00000
  42
-0.0105
  70
32
  0
VERTEX
  5
C76
  100
AcDbEntity
  8
Layer 1
  62
0
  100
AcDb2dVertex
  10
0.34200
  20
0.25700
  30
0.00000
  42
-0.2493
  70
32
  0
VERTEX
  5
C77
  100
AcDbEntity
  8
Layer 1
  62
0
  100
AcDb2dVertex
  10
0.33481
  20
0.25576
  30
0.00000
  42
-0.2416
  70
32
  0
VERTEX
  5
C78
  100
AcDbEntity
  8
Layer 1
  62
0
  100
AcDb2dVertex
  10
0.33200
  20
0.26000
  30
0.00000
  42
-0.2048
  70
32
  0
VERTEX
  5
C79
  100
AcDbEntity
  8
Layer 1
  62
0
  100
AcDb2dVertex
  10
0.36017
  20
0.30149
  30
0.00000
  42
-0.0908
  70
32
  0
VERTEX
  5
C7A
  100
AcDbEntity
  8
Layer 1
  62
0
  100
AcDb2dVertex
  10
0.40044
  20
0.31799
  30
0.00000
  70
32
  0
VERTEX
  5
C7B
  100
AcDbEntity
  8
Layer 1
  62
0
  100
AcDb2dVertex
  10
0.40500
  20
0.31900
  30
0.00000
  42
-0.0236
  70
32
  0
VERTEX
  5
C7C
  100
AcDbEntity
  8
Layer 1
  62
0
  100
AcDb2dVertex
  10
0.46034
  20
0.32170
  30
0.00000
  70
32
  0
VERTEX
  5
C7D
  100
AcDbEntity
  8
Layer 1
  62
0
  100
AcDb2dVertex
  10
0.50200
  20
0.32200
  30
0.00000
  42
0.0823
  70
32
  0
VERTEX
  5
C7E
  100
AcDbEntity
  8
Layer 1
  62
0
  100
AcDb2dVertex
  10
0.53441
  20
0.32871
  30
0.00000
  70
32
  0
VERTEX
  5
C7F
  100
AcDbEntity
  8
Layer 1
  62
0
  100
AcDb2dVertex
  10
0.54300
  20
0.33200
  30
0.00000
  42
-0.0772
  70
32
  0
VERTEX
  5
C80
  100
AcDbEntity
  8
Layer 1
  62
0
  100
AcDb2dVertex
  10
0.57987
  20
0.34184
  30
0.00000
  70
32
  0
VERTEX
  5
C81
  100
AcDbEntity
  8
Layer 1
  62
0
  100
AcDb2dVertex
  10
0.58400
  20
0.34200
  30
0.00000
  42
-0.2666
  70
32
  0
VERTEX
  5
C82
  100
AcDbEntity
  8
Layer 1
  62
0
  100
AcDb2dVertex
  10
0.59721
  20
0.33420
  30
0.00000
  42
-0.1003
  70
32
  0
VERTEX
  5
C83
  100
AcDbEntity
  8
Layer 1
  62
0
  100
AcDb2dVertex
  10
0.60430
  20
0.31353
  30
0.00000
  70
32
  0
VERTEX
  5
C84
  100
AcDbEntity
  8
Layer 1
  62
0
  100
AcDb2dVertex
  10
0.60500
  20
0.30900
  30
0.00000
  70
32
  0
VERTEX
  5
C85
  100
AcDbEntity
  8
Layer 1
  62
0
  100
AcDb2dVertex
  10
0.56200
  20
0.30900
  30
0.00000
  70
32
  0
VERTEX
  5
C86
  100
AcDbEntity
  8
Layer 1
  62
0
  100
AcDb2dVertex
  10
0.60500
  20
0.30900
  30
0.00000
  70
32
  0
SEQEND
  5
C87
  100
AcDbEntity
  8
Layer 1
  62
0
  0
POLYLINE
  5
C88
  100
AcDbEntity
  8
Layer 1
  62
0
  100
AcDb2dPolyline
 66
     1
  10
0
  20
0
  30
0
  70
1
  0
VERTEX
  5
C89
  100
AcDbEntity
  8
Layer 1
  62
0
  100
AcDb2dVertex
  10
0.44200
  20
0.68200
  30
0.00000
  70
32
  0
VERTEX
  5
C8A
  100
AcDbEntity
  8
Layer 1
  62
0
  100
AcDb2dVertex
  10
0.43400
  20
0.67500
  30
0.00000
  42
-0.0277
  70
32
  0
VERTEX
  5
C8B
  100
AcDbEntity
  8
Layer 1
  62
0
  100
AcDb2dVertex
  10
0.41776
  20
0.68374
  30
0.00000
  70
32
  0
VERTEX
  5
C8C
  100
AcDbEntity
  8
Layer 1
  62
0
  100
AcDb2dVertex
  10
0.39100
  20
0.69900
  30
0.00000
  42
0.0861
  70
32
  0
VERTEX
  5
C8D
  100
AcDbEntity
  8
Layer 1
  62
0
  100
AcDb2dVertex
  10
0.33971
  20
0.72122
  30
0.00000
  42
0.0550
  70
32
  0
VERTEX
  5
C8E
  100
AcDbEntity
  8
Layer 1
  62
0
  100
AcDb2dVertex
  10
0.31500
  20
0.72400
  30
0.00000
  42
0.1338
  70
32
  0
VERTEX
  5
C8F
  100
AcDbEntity
  8
Layer 1
  62
0
  100
AcDb2dVertex
  10
0.21372
  20
0.69588
  30
0.00000
  42
0.0381
  70
32
  0
VERTEX
  5
C90
  100
AcDbEntity
  8
Layer 1
  62
0
  100
AcDb2dVertex
  10
0.18200
  20
0.67400
  30
0.00000
  42
-0.0147
  70
32
  0
VERTEX
  5
C91
  100
AcDbEntity
  8
Layer 1
  62
0
  100
AcDb2dVertex
  10
0.13000
  20
0.62400
  30
0.00000
  42
0.0498
  70
32
  0
VERTEX
  5
C92
  100
AcDbEntity
  8
Layer 1
  62
0
  100
AcDb2dVertex
  10
0.07034
  20
0.54927
  30
0.00000
  42
0.0735
  70
32
  0
VERTEX
  5
C93
  100
AcDbEntity
  8
Layer 1
  62
0
  100
AcDb2dVertex
  10
0.04005
  20
0.48315
  30
0.00000
  42
0.0673
  70
32
  0
VERTEX
  5
C94
  100
AcDbEntity
  8
Layer 1
  62
0
  100
AcDb2dVertex
  10
0.03400
  20
0.44000
  30
0.00000
  42
0.1287
  70
32
  0
VERTEX
  5
C95
  100
AcDbEntity
  8
Layer 1
  62
0
  100
AcDb2dVertex
  10
0.05270
  20
0.37088
  30
0.00000
  42
0.0634
  70
32
  0
VERTEX
  5
C96
  100
AcDbEntity
  8
Layer 1
  62
0
  100
AcDb2dVertex
  10
0.08700
  20
0.32500
  30
0.00000
  70
32
  0
VERTEX
  5
C97
  100
AcDbEntity
  8
Layer 1
  62
0
  100
AcDb2dVertex
  10
0.09200
  20
0.30700
  30
0.00000
  70
32
  0
VERTEX
  5
C98
  100
AcDbEntity
  8
Layer 1
  62
0
  100
AcDb2dVertex
  10
0.08400
  20
0.30200
  30
0.00000
  42
-0.1730
  70
32
  0
VERTEX
  5
C99
  100
AcDbEntity
  8
Layer 1
  62
0
  100
AcDb2dVertex
  10
0.05757
  20
0.31344
  30
0.00000
  42
-0.0871
  70
32
  0
VERTEX
  5
C9A
  100
AcDbEntity
  8
Layer 1
  62
0
  100
AcDb2dVertex
  10
0.03565
  20
0.34220
  30
0.00000
  42
-0.0299
  70
32
  0
VERTEX
  5
C9B
  100
AcDbEntity
  8
Layer 1
  62
0
  100
AcDb2dVertex
  10
0.02400
  20
0.36700
  30
0.00000
  42
-0.0674
  70
32
  0
VERTEX
  5
C9C
  100
AcDbEntity
  8
Layer 1
  62
0
  100
AcDb2dVertex
  10
0.00198
  20
0.43619
  30
0.00000
  42
-0.0389
  70
32
  0
VERTEX
  5
C9D
  100
AcDbEntity
  8
Layer 1
  62
0
  100
AcDb2dVertex
  10
0.00000
  20
0.46000
  30
0.00000
  42
-0.1154
  70
32
  0
VERTEX
  5
C9E
  100
AcDbEntity
  8
Layer 1
  62
0
  100
AcDb2dVertex
  10
0.01802
  20
0.53372
  30
0.00000
  42
-0.0710
  70
32
  0
VERTEX
  5
C9F
  100
AcDbEntity
  8
Layer 1
  62
0
  100
AcDb2dVertex
  10
0.06253
  20
0.59734
  30
0.00000
  42
-0.0206
  70
32
  0
VERTEX
  5
CA0
  100
AcDbEntity
  8
Layer 1
  62
0
  100
AcDb2dVertex
  10
0.08700
  20
0.62200
  30
0.00000
  70
32
  0
VERTEX
  5
CA1
  100
AcDbEntity
  8
Layer 1
  62
0
  100
AcDb2dVertex
  10
0.07700
  20
0.63900
  30
0.00000
  42
-0.0310
  70
32
  0
VERTEX
  5
CA2
  100
AcDbEntity
  8
Layer 1
  62
0
  100
AcDb2dVertex
  10
0.03596
  20
0.65645
  30
0.00000
  42
-0.1089
  70
32
  0
VERTEX
  5
CA3
  100
AcDbEntity
  8
Layer 1
  62
0
  100
AcDb2dVertex
  10
0.02919
  20
0.66137
  30
0.00000
  70
32
  0
VERTEX
  5
CA4
  100
AcDbEntity
  8
Layer 1
  62
0
  100
AcDb2dVertex
  10
0.02900
  20
0.66200
  30
0.00000
  42
-0.1230
  70
32
  0
VERTEX
  5
CA5
  100
AcDbEntity
  8
Layer 1
  62
0
  100
AcDb2dVertex
  10
0.03299
  20
0.67273
  30
0.00000
  42
-0.0389
  70
32
  0
VERTEX
  5
CA6
  100
AcDbEntity
  8
Layer 1
  62
0
  100
AcDb2dVertex
  10
0.05100
  20
0.69700
  30
0.00000
  42
-0.0462
  70
32
  0
VERTEX
  5
CA7
  100
AcDbEntity
  8
Layer 1
  62
0
  100
AcDb2dVertex
  10
0.07336
  20
0.72047
  30
0.00000
  42
-0.1444
  70
32
  0
VERTEX
  5
CA8
  100
AcDbEntity
  8
Layer 1
  62
0
  100
AcDb2dVertex
  10
0.08000
  20
0.72400
  30
0.00000
  42
-0.2081
  70
32
  0
VERTEX
  5
CA9
  100
AcDbEntity
  8
Layer 1
  62
0
  100
AcDb2dVertex
  10
0.09008
  20
0.71871
  30
0.00000
  42
-0.0837
  70
32
  0
VERTEX
  5
CAA
  100
AcDbEntity
  8
Layer 1
  62
0
  100
AcDb2dVertex
  10
0.10207
  20
0.69863
  30
0.00000
  70
32
  0
VERTEX
  5
CAB
  100
AcDbEntity
  8
Layer 1
  62
0
  100
AcDb2dVertex
  10
0.10400
  20
0.69400
  30
0.00000
  42
0.0846
  70
32
  0
VERTEX
  5
CAC
  100
AcDbEntity
  8
Layer 1
  62
0
  100
AcDb2dVertex
  10
0.11590
  20
0.67144
  30
0.00000
  42
0.1904
  70
32
  0
VERTEX
  5
CAD
  100
AcDbEntity
  8
Layer 1
  62
0
  100
AcDb2dVertex
  10
0.12593
  20
0.66506
  30
0.00000
  70
32
  0
VERTEX
  5
CAE
  100
AcDbEntity
  8
Layer 1
  62
0
  100
AcDb2dVertex
  10
0.12700
  20
0.66500
  30
0.00000
  42
-0.0258
  70
32
  0
VERTEX
  5
CAF
  100
AcDbEntity
  8
Layer 1
  62
0
  100
AcDb2dVertex
  10
0.18549
  20
0.71896
  30
0.00000
  42
-0.0216
  70
32
  0
VERTEX
  5
CB0
  100
AcDbEntity
  8
Layer 1
  62
0
  100
AcDb2dVertex
  10
0.19900
  20
0.72900
  30
0.00000
  42
-0.1467
  70
32
  0
VERTEX
  5
CB1
  100
AcDbEntity
  8
Layer 1
  62
0
  100
AcDb2dVertex
  10
0.28761
  20
0.75499
  30
0.00000
  70
32
  0
VERTEX
  5
CB2
  100
AcDbEntity
  8
Layer 1
  62
0
  100
AcDb2dVertex
  10
0.28900
  20
0.75500
  30
0.00000
  42
-0.0656
  70
32
  0
VERTEX
  5
CB3
  100
AcDbEntity
  8
Layer 1
  62
0
  100
AcDb2dVertex
  10
0.34351
  20
0.74663
  30
0.00000
  42
-0.0240
  70
32
  0
VERTEX
  5
CB4
  100
AcDbEntity
  8
Layer 1
  62
0
  100
AcDb2dVertex
  10
0.37900
  20
0.73500
  30
0.00000
  42
-0.0615
  70
32
  0
VERTEX
  5
CB5
  100
AcDbEntity
  8
Layer 1
  62
0
  100
AcDb2dVertex
  10
0.42023
  20
0.71427
  30
0.00000
  42
-0.1118
  70
32
  0
VERTEX
  5
CB6
  100
AcDbEntity
  8
Layer 1
  62
0
  100
AcDb2dVertex
  10
0.43830
  20
0.69562
  30
0.00000
  42
-0.1284
  70
32
  0
VERTEX
  5
CB7
  100
AcDbEntity
  8
Layer 1
  62
0
  100
AcDb2dVertex
  10
0.44200
  20
0.68200
  30
0.00000
  70
32
  0
SEQEND
  5
CB8
  100
AcDbEntity
  8
Layer 1
  62
0
  0
POLYLINE
  5
CB9
  100
AcDbEntity
  8
Layer 1
  62
0
  100
AcDb2dPolyline
 66
     1
  10
0
  20
0
  30
0
  70
1
  0
VERTEX
  5
CBA
  100
AcDbEntity
  8
Layer 1
  62
0
  100
AcDb2dVertex
  10
0.43500
  20
0.39000
  30
0.00000
  42
-0.2565
  70
32
  0
VERTEX
  5
CBB
  100
AcDbEntity
  8
Layer 1
  62
0
  100
AcDb2dVertex
  10
0.42457
  20
0.36859
  30
0.00000
  42
-0.1176
  70
32
  0
VERTEX
  5
CBC
  100
AcDbEntity
  8
Layer 1
  62
0
  100
AcDb2dVertex
  10
0.40280
  20
0.36086
  30
0.00000
  70
32
  0
VERTEX
  5
CBD
  100
AcDbEntity
  8
Layer 1
  62
0
  100
AcDb2dVertex
  10
0.39500
  20
0.36000
  30
0.00000
  70
32
  0
VERTEX
  5
CBE
  100
AcDbEntity
  8
Layer 1
  62
0
  100
AcDb2dVertex
  10
0.39908
  20
0.36037
  30
0.00000
  70
32
  0
VERTEX
  5
CBF
  100
AcDbEntity
  8
Layer 1
  62
0
  100
AcDb2dVertex
  10
0.40012
  20
0.36069
  30
0.00000
  42
0.0594
  70
32
  0
VERTEX
  5
CC0
  100
AcDbEntity
  8
Layer 1
  62
0
  100
AcDb2dVertex
  10
0.39143
  20
0.36143
  30
0.00000
  42
0.0081
  70
32
  0
VERTEX
  5
CC1
  100
AcDbEntity
  8
Layer 1
  62
0
  100
AcDb2dVertex
  10
0.34200
  20
0.36200
  30
0.00000
  42
0.1131
  70
32
  0
VERTEX
  5
CC2
  100
AcDbEntity
  8
Layer 1
  62
0
  100
AcDb2dVertex
  10
0.32202
  20
0.35627
  30
0.00000
  42
0.0383
  70
32
  0
VERTEX
  5
CC3
  100
AcDbEntity
  8
Layer 1
  62
0
  100
AcDb2dVertex
  10
0.30200
  20
0.34400
  30
0.00000
  42
-0.0611
  70
32
  0
VERTEX
  5
CC4
  100
AcDbEntity
  8
Layer 1
  62
0
  100
AcDb2dVertex
  10
0.27349
  20
0.32911
  30
0.00000
  42
-0.0795
  70
32
  0
VERTEX
  5
CC5
  100
AcDbEntity
  8
Layer 1
  62
0
  100
AcDb2dVertex
  10
0.26200
  20
0.32700
  30
0.00000
  42
-0.0656
  70
32
  0
VERTEX
  5
CC6
  100
AcDbEntity
  8
Layer 1
  62
0
  100
AcDb2dVertex
  10
0.25012
  20
0.33080
  30
0.00000
  42
-0.0136
  70
32
  0
VERTEX
  5
CC7
  100
AcDbEntity
  8
Layer 1
  62
0
  100
AcDb2dVertex
  10
0.18200
  20
0.36200
  30
0.00000
  42
-0.2314
  70
32
  0
VERTEX
  5
CC8
  100
AcDbEntity
  8
Layer 1
  62
0
  100
AcDb2dVertex
  10
0.17446
  20
0.36887
  30
0.00000
  42
-0.0777
  70
32
  0
VERTEX
  5
CC9
  100
AcDbEntity
  8
Layer 1
  62
0
  100
AcDb2dVertex
  10
0.17400
  20
0.37200
  30
0.00000
  42
-0.1631
  70
32
  0
VERTEX
  5
CCA
  100
AcDbEntity
  8
Layer 1
  62
0
  100
AcDb2dVertex
  10
0.17743
  20
0.37747
  30
0.00000
  42
-0.0548
  70
32
  0
VERTEX
  5
CCB
  100
AcDbEntity
  8
Layer 1
  62
0
  100
AcDb2dVertex
  10
0.19500
  20
0.39100
  30
0.00000
  42
0.1081
  70
32
  0
VERTEX
  5
CCC
  100
AcDbEntity
  8
Layer 1
  62
0
  100
AcDb2dVertex
  10
0.20914
  20
0.40484
  30
0.00000
  42
0.2638
  70
32
  0
VERTEX
  5
CCD
  100
AcDbEntity
  8
Layer 1
  62
0
  100
AcDb2dVertex
  10
0.21000
  20
0.41700
  30
0.00000
  70
32
  0
VERTEX
  5
CCE
  100
AcDbEntity
  8
Layer 1
  62
0
  100
AcDb2dVertex
  10
0.25700
  20
0.41400
  30
0.00000
  70
32
  0
VERTEX
  5
CCF
  100
AcDbEntity
  8
Layer 1
  62
0
  100
AcDb2dVertex
  10
0.21000
  20
0.41700
  30
0.00000
  70
32
  0
VERTEX
  5
CD0
  100
AcDbEntity
  8
Layer 1
  62
0
  100
AcDb2dVertex
  10
0.20900
  20
0.42900
  30
0.00000
  42
-0.1028
  70
32
  0
VERTEX
  5
CD1
  100
AcDbEntity
  8
Layer 1
  62
0
  100
AcDb2dVertex
  10
0.20855
  20
0.45521
  30
0.00000
  42
-0.2969
  70
32
  0
VERTEX
  5
CD2
  100
AcDbEntity
  8
Layer 1
  62
0
  100
AcDb2dVertex
  10
0.22817
  20
0.47535
  30
0.00000
  42
-0.0666
  70
32
  0
VERTEX
  5
CD3
  100
AcDbEntity
  8
Layer 1
  62
0
  100
AcDb2dVertex
  10
0.24200
  20
0.47700
  30
0.00000
  42
-0.1098
  70
32
  0
VERTEX
  5
CD4
  100
AcDbEntity
  8
Layer 1
  62
0
  100
AcDb2dVertex
  10
0.26136
  20
0.47160
  30
0.00000
  42
-0.0208
  70
32
  0
VERTEX
  5
CD5
  100
AcDbEntity
  8
Layer 1
  62
0
  100
AcDb2dVertex
  10
0.27000
  20
0.46700
  30
0.00000
  42
0.1029
  70
32
  0
VERTEX
  5
CD6
  100
AcDbEntity
  8
Layer 1
  62
0
  100
AcDb2dVertex
  10
0.29495
  20
0.45853
  30
0.00000
  42
0.0664
  70
32
  0
VERTEX
  5
CD7
  100
AcDbEntity
  8
Layer 1
  62
0
  100
AcDb2dVertex
  10
0.30500
  20
0.45900
  30
0.00000
  70
32
  0
VERTEX
  5
CD8
  100
AcDbEntity
  8
Layer 1
  62
0
  100
AcDb2dVertex
  10
0.33362
  20
0.46125
  30
0.00000
  70
32
  0
VERTEX
  5
CD9
  100
AcDbEntity
  8
Layer 1
  62
0
  100
AcDb2dVertex
  10
0.33917
  20
0.46181
  30
0.00000
  70
32
  0
VERTEX
  5
CDA
  100
AcDbEntity
  8
Layer 1
  62
0
  100
AcDb2dVertex
  10
0.33979
  20
0.46195
  30
0.00000
  70
32
  0
VERTEX
  5
CDB
  100
AcDbEntity
  8
Layer 1
  62
0
  100
AcDb2dVertex
  10
0.33900
  20
0.46200
  30
0.00000
  42
-0.0486
  70
32
  0
VERTEX
  5
CDC
  100
AcDbEntity
  8
Layer 1
  62
0
  100
AcDb2dVertex
  10
0.38561
  20
0.45839
  30
0.00000
  42
-0.1003
  70
32
  0
VERTEX
  5
CDD
  100
AcDbEntity
  8
Layer 1
  62
0
  100
AcDb2dVertex
  10
0.40628
  20
0.45062
  30
0.00000
  42
-0.2580
  70
32
  0
VERTEX
  5
CDE
  100
AcDbEntity
  8
Layer 1
  62
0
  100
AcDb2dVertex
  10
0.41400
  20
0.43700
  30
0.00000
  42
-0.3391
  70
32
  0
VERTEX
  5
CDF
  100
AcDbEntity
  8
Layer 1
  62
0
  100
AcDb2dVertex
  10
0.40503
  20
0.42427
  30
0.00000
  42
-0.0925
  70
32
  0
VERTEX
  5
CE0
  100
AcDbEntity
  8
Layer 1
  62
0
  100
AcDb2dVertex
  10
0.39000
  20
0.42200
  30
0.00000
  42
-0.0777
  70
32
  0
VERTEX
  5
CE1
  100
AcDbEntity
  8
Layer 1
  62
0
  100
AcDb2dVertex
  10
0.36598
  20
0.42730
  30
0.00000
  70
32
  0
VERTEX
  5
CE2
  100
AcDbEntity
  8
Layer 1
  62
0
  100
AcDb2dVertex
  10
0.36400
  20
0.42800
  30
0.00000
  42
0.0713
  70
32
  0
VERTEX
  5
CE3
  100
AcDbEntity
  8
Layer 1
  62
0
  100
AcDb2dVertex
  10
0.33951
  20
0.43399
  30
0.00000
  70
32
  0
VERTEX
  5
CE4
  100
AcDbEntity
  8
Layer 1
  62
0
  100
AcDb2dVertex
  10
0.33900
  20
0.43400
  30
0.00000
  42
0.2075
  70
32
  0
VERTEX
  5
CE5
  100
AcDbEntity
  8
Layer 1
  62
0
  100
AcDb2dVertex
  10
0.32760
  20
0.43010
  30
0.00000
  42
0.1964
  70
32
  0
VERTEX
  5
CE6
  100
AcDbEntity
  8
Layer 1
  62
0
  100
AcDb2dVertex
  10
0.32400
  20
0.41900
  30
0.00000
  42
0.2177
  70
32
  0
VERTEX
  5
CE7
  100
AcDbEntity
  8
Layer 1
  62
0
  100
AcDb2dVertex
  10
0.32791
  20
0.41269
  30
0.00000
  42
0.0765
  70
32
  0
VERTEX
  5
CE8
  100
AcDbEntity
  8
Layer 1
  62
0
  100
AcDb2dVertex
  10
0.34658
  20
0.40286
  30
0.00000
  42
0.0307
  70
32
  0
VERTEX
  5
CE9
  100
AcDbEntity
  8
Layer 1
  62
0
  100
AcDb2dVertex
  10
0.38900
  20
0.39000
  30
0.00000
  70
32
  0
VERTEX
  5
CEA
  100
AcDbEntity
  8
Layer 1
  62
0
  100
AcDb2dVertex
  10
0.42400
  20
0.40400
  30
0.00000
  42
-0.2619
  70
32
  0
VERTEX
  5
CEB
  100
AcDbEntity
  8
Layer 1
  62
0
  100
AcDb2dVertex
  10
0.43163
  20
0.40285
  30
0.00000
  42
-0.1812
  70
32
  0
VERTEX
  5
CEC
  100
AcDbEntity
  8
Layer 1
  62
0
  100
AcDb2dVertex
  10
0.43482
  20
0.39428
  30
0.00000
  70
32
  0
VERTEX
  5
CED
  100
AcDbEntity
  8
Layer 1
  62
0
  100
AcDb2dVertex
  10
0.43500
  20
0.39000
  30
0.00000
  70
32
  0
SEQEND
  5
CEE
  100
AcDbEntity
  8
Layer 1
  62
0
  0
POLYLINE
  5
CEF
  100
AcDbEntity
  8
Layer 1
  62
0
  100
AcDb2dPolyline
 66
     1
  10
0
  20
0
  30
0
  70
1
  0
VERTEX
  5
CF0
  100
AcDbEntity
  8
Layer 1
  62
0
  100
AcDb2dVertex
  10
0.56700
  20
0.16000
  30
0.00000
  42
-0.2363
  70
32
  0
VERTEX
  5
CF1
  100
AcDbEntity
  8
Layer 1
  62
0
  100
AcDb2dVertex
  10
0.55900
  20
0.14500
  30
0.00000
  42
0.0796
  70
32
  0
VERTEX
  5
CF2
  100
AcDbEntity
  8
Layer 1
  62
0
  100
AcDb2dVertex
  10
0.52581
  20
0.13855
  30
0.00000
  70
32
  0
VERTEX
  5
CF3
  100
AcDbEntity
  8
Layer 1
  62
0
  100
AcDb2dVertex
  10
0.51600
  20
0.13500
  30
0.00000
  42
-0.0352
  70
32
  0
VERTEX
  5
CF4
  100
AcDbEntity
  8
Layer 1
  62
0
  100
AcDb2dVertex
  10
0.48559
  20
0.12569
  30
0.00000
  42
-0.0448
  70
32
  0
VERTEX
  5
CF5
  100
AcDbEntity
  8
Layer 1
  62
0
  100
AcDb2dVertex
  10
0.47900
  20
0.12500
  30
0.00000
  42
-0.1007
  70
32
  0
VERTEX
  5
CF6
  100
AcDbEntity
  8
Layer 1
  62
0
  100
AcDb2dVertex
  10
0.45748
  20
0.12843
  30
0.00000
  42
-0.2821
  70
32
  0
VERTEX
  5
CF7
  100
AcDbEntity
  8
Layer 1
  62
0
  100
AcDb2dVertex
  10
0.44716
  20
0.14137
  30
0.00000
  70
32
  0
VERTEX
  5
CF8
  100
AcDbEntity
  8
Layer 1
  62
0
  100
AcDb2dVertex
  10
0.44700
  20
0.14400
  30
0.00000
  42
-0.2694
  70
32
  0
VERTEX
  5
CF9
  100
AcDbEntity
  8
Layer 1
  62
0
  100
AcDb2dVertex
  10
0.45247
  20
0.15202
  30
0.00000
  42
-0.0742
  70
32
  0
VERTEX
  5
CFA
  100
AcDbEntity
  8
Layer 1
  62
0
  100
AcDb2dVertex
  10
0.46000
  20
0.15500
  30
0.00000
  42
-0.0242
  70
32
  0
VERTEX
  5
CFB
  100
AcDbEntity
  8
Layer 1
  62
0
  100
AcDb2dVertex
  10
0.48000
  20
0.15000
  30
0.00000
  42
0.1280
  70
32
  0
VERTEX
  5
CFC
  100
AcDbEntity
  8
Layer 1
  62
0
  100
AcDb2dVertex
  10
0.50330
  20
0.15504
  30
0.00000
  42
0.2324
  70
32
  0
VERTEX
  5
CFD
  100
AcDbEntity
  8
Layer 1
  62
0
  100
AcDb2dVertex
  10
0.51700
  20
0.17500
  30
0.00000
  42
0.1381
  70
32
  0
VERTEX
  5
CFE
  100
AcDbEntity
  8
Layer 1
  62
0
  100
AcDb2dVertex
  10
0.51900
  20
0.20200
  30
0.00000
  42
0.1106
  70
32
  0
VERTEX
  5
CFF
  100
AcDbEntity
  8
Layer 1
  62
0
  100
AcDb2dVertex
  10
0.50863
  20
0.21448
  30
0.00000
  70
32
  0
VERTEX
  5
D00
  100
AcDbEntity
  8
Layer 1
  62
0
  100
AcDb2dVertex
  10
0.50300
  20
0.21900
  30
0.00000
  42
-0.0985
  70
32
  0
VERTEX
  5
D01
  100
AcDbEntity
  8
Layer 1
  62
0
  100
AcDb2dVertex
  10
0.49160
  20
0.23225
  30
0.00000
  42
-0.1132
  70
32
  0
VERTEX
  5
D02
  100
AcDbEntity
  8
Layer 1
  62
0
  100
AcDb2dVertex
  10
0.49000
  20
0.23900
  30
0.00000
  42
-0.2375
  70
32
  0
VERTEX
  5
D03
  100
AcDbEntity
  8
Layer 1
  62
0
  100
AcDb2dVertex
  10
0.49431
  20
0.24972
  30
0.00000
  42
-0.1673
  70
32
  0
VERTEX
  5
D04
  100
AcDbEntity
  8
Layer 1
  62
0
  100
AcDb2dVertex
  10
0.50200
  20
0.25200
  30
0.00000
  42
-0.1277
  70
32
  0
VERTEX
  5
D05
  100
AcDbEntity
  8
Layer 1
  62
0
  100
AcDb2dVertex
  10
0.52365
  20
0.24738
  30
0.00000
  42
-0.2200
  70
32
  0
VERTEX
  5
D06
  100
AcDbEntity
  8
Layer 1
  62
0
  100
AcDb2dVertex
  10
0.53500
  20
0.23200
  30
0.00000
  42
-0.0169
  70
32
  0
VERTEX
  5
D07
  100
AcDbEntity
  8
Layer 1
  62
0
  100
AcDb2dVertex
  10
0.54000
  20
0.19400
  30
0.00000
  42
-0.0827
  70
32
  0
VERTEX
  5
D08
  100
AcDbEntity
  8
Layer 1
  62
0
  100
AcDb2dVertex
  10
0.56112
  20
0.17551
  30
0.00000
  42
-0.1649
  70
32
  0
VERTEX
  5
D09
  100
AcDbEntity
  8
Layer 1
  62
0
  100
AcDb2dVertex
  10
0.56700
  20
0.16000
  30
0.00000
  70
32
  0
SEQEND
  5
D0A
  100
AcDbEntity
  8
Layer 1
  62
0
  0
POLYLINE
  5
D0B
  100
AcDbEntity
  8
Layer 1
  62
0
  100
AcDb2dPolyline
 66
     1
  10
0
  20
0
  30
0
  70
1
  0
VERTEX
  5
D0C
  100
AcDbEntity
  8
Layer 1
  62
0
  100
AcDb2dVertex
  10
0.44000
  20
0.20400
  30
0.00000
  42
-0.2179
  70
32
  0
VERTEX
  5
D0D
  100
AcDbEntity
  8
Layer 1
  62
0
  100
AcDb2dVertex
  10
0.43462
  20
0.19399
  30
0.00000
  42
-0.0880
  70
32
  0
VERTEX
  5
D0E
  100
AcDbEntity
  8
Layer 1
  62
0
  100
AcDb2dVertex
  10
0.41498
  20
0.18330
  30
0.00000
  42
-0.0254
  70
32
  0
VERTEX
  5
D0F
  100
AcDbEntity
  8
Layer 1
  62
0
  100
AcDb2dVertex
  10
0.39500
  20
0.17700
  30
0.00000
  42
-0.0613
  70
32
  0
VERTEX
  5
D10
  100
AcDbEntity
  8
Layer 1
  62
0
  100
AcDb2dVertex
  10
0.33500
  20
0.16900
  30
0.00000
  42
-0.1227
  70
32
  0
VERTEX
  5
D11
  100
AcDbEntity
  8
Layer 1
  62
0
  100
AcDb2dVertex
  10
0.26190
  20
0.18792
  30
0.00000
  42
-0.0352
  70
32
  0
VERTEX
  5
D12
  100
AcDbEntity
  8
Layer 1
  62
0
  100
AcDb2dVertex
  10
0.23600
  20
0.20400
  30
0.00000
  70
32
  0
VERTEX
  5
D13
  100
AcDbEntity
  8
Layer 1
  62
0
  100
AcDb2dVertex
  10
0.21273
  20
0.22195
  30
0.00000
  70
32
  0
VERTEX
  5
D14
  100
AcDbEntity
  8
Layer 1
  62
0
  100
AcDb2dVertex
  10
0.19524
  20
0.23549
  30
0.00000
  70
32
  0
VERTEX
  5
D15
  100
AcDbEntity
  8
Layer 1
  62
0
  100
AcDb2dVertex
  10
0.19106
  20
0.23887
  30
0.00000
  70
32
  0
VERTEX
  5
D16
  100
AcDbEntity
  8
Layer 1
  62
0
  100
AcDb2dVertex
  10
0.19000
  20
0.24000
  30
0.00000
  42
0.2247
  70
32
  0
VERTEX
  5
D17
  100
AcDbEntity
  8
Layer 1
  62
0
  100
AcDb2dVertex
  10
0.18032
  20
0.23458
  30
0.00000
  42
0.1005
  70
32
  0
VERTEX
  5
D18
  100
AcDbEntity
  8
Layer 1
  62
0
  100
AcDb2dVertex
  10
0.17100
  20
0.21500
  30
0.00000
  42
-0.0863
  70
32
  0
VERTEX
  5
D19
  100
AcDbEntity
  8
Layer 1
  62
0
  100
AcDb2dVertex
  10
0.16162
  20
0.19478
  30
0.00000
  42
-0.2168
  70
32
  0
VERTEX
  5
D1A
  100
AcDbEntity
  8
Layer 1
  62
0
  100
AcDb2dVertex
  10
0.15426
  20
0.19001
  30
0.00000
  70
32
  0
VERTEX
  5
D1B
  100
AcDbEntity
  8
Layer 1
  62
0
  100
AcDb2dVertex
  10
0.15400
  20
0.19000
  30
0.00000
  42
-0.1387
  70
32
  0
VERTEX
  5
D1C
  100
AcDbEntity
  8
Layer 1
  62
0
  100
AcDb2dVertex
  10
0.14008
  20
0.19508
  30
0.00000
  42
-0.0537
  70
32
  0
VERTEX
  5
D1D
  100
AcDbEntity
  8
Layer 1
  62
0
  100
AcDb2dVertex
  10
0.12000
  20
0.21200
  30
0.00000
  42
-0.0706
  70
32
  0
VERTEX
  5
D1E
  100
AcDbEntity
  8
Layer 1
  62
0
  100
AcDb2dVertex
  10
0.10192
  20
0.23455
  30
0.00000
  42
-0.1190
  70
32
  0
VERTEX
  5
D1F
  100
AcDbEntity
  8
Layer 1
  62
0
  100
AcDb2dVertex
  10
0.09900
  20
0.24400
  30
0.00000
  42
-0.2047
  70
32
  0
VERTEX
  5
D20
  100
AcDbEntity
  8
Layer 1
  62
0
  100
AcDb2dVertex
  10
0.10345
  20
0.25689
  30
0.00000
  42
-0.1246
  70
32
  0
VERTEX
  5
D21
  100
AcDbEntity
  8
Layer 1
  62
0
  100
AcDb2dVertex
  10
0.10900
  20
0.26000
  30
0.00000
  42
0.0881
  70
32
  0
VERTEX
  5
D22
  100
AcDbEntity
  8
Layer 1
  62
0
  100
AcDb2dVertex
  10
0.13390
  20
0.26246
  30
0.00000
  42
0.2071
  70
32
  0
VERTEX
  5
D23
  100
AcDbEntity
  8
Layer 1
  62
0
  100
AcDb2dVertex
  10
0.14542
  20
0.27149
  30
0.00000
  42
0.1137
  70
32
  0
VERTEX
  5
D24
  100
AcDbEntity
  8
Layer 1
  62
0
  100
AcDb2dVertex
  10
0.14700
  20
0.27900
  30
0.00000
  70
32
  0
VERTEX
  5
D25
  100
AcDbEntity
  8
Layer 1
  62
0
  100
AcDb2dVertex
  10
0.11700
  20
0.32400
  30
0.00000
  42
-0.0965
  70
32
  0
VERTEX
  5
D26
  100
AcDbEntity
  8
Layer 1
  62
0
  100
AcDb2dVertex
  10
0.08989
  20
0.38877
  30
0.00000
  42
-0.0482
  70
32
  0
VERTEX
  5
D27
  100
AcDbEntity
  8
Layer 1
  62
0
  100
AcDb2dVertex
  10
0.08700
  20
0.41900
  30
0.00000
  42
-0.0572
  70
32
  0
VERTEX
  5
D28
  100
AcDbEntity
  8
Layer 1
  62
0
  100
AcDb2dVertex
  10
0.09344
  20
0.46342
  30
0.00000
  42
-0.0127
  70
32
  0
VERTEX
  5
D29
  100
AcDbEntity
  8
Layer 1
  62
0
  100
AcDb2dVertex
  10
0.09900
  20
0.48400
  30
0.00000
  42
-0.0594
  70
32
  0
VERTEX
  5
D2A
  100
AcDbEntity
  8
Layer 1
  62
0
  100
AcDb2dVertex
  10
0.11188
  20
0.51754
  30
0.00000
  42
-0.1316
  70
32
  0
VERTEX
  5
D2B
  100
AcDbEntity
  8
Layer 1
  62
0
  100
AcDb2dVertex
  10
0.12309
  20
0.53011
  30
0.00000
  42
-0.1313
  70
32
  0
VERTEX
  5
D2C
  100
AcDbEntity
  8
Layer 1
  62
0
  100
AcDb2dVertex
  10
0.13000
  20
0.53200
  30
0.00000
  42
-0.2803
  70
32
  0
VERTEX
  5
D2D
  100
AcDbEntity
  8
Layer 1
  62
0
  100
AcDb2dVertex
  10
0.13759
  20
0.52850
  30
0.00000
  42
-0.1341
  70
32
  0
VERTEX
  5
D2E
  100
AcDbEntity
  8
Layer 1
  62
0
  100
AcDb2dVertex
  10
0.13900
  20
0.52200
  30
0.00000
  42
-0.0459
  70
32
  0
VERTEX
  5
D2F
  100
AcDbEntity
  8
Layer 1
  62
0
  100
AcDb2dVertex
  10
0.13452
  20
0.50824
  30
0.00000
  70
32
  0
VERTEX
  5
D30
  100
AcDbEntity
  8
Layer 1
  62
0
  100
AcDb2dVertex
  10
0.12700
  20
0.48900
  30
0.00000
  42
0.0682
  70
32
  0
VERTEX
  5
D31
  100
AcDbEntity
  8
Layer 1
  62
0
  100
AcDb2dVertex
  10
0.11540
  20
0.44647
  30
0.00000
  70
32
  0
VERTEX
  5
D32
  100
AcDbEntity
  8
Layer 1
  62
0
  100
AcDb2dVertex
  10
0.11500
  20
0.43900
  30
0.00000
  42
0.1480
  70
32
  0
VERTEX
  5
D33
  100
AcDbEntity
  8
Layer 1
  62
0
  100
AcDb2dVertex
  10
0.14438
  20
0.34213
  30
0.00000
  42
0.0729
  70
32
  0
VERTEX
  5
D34
  100
AcDbEntity
  8
Layer 1
  62
0
  100
AcDb2dVertex
  10
0.19400
  20
0.28700
  30
0.00000
  70
32
  0
VERTEX
  5
D35
  100
AcDbEntity
  8
Layer 1
  62
0
  100
AcDb2dVertex
  10
0.17400
  20
0.26500
  30
0.00000
  70
32
  0
VERTEX
  5
D36
  100
AcDbEntity
  8
Layer 1
  62
0
  100
AcDb2dVertex
  10
0.19400
  20
0.28700
  30
0.00000
  42
0.0449
  70
32
  0
VERTEX
  5
D37
  100
AcDbEntity
  8
Layer 1
  62
0
  100
AcDb2dVertex
  10
0.26105
  20
0.22876
  30
0.00000
  42
0.0688
  70
32
  0
VERTEX
  5
D38
  100
AcDbEntity
  8
Layer 1
  62
0
  100
AcDb2dVertex
  10
0.31340
  20
0.20071
  30
0.00000
  42
0.0841
  70
32
  0
VERTEX
  5
D39
  100
AcDbEntity
  8
Layer 1
  62
0
  100
AcDb2dVertex
  10
0.35000
  20
0.19400
  30
0.00000
  42
0.0962
  70
32
  0
VERTEX
  5
D3A
  100
AcDbEntity
  8
Layer 1
  62
0
  100
AcDb2dVertex
  10
0.38559
  20
0.20174
  30
0.00000
  70
32
  0
VERTEX
  5
D3B
  100
AcDbEntity
  8
Layer 1
  62
0
  100
AcDb2dVertex
  10
0.39100
  20
0.20400
  30
0.00000
  42
-0.0414
  70
32
  0
VERTEX
  5
D3C
  100
AcDbEntity
  8
Layer 1
  62
0
  100
AcDb2dVertex
  10
0.42077
  20
0.21338
  30
0.00000
  42
-0.0435
  70
32
  0
VERTEX
  5
D3D
  100
AcDbEntity
  8
Layer 1
  62
0
  100
AcDb2dVertex
  10
0.42700
  20
0.21400
  30
0.00000
  42
-0.1189
  70
32
  0
VERTEX
  5
D3E
  100
AcDbEntity
  8
Layer 1
  62
0
  100
AcDb2dVertex
  10
0.43810
  20
0.20755
  30
0.00000
  42
-0.1203
  70
32
  0
VERTEX
  5
D3F
  100
AcDbEntity
  8
Layer 1
  62
0
  100
AcDb2dVertex
  10
0.44000
  20
0.20400
  30
0.00000
  70
32
  0
SEQEND
  5
D40
  100
AcDbEntity
  8
Layer 1
  62
0
  0
POLYLINE
  5
D41
  100
AcDbEntity
  8
Layer 1
  62
0
  100
AcDb2dPolyline
 66
     1
  10
0
  20
0
  30
0
  70
1
  0
VERTEX
  5
D42
  100
AcDbEntity
  8
Layer 1
  62
0
  100
AcDb2dVertex
  10
0.44700
  20
0.06000
  30
0.00000
  42
-0.3852
  70
32
  0
VERTEX
  5
D43
  100
AcDbEntity
  8
Layer 1
  62
0
  100
AcDb2dVertex
  10
0.43924
  20
0.05056
  30
0.00000
  42
-0.0596
  70
32
  0
VERTEX
  5
D44
  100
AcDbEntity
  8
Layer 1
  62
0
  100
AcDb2dVertex
  10
0.43400
  20
0.05000
  30
0.00000
  42
0.0952
  70
32
  0
VERTEX
  5
D45
  100
AcDbEntity
  8
Layer 1
  62
0
  100
AcDb2dVertex
  10
0.33187
  20
0.09066
  30
0.00000
  42
0.0455
  70
32
  0
VERTEX
  5
D46
  100
AcDbEntity
  8
Layer 1
  62
0
  100
AcDb2dVertex
  10
0.28400
  20
0.09500
  30
0.00000
  42
0.0605
  70
32
  0
VERTEX
  5
D47
  100
AcDbEntity
  8
Layer 1
  62
0
  100
AcDb2dVertex
  10
0.25000
  20
0.08953
  30
0.00000
  70
32
  0
VERTEX
  5
D48
  100
AcDbEntity
  8
Layer 1
  62
0
  100
AcDb2dVertex
  10
0.24800
  20
0.08900
  30
0.00000
  42
-0.0763
  70
32
  0
VERTEX
  5
D49
  100
AcDbEntity
  8
Layer 1
  62
0
  100
AcDb2dVertex
  10
0.21258
  20
0.08200
  30
0.00000
  70
32
  0
VERTEX
  5
D4A
  100
AcDbEntity
  8
Layer 1
  62
0
  100
AcDb2dVertex
  10
0.21200
  20
0.08200
  30
0.00000
  42
-0.1196
  70
32
  0
VERTEX
  5
D4B
  100
AcDbEntity
  8
Layer 1
  62
0
  100
AcDb2dVertex
  10
0.19316
  20
0.08560
  30
0.00000
  42
-0.2741
  70
32
  0
VERTEX
  5
D4C
  100
AcDbEntity
  8
Layer 1
  62
0
  100
AcDb2dVertex
  10
0.18400
  20
0.10000
  30
0.00000
  70
32
  0
VERTEX
  5
D4D
  100
AcDbEntity
  8
Layer 1
  62
0
  100
AcDb2dVertex
  10
0.18200
  20
0.11700
  30
0.00000
  70
32
  0
VERTEX
  5
D4E
  100
AcDbEntity
  8
Layer 1
  62
0
  100
AcDb2dVertex
  10
0.22400
  20
0.11200
  30
0.00000
  70
32
  0
VERTEX
  5
D4F
  100
AcDbEntity
  8
Layer 1
  62
0
  100
AcDb2dVertex
  10
0.18200
  20
0.11700
  30
0.00000
  42
-0.1273
  70
32
  0
VERTEX
  5
D50
  100
AcDbEntity
  8
Layer 1
  62
0
  100
AcDb2dVertex
  10
0.18861
  20
0.13770
  30
0.00000
  42
-0.2579
  70
32
  0
VERTEX
  5
D51
  100
AcDbEntity
  8
Layer 1
  62
0
  100
AcDb2dVertex
  10
0.20700
  20
0.14700
  30
0.00000
  42
-0.1388
  70
32
  0
VERTEX
  5
D52
  100
AcDbEntity
  8
Layer 1
  62
0
  100
AcDb2dVertex
  10
0.23900
  20
0.13900
  30
0.00000
  70
32
  0
VERTEX
  5
D53
  100
AcDbEntity
  8
Layer 1
  62
0
  100
AcDb2dVertex
  10
0.24083
  20
0.13787
  30
0.00000
  70
32
  0
VERTEX
  5
D54
  100
AcDbEntity
  8
Layer 1
  62
0
  100
AcDb2dVertex
  10
0.25546
  20
0.12904
  30
0.00000
  42
0.0594
  70
32
  0
VERTEX
  5
D55
  100
AcDbEntity
  8
Layer 1
  62
0
  100
AcDb2dVertex
  10
0.26400
  20
0.12500
  30
0.00000
  42
-0.0140
  70
32
  0
VERTEX
  5
D56
  100
AcDbEntity
  8
Layer 1
  62
0
  100
AcDb2dVertex
  10
0.36900
  20
0.11000
  30
0.00000
  42
-0.0595
  70
32
  0
VERTEX
  5
D57
  100
AcDbEntity
  8
Layer 1
  62
0
  100
AcDb2dVertex
  10
0.41479
  20
0.09826
  30
0.00000
  42
-0.1111
  70
32
  0
VERTEX
  5
D58
  100
AcDbEntity
  8
Layer 1
  62
0
  100
AcDb2dVertex
  10
0.43824
  20
0.08284
  30
0.00000
  42
-0.1910
  70
32
  0
VERTEX
  5
D59
  100
AcDbEntity
  8
Layer 1
  62
0
  100
AcDb2dVertex
  10
0.44700
  20
0.06000
  30
0.00000
  70
32
  0
SEQEND
  5
D5A
  100
AcDbEntity
  8
Layer 1
  62
0
  0
POLYLINE
  5
D5B
  100
AcDbEntity
  8
Layer 1
  62
0
  100
AcDb2dPolyline
 66
     1
  10
0
  20
0
  30
0
  70
1
  0
VERTEX
  5
D5C
  100
AcDbEntity
  8
Layer 1
  62
0
  100
AcDb2dVertex
  10
0.27200
  20
0.01900
  30
0.00000
  42
-0.2767
  70
32
  0
VERTEX
  5
D5D
  100
AcDbEntity
  8
Layer 1
  62
0
  100
AcDb2dVertex
  10
0.26691
  20
0.01136
  30
0.00000
  42
-0.0977
  70
32
  0
VERTEX
  5
D5E
  100
AcDbEntity
  8
Layer 1
  62
0
  100
AcDb2dVertex
  10
0.24947
  20
0.00635
  30
0.00000
  42
-0.0327
  70
32
  0
VERTEX
  5
D5F
  100
AcDbEntity
  8
Layer 1
  62
0
  100
AcDb2dVertex
  10
0.22500
  20
0.00500
  30
0.00000
  42
-0.1805
  70
32
  0
VERTEX
  5
D60
  100
AcDbEntity
  8
Layer 1
  62
0
  100
AcDb2dVertex
  10
0.15730
  20
0.03038
  30
0.00000
  42
-0.0216
  70
32
  0
VERTEX
  5
D61
  100
AcDbEntity
  8
Layer 1
  62
0
  100
AcDb2dVertex
  10
0.14900
  20
0.03800
  30
0.00000
  70
32
  0
VERTEX
  5
D62
  100
AcDbEntity
  8
Layer 1
  62
0
  100
AcDb2dVertex
  10
0.14747
  20
0.03940
  30
0.00000
  70
32
  0
VERTEX
  5
D63
  100
AcDbEntity
  8
Layer 1
  62
0
  100
AcDb2dVertex
  10
0.12222
  20
0.06223
  30
0.00000
  70
32
  0
VERTEX
  5
D64
  100
AcDbEntity
  8
Layer 1
  62
0
  100
AcDb2dVertex
  10
0.11527
  20
0.06804
  30
0.00000
  42
0.1095
  70
32
  0
VERTEX
  5
D65
  100
AcDbEntity
  8
Layer 1
  62
0
  100
AcDb2dVertex
  10
0.11200
  20
0.07000
  30
0.00000
  42
0.1810
  70
32
  0
VERTEX
  5
D66
  100
AcDbEntity
  8
Layer 1
  62
0
  100
AcDb2dVertex
  10
0.10533
  20
0.06621
  30
0.00000
  42
0.0749
  70
32
  0
VERTEX
  5
D67
  100
AcDbEntity
  8
Layer 1
  62
0
  100
AcDb2dVertex
  10
0.09126
  20
0.04552
  30
0.00000
  70
32
  0
VERTEX
  5
D68
  100
AcDbEntity
  8
Layer 1
  62
0
  100
AcDb2dVertex
  10
0.08800
  20
0.03900
  30
0.00000
  42
-0.0555
  70
32
  0
VERTEX
  5
D69
  100
AcDbEntity
  8
Layer 1
  62
0
  100
AcDb2dVertex
  10
0.07286
  20
0.01397
  30
0.00000
  42
-0.1534
  70
32
  0
VERTEX
  5
D6A
  100
AcDbEntity
  8
Layer 1
  62
0
  100
AcDb2dVertex
  10
0.06387
  20
0.00723
  30
0.00000
  70
32
  0
VERTEX
  5
D6B
  100
AcDbEntity
  8
Layer 1
  62
0
  100
AcDb2dVertex
  10
0.06200
  20
0.00700
  30
0.00000
  42
-0.1484
  70
32
  0
VERTEX
  5
D6C
  100
AcDbEntity
  8
Layer 1
  62
0
  100
AcDb2dVertex
  10
0.05073
  20
0.01159
  30
0.00000
  42
-0.0624
  70
32
  0
VERTEX
  5
D6D
  100
AcDbEntity
  8
Layer 1
  62
0
  100
AcDb2dVertex
  10
0.02905
  20
0.03297
  30
0.00000
  42
-0.0225
  70
32
  0
VERTEX
  5
D6E
  100
AcDbEntity
  8
Layer 1
  62
0
  100
AcDb2dVertex
  10
0.00500
  20
0.06500
  30
0.00000
  42
-0.2088
  70
32
  0
VERTEX
  5
D6F
  100
AcDbEntity
  8
Layer 1
  62
0
  100
AcDb2dVertex
  10
0.01003
  20
0.07442
  30
0.00000
  42
-0.0830
  70
32
  0
VERTEX
  5
D70
  100
AcDbEntity
  8
Layer 1
  62
0
  100
AcDb2dVertex
  10
0.02988
  20
0.08612
  30
0.00000
  70
32
  0
VERTEX
  5
D71
  100
AcDbEntity
  8
Layer 1
  62
0
  100
AcDb2dVertex
  10
0.03700
  20
0.08900
  30
0.00000
  42
0.0657
  70
32
  0
VERTEX
  5
D72
  100
AcDbEntity
  8
Layer 1
  62
0
  100
AcDb2dVertex
  10
0.06237
  20
0.10036
  30
0.00000
  42
0.1656
  70
32
  0
VERTEX
  5
D73
  100
AcDbEntity
  8
Layer 1
  62
0
  100
AcDb2dVertex
  10
0.06879
  20
0.10754
  30
0.00000
  70
32
  0
VERTEX
  5
D74
  100
AcDbEntity
  8
Layer 1
  62
0
  100
AcDb2dVertex
  10
0.06900
  20
0.10900
  30
0.00000
  42
-0.0680
  70
32
  0
VERTEX
  5
D75
  100
AcDbEntity
  8
Layer 1
  62
0
  100
AcDb2dVertex
  10
0.03570
  20
0.17515
  30
0.00000
  42
-0.0795
  70
32
  0
VERTEX
  5
D76
  100
AcDbEntity
  8
Layer 1
  62
0
  100
AcDb2dVertex
  10
0.02700
  20
0.22700
  30
0.00000
  42
-0.0671
  70
32
  0
VERTEX
  5
D77
  100
AcDbEntity
  8
Layer 1
  62
0
  100
AcDb2dVertex
  10
0.03039
  20
0.25909
  30
0.00000
  42
-0.1453
  70
32
  0
VERTEX
  5
D78
  100
AcDbEntity
  8
Layer 1
  62
0
  100
AcDb2dVertex
  10
0.03725
  20
0.27150
  30
0.00000
  42
-0.1818
  70
32
  0
VERTEX
  5
D79
  100
AcDbEntity
  8
Layer 1
  62
0
  100
AcDb2dVertex
  10
0.04400
  20
0.27400
  30
0.00000
  42
-0.2522
  70
32
  0
VERTEX
  5
D7A
  100
AcDbEntity
  8
Layer 1
  62
0
  100
AcDb2dVertex
  10
0.04843
  20
0.27057
  30
0.00000
  42
-0.0821
  70
32
  0
VERTEX
  5
D7B
  100
AcDbEntity
  8
Layer 1
  62
0
  100
AcDb2dVertex
  10
0.05449
  20
0.25249
  30
0.00000
  42
-0.0199
  70
32
  0
VERTEX
  5
D7C
  100
AcDbEntity
  8
Layer 1
  62
0
  100
AcDb2dVertex
  10
0.05700
  20
0.23700
  30
0.00000
  42
0.0160
  70
32
  0
VERTEX
  5
D7D
  100
AcDbEntity
  8
Layer 1
  62
0
  100
AcDb2dVertex
  10
0.06140
  20
0.19480
  30
0.00000
  70
32
  0
VERTEX
  5
D7E
  100
AcDbEntity
  8
Layer 1
  62
0
  100
AcDb2dVertex
  10
0.06200
  20
0.19000
  30
0.00000
  42
0.0654
  70
32
  0
VERTEX
  5
D7F
  100
AcDbEntity
  8
Layer 1
  62
0
  100
AcDb2dVertex
  10
0.08372
  20
0.13646
  30
0.00000
  42
0.1059
  70
32
  0
VERTEX
  5
D80
  100
AcDbEntity
  8
Layer 1
  62
0
  100
AcDb2dVertex
  10
0.11060
  20
0.10596
  30
0.00000
  70
32
  0
VERTEX
  5
D81
  100
AcDbEntity
  8
Layer 1
  62
0
  100
AcDb2dVertex
  10
0.11200
  20
0.10500
  30
0.00000
  70
32
  0
VERTEX
  5
D82
  100
AcDbEntity
  8
Layer 1
  62
0
  100
AcDb2dVertex
  10
0.08900
  20
0.08500
  30
0.00000
  70
32
  0
VERTEX
  5
D83
  100
AcDbEntity
  8
Layer 1
  62
0
  100
AcDb2dVertex
  10
0.11200
  20
0.10500
  30
0.00000
  42
-0.0091
  70
32
  0
VERTEX
  5
D84
  100
AcDbEntity
  8
Layer 1
  62
0
  100
AcDb2dVertex
  10
0.15200
  20
0.06400
  30
0.00000
  42
0.1531
  70
32
  0
VERTEX
  5
D85
  100
AcDbEntity
  8
Layer 1
  62
0
  100
AcDb2dVertex
  10
0.23895
  20
0.03057
  30
0.00000
  42
0.0192
  70
32
  0
VERTEX
  5
D86
  100
AcDbEntity
  8
Layer 1
  62
0
  100
AcDb2dVertex
  10
0.25400
  20
0.03000
  30
0.00000
  42
-0.1403
  70
32
  0
VERTEX
  5
D87
  100
AcDbEntity
  8
Layer 1
  62
0
  100
AcDb2dVertex
  10
0.26767
  20
0.02701
  30
0.00000
  42
-0.2700
  70
32
  0
VERTEX
  5
D88
  100
AcDbEntity
  8
Layer 1
  62
0
  100
AcDb2dVertex
  10
0.27200
  20
0.01900
  30
0.00000
  70
32
  0
SEQEND
  5
D89
  100
AcDbEntity
  8
Layer 1
  62
0
  0
POLYLINE
  5
D8A
  100
AcDbEntity
  8
Layer 1
  62
0
  100
AcDb2dPolyline
 66
     1
  10
0
  20
0
  30
0
  70
1
  0
VERTEX
  5
D8B
  100
AcDbEntity
  8
Layer 1
  62
0
  100
AcDb2dVertex
  10
0.92100
  20
1.11000
  30
0.00000
  42
0.1755
  70
32
  0
VERTEX
  5
D8C
  100
AcDbEntity
  8
Layer 1
  62
0
  100
AcDb2dVertex
  10
0.91783
  20
1.12145
  30
0.00000
  42
0.2295
  70
32
  0
VERTEX
  5
D8D
  100
AcDbEntity
  8
Layer 1
  62
0
  100
AcDb2dVertex
  10
0.90900
  20
1.12500
  30
0.00000
  42
0.0195
  70
32
  0
VERTEX
  5
D8E
  100
AcDbEntity
  8
Layer 1
  62
0
  100
AcDb2dVertex
  10
0.88000
  20
1.12400
  30
0.00000
  70
32
  0
VERTEX
  5
D8F
  100
AcDbEntity
  8
Layer 1
  62
0
  100
AcDb2dVertex
  10
0.86801
  20
1.12309
  30
0.00000
  42
-0.0166
  70
32
  0
VERTEX
  5
D90
  100
AcDbEntity
  8
Layer 1
  62
0
  100
AcDb2dVertex
  10
0.85000
  20
1.12200
  30
0.00000
  42
0.2788
  70
32
  0
VERTEX
  5
D91
  100
AcDbEntity
  8
Layer 1
  62
0
  100
AcDb2dVertex
  10
0.83863
  20
1.11487
  30
0.00000
  42
0.0550
  70
32
  0
VERTEX
  5
D92
  100
AcDbEntity
  8
Layer 1
  62
0
  100
AcDb2dVertex
  10
0.83600
  20
1.10900
  30
0.00000
  42
0.2210
  70
32
  0
VERTEX
  5
D93
  100
AcDbEntity
  8
Layer 1
  62
0
  100
AcDb2dVertex
  10
0.84230
  20
1.09662
  30
0.00000
  42
0.0588
  70
32
  0
VERTEX
  5
D94
  100
AcDbEntity
  8
Layer 1
  62
0
  100
AcDb2dVertex
  10
0.85200
  20
1.09000
  30
0.00000
  42
-0.1096
  70
32
  0
VERTEX
  5
D95
  100
AcDbEntity
  8
Layer 1
  62
0
  100
AcDb2dVertex
  10
0.86860
  20
1.07863
  30
0.00000
  42
-0.1194
  70
32
  0
VERTEX
  5
D96
  100
AcDbEntity
  8
Layer 1
  62
0
  100
AcDb2dVertex
  10
0.87100
  20
1.07400
  30
0.00000
  42
0.1320
  70
32
  0
VERTEX
  5
D97
  100
AcDbEntity
  8
Layer 1
  62
0
  100
AcDb2dVertex
  10
0.88170
  20
1.05904
  30
0.00000
  70
32
  0
VERTEX
  5
D98
  100
AcDbEntity
  8
Layer 1
  62
0
  100
AcDb2dVertex
  10
0.88400
  20
1.05700
  30
0.00000
  70
32
  0
VERTEX
  5
D99
  100
AcDbEntity
  8
Layer 1
  62
0
  100
AcDb2dVertex
  10
0.89700
  20
1.06400
  30
0.00000
  70
32
  0
VERTEX
  5
D9A
  100
AcDbEntity
  8
Layer 1
  62
0
  100
AcDb2dVertex
  10
0.92100
  20
1.11000
  30
0.00000
  70
32
  0
SEQEND
  5
D9B
  100
AcDbEntity
  8
Layer 1
  62
0
  0
POLYLINE
  5
D9C
  100
AcDbEntity
  8
Layer 1
  62
0
  100
AcDb2dPolyline
 66
     1
  10
0
  20
0
  30
0
  70
1
  0
VERTEX
  5
D9D
  100
AcDbEntity
  8
Layer 1
  62
0
  100
AcDb2dVertex
  10
0.85600
  20
1.01700
  30
0.00000
  42
0.2002
  70
32
  0
VERTEX
  5
D9E
  100
AcDbEntity
  8
Layer 1
  62
0
  100
AcDb2dVertex
  10
0.84135
  20
1.03297
  30
0.00000
  42
0.0506
  70
32
  0
VERTEX
  5
D9F
  100
AcDbEntity
  8
Layer 1
  62
0
  100
AcDb2dVertex
  10
0.83100
  20
1.03700
  30
0.00000
  42
-0.0470
  70
32
  0
VERTEX
  5
DA0
  100
AcDbEntity
  8
Layer 1
  62
0
  100
AcDb2dVertex
  10
0.80005
  20
1.04537
  30
0.00000
  42
-0.0890
  70
32
  0
VERTEX
  5
DA1
  100
AcDbEntity
  8
Layer 1
  62
0
  100
AcDb2dVertex
  10
0.79400
  20
1.04900
  30
0.00000
  70
32
  0
VERTEX
  5
DA2
  100
AcDbEntity
  8
Layer 1
  62
0
  100
AcDb2dVertex
  10
0.78200
  20
1.03700
  30
0.00000
  42
0.1499
  70
32
  0
VERTEX
  5
DA3
  100
AcDbEntity
  8
Layer 1
  62
0
  100
AcDb2dVertex
  10
0.78653
  20
1.02786
  30
0.00000
  70
32
  0
VERTEX
  5
DA4
  100
AcDbEntity
  8
Layer 1
  62
0
  100
AcDb2dVertex
  10
0.79000
  20
1.02400
  30
0.00000
  42
-0.0757
  70
32
  0
VERTEX
  5
DA5
  100
AcDbEntity
  8
Layer 1
  62
0
  100
AcDb2dVertex
  10
0.79845
  20
1.01172
  30
0.00000
  70
32
  0
VERTEX
  5
DA6
  100
AcDbEntity
  8
Layer 1
  62
0
  100
AcDb2dVertex
  10
0.79900
  20
1.01000
  30
0.00000
  70
32
  0
VERTEX
  5
DA7
  100
AcDbEntity
  8
Layer 1
  62
0
  100
AcDb2dVertex
  10
0.79900
  20
0.98500
  30
0.00000
  42
0.1945
  70
32
  0
VERTEX
  5
DA8
  100
AcDbEntity
  8
Layer 1
  62
0
  100
AcDb2dVertex
  10
0.80414
  20
0.97316
  30
0.00000
  42
0.1834
  70
32
  0
VERTEX
  5
DA9
  100
AcDbEntity
  8
Layer 1
  62
0
  100
AcDb2dVertex
  10
0.81400
  20
0.97000
  30
0.00000
  42
0.0769
  70
32
  0
VERTEX
  5
DAA
  100
AcDbEntity
  8
Layer 1
  62
0
  100
AcDb2dVertex
  10
0.81978
  20
0.97488
  30
0.00000
  70
32
  0
VERTEX
  5
DAB
  100
AcDbEntity
  8
Layer 1
  62
0
  100
AcDb2dVertex
  10
0.83100
  20
0.98600
  30
0.00000
  42
-0.0385
  70
32
  0
VERTEX
  5
DAC
  100
AcDbEntity
  8
Layer 1
  62
0
  100
AcDb2dVertex
  10
0.85200
  20
1.00500
  30
0.00000
  70
32
  0
VERTEX
  5
DAD
  100
AcDbEntity
  8
Layer 1
  62
0
  100
AcDb2dVertex
  10
0.85600
  20
1.01700
  30
0.00000
  70
32
  0
SEQEND
  5
DAE
  100
AcDbEntity
  8
Layer 1
  62
0
  0
POLYLINE
  5
DAF
  100
AcDbEntity
  8
Layer 1
  62
0
  100
AcDb2dPolyline
 66
     1
  10
0
  20
0
  30
0
  70
1
  0
VERTEX
  5
DB0
  100
AcDbEntity
  8
Layer 1
  62
0
  100
AcDb2dVertex
  10
0.81700
  20
0.35700
  30
0.00000
  42
0.1259
  70
32
  0
VERTEX
  5
DB1
  100
AcDbEntity
  8
Layer 1
  62
0
  100
AcDb2dVertex
  10
0.81271
  20
0.36770
  30
0.00000
  42
0.0426
  70
32
  0
VERTEX
  5
DB2
  100
AcDbEntity
  8
Layer 1
  62
0
  100
AcDb2dVertex
  10
0.80400
  20
0.37900
  30
0.00000
  70
32
  0
VERTEX
  5
DB3
  100
AcDbEntity
  8
Layer 1
  62
0
  100
AcDb2dVertex
  10
0.79287
  20
0.39175
  30
0.00000
  42
-0.0501
  70
32
  0
VERTEX
  5
DB4
  100
AcDbEntity
  8
Layer 1
  62
0
  100
AcDb2dVertex
  10
0.78700
  20
0.40000
  30
0.00000
  42
0.0191
  70
32
  0
VERTEX
  5
DB5
  100
AcDbEntity
  8
Layer 1
  62
0
  100
AcDb2dVertex
  10
0.78286
  20
0.42889
  30
0.00000
  70
32
  0
VERTEX
  5
DB6
  100
AcDbEntity
  8
Layer 1
  62
0
  100
AcDb2dVertex
  10
0.78200
  20
0.43400
  30
0.00000
  42
0.0927
  70
32
  0
VERTEX
  5
DB7
  100
AcDbEntity
  8
Layer 1
  62
0
  100
AcDb2dVertex
  10
0.77544
  20
0.45341
  30
0.00000
  42
0.2452
  70
32
  0
VERTEX
  5
DB8
  100
AcDbEntity
  8
Layer 1
  62
0
  100
AcDb2dVertex
  10
0.76747
  20
0.45899
  30
0.00000
  70
32
  0
VERTEX
  5
DB9
  100
AcDbEntity
  8
Layer 1
  62
0
  100
AcDb2dVertex
  10
0.76700
  20
0.45900
  30
0.00000
  42
0.1567
  70
32
  0
VERTEX
  5
DBA
  100
AcDbEntity
  8
Layer 1
  62
0
  100
AcDb2dVertex
  10
0.75638
  20
0.45441
  30
0.00000
  42
0.0637
  70
32
  0
VERTEX
  5
DBB
  100
AcDbEntity
  8
Layer 1
  62
0
  100
AcDb2dVertex
  10
0.73631
  20
0.43309
  30
0.00000
  70
32
  0
VERTEX
  5
DBC
  100
AcDbEntity
  8
Layer 1
  62
0
  100
AcDb2dVertex
  10
0.73100
  20
0.42600
  30
0.00000
  42
0.0473
  70
32
  0
VERTEX
  5
DBD
  100
AcDbEntity
  8
Layer 1
  62
0
  100
AcDb2dVertex
  10
0.71077
  20
0.39360
  30
0.00000
  42
0.1030
  70
32
  0
VERTEX
  5
DBE
  100
AcDbEntity
  8
Layer 1
  62
0
  100
AcDb2dVertex
  10
0.70700
  20
0.38000
  30
0.00000
  42
0.2352
  70
32
  0
VERTEX
  5
DBF
  100
AcDbEntity
  8
Layer 1
  62
0
  100
AcDb2dVertex
  10
0.71168
  20
0.37232
  30
0.00000
  42
0.0855
  70
32
  0
VERTEX
  5
DC0
  100
AcDbEntity
  8
Layer 1
  62
0
  100
AcDb2dVertex
  10
0.73040
  20
0.36376
  30
0.00000
  42
0.0224
  70
32
  0
VERTEX
  5
DC1
  100
AcDbEntity
  8
Layer 1
  62
0
  100
AcDb2dVertex
  10
0.74900
  20
0.35900
  30
0.00000
  70
32
  0
VERTEX
  5
DC2
  100
AcDbEntity
  8
Layer 1
  62
0
  100
AcDb2dVertex
  10
0.80700
  20
0.34700
  30
0.00000
  42
0.2013
  70
32
  0
VERTEX
  5
DC3
  100
AcDbEntity
  8
Layer 1
  62
0
  100
AcDb2dVertex
  10
0.81531
  20
0.35091
  30
0.00000
  42
0.1648
  70
32
  0
VERTEX
  5
DC4
  100
AcDbEntity
  8
Layer 1
  62
0
  100
AcDb2dVertex
  10
0.81700
  20
0.35700
  30
0.00000
  70
32
  0
SEQEND
  5
DC5
  100
AcDbEntity
  8
Layer 1
  62
0
  0
POLYLINE
  5
DC6
  100
AcDbEntity
  8
Layer 1
  62
0
  100
AcDb2dPolyline
 66
     1
  10
0
  20
0
  30
0
  70
1
  0
VERTEX
  5
DC7
  100
AcDbEntity
  8
Layer 1
  62
0
  100
AcDb2dVertex
  10
0.81100
  20
0.27200
  30
0.00000
  70
32
  0
VERTEX
  5
DC8
  100
AcDbEntity
  8
Layer 1
  62
0
  100
AcDb2dVertex
  10
0.80200
  20
0.28400
  30
0.00000
  42
0.0330
  70
32
  0
VERTEX
  5
DC9
  100
AcDbEntity
  8
Layer 1
  62
0
  100
AcDb2dVertex
  10
0.78046
  20
0.27918
  30
0.00000
  70
32
  0
VERTEX
  5
DCA
  100
AcDbEntity
  8
Layer 1
  62
0
  100
AcDb2dVertex
  10
0.77600
  20
0.27800
  30
0.00000
  42
-0.0654
  70
32
  0
VERTEX
  5
DCB
  100
AcDbEntity
  8
Layer 1
  62
0
  100
AcDb2dVertex
  10
0.72800
  20
0.27200
  30
0.00000
  42
0.1691
  70
32
  0
VERTEX
  5
DCC
  100
AcDbEntity
  8
Layer 1
  62
0
  100
AcDb2dVertex
  10
0.71054
  20
0.26697
  30
0.00000
  42
0.2016
  70
32
  0
VERTEX
  5
DCD
  100
AcDbEntity
  8
Layer 1
  62
0
  100
AcDb2dVertex
  10
0.70237
  20
0.25093
  30
0.00000
  70
32
  0
VERTEX
  5
DCE
  100
AcDbEntity
  8
Layer 1
  62
0
  100
AcDb2dVertex
  10
0.70200
  20
0.24500
  30
0.00000
  42
0.0145
  70
32
  0
VERTEX
  5
DCF
  100
AcDbEntity
  8
Layer 1
  62
0
  100
AcDb2dVertex
  10
0.71577
  20
0.21623
  30
0.00000
  70
32
  0
VERTEX
  5
DD0
  100
AcDbEntity
  8
Layer 1
  62
0
  100
AcDb2dVertex
  10
0.71784
  20
0.21201
  30
0.00000
  70
32
  0
VERTEX
  5
DD1
  100
AcDbEntity
  8
Layer 1
  62
0
  100
AcDb2dVertex
  10
0.73400
  20
0.17900
  30
0.00000
  70
32
  0
VERTEX
  5
DD2
  100
AcDbEntity
  8
Layer 1
  62
0
  100
AcDb2dVertex
  10
0.75200
  20
0.16900
  30
0.00000
  42
0.2201
  70
32
  0
VERTEX
  5
DD3
  100
AcDbEntity
  8
Layer 1
  62
0
  100
AcDb2dVertex
  10
0.76481
  20
0.17382
  30
0.00000
  42
0.1619
  70
32
  0
VERTEX
  5
DD4
  100
AcDbEntity
  8
Layer 1
  62
0
  100
AcDb2dVertex
  10
0.76900
  20
0.18500
  30
0.00000
  42
-0.0482
  70
32
  0
VERTEX
  5
DD5
  100
AcDbEntity
  8
Layer 1
  62
0
  100
AcDb2dVertex
  10
0.77900
  20
0.23200
  30
0.00000
  42
0.0758
  70
32
  0
VERTEX
  5
DD6
  100
AcDbEntity
  8
Layer 1
  62
0
  100
AcDb2dVertex
  10
0.81100
  20
0.27200
  30
0.00000
  70
32
  0
SEQEND
  5
DD7
  100
AcDbEntity
  8
Layer 1
  62
0
  0
POLYLINE
  5
DD8
  100
AcDbEntity
  8
Layer 1
  62
0
  100
AcDb2dPolyline
 66
     1
  10
0
  20
0
  30
0
  70
1
  0
VERTEX
  5
DD9
  100
AcDbEntity
  8
Layer 1
  62
0
  100
AcDb2dVertex
  10
0.35200
  20
0.53900
  30
0.00000
  42
0.2423
  70
32
  0
VERTEX
  5
DDA
  100
AcDbEntity
  8
Layer 1
  62
0
  100
AcDb2dVertex
  10
0.34810
  20
0.54493
  30
0.00000
  42
0.0744
  70
32
  0
VERTEX
  5
DDB
  100
AcDbEntity
  8
Layer 1
  62
0
  100
AcDb2dVertex
  10
0.33500
  20
0.55100
  30
0.00000
  42
0.0674
  70
32
  0
VERTEX
  5
DDC
  100
AcDbEntity
  8
Layer 1
  62
0
  100
AcDb2dVertex
  10
0.31193
  20
0.55694
  30
0.00000
  70
32
  0
VERTEX
  5
DDD
  100
AcDbEntity
  8
Layer 1
  62
0
  100
AcDb2dVertex
  10
0.31000
  20
0.55700
  30
0.00000
  42
0.0945
  70
32
  0
VERTEX
  5
DDE
  100
AcDbEntity
  8
Layer 1
  62
0
  100
AcDb2dVertex
  10
0.28772
  20
0.55369
  30
0.00000
  42
0.2257
  70
32
  0
VERTEX
  5
DDF
  100
AcDbEntity
  8
Layer 1
  62
0
  100
AcDb2dVertex
  10
0.27918
  20
0.54564
  30
0.00000
  70
32
  0
VERTEX
  5
DE0
  100
AcDbEntity
  8
Layer 1
  62
0
  100
AcDb2dVertex
  10
0.27900
  20
0.54500
  30
0.00000
  42
0.0285
  70
32
  0
VERTEX
  5
DE1
  100
AcDbEntity
  8
Layer 1
  62
0
  100
AcDb2dVertex
  10
0.31708
  20
0.52261
  30
0.00000
  42
0.0921
  70
32
  0
VERTEX
  5
DE2
  100
AcDbEntity
  8
Layer 1
  62
0
  100
AcDb2dVertex
  10
0.32500
  20
0.52000
  30
0.00000
  42
0.1337
  70
32
  0
VERTEX
  5
DE3
  100
AcDbEntity
  8
Layer 1
  62
0
  100
AcDb2dVertex
  10
0.33503
  20
0.52395
  30
0.00000
  70
32
  0
VERTEX
  5
DE4
  100
AcDbEntity
  8
Layer 1
  62
0
  100
AcDb2dVertex
  10
0.34100
  20
0.52800
  30
0.00000
  42
0.0893
  70
32
  0
VERTEX
  5
DE5
  100
AcDbEntity
  8
Layer 1
  62
0
  100
AcDb2dVertex
  10
0.35087
  20
0.53584
  30
0.00000
  42
0.1593
  70
32
  0
VERTEX
  5
DE6
  100
AcDbEntity
  8
Layer 1
  62
0
  100
AcDb2dVertex
  10
0.35200
  20
0.53900
  30
0.00000
  70
32
  0
SEQEND
  5
DE7
  100
AcDbEntity
  8
Layer 1
  62
0
  0
POLYLINE
  5
DE8
  100
AcDbEntity
  8
Layer 1
  62
0
  100
AcDb2dPolyline
 66
     1
  10
0
  20
0
  30
0
  70
1
  0
VERTEX
  5
DE9
  100
AcDbEntity
  8
Layer 1
  62
0
  100
AcDb2dVertex
  10
0.31400
  20
0.37700
  30
0.00000
  42
0.2576
  70
32
  0
VERTEX
  5
DEA
  100
AcDbEntity
  8
Layer 1
  62
0
  100
AcDb2dVertex
  10
0.30549
  20
0.38501
  30
0.00000
  42
0.0813
  70
32
  0
VERTEX
  5
DEB
  100
AcDbEntity
  8
Layer 1
  62
0
  100
AcDb2dVertex
  10
0.29000
  20
0.38700
  30
0.00000
  42
0.1143
  70
32
  0
VERTEX
  5
DEC
  100
AcDbEntity
  8
Layer 1
  62
0
  100
AcDb2dVertex
  10
0.26400
  20
0.38000
  30
0.00000
  42
0.1016
  70
32
  0
VERTEX
  5
DED
  100
AcDbEntity
  8
Layer 1
  62
0
  100
AcDb2dVertex
  10
0.24806
  20
0.37269
  30
0.00000
  42
0.2300
  70
32
  0
VERTEX
  5
DEE
  100
AcDbEntity
  8
Layer 1
  62
0
  100
AcDb2dVertex
  10
0.24400
  20
0.36500
  30
0.00000
  70
32
  0
VERTEX
  5
DEF
  100
AcDbEntity
  8
Layer 1
  62
0
  100
AcDb2dVertex
  10
0.27000
  20
0.34700
  30
0.00000
  42
0.1316
  70
32
  0
VERTEX
  5
DF0
  100
AcDbEntity
  8
Layer 1
  62
0
  100
AcDb2dVertex
  10
0.28517
  20
0.35229
  30
0.00000
  42
0.0634
  70
32
  0
VERTEX
  5
DF1
  100
AcDbEntity
  8
Layer 1
  62
0
  100
AcDb2dVertex
  10
0.31265
  20
0.37559
  30
0.00000
  70
32
  0
VERTEX
  5
DF2
  100
AcDbEntity
  8
Layer 1
  62
0
  100
AcDb2dVertex
  10
0.31400
  20
0.37700
  30
0.00000
  70
32
  0
SEQEND
  5
DF3
  100
AcDbEntity
  8
Layer 1
  62
0
 0
ENDSEC
 0
EOF
