  0
SECTION
  2
HEADER
  9
$ACADVER
  1
AC1006
  0
ENDSEC
  0
SECTION
  2
TABLES
  0
TABLE
  2
LTYPE
 70
    25
  0
LTYPE
  2
CONTINUOUS
 70
    64
  3
Solid line
 72
    64
 73
     0
 40
0.000000
  0
LTYPE
  2
DASHDOT
 70
    64
  3
__ . __ . __ . __ . __ . __ . __ . __ . __ . __
 72
    65
 73
     4
 40
1.000000
 49
0.500000
 49
-0.250000
 49
0.000000
 49
-0.250000
  0
LTYPE
  2
DASHED
 70
    64
  3
__ __ __ __ __ __ __ __ __ __ __ __ __ __ __ __
 72
    65
 73
     2
 40
0.750000
 49
0.500000
 49
-0.250000
  0
LTYPE
  2
DIVIDE
 70
    64
  3
____ . . ____ . . ____ . . ____ . . ____ . . __
 72
    65
 73
     6
 40
1.250000
 49
0.500000
 49
-0.250000
 49
0.000000
 49
-0.250000
 49
0.000000
 49
-0.250000
  0
LTYPE
  2
DOT
 70
    64
  3
. . . . . . . . . . . . . . . . . . . . . . . . 
 72
    65
 73
     2
 40
0.250000
 49
0.000000
 49
-0.250000
  0
ENDTAB
  0
ENDSEC
  0
SECTION
  2
ENTITIES
  0
ARC
  8
Default
 62
     5
  6
CONTINUOUS
 10
4.813956
 20
7.515144
 30
0.000000
 40
4.167821
 50
95.528909
 51
103.559070
  0
ARC
  8
Default
 62
     5
  6
CONTINUOUS
 10
4.694839
 20
6.744481
 30
0.000000
 40
4.898060
 50
100.088862
 51
107.480926
  0
ARC
  8
Default
 62
     5
  6
CONTINUOUS
 10
3.559556
 20
10.230738
 30
0.000000
 40
1.232298
 50
105.824477
 51
117.460153
  0
ARC
  8
Default
 62
     5
  6
CONTINUOUS
 10
3.043763
 20
11.185281
 30
0.000000
 40
0.148489
 50
110.688095
 51
145.037550
  0
ARC
  8
Default
 62
     5
  6
CONTINUOUS
 10
2.974127
 20
11.227099
 30
0.000000
 40
0.067692
 50
140.263936
 51
162.078882
  0
LINE
  8
Default
 62
     5
  6
CONTINUOUS
 10
2.909719
 20
11.247928
 30
0.000000
 11
2.756984
 21
11.232763
 31
0.000000
  0
ARC
  8
Default
 62
     5
  6
CONTINUOUS
 10
2.761430
 20
11.187983
 30
0.000000
 40
0.045000
 50
95.670482
 51
102.949184
  0
ARC
  8
Default
 62
     5
  6
CONTINUOUS
 10
3.380879
 20
8.493959
 30
0.000000
 40
2.809323
 50
102.949184
 51
111.653473
  0
ARC
  8
Default
 62
     5
  6
CONTINUOUS
 10
3.984934
 20
6.972439
 30
0.000000
 40
4.446365
 50
111.653473
 51
118.662691
  0
ARC
  8
Default
 62
     5
  6
CONTINUOUS
 10
1.873810
 20
10.834455
 30
0.000000
 40
0.045000
 50
118.662691
 51
133.366183
  0
LINE
  8
Default
 62
     5
  6
CONTINUOUS
 10
1.842910
 20
10.867169
 30
0.000000
 11
1.692180
 21
10.724799
 31
0.000000
  0
LINE
  8
Default
 62
     5
  6
CONTINUOUS
 10
1.692180
 20
10.724799
 30
0.000000
 11
1.599395
 21
10.657885
 31
0.000000
  0
ARC
  8
Default
 62
     5
  6
CONTINUOUS
 10
1.790626
 20
10.204177
 30
0.000000
 40
0.492362
 50
112.854686
 51
128.950996
  0
ARC
  8
Default
 62
     5
  6
CONTINUOUS
 10
-0.204370
 20
13.138423
 30
0.000000
 40
3.057803
 50
295.851328
 51
303.449564
  0
ARC
  8
Default
 62
     5
  6
CONTINUOUS
 10
1.148569
 20
10.346121
 30
0.000000
 40
0.045000
 50
115.851328
 51
120.196127
  0
LINE
  8
Default
 62
     5
  6
CONTINUOUS
 10
1.125936
 20
10.385015
 30
0.000000
 11
0.808438
 21
10.200256
 31
0.000000
  0
ARC
  8
Default
 62
     5
  6
CONTINUOUS
 10
2.606762
 20
7.109947
 30
0.000000
 40
3.575469
 50
120.196127
 51
127.469236
  0
ARC
  8
Default
 62
     5
  6
CONTINUOUS
 10
1.131056
 20
8.962763
 30
0.000000
 40
1.208008
 50
125.376881
 51
136.574415
  0
LINE
  8
Default
 62
     5
  6
CONTINUOUS
 10
0.253719
 20
9.793161
 30
0.000000
 11
0.178821
 21
9.719061
 31
0.000000
  0
ARC
  8
Default
 62
     5
  6
CONTINUOUS
 10
0.283640
 20
9.586008
 30
0.000000
 40
0.169382
 50
128.231060
 51
172.508817
  0
ARC
  8
Default
 62
     5
  6
CONTINUOUS
 10
0.160320
 20
9.602224
 30
0.000000
 40
0.045000
 50
172.508817
 51
175.835041
  0
ARC
  8
Default
 62
     5
  6
CONTINUOUS
 10
0.217892
 20
9.598032
 30
0.000000
 40
0.102724
 50
175.835041
 51
232.443590
  0
ARC
  8
Default
 62
     5
  6
CONTINUOUS
 10
0.182706
 20
9.552271
 30
0.000000
 40
0.045000
 50
232.443590
 51
245.826925
  0
LINE
  8
Default
 62
     5
  6
CONTINUOUS
 10
0.164279
 20
9.511217
 30
0.000000
 11
0.217362
 21
9.487390
 31
0.000000
  0
ARC
  8
Default
 62
     5
  6
CONTINUOUS
 10
0.235790
 20
9.528444
 30
0.000000
 40
0.045000
 50
245.826925
 51
254.561803
  0
ARC
  8
Default
 62
     5
  6
CONTINUOUS
 10
0.335316
 20
9.888834
 30
0.000000
 40
0.418880
 50
254.561803
 51
268.190613
  0
LINE
  8
Default
 62
     5
  6
CONTINUOUS
 10
0.322090
 20
9.470163
 30
0.000000
 11
0.278638
 21
9.428490
 31
0.000000
  0
ARC
  8
Default
 62
     5
  6
CONTINUOUS
 10
0.309787
 20
9.396012
 30
0.000000
 40
0.045000
 50
133.803216
 51
148.872674
  0
LINE
  8
Default
 62
     5
  6
CONTINUOUS
 10
0.271266
 20
9.419275
 30
0.000000
 11
0.217893
 21
9.330893
 31
0.000000
  0
ARC
  8
Default
 62
     5
  6
CONTINUOUS
 10
0.300822
 20
9.280813
 30
0.000000
 40
0.096877
 50
148.872674
 51
265.415905
  0
ARC
  8
Default
 62
     5
  6
CONTINUOUS
 10
0.418519
 20
9.809275
 30
0.000000
 40
0.637493
 50
258.651861
 51
282.488487
  0
LINE
  8
Default
 62
     5
  6
CONTINUOUS
 10
0.556372
 20
9.186866
 30
0.000000
 11
0.624766
 21
9.202014
 31
0.000000
  0
LINE
  8
Default
 62
     5
  6
CONTINUOUS
 10
0.624766
 20
9.202014
 30
0.000000
 11
0.493282
 21
9.022463
 31
0.000000
  0
ARC
  8
Default
 62
     5
  6
CONTINUOUS
 10
0.602121
 20
8.942761
 30
0.000000
 40
0.134901
 50
143.784817
 51
190.418296
  0
ARC
  8
Default
 62
     5
  6
CONTINUOUS
 10
0.513702
 20
8.926504
 30
0.000000
 40
0.045000
 50
190.418296
 51
201.209089
  0
ARC
  8
Default
 62
     5
  6
CONTINUOUS
 10
0.553327
 20
8.941880
 30
0.000000
 40
0.087505
 50
201.209089
 51
275.116654
  0
ARC
  8
Default
 62
     5
  6
CONTINUOUS
 10
0.557118
 20
8.899545
 30
0.000000
 40
0.045000
 50
275.116654
 51
278.503345
  0
LINE
  8
Default
 62
     5
  6
CONTINUOUS
 10
0.563772
 20
8.855040
 30
0.000000
 11
0.688332
 21
8.873663
 31
0.000000
  0
ARC
  8
Default
 62
     5
  6
CONTINUOUS
 10
0.681678
 20
8.918168
 30
0.000000
 40
0.045000
 50
278.503345
 51
291.463358
  0
LINE
  8
Default
 62
     5
  6
CONTINUOUS
 10
0.698144
 20
8.876289
 30
0.000000
 11
0.913745
 21
8.961057
 31
0.000000
  0
ARC
  8
Default
 62
     5
  6
CONTINUOUS
 10
0.897279
 20
9.002937
 30
0.000000
 40
0.045000
 50
291.463358
 51
298.156028
  0
LINE
  8
Default
 62
     5
  6
CONTINUOUS
 10
0.918514
 20
8.963262
 30
0.000000
 11
1.026462
 21
9.021036
 31
0.000000
  0
LINE
  8
Default
 62
     5
  6
CONTINUOUS
 10
1.026462
 20
9.021036
 30
0.000000
 11
1.039962
 21
9.026751
 31
0.000000
  0
LINE
  8
Default
 62
     5
  6
CONTINUOUS
 10
1.039962
 20
9.026751
 30
0.000000
 11
1.091766
 21
8.998011
 31
0.000000
  0
ARC
  8
Default
 62
     5
  6
CONTINUOUS
 10
1.113597
 20
9.037360
 30
0.000000
 40
0.045000
 50
240.978290
 51
246.475464
  0
ARC
  8
Default
 62
     5
  6
CONTINUOUS
 10
1.259855
 20
9.373335
 30
0.000000
 40
0.411429
 50
246.475464
 51
272.841764
  0
ARC
  8
Default
 62
     5
  6
CONTINUOUS
 10
1.278021
 20
9.007357
 30
0.000000
 40
0.045000
 50
272.841764
 51
274.502312
  0
LINE
  8
Default
 62
     5
  6
CONTINUOUS
 10
1.281554
 20
8.962495
 30
0.000000
 11
1.433683
 21
8.974474
 31
0.000000
  0
ARC
  8
Default
 62
     5
  6
CONTINUOUS
 10
1.430151
 20
9.019336
 30
0.000000
 40
0.045000
 50
274.502312
 51
284.029467
  0
LINE
  8
Default
 62
     5
  6
CONTINUOUS
 10
1.441060
 20
8.975678
 30
0.000000
 11
1.728429
 21
9.047484
 31
0.000000
  0
ARC
  8
Default
 62
     5
  6
CONTINUOUS
 10
1.717520
 20
9.091142
 30
0.000000
 40
0.045000
 50
284.029467
 51
289.259818
  0
LINE
  8
Default
 62
     5
  6
CONTINUOUS
 10
1.732363
 20
9.048660
 30
0.000000
 11
1.851913
 21
9.090432
 31
0.000000
  0
ARC
  8
Default
 62
     5
  6
CONTINUOUS
 10
1.837069
 20
9.132913
 30
0.000000
 40
0.045000
 50
289.259818
 51
295.854822
  0
LINE
  8
Default
 62
     5
  6
CONTINUOUS
 10
1.856694
 20
9.092418
 30
0.000000
 11
1.892315
 21
9.109680
 31
0.000000
  0
LINE
  8
Default
 62
     5
  6
CONTINUOUS
 10
1.892315
 20
9.109680
 30
0.000000
 11
1.907527
 21
9.091856
 31
0.000000
  0
ARC
  8
Default
 62
     5
  6
CONTINUOUS
 10
1.941756
 20
9.121069
 30
0.000000
 40
0.045000
 50
220.479771
 51
242.441339
  0
ARC
  8
Default
 62
     5
  6
CONTINUOUS
 10
2.122651
 20
9.467698
 30
0.000000
 40
0.435992
 50
242.441339
 51
276.514296
  0
ARC
  8
Default
 62
     5
  6
CONTINUOUS
 10
2.167009
 20
9.079231
 30
0.000000
 40
0.045000
 50
276.514296
 51
279.392150
  0
LINE
  8
Default
 62
     5
  6
CONTINUOUS
 10
2.174353
 20
9.034834
 30
0.000000
 11
2.316530
 21
9.058351
 31
0.000000
  0
ARC
  8
Default
 62
     5
  6
CONTINUOUS
 10
2.309187
 20
9.102748
 30
0.000000
 40
0.045000
 50
279.392150
 51
286.559094
  0
LINE
  8
Default
 62
     5
  6
CONTINUOUS
 10
2.322012
 20
9.059614
 30
0.000000
 11
2.418978
 21
9.088446
 31
0.000000
  0
ARC
  8
Default
 62
     5
  6
CONTINUOUS
 10
2.667537
 20
9.380155
 30
0.000000
 40
0.383244
 50
229.566407
 51
263.184537
  0
ARC
  8
Default
 62
     5
  6
CONTINUOUS
 10
2.705706
 20
9.699518
 30
0.000000
 40
0.704880
 50
263.184537
 51
286.563518
  0
ARC
  8
Default
 62
     5
  6
CONTINUOUS
 10
2.893823
 20
9.067021
 30
0.000000
 40
0.045000
 50
286.563518
 51
288.234041
  0
LINE
  8
Default
 62
     5
  6
CONTINUOUS
 10
2.907904
 20
9.024280
 30
0.000000
 11
2.980375
 21
9.048155
 31
0.000000
  0
ARC
  8
Default
 62
     5
  6
CONTINUOUS
 10
2.966294
 20
9.090896
 30
0.000000
 40
0.045000
 50
288.234041
 51
290.825819
  0
LINE
  8
Default
 62
     5
  6
CONTINUOUS
 10
2.982293
 20
9.048836
 30
0.000000
 11
2.991073
 21
9.052175
 31
0.000000
  0
LINE
  8
Default
 62
     5
  6
CONTINUOUS
 10
2.991073
 20
9.052175
 30
0.000000
 11
3.001235
 21
9.044048
 31
0.000000
  0
ARC
  8
Default
 62
     5
  6
CONTINUOUS
 10
3.029342
 20
9.079190
 30
0.000000
 40
0.045000
 50
231.345927
 51
252.472968
  0
LINE
  8
Default
 62
     5
  6
CONTINUOUS
 10
3.015790
 20
9.036279
 30
0.000000
 11
3.186347
 21
8.982414
 31
0.000000
  0
ARC
  8
Default
 62
     5
  6
CONTINUOUS
 10
3.199899
 20
9.025325
 30
0.000000
 40
0.045000
 50
252.472968
 51
265.939210
  0
ARC
  8
Default
 62
     5
  6
CONTINUOUS
 10
3.239389
 20
9.581579
 30
0.000000
 40
0.602653
 50
265.939210
 51
282.575924
  0
ARC
  8
Default
 62
     5
  6
CONTINUOUS
 10
3.360809
 20
9.037304
 30
0.000000
 40
0.045000
 50
282.575924
 51
290.408949
  0
LINE
  8
Default
 62
     5
  6
CONTINUOUS
 10
3.376501
 20
8.995129
 30
0.000000
 11
3.437649
 21
9.017880
 31
0.000000
  0
LINE
  8
Default
 62
     5
  6
CONTINUOUS
 10
3.437649
 20
9.017880
 30
0.000000
 11
3.466074
 21
8.999497
 31
0.000000
  0
ARC
  8
Default
 62
     5
  6
CONTINUOUS
 10
3.490511
 20
9.037284
 30
0.000000
 40
0.045000
 50
237.109151
 51
239.518225
  0
ARC
  8
Default
 62
     5
  6
CONTINUOUS
 10
3.645503
 20
9.300600
 30
0.000000
 40
0.350545
 50
239.518225
 51
297.892017
  0
LINE
  8
Default
 62
     5
  6
CONTINUOUS
 10
3.809490
 20
8.990778
 30
0.000000
 11
3.907814
 21
9.042819
 31
0.000000
  0
ARC
  8
Default
 62
     5
  6
CONTINUOUS
 10
3.875912
 20
9.164471
 30
0.000000
 40
0.125765
 50
284.694382
 51
299.221909
  0
LINE
  8
Default
 62
     5
  6
CONTINUOUS
 10
3.937309
 20
9.054711
 30
0.000000
 11
3.955616
 21
9.036515
 31
0.000000
  0
ARC
  8
Default
 62
     5
  6
CONTINUOUS
 10
3.987339
 20
9.068431
 30
0.000000
 40
0.045000
 50
225.173320
 51
234.053896
  0
ARC
  8
Default
 62
     5
  6
CONTINUOUS
 10
4.134392
 20
9.271232
 30
0.000000
 40
0.295505
 50
234.053896
 51
291.812925
  0
ARC
  8
Default
 62
     5
  6
CONTINUOUS
 10
4.227473
 20
9.038663
 30
0.000000
 40
0.045000
 50
291.812925
 51
292.928271
  0
LINE
  8
Default
 62
     5
  6
CONTINUOUS
 10
4.245004
 20
8.997218
 30
0.000000
 11
4.351321
 21
9.042190
 31
0.000000
  0
LINE
  8
Default
 62
     5
  6
CONTINUOUS
 10
4.351321
 20
9.042190
 30
0.000000
 11
4.364359
 21
9.024386
 31
0.000000
  0
ARC
  8
Default
 62
     5
  6
CONTINUOUS
 10
4.400665
 20
9.050973
 30
0.000000
 40
0.045000
 50
216.215058
 51
229.005249
  0
LINE
  8
Default
 62
     5
  6
CONTINUOUS
 10
4.371146
 20
9.017008
 30
0.000000
 11
4.391865
 21
8.999001
 31
0.000000
  0
ARC
  8
Default
 62
     5
  6
CONTINUOUS
 10
4.673751
 20
9.267460
 30
0.000000
 40
0.389269
 50
223.602441
 51
267.560418
  0
ARC
  8
Default
 62
     5
  6
CONTINUOUS
 10
4.659097
 20
8.923503
 30
0.000000
 40
0.045000
 50
267.560418
 51
270.000000
  0
LINE
  8
Default
 62
     5
  6
CONTINUOUS
 10
4.659097
 20
8.878503
 30
0.000000
 11
4.697120
 21
8.878503
 31
0.000000
  0
LINE
  8
Default
 62
     5
  6
CONTINUOUS
 10
4.697120
 20
8.878503
 30
0.000000
 11
4.712715
 21
8.840482
 31
0.000000
  0
ARC
  8
Default
 62
     5
  6
CONTINUOUS
 10
4.754349
 20
8.857558
 30
0.000000
 40
0.045000
 50
202.301568
 51
221.858031
  0
LINE
  8
Default
 62
     5
  6
CONTINUOUS
 10
4.720833
 20
8.827530
 30
0.000000
 11
4.744760
 21
8.800824
 31
0.000000
  0
ARC
  8
Default
 62
     5
  6
CONTINUOUS
 10
4.778276
 20
8.830852
 30
0.000000
 40
0.045000
 50
221.858031
 51
223.655140
  0
ARC
  8
Default
 62
     5
  6
CONTINUOUS
 10
4.867335
 20
8.915826
 30
0.000000
 40
0.168093
 50
223.655140
 51
291.303157
  0
LINE
  8
Default
 62
     5
  6
CONTINUOUS
 10
4.928404
 20
8.759218
 30
0.000000
 11
4.937134
 21
8.699218
 31
0.000000
  0
ARC
  8
Default
 62
     5
  6
CONTINUOUS
 10
4.981665
 20
8.705698
 30
0.000000
 40
0.045000
 50
188.279205
 51
201.956286
  0
LINE
  8
Default
 62
     5
  6
CONTINUOUS
 10
4.939929
 20
8.688872
 30
0.000000
 11
4.970532
 21
8.612961
 31
0.000000
  0
ARC
  8
Default
 62
     5
  6
CONTINUOUS
 10
5.012268
 20
8.629786
 30
0.000000
 40
0.045000
 50
201.956286
 51
214.331740
  0
LINE
  8
Default
 62
     5
  6
CONTINUOUS
 10
4.975108
 20
8.604407
 30
0.000000
 11
5.022454
 21
8.535083
 31
0.000000
  0
ARC
  8
Default
 62
     5
  6
CONTINUOUS
 10
5.059614
 20
8.560462
 30
0.000000
 40
0.045000
 50
214.331740
 51
230.120433
  0
LINE
  8
Default
 62
     5
  6
CONTINUOUS
 10
5.030761
 20
8.525929
 30
0.000000
 11
5.085083
 21
8.480542
 31
0.000000
  0
ARC
  8
Default
 62
     5
  6
CONTINUOUS
 10
5.113936
 20
8.515075
 30
0.000000
 40
0.045000
 50
230.120433
 51
251.901600
  0
ARC
  8
Default
 62
     5
  6
CONTINUOUS
 10
5.088907
 20
8.438491
 30
0.000000
 40
0.035570
 50
12.875146
 51
71.901600
  0
ARC
  8
Default
 62
     5
  6
CONTINUOUS
 10
5.167451
 20
8.456445
 30
0.000000
 40
0.045000
 50
192.875146
 51
205.373731
  0
ARC
  8
Default
 62
     5
  6
CONTINUOUS
 10
5.460323
 20
8.595346
 30
0.000000
 40
0.369141
 50
205.373731
 51
228.902243
  0
ARC
  8
Default
 62
     5
  6
CONTINUOUS
 10
5.343108
 20
8.404629
 30
0.000000
 40
0.152921
 50
214.886487
 51
286.320546
  0
ARC
  8
Default
 62
     5
  6
CONTINUOUS
 10
5.541652
 20
8.318967
 30
0.000000
 40
0.167138
 50
201.441268
 51
230.830893
  0
LINE
  8
Default
 62
     5
  6
CONTINUOUS
 10
5.436086
 20
8.189387
 30
0.000000
 11
5.530952
 21
8.095456
 31
0.000000
  0
ARC
  8
Default
 62
     5
  6
CONTINUOUS
 10
5.562613
 20
8.127433
 30
0.000000
 40
0.045000
 50
225.283885
 51
235.418472
  0
ARC
  8
Default
 62
     5
  6
CONTINUOUS
 10
5.690921
 20
8.313554
 30
0.000000
 40
0.271061
 50
235.418472
 51
279.436956
  0
ARC
  8
Default
 62
     5
  6
CONTINUOUS
 10
5.727764
 20
8.194446
 30
0.000000
 40
0.148479
 50
272.934088
 51
302.846166
  0
LINE
  8
Default
 62
     5
  6
CONTINUOUS
 10
5.808297
 20
8.069704
 30
0.000000
 11
5.871008
 21
7.959374
 31
0.000000
  0
ARC
  8
Default
 62
     5
  6
CONTINUOUS
 10
5.910130
 20
7.981610
 30
0.000000
 40
0.045000
 50
209.613633
 51
212.410231
  0
ARC
  8
Default
 62
     5
  6
CONTINUOUS
 10
6.342132
 20
8.255875
 30
0.000000
 40
0.556709
 50
212.410231
 51
229.106244
  0
ARC
  8
Default
 62
     5
  6
CONTINUOUS
 10
6.007137
 20
7.869061
 30
0.000000
 40
0.045000
 50
229.106244
 51
237.146827
  0
LINE
  8
Default
 62
     5
  6
CONTINUOUS
 10
5.982725
 20
7.831258
 30
0.000000
 11
6.008713
 21
7.814476
 31
0.000000
  0
LINE
  8
Default
 62
     5
  6
CONTINUOUS
 10
6.008713
 20
7.814476
 30
0.000000
 11
6.033911
 21
7.796760
 31
0.000000
  0
ARC
  8
Default
 62
     5
  6
CONTINUOUS
 10
6.059793
 20
7.833572
 30
0.000000
 40
0.045000
 50
234.889181
 51
236.878806
  0
ARC
  8
Default
 62
     5
  6
CONTINUOUS
 10
6.170166
 20
8.002746
 30
0.000000
 40
0.246996
 50
236.878806
 51
260.598147
  0
ARC
  8
Default
 62
     5
  6
CONTINUOUS
 10
6.137168
 20
7.803464
 30
0.000000
 40
0.045000
 50
260.598147
 51
262.448953
  0
ARC
  8
Default
 62
     5
  6
CONTINUOUS
 10
6.167495
 20
8.032242
 30
0.000000
 40
0.275779
 50
262.448953
 51
302.882294
  0
ARC
  8
Default
 62
     5
  6
CONTINUOUS
 10
6.190418
 20
8.048800
 30
0.000000
 40
0.278674
 50
297.066141
 51
328.158562
  0
ARC
  8
Default
 62
     5
  6
CONTINUOUS
 10
6.091098
 20
8.223057
 30
0.000000
 40
0.464922
 50
316.287988
 51
335.174359
  0
LINE
  8
Default
 62
     5
  6
CONTINUOUS
 10
6.513057
 20
8.027856
 30
0.000000
 11
6.535956
 21
8.069135
 31
0.000000
  0
ARC
  8
Default
 62
     5
  6
CONTINUOUS
 10
6.495245
 20
8.127101
 30
0.000000
 40
0.070834
 50
305.080987
 51
341.385943
  0
LINE
  8
Default
 62
     5
  6
CONTINUOUS
 10
6.562374
 20
8.104492
 30
0.000000
 11
6.577319
 21
8.119564
 31
0.000000
  0
ARC
  8
Default
 62
     5
  6
CONTINUOUS
 10
6.545365
 20
8.151249
 30
0.000000
 40
0.045000
 50
315.242120
 51
317.144084
  0
ARC
  8
Default
 62
     5
  6
CONTINUOUS
 10
6.616161
 20
8.085562
 30
0.000000
 40
0.051576
 50
108.636200
 51
137.144084
  0
LINE
  8
Default
 62
     5
  6
CONTINUOUS
 10
6.599680
 20
8.134434
 30
0.000000
 11
6.605907
 21
8.123643
 31
0.000000
  0
ARC
  8
Default
 62
     5
  6
CONTINUOUS
 10
6.258830
 20
8.015401
 30
0.000000
 40
0.363564
 50
353.713272
 51
377.320925
  0
ARC
  8
Default
 62
     5
  6
CONTINUOUS
 10
6.664937
 20
7.970662
 30
0.000000
 40
0.045000
 50
173.713272
 51
180.239346
  0
LINE
  8
Default
 62
     5
  6
CONTINUOUS
 10
6.619937
 20
7.970474
 30
0.000000
 11
6.620210
 21
7.905295
 31
0.000000
  0
ARC
  8
Default
 62
     5
  6
CONTINUOUS
 10
6.686285
 20
7.743404
 30
0.000000
 40
0.174856
 50
112.202790
 51
129.802134
  0
ARC
  8
Default
 62
     5
  6
CONTINUOUS
 10
5.607150
 20
10.179862
 30
0.000000
 40
2.497049
 50
288.888788
 51
292.788998
  0
ARC
  8
Default
 62
     5
  6
CONTINUOUS
 10
6.525378
 20
7.177224
 30
0.000000
 40
0.649417
 50
99.738770
 51
124.057386
  0
ARC
  8
Default
 62
     5
  6
CONTINUOUS
 10
6.186891
 20
7.677970
 30
0.000000
 40
0.045000
 50
124.057386
 51
133.251428
  0
LINE
  8
Default
 62
     5
  6
CONTINUOUS
 10
6.156057
 20
7.710746
 30
0.000000
 11
6.070671
 21
7.630419
 31
0.000000
  0
ARC
  8
Default
 62
     5
  6
CONTINUOUS
 10
6.101505
 20
7.597643
 30
0.000000
 40
0.045000
 50
133.251428
 51
152.002302
  0
LINE
  8
Default
 62
     5
  6
CONTINUOUS
 10
6.061772
 20
7.618768
 30
0.000000
 11
6.037322
 21
7.572779
 31
0.000000
  0
ARC
  8
Default
 62
     5
  6
CONTINUOUS
 10
6.107414
 20
7.510269
 30
0.000000
 40
0.093918
 50
138.272280
 51
203.997878
  0
LINE
  8
Default
 62
     5
  6
CONTINUOUS
 10
6.021615
 20
7.472072
 30
0.000000
 11
6.027050
 21
7.378092
 31
0.000000
  0
ARC
  8
Default
 62
     5
  6
CONTINUOUS
 10
6.071975
 20
7.380690
 30
0.000000
 40
0.045000
 50
183.309842
 51
188.124881
  0
ARC
  8
Default
 62
     5
  6
CONTINUOUS
 10
5.857861
 20
7.350122
 30
0.000000
 40
0.171284
 50
340.081684
 51
368.124881
  0
ARC
  8
Default
 62
     5
  6
CONTINUOUS
 10
6.047432
 20
7.355131
 30
0.000000
 40
0.069490
 50
214.088661
 51
245.757403
  0
LINE
  8
Default
 62
     5
  6
CONTINUOUS
 10
5.989882
 20
7.316184
 30
0.000000
 11
5.947965
 21
7.378121
 31
0.000000
  0
ARC
  8
Default
 62
     5
  6
CONTINUOUS
 10
5.910698
 20
7.352900
 30
0.000000
 40
0.045000
 50
34.088661
 51
60.162372
  0
ARC
  8
Default
 62
     5
  6
CONTINUOUS
 10
5.897525
 20
7.329934
 30
0.000000
 40
0.071475
 50
60.162372
 51
134.226228
  0
LINE
  8
Default
 62
     5
  6
CONTINUOUS
 10
5.847671
 20
7.381153
 30
0.000000
 11
5.822309
 21
7.371647
 31
0.000000
  0
ARC
  8
Default
 62
     5
  6
CONTINUOUS
 10
5.838101
 20
7.329509
 30
0.000000
 40
0.045000
 50
110.544971
 51
122.251826
  0
LINE
  8
Default
 62
     5
  6
CONTINUOUS
 10
5.814087
 20
7.367566
 30
0.000000
 11
5.711098
 21
7.302580
 31
0.000000
  0
ARC
  8
Default
 62
     5
  6
CONTINUOUS
 10
5.735112
 20
7.264523
 30
0.000000
 40
0.045000
 50
122.251826
 51
127.735786
  0
LINE
  8
Default
 62
     5
  6
CONTINUOUS
 10
5.707571
 20
7.300111
 30
0.000000
 11
5.289493
 21
6.976567
 31
0.000000
  0
ARC
  8
Default
 62
     5
  6
CONTINUOUS
 10
5.317034
 20
6.940979
 30
0.000000
 40
0.045000
 50
127.735786
 51
129.450253
  0
LINE
  8
Default
 62
     5
  6
CONTINUOUS
 10
5.288441
 20
6.975727
 30
0.000000
 11
4.990353
 21
6.730437
 31
0.000000
  0
ARC
  8
Default
 62
     5
  6
CONTINUOUS
 10
5.018947
 20
6.695689
 30
0.000000
 40
0.045000
 50
129.450253
 51
130.679327
  0
LINE
  8
Default
 62
     5
  6
CONTINUOUS
 10
4.989615
 20
6.729815
 30
0.000000
 11
4.899541
 21
6.652397
 31
0.000000
  0
ARC
  8
Default
 62
     5
  6
CONTINUOUS
 10
4.836729
 20
6.538386
 30
0.000000
 40
0.130168
 50
61.148024
 51
90.685175
  0
ARC
  8
Default
 62
     5
  6
CONTINUOUS
 10
4.822210
 20
6.327663
 30
0.000000
 40
0.341128
 50
87.822430
 51
130.821475
  0
ARC
  8
Default
 62
     5
  6
CONTINUOUS
 10
4.628630
 20
6.551758
 30
0.000000
 40
0.045000
 50
130.821475
 51
135.657025
  0
ARC
  8
Default
 62
     5
  6
CONTINUOUS
 10
4.049659
 20
7.117601
 30
0.000000
 40
0.764559
 50
285.110487
 51
315.657025
  0
ARC
  8
Default
 62
     5
  6
CONTINUOUS
 10
4.260696
 20
6.336033
 30
0.000000
 40
0.045000
 50
105.110487
 51
106.482877
  0
ARC
  8
Default
 62
     5
  6
CONTINUOUS
 10
3.529845
 20
8.806056
 30
0.000000
 40
2.530880
 50
274.989062
 51
286.482877
  0
ARC
  8
Default
 62
     5
  6
CONTINUOUS
 10
3.753857
 20
6.239935
 30
0.000000
 40
0.045000
 50
94.989062
 51
143.920850
  0
ARC
  8
Default
 62
     5
  6
CONTINUOUS
 10
4.166409
 20
5.939327
 30
0.000000
 40
0.555455
 50
143.920850
 51
174.187084
  0
ARC
  8
Default
 62
     5
  6
CONTINUOUS
 10
4.011961
 20
5.955051
 30
0.000000
 40
0.400208
 50
174.187084
 51
220.657892
  0
ARC
  8
Default
 62
     5
  6
CONTINUOUS
 10
3.742495
 20
5.723618
 30
0.000000
 40
0.045000
 50
220.657892
 51
225.369365
  0
LINE
  8
Default
 62
     5
  6
CONTINUOUS
 10
3.710881
 20
5.691594
 30
0.000000
 11
3.806451
 21
5.597248
 31
0.000000
  0
ARC
  8
Default
 62
     5
  6
CONTINUOUS
 10
3.838065
 20
5.629273
 30
0.000000
 40
0.045000
 50
225.369365
 51
233.086810
  0
LINE
  8
Default
 62
     5
  6
CONTINUOUS
 10
3.811038
 20
5.593293
 30
0.000000
 11
3.858639
 21
5.557535
 31
0.000000
  0
ARC
  8
Default
 62
     5
  6
CONTINUOUS
 10
3.885667
 20
5.593515
 30
0.000000
 40
0.045000
 50
233.086810
 51
239.457962
  0
LINE
  8
Default
 62
     5
  6
CONTINUOUS
 10
3.862799
 20
5.554758
 30
0.000000
 11
3.924749
 21
5.518206
 31
0.000000
  0
ARC
  8
Default
 62
     5
  6
CONTINUOUS
 10
3.947617
 20
5.556962
 30
0.000000
 40
0.045000
 50
239.457962
 51
244.540650
  0
ARC
  8
Default
 62
     5
  6
CONTINUOUS
 10
4.808394
 20
7.364920
 30
0.000000
 40
2.047411
 50
244.540650
 51
253.041192
  0
ARC
  8
Default
 62
     5
  6
CONTINUOUS
 10
4.224323
 20
5.449585
 30
0.000000
 40
0.045000
 50
253.041192
 51
259.211455
  0
LINE
  8
Default
 62
     5
  6
CONTINUOUS
 10
4.215900
 20
5.405380
 30
0.000000
 11
4.267487
 21
5.395550
 31
0.000000
  0
ARC
  8
Default
 62
     5
  6
CONTINUOUS
 10
4.297410
 20
5.444632
 30
0.000000
 40
0.057484
 50
238.631290
 51
331.317602
  0
LINE
  8
Default
 62
     5
  6
CONTINUOUS
 10
4.347841
 20
5.417042
 30
0.000000
 11
4.359506
 21
5.427143
 31
0.000000
  0
LINE
  8
Default
 62
     5
  6
CONTINUOUS
 10
4.359506
 20
5.427143
 30
0.000000
 11
4.440157
 21
5.491183
 31
0.000000
  0
LINE
  8
Default
 62
     5
  6
CONTINUOUS
 10
4.440157
 20
5.491183
 30
0.000000
 11
4.612231
 21
5.621080
 31
0.000000
  0
LINE
  8
Default
 62
     5
  6
CONTINUOUS
 10
4.612231
 20
5.621080
 30
0.000000
 11
4.931200
 21
5.830427
 31
0.000000
  0
ARC
  8
Default
 62
     5
  6
CONTINUOUS
 10
7.921109
 20
1.274879
 30
0.000000
 40
5.449089
 50
105.148758
 51
123.277794
  0
ARC
  8
Default
 62
     5
  6
CONTINUOUS
 10
6.485361
 20
6.578052
 30
0.000000
 40
0.045000
 50
285.148758
 51
287.826435
  0
LINE
  8
Default
 62
     5
  6
CONTINUOUS
 10
6.499137
 20
6.535212
 30
0.000000
 11
6.499658
 21
6.532748
 31
0.000000
  0
LINE
  8
Default
 62
     5
  6
CONTINUOUS
 10
6.499658
 20
6.532748
 30
0.000000
 11
6.488110
 21
6.421282
 31
0.000000
  0
ARC
  8
Default
 62
     5
  6
CONTINUOUS
 10
6.532871
 20
6.416646
 30
0.000000
 40
0.045000
 50
174.085595
 51
177.883801
  0
ARC
  8
Default
 62
     5
  6
CONTINUOUS
 10
5.509581
 20
6.454458
 30
0.000000
 40
0.978989
 50
344.690216
 51
357.883801
  0
ARC
  8
Default
 62
     5
  6
CONTINUOUS
 10
6.497230
 20
6.184086
 30
0.000000
 40
0.045000
 50
164.690216
 51
167.581224
  0
LINE
  8
Default
 62
     5
  6
CONTINUOUS
 10
6.453283
 20
6.193763
 30
0.000000
 11
6.333672
 21
5.650588
 31
0.000000
  0
LINE
  8
Default
 62
     5
  6
CONTINUOUS
 10
6.333672
 20
5.650588
 30
0.000000
 11
6.202732
 21
5.145662
 31
0.000000
  0
ARC
  8
Default
 62
     5
  6
CONTINUOUS
 10
8.250029
 20
4.546072
 30
0.000000
 40
2.133291
 50
163.676335
 51
180.500789
  0
ARC
  8
Default
 62
     5
  6
CONTINUOUS
 10
6.161817
 20
4.527820
 30
0.000000
 40
0.045000
 50
180.500789
 51
193.735487
  0
LINE
  8
Default
 62
     5
  6
CONTINUOUS
 10
6.118104
 20
4.517135
 30
0.000000
 11
6.132950
 21
4.456398
 31
0.000000
  0
ARC
  8
Default
 62
     5
  6
CONTINUOUS
 10
6.184076
 20
4.449265
 30
0.000000
 40
0.051621
 50
172.058105
 51
219.429278
  0
LINE
  8
Default
 62
     5
  6
CONTINUOUS
 10
6.144204
 20
4.416479
 30
0.000000
 11
6.141321
 21
4.399395
 31
0.000000
  0
LINE
  8
Default
 62
     5
  6
CONTINUOUS
 10
6.141321
 20
4.399395
 30
0.000000
 11
6.100723
 21
4.263160
 31
0.000000
  0
ARC
  8
Default
 62
     5
  6
CONTINUOUS
 10
6.143849
 20
4.250308
 30
0.000000
 40
0.045000
 50
163.405834
 51
167.865459
  0
LINE
  8
Default
 62
     5
  6
CONTINUOUS
 10
6.099854
 20
4.259768
 30
0.000000
 11
6.034160
 21
3.954230
 31
0.000000
  0
LINE
  8
Default
 62
     5
  6
CONTINUOUS
 10
6.034160
 20
3.954230
 30
0.000000
 11
5.980646
 21
3.716771
 31
0.000000
  0
ARC
  8
Default
 62
     5
  6
CONTINUOUS
 10
6.024545
 20
3.706878
 30
0.000000
 40
0.045000
 50
167.299908
 51
170.585769
  0
LINE
  8
Default
 62
     5
  6
CONTINUOUS
 10
5.980151
 20
3.714238
 30
0.000000
 11
5.877655
 21
3.096061
 31
0.000000
  0
ARC
  8
Default
 62
     5
  6
CONTINUOUS
 10
24.128445
 20
0.070005
 30
0.000000
 40
18.499956
 50
170.585769
 51
172.483525
  0
LINE
  8
Default
 62
     5
  6
CONTINUOUS
 10
5.787454
 20
2.490007
 30
0.000000
 11
5.731875
 21
2.068782
 31
0.000000
  0
LINE
  8
Default
 62
     5
  6
CONTINUOUS
 10
5.731875
 20
2.068782
 30
0.000000
 11
5.652112
 21
1.798510
 31
0.000000
  0
ARC
  8
Default
 62
     5
  6
CONTINUOUS
 10
12.194260
 20
-0.383296
 30
0.000000
 40
6.896374
 50
161.556456
 51
166.714700
  0
LINE
  8
Default
 62
     5
  6
CONTINUOUS
 10
5.363535
 20
0.735436
 30
0.000000
 11
5.482448
 21
1.201491
 31
0.000000
  0
ARC
  8
Default
 62
     5
  6
CONTINUOUS
 10
5.407138
 20
0.724310
 30
0.000000
 40
0.045000
 50
165.686514
 51
169.223385
  0
LINE
  8
Default
 62
     5
  6
CONTINUOUS
 10
5.362932
 20
0.732724
 30
0.000000
 11
5.315016
 21
0.480981
 31
0.000000
  0
ARC
  8
Default
 62
     5
  6
CONTINUOUS
 10
5.359222
 20
0.472567
 30
0.000000
 40
0.045000
 50
169.223385
 51
172.582461
  0
LINE
  8
Default
 62
     5
  6
CONTINUOUS
 10
5.314598
 20
0.478376
 30
0.000000
 11
5.296630
 21
0.340357
 31
0.000000
  0
ARC
  8
Default
 62
     5
  6
CONTINUOUS
 10
5.341253
 20
0.334548
 30
0.000000
 40
0.045000
 50
172.582461
 51
173.607494
  0
ARC
  8
Default
 62
     5
  6
CONTINUOUS
 10
5.443771
 20
0.323062
 30
0.000000
 40
0.148159
 50
173.607494
 51
220.064538
  0
ARC
  8
Default
 62
     5
  6
CONTINUOUS
 10
5.364821
 20
0.256664
 30
0.000000
 40
0.045000
 50
220.064538
 51
257.015033
  0
LINE
  8
Default
 62
     5
  6
CONTINUOUS
 10
5.354710
 20
0.212814
 30
0.000000
 11
5.378833
 21
0.207252
 31
0.000000
  0
ARC
  8
Default
 62
     5
  6
CONTINUOUS
 10
5.388945
 20
0.251101
 30
0.000000
 40
0.045000
 50
257.015033
 51
278.057555
  0
ARC
  8
Default
 62
     5
  6
CONTINUOUS
 10
5.419117
 20
0.244696
 30
0.000000
 40
0.045000
 50
237.972217
 51
279.327591
  0
LINE
  8
Default
 62
     5
  6
CONTINUOUS
 10
5.426411
 20
0.200291
 30
0.000000
 11
5.496645
 21
0.211827
 31
0.000000
  0
ARC
  8
Default
 62
     5
  6
CONTINUOUS
 10
5.489351
 20
0.256232
 30
0.000000
 40
0.045000
 50
279.327591
 51
303.772145
  0
LINE
  8
Default
 62
     5
  6
CONTINUOUS
 10
5.514366
 20
0.218825
 30
0.000000
 11
5.570200
 21
0.256164
 31
0.000000
  0
ARC
  8
Default
 62
     5
  6
CONTINUOUS
 10
5.545185
 20
0.293570
 30
0.000000
 40
0.045000
 50
303.772145
 51
320.366346
  0
LINE
  8
Default
 62
     5
  6
CONTINUOUS
 10
5.579841
 20
0.264866
 30
0.000000
 11
5.651645
 21
0.351558
 31
0.000000
  0
ARC
  8
Default
 62
     5
  6
CONTINUOUS
 10
5.616989
 20
0.380263
 30
0.000000
 40
0.045000
 50
320.366346
 51
324.415807
  0
ARC
  8
Default
 62
     5
  6
CONTINUOUS
 10
4.965039
 20
0.846741
 30
0.000000
 40
0.846649
 50
324.415807
 51
339.816252
  0
ARC
  8
Default
 62
     5
  6
CONTINUOUS
 10
3.686013
 20
1.541987
 30
0.000000
 40
2.296749
 50
334.538949
 51
345.067095
  0
LINE
  8
Default
 62
     5
  6
CONTINUOUS
 10
5.905196
 20
0.950143
 30
0.000000
 11
5.971221
 21
1.158083
 31
0.000000
  0
ARC
  8
Default
 62
     5
  6
CONTINUOUS
 10
5.928331
 20
1.171701
 30
0.000000
 40
0.045000
 50
342.384418
 51
346.737619
  0
LINE
  8
Default
 62
     5
  6
CONTINUOUS
 10
5.972131
 20
1.161378
 30
0.000000
 11
5.981164
 21
1.199703
 31
0.000000
  0
LINE
  8
Default
 62
     5
  6
CONTINUOUS
 10
5.981164
 20
1.199703
 30
0.000000
 11
5.961443
 21
1.043230
 31
0.000000
  0
ARC
  8
Default
 62
     5
  6
CONTINUOUS
 10
6.006090
 20
1.037603
 30
0.000000
 40
0.045000
 50
172.816544
 51
176.344946
  0
LINE
  8
Default
 62
     5
  6
CONTINUOUS
 10
5.961181
 20
1.040471
 30
0.000000
 11
5.943213
 21
0.759183
 31
0.000000
  0
ARC
  8
Default
 62
     5
  6
CONTINUOUS
 10
5.988121
 20
0.756314
 30
0.000000
 40
0.045000
 50
176.344946
 51
178.865762
  0
ARC
  8
Default
 62
     5
  6
CONTINUOUS
 10
6.733708
 20
0.741552
 30
0.000000
 40
0.790733
 50
178.865762
 51
200.170937
  0
ARC
  8
Default
 62
     5
  6
CONTINUOUS
 10
6.033712
 20
0.484407
 30
0.000000
 40
0.045000
 50
200.170937
 51
209.479620
  0
ARC
  8
Default
 62
     5
  6
CONTINUOUS
 10
6.160033
 20
0.555816
 30
0.000000
 40
0.190107
 50
209.479620
 51
311.492562
  0
LINE
  8
Default
 62
     5
  6
CONTINUOUS
 10
6.285983
 20
0.413418
 30
0.000000
 11
6.325701
 21
0.441663
 31
0.000000
  0
ARC
  8
Default
 62
     5
  6
CONTINUOUS
 10
6.299622
 20
0.478335
 30
0.000000
 40
0.045000
 50
305.418245
 51
335.918399
  0
LINE
  8
Default
 62
     5
  6
CONTINUOUS
 10
6.340705
 20
0.459974
 30
0.000000
 11
6.363738
 21
0.511508
 31
0.000000
  0
ARC
  8
Default
 62
     5
  6
CONTINUOUS
 10
6.082386
 20
0.669849
 30
0.000000
 40
0.322848
 50
330.629897
 51
354.082884
  0
ARC
  8
Default
 62
     5
  6
CONTINUOUS
 10
-1.365485
 20
2.510449
 30
0.000000
 40
7.991794
 50
346.439273
 51
353.685756
  0
LINE
  8
Default
 62
     5
  6
CONTINUOUS
 10
6.577828
 20
1.631500
 30
0.000000
 11
6.686128
 21
2.416450
 31
0.000000
  0
ARC
  8
Default
 62
     5
  6
CONTINUOUS
 10
6.822517
 20
2.470177
 30
0.000000
 40
0.146590
 50
201.500768
 51
257.555510
  0
ARC
  8
Default
 62
     5
  6
CONTINUOUS
 10
6.800625
 20
2.370974
 30
0.000000
 40
0.045000
 50
257.555510
 51
265.533274
  0
ARC
  8
Default
 62
     5
  6
CONTINUOUS
 10
6.803585
 20
2.408867
 30
0.000000
 40
0.083009
 50
265.533274
 51
313.552976
  0
ARC
  8
Default
 62
     5
  6
CONTINUOUS
 10
6.918047
 20
2.414637
 30
0.000000
 40
0.087329
 50
229.022323
 51
296.380838
  0
ARC
  8
Default
 62
     5
  6
CONTINUOUS
 10
6.936855
 20
2.376717
 30
0.000000
 40
0.045000
 50
296.380838
 51
302.055215
  0
LINE
  8
Default
 62
     5
  6
CONTINUOUS
 10
6.960738
 20
2.338578
 30
0.000000
 11
6.998953
 21
2.362509
 31
0.000000
  0
ARC
  8
Default
 62
     5
  6
CONTINUOUS
 10
6.975070
 20
2.400648
 30
0.000000
 40
0.045000
 50
302.055215
 51
316.428951
  0
ARC
  8
Default
 62
     5
  6
CONTINUOUS
 10
6.783822
 20
2.582587
 30
0.000000
 40
0.308966
 50
316.428951
 51
342.239015
  0
ARC
  8
Default
 62
     5
  6
CONTINUOUS
 10
5.928596
 20
3.034434
 30
0.000000
 40
1.272593
 50
334.588224
 51
347.638020
  0
LINE
  8
Default
 62
     5
  6
CONTINUOUS
 10
7.171683
 20
2.761989
 30
0.000000
 11
7.200931
 21
2.873896
 31
0.000000
  0
ARC
  8
Default
 62
     5
  6
CONTINUOUS
 10
7.300935
 20
3.003327
 30
0.000000
 40
0.163564
 50
232.308909
 51
297.386528
  0
ARC
  8
Default
 62
     5
  6
CONTINUOUS
 10
7.355473
 20
2.898051
 30
0.000000
 40
0.045000
 50
297.386528
 51
304.351721
  0
LINE
  8
Default
 62
     5
  6
CONTINUOUS
 10
7.380865
 20
2.860900
 30
0.000000
 11
7.474728
 21
2.925053
 31
0.000000
  0
ARC
  8
Default
 62
     5
  6
CONTINUOUS
 10
7.449336
 20
2.962204
 30
0.000000
 40
0.045000
 50
304.351721
 51
324.318944
  0
ARC
  8
Default
 62
     5
  6
CONTINUOUS
 10
6.683193
 20
3.512350
 30
0.000000
 40
0.988205
 50
324.318944
 51
351.988433
  0
LINE
  8
Default
 62
     5
  6
CONTINUOUS
 10
7.661753
 20
3.374621
 30
0.000000
 11
7.739522
 21
3.841205
 31
0.000000
  0
ARC
  8
Default
 62
     5
  6
CONTINUOUS
 10
7.695134
 20
3.848603
 30
0.000000
 40
0.045000
 50
350.537087
 51
355.499983
  0
LINE
  8
Default
 62
     5
  6
CONTINUOUS
 10
7.739995
 20
3.845072
 30
0.000000
 11
7.757737
 21
4.070506
 31
0.000000
  0
ARC
  8
Default
 62
     5
  6
CONTINUOUS
 10
7.961696
 20
4.026338
 30
0.000000
 40
0.208686
 50
144.392148
 51
167.781059
  0
ARC
  8
Default
 62
     5
  6
CONTINUOUS
 10
7.755444
 20
4.174042
 30
0.000000
 40
0.045000
 50
324.392148
 51
329.153928
  0
LINE
  8
Default
 62
     5
  6
CONTINUOUS
 10
7.794078
 20
4.150969
 30
0.000000
 11
7.847812
 21
4.240944
 31
0.000000
  0
ARC
  8
Default
 62
     5
  6
CONTINUOUS
 10
7.809177
 20
4.264017
 30
0.000000
 40
0.045000
 50
329.153928
 51
337.029280
  0
ARC
  8
Default
 62
     5
  6
CONTINUOUS
 10
6.374243
 20
4.872245
 30
0.000000
 40
1.603518
 50
337.029280
 51
353.905295
  0
LINE
  8
Default
 62
     5
  6
CONTINUOUS
 10
7.968698
 20
4.701996
 30
0.000000
 11
7.994341
 21
4.942156
 31
0.000000
  0
LINE
  8
Default
 62
     5
  6
CONTINUOUS
 10
7.994341
 20
4.942156
 30
0.000000
 11
8.056488
 21
4.893386
 31
0.000000
  0
ARC
  8
Default
 62
     5
  6
CONTINUOUS
 10
8.084269
 20
4.928787
 30
0.000000
 40
0.045000
 50
231.877222
 51
235.052754
  0
ARC
  8
Default
 62
     5
  6
CONTINUOUS
 10
8.170373
 20
5.051997
 30
0.000000
 40
0.195315
 50
235.052754
 51
288.889919
  0
ARC
  8
Default
 62
     5
  6
CONTINUOUS
 10
8.206792
 20
4.982844
 30
0.000000
 40
0.118711
 50
283.054794
 51
327.603913
  0
LINE
  8
Default
 62
     5
  6
CONTINUOUS
 10
8.307027
 20
4.919243
 30
0.000000
 11
8.348143
 21
4.973507
 31
0.000000
  0
ARC
  8
Default
 62
     5
  6
CONTINUOUS
 10
8.312276
 20
5.000684
 30
0.000000
 40
0.045000
 50
322.848848
 51
333.396198
  0
ARC
  8
Default
 62
     5
  6
CONTINUOUS
 10
7.756590
 20
5.278997
 30
0.000000
 40
0.666486
 50
333.396198
 51
358.042153
  0
ARC
  8
Default
 62
     5
  6
CONTINUOUS
 10
8.377714
 20
5.257764
 30
0.000000
 40
0.045000
 50
358.042153
 51
359.413190
  0
ARC
  8
Default
 62
     5
  6
CONTINUOUS
 10
3.270025
 20
5.310078
 30
0.000000
 40
5.152956
 50
359.413190
 51
365.548888
  0
ARC
  8
Default
 62
     5
  6
CONTINUOUS
 10
8.354046
 20
5.803992
 30
0.000000
 40
0.045000
 50
5.548888
 51
7.781679
  0
ARC
  8
Default
 62
     5
  6
CONTINUOUS
 10
-7.262588
 20
3.669866
 30
0.000000
 40
15.806781
 50
7.781679
 51
11.435938
  0
ARC
  8
Default
 62
     5
  6
CONTINUOUS
 10
8.186275
 20
6.794989
 30
0.000000
 40
0.045000
 50
11.435938
 51
28.462885
  0
ARC
  8
Default
 62
     5
  6
CONTINUOUS
 10
8.434352
 20
6.929476
 30
0.000000
 40
0.237187
 50
170.348655
 51
208.462885
  0
ARC
  8
Default
 62
     5
  6
CONTINUOUS
 10
8.156160
 20
6.976785
 30
0.000000
 40
0.045000
 50
350.348655
 51
364.918096
  0
ARC
  8
Default
 62
     5
  6
CONTINUOUS
 10
8.288027
 20
6.988132
 30
0.000000
 40
0.087355
 50
140.110336
 51
184.918096
  0
ARC
  8
Default
 62
     5
  6
CONTINUOUS
 10
8.186474
 20
7.073013
 30
0.000000
 40
0.045000
 50
320.110336
 51
344.124492
  0
ARC
  8
Default
 62
     5
  6
CONTINUOUS
 10
8.279503
 20
7.046556
 30
0.000000
 40
0.051718
 50
108.407534
 51
164.124492
  0
ARC
  8
Default
 62
     5
  6
CONTINUOUS
 10
8.248962
 20
7.138325
 30
0.000000
 40
0.045000
 50
288.407534
 51
300.224550
  0
LINE
  8
Default
 62
     5
  6
CONTINUOUS
 10
8.271614
 20
7.099443
 30
0.000000
 11
8.281131
 21
7.104987
 31
0.000000
  0
LINE
  8
Default
 62
     5
  6
CONTINUOUS
 10
8.281131
 20
7.104987
 30
0.000000
 11
8.320843
 21
7.086342
 31
0.000000
  0
ARC
  8
Default
 62
     5
  6
CONTINUOUS
 10
8.339968
 20
7.127076
 30
0.000000
 40
0.045000
 50
244.849457
 51
252.805183
  0
ARC
  8
Default
 62
     5
  6
CONTINUOUS
 10
8.435489
 20
7.435753
 30
0.000000
 40
0.368119
 50
252.805183
 51
276.434859
  0
ARC
  8
Default
 62
     5
  6
CONTINUOUS
 10
8.471702
 20
7.114670
 30
0.000000
 40
0.045000
 50
276.434859
 51
284.660335
  0
LINE
  8
Default
 62
     5
  6
CONTINUOUS
 10
8.483091
 20
7.071135
 30
0.000000
 11
8.687468
 21
7.124601
 31
0.000000
  0
ARC
  8
Default
 62
     5
  6
CONTINUOUS
 10
8.676080
 20
7.168136
 30
0.000000
 40
0.045000
 50
284.660335
 51
295.738535
  0
LINE
  8
Default
 62
     5
  6
CONTINUOUS
 10
8.695621
 20
7.127601
 30
0.000000
 11
8.994954
 21
7.271908
 31
0.000000
  0
ARC
  8
Default
 62
     5
  6
CONTINUOUS
 10
8.975412
 20
7.312443
 30
0.000000
 40
0.045000
 50
295.738535
 51
300.282684
  0
LINE
  8
Default
 62
     5
  6
CONTINUOUS
 10
8.998104
 20
7.273583
 30
0.000000
 11
9.172360
 21
7.375339
 31
0.000000
  0
ARC
  8
Default
 62
     5
  6
CONTINUOUS
 10
9.149668
 20
7.414199
 30
0.000000
 40
0.045000
 50
300.282684
 51
302.696710
  0
LINE
  8
Default
 62
     5
  6
CONTINUOUS
 10
9.173976
 20
7.376330
 30
0.000000
 11
9.244180
 21
7.421394
 31
0.000000
  0
LINE
  8
Default
 62
     5
  6
CONTINUOUS
 10
9.244180
 20
7.421394
 30
0.000000
 11
9.276826
 21
7.437105
 31
0.000000
  0
LINE
  8
Default
 62
     5
  6
CONTINUOUS
 10
9.276826
 20
7.437105
 30
0.000000
 11
9.316249
 21
7.429795
 31
0.000000
  0
ARC
  8
Default
 62
     5
  6
CONTINUOUS
 10
9.324453
 20
7.474041
 30
0.000000
 40
0.045000
 50
259.494982
 51
267.481751
  0
ARC
  8
Default
 62
     5
  6
CONTINUOUS
 10
9.333199
 20
7.672900
 30
0.000000
 40
0.244052
 50
267.481751
 51
314.947348
  0
ARC
  8
Default
 62
     5
  6
CONTINUOUS
 10
9.473820
 20
7.532020
 30
0.000000
 40
0.045000
 50
314.947348
 51
337.739431
  0
ARC
  8
Default
 62
     5
  6
CONTINUOUS
 10
9.528987
 20
7.557894
 30
0.000000
 40
0.045000
 50
252.514753
 51
273.204100
  0
LINE
  8
Default
 62
     5
  6
CONTINUOUS
 10
9.531502
 20
7.512964
 30
0.000000
 11
9.638495
 21
7.518954
 31
0.000000
  0
ARC
  8
Default
 62
     5
  6
CONTINUOUS
 10
9.635980
 20
7.563883
 30
0.000000
 40
0.045000
 50
273.204100
 51
280.525900
  0
LINE
  8
Default
 62
     5
  6
CONTINUOUS
 10
9.644201
 20
7.519641
 30
0.000000
 11
9.736255
 21
7.536745
 31
0.000000
  0
ARC
  8
Default
 62
     5
  6
CONTINUOUS
 10
9.725816
 20
7.811577
 30
0.000000
 40
0.275030
 50
272.175193
 51
289.495848
  0
ARC
  8
Default
 62
     5
  6
CONTINUOUS
 10
9.896078
 20
7.647406
 30
0.000000
 40
0.123290
 50
230.469000
 51
318.899290
  0
LINE
  8
Default
 62
     5
  6
CONTINUOUS
 10
9.988983
 20
7.566358
 30
0.000000
 11
10.062648
 21
7.616862
 31
0.000000
  0
ARC
  8
Default
 62
     5
  6
CONTINUOUS
 10
10.037203
 20
7.653977
 30
0.000000
 40
0.045000
 50
304.434070
 51
322.762387
  0
ARC
  8
Default
 62
     5
  6
CONTINUOUS
 10
10.104114
 20
7.659284
 30
0.000000
 40
0.045000
 50
226.308558
 51
234.395339
  0
ARC
  8
Default
 62
     5
  6
CONTINUOUS
 10
10.138828
 20
7.707765
 30
0.000000
 40
0.104628
 50
234.395339
 51
347.849700
  0
ARC
  8
Default
 62
     5
  6
CONTINUOUS
 10
10.440354
 20
7.642847
 30
0.000000
 40
0.203806
 50
149.640156
 51
167.849700
  0
LINE
  8
Default
 62
     5
  6
CONTINUOUS
 10
10.264496
 20
7.745856
 30
0.000000
 11
10.596269
 21
7.868630
 31
0.000000
  0
ARC
  8
Default
 62
     5
  6
CONTINUOUS
 10
10.580651
 20
7.910833
 30
0.000000
 40
0.045000
 50
290.307117
 51
290.778822
  0
LINE
  8
Default
 62
     5
  6
CONTINUOUS
 10
10.596616
 20
7.868760
 30
0.000000
 11
11.260755
 21
8.120762
 31
0.000000
  0
LINE
  8
Default
 62
     5
  6
CONTINUOUS
 10
11.260789
 20
8.120775
 30
0.000000
 11
11.371002
 21
8.162696
 31
0.000000
  0
ARC
  8
Default
 62
     5
  6
CONTINUOUS
 10
11.355003
 20
8.204756
 30
0.000000
 40
0.045000
 50
290.824973
 51
302.887283
  0
ARC
  8
Default
 62
     5
  6
CONTINUOUS
 10
11.396729
 20
8.140226
 30
0.000000
 40
0.031844
 50
86.615306
 51
122.887283
  0
ARC
  8
Default
 62
     5
  6
CONTINUOUS
 10
11.488250
 20
8.325396
 30
0.000000
 40
0.177654
 50
239.696650
 51
268.579473
  0
ARC
  8
Default
 62
     5
  6
CONTINUOUS
 10
11.484961
 20
8.192782
 30
0.000000
 40
0.045000
 50
268.579473
 51
279.142175
  0
LINE
  8
Default
 62
     5
  6
CONTINUOUS
 10
11.492111
 20
8.148354
 30
0.000000
 11
11.566300
 21
8.160293
 31
0.000000
  0
ARC
  8
Default
 62
     5
  6
CONTINUOUS
 10
11.559150
 20
8.204722
 30
0.000000
 40
0.045000
 50
279.142175
 51
297.092937
  0
LINE
  8
Default
 62
     5
  6
CONTINUOUS
 10
11.579645
 20
8.164660
 30
0.000000
 11
11.614754
 21
8.182621
 31
0.000000
  0
ARC
  8
Default
 62
     5
  6
CONTINUOUS
 10
11.594260
 20
8.222683
 30
0.000000
 40
0.045000
 50
297.092937
 51
313.692963
  0
LINE
  8
Default
 62
     5
  6
CONTINUOUS
 10
11.625346
 20
8.190145
 30
0.000000
 11
11.649081
 21
8.212822
 31
0.000000
  0
ARC
  8
Default
 62
     5
  6
CONTINUOUS
 10
11.617996
 20
8.245359
 30
0.000000
 40
0.045000
 50
313.692963
 51
331.714186
  0
ARC
  8
Default
 62
     5
  6
CONTINUOUS
 10
11.932104
 20
8.076330
 30
0.000000
 40
0.311701
 50
129.496328
 51
151.714186
  0
ARC
  8
Default
 62
     5
  6
CONTINUOUS
 10
11.924628
 20
7.999592
 30
0.000000
 40
0.370206
 50
87.796983
 51
121.018718
  0
LINE
  8
Default
 62
     5
  6
CONTINUOUS
 10
11.938858
 20
8.369524
 30
0.000000
 11
12.065569
 21
8.351723
 31
0.000000
  0
ARC
  8
Default
 62
     5
  6
CONTINUOUS
 10
12.071829
 20
8.396285
 30
0.000000
 40
0.045000
 50
262.002697
 51
272.637617
  0
ARC
  8
Default
 62
     5
  6
CONTINUOUS
 10
12.057215
 20
8.713521
 30
0.000000
 40
0.362573
 50
272.637617
 51
297.212050
  0
LINE
  8
Default
 62
     5
  6
CONTINUOUS
 10
12.223014
 20
8.391078
 30
0.000000
 11
13.288538
 21
8.831061
 31
0.000000
  0
ARC
  8
Default
 62
     5
  6
CONTINUOUS
 10
13.271363
 20
8.872654
 30
0.000000
 40
0.045000
 50
292.437017
 51
292.668292
  0
LINE
  8
Default
 62
     5
  6
CONTINUOUS
 10
13.288706
 20
8.831131
 30
0.000000
 11
13.698190
 21
9.002155
 31
0.000000
  0
LINE
  8
Default
 62
     5
  6
CONTINUOUS
 10
13.698190
 20
9.002155
 30
0.000000
 11
13.912187
 21
9.091160
 31
0.000000
  0
ARC
  8
Default
 62
     5
  6
CONTINUOUS
 10
13.802189
 20
9.442142
 30
0.000000
 40
0.367815
 50
287.401177
 51
310.222658
  0
LINE
  8
Default
 62
     5
  6
CONTINUOUS
 10
14.039709
 20
9.161300
 30
0.000000
 11
14.160577
 21
9.217978
 31
0.000000
  0
LINE
  8
Default
 62
     5
  6
CONTINUOUS
 10
14.160577
 20
9.217978
 30
0.000000
 11
14.668055
 21
9.421185
 31
0.000000
  0
ARC
  8
Default
 62
     5
  6
CONTINUOUS
 10
14.651327
 20
9.462961
 30
0.000000
 40
0.045000
 50
291.822444
 51
302.133164
  0
ARC
  8
Default
 62
     5
  6
CONTINUOUS
 10
14.730187
 20
9.337410
 30
0.000000
 40
0.103263
 50
19.239660
 51
122.133164
  0
LINE
  8
Default
 62
     5
  6
CONTINUOUS
 10
14.827682
 20
9.371437
 30
0.000000
 11
14.844593
 21
9.302473
 31
0.000000
  0
ARC
  8
Default
 62
     5
  6
CONTINUOUS
 10
14.888298
 20
9.313190
 30
0.000000
 40
0.045000
 50
193.777631
 51
209.857825
  0
ARC
  8
Default
 62
     5
  6
CONTINUOUS
 10
14.788887
 20
9.256123
 30
0.000000
 40
0.069626
 50
346.441921
 51
389.857825
  0
ARC
  8
Default
 62
     5
  6
CONTINUOUS
 10
14.900319
 20
9.229251
 30
0.000000
 40
0.045000
 50
166.441921
 51
215.942528
  0
LINE
  8
Default
 62
     5
  6
CONTINUOUS
 10
14.863886
 20
9.202837
 30
0.000000
 11
14.900228
 21
9.152711
 31
0.000000
  0
ARC
  8
Default
 62
     5
  6
CONTINUOUS
 10
14.936661
 20
9.179125
 30
0.000000
 40
0.045000
 50
215.942528
 51
223.695361
  0
LINE
  8
Default
 62
     5
  6
CONTINUOUS
 10
14.904125
 20
9.148038
 30
0.000000
 11
14.924145
 21
9.127084
 31
0.000000
  0
ARC
  8
Default
 62
     5
  6
CONTINUOUS
 10
14.970333
 20
9.167169
 30
0.000000
 40
0.061156
 50
220.953580
 51
330.381377
  0
ARC
  8
Default
 62
     5
  6
CONTINUOUS
 10
14.984378
 20
9.159184
 30
0.000000
 40
0.045000
 50
330.381377
 51
364.300194
  0
LINE
  8
Default
 62
     5
  6
CONTINUOUS
 10
15.029251
 20
9.162558
 30
0.000000
 11
15.023767
 21
9.235489
 31
0.000000
  0
LINE
  8
Default
 62
     5
  6
CONTINUOUS
 10
15.023767
 20
9.235489
 30
0.000000
 11
15.034324
 21
9.282169
 31
0.000000
  0
LINE
  8
Default
 62
     5
  6
CONTINUOUS
 10
15.034324
 20
9.282169
 30
0.000000
 11
15.042255
 21
9.265106
 31
0.000000
  0
LINE
  8
Default
 62
     5
  6
CONTINUOUS
 10
15.042255
 20
9.265106
 30
0.000000
 11
15.098003
 21
9.125548
 31
0.000000
  0
ARC
  8
Default
 62
     5
  6
CONTINUOUS
 10
15.139792
 20
9.142241
 30
0.000000
 40
0.045000
 50
201.774621
 51
216.273015
  0
LINE
  8
Default
 62
     5
  6
CONTINUOUS
 10
15.103513
 20
9.115617
 30
0.000000
 11
15.125278
 21
9.085958
 31
0.000000
  0
ARC
  8
Default
 62
     5
  6
CONTINUOUS
 10
15.172795
 20
9.112109
 30
0.000000
 40
0.054238
 50
208.826024
 51
353.018909
  0
LINE
  8
Default
 62
     5
  6
CONTINUOUS
 10
15.226631
 20
9.105517
 30
0.000000
 11
15.232136
 21
9.132867
 31
0.000000
  0
ARC
  8
Default
 62
     5
  6
CONTINUOUS
 10
15.188021
 20
9.141747
 30
0.000000
 40
0.045000
 50
348.617755
 51
367.251098
  0
LINE
  8
Default
 62
     5
  6
CONTINUOUS
 10
15.232662
 20
9.147427
 30
0.000000
 11
15.228237
 21
9.182200
 31
0.000000
  0
LINE
  8
Default
 62
     5
  6
CONTINUOUS
 10
15.228237
 20
9.182200
 30
0.000000
 11
15.253896
 21
9.148004
 31
0.000000
  0
ARC
  8
Default
 62
     5
  6
CONTINUOUS
 10
15.289890
 20
9.175011
 30
0.000000
 40
0.045000
 50
216.882118
 51
275.327046
  0
ARC
  8
Default
 62
     5
  6
CONTINUOUS
 10
15.286215
 20
9.214422
 30
0.000000
 40
0.084582
 50
275.327046
 51
330.707358
  0
LINE
  8
Default
 62
     5
  6
CONTINUOUS
 10
15.359982
 20
9.173039
 30
0.000000
 11
15.370866
 21
9.108499
 31
0.000000
  0
ARC
  8
Default
 62
     5
  6
CONTINUOUS
 10
15.415240
 20
9.115982
 30
0.000000
 40
0.045000
 50
189.572707
 51
213.344440
  0
ARC
  8
Default
 62
     5
  6
CONTINUOUS
 10
15.644945
 20
9.267126
 30
0.000000
 40
0.319971
 50
213.344440
 51
236.516662
  0
ARC
  8
Default
 62
     5
  6
CONTINUOUS
 10
15.493245
 20
9.037787
 30
0.000000
 40
0.045000
 50
236.516662
 51
243.911256
  0
ARC
  8
Default
 62
     5
  6
CONTINUOUS
 10
15.535235
 20
9.123541
 30
0.000000
 40
0.140482
 50
243.911256
 51
285.004527
  0
ARC
  8
Default
 62
     5
  6
CONTINUOUS
 10
15.559955
 20
9.031315
 30
0.000000
 40
0.045000
 50
285.004527
 51
287.043393
  0
LINE
  8
Default
 62
     5
  6
CONTINUOUS
 10
15.573144
 20
8.988291
 30
0.000000
 11
15.633832
 21
8.872427
 31
0.000000
  0
ARC
  8
Default
 62
     5
  6
CONTINUOUS
 10
15.673695
 20
8.893306
 30
0.000000
 40
0.045000
 50
207.644702
 51
213.754451
  0
LINE
  8
Default
 62
     5
  6
CONTINUOUS
 10
15.636280
 20
8.868303
 30
0.000000
 11
15.764240
 21
8.676829
 31
0.000000
  0
ARC
  8
Default
 62
     5
  6
CONTINUOUS
 10
15.801654
 20
8.701833
 30
0.000000
 40
0.045000
 50
213.754451
 51
225.952993
  0
LINE
  8
Default
 62
     5
  6
CONTINUOUS
 10
15.770368
 20
8.669488
 30
0.000000
 11
15.833805
 21
8.608128
 31
0.000000
  0
ARC
  8
Default
 62
     5
  6
CONTINUOUS
 10
15.865091
 20
8.640472
 30
0.000000
 40
0.045000
 50
225.952993
 51
249.797999
  0
LINE
  8
Default
 62
     5
  6
CONTINUOUS
 10
15.849551
 20
8.598241
 30
0.000000
 11
15.872814
 21
8.589681
 31
0.000000
  0
ARC
  8
Default
 62
     5
  6
CONTINUOUS
 10
15.907870
 20
8.641755
 30
0.000000
 40
0.062775
 50
236.052255
 51
277.860721
  0
LINE
  8
Default
 62
     5
  6
CONTINUOUS
 10
15.916456
 20
8.579570
 30
0.000000
 11
16.017252
 21
8.392292
 31
0.000000
  0
ARC
  8
Default
 62
     5
  6
CONTINUOUS
 10
16.056877
 20
8.413619
 30
0.000000
 40
0.045000
 50
208.289909
 51
209.445673
  0
LINE
  8
Default
 62
     5
  6
CONTINUOUS
 10
16.017690
 20
8.391497
 30
0.000000
 11
16.243637
 21
7.991252
 31
0.000000
  0
ARC
  8
Default
 62
     5
  6
CONTINUOUS
 10
16.282824
 20
8.013374
 30
0.000000
 40
0.045000
 50
209.445673
 51
212.509848
  0
LINE
  8
Default
 62
     5
  6
CONTINUOUS
 10
16.244876
 20
7.989189
 30
0.000000
 11
16.701322
 21
7.272983
 31
0.000000
  0
ARC
  8
Default
 62
     5
  6
CONTINUOUS
 10
16.739270
 20
7.297168
 30
0.000000
 40
0.045000
 50
212.509848
 51
214.336255
  0
ARC
  8
Default
 62
     5
  6
CONTINUOUS
 10
39.591283
 20
22.906952
 30
0.000000
 40
27.719533
 50
214.336255
 51
217.606983
  0
ARC
  8
Default
 62
     5
  6
CONTINUOUS
 10
19.227370
 20
7.044125
 30
0.000000
 40
1.911894
 50
213.411756
 51
225.491783
  0
LINE
  8
Default
 62
     5
  6
CONTINUOUS
 10
17.887110
 20
5.680657
 30
0.000000
 11
18.190701
 21
5.347952
 31
0.000000
  0
ARC
  8
Default
 62
     5
  6
CONTINUOUS
 10
5.920221
 20
-4.422735
 30
0.000000
 40
15.685375
 50
34.860732
 51
38.529463
  0
LINE
  8
Default
 62
     5
  6
CONTINUOUS
 10
18.790759
 20
4.542769
 30
0.000000
 11
19.007932
 21
4.231002
 31
0.000000
  0
LINE
  8
Default
 62
     5
  6
CONTINUOUS
 10
19.007932
 20
4.231002
 30
0.000000
 11
19.036427
 21
4.183854
 31
0.000000
  0
ARC
  8
Default
 62
     5
  6
CONTINUOUS
 10
19.074939
 20
4.207130
 30
0.000000
 40
0.045000
 50
211.146957
 51
229.061483
  0
LINE
  8
Default
 62
     5
  6
CONTINUOUS
 10
19.045453
 20
4.173136
 30
0.000000
 11
19.093732
 21
4.131259
 31
0.000000
  0
ARC
  8
Default
 62
     5
  6
CONTINUOUS
 10
19.123218
 20
4.165253
 30
0.000000
 40
0.045000
 50
229.061483
 51
230.802055
  0
LINE
  8
Default
 62
     5
  6
CONTINUOUS
 10
19.094778
 20
4.130379
 30
0.000000
 11
19.171109
 21
4.068130
 31
0.000000
  0
ARC
  8
Default
 62
     5
  6
CONTINUOUS
 10
19.561040
 20
4.493981
 30
0.000000
 40
0.577404
 50
227.521224
 51
253.873471
  0
ARC
  8
Default
 62
     5
  6
CONTINUOUS
 10
19.433289
 20
4.033144
 30
0.000000
 40
0.099357
 50
250.827919
 51
322.453193
  0
ARC
  8
Default
 62
     5
  6
CONTINUOUS
 10
19.476387
 20
4.000018
 30
0.000000
 40
0.045000
 50
322.453193
 51
338.757781
  0
LINE
  8
Default
 62
     5
  6
CONTINUOUS
 10
19.518329
 20
3.983714
 30
0.000000
 11
19.539331
 21
4.037742
 31
0.000000
  0
ARC
  8
Default
 62
     5
  6
CONTINUOUS
 10
19.497388
 20
4.054046
 30
0.000000
 40
0.045000
 50
338.757781
 51
345.631346
  0
ARC
  8
Default
 62
     5
  6
CONTINUOUS
 10
19.343930
 20
4.093358
 30
0.000000
 40
0.203414
 50
345.631346
 51
387.629452
  0
LINE
  8
Default
 62
     5
  6
CONTINUOUS
 10
19.524147
 20
4.187691
 30
0.000000
 11
19.499653
 21
4.239357
 31
0.000000
  0
ARC
  8
Default
 62
     5
  6
CONTINUOUS
 10
19.458991
 20
4.220080
 30
0.000000
 40
0.045000
 50
25.365618
 51
40.195832
  0
ARC
  8
Default
 62
     5
  6
CONTINUOUS
 10
19.727931
 20
4.447318
 30
0.000000
 40
0.307089
 50
210.308837
 51
220.195832
  0
LINE
  8
Default
 62
     5
  6
CONTINUOUS
 10
19.462816
 20
4.292343
 30
0.000000
 11
19.396502
 21
4.405787
 31
0.000000
  0
LINE
  8
Default
 62
     5
  6
CONTINUOUS
 10
19.396502
 20
4.405787
 30
0.000000
 11
19.204291
 21
4.738023
 31
0.000000
  0
ARC
  8
Default
 62
     5
  6
CONTINUOUS
 10
19.165340
 20
4.715488
 30
0.000000
 40
0.045000
 50
30.050965
 51
30.595143
  0
LINE
  8
Default
 62
     5
  6
CONTINUOUS
 10
19.204075
 20
4.738392
 30
0.000000
 11
18.982519
 21
5.113094
 31
0.000000
  0
LINE
  8
Default
 62
     5
  6
CONTINUOUS
 10
18.982519
 20
5.113094
 30
0.000000
 11
19.172327
 21
4.899016
 31
0.000000
  0
LINE
  8
Default
 62
     5
  6
CONTINUOUS
 10
19.172327
 20
4.899016
 30
0.000000
 11
19.467106
 21
4.563118
 31
0.000000
  0
ARC
  8
Default
 62
     5
  6
CONTINUOUS
 10
19.500929
 20
4.592800
 30
0.000000
 40
0.045000
 50
221.269679
 51
342.572716
  0
LINE
  8
Default
 62
     5
  6
CONTINUOUS
 10
19.543863
 20
4.579323
 30
0.000000
 11
19.551201
 21
4.602698
 31
0.000000
  0
ARC
  8
Default
 62
     5
  6
CONTINUOUS
 10
20.278299
 20
4.786131
 30
0.000000
 40
0.749880
 50
194.159181
 51
210.244921
  0
ARC
  8
Default
 62
     5
  6
CONTINUOUS
 10
19.669367
 20
4.431085
 30
0.000000
 40
0.045000
 50
210.244921
 51
213.292363
  0
ARC
  8
Default
 62
     5
  6
CONTINUOUS
 10
24.043821
 20
7.303729
 30
0.000000
 40
5.278348
 50
213.292363
 51
222.540576
  0
LINE
  8
Default
 62
     5
  6
CONTINUOUS
 10
20.154741
 20
3.734974
 30
0.000000
 11
20.445223
 21
3.418418
 31
0.000000
  0
ARC
  8
Default
 62
     5
  6
CONTINUOUS
 10
20.478379
 20
3.448843
 30
0.000000
 40
0.045000
 50
222.540576
 51
224.172881
  0
LINE
  8
Default
 62
     5
  6
CONTINUOUS
 10
20.446104
 20
3.417486
 30
0.000000
 11
20.618076
 21
3.240475
 31
0.000000
  0
ARC
  8
Default
 62
     5
  6
CONTINUOUS
 10
20.650352
 20
3.271833
 30
0.000000
 40
0.045000
 50
224.172881
 51
225.709859
  0
ARC
  8
Default
 62
     5
  6
CONTINUOUS
 10
21.008123
 20
3.638581
 30
0.000000
 40
0.557352
 50
225.709859
 51
250.379080
  0
LINE
  8
Default
 62
     5
  6
CONTINUOUS
 10
20.820967
 20
3.113591
 30
0.000000
 11
20.921344
 21
3.072663
 31
0.000000
  0
ARC
  8
Default
 62
     5
  6
CONTINUOUS
 10
21.030057
 20
3.300484
 30
0.000000
 40
0.252430
 50
244.490310
 51
281.104713
  0
ARC
  8
Default
 62
     5
  6
CONTINUOUS
 10
21.070008
 20
3.096938
 30
0.000000
 40
0.045000
 50
281.104713
 51
313.567755
  0
LINE
  8
Default
 62
     5
  6
CONTINUOUS
 10
21.101023
 20
3.064333
 30
0.000000
 11
21.118922
 21
3.081359
 31
0.000000
  0
ARC
  8
Default
 62
     5
  6
CONTINUOUS
 10
21.087907
 20
3.113964
 30
0.000000
 40
0.045000
 50
313.567755
 51
360.319228
  0
LINE
  8
Default
 62
     5
  6
CONTINUOUS
 10
21.132907
 20
3.114215
 30
0.000000
 11
21.132696
 21
3.151968
 31
0.000000
  0
ARC
  8
Default
 62
     5
  6
CONTINUOUS
 10
21.087697
 20
3.151717
 30
0.000000
 40
0.045000
 50
0.319228
 51
18.257472
  0
LINE
  8
Default
 62
     5
  6
CONTINUOUS
 10
21.130432
 20
3.165815
 30
0.000000
 11
21.111274
 21
3.223886
 31
0.000000
  0
ARC
  8
Default
 62
     5
  6
CONTINUOUS
 10
21.068540
 20
3.209788
 30
0.000000
 40
0.045000
 50
18.257472
 51
30.433305
  0
LINE
  8
Default
 62
     5
  6
CONTINUOUS
 10
21.107340
 20
3.232582
 30
0.000000
 11
21.054625
 21
3.322313
 31
0.000000
  0
ARC
  8
Default
 62
     5
  6
CONTINUOUS
 10
21.015825
 20
3.299518
 30
0.000000
 40
0.045000
 50
30.433305
 51
38.802933
  0
LINE
  8
Default
 62
     5
  6
CONTINUOUS
 10
21.050894
 20
3.327717
 30
0.000000
 11
20.805518
 21
3.632871
 31
0.000000
  0
ARC
  8
Default
 62
     5
  6
CONTINUOUS
 10
20.770449
 20
3.604672
 30
0.000000
 40
0.045000
 50
38.802933
 51
39.512411
  0
LINE
  8
Default
 62
     5
  6
CONTINUOUS
 10
20.805166
 20
3.633303
 30
0.000000
 11
20.212016
 21
4.352534
 31
0.000000
  0
ARC
  8
Default
 62
     5
  6
CONTINUOUS
 10
20.177299
 20
4.323903
 30
0.000000
 40
0.045000
 50
39.512411
 51
40.768064
  0
ARC
  8
Default
 62
     5
  6
CONTINUOUS
 10
28.628635
 20
11.610684
 30
0.000000
 40
11.113953
 50
215.741259
 51
220.768064
  0
LINE
  8
Default
 62
     5
  6
CONTINUOUS
 10
19.607849
 20
5.118737
 30
0.000000
 11
18.704121
 21
6.374498
 31
0.000000
  0
ARC
  8
Default
 62
     5
  6
CONTINUOUS
 10
18.667596
 20
6.348212
 30
0.000000
 40
0.045000
 50
35.741259
 51
36.767315
  0
ARC
  8
Default
 62
     5
  6
CONTINUOUS
 10
34.321543
 20
18.044939
 30
0.000000
 40
19.496225
 50
212.456538
 51
216.767315
  0
ARC
  8
Default
 62
     5
  6
CONTINUOUS
 10
17.832681
 20
7.557951
 30
0.000000
 40
0.045000
 50
32.456538
 51
33.642292
  0
LINE
  8
Default
 62
     5
  6
CONTINUOUS
 10
17.870144
 20
7.582881
 30
0.000000
 11
17.387609
 21
8.307993
 31
0.000000
  0
LINE
  8
Default
 62
     5
  6
CONTINUOUS
 10
17.387609
 20
8.307993
 30
0.000000
 11
17.288120
 21
8.465777
 31
0.000000
  0
LINE
  8
Default
 62
     5
  6
CONTINUOUS
 10
17.288120
 20
8.465777
 30
0.000000
 11
17.222001
 21
8.608475
 31
0.000000
  0
ARC
  8
Default
 62
     5
  6
CONTINUOUS
 10
15.002511
 20
7.580065
 30
0.000000
 40
2.446173
 50
24.860851
 51
34.895739
  0
ARC
  8
Default
 62
     5
  6
CONTINUOUS
 10
16.971940
 20
8.953739
 30
0.000000
 40
0.045000
 50
34.895739
 51
38.206235
  0
LINE
  8
Default
 62
     5
  6
CONTINUOUS
 10
17.007300
 20
8.981571
 30
0.000000
 11
16.955870
 21
9.046913
 31
0.000000
  0
ARC
  8
Default
 62
     5
  6
CONTINUOUS
 10
16.920509
 20
9.019081
 30
0.000000
 40
0.045000
 50
38.206235
 51
40.993672
  0
ARC
  8
Default
 62
     5
  6
CONTINUOUS
 10
17.037109
 20
9.120417
 30
0.000000
 40
0.109481
 50
184.263979
 51
220.993672
  0
ARC
  8
Default
 62
     5
  6
CONTINUOUS
 10
16.883055
 20
9.108931
 30
0.000000
 40
0.045000
 50
4.263979
 51
7.797798
  0
ARC
  8
Default
 62
     5
  6
CONTINUOUS
 10
15.682239
 20
8.944487
 30
0.000000
 40
1.257024
 50
7.797798
 51
18.839114
  0
ARC
  8
Default
 62
     5
  6
CONTINUOUS
 10
14.924917
 20
8.827824
 30
0.000000
 40
2.015914
 50
15.023941
 51
25.518148
  0
LINE
  8
Default
 62
     5
  6
CONTINUOUS
 10
16.654530
 20
9.894383
 30
0.000000
 11
16.744177
 21
9.696274
 31
0.000000
  0
ARC
  8
Default
 62
     5
  6
CONTINUOUS
 10
16.613532
 20
9.875831
 30
0.000000
 40
0.045000
 50
24.347366
 51
37.431485
  0
ARC
  8
Default
 62
     5
  6
CONTINUOUS
 10
16.841229
 20
10.050117
 30
0.000000
 40
0.241743
 50
195.844979
 51
217.431485
  0
ARC
  8
Default
 62
     5
  6
CONTINUOUS
 10
16.565381
 20
9.971826
 30
0.000000
 40
0.045000
 50
15.844979
 51
30.999135
  0
LINE
  8
Default
 62
     5
  6
CONTINUOUS
 10
16.603954
 20
9.995002
 30
0.000000
 11
16.575428
 21
10.042479
 31
0.000000
  0
ARC
  8
Default
 62
     5
  6
CONTINUOUS
 10
16.536855
 20
10.019302
 30
0.000000
 40
0.045000
 50
30.999135
 51
32.333532
  0
ARC
  8
Default
 62
     5
  6
CONTINUOUS
 10
16.541245
 20
10.073268
 30
0.000000
 40
0.045000
 50
318.365225
 51
344.625262
  0
ARC
  8
Default
 62
     5
  6
CONTINUOUS
 10
16.040671
 20
10.210911
 30
0.000000
 40
0.564154
 50
344.625262
 51
375.086749
  0
ARC
  8
Default
 62
     5
  6
CONTINUOUS
 10
15.710499
 20
10.185023
 30
0.000000
 40
0.891768
 50
11.168242
 51
24.590599
  0
LINE
  8
Default
 62
     5
  6
CONTINUOUS
 10
16.521388
 20
10.556116
 30
0.000000
 11
16.516358
 21
10.567107
 31
0.000000
  0
ARC
  8
Default
 62
     5
  6
CONTINUOUS
 10
16.483914
 20
10.643067
 30
0.000000
 40
0.082598
 50
293.128327
 51
303.601523
  0
LINE
  8
Default
 62
     5
  6
CONTINUOUS
 10
16.529625
 20
10.574270
 30
0.000000
 11
16.575921
 21
10.600140
 31
0.000000
  0
ARC
  8
Default
 62
     5
  6
CONTINUOUS
 10
16.553971
 20
10.639423
 30
0.000000
 40
0.045000
 50
299.195630
 51
322.040864
  0
LINE
  8
Default
 62
     5
  6
CONTINUOUS
 10
16.589451
 20
10.611744
 30
0.000000
 11
16.646737
 21
10.685174
 31
0.000000
  0
LINE
  8
Default
 62
     5
  6
CONTINUOUS
 10
16.646737
 20
10.685174
 30
0.000000
 11
16.647021
 21
10.684731
 31
0.000000
  0
ARC
  8
Default
 62
     5
  6
CONTINUOUS
 10
17.154774
 20
11.010258
 30
0.000000
 40
0.603143
 50
212.664376
 51
235.110690
  0
ARC
  8
Default
 62
     5
  6
CONTINUOUS
 10
16.835521
 20
10.552436
 30
0.000000
 40
0.045000
 50
235.110690
 51
246.152222
  0
LINE
  8
Default
 62
     5
  6
CONTINUOUS
 10
16.817327
 20
10.511278
 30
0.000000
 11
16.870394
 21
10.487820
 31
0.000000
  0
ARC
  8
Default
 62
     5
  6
CONTINUOUS
 10
16.888588
 20
10.528978
 30
0.000000
 40
0.045000
 50
246.152222
 51
258.172019
  0
LINE
  8
Default
 62
     5
  6
CONTINUOUS
 10
16.879364
 20
10.484933
 30
0.000000
 11
16.937924
 21
10.472670
 31
0.000000
  0
ARC
  8
Default
 62
     5
  6
CONTINUOUS
 10
16.947147
 20
10.516714
 30
0.000000
 40
0.045000
 50
258.172019
 51
273.122092
  0
ARC
  8
Default
 62
     5
  6
CONTINUOUS
 10
16.940436
 20
10.639753
 30
0.000000
 40
0.168221
 50
273.122092
 51
318.802578
  0
ARC
  8
Default
 62
     5
  6
CONTINUOUS
 10
16.659500
 20
10.900169
 30
0.000000
 40
0.551243
 50
317.668718
 51
339.712747
  0
LINE
  8
Default
 62
     5
  6
CONTINUOUS
 10
17.176547
 20
10.709038
 30
0.000000
 11
17.186073
 21
10.702234
 31
0.000000
  0
ARC
  8
Default
 62
     5
  6
CONTINUOUS
 10
17.212228
 20
10.738852
 30
0.000000
 40
0.045000
 50
234.462732
 51
246.198882
  0
LINE
  8
Default
 62
     5
  6
CONTINUOUS
 10
17.194068
 20
10.697679
 30
0.000000
 11
17.289968
 21
10.655380
 31
0.000000
  0
ARC
  8
Default
 62
     5
  6
CONTINUOUS
 10
17.390913
 20
10.884239
 30
0.000000
 40
0.250133
 50
246.198882
 51
310.500026
  0
ARC
  8
Default
 62
     5
  6
CONTINUOUS
 10
17.524136
 20
10.728255
 30
0.000000
 40
0.045000
 50
310.500026
 51
325.243726
  0
LINE
  8
Default
 62
     5
  6
CONTINUOUS
 10
17.561107
 20
10.702601
 30
0.000000
 11
17.614811
 21
10.779997
 31
0.000000
  0
ARC
  8
Default
 62
     5
  6
CONTINUOUS
 10
17.577839
 20
10.805651
 30
0.000000
 40
0.045000
 50
325.243726
 51
338.547441
  0
LINE
  8
Default
 62
     5
  6
CONTINUOUS
 10
17.619722
 20
10.789193
 30
0.000000
 11
17.630464
 21
10.816530
 31
0.000000
  0
LINE
  8
Default
 62
     5
  6
CONTINUOUS
 10
17.630464
 20
10.816530
 30
0.000000
 11
17.669414
 21
10.813273
 31
0.000000
  0
ARC
  8
Default
 62
     5
  6
CONTINUOUS
 10
17.673163
 20
10.858117
 30
0.000000
 40
0.045000
 50
265.220478
 51
270.033192
  0
ARC
  8
Default
 62
     5
  6
CONTINUOUS
 10
17.673031
 20
11.087052
 30
0.000000
 40
0.273935
 50
270.033192
 51
354.758685
  0
LINE
  8
Default
 62
     5
  6
CONTINUOUS
 10
17.945821
 20
11.062028
 30
0.000000
 11
17.956149
 21
11.104823
 31
0.000000
  0
ARC
  8
Default
 62
     5
  6
CONTINUOUS
 10
17.912405
 20
11.115380
 30
0.000000
 40
0.045000
 50
346.431709
 51
358.586050
  0
LINE
  8
Default
 62
     5
  6
CONTINUOUS
 10
17.957391
 20
11.114270
 30
0.000000
 11
17.957840
 21
11.132467
 31
0.000000
  0
LINE
  8
Default
 62
     5
  6
CONTINUOUS
 10
17.957840
 20
11.132467
 30
0.000000
 11
18.023022
 21
11.149796
 31
0.000000
  0
ARC
  8
Default
 62
     5
  6
CONTINUOUS
 10
18.011461
 20
11.193285
 30
0.000000
 40
0.045000
 50
284.887462
 51
302.424068
  0
LINE
  8
Default
 62
     5
  6
CONTINUOUS
 10
18.035589
 20
11.155301
 30
0.000000
 11
18.105260
 21
11.199556
 31
0.000000
  0
ARC
  8
Default
 62
     5
  6
CONTINUOUS
 10
18.081132
 20
11.237541
 30
0.000000
 40
0.045000
 50
302.424068
 51
320.557479
  0
LINE
  8
Default
 62
     5
  6
CONTINUOUS
 10
18.115884
 20
11.208952
 30
0.000000
 11
18.163623
 21
11.266983
 31
0.000000
  0
ARC
  8
Default
 62
     5
  6
CONTINUOUS
 10
18.128871
 20
11.295572
 30
0.000000
 40
0.045000
 50
320.557479
 51
327.498270
  0
ARC
  8
Default
 62
     5
  6
CONTINUOUS
 10
17.925880
 20
11.424900
 30
0.000000
 40
0.285689
 50
327.498270
 51
353.072949
  0
ARC
  8
Default
 62
     5
  6
CONTINUOUS
 10
18.164812
 20
11.395871
 30
0.000000
 40
0.045000
 50
353.072949
 51
355.642731
  0
LINE
  8
Default
 62
     5
  6
CONTINUOUS
 10
18.209682
 20
11.392452
 30
0.000000
 11
18.215133
 21
11.463998
 31
0.000000
  0
LINE
  8
Default
 62
     5
  6
CONTINUOUS
 10
18.215133
 20
11.463998
 30
0.000000
 11
18.230496
 21
11.470643
 31
0.000000
  0
ARC
  8
Default
 62
     5
  6
CONTINUOUS
 10
18.065076
 20
11.853043
 30
0.000000
 40
0.416645
 50
293.392454
 51
323.233581
  0
ARC
  8
Default
 62
     5
  6
CONTINUOUS
 10
18.144804
 20
11.803253
 30
0.000000
 40
0.323070
 50
321.843940
 51
359.669069
  0
LINE
  8
Default
 62
     5
  6
CONTINUOUS
 10
18.467868
 20
11.801387
 30
0.000000
 11
18.472356
 21
11.801387
 31
0.000000
  0
ARC
  8
Default
 62
     5
  6
CONTINUOUS
 10
18.472356
 20
11.846387
 30
0.000000
 40
0.045000
 50
270.000000
 51
287.726581
  0
LINE
  8
Default
 62
     5
  6
CONTINUOUS
 10
18.486057
 20
11.803523
 30
0.000000
 11
18.541140
 21
11.821131
 31
0.000000
  0
ARC
  8
Default
 62
     5
  6
CONTINUOUS
 10
18.527438
 20
11.863994
 30
0.000000
 40
0.045000
 50
287.726581
 51
308.335369
  0
LINE
  8
Default
 62
     5
  6
CONTINUOUS
 10
18.555350
 20
11.828696
 30
0.000000
 11
18.623909
 21
11.882909
 31
0.000000
  0
ARC
  8
Default
 62
     5
  6
CONTINUOUS
 10
18.595997
 20
11.918207
 30
0.000000
 40
0.045000
 50
308.335369
 51
324.291937
  0
LINE
  8
Default
 62
     5
  6
CONTINUOUS
 10
18.632537
 20
11.891942
 30
0.000000
 11
18.728847
 21
12.025933
 31
0.000000
  0
ARC
  8
Default
 62
     5
  6
CONTINUOUS
 10
18.692307
 20
12.052197
 30
0.000000
 40
0.045000
 50
324.291937
 51
325.713495
  0
LINE
  8
Default
 62
     5
  6
CONTINUOUS
 10
18.729488
 20
12.026847
 30
0.000000
 11
18.736752
 21
12.037501
 31
0.000000
  0
LINE
  8
Default
 62
     5
  6
CONTINUOUS
 10
18.736752
 20
12.037501
 30
0.000000
 11
18.751413
 21
12.035423
 31
0.000000
  0
ARC
  8
Default
 62
     5
  6
CONTINUOUS
 10
18.757728
 20
12.079978
 30
0.000000
 40
0.045000
 50
261.932474
 51
283.405564
  0
ARC
  8
Default
 62
     5
  6
CONTINUOUS
 10
18.713378
 20
12.266061
 30
0.000000
 40
0.236295
 50
283.405564
 51
311.062142
  0
ARC
  8
Default
 62
     5
  6
CONTINUOUS
 10
18.839035
 20
12.121825
 30
0.000000
 40
0.045000
 50
311.062142
 51
317.787153
  0
ARC
  8
Default
 62
     5
  6
CONTINUOUS
 10
18.274911
 20
12.633572
 30
0.000000
 40
0.806656
 50
317.787153
 51
330.427238
  0
ARC
  8
Default
 62
     5
  6
CONTINUOUS
 10
18.699601
 20
12.437226
 30
0.000000
 40
0.342597
 50
323.919504
 51
339.262917
  0
ARC
  8
Default
 62
     5
  6
CONTINUOUS
 10
18.967467
 20
12.541139
 30
0.000000
 40
0.231265
 50
283.130160
 51
306.506024
  0
ARC
  8
Default
 62
     5
  6
CONTINUOUS
 10
19.078278
 20
12.391420
 30
0.000000
 40
0.045000
 50
306.506024
 51
315.969658
  0
LINE
  8
Default
 62
     5
  6
CONTINUOUS
 10
19.110632
 20
12.360143
 30
0.000000
 11
19.174610
 21
12.426325
 31
0.000000
  0
ARC
  8
Default
 62
     5
  6
CONTINUOUS
 10
19.142257
 20
12.457601
 30
0.000000
 40
0.045000
 50
315.969658
 51
322.897244
  0
ARC
  8
Default
 62
     5
  6
CONTINUOUS
 10
18.929560
 20
12.618479
 30
0.000000
 40
0.311686
 50
322.897244
 51
341.299707
  0
LINE
  8
Default
 62
     5
  6
CONTINUOUS
 10
19.224792
 20
12.518547
 30
0.000000
 11
19.236311
 21
12.544630
 31
0.000000
  0
LINE
  8
Default
 62
     5
  6
CONTINUOUS
 10
19.236311
 20
12.544630
 30
0.000000
 11
19.265735
 21
12.543998
 31
0.000000
  0
ARC
  8
Default
 62
     5
  6
CONTINUOUS
 10
19.272841
 20
12.874519
 30
0.000000
 40
0.330598
 50
268.768463
 51
294.539050
  0
ARC
  8
Default
 62
     5
  6
CONTINUOUS
 10
19.201259
 20
13.126524
 30
0.000000
 40
0.590895
 50
290.701714
 51
311.007494
  0
ARC
  8
Default
 62
     5
  6
CONTINUOUS
 10
19.559452
 20
12.714579
 30
0.000000
 40
0.045000
 50
311.007494
 51
333.233712
  0
ARC
  8
Default
 62
     5
  6
CONTINUOUS
 10
19.628644
 20
12.679679
 30
0.000000
 40
0.032495
 50
109.708124
 51
153.233712
  0
ARC
  8
Default
 62
     5
  6
CONTINUOUS
 10
19.602510
 20
12.752634
 30
0.000000
 40
0.045000
 50
289.708124
 51
323.438214
  0
LINE
  8
Default
 62
     5
  6
CONTINUOUS
 10
19.638655
 20
12.725828
 30
0.000000
 11
19.667018
 21
12.764072
 31
0.000000
  0
ARC
  8
Default
 62
     5
  6
CONTINUOUS
 10
19.711194
 20
12.723333
 30
0.000000
 40
0.060093
 50
123.438282
 51
137.318052
  0
ARC
  8
Default
 62
     5
  6
CONTINUOUS
 10
19.699475
 20
12.849151
 30
0.000000
 40
0.078637
 50
254.213004
 51
283.382822
  0
LINE
  8
Default
 62
     5
  6
CONTINUOUS
 10
19.717676
 20
12.772649
 30
0.000000
 11
19.743947
 21
12.778900
 31
0.000000
  0
ARC
  8
Default
 62
     5
  6
CONTINUOUS
 10
19.733531
 20
12.822678
 30
0.000000
 40
0.045000
 50
283.382822
 51
290.174588
  0
ARC
  8
Default
 62
     5
  6
CONTINUOUS
 10
19.450501
 20
13.592985
 30
0.000000
 40
0.865657
 50
290.174588
 51
305.889927
  0
ARC
  8
Default
 62
     5
  6
CONTINUOUS
 10
19.931595
 20
12.928133
 30
0.000000
 40
0.045000
 50
305.889927
 51
308.472578
  0
LINE
  8
Default
 62
     5
  6
CONTINUOUS
 10
19.959592
 20
12.892903
 30
0.000000
 11
20.032582
 21
12.950904
 31
0.000000
  0
ARC
  8
Default
 62
     5
  6
CONTINUOUS
 10
19.995955
 20
13.040600
 30
0.000000
 40
0.096885
 50
292.212599
 51
311.087929
  0
LINE
  8
Default
 62
     5
  6
CONTINUOUS
 10
20.059629
 20
12.967577
 30
0.000000
 11
20.100369
 21
12.953758
 31
0.000000
  0
ARC
  8
Default
 62
     5
  6
CONTINUOUS
 10
20.114824
 20
12.996374
 30
0.000000
 40
0.045000
 50
251.263503
 51
260.576981
  0
ARC
  8
Default
 62
     5
  6
CONTINUOUS
 10
20.140200
 20
13.149277
 30
0.000000
 40
0.199995
 50
260.576981
 51
306.514775
  0
ARC
  8
Default
 62
     5
  6
CONTINUOUS
 10
20.109015
 20
13.250903
 30
0.000000
 40
0.302308
 50
299.788781
 51
327.609499
  0
LINE
  8
Default
 62
     5
  6
CONTINUOUS
 10
20.364289
 20
13.088960
 30
0.000000
 11
20.429886
 21
13.181686
 31
0.000000
  0
ARC
  8
Default
 62
     5
  6
CONTINUOUS
 10
20.393149
 20
13.207674
 30
0.000000
 40
0.045000
 50
324.723204
 51
344.486538
  0
ARC
  8
Default
 62
     5
  6
CONTINUOUS
 10
20.455402
 20
13.190394
 30
0.000000
 40
0.019606
 50
100.480879
 51
164.486538
  0
ARC
  8
Default
 62
     5
  6
CONTINUOUS
 10
20.443650
 20
13.253923
 30
0.000000
 40
0.045000
 50
280.480879
 51
283.410135
  0
LINE
  8
Default
 62
     5
  6
CONTINUOUS
 10
20.454086
 20
13.210150
 30
0.000000
 11
20.529423
 21
13.228112
 31
0.000000
  0
ARC
  8
Default
 62
     5
  6
CONTINUOUS
 10
20.518987
 20
13.271885
 30
0.000000
 40
0.045000
 50
283.410135
 51
288.640027
  0
LINE
  8
Default
 62
     5
  6
CONTINUOUS
 10
20.533370
 20
13.229245
 30
0.000000
 11
20.746467
 21
13.301126
 31
0.000000
  0
ARC
  8
Default
 62
     5
  6
CONTINUOUS
 10
20.732084
 20
13.343766
 30
0.000000
 40
0.045000
 50
288.640027
 51
292.703482
  0
ARC
  8
Default
 62
     5
  6
CONTINUOUS
 10
20.536881
 20
13.810334
 30
0.000000
 40
0.550757
 50
292.703482
 51
314.809417
  0
ARC
  8
Default
 62
     5
  6
CONTINUOUS
 10
20.893313
 20
13.451522
 30
0.000000
 40
0.045000
 50
314.809417
 51
332.686996
  0
ARC
  8
Default
 62
     5
  6
CONTINUOUS
 10
20.799062
 20
13.500196
 30
0.000000
 40
0.151077
 50
332.686996
 51
386.793446
  0
LINE
  8
Default
 62
     5
  6
CONTINUOUS
 10
20.933919
 20
13.568298
 30
0.000000
 11
20.937499
 21
13.568882
 31
0.000000
  0
ARC
  8
Default
 62
     5
  6
CONTINUOUS
 10
20.930245
 20
13.613294
 30
0.000000
 40
0.045000
 50
279.276646
 51
281.982464
  0
LINE
  8
Default
 62
     5
  6
CONTINUOUS
 10
20.939587
 20
13.569274
 30
0.000000
 11
21.191499
 21
13.622739
 31
0.000000
  0
ARC
  8
Default
 62
     5
  6
CONTINUOUS
 10
21.182156
 20
13.666759
 30
0.000000
 40
0.045000
 50
281.982464
 51
308.163461
  0
ARC
  8
Default
 62
     5
  6
CONTINUOUS
 10
21.234140
 20
13.600612
 30
0.000000
 40
0.039129
 50
88.905792
 51
128.163461
  0
ARC
  8
Default
 62
     5
  6
CONTINUOUS
 10
21.235747
 20
13.684726
 30
0.000000
 40
0.045000
 50
268.905792
 51
299.069224
  0
LINE
  8
Default
 62
     5
  6
CONTINUOUS
 10
21.257611
 20
13.645394
 30
0.000000
 11
21.299601
 21
13.668736
 31
0.000000
  0
ARC
  8
Default
 62
     5
  6
CONTINUOUS
 10
21.217823
 20
13.873476
 30
0.000000
 40
0.220468
 50
291.773050
 51
319.382588
  0
ARC
  8
Default
 62
     5
  6
CONTINUOUS
 10
21.351016
 20
13.759246
 30
0.000000
 40
0.045000
 50
319.382588
 51
327.659170
  0
ARC
  8
Default
 62
     5
  6
CONTINUOUS
 10
21.305004
 20
13.788379
 30
0.000000
 40
0.099460
 50
327.659170
 51
414.507179
  0
LINE
  8
Default
 62
     5
  6
CONTINUOUS
 10
21.362750
 20
13.869359
 30
0.000000
 11
21.373248
 21
13.870275
 31
0.000000
  0
ARC
  8
Default
 62
     5
  6
CONTINUOUS
 10
21.369333
 20
13.915105
 30
0.000000
 40
0.045000
 50
274.990470
 51
275.737093
  0
LINE
  8
Default
 62
     5
  6
CONTINUOUS
 10
21.373831
 20
13.870330
 30
0.000000
 11
21.586093
 21
13.891655
 31
0.000000
  0
ARC
  8
Default
 62
     5
  6
CONTINUOUS
 10
21.581595
 20
13.936430
 30
0.000000
 40
0.045000
 50
275.737093
 51
282.283679
  0
LINE
  8
Default
 62
     5
  6
CONTINUOUS
 10
21.591169
 20
13.892460
 30
0.000000
 11
21.812600
 21
13.940674
 31
0.000000
  0
ARC
  8
Default
 62
     5
  6
CONTINUOUS
 10
21.803026
 20
13.984644
 30
0.000000
 40
0.045000
 50
282.283679
 51
296.272316
  0
LINE
  8
Default
 62
     5
  6
CONTINUOUS
 10
21.822945
 20
13.944292
 30
0.000000
 11
21.865620
 21
13.965358
 31
0.000000
  0
ARC
  8
Default
 62
     5
  6
CONTINUOUS
 10
21.841180
 20
14.029704
 30
0.000000
 40
0.068831
 50
290.797869
 51
393.737136
  0
ARC
  8
Default
 62
     5
  6
CONTINUOUS
 10
21.738001
 20
13.975275
 30
0.000000
 40
0.185255
 50
30.010304
 51
62.857334
  0
ARC
  8
Default
 62
     5
  6
CONTINUOUS
 10
21.479572
 20
13.592824
 30
0.000000
 40
0.645874
 50
57.928516
 51
67.237486
  0
ARC
  8
Default
 62
     5
  6
CONTINUOUS
 10
21.579776
 20
15.932844
 30
0.000000
 40
1.750860
 50
274.904557
 51
280.243148
  0
ARC
  8
Default
 62
     5
  6
CONTINUOUS
 10
21.883122
 20
14.254172
 30
0.000000
 40
0.045000
 50
280.243148
 51
283.268068
  0
LINE
  8
Default
 62
     5
  6
CONTINUOUS
 10
21.893450
 20
14.210373
 30
0.000000
 11
22.096655
 21
14.258289
 31
0.000000
  0
ARC
  8
Default
 62
     5
  6
CONTINUOUS
 10
22.086328
 20
14.302088
 30
0.000000
 40
0.045000
 50
283.268068
 51
290.867679
  0
LINE
  8
Default
 62
     5
  6
CONTINUOUS
 10
22.102357
 20
14.260040
 30
0.000000
 11
22.193536
 21
14.294799
 31
0.000000
  0
ARC
  8
Default
 62
     5
  6
CONTINUOUS
 10
22.177507
 20
14.336847
 30
0.000000
 40
0.045000
 50
290.867679
 51
291.062668
  0
LINE
  8
Default
 62
     5
  6
CONTINUOUS
 10
22.193679
 20
14.294853
 30
0.000000
 11
22.241604
 21
14.313310
 31
0.000000
  0
ARC
  8
Default
 62
     5
  6
CONTINUOUS
 10
22.225431
 20
14.355304
 30
0.000000
 40
0.045000
 50
291.062668
 51
299.777367
  0
LINE
  8
Default
 62
     5
  6
CONTINUOUS
 10
22.247780
 20
14.316245
 30
0.000000
 11
22.259761
 21
14.323101
 31
0.000000
  0
ARC
  8
Default
 62
     5
  6
CONTINUOUS
 10
22.237413
 20
14.362159
 30
0.000000
 40
0.045000
 50
299.777367
 51
407.646639
  0
LINE
  8
Default
 62
     5
  6
CONTINUOUS
 10
22.267729
 20
14.395414
 30
0.000000
 11
22.256291
 21
14.405842
 31
0.000000
  0
ARC
  8
Default
 62
     5
  6
CONTINUOUS
 10
22.225975
 20
14.372587
 30
0.000000
 40
0.045000
 50
47.646639
 51
61.080653
  0
LINE
  8
Default
 62
     5
  6
CONTINUOUS
 10
22.247736
 20
14.411976
 30
0.000000
 11
22.223455
 21
14.425390
 31
0.000000
  0
ARC
  8
Default
 62
     5
  6
CONTINUOUS
 10
22.201694
 20
14.386001
 30
0.000000
 40
0.045000
 50
61.080653
 51
67.322873
  0
ARC
  8
Default
 62
     5
  6
CONTINUOUS
 10
21.680603
 20
13.138897
 30
0.000000
 40
1.396593
 50
67.322873
 51
82.622442
  0
ARC
  8
Default
 62
     5
  6
CONTINUOUS
 10
21.664397
 20
15.424940
 30
0.000000
 40
0.921986
 50
282.244574
 51
295.159591
  0
ARC
  8
Default
 62
     5
  6
CONTINUOUS
 10
22.037239
 20
14.631157
 30
0.000000
 40
0.045000
 50
295.159591
 51
305.238319
  0
LINE
  8
Default
 62
     5
  6
CONTINUOUS
 10
22.063203
 20
14.594403
 30
0.000000
 11
22.107448
 21
14.625658
 31
0.000000
  0
ARC
  8
Default
 62
     5
  6
CONTINUOUS
 10
22.085369
 20
14.684217
 30
0.000000
 40
0.062582
 50
290.658320
 51
392.723534
  0
ARC
  8
Default
 62
     5
  6
CONTINUOUS
 10
22.100161
 20
14.693721
 30
0.000000
 40
0.045000
 50
32.723534
 51
40.506321
  0
LINE
  8
Default
 62
     5
  6
CONTINUOUS
 10
22.134376
 20
14.722950
 30
0.000000
 11
22.115614
 21
14.744913
 31
0.000000
  0
ARC
  8
Default
 62
     5
  6
CONTINUOUS
 10
22.081399
 20
14.715684
 30
0.000000
 40
0.045000
 50
40.506321
 51
69.969540
  0
LINE
  8
Default
 62
     5
  6
CONTINUOUS
 10
22.096813
 20
14.757962
 30
0.000000
 11
21.983791
 21
14.799167
 31
0.000000
  0
ARC
  8
Default
 62
     5
  6
CONTINUOUS
 10
21.968377
 20
14.756889
 30
0.000000
 40
0.045000
 50
69.969540
 51
77.227792
  0
ARC
  8
Default
 62
     5
  6
CONTINUOUS
 10
21.527028
 20
12.809913
 30
0.000000
 40
2.041372
 50
77.227792
 51
89.017024
  0
ARC
  8
Default
 62
     5
  6
CONTINUOUS
 10
21.291740
 20
16.960657
 30
0.000000
 40
2.126919
 50
277.301424
 51
282.004533
  0
ARC
  8
Default
 62
     5
  6
CONTINUOUS
 10
21.723604
 20
15.165919
 30
0.000000
 40
0.285860
 50
272.107427
 51
299.412963
  0
ARC
  8
Default
 62
     5
  6
CONTINUOUS
 10
21.843495
 20
15.001969
 30
0.000000
 40
0.087498
 50
283.546831
 51
415.459204
  0
ARC
  8
Default
 62
     5
  6
CONTINUOUS
 10
21.761261
 20
14.935880
 30
0.000000
 40
0.190976
 50
46.340547
 51
96.239018
  0
LINE
  8
Default
 62
     5
  6
CONTINUOUS
 10
21.740506
 20
15.125725
 30
0.000000
 11
21.564534
 21
15.125725
 31
0.000000
  0
ARC
  8
Default
 62
     5
  6
CONTINUOUS
 10
21.564534
 20
15.080725
 30
0.000000
 40
0.045000
 50
90.000000
 51
90.996904
  0
LINE
  8
Default
 62
     5
  6
CONTINUOUS
 10
21.563751
 20
15.125718
 30
0.000000
 11
21.200108
 21
15.119390
 31
0.000000
  0
LINE
  8
Default
 62
     5
  6
CONTINUOUS
 10
21.200108
 20
15.119390
 30
0.000000
 11
21.056480
 21
15.116939
 31
0.000000
  0
ARC
  8
Default
 62
     5
  6
CONTINUOUS
 10
20.514464
 20
16.410222
 30
0.000000
 40
1.402270
 50
292.738592
 51
295.197854
  0
ARC
  8
Default
 62
     5
  6
CONTINUOUS
 10
21.092315
 20
15.182106
 30
0.000000
 40
0.045000
 50
295.197854
 51
307.873853
  0
LINE
  8
Default
 62
     5
  6
CONTINUOUS
 10
21.119942
 20
15.146585
 30
0.000000
 11
21.217095
 21
15.222145
 31
0.000000
  0
ARC
  8
Default
 62
     5
  6
CONTINUOUS
 10
21.189469
 20
15.257667
 30
0.000000
 40
0.045000
 50
307.873853
 51
310.992436
  0
LINE
  8
Default
 62
     5
  6
CONTINUOUS
 10
21.218987
 20
15.223701
 30
0.000000
 11
21.243191
 21
15.244735
 31
0.000000
  0
ARC
  8
Default
 62
     5
  6
CONTINUOUS
 10
21.213672
 20
15.278701
 30
0.000000
 40
0.045000
 50
310.992436
 51
342.218987
  0
LINE
  8
Default
 62
     5
  6
CONTINUOUS
 10
21.256523
 20
15.264959
 30
0.000000
 11
21.257305
 21
15.267397
 31
0.000000
  0
ARC
  8
Default
 62
     5
  6
CONTINUOUS
 10
21.231862
 20
15.304514
 30
0.000000
 40
0.045000
 50
304.429038
 51
319.393592
  0
ARC
  8
Default
 62
     5
  6
CONTINUOUS
 10
21.195296
 20
15.335862
 30
0.000000
 40
0.093165
 50
319.393592
 51
400.845002
  0
ARC
  8
Default
 62
     5
  6
CONTINUOUS
 10
21.231731
 20
15.367363
 30
0.000000
 40
0.045000
 50
40.845002
 51
62.643465
  0
ARC
  8
Default
 62
     5
  6
CONTINUOUS
 10
21.142429
 20
15.194762
 30
0.000000
 40
0.239335
 50
62.643465
 51
99.163153
  0
LINE
  8
Default
 62
     5
  6
CONTINUOUS
 10
21.104316
 20
15.431042
 30
0.000000
 11
20.955510
 21
15.425166
 31
0.000000
  0
ARC
  8
Default
 62
     5
  6
CONTINUOUS
 10
20.957286
 20
15.380201
 30
0.000000
 40
0.045000
 50
92.261624
 51
100.029416
  0
LINE
  8
Default
 62
     5
  6
CONTINUOUS
 10
20.949449
 20
15.424513
 30
0.000000
 11
20.678517
 21
15.376597
 31
0.000000
  0
ARC
  8
Default
 62
     5
  6
CONTINUOUS
 10
20.686354
 20
15.332285
 30
0.000000
 40
0.045000
 50
100.029416
 51
102.980509
  0
LINE
  8
Default
 62
     5
  6
CONTINUOUS
 10
20.676246
 20
15.376135
 30
0.000000
 11
19.681970
 21
15.146944
 31
0.000000
  0
LINE
  8
Default
 62
     5
  6
CONTINUOUS
 10
19.681970
 20
15.146944
 30
0.000000
 11
18.514556
 21
14.887886
 31
0.000000
  0
LINE
  8
Default
 62
     5
  6
CONTINUOUS
 10
18.514556
 20
14.887886
 30
0.000000
 11
17.815228
 21
14.735414
 31
0.000000
  0
LINE
  8
Default
 62
     5
  6
CONTINUOUS
 10
17.815228
 20
14.735414
 30
0.000000
 11
17.392199
 21
14.652191
 31
0.000000
  0
ARC
  8
Default
 62
     5
  6
CONTINUOUS
 10
17.629726
 20
11.774059
 30
0.000000
 40
2.887916
 50
94.717823
 51
102.391138
  0
ARC
  8
Default
 62
     5
  6
CONTINUOUS
 10
17.771926
 20
11.126820
 30
0.000000
 40
3.550592
 50
102.391138
 51
112.068061
  0
LINE
  8
Default
 62
     5
  6
CONTINUOUS
 10
16.437941
 20
14.417289
 30
0.000000
 11
16.257207
 21
14.344018
 31
0.000000
  0
LINE
  8
Default
 62
     5
  6
CONTINUOUS
 10
16.257207
 20
14.344018
 30
0.000000
 11
16.139588
 21
14.301338
 31
0.000000
  0
ARC
  8
Default
 62
     5
  6
CONTINUOUS
 10
16.517672
 20
13.259411
 30
0.000000
 40
1.108404
 50
109.944294
 51
124.533581
  0
ARC
  8
Default
 62
     5
  6
CONTINUOUS
 10
16.307248
 20
13.440714
 30
0.000000
 40
0.842721
 50
119.730155
 51
139.198046
  0
ARC
  8
Default
 62
     5
  6
CONTINUOUS
 10
15.703396
 20
13.961981
 30
0.000000
 40
0.045000
 50
139.198046
 51
155.516603
  0
LINE
  8
Default
 62
     5
  6
CONTINUOUS
 10
15.662442
 20
13.980631
 30
0.000000
 11
15.552885
 21
13.740044
 31
0.000000
  0
LINE
  8
Default
 62
     5
  6
CONTINUOUS
 10
15.552885
 20
13.740044
 30
0.000000
 11
15.280336
 21
13.179797
 31
0.000000
  0
LINE
  8
Default
 62
     5
  6
CONTINUOUS
 10
15.280336
 20
13.179797
 30
0.000000
 11
15.152043
 21
12.970263
 31
0.000000
  0
LINE
  8
Default
 62
     5
  6
CONTINUOUS
 10
15.152043
 20
12.970263
 30
0.000000
 11
15.139994
 21
12.956768
 31
0.000000
  0
LINE
  8
Default
 62
     5
  6
CONTINUOUS
 10
15.139994
 20
12.956768
 30
0.000000
 11
15.126294
 21
12.971749
 31
0.000000
  0
LINE
  8
Default
 62
     5
  6
CONTINUOUS
 10
15.126294
 20
12.971749
 30
0.000000
 11
15.036820
 21
13.079165
 31
0.000000
  0
ARC
  8
Default
 62
     5
  6
CONTINUOUS
 10
15.002244
 20
13.050364
 30
0.000000
 40
0.045000
 50
39.793067
 51
40.526751
  0
LINE
  8
Default
 62
     5
  6
CONTINUOUS
 10
15.036449
 20
13.079605
 30
0.000000
 11
14.737057
 21
13.429817
 31
0.000000
  0
ARC
  8
Default
 62
     5
  6
CONTINUOUS
 10
14.702852
 20
13.400576
 30
0.000000
 40
0.045000
 50
40.526751
 51
42.995940
  0
LINE
  8
Default
 62
     5
  6
CONTINUOUS
 10
14.735766
 20
13.431263
 30
0.000000
 11
14.424104
 21
13.765527
 31
0.000000
  0
ARC
  8
Default
 62
     5
  6
CONTINUOUS
 10
14.391191
 20
13.734839
 30
0.000000
 40
0.045000
 50
42.995940
 51
47.827682
  0
LINE
  8
Default
 62
     5
  6
CONTINUOUS
 10
14.421402
 20
13.768190
 30
0.000000
 11
14.277887
 21
13.898196
 31
0.000000
  0
ARC
  8
Default
 62
     5
  6
CONTINUOUS
 10
14.247675
 20
13.864845
 30
0.000000
 40
0.045000
 50
47.827682
 51
68.886003
  0
ARC
  8
Default
 62
     5
  6
CONTINUOUS
 10
14.168665
 20
13.938358
 30
0.000000
 40
0.100306
 50
341.676465
 51
395.704507
  0
ARC
  8
Default
 62
     5
  6
CONTINUOUS
 10
14.089601
 20
13.913791
 30
0.000000
 40
0.180755
 50
27.372766
 51
74.226295
  0
ARC
  8
Default
 62
     5
  6
CONTINUOUS
 10
14.126504
 20
14.044433
 30
0.000000
 40
0.045000
 50
74.226295
 51
83.226717
  0
ARC
  8
Default
 62
     5
  6
CONTINUOUS
 10
14.136464
 20
14.128289
 30
0.000000
 40
0.039446
 50
192.096931
 51
263.226717
  0
ARC
  8
Default
 62
     5
  6
CONTINUOUS
 10
14.053894
 20
14.110592
 30
0.000000
 40
0.045000
 50
12.096931
 51
46.218680
  0
LINE
  8
Default
 62
     5
  6
CONTINUOUS
 10
14.085029
 20
14.143082
 30
0.000000
 11
14.045112
 21
14.181337
 31
0.000000
  0
ARC
  8
Default
 62
     5
  6
CONTINUOUS
 10
14.013976
 20
14.148847
 30
0.000000
 40
0.045000
 50
46.218680
 51
48.783017
  0
LINE
  8
Default
 62
     5
  6
CONTINUOUS
 10
14.043627
 20
14.182697
 30
0.000000
 11
13.995718
 21
14.224663
 31
0.000000
  0
ARC
  8
Default
 62
     5
  6
CONTINUOUS
 10
13.966067
 20
14.190813
 30
0.000000
 40
0.045000
 50
48.783017
 51
57.773371
  0
LINE
  8
Default
 62
     5
  6
CONTINUOUS
 10
13.990064
 20
14.228881
 30
0.000000
 11
13.784698
 21
14.358340
 31
0.000000
  0
ARC
  8
Default
 62
     5
  6
CONTINUOUS
 10
13.760701
 20
14.320272
 30
0.000000
 40
0.045000
 50
57.773371
 51
61.750208
  0
LINE
  8
Default
 62
     5
  6
CONTINUOUS
 10
13.782000
 20
14.359913
 30
0.000000
 11
13.605852
 21
14.454560
 31
0.000000
  0
ARC
  8
Default
 62
     5
  6
CONTINUOUS
 10
13.925979
 20
14.949549
 30
0.000000
 40
0.589487
 50
220.707759
 51
237.107833
  0
ARC
  8
Default
 62
     5
  6
CONTINUOUS
 10
13.445008
 20
14.535736
 30
0.000000
 40
0.045000
 50
40.707759
 51
47.478262
  0
ARC
  8
Default
 62
     5
  6
CONTINUOUS
 10
11.203231
 20
12.091128
 30
0.000000
 40
3.361876
 50
47.478262
 51
66.816814
  0
ARC
  8
Default
 62
     5
  6
CONTINUOUS
 10
10.341107
 20
10.078011
 30
0.000000
 40
5.551830
 50
66.816814
 51
72.120319
  0
ARC
  8
Default
 62
     5
  6
CONTINUOUS
 10
12.031810
 20
15.318880
 30
0.000000
 40
0.045000
 50
72.120319
 51
88.317015
  0
LINE
  8
Default
 62
     5
  6
CONTINUOUS
 10
12.033131
 20
15.363860
 30
0.000000
 11
11.986760
 21
15.365223
 31
0.000000
  0
ARC
  8
Default
 62
     5
  6
CONTINUOUS
 10
11.979914
 20
15.299718
 30
0.000000
 40
0.065862
 50
84.033350
 51
193.995807
  0
ARC
  8
Default
 62
     5
  6
CONTINUOUS
 10
11.959671
 20
15.294672
 30
0.000000
 40
0.045000
 50
193.995807
 51
208.365830
  0
LINE
  8
Default
 62
     5
  6
CONTINUOUS
 10
11.920074
 20
15.273293
 30
0.000000
 11
11.949987
 21
15.217892
 31
0.000000
  0
ARC
  8
Default
 62
     5
  6
CONTINUOUS
 10
11.989584
 20
15.239271
 30
0.000000
 40
0.045000
 50
208.365830
 51
215.098061
  0
ARC
  8
Default
 62
     5
  6
CONTINUOUS
 10
12.283521
 20
15.445839
 30
0.000000
 40
0.404262
 50
215.098061
 51
234.344049
  0
LINE
  8
Default
 62
     5
  6
CONTINUOUS
 10
12.047870
 20
15.117363
 30
0.000000
 11
12.140457
 21
15.033980
 31
0.000000
  0
LINE
  8
Default
 62
     5
  6
CONTINUOUS
 10
12.140457
 20
15.033980
 30
0.000000
 11
12.121680
 21
15.022559
 31
0.000000
  0
ARC
  8
Default
 62
     5
  6
CONTINUOUS
 10
12.145064
 20
14.984112
 30
0.000000
 40
0.045000
 50
121.309281
 51
138.133159
  0
ARC
  8
Default
 62
     5
  6
CONTINUOUS
 10
12.186197
 20
14.947249
 30
0.000000
 40
0.100234
 50
138.133159
 51
235.806293
  0
LINE
  8
Default
 62
     5
  6
CONTINUOUS
 10
12.129866
 20
14.864341
 30
0.000000
 11
12.180612
 21
14.817200
 31
0.000000
  0
ARC
  8
Default
 62
     5
  6
CONTINUOUS
 10
12.211239
 20
14.850170
 30
0.000000
 40
0.045000
 50
227.109215
 51
239.192548
  0
LINE
  8
Default
 62
     5
  6
CONTINUOUS
 10
12.188192
 20
14.811519
 30
0.000000
 11
12.314085
 21
14.736450
 31
0.000000
  0
ARC
  8
Default
 62
     5
  6
CONTINUOUS
 10
12.337132
 20
14.775100
 30
0.000000
 40
0.045000
 50
239.192548
 51
244.532041
  0
LINE
  8
Default
 62
     5
  6
CONTINUOUS
 10
12.317782
 20
14.734473
 30
0.000000
 11
12.440196
 21
14.676169
 31
0.000000
  0
LINE
  8
Default
 62
     5
  6
CONTINUOUS
 10
12.440196
 20
14.676169
 30
0.000000
 11
12.446747
 21
14.672168
 31
0.000000
  0
LINE
  8
Default
 62
     5
  6
CONTINUOUS
 10
12.446747
 20
14.672168
 30
0.000000
 11
12.436645
 21
14.661813
 31
0.000000
  0
ARC
  8
Default
 62
     5
  6
CONTINUOUS
 10
12.468856
 20
14.630389
 30
0.000000
 40
0.045000
 50
135.708292
 51
139.047966
  0
ARC
  8
Default
 62
     5
  6
CONTINUOUS
 10
12.576755
 20
14.536752
 30
0.000000
 40
0.187864
 50
139.047966
 51
187.711063
  0
ARC
  8
Default
 62
     5
  6
CONTINUOUS
 10
12.435183
 20
14.517583
 30
0.000000
 40
0.045000
 50
187.711063
 51
196.863976
  0
ARC
  8
Default
 62
     5
  6
CONTINUOUS
 10
12.584212
 20
14.562759
 30
0.000000
 40
0.200726
 50
196.863976
 51
244.098839
  0
ARC
  8
Default
 62
     5
  6
CONTINUOUS
 10
12.919038
 20
15.101017
 30
0.000000
 40
0.833796
 50
239.553938
 51
259.265015
  0
LINE
  8
Default
 62
     5
  6
CONTINUOUS
 10
12.763729
 20
14.281813
 30
0.000000
 11
12.695646
 21
14.189396
 31
0.000000
  0
ARC
  8
Default
 62
     5
  6
CONTINUOUS
 10
12.731876
 20
14.162705
 30
0.000000
 40
0.045000
 50
143.621010
 51
153.701443
  0
ARC
  8
Default
 62
     5
  6
CONTINUOUS
 10
12.847718
 20
14.105456
 30
0.000000
 40
0.174217
 50
153.701443
 51
221.031226
  0
ARC
  8
Default
 62
     5
  6
CONTINUOUS
 10
12.750243
 20
14.020629
 30
0.000000
 40
0.045000
 50
221.031226
 51
229.962017
  0
ARC
  8
Default
 62
     5
  6
CONTINUOUS
 10
12.882003
 20
14.177444
 30
0.000000
 40
0.249820
 50
229.962017
 51
267.875187
  0
LINE
  8
Default
 62
     5
  6
CONTINUOUS
 10
12.872741
 20
13.927795
 30
0.000000
 11
13.030654
 21
13.909980
 31
0.000000
  0
ARC
  8
Default
 62
     5
  6
CONTINUOUS
 10
13.035699
 20
13.954696
 30
0.000000
 40
0.045000
 50
263.563356
 51
273.724377
  0
LINE
  8
Default
 62
     5
  6
CONTINUOUS
 10
13.038622
 20
13.909791
 30
0.000000
 11
13.081214
 21
13.912564
 31
0.000000
  0
ARC
  8
Default
 62
     5
  6
CONTINUOUS
 10
13.278137
 20
13.817882
 30
0.000000
 40
0.218502
 50
154.321587
 51
235.546679
  0
LINE
  8
Default
 62
     5
  6
CONTINUOUS
 10
13.154523
 20
13.637708
 30
0.000000
 11
12.965671
 21
13.591222
 31
0.000000
  0
ARC
  8
Default
 62
     5
  6
CONTINUOUS
 10
12.976427
 20
13.547526
 30
0.000000
 40
0.045000
 50
103.828554
 51
110.490292
  0
ARC
  8
Default
 62
     5
  6
CONTINUOUS
 10
13.493853
 20
12.162893
 30
0.000000
 40
1.523154
 50
110.490292
 51
128.327473
  0
ARC
  8
Default
 62
     5
  6
CONTINUOUS
 10
13.376143
 20
12.255931
 30
0.000000
 40
1.377605
 50
126.886490
 51
136.759361
  0
ARC
  8
Default
 62
     5
  6
CONTINUOUS
 10
12.868999
 20
12.567845
 30
0.000000
 40
0.803520
 50
128.155941
 51
148.276669
  0
ARC
  8
Default
 62
     5
  6
CONTINUOUS
 10
12.223804
 20
12.966688
 30
0.000000
 40
0.045000
 50
148.276669
 51
152.790889
  0
ARC
  8
Default
 62
     5
  6
CONTINUOUS
 10
12.809143
 20
12.665747
 30
0.000000
 40
0.703170
 50
152.790889
 51
200.105168
  0
ARC
  8
Default
 62
     5
  6
CONTINUOUS
 10
12.191081
 20
12.439505
 30
0.000000
 40
0.045000
 50
200.105168
 51
213.122470
  0
ARC
  8
Default
 62
     5
  6
CONTINUOUS
 10
12.117475
 20
12.391481
 30
0.000000
 40
0.042887
 50
338.509693
 51
393.122470
  0
ARC
  8
Default
 62
     5
  6
CONTINUOUS
 10
12.199252
 20
12.359284
 30
0.000000
 40
0.045000
 50
158.509693
 51
166.574349
  0
LINE
  8
Default
 62
     5
  6
CONTINUOUS
 10
12.155482
 20
12.369732
 30
0.000000
 11
12.132092
 21
12.271750
 31
0.000000
  0
ARC
  8
Default
 62
     5
  6
CONTINUOUS
 10
12.843513
 20
12.078836
 30
0.000000
 40
0.737112
 50
164.828080
 51
185.229569
  0
ARC
  8
Default
 62
     5
  6
CONTINUOUS
 10
12.920570
 20
12.085889
 30
0.000000
 40
0.814492
 50
185.229569
 51
202.173462
  0
ARC
  8
Default
 62
     5
  6
CONTINUOUS
 10
12.824502
 20
12.046736
 30
0.000000
 40
0.710751
 50
202.173462
 51
228.392095
  0
ARC
  8
Default
 62
     5
  6
CONTINUOUS
 10
13.064646
 20
12.144277
 30
0.000000
 40
0.950106
 50
221.452941
 51
228.249410
  0
ARC
  8
Default
 62
     5
  6
CONTINUOUS
 10
9.936110
 20
5.591611
 30
0.000000
 40
6.354512
 50
66.872944
 51
70.807804
  0
LINE
  8
Default
 62
     5
  6
CONTINUOUS
 10
12.025079
 20
11.592947
 30
0.000000
 11
11.776088
 21
11.679617
 31
0.000000
  0
ARC
  8
Default
 62
     5
  6
CONTINUOUS
 10
11.761295
 20
11.637118
 30
0.000000
 40
0.045000
 50
70.807804
 51
75.934884
  0
ARC
  8
Default
 62
     5
  6
CONTINUOUS
 10
12.238030
 20
13.539982
 30
0.000000
 40
1.916675
 50
247.557433
 51
255.934884
  0
ARC
  8
Default
 62
     5
  6
CONTINUOUS
 10
11.489147
 20
11.726879
 30
0.000000
 40
0.045000
 50
67.557433
 51
73.199566
  0
LINE
  8
Default
 62
     5
  6
CONTINUOUS
 10
11.502153
 20
11.769958
 30
0.000000
 11
11.225361
 21
11.853529
 31
0.000000
  0
ARC
  8
Default
 62
     5
  6
CONTINUOUS
 10
11.212355
 20
11.810450
 30
0.000000
 40
0.045000
 50
73.199566
 51
76.305079
  0
LINE
  8
Default
 62
     5
  6
CONTINUOUS
 10
11.223009
 20
11.854170
 30
0.000000
 11
11.157569
 21
11.870117
 31
0.000000
  0
LINE
  8
Default
 62
     5
  6
CONTINUOUS
 10
11.157569
 20
11.870117
 30
0.000000
 11
11.112250
 21
11.896926
 31
0.000000
  0
ARC
  8
Default
 62
     5
  6
CONTINUOUS
 10
11.089338
 20
11.858196
 30
0.000000
 40
0.045000
 50
59.392238
 51
68.464155
  0
LINE
  8
Default
 62
     5
  6
CONTINUOUS
 10
11.105857
 20
11.900054
 30
0.000000
 11
10.998074
 21
11.942589
 31
0.000000
  0
ARC
  8
Default
 62
     5
  6
CONTINUOUS
 10
10.981556
 20
11.900730
 30
0.000000
 40
0.045000
 50
68.464155
 51
78.698502
  0
ARC
  8
Default
 62
     5
  6
CONTINUOUS
 10
10.512397
 20
9.553142
 30
0.000000
 40
2.439009
 50
78.698502
 51
86.321440
  0
ARC
  8
Default
 62
     5
  6
CONTINUOUS
 10
10.665994
 20
11.942219
 30
0.000000
 40
0.045000
 50
86.321440
 51
95.754647
  0
ARC
  8
Default
 62
     5
  6
CONTINUOUS
 10
10.637184
 20
12.228098
 30
0.000000
 40
0.242327
 50
242.965397
 51
275.754647
  0
ARC
  8
Default
 62
     5
  6
CONTINUOUS
 10
10.506586
 20
11.972167
 30
0.000000
 40
0.045000
 50
62.965397
 51
75.606919
  0
LINE
  8
Default
 62
     5
  6
CONTINUOUS
 10
10.517772
 20
12.015754
 30
0.000000
 11
10.451715
 21
12.032706
 31
0.000000
  0
ARC
  8
Default
 62
     5
  6
CONTINUOUS
 10
10.354534
 20
11.806749
 30
0.000000
 40
0.245969
 50
66.728094
 51
90.307551
  0
ARC
  8
Default
 62
     5
  6
CONTINUOUS
 10
9.969034
 20
9.705408
 30
0.000000
 40
2.378538
 50
80.704897
 51
96.522815
  0
LINE
  8
Default
 62
     5
  6
CONTINUOUS
 10
9.698835
 20
12.068549
 30
0.000000
 11
9.297393
 21
12.022648
 31
0.000000
  0
ARC
  8
Default
 62
     5
  6
CONTINUOUS
 10
9.302505
 20
11.977940
 30
0.000000
 40
0.045000
 50
96.522815
 51
99.353838
  0
ARC
  8
Default
 62
     5
  6
CONTINUOUS
 10
9.546183
 20
10.498606
 30
0.000000
 40
1.544269
 50
99.353838
 51
113.803006
  0
ARC
  8
Default
 62
     5
  6
CONTINUOUS
 10
8.941088
 20
11.870345
 30
0.000000
 40
0.045000
 50
113.803006
 51
118.073104
  0
LINE
  8
Default
 62
     5
  6
CONTINUOUS
 10
8.919911
 20
11.910050
 30
0.000000
 11
8.650575
 21
11.766401
 31
0.000000
  0
ARC
  8
Default
 62
     5
  6
CONTINUOUS
 10
8.730032
 20
11.609901
 30
0.000000
 40
0.175516
 50
116.917368
 51
176.280409
  0
LINE
  8
Default
 62
     5
  6
CONTINUOUS
 10
8.554886
 20
11.621287
 30
0.000000
 11
8.533390
 21
11.557319
 31
0.000000
  0
LINE
  8
Default
 62
     5
  6
CONTINUOUS
 10
8.533390
 20
11.557319
 30
0.000000
 11
8.521308
 21
11.527703
 31
0.000000
  0
ARC
  8
Default
 62
     5
  6
CONTINUOUS
 10
8.562975
 20
11.510706
 30
0.000000
 40
0.045000
 50
157.807686
 51
159.064934
  0
LINE
  8
Default
 62
     5
  6
CONTINUOUS
 10
8.520946
 20
11.526784
 30
0.000000
 11
8.511215
 21
11.501349
 31
0.000000
  0
ARC
  8
Default
 62
     5
  6
CONTINUOUS
 10
6.659225
 20
12.543892
 30
0.000000
 40
2.125267
 50
320.127855
 51
330.623471
  0
LINE
  8
Default
 62
     5
  6
CONTINUOUS
 10
8.290319
 20
11.181433
 30
0.000000
 11
8.213480
 21
11.098533
 31
0.000000
  0
ARC
  8
Default
 62
     5
  6
CONTINUOUS
 10
8.246483
 20
11.067942
 30
0.000000
 40
0.045000
 50
137.173054
 51
141.601481
  0
LINE
  8
Default
 62
     5
  6
CONTINUOUS
 10
8.211216
 20
11.095893
 30
0.000000
 11
8.193292
 21
11.073277
 31
0.000000
  0
LINE
  8
Default
 62
     5
  6
CONTINUOUS
 10
8.193292
 20
11.073277
 30
0.000000
 11
8.175470
 21
11.051095
 31
0.000000
  0
ARC
  8
Default
 62
     5
  6
CONTINUOUS
 10
8.210551
 20
11.022910
 30
0.000000
 40
0.045000
 50
141.221189
 51
145.891833
  0
ARC
  8
Default
 62
     5
  6
CONTINUOUS
 10
8.159588
 20
11.057425
 30
0.000000
 40
0.016551
 50
263.208993
 51
325.891833
  0
ARC
  8
Default
 62
     5
  6
CONTINUOUS
 10
8.152310
 20
10.996306
 30
0.000000
 40
0.045000
 50
83.208993
 51
115.121048
  0
ARC
  8
Default
 62
     5
  6
CONTINUOUS
 10
8.315108
 20
10.649101
 30
0.000000
 40
0.428477
 50
115.121048
 51
145.208628
  0
ARC
  8
Default
 62
     5
  6
CONTINUOUS
 10
8.000183
 20
10.867909
 30
0.000000
 40
0.045000
 50
145.208628
 51
147.087023
  0
LINE
  8
Default
 62
     5
  6
CONTINUOUS
 10
7.962406
 20
10.892361
 30
0.000000
 11
7.926910
 21
10.837520
 31
0.000000
  0
ARC
  8
Default
 62
     5
  6
CONTINUOUS
 10
7.964688
 20
10.813069
 30
0.000000
 40
0.045000
 50
147.087023
 51
159.365413
  0
ARC
  8
Default
 62
     5
  6
CONTINUOUS
 10
7.920171
 20
10.829832
 30
0.000000
 40
0.002569
 50
246.398067
 51
339.365413
  0
ARC
  8
Default
 62
     5
  6
CONTINUOUS
 10
7.901125
 20
10.786243
 30
0.000000
 40
0.045000
 50
66.398067
 51
90.469217
  0
ARC
  8
Default
 62
     5
  6
CONTINUOUS
 10
7.905889
 20
10.204503
 30
0.000000
 40
0.626759
 50
90.469217
 51
105.630523
  0
ARC
  8
Default
 62
     5
  6
CONTINUOUS
 10
7.749144
 20
10.764748
 30
0.000000
 40
0.045000
 50
105.630523
 51
108.032752
  0
LINE
  8
Default
 62
     5
  6
CONTINUOUS
 10
7.735214
 20
10.807538
 30
0.000000
 11
7.600000
 21
10.763519
 31
0.000000
  0
ARC
  8
Default
 62
     5
  6
CONTINUOUS
 10
7.613930
 20
10.720729
 30
0.000000
 40
0.045000
 50
108.032752
 51
123.215701
  0
LINE
  8
Default
 62
     5
  6
CONTINUOUS
 10
7.589280
 20
10.758377
 30
0.000000
 11
7.532944
 21
10.721490
 31
0.000000
  0
LINE
  8
Default
 62
     5
  6
CONTINUOUS
 10
7.532944
 20
10.721490
 30
0.000000
 11
7.462138
 21
10.710963
 31
0.000000
  0
ARC
  8
Default
 62
     5
  6
CONTINUOUS
 10
7.468755
 20
10.666452
 30
0.000000
 40
0.045000
 50
98.456064
 51
106.578919
  0
ARC
  8
Default
 62
     5
  6
CONTINUOUS
 10
7.531077
 20
10.457116
 30
0.000000
 40
0.263416
 50
106.578919
 51
157.425682
  0
ARC
  8
Default
 62
     5
  6
CONTINUOUS
 10
7.211678
 20
10.288518
 30
0.000000
 40
0.280267
 50
74.230982
 51
124.442097
  0
LINE
  8
Default
 62
     5
  6
CONTINUOUS
 10
7.053167
 20
10.519653
 30
0.000000
 11
7.044137
 21
10.529944
 31
0.000000
  0
LINE
  8
Default
 62
     5
  6
CONTINUOUS
 10
7.044137
 20
10.529944
 30
0.000000
 11
7.032826
 21
10.553984
 31
0.000000
  0
ARC
  8
Default
 62
     5
  6
CONTINUOUS
 10
6.992108
 20
10.534827
 30
0.000000
 40
0.045000
 50
25.196326
 51
30.363680
  0
LINE
  8
Default
 62
     5
  6
CONTINUOUS
 10
7.030935
 20
10.557573
 30
0.000000
 11
7.003675
 21
10.604105
 31
0.000000
  0
ARC
  8
Default
 62
     5
  6
CONTINUOUS
 10
6.964847
 20
10.581358
 30
0.000000
 40
0.045000
 50
30.363680
 51
43.323180
  0
LINE
  8
Default
 62
     5
  6
CONTINUOUS
 10
6.997585
 20
10.612233
 30
0.000000
 11
6.969697
 21
10.641803
 31
0.000000
  0
LINE
  8
Default
 62
     5
  6
CONTINUOUS
 10
6.969697
 20
10.641803
 30
0.000000
 11
6.900616
 21
10.750438
 31
0.000000
  0
ARC
  8
Default
 62
     5
  6
CONTINUOUS
 10
6.862643
 20
10.726291
 30
0.000000
 40
0.045000
 50
32.452241
 51
36.869158
  0
LINE
  8
Default
 62
     5
  6
CONTINUOUS
 10
6.898644
 20
10.753291
 30
0.000000
 11
6.826787
 21
10.849102
 31
0.000000
  0
ARC
  8
Default
 62
     5
  6
CONTINUOUS
 10
6.790787
 20
10.822102
 30
0.000000
 40
0.045000
 50
36.869158
 51
39.640111
  0
LINE
  8
Default
 62
     5
  6
CONTINUOUS
 10
6.825440
 20
10.850811
 30
0.000000
 11
6.531603
 21
11.205493
 31
0.000000
  0
ARC
  8
Default
 62
     5
  6
CONTINUOUS
 10
6.496950
 20
11.176784
 30
0.000000
 40
0.045000
 50
39.640111
 51
57.662493
  0
ARC
  8
Default
 62
     5
  6
CONTINUOUS
 10
6.540377
 20
11.245380
 30
0.000000
 40
0.036186
 50
202.858619
 51
237.662493
  0
ARC
  8
Default
 62
     5
  6
CONTINUOUS
 10
6.285254
 20
11.250678
 30
0.000000
 40
0.222622
 50
355.012246
 51
382.236316
  0
ARC
  8
Default
 62
     5
  6
CONTINUOUS
 10
6.293154
 20
11.263702
 30
0.000000
 40
0.210575
 50
19.768796
 51
65.215924
  0
LINE
  8
Default
 62
     5
  6
CONTINUOUS
 10
6.381427
 20
11.454882
 30
0.000000
 11
6.285435
 21
11.508456
 31
0.000000
  0
ARC
  8
Default
 62
     5
  6
CONTINUOUS
 10
6.263504
 20
11.469162
 30
0.000000
 40
0.045000
 50
60.833916
 51
62.083648
  0
LINE
  8
Default
 62
     5
  6
CONTINUOUS
 10
6.284572
 20
11.508925
 30
0.000000
 11
6.284680
 21
11.522340
 31
0.000000
  0
ARC
  8
Default
 62
     5
  6
CONTINUOUS
 10
6.239681
 20
11.522700
 30
0.000000
 40
0.045000
 50
359.541821
 51
368.761790
  0
LINE
  8
Default
 62
     5
  6
CONTINUOUS
 10
6.284156
 20
11.529555
 30
0.000000
 11
6.272107
 21
11.607733
 31
0.000000
  0
ARC
  8
Default
 62
     5
  6
CONTINUOUS
 10
6.227632
 20
11.600878
 30
0.000000
 40
0.045000
 50
8.761790
 51
29.665947
  0
LINE
  8
Default
 62
     5
  6
CONTINUOUS
 10
6.266733
 20
11.623151
 30
0.000000
 11
6.241203
 21
11.667972
 31
0.000000
  0
ARC
  8
Default
 62
     5
  6
CONTINUOUS
 10
6.147077
 20
11.629766
 30
0.000000
 40
0.101585
 50
22.091909
 51
81.040193
  0
ARC
  8
Default
 62
     5
  6
CONTINUOUS
 10
6.122159
 20
11.497916
 30
0.000000
 40
0.235742
 50
80.048669
 51
121.360712
  0
ARC
  8
Default
 62
     5
  6
CONTINUOUS
 10
6.022892
 20
11.660792
 30
0.000000
 40
0.045000
 50
121.360712
 51
128.083715
  0
LINE
  8
Default
 62
     5
  6
CONTINUOUS
 10
5.995135
 20
11.696212
 30
0.000000
 11
5.974592
 21
11.680114
 31
0.000000
  0
LINE
  8
Default
 62
     5
  6
CONTINUOUS
 10
5.974592
 20
11.680114
 30
0.000000
 11
5.943962
 21
11.714465
 31
0.000000
  0
ARC
  8
Default
 62
     5
  6
CONTINUOUS
 10
5.910375
 20
11.684517
 30
0.000000
 40
0.045000
 50
41.721932
 51
56.562946
  0
ARC
  8
Default
 62
     5
  6
CONTINUOUS
 10
5.769979
 20
11.471894
 30
0.000000
 40
0.299793
 50
56.562946
 51
88.468152
  0
ARC
  8
Default
 62
     5
  6
CONTINUOUS
 10
5.776790
 20
11.726596
 30
0.000000
 40
0.045000
 50
88.468152
 51
93.229838
  0
ARC
  8
Default
 62
     5
  6
CONTINUOUS
 10
5.847775
 20
10.468687
 30
0.000000
 40
1.304911
 50
93.229838
 51
108.070340
  0
ARC
  8
Default
 62
     5
  6
CONTINUOUS
 10
5.351750
 20
12.139813
 30
0.000000
 40
0.440144
 50
260.947854
 51
281.966833
  0
ARC
  8
Default
 62
     5
  6
CONTINUOUS
 10
5.275421
 20
11.660712
 30
0.000000
 40
0.045000
 50
80.947854
 51
91.637853
  0
LINE
  8
Default
 62
     5
  6
CONTINUOUS
 10
5.274135
 20
11.705693
 30
0.000000
 11
5.064665
 21
11.699704
 31
0.000000
  0
ARC
  8
Default
 62
     5
  6
CONTINUOUS
 10
5.065952
 20
11.654722
 30
0.000000
 40
0.045000
 50
91.637853
 51
92.248526
  0
LINE
  8
Default
 62
     5
  6
CONTINUOUS
 10
5.064186
 20
11.699688
 30
0.000000
 11
4.759099
 21
11.687709
 31
0.000000
  0
ARC
  8
Default
 62
     5
  6
CONTINUOUS
 10
4.760865
 20
11.642743
 30
0.000000
 40
0.045000
 50
92.248526
 51
93.982411
  0
LINE
  8
Default
 62
     5
  6
CONTINUOUS
 10
4.757740
 20
11.687635
 30
0.000000
 11
4.413605
 21
11.663677
 31
0.000000
  0
ARC
  8
Default
 62
     5
  6
CONTINUOUS
 10
4.416730
 20
11.618785
 30
0.000000
 40
0.045000
 50
93.982411
 51
95.528909
  0
ARC
  8
Default
 62
     5
  6
CONTINUOUS
 10
10.631627
 20
9.266278
 30
0.000000
 40
0.322995
 50
257.362332
 51
295.214113
  0
ARC
  8
Default
 62
     5
  6
CONTINUOUS
 10
10.750053
 20
9.014770
 30
0.000000
 40
0.045000
 50
295.214113
 51
298.159223
  0
ARC
  8
Default
 62
     5
  6
CONTINUOUS
 10
10.407702
 20
9.654345
 30
0.000000
 40
0.770438
 50
298.159223
 51
318.108961
  0
ARC
  8
Default
 62
     5
  6
CONTINUOUS
 10
10.947729
 20
9.169958
 30
0.000000
 40
0.045000
 50
318.108961
 51
320.218650
  0
LINE
  8
Default
 62
     5
  6
CONTINUOUS
 10
10.982311
 20
9.141164
 30
0.000000
 11
10.997513
 21
9.159422
 31
0.000000
  0
LINE
  8
Default
 62
     5
  6
CONTINUOUS
 10
10.997513
 20
9.159422
 30
0.000000
 11
11.017920
 21
9.141495
 31
0.000000
  0
ARC
  8
Default
 62
     5
  6
CONTINUOUS
 10
11.047620
 20
9.175302
 30
0.000000
 40
0.045000
 50
228.700593
 51
234.915794
  0
ARC
  8
Default
 62
     5
  6
CONTINUOUS
 10
11.185121
 20
9.371063
 30
0.000000
 40
0.284225
 50
234.915794
 51
275.974108
  0
ARC
  8
Default
 62
     5
  6
CONTINUOUS
 10
11.210020
 20
9.133136
 30
0.000000
 40
0.045000
 50
275.974108
 51
282.105598
  0
LINE
  8
Default
 62
     5
  6
CONTINUOUS
 10
11.219457
 20
9.089137
 30
0.000000
 11
11.357139
 21
9.118668
 31
0.000000
  0
ARC
  8
Default
 62
     5
  6
CONTINUOUS
 10
11.347702
 20
9.162667
 30
0.000000
 40
0.045000
 50
282.105598
 51
297.240158
  0
LINE
  8
Default
 62
     5
  6
CONTINUOUS
 10
11.368300
 20
9.122658
 30
0.000000
 11
11.426564
 21
9.152653
 31
0.000000
  0
ARC
  8
Default
 62
     5
  6
CONTINUOUS
 10
11.405967
 20
9.192663
 30
0.000000
 40
0.045000
 50
297.240158
 51
300.291939
  0
LINE
  8
Default
 62
     5
  6
CONTINUOUS
 10
11.428665
 20
9.153807
 30
0.000000
 11
11.490083
 21
9.189685
 31
0.000000
  0
ARC
  8
Default
 62
     5
  6
CONTINUOUS
 10
11.467385
 20
9.228541
 30
0.000000
 40
0.045000
 50
300.291939
 51
309.741275
  0
LINE
  8
Default
 62
     5
  6
CONTINUOUS
 10
11.496155
 20
9.193939
 30
0.000000
 11
11.601083
 21
9.281180
 31
0.000000
  0
LINE
  8
Default
 62
     5
  6
CONTINUOUS
 10
11.601083
 20
9.281180
 30
0.000000
 11
11.657440
 21
9.264420
 31
0.000000
  0
LINE
  8
Default
 62
     5
  6
CONTINUOUS
 10
11.657440
 20
9.264420
 30
0.000000
 11
11.722535
 21
9.240694
 31
0.000000
  0
ARC
  8
Default
 62
     5
  6
CONTINUOUS
 10
11.737945
 20
9.282973
 30
0.000000
 40
0.045000
 50
249.973927
 51
255.263175
  0
LINE
  8
Default
 62
     5
  6
CONTINUOUS
 10
11.726498
 20
9.239454
 30
0.000000
 11
11.859455
 21
9.204482
 31
0.000000
  0
ARC
  8
Default
 62
     5
  6
CONTINUOUS
 10
11.940919
 20
9.416227
 30
0.000000
 40
0.226876
 50
248.956983
 51
263.244437
  0
LINE
  8
Default
 62
     5
  6
CONTINUOUS
 10
11.914230
 20
9.190927
 30
0.000000
 11
10.820775
 21
8.834956
 31
0.000000
  0
LINE
  8
Default
 62
     5
  6
CONTINUOUS
 10
10.820775
 20
8.834956
 30
0.000000
 11
10.191066
 21
8.630926
 31
0.000000
  0
LINE
  8
Default
 62
     5
  6
CONTINUOUS
 10
10.191066
 20
8.630926
 30
0.000000
 11
9.880080
 21
8.531466
 31
0.000000
  0
ARC
  8
Default
 62
     5
  6
CONTINUOUS
 10
9.608074
 20
8.250788
 30
0.000000
 40
0.390854
 50
45.898881
 51
70.158836
  0
ARC
  8
Default
 62
     5
  6
CONTINUOUS
 10
9.725462
 20
8.576111
 30
0.000000
 40
0.045000
 50
70.158836
 51
80.744564
  0
ARC
  8
Default
 62
     5
  6
CONTINUOUS
 10
9.668499
 20
8.226557
 30
0.000000
 40
0.399165
 50
80.744564
 51
117.566570
  0
ARC
  8
Default
 62
     5
  6
CONTINUOUS
 10
9.504599
 20
8.540515
 30
0.000000
 40
0.045000
 50
117.566570
 51
123.888475
  0
LINE
  8
Default
 62
     5
  6
CONTINUOUS
 10
9.479508
 20
8.577871
 30
0.000000
 11
9.452501
 21
8.559731
 31
0.000000
  0
LINE
  8
Default
 62
     5
  6
CONTINUOUS
 10
9.452501
 20
8.559731
 30
0.000000
 11
9.374451
 21
8.655693
 31
0.000000
  0
ARC
  8
Default
 62
     5
  6
CONTINUOUS
 10
8.397828
 20
7.861366
 30
0.000000
 40
1.258867
 50
39.122869
 51
50.868399
  0
ARC
  8
Default
 62
     5
  6
CONTINUOUS
 10
9.221274
 20
8.870656
 30
0.000000
 40
0.043753
 50
126.214382
 51
228.537552
  0
ARC
  8
Default
 62
     5
  6
CONTINUOUS
 10
9.168838
 20
8.942263
 30
0.000000
 40
0.045000
 50
306.214382
 51
308.623120
  0
LINE
  8
Default
 62
     5
  6
CONTINUOUS
 10
9.196927
 20
8.907106
 30
0.000000
 11
9.277348
 21
8.971358
 31
0.000000
  0
LINE
  8
Default
 62
     5
  6
CONTINUOUS
 10
9.277348
 20
8.971358
 30
0.000000
 11
9.281247
 21
8.965154
 31
0.000000
  0
ARC
  8
Default
 62
     5
  6
CONTINUOUS
 10
9.319346
 20
8.989101
 30
0.000000
 40
0.045000
 50
212.150739
 51
226.858264
  0
LINE
  8
Default
 62
     5
  6
CONTINUOUS
 10
9.288575
 20
8.956266
 30
0.000000
 11
9.344016
 21
8.904309
 31
0.000000
  0
ARC
  8
Default
 62
     5
  6
CONTINUOUS
 10
9.527046
 20
9.067482
 30
0.000000
 40
0.245204
 50
221.717177
 51
262.145056
  0
ARC
  8
Default
 62
     5
  6
CONTINUOUS
 10
9.499685
 20
8.869156
 30
0.000000
 40
0.045000
 50
262.145056
 51
285.016841
  0
LINE
  8
Default
 62
     5
  6
CONTINUOUS
 10
9.511344
 20
8.825693
 30
0.000000
 11
9.557524
 21
8.838081
 31
0.000000
  0
ARC
  8
Default
 62
     5
  6
CONTINUOUS
 10
9.545865
 20
8.881544
 30
0.000000
 40
0.045000
 50
285.016841
 51
300.934195
  0
LINE
  8
Default
 62
     5
  6
CONTINUOUS
 10
9.568997
 20
8.842945
 30
0.000000
 11
9.596916
 21
8.859677
 31
0.000000
  0
ARC
  8
Default
 62
     5
  6
CONTINUOUS
 10
9.536692
 20
8.997342
 30
0.000000
 40
0.150262
 50
293.627964
 51
326.138790
  0
LINE
  8
Default
 62
     5
  6
CONTINUOUS
 10
9.661467
 20
8.913618
 30
0.000000
 11
9.698288
 21
8.878899
 31
0.000000
  0
ARC
  8
Default
 62
     5
  6
CONTINUOUS
 10
9.729160
 20
8.911639
 30
0.000000
 40
0.045000
 50
226.681945
 51
234.523315
  0
ARC
  8
Default
 62
     5
  6
CONTINUOUS
 10
9.901015
 20
9.152779
 30
0.000000
 40
0.341113
 50
234.523315
 51
265.403003
  0
ARC
  8
Default
 62
     5
  6
CONTINUOUS
 10
9.877283
 20
8.857619
 30
0.000000
 40
0.045000
 50
265.403003
 51
276.997935
  0
ARC
  8
Default
 62
     5
  6
CONTINUOUS
 10
9.823032
 20
9.299587
 30
0.000000
 40
0.490286
 50
276.997935
 51
296.147839
  0
ARC
  8
Default
 62
     5
  6
CONTINUOUS
 10
10.019264
 20
8.899872
 30
0.000000
 40
0.045000
 50
296.147839
 51
309.819592
  0
LINE
  8
Default
 62
     5
  6
CONTINUOUS
 10
10.048081
 20
8.865309
 30
0.000000
 11
10.143661
 21
8.944999
 31
0.000000
  0
LINE
  8
Default
 62
     5
  6
CONTINUOUS
 10
10.143661
 20
8.944999
 30
0.000000
 11
10.156687
 21
8.933450
 31
0.000000
  0
ARC
  8
Default
 62
     5
  6
CONTINUOUS
 10
10.186540
 20
8.967122
 30
0.000000
 40
0.045000
 50
228.440475
 51
250.516150
  0
LINE
  8
Default
 62
     5
  6
CONTINUOUS
 10
10.171531
 20
8.924699
 30
0.000000
 11
10.209449
 21
8.911283
 31
0.000000
  0
LINE
  8
Default
 62
     5
  6
CONTINUOUS
 10
10.209449
 20
8.911283
 30
0.000000
 11
10.224517
 21
8.905368
 31
0.000000
  0
ARC
  8
Default
 62
     5
  6
CONTINUOUS
 10
10.240962
 20
8.947255
 30
0.000000
 40
0.045000
 50
248.565272
 51
289.235834
  0
LINE
  8
Default
 62
     5
  6
CONTINUOUS
 10
10.255787
 20
8.904768
 30
0.000000
 11
10.271318
 21
8.910187
 31
0.000000
  0
ARC
  8
Default
 62
     5
  6
CONTINUOUS
 10
10.218150
 20
9.204738
 30
0.000000
 40
0.299311
 50
280.232074
 51
307.428802
  0
ARC
  8
Default
 62
     5
  6
CONTINUOUS
 10
10.372714
 20
9.002787
 30
0.000000
 40
0.045000
 50
307.428802
 51
311.320579
  0
LINE
  8
Default
 62
     5
  6
CONTINUOUS
 10
10.402426
 20
8.968991
 30
0.000000
 11
10.456354
 21
9.016403
 31
0.000000
  0
ARC
  8
Default
 62
     5
  6
CONTINUOUS
 10
10.426642
 20
9.050199
 30
0.000000
 40
0.045000
 50
311.320579
 51
319.418249
  0
ARC
  8
Default
 62
     5
  6
CONTINUOUS
 10
10.717392
 20
9.275293
 30
0.000000
 40
0.361294
 50
224.752738
 51
242.390040
  0
ARC
  8
Default
 62
     5
  6
CONTINUOUS
 10
10.570806
 20
8.995018
 30
0.000000
 40
0.045000
 50
242.390040
 51
257.362332
  0
LINE
  8
Default
 62
     5
  6
CONTINUOUS
 10
13.022513
 20
11.360147
 30
0.000000
 11
12.983921
 21
11.373864
 31
0.000000
  0
ARC
  8
Default
 62
     5
  6
CONTINUOUS
 10
12.971513
 20
11.545202
 30
0.000000
 40
0.171786
 50
274.141953
 51
282.178107
  0
ARC
  8
Default
 62
     5
  6
CONTINUOUS
 10
12.902740
 20
11.969515
 30
0.000000
 40
0.601471
 50
280.054915
 51
307.694889
  0
ARC
  8
Default
 62
     5
  6
CONTINUOUS
 10
13.242998
 20
11.529191
 30
0.000000
 40
0.045000
 50
307.694889
 51
313.682989
  0
ARC
  8
Default
 62
     5
  6
CONTINUOUS
 10
13.433655
 20
11.329561
 30
0.000000
 40
0.231047
 50
108.329637
 51
133.682989
  0
ARC
  8
Default
 62
     5
  6
CONTINUOUS
 10
13.334303
 20
11.389629
 30
0.000000
 40
0.161478
 50
46.495468
 51
80.485975
  0
LINE
  8
Default
 62
     5
  6
CONTINUOUS
 10
13.445467
 20
11.506752
 30
0.000000
 11
13.452638
 21
11.494818
 31
0.000000
  0
ARC
  8
Default
 62
     5
  6
CONTINUOUS
 10
13.500833
 20
11.509765
 30
0.000000
 40
0.050459
 50
197.230522
 51
373.160729
  0
LINE
  8
Default
 62
     5
  6
CONTINUOUS
 10
13.549967
 20
11.521254
 30
0.000000
 11
13.549967
 21
11.530141
 31
0.000000
  0
LINE
  8
Default
 62
     5
  6
CONTINUOUS
 10
13.549967
 20
11.530141
 30
0.000000
 11
13.558002
 21
11.562928
 31
0.000000
  0
LINE
  8
Default
 62
     5
  6
CONTINUOUS
 10
13.558002
 20
11.562928
 30
0.000000
 11
13.564913
 21
11.560066
 31
0.000000
  0
LINE
  8
Default
 62
     5
  6
CONTINUOUS
 10
13.564913
 20
11.560066
 30
0.000000
 11
13.609197
 21
11.521198
 31
0.000000
  0
LINE
  8
Default
 62
     5
  6
CONTINUOUS
 10
13.609197
 20
11.521198
 30
0.000000
 11
13.651182
 21
11.473672
 31
0.000000
  0
ARC
  8
Default
 62
     5
  6
CONTINUOUS
 10
13.684907
 20
11.503465
 30
0.000000
 40
0.045000
 50
221.457565
 51
223.167332
  0
LINE
  8
Default
 62
     5
  6
CONTINUOUS
 10
13.652086
 20
11.472679
 30
0.000000
 11
13.656056
 21
11.468446
 31
0.000000
  0
ARC
  8
Default
 62
     5
  6
CONTINUOUS
 10
13.704951
 20
11.479477
 30
0.000000
 40
0.050124
 50
192.713419
 51
305.986265
  0
LINE
  8
Default
 62
     5
  6
CONTINUOUS
 10
13.734403
 20
11.438919
 30
0.000000
 11
13.742612
 21
11.408011
 31
0.000000
  0
LINE
  8
Default
 62
     5
  6
CONTINUOUS
 10
13.742612
 20
11.408011
 30
0.000000
 11
13.772014
 21
11.259578
 31
0.000000
  0
LINE
  8
Default
 62
     5
  6
CONTINUOUS
 10
13.772014
 20
11.259578
 30
0.000000
 11
13.789601
 21
11.109030
 31
0.000000
  0
LINE
  8
Default
 62
     5
  6
CONTINUOUS
 10
13.789601
 20
11.109030
 30
0.000000
 11
13.807126
 21
10.892179
 31
0.000000
  0
ARC
  8
Default
 62
     5
  6
CONTINUOUS
 10
13.936532
 20
10.878198
 30
0.000000
 40
0.130159
 50
173.833492
 51
221.112636
  0
LINE
  8
Default
 62
     5
  6
CONTINUOUS
 10
13.838468
 20
10.792613
 30
0.000000
 11
13.870817
 21
10.720822
 31
0.000000
  0
ARC
  8
Default
 62
     5
  6
CONTINUOUS
 10
13.911844
 20
10.739309
 30
0.000000
 40
0.045000
 50
204.256024
 51
206.953681
  0
ARC
  8
Default
 62
     5
  6
CONTINUOUS
 10
13.359197
 20
10.458284
 30
0.000000
 40
0.574994
 50
357.186514
 51
386.953681
  0
LINE
  8
Default
 62
     5
  6
CONTINUOUS
 10
13.933499
 20
10.430060
 30
0.000000
 11
13.927720
 21
10.312475
 31
0.000000
  0
LINE
  8
Default
 62
     5
  6
CONTINUOUS
 10
13.927720
 20
10.312475
 30
0.000000
 11
13.909672
 21
10.191331
 31
0.000000
  0
ARC
  8
Default
 62
     5
  6
CONTINUOUS
 10
13.954181
 20
10.184700
 30
0.000000
 40
0.045000
 50
171.526266
 51
172.673779
  0
ARC
  8
Default
 62
     5
  6
CONTINUOUS
 10
13.492571
 20
10.244049
 30
0.000000
 40
0.420410
 50
336.405553
 51
352.673779
  0
ARC
  8
Default
 62
     5
  6
CONTINUOUS
 10
13.827951
 20
10.017863
 30
0.000000
 40
0.076434
 50
49.259642
 51
82.618303
  0
ARC
  8
Default
 62
     5
  6
CONTINUOUS
 10
13.755934
 20
9.934915
 30
0.000000
 40
0.178601
 50
62.728000
 51
108.533585
  0
ARC
  8
Default
 62
     5
  6
CONTINUOUS
 10
13.713467
 20
10.061588
 30
0.000000
 40
0.045000
 50
108.533585
 51
117.926910
  0
ARC
  8
Default
 62
     5
  6
CONTINUOUS
 10
13.894793
 20
9.719511
 30
0.000000
 40
0.432164
 50
117.926910
 51
143.699844
  0
ARC
  8
Default
 62
     5
  6
CONTINUOUS
 10
13.582768
 20
9.948718
 30
0.000000
 40
0.045000
 50
143.699844
 51
148.162352
  0
ARC
  8
Default
 62
     5
  6
CONTINUOUS
 10
15.085881
 20
9.015380
 30
0.000000
 40
1.814313
 50
148.162352
 51
158.978780
  0
LINE
  8
Default
 62
     5
  6
CONTINUOUS
 10
13.392315
 20
9.666199
 30
0.000000
 11
13.024009
 21
9.547337
 31
0.000000
  0
LINE
  8
Default
 62
     5
  6
CONTINUOUS
 10
13.024009
 20
9.547337
 30
0.000000
 11
12.767895
 21
9.465741
 31
0.000000
  0
ARC
  8
Default
 62
     5
  6
CONTINUOUS
 10
12.702417
 20
9.513989
 30
0.000000
 40
0.081335
 50
323.615164
 51
401.641854
  0
LINE
  8
Default
 62
     5
  6
CONTINUOUS
 10
12.763199
 20
9.568034
 30
0.000000
 11
12.737287
 21
9.622370
 31
0.000000
  0
ARC
  8
Default
 62
     5
  6
CONTINUOUS
 10
12.696669
 20
9.603000
 30
0.000000
 40
0.045000
 50
25.495844
 51
39.665904
  0
LINE
  8
Default
 62
     5
  6
CONTINUOUS
 10
12.731309
 20
9.631724
 30
0.000000
 11
12.629309
 21
9.754732
 31
0.000000
  0
ARC
  8
Default
 62
     5
  6
CONTINUOUS
 10
12.594669
 20
9.726009
 30
0.000000
 40
0.045000
 50
39.665904
 51
44.099508
  0
LINE
  8
Default
 62
     5
  6
CONTINUOUS
 10
12.626985
 20
9.757324
 30
0.000000
 11
12.535071
 21
9.852174
 31
0.000000
  0
ARC
  8
Default
 62
     5
  6
CONTINUOUS
 10
13.047152
 20
11.002649
 30
0.000000
 40
1.259294
 50
246.005980
 51
259.106376
  0
ARC
  8
Default
 62
     5
  6
CONTINUOUS
 10
12.911809
 20
10.157852
 30
0.000000
 40
0.405026
 50
255.319429
 51
280.225648
  0
ARC
  8
Default
 62
     5
  6
CONTINUOUS
 10
12.975722
 20
9.803544
 30
0.000000
 40
0.045000
 50
280.225648
 51
284.963884
  0
ARC
  8
Default
 62
     5
  6
CONTINUOUS
 10
12.950759
 20
9.896945
 30
0.000000
 40
0.141679
 50
284.963884
 51
375.824857
  0
ARC
  8
Default
 62
     5
  6
CONTINUOUS
 10
13.043774
 20
9.923310
 30
0.000000
 40
0.045000
 50
15.824857
 51
26.299339
  0
ARC
  8
Default
 62
     5
  6
CONTINUOUS
 10
12.640610
 20
9.724060
 30
0.000000
 40
0.494713
 50
26.299339
 51
43.054203
  0
LINE
  8
Default
 62
     5
  6
CONTINUOUS
 10
13.002101
 20
10.061795
 30
0.000000
 11
12.907404
 21
10.169241
 31
0.000000
  0
ARC
  8
Default
 62
     5
  6
CONTINUOUS
 10
12.873644
 20
10.139487
 30
0.000000
 40
0.045000
 50
41.391110
 51
44.955191
  0
LINE
  8
Default
 62
     5
  6
CONTINUOUS
 10
12.905489
 20
10.171282
 30
0.000000
 11
12.770615
 21
10.306367
 31
0.000000
  0
LINE
  8
Default
 62
     5
  6
CONTINUOUS
 10
12.770615
 20
10.306367
 30
0.000000
 11
12.821894
 21
10.293541
 31
0.000000
  0
LINE
  8
Default
 62
     5
  6
CONTINUOUS
 10
12.821894
 20
10.293541
 30
0.000000
 11
13.032450
 21
10.233973
 31
0.000000
  0
ARC
  8
Default
 62
     5
  6
CONTINUOUS
 10
13.127731
 20
10.544487
 30
0.000000
 40
0.324803
 50
252.941523
 51
293.046407
  0
ARC
  8
Default
 62
     5
  6
CONTINUOUS
 10
13.240581
 20
10.336713
 30
0.000000
 40
0.092222
 50
278.921865
 51
380.423891
  0
ARC
  8
Default
 62
     5
  6
CONTINUOUS
 10
13.146651
 20
10.338058
 30
0.000000
 40
0.182972
 50
9.702584
 51
43.564438
  0
ARC
  8
Default
 62
     5
  6
CONTINUOUS
 10
13.246625
 20
10.433144
 30
0.000000
 40
0.045000
 50
43.564438
 51
46.177219
  0
LINE
  8
Default
 62
     5
  6
CONTINUOUS
 10
13.277785
 20
10.465611
 30
0.000000
 11
13.178466
 21
10.560930
 31
0.000000
  0
ARC
  8
Default
 62
     5
  6
CONTINUOUS
 10
13.147307
 20
10.528463
 30
0.000000
 40
0.045000
 50
46.177219
 51
53.997643
  0
LINE
  8
Default
 62
     5
  6
CONTINUOUS
 10
13.173759
 20
10.564867
 30
0.000000
 11
12.932902
 21
10.739875
 31
0.000000
  0
ARC
  8
Default
 62
     5
  6
CONTINUOUS
 10
13.015738
 20
11.425835
 30
0.000000
 40
0.690943
 50
263.114368
 51
281.173455
  0
ARC
  8
Default
 62
     5
  6
CONTINUOUS
 10
13.140909
 20
10.792135
 30
0.000000
 40
0.045000
 50
281.173455
 51
301.047697
  0
LINE
  8
Default
 62
     5
  6
CONTINUOUS
 10
13.164118
 20
10.753582
 30
0.000000
 11
13.234955
 21
10.796226
 31
0.000000
  0
ARC
  8
Default
 62
     5
  6
CONTINUOUS
 10
13.211746
 20
10.834779
 30
0.000000
 40
0.045000
 50
301.047697
 51
332.457094
  0
ARC
  8
Default
 62
     5
  6
CONTINUOUS
 10
13.112545
 20
10.886514
 30
0.000000
 40
0.156881
 50
332.457094
 51
380.196337
  0
ARC
  8
Default
 62
     5
  6
CONTINUOUS
 10
13.217547
 20
10.925140
 30
0.000000
 40
0.045000
 50
20.196337
 51
42.800041
  0
ARC
  8
Default
 62
     5
  6
CONTINUOUS
 10
12.431591
 20
10.197335
 30
0.000000
 40
1.116180
 50
42.800041
 51
61.550205
  0
ARC
  8
Default
 62
     5
  6
CONTINUOUS
 10
9.936110
 20
5.591611
 30
0.000000
 40
6.354512
 50
61.550205
 51
62.732485
  0
ARC
  8
Default
 62
     5
  6
CONTINUOUS
 10
12.885251
 20
11.808360
 30
0.000000
 40
0.569627
 50
266.190194
 51
277.712685
  0
ARC
  8
Default
 62
     5
  6
CONTINUOUS
 10
12.976101
 20
11.364293
 30
0.000000
 40
0.121265
 50
263.178481
 51
288.435118
  0
ARC
  8
Default
 62
     5
  6
CONTINUOUS
 10
13.015162
 20
11.304940
 30
0.000000
 40
0.055694
 50
269.266310
 51
442.415243
  0
ARC
  8
Default
 62
     5
  6
CONTINUOUS
 10
13.120824
 20
11.881113
 30
0.000000
 40
0.439612
 50
187.630471
 51
194.222980
  0
ARC
  8
Default
 62
     5
  6
CONTINUOUS
 10
12.738308
 20
11.784158
 30
0.000000
 40
0.045000
 50
194.222980
 51
196.581228
  0
ARC
  8
Default
 62
     5
  6
CONTINUOUS
 10
13.678960
 20
12.064243
 30
0.000000
 40
1.026465
 50
196.581228
 51
211.107053
  0
ARC
  8
Default
 62
     5
  6
CONTINUOUS
 10
12.971513
 20
11.545202
 30
0.000000
 40
0.171786
 50
183.761643
 51
232.980201
  0
LINE
  8
Default
 62
     5
  6
CONTINUOUS
 10
12.868083
 20
11.408043
 30
0.000000
 11
12.796861
 21
11.427279
 31
0.000000
  0
ARC
  8
Default
 62
     5
  6
CONTINUOUS
 10
12.858618
 20
11.561786
 30
0.000000
 40
0.148007
 50
206.665574
 51
245.338232
  0
LINE
  8
Default
 62
     5
  6
CONTINUOUS
 10
12.726353
 20
11.495363
 30
0.000000
 11
12.686697
 21
11.631431
 31
0.000000
  0
ARC
  8
Default
 62
     5
  6
CONTINUOUS
 10
13.538637
 20
11.734183
 30
0.000000
 40
0.858114
 50
174.076585
 51
186.877205
  0
ARC
  8
Default
 62
     5
  6
CONTINUOUS
 10
12.336780
 20
9.281162
 30
0.000000
 40
0.045000
 50
107.671554
 51
108.032486
  0
LINE
  8
Default
 62
     5
  6
CONTINUOUS
 10
12.322850
 20
9.323952
 30
0.000000
 11
12.078241
 21
9.244320
 31
0.000000
  0
ARC
  8
Default
 62
     5
  6
CONTINUOUS
 10
11.927137
 20
9.354359
 30
0.000000
 40
0.186926
 50
323.936646
 51
385.111191
  0
LINE
  8
Default
 62
     5
  6
CONTINUOUS
 10
12.060587
 20
9.513445
 30
0.000000
 11
12.096395
 21
9.433686
 31
0.000000
  0
LINE
  8
Default
 62
     5
  6
CONTINUOUS
 10
12.060587
 20
9.513445
 30
0.000000
 11
12.125899
 21
9.476831
 31
0.000000
  0
ARC
  8
Default
 62
     5
  6
CONTINUOUS
 10
12.147904
 20
9.516084
 30
0.000000
 40
0.045000
 50
240.725015
 51
243.386156
  0
ARC
  8
Default
 62
     5
  6
CONTINUOUS
 10
12.557008
 20
10.332553
 30
0.000000
 40
0.958229
 50
243.386156
 51
261.131672
  0
ARC
  8
Default
 62
     5
  6
CONTINUOUS
 10
12.490665
 20
9.907359
 30
0.000000
 40
0.527890
 50
261.131672
 51
270.712749
  0
LINE
  8
Default
 62
     5
  6
CONTINUOUS
 10
12.497232
 20
9.379509
 30
0.000000
 11
12.323120
 21
9.324038
 31
0.000000
  0
ENDSEC
  0
EOF
