  0
SECTION
  2
HEADER
  9
$ACADVER
  1
AC1015
  9
$ACADMAINTVER
 70
     6
  9
$DWGCODEPAGE
  3
ANSI_1252
  9
$INSBASE
 10
0.0
 20
0.0
 30
0.0
  9
$EXTMIN
 10
0.0
 20
0.0
 30
0.0
  9
$EXTMAX
 10
431.8
 20
279.4
 30
0.0
  9
$LIMMIN
 10
0.0
 20
0.0
  9
$LIMMAX
 10
431.8
 20
279.4
  9
$ORTHOMODE
 70
     0
  9
$REGENMODE
 70
     1
  9
$FILLMODE
 70
     1
  9
$QTEXTMODE
 70
     0
  9
$MIRRTEXT
 70
     1
  9
$LTSCALE
 40
1.0
  9
$ATTMODE
 70
     1
  9
$TEXTSIZE
 40
3.5
  9
$TRACEWID
 40
1.0
  9
$TEXTSTYLE
  7
Standard
  9
$CLAYER
  8
0
  9
$CELTYPE
  6
ByLayer
  9
$CECOLOR
 62
   256
  9
$CELTSCALE
 40
1.0
  9
$DISPSILH
 70
     0
  9
$DIMSCALE
 40
1.0
  9
$DIMASZ
 40
6.0
  9
$DIMEXO
 40
1.0
  9
$DIMDLI
 40
3.75
  9
$DIMRND
 40
0.0
  9
$DIMDLE
 40
0.0
  9
$DIMEXE
 40
1.0
  9
$DIMTP
 40
0.0
  9
$DIMTM
 40
0.0
  9
$DIMTXT
 40
3.5
  9
$DIMCEN
 40
2.5
  9
$DIMTSZ
 40
0.0
  9
$DIMTOL
 70
     0
  9
$DIMLIM
 70
     0
  9
$DIMTIH
 70
     1
  9
$DIMTOH
 70
     1
  9
$DIMSE1
 70
     0
  9
$DIMSE2
 70
     0
  9
$DIMTAD
 70
     1
  9
$DIMZIN
 70
     0
  9
$DIMBLK
  1

  9
$DIMASO
 70
     1
  9
$DIMSHO
 70
     1
  9
$DIMPOST
  1

  9
$DIMAPOST
  1

  9
$DIMALT
 70
     0
  9
$DIMALTD
 70
     3
  9
$DIMALTF
 40
0.0393700787
  9
$DIMLFAC
 40
1.0
  9
$DIMTOFL
 70
     1
  9
$DIMTVP
 40
0.0
  9
$DIMTIX
 70
     0
  9
$DIMSOXD
 70
     0
  9
$DIMSAH
 70
     0
  9
$DIMBLK1
  1

  9
$DIMBLK2
  1

  9
$DIMSTYLE
  2
ISO-25
  9
$DIMCLRD
 70
     0
  9
$DIMCLRE
 70
     0
  9
$DIMCLRT
 70
     0
  9
$DIMTFAC
 40
1.0
  9
$DIMGAP
 40
1.524
  9
$DIMJUST
 70
     0
  9
$DIMSD1
 70
     0
  9
$DIMSD2
 70
     0
  9
$DIMTOLJ
 70
     0
  9
$DIMTZIN
 70
     0
  9
$DIMALTZ
 70
     0
  9
$DIMALTTZ
 70
     0
  9
$DIMUPT
 70
     0
  9
$DIMDEC
 70
     3
  9
$DIMTDEC
 70
     3
  9
$DIMALTU
 70
     2
  9
$DIMALTTD
 70
     3
  9
$DIMTXSTY
  7
Standard
  9
$DIMAUNIT
 70
     0
  9
$DIMADEC
 70
     2
  9
$DIMALTRND
 40
0.0
  9
$DIMAZIN
 70
     0
  9
$DIMDSEP
 70
    44
  9
$DIMATFIT
 70
     3
  9
$DIMFRAC
 70
     0
  9
$DIMLDRBLK
  1

  9
$DIMLUNIT
 70
     2
  9
$DIMLWD
 70
    -2
  9
$DIMLWE
 70
    -2
  9
$DIMTMOVE
 70
     0
  9
$LUNITS
 70
     2
  9
$LUPREC
 70
     2
  9
$SKETCHINC
 40
1.0
  9
$FILLETRAD
 40
10.0
  9
$AUNITS
 70
     0
  9
$AUPREC
 70
     2
  9
$MENU
  1
.
  9
$ELEVATION
 40
0.0
  9
$PELEVATION
 40
0.0
  9
$THICKNESS
 40
0.0
  9
$LIMCHECK
 70
     0
  9
$CHAMFERA
 40
10.0
  9
$CHAMFERB
 40
10.0
  9
$CHAMFERC
 40
20.0
  9
$CHAMFERD
 40
0.0
  9
$SKPOLY
 70
     0
  9
$TDCREATE
 40
2455980.569830521
  9
$TDUCREATE
 40
2455980.403163854
  9
$TDUPDATE
 40
2455980.569830532
  9
$TDUUPDATE
 40
2455980.403163866
  9
$TDINDWG
 40
0.0000000116
  9
$TDUSRTIMER
 40
0.0000000116
  9
$USRTIMER
 70
     1
  9
$ANGBASE
 50
0.0
  9
$ANGDIR
 70
     0
  9
$PDMODE
 70
     0
  9
$PDSIZE
 40
-1.0
  9
$PLINEWID
 40
0.0
  9
$SPLFRAME
 70
     0
  9
$SPLINETYPE
 70
     6
  9
$SPLINESEGS
 70
     8
  9
$HANDSEED
  5
2FE
  9
$SURFTAB1
 70
     6
  9
$SURFTAB2
 70
     6
  9
$SURFTYPE
 70
     6
  9
$SURFU
 70
     6
  9
$SURFV
 70
     6
  9
$UCSBASE
  2

  9
$UCSNAME
  2

  9
$UCSORG
 10
0.0
 20
0.0
 30
0.0
  9
$UCSXDIR
 10
1.0
 20
0.0
 30
0.0
  9
$UCSYDIR
 10
0.0
 20
1.0
 30
0.0
  9
$UCSORTHOREF
  2

  9
$UCSORTHOVIEW
 70
     0
  9
$UCSORGTOP
 10
0.0
 20
0.0
 30
0.0
  9
$UCSORGBOTTOM
 10
0.0
 20
0.0
 30
0.0
  9
$UCSORGLEFT
 10
0.0
 20
0.0
 30
0.0
  9
$UCSORGRIGHT
 10
0.0
 20
0.0
 30
0.0
  9
$UCSORGFRONT
 10
0.0
 20
0.0
 30
0.0
  9
$UCSORGBACK
 10
0.0
 20
0.0
 30
0.0
  9
$PUCSBASE
  2

  9
$PUCSNAME
  2

  9
$PUCSORG
 10
0.0
 20
0.0
 30
0.0
  9
$PUCSXDIR
 10
1.0
 20
0.0
 30
0.0
  9
$PUCSYDIR
 10
0.0
 20
1.0
 30
0.0
  9
$PUCSORTHOREF
  2

  9
$PUCSORTHOVIEW
 70
     0
  9
$PUCSORGTOP
 10
0.0
 20
0.0
 30
0.0
  9
$PUCSORGBOTTOM
 10
0.0
 20
0.0
 30
0.0
  9
$PUCSORGLEFT
 10
0.0
 20
0.0
 30
0.0
  9
$PUCSORGRIGHT
 10
0.0
 20
0.0
 30
0.0
  9
$PUCSORGFRONT
 10
0.0
 20
0.0
 30
0.0
  9
$PUCSORGBACK
 10
0.0
 20
0.0
 30
0.0
  9
$USERI1
 70
     0
  9
$USERI2
 70
     0
  9
$USERI3
 70
     0
  9
$USERI4
 70
     0
  9
$USERI5
 70
     0
  9
$USERR1
 40
0.0
  9
$USERR2
 40
0.0
  9
$USERR3
 40
0.0
  9
$USERR4
 40
0.0
  9
$USERR5
 40
0.0
  9
$WORLDVIEW
 70
     1
  9
$SHADEDGE
 70
     3
  9
$SHADEDIF
 70
    70
  9
$TILEMODE
 70
     1
  9
$MAXACTVP
 70
    64
  9
$PINSBASE
 10
0.0
 20
0.0
 30
0.0
  9
$PLIMCHECK
 70
     0
  9
$PEXTMIN
 10
1.0000000000E+20
 20
1.0000000000E+20
 30
1.0000000000E+20
  9
$PEXTMAX
 10
-1.0000000000E+20
 20
-1.0000000000E+20
 30
-1.0000000000E+20
  9
$PLIMMIN
 10
0.0
 20
0.0
  9
$PLIMMAX
 10
420.0
 20
297.0
  9
$UNITMODE
 70
     0
  9
$VISRETAIN
 70
     1
  9
$PLINEGEN
 70
     0
  9
$PSLTSCALE
 70
     1
  9
$TREEDEPTH
 70
  3020
  9
$CMLSTYLE
  2
Standard
  9
$CMLJUST
 70
     0
  9
$CMLSCALE
 40
20.0
  9
$PROXYGRAPHICS
 70
     1
  9
$MEASUREMENT
 70
     1
  9
$CELWEIGHT
370
    -1
  9
$ENDCAPS
280
     0
  9
$JOINSTYLE
280
     0
  9
$LWDISPLAY
290
     1
  9
$INSUNITS
 70
     4
  9
$HYPERLINKBASE
  1

  9
$STYLESHEET
  1

  9
$XEDIT
290
     1
  9
$CEPSNTYPE
380
     0
  9
$PSTYLEMODE
290
     1
  9
$FINGERPRINTGUID
  2
{B52A0CBA-90F8-4B03-8B6F-F61D6E157FD3}
  9
$VERSIONGUID
  2
{FAEB1C32-E019-11D5-929B-00C0DF256EC4}
  9
$EXTNAMES
290
     1
  9
$PSVPSCALE
 40
0.0
  9
$OLESTARTUP
290
     0
  0
ENDSEC
  0
SECTION
  2
CLASSES
  0
CLASS
  1
ACDBDICTIONARYWDFLT
  2
AcDbDictionaryWithDefault
  3
ObjectDBX Classes
 90
        0
280
     0
281
     0
  0
CLASS
  1
VISUALSTYLE
  2
AcDbVisualStyle
  3
ObjectDBX Classes
 90
     4095
280
     0
281
     0
  0
CLASS
  1
MATERIAL
  2
AcDbMaterial
  3
ObjectDBX Classes
 90
     1153
280
     0
281
     0
  0
CLASS
  1
ACDBPLACEHOLDER
  2
AcDbPlaceHolder
  3
ObjectDBX Classes
 90
        0
280
     0
281
     0
  0
CLASS
  1
LAYOUT
  2
AcDbLayout
  3
ObjectDBX Classes
 90
        0
280
     0
281
     0
  0
ENDSEC
  0
SECTION
  2
TABLES
  0
TABLE
  2
VPORT
  5
8
330
0
100
AcDbSymbolTable
 70
     1
  0
VPORT
  5
29
330
8
100
AcDbSymbolTableRecord
100
AcDbViewportTableRecord
  2
*Active
 70
     0
 10
0.0
 20
0.0
 11
1.0
 21
1.0
 12
215.9
 22
139.7
 13
0.0
 23
0.0
 14
10.0
 24
10.0
 15
10.0
 25
10.0
 16
0.0
 26
0.0
 36
1.0
 17
0.0
 27
0.0
 37
0.0
 40
279.4
 41
1.5454545455
 42
50.0
 43
0.0
 44
0.0
 50
0.0
 51
0.0
 71
     0
 72
  2000
 73
     1
 74
     3
 75
     0
 76
     0
 77
     0
 78
     0
281
     0
 65
     1
110
0.0
120
0.0
130
0.0
111
1.0
121
0.0
131
0.0
112
0.0
122
1.0
132
0.0
 79
     0
146
0.0
  0
ENDTAB
  0
TABLE
  2
LTYPE
  5
5
330
0
100
AcDbSymbolTable
 70
     6
  0
LTYPE
  5
14
330
5
100
AcDbSymbolTableRecord
100
AcDbLinetypeTableRecord
  2
ByBlock
 70
     0
  3

 72
    65
 73
     0
 40
0.0
  0
LTYPE
  5
15
330
5
100
AcDbSymbolTableRecord
100
AcDbLinetypeTableRecord
  2
ByLayer
 70
     0
  3

 72
    65
 73
     0
 40
0.0
  0
LTYPE
  5
16
330
5
100
AcDbSymbolTableRecord
100
AcDbLinetypeTableRecord
  2
Continuous
 70
     0
  3
Solid line
 72
    65
 73
     0
 40
0.0
  0
LTYPE
  5
3F
330
5
100
AcDbSymbolTableRecord
100
AcDbLinetypeTableRecord
  2
HIDDEN
 70
     0
  3
Hidden __ __ __ __ __ __ __ __ __ __ __ __ __ __
 72
    65
 73
     2
 40
1.905
 49
1.27
 74
     0
 49
-0.635
 74
     0
  0
LTYPE
  5
40
330
5
100
AcDbSymbolTableRecord
100
AcDbLinetypeTableRecord
  2
PHANTOM
 70
     0
  3
Phantom ______  __  __  ______  __  __  ______
 72
    65
 73
     6
 40
12.7
 49
6.35
 74
     0
 49
-1.27
 74
     0
 49
1.27
 74
     0
 49
-1.27
 74
     0
 49
1.27
 74
     0
 49
-1.27
 74
     0
  0
LTYPE
  5
41
330
5
100
AcDbSymbolTableRecord
100
AcDbLinetypeTableRecord
  2
CENTER
 70
     0
  3
Center ____ _ ____ _ ____ _ ____ _ ____ _ ____
 72
    65
 73
     4
 40
10.16
 49
6.35
 74
     0
 49
-1.27
 74
     0
 49
1.27
 74
     0
 49
-1.27
 74
     0
  0
LTYPE
  5
42
330
5
100
AcDbSymbolTableRecord
100
AcDbLinetypeTableRecord
  2
CENTERX2
 70
     0
  3
Center (2x) ________  __  ________  __  _____
 72
    65
 73
     4
 40
20.32
 49
12.7
 74
     0
 49
-2.54
 74
     0
 49
2.54
 74
     0
 49
-2.54
 74
     0
  0
LTYPE
  5
43
330
5
100
AcDbSymbolTableRecord
100
AcDbLinetypeTableRecord
  2
DOT2
 70
     0
  3
Dot (.5x) ........................................
 72
    65
 73
     2
 40
0.635
 49
0.0
 74
     0
 49
-0.635
 74
     0
  0
ENDTAB
  0
TABLE
  2
LAYER
  5
2
330
0
100
AcDbSymbolTable
 70
     1
  0
LAYER
  5
10
330
2
100
AcDbSymbolTableRecord
100
AcDbLayerTableRecord
  2
0
 70
     0
 62
     7
  6
Continuous
370
    -3
390
F
  0
ENDTAB
  0
TABLE
  2
STYLE
  5
3
330
0
100
AcDbSymbolTable
 70
     1
  0
STYLE
  5
11
330
3
100
AcDbSymbolTableRecord
100
AcDbTextStyleTableRecord
  2
Standard
 70
     0
 40
0.0
 41
1.0
 50
0.0
 71
     0
 42
2.5
  3
txt
  4

  0
ENDTAB
  0
TABLE
  2
VIEW
  5
6
330
0
100
AcDbSymbolTable
 70
     0
  0
ENDTAB
  0
TABLE
  2
UCS
  5
7
330
0
100
AcDbSymbolTable
 70
     0
  0
ENDTAB
  0
TABLE
  2
APPID
  5
9
330
0
100
AcDbSymbolTable
 70
     1
  0
APPID
  5
12
330
9
100
AcDbSymbolTableRecord
100
AcDbRegAppTableRecord
  2
ACAD
 70
     0
  0
ENDTAB
  0
TABLE
  2
DIMSTYLE
  5
A
330
0
100
AcDbSymbolTable
 70
     1
100
AcDbDimStyleTable
  0
DIMSTYLE
105
27
330
A
100
AcDbSymbolTableRecord
100
AcDbDimStyleTableRecord
  2
ISO-25
 70
     0
 41
2.5
 42
0.625
 43
3.75
 44
1.25
 73
     0
 74
     0
 77
     1
 78
     8
140
2.5
141
2.5
143
0.0393700787
147
0.625
171
     3
172
     1
271
     2
272
     2
274
     3
278
    44
283
     0
284
     8
340
11
  0
ENDTAB
  0
TABLE
  2
BLOCK_RECORD
  5
1
330
0
100
AcDbSymbolTable
 70
     1
  0
BLOCK_RECORD
  5
1F
330
1
100
AcDbSymbolTableRecord
100
AcDbBlockTableRecord
  2
*Model_Space
340
22
  0
BLOCK_RECORD
  5
1B
330
1
100
AcDbSymbolTableRecord
100
AcDbBlockTableRecord
  2
*Paper_Space
340
1E
  0
BLOCK_RECORD
  5
23
330
1
100
AcDbSymbolTableRecord
100
AcDbBlockTableRecord
  2
*Paper_Space0
340
26
  0
ENDTAB
  0
ENDSEC
  0
SECTION
  2
BLOCKS
  0
BLOCK
  5
20
330
1F
100
AcDbEntity
  8
0
100
AcDbBlockBegin
  2
*Model_Space
 70
     0
 10
0.0
 20
0.0
 30
0.0
  3
*Model_Space
  1

  0
ENDBLK
  5
21
330
1F
100
AcDbEntity
  8
0
100
AcDbBlockEnd
  0
BLOCK
  5
1C
330
1B
100
AcDbEntity
 67
     1
  8
0
100
AcDbBlockBegin
  2
*Paper_Space
 70
     0
 10
0.0
 20
0.0
 30
0.0
  3
*Paper_Space
  1

  0
ENDBLK
  5
1D
330
1B
100
AcDbEntity
 67
     1
  8
0
100
AcDbBlockEnd
  0
BLOCK
  5
24
330
23
100
AcDbEntity
  8
0
100
AcDbBlockBegin
  2
*Paper_Space0
 70
     0
 10
0.0
 20
0.0
 30
0.0
  3
*Paper_Space0
  1

  0
ENDBLK
  5
25
330
23
100
AcDbEntity
  8
0
100
AcDbBlockEnd
  0
ENDSEC
  0
SECTION
  2
ENTITIES
  0
LINE
  5
44
330
1F
100
AcDbEntity
  8
0
  6
Continuous
 62
     7
370
    15
100
AcDbLine
 10
1060.3721527568
 20
-33.3050363247
 30
0.0
 11
-739.6277995595
 21
-33.3050363247
 31
0.0
  0
LINE
  5
45
330
1F
100
AcDbEntity
  8
0
  6
Continuous
 62
     7
370
    15
100
AcDbLine
 10
-739.6277995595
 20
-33.3050363247
 30
0.0
 11
-739.6277995595
 21
-833.3050407951
 31
0.0
  0
LINE
  5
46
330
1F
100
AcDbEntity
  8
0
  6
Continuous
 62
     7
370
    15
100
AcDbLine
 10
-571.917197276
 20
-739.3050421511
 30
0.0
 11
-521.9171853551
 21
-739.3050421511
 31
0.0
  0
LINE
  5
47
330
1F
100
AcDbEntity
  8
0
  6
Continuous
 62
     7
370
    15
100
AcDbLine
 10
-521.9171853551
 20
-739.3050421511
 30
0.0
 11
-521.9171853551
 21
-727.3050420468
 31
0.0
  0
LINE
  5
48
330
1F
100
AcDbEntity
  8
0
  6
Continuous
 62
     7
370
    15
100
AcDbLine
 10
-521.9171853551
 20
-727.3050420468
 30
0.0
 11
-571.917197276
 21
-727.3050420468
 31
0.0
  0
LINE
  5
49
330
1F
100
AcDbEntity
  8
0
  6
Continuous
 62
     7
370
    15
100
AcDbLine
 10
-571.917197276
 20
-727.3050420468
 30
0.0
 11
-571.917197276
 21
-739.3050421511
 31
0.0
  0
LINE
  5
4A
330
1F
100
AcDbEntity
  8
0
  6
Continuous
 62
     7
370
    15
100
AcDbLine
 10
-303.0933650026
 20
-739.3050421511
 30
0.0
 11
-253.0933530816
 21
-739.3050421511
 31
0.0
  0
LINE
  5
4B
330
1F
100
AcDbEntity
  8
0
  6
Continuous
 62
     7
370
    15
100
AcDbLine
 10
-253.0933530816
 20
-739.3050421511
 30
0.0
 11
-253.0933530816
 21
-727.3050420468
 31
0.0
  0
LINE
  5
4C
330
1F
100
AcDbEntity
  8
0
  6
Continuous
 62
     7
370
    15
100
AcDbLine
 10
-253.0933530816
 20
-727.3050420468
 30
0.0
 11
-303.0933650026
 21
-727.3050420468
 31
0.0
  0
LINE
  5
4D
330
1F
100
AcDbEntity
  8
0
  6
Continuous
 62
     7
370
    15
100
AcDbLine
 10
-303.0933650026
 20
-727.3050420468
 30
0.0
 11
-303.0933650026
 21
-739.3050421511
 31
0.0
  0
LINE
  5
4E
330
1F
100
AcDbEntity
  8
0
  6
Continuous
 62
     7
370
    15
100
AcDbLine
 10
15.7304493895
 20
-727.3050420468
 30
0.0
 11
-34.2695476302
 21
-727.3050420468
 31
0.0
  0
LINE
  5
4F
330
1F
100
AcDbEntity
  8
0
  6
Continuous
 62
     7
370
    15
100
AcDbLine
 10
-34.2695476302
 20
-727.3050420468
 30
0.0
 11
-34.2695476302
 21
-739.3050421511
 31
0.0
  0
LINE
  5
50
330
1F
100
AcDbEntity
  8
0
  6
Continuous
 62
     7
370
    15
100
AcDbLine
 10
-34.2695476302
 20
-739.3050421511
 30
0.0
 11
15.7304493895
 21
-739.3050421511
 31
0.0
  0
LINE
  5
51
330
1F
100
AcDbEntity
  8
0
  6
Continuous
 62
     7
370
    15
100
AcDbLine
 10
15.7304493895
 20
-739.3050421511
 30
0.0
 11
15.7304493895
 21
-727.3050420468
 31
0.0
  0
LINE
  5
52
330
1F
100
AcDbEntity
  8
0
  6
Continuous
 62
     7
370
    15
100
AcDbLine
 10
623.8377181998
 20
-739.3050421511
 30
0.0
 11
623.8377181998
 21
-727.3050420468
 31
0.0
  0
LINE
  5
53
330
1F
100
AcDbEntity
  8
0
  6
Continuous
 62
     7
370
    15
100
AcDbLine
 10
623.8377181998
 20
-727.3050420468
 30
0.0
 11
573.8377062789
 21
-727.3050420468
 31
0.0
  0
LINE
  5
54
330
1F
100
AcDbEntity
  8
0
  6
Continuous
 62
     7
370
    15
100
AcDbLine
 10
573.8377062789
 20
-727.3050420468
 30
0.0
 11
573.8377062789
 21
-739.3050421511
 31
0.0
  0
LINE
  5
55
330
1F
100
AcDbEntity
  8
0
  6
Continuous
 62
     7
370
    15
100
AcDbLine
 10
573.8377062789
 20
-739.3050421511
 30
0.0
 11
623.8377181998
 21
-739.3050421511
 31
0.0
  0
LINE
  5
56
330
1F
100
AcDbEntity
  8
0
  6
Continuous
 62
     7
370
    15
100
AcDbLine
 10
355.0139008275
 20
-739.3050421511
 30
0.0
 11
355.0139008275
 21
-727.3050420468
 31
0.0
  0
LINE
  5
57
330
1F
100
AcDbEntity
  8
0
  6
Continuous
 62
     7
370
    15
100
AcDbLine
 10
355.0139008275
 20
-727.3050420468
 30
0.0
 11
305.0139038077
 21
-727.3050420468
 31
0.0
  0
LINE
  5
58
330
1F
100
AcDbEntity
  8
0
  6
Continuous
 62
     7
370
    15
100
AcDbLine
 10
305.0139038077
 20
-727.3050420468
 30
0.0
 11
305.0139038077
 21
-739.3050421511
 31
0.0
  0
LINE
  5
59
330
1F
100
AcDbEntity
  8
0
  6
Continuous
 62
     7
370
    15
100
AcDbLine
 10
305.0139038077
 20
-739.3050421511
 30
0.0
 11
355.0139008275
 21
-739.3050421511
 31
0.0
  0
LINE
  5
5A
330
1F
100
AcDbEntity
  8
0
  6
Continuous
 62
     7
370
    15
100
AcDbLine
 10
842.6615385524
 20
-727.3050420468
 30
0.0
 11
842.6615385524
 21
-739.3050421511
 31
0.0
  0
LINE
  5
5B
330
1F
100
AcDbEntity
  8
0
  6
Continuous
 62
     7
370
    15
100
AcDbLine
 10
573.8377062789
 20
-124.7326605504
 30
0.0
 11
573.8377062789
 21
-136.7326252644
 31
0.0
  0
LINE
  5
5C
330
1F
100
AcDbEntity
  8
0
  6
Continuous
 62
     7
370
    15
100
AcDbLine
 10
573.8377062789
 20
-136.7326252644
 30
0.0
 11
623.8377181998
 21
-136.7326252644
 31
0.0
  0
LINE
  5
5D
330
1F
100
AcDbEntity
  8
0
  6
Continuous
 62
     7
370
    15
100
AcDbLine
 10
623.8377181998
 20
-136.7326252644
 30
0.0
 11
623.8377181998
 21
-124.7326605504
 31
0.0
  0
LINE
  5
5E
330
1F
100
AcDbEntity
  8
0
  6
Continuous
 62
     7
370
    15
100
AcDbLine
 10
623.8377181998
 20
-124.7326605504
 30
0.0
 11
573.8377062789
 21
-124.7326605504
 31
0.0
  0
LINE
  5
5F
330
1F
100
AcDbEntity
  8
0
  6
Continuous
 62
     7
370
    15
100
AcDbLine
 10
355.0139008275
 20
-124.7326605504
 30
0.0
 11
305.0139038077
 21
-124.7326605504
 31
0.0
  0
LINE
  5
60
330
1F
100
AcDbEntity
  8
0
  6
Continuous
 62
     7
370
    15
100
AcDbLine
 10
305.0139038077
 20
-124.7326605504
 30
0.0
 11
305.0139038077
 21
-136.7326252644
 31
0.0
  0
LINE
  5
61
330
1F
100
AcDbEntity
  8
0
  6
Continuous
 62
     7
370
    15
100
AcDbLine
 10
305.0139038077
 20
-136.7326252644
 30
0.0
 11
355.0139008275
 21
-136.7326252644
 31
0.0
  0
LINE
  5
62
330
1F
100
AcDbEntity
  8
0
  6
Continuous
 62
     7
370
    15
100
AcDbLine
 10
355.0139008275
 20
-136.7326252644
 30
0.0
 11
355.0139008275
 21
-124.7326605504
 31
0.0
  0
LINE
  5
63
330
1F
100
AcDbEntity
  8
0
  6
Continuous
 62
     7
370
    15
100
AcDbLine
 10
-303.0933650026
 20
-124.7326605504
 30
0.0
 11
-303.0933650026
 21
-136.7326252644
 31
0.0
  0
LINE
  5
64
330
1F
100
AcDbEntity
  8
0
  6
Continuous
 62
     7
370
    15
100
AcDbLine
 10
-303.0933650026
 20
-136.7326252644
 30
0.0
 11
-253.0933530816
 21
-136.7326252644
 31
0.0
  0
LINE
  5
65
330
1F
100
AcDbEntity
  8
0
  6
Continuous
 62
     7
370
    15
100
AcDbLine
 10
-253.0933530816
 20
-136.7326252644
 30
0.0
 11
-253.0933530816
 21
-124.7326605504
 31
0.0
  0
LINE
  5
66
330
1F
100
AcDbEntity
  8
0
  6
Continuous
 62
     7
370
    15
100
AcDbLine
 10
-253.0933530816
 20
-124.7326605504
 30
0.0
 11
-303.0933650026
 21
-124.7326605504
 31
0.0
  0
LINE
  5
67
330
1F
100
AcDbEntity
  8
0
  6
Continuous
 62
     7
370
    15
100
AcDbLine
 10
-34.2695476302
 20
-124.7326605504
 30
0.0
 11
-34.2695476302
 21
-136.7326252644
 31
0.0
  0
LINE
  5
68
330
1F
100
AcDbEntity
  8
0
  6
Continuous
 62
     7
370
    15
100
AcDbLine
 10
-34.2695476302
 20
-136.7326252644
 30
0.0
 11
15.7304493895
 21
-136.7326252644
 31
0.0
  0
LINE
  5
69
330
1F
100
AcDbEntity
  8
0
  6
Continuous
 62
     7
370
    15
100
AcDbLine
 10
15.7304493895
 20
-136.7326252644
 30
0.0
 11
15.7304493895
 21
-124.7326605504
 31
0.0
  0
LINE
  5
6A
330
1F
100
AcDbEntity
  8
0
  6
Continuous
 62
     7
370
    15
100
AcDbLine
 10
15.7304493895
 20
-124.7326605504
 30
0.0
 11
-34.2695476302
 21
-124.7326605504
 31
0.0
  0
LINE
  5
6B
330
1F
100
AcDbEntity
  8
0
  6
Continuous
 62
     7
370
    15
100
AcDbLine
 10
-571.917197276
 20
-124.7326605504
 30
0.0
 11
-571.917197276
 21
-136.7326252644
 31
0.0
  0
LINE
  5
6C
330
1F
100
AcDbEntity
  8
0
  6
Continuous
 62
     7
370
    15
100
AcDbLine
 10
-571.917197276
 20
-136.7326252644
 30
0.0
 11
-521.9171853551
 21
-136.7326252644
 31
0.0
  0
LINE
  5
6D
330
1F
100
AcDbEntity
  8
0
  6
Continuous
 62
     7
370
    15
100
AcDbLine
 10
-521.9171853551
 20
-136.7326252644
 30
0.0
 11
-521.9171853551
 21
-124.7326605504
 31
0.0
  0
LINE
  5
6E
330
1F
100
AcDbEntity
  8
0
  6
Continuous
 62
     7
370
    15
100
AcDbLine
 10
-521.9171853551
 20
-124.7326605504
 30
0.0
 11
-571.917197276
 21
-124.7326605504
 31
0.0
  0
LINE
  5
6F
330
1F
100
AcDbEntity
  8
0
  6
Continuous
 62
     7
370
    15
100
AcDbLine
 10
842.6615385524
 20
-739.3050421511
 30
0.0
 11
892.6615504733
 21
-739.3050421511
 31
0.0
  0
LINE
  5
70
330
1F
100
AcDbEntity
  8
0
  6
Continuous
 62
     7
370
    15
100
AcDbLine
 10
1060.3721527568
 20
-833.3050407951
 30
0.0
 11
1060.3721527568
 21
-33.3050363247
 31
0.0
  0
LINE
  5
71
330
1F
100
AcDbEntity
  8
0
  6
Continuous
 62
     7
370
    15
100
AcDbLine
 10
-739.6277995595
 20
-833.3050407951
 30
0.0
 11
1060.3721527568
 21
-833.3050407951
 31
0.0
  0
LINE
  5
72
330
1F
100
AcDbEntity
  8
0
  6
Continuous
 62
     7
370
    15
100
AcDbLine
 10
892.6615504733
 20
-739.3050421511
 30
0.0
 11
892.6615504733
 21
-727.3050420468
 31
0.0
  0
LINE
  5
73
330
1F
100
AcDbEntity
  8
0
  6
Continuous
 62
     7
370
    15
100
AcDbLine
 10
892.6615504733
 20
-727.3050420468
 30
0.0
 11
842.6615385524
 21
-727.3050420468
 31
0.0
  0
LINE
  5
74
330
1F
100
AcDbEntity
  8
0
  6
Continuous
 62
     7
370
    15
100
AcDbLine
 10
892.6615504733
 20
-124.7326605504
 30
0.0
 11
842.6615385524
 21
-124.7326605504
 31
0.0
  0
LINE
  5
75
330
1F
100
AcDbEntity
  8
0
  6
Continuous
 62
     7
370
    15
100
AcDbLine
 10
842.6615385524
 20
-136.7326252644
 30
0.0
 11
892.6615504733
 21
-136.7326252644
 31
0.0
  0
LINE
  5
76
330
1F
100
AcDbEntity
  8
0
  6
Continuous
 62
     7
370
    15
100
AcDbLine
 10
892.6615504733
 20
-136.7326252644
 30
0.0
 11
892.6615504733
 21
-124.7326605504
 31
0.0
  0
LINE
  5
77
330
1F
100
AcDbEntity
  8
0
  6
Continuous
 62
     7
370
    15
100
AcDbLine
 10
842.6615385524
 20
-124.7326605504
 30
0.0
 11
842.6615385524
 21
-136.7326252644
 31
0.0
  0
LINE
  5
78
330
1F
100
AcDbEntity
  8
0
  6
Continuous
 62
     7
370
    15
100
AcDbLine
 10
5.1111219636
 20
-1676.504956979
 30
0.0
 11
-539.9617167005
 21
-1676.504956979
 31
0.0
  0
ARC
  5
79
330
1F
100
AcDbEntity
  8
0
  6
Continuous
 62
     7
370
    15
100
AcDbCircle
 10
5.1111202507
 20
-1666.5049280109
 30
0.0
 40
10.00000000000023
100
AcDbArc
 50
270.0
 51
73.0230273726
  0
ARC
  5
7A
330
1F
100
AcDbEntity
  8
0
  6
Continuous
 62
     7
370
    15
100
AcDbCircle
 10
212.4221308838
 20
-987.4451774217
 30
0.0
 40
699.9999999999999
100
AcDbArc
 50
210.415341122
 51
253.0230273726
  0
SPLINE
  5
7B
330
1F
100
AcDbEntity
  8
0
  6
Continuous
 62
     7
370
    15
100
AcDbSpline
210
0.0
220
0.0
230
1.0
 70
     8
 71
     3
 72
    24
 73
    20
 74
     0
 42
0.00000001
 43
0.00000001
 40
0.0
 40
0.0
 40
0.0
 40
0.0
 40
0.0525941800986732
 40
0.1047501837009418
 40
0.1566949691899858
 40
0.2085887389544832
 40
0.2605324804551551
 40
0.312577604441632
 40
0.3945831862106449
 40
0.4767706356733338
 40
0.5589635694699533
 40
0.620509267992843
 40
0.6819256299337322
 40
0.7432308922931031
 40
0.804521358578385
 40
0.8527950376980661
 40
0.9013259610430345
 40
0.9503108039353643
 40
1.0
 40
1.0
 40
1.0
 40
1.0
 10
-539.9617167004775
 20
-1676.504956979033
 30
0.0
 10
-538.4251309601241
 20
-1670.228256040226
 30
0.0
 10
-535.3647611954035
 20
-1657.727147074511
 30
0.0
 10
-529.27721995983
 20
-1639.450090919088
 30
0.0
 10
-522.3044786903623
 20
-1621.598395455918
 30
0.0
 10
-514.4709602999961
 20
-1604.134108933392
 30
0.0
 10
-505.9480313284222
 20
-1586.985796910951
 30
0.0
 10
-495.1313969440697
 20
-1566.861282336422
 30
0.0
 10
-481.8471510128428
 20
-1543.859103022172
 30
0.0
 10
-466.2530014006595
 20
-1517.925193412577
 30
0.0
 10
-451.995478435117
 20
-1494.11870409593
 30
0.0
 10
-439.4517824351608
 20
-1472.263141465164
 30
0.0
 10
-428.7177172010926
 20
-1452.334083920398
 30
0.0
 10
-418.7633054074782
 20
-1432.03572951513
 30
0.0
 10
-410.4614926108412
 20
-1412.749417355602
 30
0.0
 10
-403.7462978155896
 20
-1394.520240012735
 30
0.0
 10
-398.4898775140178
 20
-1377.395864988775
 30
0.0
 10
-394.137854779008
 20
-1359.828161616757
 30
0.0
 10
-392.2122565187281
 20
-1347.858188086907
 30
0.0
 10
-391.2425847539138
 20
-1341.830479401823
 30
0.0
  0
LINE
  5
7C
330
1F
100
AcDbEntity
  8
0
  6
Continuous
 62
     7
370
    15
100
AcDbLine
 10
862.4221472255
 20
-987.4451630299
 30
0.0
 11
912.4221591464
 21
-987.4451630299
 31
0.0
  0
ARC
  5
7D
330
1F
100
AcDbEntity
  8
0
  6
Continuous
 62
     7
370
    15
100
AcDbCircle
 10
212.4221308838
 20
-987.4451774217
 30
0.0
 40
700.0
100
AcDbArc
 50
338.2132107017
 51
0.0
  0
SPLINE
  5
7E
330
1F
100
AcDbEntity
  8
0
  6
Continuous
 62
     7
370
    15
100
AcDbSpline
210
0.0
220
0.0
230
1.0
 70
     8
 71
     3
 72
    38
 73
    34
 74
     0
 42
0.00000001
 43
0.00000001
 40
0.0
 40
0.0
 40
0.0
 40
0.0
 40
0.0334566380457235
 40
0.065068902919101
 40
0.094948215237621
 40
0.1232069328823891
 40
0.1499576084221971
 40
0.1828941880141744
 40
0.213689147547922
 40
0.2425907368150283
 40
0.2717305421475756
 40
0.2992627445825489
 40
0.325458807909126
 40
0.350570828550608
 40
0.3748282178044506
 40
0.4097776384691262
 40
0.443871302677237
 40
0.477552807588494
 40
0.5110370061651909
 40
0.5444842101918919
 40
0.5780503942277373
 40
0.6118948261311574
 40
0.6461874812425952
 40
0.6811167241393205
 40
0.7168939350807415
 40
0.7537578457662402
 40
0.7919761027466222
 40
0.8231480686250839
 40
0.8554934868960488
 40
0.8891766035277582
 40
0.9243691462492893
 40
0.9612492350934749
 40
0.9999999999999999
 40
0.9999999999999999
 40
0.9999999999999999
 40
0.9999999999999999
 10
862.4221472254563
 20
-1247.252809304472
 30
0.0
 10
862.2677418451419
 20
-1252.487985139357
 30
0.0
 10
861.9674430318498
 20
-1262.669735849006
 30
0.0
 10
862.0251855794353
 20
-1277.535110800662
 30
0.0
 10
862.4583883346799
 20
-1291.579230224525
 30
0.0
 10
863.2789202992295
 20
-1304.844327644525
 30
0.0
 10
864.5710544779749
 20
-1318.552518748823
 30
0.0
 10
866.4502095649675
 20
-1332.596195662008
 30
0.0
 10
869.0523358637621
 20
-1346.86694352739
 30
0.0
 10
872.2233068131864
 20
-1360.412602364999
 30
0.0
 10
875.962720459475
 20
-1373.282526036556
 30
0.0
 10
880.267052569764
 20
-1385.526286309675
 30
0.0
 10
884.988298587717
 20
-1396.935103933336
 30
0.0
 10
890.0710016841042
 20
-1407.621494978802
 30
0.0
 10
896.2967674299736
 20
-1419.264535637371
 30
0.0
 10
903.8320334811175
 20
-1431.784012529395
 30
0.0
 10
912.7160421660649
 20
-1445.189996208267
 30
0.0
 10
921.7669839452133
 20
-1458.203339816629
 30
0.0
 10
930.9419225015205
 20
-1471.004706299196
 30
0.0
 10
940.172259936784
 20
-1483.743527309585
 30
0.0
 10
949.3870346257232
 20
-1496.563362082003
 30
0.0
 10
958.5146832457224
 20
-1509.607945844019
 30
0.0
 10
967.4838897349392
 20
-1523.020568790859
 30
0.0
 10
976.2222838122397
 20
-1536.944653323215
 30
0.0
 10
984.6576157714977
 20
-1551.522944436557
 30
0.0
 10
992.7170584847692
 20
-1566.89761139346
 30
0.0
 10
999.7516815531964
 20
-1581.976635786463
 30
0.0
 10
1005.845345671893
 20
-1596.694232671286
 30
0.0
 10
1011.099382166618
 20
-1610.97799106234
 30
0.0
 10
1015.964960168701
 20
-1626.062027408305
 30
0.0
 10
1020.393900680269
 20
-1642.016878737903
 30
0.0
 10
1024.405603021577
 20
-1658.901275472558
 30
0.0
 10
1026.575779989764
 20
-1670.541095551343
 30
0.0
 10
1027.687707375603
 20
-1676.504956979033
 30
0.0
  0
LINE
  5
7F
330
1F
100
AcDbEntity
  8
0
  6
Continuous
 62
     7
370
    15
100
AcDbLine
 10
1027.6877073756
 20
-1676.504956979
 30
0.0
 11
1102.4221567622
 21
-1676.504956979
 31
0.0
  0
ARC
  5
80
330
1F
100
AcDbEntity
  8
0
  6
Continuous
 62
     7
370
    15
100
AcDbCircle
 10
1102.4221308838
 20
-1686.5049280109
 30
0.0
 40
10.0
100
AcDbArc
 50
0.0
 51
90.0
  0
LINE
  5
81
330
1F
100
AcDbEntity
  8
0
  6
Continuous
 62
     7
370
    15
100
AcDbLine
 10
1112.4221472255
 20
-1686.5049474423
 30
0.0
 11
1112.4221472255
 21
-1726.5049092953
 31
0.0
  0
LINE
  5
82
330
1F
100
AcDbEntity
  8
0
  6
Continuous
 62
     7
370
    15
100
AcDbLine
 10
1112.4221472255
 20
-1726.5049092953
 30
0.0
 11
944.7114853373
 21
-1726.5049092953
 31
0.0
  0
LINE
  5
83
330
1F
100
AcDbEntity
  8
0
  6
Continuous
 62
     7
370
    15
100
AcDbLine
 10
944.7114853373
 20
-1726.5049092953
 30
0.0
 11
944.7114853373
 21
-1738.5048740094
 31
0.0
  0
LINE
  5
84
330
1F
100
AcDbEntity
  8
0
  6
Continuous
 62
     7
370
    15
100
AcDbLine
 10
944.7114853373
 20
-1738.5048740094
 30
0.0
 11
894.7114734164
 21
-1738.5048740094
 31
0.0
  0
LINE
  5
85
330
1F
100
AcDbEntity
  8
0
  6
Continuous
 62
     7
370
    15
100
AcDbLine
 10
894.7114734164
 20
-1726.5049092953
 30
0.0
 11
894.7114734164
 21
-1738.5048740094
 31
0.0
  0
LINE
  5
86
330
1F
100
AcDbEntity
  8
0
  6
Continuous
 62
     7
370
    15
100
AcDbLine
 10
894.7114734164
 20
-1726.5049092953
 30
0.0
 11
675.8876828662
 21
-1726.5049092953
 31
0.0
  0
LINE
  5
87
330
1F
100
AcDbEntity
  8
0
  6
Continuous
 62
     7
370
    15
100
AcDbLine
 10
675.8876828662
 20
-1726.5049092953
 30
0.0
 11
675.8876828662
 21
-1738.5048740094
 31
0.0
  0
LINE
  5
88
330
1F
100
AcDbEntity
  8
0
  6
Continuous
 62
     7
370
    15
100
AcDbLine
 10
675.8876828662
 20
-1738.5048740094
 30
0.0
 11
625.8876709452
 21
-1738.5048740094
 31
0.0
  0
LINE
  5
89
330
1F
100
AcDbEntity
  8
0
  6
Continuous
 62
     7
370
    15
100
AcDbLine
 10
625.8876709452
 20
-1726.5049092953
 30
0.0
 11
625.8876709452
 21
-1738.5048740094
 31
0.0
  0
LINE
  5
8A
330
1F
100
AcDbEntity
  8
0
  6
Continuous
 62
     7
370
    15
100
AcDbLine
 10
625.8876709452
 20
-1726.5049092953
 30
0.0
 11
407.0638654939
 21
-1726.5049092953
 31
0.0
  0
LINE
  5
8B
330
1F
100
AcDbEntity
  8
0
  6
Continuous
 62
     7
370
    15
100
AcDbLine
 10
407.0638654939
 20
-1726.5049092953
 30
0.0
 11
407.0638654939
 21
-1738.5048740094
 31
0.0
  0
LINE
  5
8C
330
1F
100
AcDbEntity
  8
0
  6
Continuous
 62
     7
370
    15
100
AcDbLine
 10
407.0638654939
 20
-1738.5048740094
 30
0.0
 11
357.0638684741
 21
-1738.5048740094
 31
0.0
  0
LINE
  5
8D
330
1F
100
AcDbEntity
  8
0
  6
Continuous
 62
     7
370
    15
100
AcDbLine
 10
357.0638684741
 20
-1726.5049092953
 30
0.0
 11
357.0638684741
 21
-1738.5048740094
 31
0.0
  0
LINE
  5
8E
330
1F
100
AcDbEntity
  8
0
  6
Continuous
 62
     7
370
    15
100
AcDbLine
 10
357.0638684741
 20
-1726.5049092953
 30
0.0
 11
67.7803991547
 21
-1726.5049092953
 31
0.0
  0
LINE
  5
8F
330
1F
100
AcDbEntity
  8
0
  6
Continuous
 62
     7
370
    15
100
AcDbLine
 10
67.7803991547
 20
-1726.5049092953
 30
0.0
 11
67.7803991547
 21
-1738.5048740094
 31
0.0
  0
LINE
  5
90
330
1F
100
AcDbEntity
  8
0
  6
Continuous
 62
     7
370
    15
100
AcDbLine
 10
67.7803991547
 20
-1738.5048740094
 30
0.0
 11
17.780402135
 21
-1738.5048740094
 31
0.0
  0
LINE
  5
91
330
1F
100
AcDbEntity
  8
0
  6
Continuous
 62
     7
370
    15
100
AcDbLine
 10
17.780402135
 20
-1726.5049092953
 30
0.0
 11
17.780402135
 21
-1738.5048740094
 31
0.0
  0
LINE
  5
92
330
1F
100
AcDbEntity
  8
0
  6
Continuous
 62
     7
370
    15
100
AcDbLine
 10
17.780402135
 20
-1726.5049092953
 30
0.0
 11
-201.0434182176
 21
-1726.5049092953
 31
0.0
  0
LINE
  5
93
330
1F
100
AcDbEntity
  8
0
  6
Continuous
 62
     7
370
    15
100
AcDbLine
 10
-201.0434182176
 20
-1726.5049092953
 30
0.0
 11
-201.0434182176
 21
-1738.5048740094
 31
0.0
  0
LINE
  5
94
330
1F
100
AcDbEntity
  8
0
  6
Continuous
 62
     7
370
    15
100
AcDbLine
 10
-201.0434182176
 20
-1738.5048740094
 30
0.0
 11
-251.0434003362
 21
-1738.5048740094
 31
0.0
  0
LINE
  5
95
330
1F
100
AcDbEntity
  8
0
  6
Continuous
 62
     7
370
    15
100
AcDbLine
 10
-251.0434003362
 20
-1726.5049092953
 30
0.0
 11
-251.0434003362
 21
-1738.5048740094
 31
0.0
  0
LINE
  5
96
330
1F
100
AcDbEntity
  8
0
  6
Continuous
 62
     7
370
    15
100
AcDbLine
 10
-251.0434003362
 20
-1726.5049092953
 30
0.0
 11
-469.8672504911
 21
-1726.5049092953
 31
0.0
  0
LINE
  5
97
330
1F
100
AcDbEntity
  8
0
  6
Continuous
 62
     7
370
    15
100
AcDbLine
 10
-469.8672504911
 20
-1726.5049092953
 30
0.0
 11
-469.8672504911
 21
-1738.5048740094
 31
0.0
  0
LINE
  5
98
330
1F
100
AcDbEntity
  8
0
  6
Continuous
 62
     7
370
    15
100
AcDbLine
 10
-469.8672504911
 20
-1738.5048740094
 30
0.0
 11
-519.8672028074
 21
-1738.5048740094
 31
0.0
  0
LINE
  5
99
330
1F
100
AcDbEntity
  8
0
  6
Continuous
 62
     7
370
    15
100
AcDbLine
 10
-519.8672028074
 20
-1726.5049092953
 30
0.0
 11
-519.8672028074
 21
-1738.5048740094
 31
0.0
  0
LINE
  5
9A
330
1F
100
AcDbEntity
  8
0
  6
Continuous
 62
     7
370
    15
100
AcDbLine
 10
-519.8672028074
 20
-1726.5049092953
 30
0.0
 11
-687.5778646955
 21
-1726.5049092953
 31
0.0
  0
LINE
  5
9B
330
1F
100
AcDbEntity
  8
0
  6
Continuous
 62
     7
370
    15
100
AcDbLine
 10
-687.5778646955
 20
-1726.5049092953
 30
0.0
 11
-687.5778646955
 21
-1686.5049474423
 31
0.0
  0
ARC
  5
9C
330
1F
100
AcDbEntity
  8
0
  6
Continuous
 62
     7
370
    15
100
AcDbCircle
 10
-677.5778691162
 20
-1686.5049280109
 30
0.0
 40
10.0
100
AcDbArc
 50
90.0
 51
180.0
  0
LINE
  5
9D
330
1F
100
AcDbEntity
  8
0
  6
Continuous
 62
     7
370
    15
100
AcDbLine
 10
-677.5778742322
 20
-1676.504956979
 30
0.0
 11
-602.8434844503
 21
-1676.504956979
 31
0.0
  0
SPLINE
  5
9E
330
1F
100
AcDbEntity
  8
0
  6
Continuous
 62
     7
370
    15
100
AcDbSpline
210
0.0
220
0.0
230
1.0
 70
     8
 71
     3
 72
    39
 73
    35
 74
     0
 42
0.00000001
 43
0.00000001
 40
0.0
 40
0.0
 40
0.0
 40
0.0
 40
0.0352328973633211
 40
0.0689124468171029
 40
0.1011756853921058
 40
0.1321566202237277
 40
0.1619850650170978
 40
0.1907861756358824
 40
0.2235724869715245
 40
0.2552810776231953
 40
0.2860820020418569
 40
0.316131054588701
 40
0.3580300889230302
 40
0.3990466106727889
 40
0.4394981202697835
 40
0.4796699575026599
 40
0.5198324335559732
 40
0.5480876033423211
 40
0.5765817562160401
 40
0.6055346189923234
 40
0.6352634628903061
 40
0.6594063811656857
 40
0.6844596818325891
 40
0.710649716979072
 40
0.7382222557184027
 40
0.7614533216789657
 40
0.7858783767024629
 40
0.811642618161123
 40
0.8388940318927504
 40
0.8677822525020952
 40
0.8978936515351311
 40
0.9298722245694352
 40
0.9638603313717957
 40
0.9999999999999999
 40
0.9999999999999999
 40
0.9999999999999999
 40
0.9999999999999999
 10
-602.8434844502639
 20
-1676.504956979033
 30
0.0
 10
-601.8376872223611
 20
-1671.081626948676
 30
0.0
 10
-599.8704363527572
 20
-1660.474070651655
 30
0.0
 10
-596.2943387849803
 20
-1645.040281539184
 30
0.0
 10
-592.3705645444741
 20
-1630.381512746992
 30
0.0
 10
-588.0797041096391
 20
-1616.454736586135
 30
0.0
 10
-583.4589867405292
 20
-1603.207006410963
 30
0.0
 10
-578.2531532339076
 20
-1589.874283672168
 30
0.0
 10
-572.4133461325032
 20
-1576.483738247168
 30
0.0
 10
-565.8985840306448
 20
-1563.059966829886
 30
0.0
 10
-559.0799939969472
 20
-1550.272232813581
 30
0.0
 10
-551.024310194198
 20
-1536.347826033708
 30
0.0
 10
-541.6067760174219
 20
-1521.37542940195
 30
0.0
 10
-530.7777364997797
 20
-1505.383048614506
 30
0.0
 10
-519.753673849495
 20
-1489.856841748141
 30
0.0
 10
-508.658363003936
 20
-1474.547357632621
 30
0.0
 10
-498.7267534919818
 20
-1460.751905704995
 30
0.0
 10
-490.0349410444409
 20
-1448.317987655191
 30
0.0
 10
-482.5310291624649
 20
-1437.196153408229
 30
0.0
 10
-475.2283121424558
 20
-1425.664976463845
 30
0.0
 10
-468.7724447713247
 20
-1414.41508093398
 30
0.0
 10
-463.1494752424053
 20
-1403.409468437462
 30
0.0
 10
-458.2911439072253
 20
-1392.649739342898
 30
0.0
 10
-453.8019580599588
 20
-1381.151710020455
 30
0.0
 10
-450.027613078441
 20
-1369.699195469228
 30
0.0
 10
-446.8876885970627
 20
-1358.345874719932
 30
0.0
 10
-444.3004787506993
 20
-1347.144308004454
 30
0.0
 10
-442.0672979767696
 20
-1335.226030390128
 30
0.0
 10
-440.2139589821842
 20
-1322.536378986208
 30
0.0
 10
-438.7765180572225
 20
-1309.108559853562
 30
0.0
 10
-437.7682404121197
 20
-1294.899893412999
 30
0.0
 10
-437.2139774321562
 20
-1279.868152479982
 30
0.0
 10
-437.0966432882702
 20
-1263.881731433313
 30
0.0
 10
-437.4142098494648
 20
-1252.908010111299
 30
0.0
 10
-437.5778646954727
 20
-1247.252809304472
 30
0.0
  0
ARC
  5
9F
330
1F
100
AcDbEntity
  8
0
  6
Continuous
 62
     7
370
    15
100
AcDbCircle
 10
212.4221308838
 20
-987.4451774217
 30
0.0
 40
700.0
100
AcDbArc
 50
180.0
 51
201.7867892983
  0
LINE
  5
A0
330
1F
100
AcDbEntity
  8
0
  6
Continuous
 62
     7
370
    15
100
AcDbLine
 10
-487.5778766164
 20
-987.4451630299
 30
0.0
 11
-437.5778646955
 21
-987.4451630299
 31
0.0
  0
ARC
  5
A1
330
1F
100
AcDbEntity
  8
0
  6
Continuous
 62
     7
370
    15
100
AcDbCircle
 10
212.4221308838
 20
-987.4451774217
 30
0.0
 40
649.9999999999998
100
AcDbArc
 50
180.0
 51
195.7174240255
  0
LINE
  5
A2
330
1F
100
AcDbEntity
  8
0
  6
Continuous
 62
     7
370
    15
100
AcDbLine
 10
-424.6022315511
 20
-1163.525747556
 30
0.0
 11
-413.2740111837
 21
-1163.525747556
 31
0.0
  0
LINE
  5
A3
330
1F
100
AcDbEntity
  8
0
  6
Continuous
 62
     7
370
    15
100
AcDbLine
 10
-424.6022315511
 20
-1175.5257420723
 30
0.0
 11
-424.6022315511
 21
-1163.525747556
 31
0.0
  0
LINE
  5
A4
330
1F
100
AcDbEntity
  8
0
  6
Continuous
 62
     7
370
    15
100
AcDbLine
 10
-409.7721190938
 20
-1175.5257420723
 30
0.0
 11
-424.6022315511
 21
-1175.5257420723
 31
0.0
  0
ARC
  5
A5
330
1F
100
AcDbEntity
  8
0
  6
Continuous
 62
     7
370
    15
100
AcDbCircle
 10
212.4221308838
 20
-987.4451774217
 30
0.0
 40
649.9999999999998
100
AcDbArc
 50
196.8193287686
 51
259.4729765219
  0
LINE
  5
A6
330
1F
100
AcDbEntity
  8
0
  6
Continuous
 62
     7
370
    15
100
AcDbLine
 10
93.6676128021
 20
-1626.5049450581
 30
0.0
 11
331.1766473761
 21
-1626.5049450581
 31
0.0
  0
ARC
  5
A7
330
1F
100
AcDbEntity
  8
0
  6
Continuous
 62
     7
370
    15
100
AcDbCircle
 10
212.4221308838
 20
-987.4451774217
 30
0.0
 40
650.0000000000001
100
AcDbArc
 50
280.5270234781
 51
343.1806712314
  0
LINE
  5
A8
330
1F
100
AcDbEntity
  8
0
  6
Continuous
 62
     7
370
    15
100
AcDbLine
 10
849.4465140811
 20
-1175.5257420723
 30
0.0
 11
834.6164016238
 21
-1175.5257420723
 31
0.0
  0
LINE
  5
A9
330
1F
100
AcDbEntity
  8
0
  6
Continuous
 62
     7
370
    15
100
AcDbLine
 10
849.4465140811
 20
-1163.525747556
 30
0.0
 11
849.4465140811
 21
-1175.5257420723
 31
0.0
  0
LINE
  5
AA
330
1F
100
AcDbEntity
  8
0
  6
Continuous
 62
     7
370
    15
100
AcDbLine
 10
838.118234109
 20
-1163.525747556
 30
0.0
 11
849.4465140811
 21
-1163.525747556
 31
0.0
  0
ARC
  5
AB
330
1F
100
AcDbEntity
  8
0
  6
Continuous
 62
     7
370
    15
100
AcDbCircle
 10
212.4221308838
 20
-987.4451774217
 30
0.0
 40
650.0
100
AcDbArc
 50
344.2825759745
 51
0.0
  0
LINE
  5
AC
330
1F
100
AcDbEntity
  8
0
  6
Continuous
 62
     7
370
    15
100
AcDbLine
 10
964.8059992305
 20
-1676.504956979
 30
0.0
 11
419.7331456652
 21
-1676.504956979
 31
0.0
  0
SPLINE
  5
AD
330
1F
100
AcDbEntity
  8
0
  6
Continuous
 62
     7
370
    15
100
AcDbSpline
210
0.0
220
0.0
230
1.0
 70
     8
 71
     3
 72
    26
 73
    22
 74
     0
 42
0.00000001
 43
0.00000001
 40
0.0
 40
0.0
 40
0.0
 40
0.0
 40
0.046021565718237
 40
0.091422452306914
 40
0.136405623309092
 40
0.1811350009475881
 40
0.2257369768365697
 40
0.270302879447993
 40
0.3148933849736429
 40
0.376302212015745
 40
0.4378406886545329
 40
0.4994747202398138
 40
0.561136162874448
 40
0.6227455597047
 40
0.6842348219153167
 40
0.7455686384140668
 40
0.806768057776712
 40
0.8548233298275072
 40
0.902947695864759
 40
0.9512778005650713
 40
1.0
 40
1.0
 40
1.0
 40
1.0
 10
816.0868076792527
 20
-1341.830479401823
 30
0.0
 10
816.9767248228137
 20
-1347.414359048339
 30
0.0
 10
818.7445570628643
 20
-1358.506810222132
 30
0.0
 10
822.6568705434016
 20
-1374.812938534534
 30
0.0
 10
827.3579774861468
 20
-1390.734140267611
 30
0.0
 10
832.8529755135557
 20
-1406.296763549455
 30
0.0
 10
839.0278889758388
 20
-1421.544339096797
 30
0.0
 10
845.800906718433
 20
-1436.516102242897
 30
0.0
 10
853.9938125795708
 20
-1453.098381463237
 30
0.0
 10
863.7229115132433
 20
-1471.235363533765
 30
0.0
 10
874.9866434130639
 20
-1490.912082723028
 30
0.0
 10
886.5884885228444
 20
-1510.426045314597
 30
0.0
 10
898.302434733123
 20
-1529.882508342019
 30
0.0
 10
909.9027204910004
 20
-1549.386796032929
 30
0.0
 10
921.1632204547558
 20
-1569.044407085191
 30
0.0
 10
931.858196631108
 20
-1588.960792349974
 30
0.0
 10
941.0511946275051
 20
-1607.796277407133
 30
0.0
 10
948.7556407451258
 20
-1625.531558732291
 30
0.0
 10
955.0527150226776
 20
-1642.131315447527
 30
0.0
 10
960.5727969235395
 20
-1659.102300431437
 30
0.0
 10
963.3911363978332
 20
-1670.688468620345
 30
0.0
 10
964.8059992304612
 20
-1676.504956979033
 30
0.0
  0
ARC
  5
AE
330
1F
100
AcDbEntity
  8
0
  6
Continuous
 62
     7
370
    15
100
AcDbCircle
 10
212.4221308838
 20
-987.4451774217
 30
0.0
 40
700.0000000000001
100
AcDbArc
 50
286.9769726274
 51
329.584658878
  0
ARC
  5
AF
330
1F
100
AcDbEntity
  8
0
  6
Continuous
 62
     7
370
    15
100
AcDbCircle
 10
419.7331415168
 20
-1666.5049280109
 30
0.0
 40
10.00000000000023
100
AcDbArc
 50
106.9769726274
 51
270.0
  0
LINE
  5
B0
330
1F
100
AcDbEntity
  8
0
  6
Continuous
 62
     7
370
    15
100
AcDbLine
 10
734.6820621005
 20
363.8271219547
 30
0.0
 11
734.6820621005
 21
351.8271572406
 31
0.0
  0
LINE
  5
B1
330
1F
100
AcDbEntity
  8
0
  6
Continuous
 62
     7
370
    15
100
AcDbLine
 10
784.6820740214
 20
363.8271219547
 30
0.0
 11
734.6820621005
 21
363.8271219547
 31
0.0
  0
LINE
  5
B2
330
1F
100
AcDbEntity
  8
0
  6
Continuous
 62
     7
370
    15
100
AcDbLine
 10
784.6820740214
 20
363.8271219547
 30
0.0
 11
784.6820740214
 21
351.8271572406
 31
0.0
  0
LINE
  5
B3
330
1F
100
AcDbEntity
  8
0
  6
Continuous
 62
     7
370
    15
100
AcDbLine
 10
784.6820740214
 20
351.8271572406
 30
0.0
 11
734.6820621005
 21
351.8271572406
 31
0.0
  0
LINE
  5
B4
330
1F
100
AcDbEntity
  8
0
  6
Continuous
 62
     7
370
    15
100
AcDbLine
 10
465.8582596293
 20
363.8271219547
 30
0.0
 11
465.8582596293
 21
351.8271572406
 31
0.0
  0
LINE
  5
B5
330
1F
100
AcDbEntity
  8
0
  6
Continuous
 62
     7
370
    15
100
AcDbLine
 10
515.8582417479
 20
363.8271219547
 30
0.0
 11
465.8582596293
 21
363.8271219547
 31
0.0
  0
LINE
  5
B6
330
1F
100
AcDbEntity
  8
0
  6
Continuous
 62
     7
370
    15
100
AcDbLine
 10
515.8582417479
 20
351.8271572406
 30
0.0
 11
465.8582596293
 21
351.8271572406
 31
0.0
  0
LINE
  5
B7
330
1F
100
AcDbEntity
  8
0
  6
Continuous
 62
     7
370
    15
100
AcDbLine
 10
515.8582417479
 20
363.8271219547
 30
0.0
 11
515.8582417479
 21
351.8271572406
 31
0.0
  0
LINE
  5
B8
330
1F
100
AcDbEntity
  8
0
  6
Continuous
 62
     7
370
    15
100
AcDbLine
 10
-142.2490091809
 20
363.8271219547
 30
0.0
 11
-142.2490091809
 21
351.8271572406
 31
0.0
  0
LINE
  5
B9
330
1F
100
AcDbEntity
  8
0
  6
Continuous
 62
     7
370
    15
100
AcDbLine
 10
-92.2490270623
 20
363.8271219547
 30
0.0
 11
-142.2490091809
 21
363.8271219547
 31
0.0
  0
LINE
  5
BA
330
1F
100
AcDbEntity
  8
0
  6
Continuous
 62
     7
370
    15
100
AcDbLine
 10
-92.2490270623
 20
363.8271219547
 30
0.0
 11
-92.2490270623
 21
351.8271572406
 31
0.0
  0
LINE
  5
BB
330
1F
100
AcDbEntity
  8
0
  6
Continuous
 62
     7
370
    15
100
AcDbLine
 10
-92.2490270623
 20
351.8271572406
 30
0.0
 11
-142.2490091809
 21
351.8271572406
 31
0.0
  0
LINE
  5
BC
330
1F
100
AcDbEntity
  8
0
  6
Continuous
 62
     7
370
    15
100
AcDbLine
 10
197.0344459823
 20
363.8271219547
 30
0.0
 11
197.0344459823
 21
351.8271572406
 31
0.0
  0
LINE
  5
BD
330
1F
100
AcDbEntity
  8
0
  6
Continuous
 62
     7
370
    15
100
AcDbLine
 10
247.0344467274
 20
363.8271219547
 30
0.0
 11
197.0344459823
 21
363.8271219547
 31
0.0
  0
LINE
  5
BE
330
1F
100
AcDbEntity
  8
0
  6
Continuous
 62
     7
370
    15
100
AcDbLine
 10
247.0344467274
 20
363.8271219547
 30
0.0
 11
247.0344467274
 21
351.8271572406
 31
0.0
  0
LINE
  5
BF
330
1F
100
AcDbEntity
  8
0
  6
Continuous
 62
     7
370
    15
100
AcDbLine
 10
247.0344467274
 20
351.8271572406
 30
0.0
 11
197.0344459823
 21
351.8271572406
 31
0.0
  0
LINE
  5
C0
330
1F
100
AcDbEntity
  8
0
  6
Continuous
 62
     7
370
    15
100
AcDbLine
 10
-361.0728593358
 20
363.8271219547
 30
0.0
 11
-411.0728116521
 21
363.8271219547
 31
0.0
  0
LINE
  5
C1
330
1F
100
AcDbEntity
  8
0
  6
Continuous
 62
     7
370
    15
100
AcDbLine
 10
-361.0728593358
 20
363.8271219547
 30
0.0
 11
-361.0728593358
 21
351.8271572406
 31
0.0
  0
LINE
  5
C2
330
1F
100
AcDbEntity
  8
0
  6
Continuous
 62
     7
370
    15
100
AcDbLine
 10
-361.0728593358
 20
351.8271572406
 30
0.0
 11
-411.0728116521
 21
351.8271572406
 31
0.0
  0
LINE
  5
C3
330
1F
100
AcDbEntity
  8
0
  6
Continuous
 62
     7
370
    15
100
AcDbLine
 10
-411.0728116521
 20
363.8271219547
 30
0.0
 11
-411.0728116521
 21
351.8271572406
 31
0.0
  0
LINE
  5
C4
330
1F
100
AcDbEntity
  8
0
  6
Continuous
 62
     7
370
    15
100
AcDbLine
 10
-679.8966141233
 20
363.8271219547
 30
0.0
 11
-679.8966141233
 21
351.8271572406
 31
0.0
  0
LINE
  5
C5
330
1F
100
AcDbEntity
  8
0
  6
Continuous
 62
     7
370
    15
100
AcDbLine
 10
-629.896661807
 20
363.8271219547
 30
0.0
 11
-679.8966141233
 21
363.8271219547
 31
0.0
  0
LINE
  5
C6
330
1F
100
AcDbEntity
  8
0
  6
Continuous
 62
     7
370
    15
100
AcDbLine
 10
-629.896661807
 20
363.8271219547
 30
0.0
 11
-629.896661807
 21
351.8271572406
 31
0.0
  0
LINE
  5
C7
330
1F
100
AcDbEntity
  8
0
  6
Continuous
 62
     7
370
    15
100
AcDbLine
 10
-629.896661807
 20
351.8271572406
 30
0.0
 11
-679.8966141233
 21
351.8271572406
 31
0.0
  0
LINE
  5
C8
330
1F
100
AcDbEntity
  8
0
  6
Continuous
 62
     7
370
    15
100
AcDbLine
 10
-154.9183042535
 20
413.8271934803
 30
0.0
 11
-699.9911280164
 21
413.8271934803
 31
0.0
  0
ARC
  5
C9
330
1F
100
AcDbEntity
  8
0
  6
Continuous
 62
     7
370
    15
100
AcDbCircle
 10
-154.9182977668
 20
423.8271405367
 30
0.0
 40
10.0
100
AcDbArc
 50
270.0
 51
73.0230273726
  0
ARC
  5
CA
330
1F
100
AcDbEntity
  8
0
  6
Continuous
 62
     7
370
    15
100
AcDbCircle
 10
52.3927128662
 20
1102.8868911259
 30
0.0
 40
699.9999999999999
100
AcDbArc
 50
210.415341122
 51
253.0230273726
  0
SPLINE
  5
CB
330
1F
100
AcDbEntity
  8
0
  6
Continuous
 62
     7
370
    15
100
AcDbSpline
210
0.0
220
0.0
230
1.0
 70
     8
 71
     3
 72
    24
 73
    20
 74
     0
 42
0.00000001
 43
0.00000001
 40
0.0
 40
0.0
 40
0.0
 40
0.0
 40
0.0525938837483511
 40
0.1047500577616346
 40
0.1566948598644643
 40
0.2085884985234026
 40
0.2605322566375264
 40
0.3125773972698808
 40
0.3945830052671889
 40
0.4767705370079017
 40
0.5589635797562532
 40
0.6205091575158442
 40
0.6819256816628546
 40
0.7432308182551899
 40
0.8045214528380654
 40
0.852795147397382
 40
0.901325931625255
 40
0.9503109473790954
 40
1.0
 40
1.0
 40
1.0
 40
1.0
 10
-699.9911280163955
 20
413.8271934802565
 30
0.0
 10
-698.454536971954
 20
420.103853183987
 30
0.0
 10
-695.3941430784092
 20
432.6049354326719
 30
0.0
 10
-689.306643716453
 20
450.8819837709287
 30
0.0
 10
-682.3339028271896
 20
468.7336815417257
 30
0.0
 10
-674.5003564675155
 20
486.1979353749705
 30
0.0
 10
-665.9774435708364
 20
503.3462346177394
 30
0.0
 10
-655.1608121267117
 20
523.4707513495723
 30
0.0
 10
-641.8765298630178
 20
546.4729167781683
 30
0.0
 10
-626.2825082848241
 20
572.4069228870234
 30
0.0
 10
-612.0249038672492
 20
596.2133626533687
 30
0.0
 10
-599.481160024149
 20
618.0689112091133
 30
0.0
 10
-588.7471656565416
 20
637.997986154144
 30
0.0
 10
-578.7926826812292
 20
658.2963254988804
 30
0.0
 10
-570.4909165472069
 20
677.5826595575439
 30
0.0
 10
-563.7757206225477
 20
695.8118341204901
 30
0.0
 10
-558.5192676330098
 20
712.9362002728975
 30
0.0
 10
-554.1672827826443
 20
730.5038932175091
 30
0.0
 10
-552.2416713695968
 20
742.4738638300837
 30
0.0
 10
-551.2719960698317
 20
748.5015518481764
 30
0.0
  0
LINE
  5
CC
330
1F
100
AcDbEntity
  8
0
  6
Continuous
 62
     7
370
    15
100
AcDbLine
 10
702.3927359095
 20
1102.8869278247
 30
0.0
 11
752.3926882258
 21
1102.8869278247
 31
0.0
  0
ARC
  5
CD
330
1F
100
AcDbEntity
  8
0
  6
Continuous
 62
     7
370
    15
100
AcDbCircle
 10
52.3927128662
 20
1102.8868911259
 30
0.0
 40
700.0
100
AcDbArc
 50
338.2132107017
 51
0.0
  0
SPLINE
  5
CE
330
1F
100
AcDbEntity
  8
0
  6
Continuous
 62
     7
370
    15
100
AcDbSpline
210
0.0
220
0.0
230
1.0
 70
     8
 71
     3
 72
    38
 73
    34
 74
     0
 42
0.00000001
 43
0.00000001
 40
0.0
 40
0.0
 40
0.0
 40
0.0
 40
0.0334566463479463
 40
0.0650689186727048
 40
0.0949481155772499
 40
0.1232068402343835
 40
0.1499575224123381
 40
0.1828942359644776
 40
0.213689078294664
 40
0.2425905511721441
 40
0.2717304855971914
 40
0.2992628145915199
 40
0.3254588844186173
 40
0.3505707966474659
 40
0.3748283038951882
 40
0.4097777332325188
 40
0.44387129986272
 40
0.4775528131320003
 40
0.511036946232099
 40
0.5444842328775775
 40
0.5780504252428296
 40
0.6118948655447031
 40
0.6461875291658203
 40
0.6811167807301934
 40
0.7168941104598153
 40
0.7537579178466338
 40
0.7919762993457745
 40
0.823148155690463
 40
0.8554937011008634
 40
0.8891765845112093
 40
0.924369346441519
 40
0.9612493500532509
 40
1.0
 40
1.0
 40
1.0
 40
1.0
 10
702.3927359095384
 20
843.0792219455275
 30
0.0
 10
702.2383401602469
 20
837.8440462053309
 30
0.0
 10
701.9380600798838
 20
827.6622957413583
 30
0.0
 10
701.9956704082425
 20
812.7969387825426
 30
0.0
 10
702.4290041944531
 20
798.7528421434055
 30
0.0
 10
703.2495018885412
 20
785.4877629377738
 30
0.0
 10
704.5416501831999
 20
771.7795529676904
 30
0.0
 10
706.4207865411964
 20
757.7358736550118
 30
0.0
 10
709.0229228332622
 20
743.4651463849445
 30
0.0
 10
712.1939130728612
 20
729.9195129998222
 30
0.0
 10
715.9333086081745
 20
717.0495652867014
 30
0.0
 10
720.2376327954529
 20
704.8057621648745
 30
0.0
 10
724.9588699503856
 20
693.3969386919271
 30
0.0
 10
730.0416226222856
 20
682.7105724266339
 30
0.0
 10
736.2673327125071
 20
671.0675033340095
 30
0.0
 10
743.8026091875164
 20
658.5480294830356
 30
0.0
 10
752.6866438465732
 20
645.1420832095008
 30
0.0
 10
761.7375821421409
 20
632.1287721424435
 30
0.0
 10
770.9124369568987
 20
619.3273454820651
 30
0.0
 10
780.1428599838654
 20
606.5885860711301
 30
0.0
 10
789.3576181962468
 20
593.7687251205456
 30
0.0
 10
798.485274079925
 20
580.7241464287019
 30
0.0
 10
807.4544749442085
 20
567.3115200628619
 30
0.0
 10
816.1928936997297
 20
553.3874297083457
 30
0.0
 10
824.6281661895866
 20
538.8091057658396
 30
0.0
 10
832.6876871931329
 20
523.4344594282013
 30
0.0
 10
839.7222327844647
 20
508.3554189171523
 30
0.0
 10
845.8159699561173
 20
493.6378321656593
 30
0.0
 10
851.0699209157169
 20
479.3540831789808
 30
0.0
 10
855.9356212191427
 20
464.270070449955
 30
0.0
 10
860.3643569499153
 20
448.3151824455222
 30
0.0
 10
864.3762231015501
 20
431.4308282861291
 30
0.0
 10
866.5463795453345
 20
419.7910378258633
 30
0.0
 10
867.6582960596849
 20
413.8271934802565
 30
0.0
  0
LINE
  5
CF
330
1F
100
AcDbEntity
  8
0
  6
Continuous
 62
     7
370
    15
100
AcDbLine
 10
867.6582960597
 20
413.8271934803
 30
0.0
 11
942.3926858416
 21
413.8271934803
 31
0.0
  0
ARC
  5
D0
330
1F
100
AcDbEntity
  8
0
  6
Continuous
 62
     7
370
    15
100
AcDbCircle
 10
942.3927128662
 20
403.8271405367
 30
0.0
 40
10.00000000000023
100
AcDbArc
 50
0.0
 51
90.0
  0
LINE
  5
D1
330
1F
100
AcDbEntity
  8
0
  6
Continuous
 62
     7
370
    15
100
AcDbLine
 10
952.3927359095
 20
403.8270838077
 30
0.0
 11
952.3927359095
 21
363.8271219547
 31
0.0
  0
LINE
  5
D2
330
1F
100
AcDbEntity
  8
0
  6
Continuous
 62
     7
370
    15
100
AcDbLine
 10
952.3927359095
 20
363.8271219547
 30
0.0
 11
784.6820740214
 21
363.8271219547
 31
0.0
  0
LINE
  5
D3
330
1F
100
AcDbEntity
  8
0
  6
Continuous
 62
     7
370
    15
100
AcDbLine
 10
734.6820621005
 20
363.8271219547
 30
0.0
 11
515.8582417479
 21
363.8271219547
 31
0.0
  0
LINE
  5
D4
330
1F
100
AcDbEntity
  8
0
  6
Continuous
 62
     7
370
    15
100
AcDbLine
 10
465.8582596293
 20
363.8271219547
 30
0.0
 11
247.0344467274
 21
363.8271219547
 31
0.0
  0
LINE
  5
D5
330
1F
100
AcDbEntity
  8
0
  6
Continuous
 62
     7
370
    15
100
AcDbLine
 10
197.0344459823
 20
363.8271219547
 30
0.0
 11
-92.2490270623
 21
363.8271219547
 31
0.0
  0
LINE
  5
D6
330
1F
100
AcDbEntity
  8
0
  6
Continuous
 62
     7
370
    15
100
AcDbLine
 10
-142.2490091809
 20
363.8271219547
 30
0.0
 11
-361.0728593358
 21
363.8271219547
 31
0.0
  0
LINE
  5
D7
330
1F
100
AcDbEntity
  8
0
  6
Continuous
 62
     7
370
    15
100
AcDbLine
 10
-411.0728116521
 20
363.8271219547
 30
0.0
 11
-629.896661807
 21
363.8271219547
 31
0.0
  0
LINE
  5
D8
330
1F
100
AcDbEntity
  8
0
  6
Continuous
 62
     7
370
    15
100
AcDbLine
 10
-679.8966141233
 20
363.8271219547
 30
0.0
 11
-847.607335616
 21
363.8271219547
 31
0.0
  0
LINE
  5
D9
330
1F
100
AcDbEntity
  8
0
  6
Continuous
 62
     7
370
    15
100
AcDbLine
 10
-847.607335616
 20
363.8271219547
 30
0.0
 11
-847.607335616
 21
403.8270838077
 31
0.0
  0
ARC
  5
DA
330
1F
100
AcDbEntity
  8
0
  6
Continuous
 62
     7
370
    15
100
AcDbCircle
 10
-837.6072871338
 20
403.8271405367
 30
0.0
 40
10.00000000000023
100
AcDbArc
 50
90.0
 51
180.0
  0
LINE
  5
DB
330
1F
100
AcDbEntity
  8
0
  6
Continuous
 62
     7
370
    15
100
AcDbLine
 10
-837.6072855481
 20
413.8271934803
 30
0.0
 11
-762.8728957662
 21
413.8271934803
 31
0.0
  0
SPLINE
  5
DC
330
1F
100
AcDbEntity
  8
0
  6
Continuous
 62
     7
370
    15
100
AcDbSpline
210
0.0
220
0.0
230
1.0
 70
     8
 71
     3
 72
    39
 73
    35
 74
     0
 42
0.00000001
 43
0.00000001
 40
0.0
 40
0.0
 40
0.0
 40
0.0
 40
0.0352327576029258
 40
0.068912220386396
 40
0.1011755897308107
 40
0.1321565324261467
 40
0.1619849847907007
 40
0.1907859844926645
 40
0.2235723041502689
 40
0.2552809028503504
 40
0.2860817754143474
 40
0.3161310089849868
 40
0.3580300539543089
 40
0.3990464808881448
 40
0.439498104393392
 40
0.4796699518228567
 40
0.5198324380703822
 40
0.5480876150285786
 40
0.576581669776064
 40
0.6055345399012872
 40
0.6352635015306338
 40
0.6594064259340726
 40
0.6844597329601125
 40
0.7106496103545196
 40
0.738222195872286
 40
0.761453267729458
 40
0.7858784526050915
 40
0.8116427006033421
 40
0.8388941212520402
 40
0.8677823491939173
 40
0.8978936292699653
 40
0.9298722104212083
 40
0.9638605788615033
 40
1.0
 40
1.0
 40
1.0
 40
1.0
 10
-762.8728957661818
 20
413.8271934802565
 30
0.0
 10
-761.8671314793746
 20
419.2505065241122
 30
0.0
 10
-759.8999437000255
 20
429.8580368206212
 30
0.0
 10
-756.3237091761813
 20
445.2917751315683
 30
0.0
 10
-752.3999938557491
 20
459.9505628758279
 30
0.0
 10
-748.1091101815543
 20
473.8773526402052
 30
0.0
 10
-743.4884129830052
 20
487.125070352198
 30
0.0
 10
-738.2825473947337
 20
500.4577605825967
 30
0.0
 10
-732.4427652406874
 20
513.8482968467929
 30
0.0
 10
-725.9279794293865
 20
527.2720453398153
 30
0.0
 10
-719.1094710899375
 20
540.0598434283347
 30
0.0
 10
-711.0537169109483
 20
553.9842308573518
 30
0.0
 10
-701.6362145657764
 20
568.9566594888728
 30
0.0
 10
-690.807107577774
 20
584.9489947376617
 30
0.0
 10
-679.7831074823188
 20
600.4752448899447
 30
0.0
 10
-668.6877718915619
 20
615.7847315094388
 30
0.0
 10
-658.7561618249154
 20
629.5801831403355
 30
0.0
 10
-650.0643708435599
 20
642.0140958008517
 30
0.0
 10
-642.5604236216088
 20
653.1358861742033
 30
0.0
 10
-635.2577083046499
 20
664.6670661920787
 30
0.0
 10
-628.8018697062697
 20
675.9169980529967
 30
0.0
 10
-623.1788887674838
 20
686.9226229025601
 30
0.0
 10
-618.3205503094857
 20
697.6823223467383
 30
0.0
 10
-613.831449214998
 20
709.180362304045
 30
0.0
 10
-610.0570083832087
 20
720.632823652991
 30
0.0
 10
-606.9170955030319
 20
731.9861759015797
 30
0.0
 10
-604.3298975436156
 20
743.1877645658661
 30
0.0
 10
-602.0967081456347
 20
755.1060602522125
 30
0.0
 10
-600.2433706692447
 20
767.795711910961
 30
0.0
 10
-598.8059312308737
 20
781.2235113584414
 30
0.0
 10
-597.7976548064348
 20
795.4321575287479
 30
0.0
 10
-597.2433646466276
 20
810.4639183427493
 30
0.0
 10
-597.126149694322
 20
826.450339063142
 30
0.0
 10
-597.443654265078
 20
837.4240607956972
 30
0.0
 10
-597.6072760113906
 20
843.0792219455275
 30
0.0
  0
ARC
  5
DD
330
1F
100
AcDbEntity
  8
0
  6
Continuous
 62
     7
370
    15
100
AcDbCircle
 10
52.3927128662
 20
1102.8868911259
 30
0.0
 40
700.0000000000001
100
AcDbArc
 50
180.0
 51
201.7867892983
  0
LINE
  5
DE
330
1F
100
AcDbEntity
  8
0
  6
Continuous
 62
     7
370
    15
100
AcDbLine
 10
-647.6072879323
 20
1102.8869278247
 30
0.0
 11
-597.6072760114
 21
1102.8869278247
 31
0.0
  0
ARC
  5
DF
330
1F
100
AcDbEntity
  8
0
  6
Continuous
 62
     7
370
    15
100
AcDbCircle
 10
52.3927128662
 20
1102.8868911259
 30
0.0
 40
649.9999999999998
100
AcDbArc
 50
180.0
 51
195.7174240255
  0
LINE
  5
E0
330
1F
100
AcDbEntity
  8
0
  6
Continuous
 62
     7
370
    15
100
AcDbLine
 10
-584.631642867
 20
926.8063432987
 30
0.0
 11
-573.3034224996
 21
926.8063432987
 31
0.0
  0
LINE
  5
E1
330
1F
100
AcDbEntity
  8
0
  6
Continuous
 62
     7
370
    15
100
AcDbLine
 10
-584.631642867
 20
914.8062593753
 30
0.0
 11
-584.631642867
 21
926.8063432987
 31
0.0
  0
LINE
  5
E2
330
1F
100
AcDbEntity
  8
0
  6
Continuous
 62
     7
370
    15
100
AcDbLine
 10
-569.8015304097
 20
914.8062593753
 30
0.0
 11
-584.631642867
 21
914.8062593753
 31
0.0
  0
ARC
  5
E3
330
1F
100
AcDbEntity
  8
0
  6
Continuous
 62
     7
370
    15
100
AcDbCircle
 10
52.3927128662
 20
1102.8868911259
 30
0.0
 40
649.9999999999998
100
AcDbArc
 50
196.8193287686
 51
259.4729765219
  0
LINE
  5
E4
330
1F
100
AcDbEntity
  8
0
  6
Continuous
 62
     7
370
    15
100
AcDbLine
 10
-66.3618059644
 20
463.8271457965
 30
0.0
 11
171.147229541
 21
463.8271457965
 31
0.0
  0
ARC
  5
E5
330
1F
100
AcDbEntity
  8
0
  6
Continuous
 62
     7
370
    15
100
AcDbCircle
 10
52.3927128662
 20
1102.8868911259
 30
0.0
 40
649.9999999999999
100
AcDbArc
 50
280.5270234781
 51
343.1806712314
  0
LINE
  5
E6
330
1F
100
AcDbEntity
  8
0
  6
Continuous
 62
     7
370
    15
100
AcDbLine
 10
689.4171027652
 20
914.8062593753
 30
0.0
 11
674.5869903079
 21
914.8062593753
 31
0.0
  0
LINE
  5
E7
330
1F
100
AcDbEntity
  8
0
  6
Continuous
 62
     7
370
    15
100
AcDbLine
 10
689.4171027652
 20
926.8063432987
 30
0.0
 11
689.4171027652
 21
914.8062593753
 31
0.0
  0
LINE
  5
E8
330
1F
100
AcDbEntity
  8
0
  6
Continuous
 62
     7
370
    15
100
AcDbLine
 10
678.0888227931
 20
926.8063432987
 30
0.0
 11
689.4171027652
 21
926.8063432987
 31
0.0
  0
ARC
  5
E9
330
1F
100
AcDbEntity
  8
0
  6
Continuous
 62
     7
370
    15
100
AcDbCircle
 10
52.3927128662
 20
1102.8868911259
 30
0.0
 40
649.9999999999999
100
AcDbArc
 50
344.2825759745
 51
0.0
  0
LINE
  5
EA
330
1F
100
AcDbEntity
  8
0
  6
Continuous
 62
     7
370
    15
100
AcDbLine
 10
804.7765879145
 20
413.8271934803
 30
0.0
 11
259.7037268987
 21
413.8271934803
 31
0.0
  0
SPLINE
  5
EB
330
1F
100
AcDbEntity
  8
0
  6
Continuous
 62
     7
370
    15
100
AcDbSpline
210
0.0
220
0.0
230
1.0
 70
     8
 71
     3
 72
    26
 73
    22
 74
     0
 42
0.00000001
 43
0.00000001
 40
0.0
 40
0.0
 40
0.0
 40
0.0
 40
0.0460215530972168
 40
0.0914223154846163
 40
0.1364056561942495
 40
0.1811350483252432
 40
0.2257370386654437
 40
0.2703028082673621
 40
0.3148933282405145
 40
0.3763021751793226
 40
0.4378408122932554
 40
0.4994748638482095
 40
0.5611363264613983
 40
0.6227456040714202
 40
0.6842347456921726
 40
0.7455687247231816
 40
0.8067683094147627
 40
0.8548234485794144
 40
0.9029478302091536
 40
0.9512779012338081
 40
1.0
 40
1.0
 40
1.0
 40
1.0
 10
656.0574261656571
 20
748.5015518481764
 30
0.0
 10
656.947312827755
 20
742.9176699947592
 30
0.0
 10
658.7150823551331
 20
731.8252279958202
 30
0.0
 10
662.6274934180716
 20
715.5191234230028
 30
0.0
 10
667.3285487297034
 20
699.5979059505669
 30
0.0
 10
672.8235692685442
 20
684.0352694585932
 30
0.0
 10
678.9984616375476
 20
668.7877049144099
 30
0.0
 10
685.7715119516652
 20
653.8159762293288
 30
0.0
 10
693.964396341486
 20
637.2337069688659
 30
0.0
 10
703.693519018631
 20
619.096718070059
 30
0.0
 10
714.9572132052585
 20
599.4199576407658
 30
0.0
 10
726.5590815510047
 20
579.9059884607517
 30
0.0
 10
738.2730073062802
 20
560.4495331822189
 30
0.0
 10
749.8733077023685
 20
540.9452943926875
 30
0.0
 10
761.1338389082621
 20
521.2877201961096
 30
0.0
 10
771.8287858999931
 20
501.3712977843913
 30
0.0
 10
781.0217558963707
 20
482.535780917959
 30
0.0
 10
788.7262385077116
 20
464.8005170276134
 30
0.0
 10
795.023323403708
 20
448.2007874816258
 30
0.0
 10
800.5432868130933
 20
431.2297877957215
 30
0.0
 10
803.3616927042051
 20
419.6436583983723
 30
0.0
 10
804.7765879145433
 20
413.8271934802565
 30
0.0
  0
ARC
  5
EC
330
1F
100
AcDbEntity
  8
0
  6
Continuous
 62
     7
370
    15
100
AcDbCircle
 10
52.3927128662
 20
1102.8868911259
 30
0.0
 40
700.0000000000001
100
AcDbArc
 50
286.9769726274
 51
329.584658878
  0
ARC
  5
ED
330
1F
100
AcDbEntity
  8
0
  6
Continuous
 62
     7
370
    15
100
AcDbCircle
 10
259.7037234993
 20
423.8271405367
 30
0.0
 40
10.00000000000015
100
AcDbArc
 50
106.9769726274
 51
270.0
  0
SPLINE
  5
EE
330
1F
100
AcDbEntity
  8
0
  6
Continuous
 62
     7
370
    15
100
AcDbSpline
210
0.0
220
0.0
230
1.0
 70
     8
 71
     3
 72
    48
 73
    44
 74
     0
 42
0.00000001
 43
0.00000001
 40
0.0
 40
0.0
 40
0.0
 40
0.0
 40
0.0095012718081609
 40
0.0190880153866512
 40
0.0290449248777071
 40
0.0395667440100211
 40
0.0507667947135906
 40
0.0626948238217151
 40
0.0753529013688908
 40
0.0942357466029334
 40
0.1143296821310694
 40
0.135421281181147
 40
0.1572625461216489
 40
0.179584786808205
 40
0.2245388006630179
 40
0.2683484329576366
 40
0.3106293848452034
 40
0.3514105026923724
 40
0.3907204158493553
 40
0.433034929890753
 40
0.4735771207671052
 40
0.5123845437771578
 40
0.5494938423674746
 40
0.584940663936097
 40
0.6181698041571881
 40
0.6498603446520114
 40
0.6800428996546526
 40
0.7087473538595086
 40
0.7397132901422754
 40
0.768834501141039
 40
0.7961492326729708
 40
0.8216940914810215
 40
0.84550322463846
 40
0.8672281348509582
 40
0.8873376696759928
 40
0.9058570706470757
 40
0.9228104770929626
 40
0.9409803884400888
 40
0.9569932732584491
 40
0.9708774955708759
 40
0.9826576112747846
 40
0.9923569795895457
 40
1.0
 40
1.0
 40
1.0
 40
1.0
 10
-687.1729107388686
 20
2006.135118704561
 30
0.0
 10
-686.7230638228546
 20
2004.232518393668
 30
0.0
 10
-685.8193232470783
 20
2000.41020231407
 30
0.0
 10
-683.0657922967143
 20
1995.068823996038
 30
0.0
 10
-679.4214461168543
 20
1990.074617760919
 30
0.0
 10
-674.8659030706161
 20
1985.413137255767
 30
0.0
 10
-669.5082305474771
 20
1981.045130793852
 30
0.0
 10
-663.4130448807532
 20
1976.940475037087
 30
0.0
 10
-655.6691528079821
 20
1972.509777717797
 30
0.0
 10
-646.1213326081884
 20
1967.905208388935
 30
0.0
 10
-634.7232925414703
 20
1963.21529950127
 30
0.0
 10
-622.5663584829639
 20
1958.811046591291
 30
0.0
 10
-609.8497776245015
 20
1954.632196251561
 30
0.0
 10
-592.3755014790742
 20
1949.266950339433
 30
0.0
 10
-570.488971333645
 20
1942.931463038945
 30
0.0
 10
-544.7669974602192
 20
1935.129827375282
 30
0.0
 10
-519.9688654486496
 20
1927.239447126703
 30
0.0
 10
-496.1558804348438
 20
1919.304466653449
 30
0.0
 10
-472.4488377266398
 20
1911.037425419396
 30
0.0
 10
-448.9127528594482
 20
1902.436511937915
 30
0.0
 10
-425.6133035487496
 20
1893.497591819184
 30
0.0
 10
-403.4520127437901
 20
1884.58137030921
 30
0.0
 10
-382.4032743269034
 20
1875.708172113692
 30
0.0
 10
-362.5516724655093
 20
1866.94835979419
 30
0.0
 10
-343.8581366578289
 20
1858.324440109188
 30
0.0
 10
-326.2837096037806
 20
1849.858789809754
 30
0.0
 10
-309.6832445590637
 20
1841.515787873747
 30
0.0
 10
-293.3580599824617
 20
1832.961959190611
 30
0.0
 10
-277.3814455420847
 20
1824.217708181849
 30
0.0
 10
-261.8253809629866
 20
1815.305938368123
 30
0.0
 10
-247.3994167761472
 20
1806.664868780417
 30
0.0
 10
-234.0673358630669
 20
1798.323817434256
 30
0.0
 10
-221.8581875280746
 20
1790.354814614395
 30
0.0
 10
-210.7223400924972
 20
1782.785610380734
 30
0.0
 10
-200.6120837843602
 20
1775.641397797868
 30
0.0
 10
-191.417621722481
 20
1768.900245357602
 30
0.0
 10
-182.6538601406355
 20
1762.247228563408
 30
0.0
 10
-174.4075068596021
 20
1755.765228428084
 30
0.0
 10
-166.7546866714399
 20
1749.549175972704
 30
0.0
 10
-160.1898340497604
 20
1744.073781201835
 30
0.0
 10
-154.6469395692576
 20
1739.395667656093
 30
0.0
 10
-150.0923350216475
 20
1735.530109634058
 30
0.0
 10
-147.3091761128859
 20
1733.314687696786
 30
0.0
 10
-146.0826011189651
 20
1732.338321905855
 30
0.0
  0
LINE
  5
EF
330
1F
100
AcDbEntity
  8
0
  6
Continuous
 62
     7
370
    15
100
AcDbLine
 10
-672.3427982816
 20
2006.1351187046
 30
0.0
 11
-687.1729107389
 21
2006.1351187046
 31
0.0
  0
ARC
  5
F0
330
1F
100
AcDbEntity
  8
0
  6
Continuous
 62
     7
370
    15
100
AcDbCircle
 10
-35.3184471046
 20
1712.1351179912
 30
0.0
 40
107.5062426073155
100
AcDbArc
 50
174.0022085962
 51
185.9977914038
  0
ARC
  5
F1
330
1F
100
AcDbEntity
  8
0
  6
Continuous
 62
     7
370
    15
100
AcDbCircle
 10
-152.1814515996
 20
1699.8568757685
 30
0.0
 40
10.00000000000003
100
AcDbArc
 50
307.5812582926
 51
5.9977914038
  0
SPLINE
  5
F2
330
1F
100
AcDbEntity
  8
0
  6
Continuous
 62
     7
370
    15
100
AcDbSpline
210
0.0
220
0.0
230
1.0
 70
     8
 71
     3
 72
    50
 73
    46
 74
     0
 42
0.00000001
 43
0.00000001
 40
0.0
 40
0.0
 40
0.0
 40
0.0
 40
0.0064106680552125
 40
0.0143221874395844
 40
0.0237510336054958
 40
0.0347115501368534
 40
0.0472183773439832
 40
0.0610227536395797
 40
0.0763515912588599
 40
0.0932242055624315
 40
0.1116616998229134
 40
0.132113304665543
 40
0.154246270005361
 40
0.1780902573539229
 40
0.20367764630317
 40
0.2310423723238781
 40
0.2602211950188565
 40
0.2912528052408375
 40
0.3204926824149978
 40
0.3512655959077723
 40
0.3836027555746596
 40
0.4175367889526018
 40
0.4531011844602459
 40
0.4896509160118012
 40
0.5278406788975791
 40
0.5677049786692792
 40
0.6092794611712912
 40
0.6419362077748259
 40
0.6756116216141489
 40
0.7103217577644715
 40
0.7460835214544469
 40
0.7829111245368865
 40
0.8204152616995438
 40
0.8427373680650198
 40
0.8645787350573867
 40
0.8856701823353004
 40
0.9057640998284661
 40
0.9246470980004012
 40
0.9373051641865345
 40
0.9492331825888592
 40
0.9604332232400136
 40
0.9709547541089023
 40
0.9809116546633033
 40
0.990498736719544
 40
1.0
 40
1.0
 40
1.0
 40
1.0
 10
-146.0826011189651
 20
1691.932094794038
 30
0.0
 10
-147.1132130358721
 20
1691.115440200172
 30
0.0
 10
-149.4157214366012
 20
1689.290937657531
 30
0.0
 10
-153.14061873075
 20
1686.150623722682
 30
0.0
 10
-157.5746261508385
 20
1682.404615768459
 30
0.0
 10
-162.7377657408329
 20
1678.060790309742
 30
0.0
 10
-168.6297472773201
 20
1673.189626978065
 30
0.0
 10
-175.2742700712327
 20
1667.823257420398
 30
0.0
 10
-182.6966790638802
 20
1661.996131096058
 30
0.0
 10
-190.9643456567783
 20
1655.708572961266
 30
0.0
 10
-200.1824750056697
 20
1648.93747604147
 30
0.0
 10
-210.3995489741847
 20
1641.706861183352
 30
0.0
 10
-221.6654359738003
 20
1634.042465559045
 30
0.0
 10
-233.9567962581885
 20
1626.017215125323
 30
0.0
 10
-247.3096238641935
 20
1617.660035078714
 30
0.0
 10
-261.7611111303372
 20
1609.001599902266
 30
0.0
 10
-277.3475107732301
 20
1600.071238005158
 30
0.0
 10
-293.4424514108578
 20
1591.261714847703
 30
0.0
 10
-309.9856108455822
 20
1582.597217826532
 30
0.0
 10
-326.9148462368696
 20
1574.098690053989
 30
0.0
 10
-344.854842629165
 20
1565.474027635846
 30
0.0
 10
-363.8313651194267
 20
1556.744077955602
 30
0.0
 10
-383.7428156065903
 20
1547.986313901553
 30
0.0
 10
-404.6003031203842
 20
1539.219063959825
 30
0.0
 10
-426.414770583393
 20
1530.460318015188
 30
0.0
 10
-449.3281210885219
 20
1521.680743794446
 30
0.0
 10
-471.3102991037737
 20
1513.650856176143
 30
0.0
 10
-492.2004159868238
 20
1506.33842954571
 30
0.0
 10
-511.8392739831262
 20
1499.717001239429
 30
0.0
 10
-532.1588903926009
 20
1493.125886377315
 30
0.0
 10
-553.1672124616096
 20
1486.566513397657
 30
0.0
 10
-574.8017797236973
 20
1480.096156965513
 30
0.0
 10
-593.8364194635811
 20
1474.555290778103
 30
0.0
 10
-609.8498338780707
 20
1469.63822456514
 30
0.0
 10
-622.5662639752793
 20
1465.459020142835
 30
0.0
 10
-634.7233382975511
 20
1461.055171229807
 30
0.0
 10
-646.1213948651206
 20
1456.365251525804
 30
0.0
 10
-655.6691029400209
 20
1451.760377014417
 30
0.0
 10
-663.4130456437144
 20
1447.329708453194
 30
0.0
 10
-669.508242009124
 20
1443.225057774495
 30
0.0
 10
-674.8658163140637
 20
1438.857035445902
 30
0.0
 10
-679.4215131981828
 20
1434.195788911457
 30
0.0
 10
-683.0658556495646
 20
1429.201540460552
 30
0.0
 10
-685.8192732746847
 20
1423.860030501257
 30
0.0
 10
-686.723052676601
 20
1420.037654913229
 30
0.0
 10
-687.1729107388686
 20
1418.135059576753
 30
0.0
  0
LINE
  5
F3
330
1F
100
AcDbEntity
  8
0
  6
Continuous
 62
     7
370
    15
100
AcDbLine
 10
-687.1729107389
 20
2018.1352026279
 30
0.0
 11
-672.3427982816
 21
2018.1352026279
 31
0.0
  0
LINE
  5
F4
330
1F
100
AcDbEntity
  8
0
  6
Continuous
 62
     7
370
    15
100
AcDbLine
 10
-672.3427982816
 20
2018.1352026279
 30
0.0
 11
-672.3427982816
 21
2006.1351187046
 31
0.0
  0
ARC
  5
F5
330
1F
100
AcDbEntity
  8
0
  6
Continuous
 62
     7
370
    15
100
AcDbCircle
 10
-152.1814515996
 20
1724.4133602139
 30
0.0
 40
10.00000000000001
100
AcDbArc
 50
354.0022085962
 51
52.4187417074
  0
ARC
  5
F6
330
1F
100
AcDbEntity
  8
0
  6
Continuous
 62
     7
370
    15
100
AcDbCircle
 10
81.5445573905
 20
1724.4133602139
 30
0.0
 40
10.00000000000027
100
AcDbArc
 50
127.5812582926
 51
185.9977914038
  0
SPLINE
  5
F7
330
1F
100
AcDbEntity
  8
0
  6
Continuous
 62
     7
370
    15
100
AcDbSpline
210
0.0
220
0.0
230
1.0
 70
     8
 71
     3
 72
    50
 73
    46
 74
     0
 42
0.00000001
 43
0.00000001
 40
0.0
 40
0.0
 40
0.0
 40
0.0
 40
0.0064104187858666
 40
0.0143219687751865
 40
0.0237508089123476
 40
0.0347113384651084
 40
0.0472181512808324
 40
0.061022532297403
 40
0.0763516096595126
 40
0.0932240240905622
 40
0.1116617565122601
 40
0.1321131098882925
 40
0.1542461215868998
 40
0.1780902995240701
 40
0.2036774944889754
 40
0.2310422480428544
 40
0.2602210885953873
 40
0.2912526881893751
 40
0.3204925753633137
 40
0.3512654993801513
 40
0.3836027028418472
 40
0.4175367368255439
 40
0.453101100164396
 40
0.4896508888622074
 40
0.52784061986529
 40
0.5677049558825439
 40
0.6092794753481257
 40
0.6419363611697168
 40
0.6756116627145459
 40
0.7103218107354268
 40
0.7460835866556077
 40
0.7829112023327605
 40
0.8204153523214995
 40
0.842737580607109
 40
0.8645788334138668
 40
0.8856703752487258
 40
0.9057642996138329
 40
0.9246471778877808
 40
0.9373052484028602
 40
0.9492332708844613
 40
0.9604332779709746
 40
0.9709550912579742
 40
0.9809119952175467
 40
0.9904987334701965
 40
1.0
 40
1.0
 40
1.0
 40
1.0
 10
75.445698033886
 20
1732.338321905855
 30
0.0
 10
76.47631549424433
 20
1733.154886943016
 30
0.0
 10
78.77889065812552
 20
1734.979232489818
 30
0.0
 10
82.50371655250811
 20
1738.119560136386
 30
0.0
 10
86.93773336611704
 20
1741.865564820093
 30
0.0
 10
92.10087832943715
 20
1746.209377948156
 30
0.0
 10
97.99283298289758
 20
1751.080571714947
 30
0.0
 10
104.6374549742119
 20
1756.446886131779
 30
0.0
 10
112.0596018251682
 20
1762.27435910218
 30
0.0
 10
120.3276422139923
 20
1768.561513827711
 30
0.0
 10
129.545413639474
 20
1775.333014193825
 30
0.0
 10
139.7627382016659
 20
1782.563287355049
 30
0.0
 10
151.0286131494103
 20
1790.227676400755
 30
0.0
 10
163.3197505628698
 20
1798.253281032944
 30
0.0
 10
176.6728172847825
 20
1806.610081046782
 30
0.0
 10
191.1242073588689
 20
1815.268602134626
 30
0.0
 10
206.710630977523
 20
1824.19892725357
 30
0.0
 10
222.805557070736
 20
1833.008469873027
 30
0.0
 10
239.3487162418234
 20
1841.672958568122
 30
0.0
 10
256.2779549924517
 20
1850.171494499856
 30
0.0
 10
274.2179628341079
 20
1858.796143579369
 30
0.0
 10
293.1944792947988
 20
1867.526094738547
 30
0.0
 10
313.1059185047207
 20
1876.283879338204
 30
0.0
 10
333.9634083431509
 20
1885.05110055719
 30
0.0
 10
355.7778733374807
 20
1893.809863104063
 30
0.0
 10
378.6912138194326
 20
1902.589468433707
 30
0.0
 10
400.6734828665311
 20
1910.619202263948
 30
0.0
 10
421.5634338222586
 20
1917.932123317271
 30
0.0
 10
441.2024526485054
 20
1924.553081138732
 30
0.0
 10
461.5219986299197
 20
1931.144324628369
 30
0.0
 10
482.5303393170174
 20
1937.703641463151
 30
0.0
 10
504.1648794170703
 20
1944.174083153591
 30
0.0
 10
523.1996206173898
 20
1949.714705950807
 30
0.0
 10
539.212850821744
 20
1954.632350759793
 30
0.0
 10
551.929481742819
 20
1958.811001054295
 30
0.0
 10
564.0863872912935
 20
1963.215314613888
 30
0.0
 10
575.4844287206531
 20
1967.905213778654
 30
0.0
 10
585.032266042139
 20
1972.509770440941
 30
0.0
 10
592.7761624969908
 20
1976.940477200742
 30
0.0
 10
598.8713483917949
 20
1981.04512044499
 30
0.0
 10
604.2289939752992
 20
1985.413147559655
 30
0.0
 10
608.7845365477912
 20
1990.074616582191
 30
0.0
 10
612.4288815197013
 20
1995.06882429036
 30
0.0
 10
615.1824127701835
 20
2000.410202242407
 30
0.0
 10
616.0861533067246
 20
2004.232518369852
 30
0.0
 10
616.536000203209
 20
2006.135118704561
 30
0.0
  0
LINE
  5
F8
330
1F
100
AcDbEntity
  8
0
  6
Continuous
 62
     7
370
    15
100
AcDbLine
 10
616.5360002032
 20
2006.1351187046
 30
0.0
 11
601.7059175483
 21
2006.1351187046
 31
0.0
  0
CIRCLE
  5
F9
330
1F
100
AcDbEntity
  8
0
  6
Continuous
 62
     7
370
    15
100
AcDbCircle
 10
-35.3184471046
 20
1712.1351179912
 30
0.0
 40
48.96299589967771
  0
LINE
  5
FA
330
1F
100
AcDbEntity
  8
0
  6
Continuous
 62
     7
370
    15
100
AcDbLine
 10
601.7059175483
 20
2018.1352026279
 30
0.0
 11
616.5360002032
 21
2018.1352026279
 31
0.0
  0
ARC
  5
FB
330
1F
100
AcDbEntity
  8
0
  6
Continuous
 62
     7
370
    15
100
AcDbCircle
 10
-35.3184471046
 20
1712.1351179912
 30
0.0
 40
107.5062426073155
100
AcDbArc
 50
354.0022085962
 51
5.9977914038
  0
ARC
  5
FC
330
1F
100
AcDbEntity
  8
0
  6
Continuous
 62
     7
370
    15
100
AcDbCircle
 10
586.875812592
 20
1412.1351179912
 30
0.0
 40
30.26099126968746
100
AcDbArc
 50
180.0
 51
348.5638923953
  0
LINE
  5
FD
330
1F
100
AcDbEntity
  8
0
  6
Continuous
 62
     7
370
    15
100
AcDbLine
 10
616.5360002032
 20
1406.135214072
 30
0.0
 11
601.7059175483
 21
1406.135214072
 31
0.0
  0
LINE
  5
FE
330
1F
100
AcDbEntity
  8
0
  6
Continuous
 62
     7
370
    15
100
AcDbLine
 10
601.7059175483
 20
1406.135214072
 30
0.0
 11
601.7059175483
 21
1418.1350595768
 31
0.0
  0
LINE
  5
FF
330
1F
100
AcDbEntity
  8
0
  6
Continuous
 62
     7
370
    15
100
AcDbLine
 10
601.7059175483
 20
1418.1350595768
 30
0.0
 11
616.5360002032
 21
1418.1350595768
 31
0.0
  0
SPLINE
  5
100
330
1F
100
AcDbEntity
  8
0
  6
Continuous
 62
     7
370
    15
100
AcDbSpline
210
0.0
220
0.0
230
1.0
 70
     8
 71
     3
 72
    48
 73
    44
 74
     0
 42
0.00000001
 43
0.00000001
 40
0.0
 40
0.0
 40
0.0
 40
0.0
 40
0.0095012688312502
 40
0.0190883564884221
 40
0.0290452628598081
 40
0.0395667998755483
 40
0.0507668096749861
 40
0.0626948350458554
 40
0.0753529086270392
 40
0.0942359613604741
 40
0.114329890592837
 40
0.1354213046944783
 40
0.1572626844469311
 40
0.179584803853349
 40
0.2245388500688442
 40
0.268348468637157
 40
0.3106294072773797
 40
0.3514105889406381
 40
0.3907203621608513
 40
0.4330348402000911
 40
0.4735770635911071
 40
0.5123845741969856
 40
0.5494939281010642
 40
0.5849405820837522
 40
0.6181697008995761
 40
0.6498601987414738
 40
0.6800427767415134
 40
0.7087472112283563
 40
0.7397131218783723
 40
0.7688343211266512
 40
0.7961492718364106
 40
0.8216941197541531
 40
0.8455030187247294
 40
0.8672281475126152
 40
0.8873374326207554
 40
0.905856861964181
 40
0.9228102486325608
 40
0.9409801685668183
 40
0.9569930530680587
 40
0.9708772710303215
 40
0.9826573552744177
 40
0.9923567298309136
 40
1.0
 40
1.0
 40
1.0
 40
1.0
 10
616.536000203209
 20
1418.135059576753
 30
0.0
 10
616.0861421604861
 20
1420.037654937095
 30
0.0
 10
615.1823627978362
 20
1423.86003057307
 30
0.0
 10
612.4289448723546
 20
1429.201540165599
 30
0.0
 10
608.7846036298573
 20
1434.19579009265
 30
0.0
 10
604.228907216038
 20
1438.857025132278
 30
0.0
 10
598.8713598657151
 20
1443.225068164572
 30
0.0
 10
592.7761632096609
 20
1447.329706120678
 30
0.0
 10
585.0322164161179
 20
1451.760385103382
 30
0.0
 10
575.4844895336282
 20
1456.365241286682
 30
0.0
 10
564.0864388631202
 20
1461.055175651398
 30
0.0
 10
551.9293640547171
 20
1465.458987818392
 30
0.0
 10
539.2129976863538
 20
1469.63837441503
 30
0.0
 10
521.7385183579045
 20
1475.003012967629
 30
0.0
 10
499.852089737522
 20
1481.338775711949
 30
0.0
 10
474.130091466162
 20
1489.140363262417
 30
0.0
 10
449.3319048575875
 20
1497.030632074906
 30
0.0
 10
425.5190937989866
 20
1504.966095707344
 30
0.0
 10
401.8118969000629
 20
1513.23264594046
 30
0.0
 10
378.2758947459058
 20
1521.833727275147
 30
0.0
 10
354.9763621424419
 20
1530.772500987478
 30
0.0
 10
332.8151770493008
 20
1539.689105374536
 30
0.0
 10
311.7664298435037
 20
1548.562278737803
 30
0.0
 10
291.9147074305943
 20
1557.321769338357
 30
0.0
 10
273.2212427694006
 20
1565.945748229746
 30
0.0
 10
255.6468181830537
 20
1574.411396697027
 30
0.0
 10
239.0463481974958
 20
1582.754383956558
 30
0.0
 10
222.7211629841686
 20
1591.308214806566
 30
0.0
 10
206.7445691908013
 20
1600.05248923772
 30
0.0
 10
191.1884233776252
 20
1608.964205857784
 30
0.0
 10
176.7625698956449
 20
1617.605552489979
 30
0.0
 10
163.4305250063723
 20
1625.946650981231
 30
0.0
 10
151.221130184331
 20
1633.915281478914
 30
0.0
 10
140.0856094871063
 20
1641.484876184504
 30
0.0
 10
129.9751150442651
 20
1648.628753664871
 30
0.0
 10
120.7807286621597
 20
1655.369935638236
 30
0.0
 10
112.0169608156631
 20
1662.022954225687
 30
0.0
 10
103.7705999255626
 20
1668.504946628569
 30
0.0
 10
96.1177798959731
 20
1674.721005355296
 30
0.0
 10
89.55291831463718
 20
1680.196381787809
 30
0.0
 10
84.01006408289743
 20
1684.874538321347
 30
0.0
 10
79.45536046858436
 20
1688.740050020722
 30
0.0
 10
76.67226641869128
 20
1690.955638230526
 30
0.0
 10
75.445698033886
 20
1691.932094794039
 30
0.0
  0
ARC
  5
101
330
1F
100
AcDbEntity
  8
0
  6
Continuous
 62
     7
370
    15
100
AcDbCircle
 10
81.5445573905
 20
1699.8568757685
 30
0.0
 40
10.0
100
AcDbArc
 50
174.0022085962
 51
232.4187417074
  0
ARC
  5
102
330
1F
100
AcDbEntity
  8
0
  6
Continuous
 62
     7
370
    15
100
AcDbCircle
 10
-134.5117253464
 20
1649.1397959163
 30
0.0
 40
10.00000000000008
100
AcDbArc
 50
32.418671698
 51
136.7969879663
  0
ARC
  5
103
330
1F
100
AcDbEntity
  8
0
  6
Continuous
 62
     7
370
    15
100
AcDbCircle
 10
-35.3184471046
 20
1712.1351179912
 30
0.0
 40
107.5062426073155
100
AcDbArc
 50
212.418671698
 51
327.581328302
  0
ARC
  5
104
330
1F
100
AcDbEntity
  8
0
  6
Continuous
 62
     7
370
    15
100
AcDbCircle
 10
63.8748311373
 20
1649.1397959163
 30
0.0
 40
9.999999999999986
100
AcDbArc
 50
43.2030120337
 51
147.581328302
  0
SPLINE
  5
105
330
1F
100
AcDbEntity
  8
0
  6
Continuous
 62
     7
370
    15
100
AcDbSpline
210
0.0
220
0.0
230
1.0
 70
     8
 71
     3
 72
    29
 73
    25
 74
     0
 42
0.00000001
 43
0.00000001
 40
0.0
 40
0.0
 40
0.0
 40
0.0
 40
0.0399281264826862
 40
0.0794790110955382
 40
0.1187593502885161
 40
0.157859290731421
 40
0.1968528896739303
 40
0.2357979289945897
 40
0.2747381375025062
 40
0.3137077312575953
 40
0.3627790023998232
 40
0.4119661795135731
 40
0.4612719041927805
 40
0.5106774784019515
 40
0.5601472948088613
 40
0.6219998072813466
 40
0.6837681808521616
 40
0.7453923988087754
 40
0.8068525148884036
 40
0.8454144612208693
 40
0.8839515707722508
 40
0.9225104238431496
 40
0.9611608690842229
 40
1.0
 40
1.0
 40
1.0
 40
1.0
 10
71.16415483863835
 20
1655.985725622896
 30
0.0
 10
76.23988567275084
 20
1650.744430038169
 30
0.0
 10
86.34339171772702
 20
1640.311358751588
 30
0.0
 10
102.4370619350758
 20
1625.739430730359
 30
0.0
 10
119.0505108853098
 20
1612.012157992692
 30
0.0
 10
136.2153252114957
 20
1599.146663727023
 30
0.0
 10
153.8669909451345
 20
1587.069376852114
 30
0.0
 10
171.9673559833278
 20
1575.731522662992
 30
0.0
 10
190.4716514045163
 20
1565.07626363765
 30
0.0
 10
210.9603070309026
 20
1554.187811207099
 30
0.0
 10
233.4974875638891
 20
1543.193199545892
 30
0.0
 10
258.1112687740064
 20
1532.186168807891
 30
0.0
 10
283.0809270546887
 20
1521.854567397186
 30
0.0
 10
308.3300622803301
 20
1512.085058118199
 30
0.0
 10
335.9045262358257
 20
1501.988767285586
 30
0.0
 10
365.7565531783682
 20
1491.554403160776
 30
0.0
 10
397.8084291058286
 20
1480.691643362048
 30
0.0
 10
429.7456384940605
 20
1469.713813951867
 30
0.0
 10
457.4826675279219
 20
1459.564402371805
 30
0.0
 10
480.9993351409512
 20
1450.191019885012
 30
0.0
 10
500.4063436948713
 20
1441.824460159467
 30
0.0
 10
519.5227182188564
 20
1432.777975172927
 30
0.0
 10
538.3544035124812
 20
1423.015534187846
 30
0.0
 10
550.5181449840082
 20
1415.767739221256
 30
0.0
 10
556.6148249617387
 20
1412.135017615083
 30
0.0
  0
LINE
  5
106
330
1F
100
AcDbEntity
  8
0
  6
Continuous
 62
     7
370
    15
100
AcDbLine
 10
601.7059175483
 20
2006.1351187046
 30
0.0
 11
601.7059175483
 21
2018.1352026279
 31
0.0
  0
SPLINE
  5
107
330
1F
100
AcDbEntity
  8
0
  6
Continuous
 62
     7
370
    15
100
AcDbSpline
210
0.0
220
0.0
230
1.0
 70
     8
 71
     3
 72
    29
 73
    25
 74
     0
 42
0.00000001
 43
0.00000001
 40
0.0
 40
0.0
 40
0.0
 40
0.0
 40
0.0399278295494479
 40
0.07947872124078
 40
0.1187590829358637
 40
0.1578593100706027
 40
0.1968526365914165
 40
0.2357979499066372
 40
0.2747379501121994
 40
0.3137075527911468
 40
0.3627788572672097
 40
0.4119661901501239
 40
0.4612717381421464
 40
0.510677314794456
 40
0.5601473983470482
 40
0.6219997600852344
 40
0.6837681010971484
 40
0.7453923379097238
 40
0.8068525238123756
 40
0.845414431451589
 40
0.8839515527946702
 40
0.9225104668098413
 40
0.9611610291834735
 40
1.0
 40
1.0
 40
1.0
 40
1.0
 10
-141.8010504731369
 20
1768.284691076997
 30
0.0
 10
-146.8767941780266
 20
1773.525893903899
 30
0.0
 10
-156.9803641331875
 20
1783.958820089628
 30
0.0
 10
-173.0739312558055
 20
1798.530779889656
 30
0.0
 10
-189.6875059466433
 20
1812.257971741813
 30
0.0
 10
-206.8520587644914
 20
1825.123824555331
 30
0.0
 10
-224.5040536582034
 20
1837.200709294937
 30
0.0
 10
-242.6040953042531
 20
1848.538992880958
 30
0.0
 10
-261.1086404022626
 20
1859.193843086578
 30
0.0
 10
-281.597182952927
 20
1870.08241943033
 30
0.0
 10
-304.1344659578219
 20
1881.076883800643
 30
0.0
 10
-328.7480375034266
 20
1892.08436943228
 30
0.0
 10
-353.717862805727
 20
1902.415550230918
 30
0.0
 10
-378.9669923746453
 20
1912.185080892923
 30
0.0
 10
-406.5413291110148
 20
1922.281763770262
 30
0.0
 10
-436.3935210181241
 20
1932.715677593855
 30
0.0
 10
-468.4453084639924
 20
1943.578567132297
 30
0.0
 10
-500.3825292853229
 20
1954.556363887541
 30
0.0
 10
-528.1195618255829
 20
1964.705765536402
 30
0.0
 10
-551.6362267788711
 20
1974.079158255829
 30
0.0
 10
-571.04321837659
 20
1982.445748775475
 30
0.0
 10
-590.1596873661831
 20
1991.492114386138
 30
0.0
 10
-608.9911421416465
 20
2001.254982229897
 30
0.0
 10
-621.1549927612947
 20
2008.502560587895
 30
0.0
 10
-627.2517056950759
 20
2012.135160666231
 30
0.0
  0
ARC
  5
108
330
1F
100
AcDbEntity
  8
0
  6
Continuous
 62
     7
370
    15
100
AcDbCircle
 10
586.875812592
 20
2012.1351179912
 30
0.0
 40
30.26099126968737
100
AcDbArc
 50
11.4361076047
 51
180.0
  0
SPLINE
  5
109
330
1F
100
AcDbEntity
  8
0
  6
Continuous
 62
     7
370
    15
100
AcDbSpline
210
0.0
220
0.0
230
1.0
 70
     8
 71
     3
 72
    29
 73
    25
 74
     0
 42
0.00000001
 43
0.00000001
 40
0.0
 40
0.0
 40
0.0
 40
0.0
 40
0.0393191477334095
 40
0.0784462766761994
 40
0.1174817632908747
 40
0.1564970889961181
 40
0.1955396108189271
 40
0.2346366762170387
 40
0.27379960420409
 40
0.3130287629072227
 40
0.3747909286835461
 40
0.4366417178852836
 40
0.4984743139861326
 40
0.5601949876940643
 40
0.6094504608592669
 40
0.6585856684617073
 40
0.7076136781205866
 40
0.7565743219486771
 40
0.8055317046061773
 40
0.844051938761767
 40
0.8826795118820174
 40
0.9214857334856731
 40
0.9605582811227946
 40
1.0
 40
1.0
 40
1.0
 40
1.0
 10
556.6148249617387
 20
2012.135160666231
 30
0.0
 10
550.442100256168
 20
2008.458696210393
 30
0.0
 10
538.1267959321181
 20
2001.123721661902
 30
0.0
 10
519.0540013815789
 20
1991.256812792842
 30
0.0
 10
499.6907579140816
 20
1982.120642396911
 30
0.0
 10
480.0314618727774
 20
1973.676898108061
 30
0.0
 10
460.1365979981396
 20
1965.779332512573
 30
0.0
 10
440.0488084230438
 20
1958.310532928095
 30
0.0
 10
419.8152272013043
 20
1951.145735425748
 30
0.0
 10
395.5982973997933
 20
1942.829756689431
 30
0.0
 10
367.4211888160651
 20
1933.285355169586
 30
0.0
 10
335.4308889822253
 20
1922.128532724092
 30
0.0
 10
303.6296332740511
 20
1910.462211340596
 30
0.0
 10
274.2543298662466
 20
1898.8838266434
 30
0.0
 10
247.3544529101983
 20
1887.385001417943
 30
0.0
 10
222.9193079775841
 20
1876.048426553361
 30
0.0
 10
198.9497987943981
 20
1863.872672989742
 30
0.0
 10
175.524112506001
 20
1850.743794348816
 30
0.0
 10
154.3541724565332
 20
1837.566036086785
 30
0.0
 10
135.3654469356242
 20
1824.509633317065
 30
0.0
 10
118.4333179202042
 20
1811.76670036878
 30
0.0
 10
102.0404646309286
 20
1798.181597061928
 30
0.0
 10
86.15601079236781
 20
1783.771109106322
 30
0.0
 10
76.17708034650329
 20
1773.462986559842
 30
0.0
 10
71.16415483863835
 20
1768.284691076997
 30
0.0
  0
ARC
  5
10A
330
1F
100
AcDbEntity
  8
0
  6
Continuous
 62
     7
370
    15
100
AcDbCircle
 10
63.8748311373
 20
1775.1304400661
 30
0.0
 40
10.00000000000001
100
AcDbArc
 50
212.418671698
 51
316.7969879663
  0
ARC
  5
10B
330
1F
100
AcDbEntity
  8
0
  6
Continuous
 62
     7
370
    15
100
AcDbCircle
 10
-35.3184471046
 20
1712.1351179912
 30
0.0
 40
107.5062426073154
100
AcDbArc
 50
32.418671698
 51
147.581328302
  0
ARC
  5
10C
330
1F
100
AcDbEntity
  8
0
  6
Continuous
 62
     7
370
    15
100
AcDbCircle
 10
-134.5117253464
 20
1775.1304400661
 30
0.0
 40
9.999999999999991
100
AcDbArc
 50
223.2030120337
 51
327.581328302
  0
LINE
  5
10D
330
1F
100
AcDbEntity
  8
0
  6
Continuous
 62
     7
370
    15
100
AcDbLine
 10
-672.3427982816
 20
1406.135214072
 30
0.0
 11
-687.1729107389
 21
1406.135214072
 31
0.0
  0
ARC
  5
10E
330
1F
100
AcDbEntity
  8
0
  6
Continuous
 62
     7
370
    15
100
AcDbCircle
 10
-657.5127068012
 20
2012.1351179912
 30
0.0
 40
30.26099126968745
100
AcDbArc
 50
0.0
 51
168.5638923953
  0
SPLINE
  5
10F
330
1F
100
AcDbEntity
  8
0
  6
Continuous
 62
     7
370
    15
100
AcDbSpline
210
0.0
220
0.0
230
1.0
 70
     8
 71
     3
 72
    29
 73
    25
 74
     0
 42
0.00000001
 43
0.00000001
 40
0.0
 40
0.0
 40
0.0
 40
0.0
 40
0.0393190899763279
 40
0.0784464095714899
 40
0.1174816997871897
 40
0.1564970647488687
 40
0.1955395758839169
 40
0.2346365796314866
 40
0.2737996425232777
 40
0.3130287001841157
 40
0.3747908747838757
 40
0.4366415957315053
 40
0.4984741493931495
 40
0.5601948188459104
 40
0.6094503035184025
 40
0.6585854606903689
 40
0.7076136966848722
 40
0.756574117070109
 40
0.8055314510001544
 40
0.8440519443346801
 40
0.8826792206467488
 40
0.9214854316273301
 40
0.9605579635492472
 40
0.9999999999999999
 40
0.9999999999999999
 40
0.9999999999999999
 40
0.9999999999999999
 10
-627.2517056950759
 20
1412.135017615083
 30
0.0
 10
-621.0789774926699
 20
1415.811455686955
 30
0.0
 10
-608.7636272383538
 20
1423.146400796922
 30
0.0
 10
-589.6910427372055
 20
1433.013708300483
 30
0.0
 10
-570.327588643104
 20
1442.149470252013
 30
0.0
 10
-550.6683586556434
 20
1450.593290430612
 30
0.0
 10
-530.7734926746206
 20
1458.490859604038
 30
0.0
 10
-510.6856528906108
 20
1465.959565317872
 30
0.0
 10
-490.4522312414267
 20
1473.124818201793
 30
0.0
 10
-466.2351011135861
 20
1481.440264098649
 30
0.0
 10
-438.0580846344353
 20
1490.98486656303
 30
0.0
 10
-406.067775724043
 20
1502.141634627824
 30
0.0
 10
-374.2665399546268
 20
1513.80797606134
 30
0.0
 10
-344.8912279519329
 20
1525.386346923094
 30
0.0
 10
-317.9913605347228
 20
1536.885189349116
 30
0.0
 10
-293.5561323302607
 20
1548.221695339219
 30
0.0
 10
-269.5868217413544
 20
1560.397830160284
 30
0.0
 10
-246.1609374916863
 20
1573.526338634944
 30
0.0
 10
-224.9909784245597
 20
1586.70410151222
 30
0.0
 10
-206.002494225462
 20
1599.76082666818
 30
0.0
 10
-189.0701327442466
 20
1612.503442380593
 30
0.0
 10
-172.6773926029786
 20
1626.088605582142
 30
0.0
 10
-156.7928445095169
 20
1640.49907765633
 30
0.0
 10
-146.8139693150301
 20
1650.807338753321
 30
0.0
 10
-141.8010504731369
 20
1655.985725622896
 30
0.0
  0
LINE
  5
110
330
1F
100
AcDbEntity
  8
0
  6
Continuous
 62
     7
370
    15
100
AcDbLine
 10
-687.1729107389
 20
1418.1350595768
 30
0.0
 11
-672.3427982816
 21
1418.1350595768
 31
0.0
  0
LINE
  5
111
330
1F
100
AcDbEntity
  8
0
  6
Continuous
 62
     7
370
    15
100
AcDbLine
 10
-672.3427982816
 20
1418.1350595768
 30
0.0
 11
-672.3427982816
 21
1406.135214072
 31
0.0
  0
ARC
  5
112
330
1F
100
AcDbEntity
  8
0
  6
Continuous
 62
     7
370
    15
100
AcDbCircle
 10
-657.5127068012
 20
1412.1351179912
 30
0.0
 40
30.26099126968745
100
AcDbArc
 50
191.4361076047
 51
0.0
  0
LINE
  5
113
330
1F
100
AcDbEntity
  8
0
  6
Continuous
 62
     7
370
    15
100
AcDbLine
 10
3140.3156726663
 20
1078.4635809409
 30
0.0
 11
3148.8009540405
 21
1083.3620296119
 31
0.0
  0
LINE
  5
114
330
1F
100
AcDbEntity
  8
0
  6
Continuous
 62
     7
370
    15
100
AcDbLine
 10
2164.5047686987
 20
1490.7475153605
 30
0.0
 11
2156.0194873244
 21
1485.8490666895
 31
0.0
  0
LINE
  5
115
330
1F
100
AcDbEntity
  8
0
  6
Continuous
 62
     7
370
    15
100
AcDbLine
 10
3564.5797413782
 20
1323.3860144877
 30
0.0
 11
3573.0650227524
 21
1328.2844631587
 31
0.0
  0
LINE
  5
116
330
1F
100
AcDbEntity
  8
0
  6
Continuous
 62
     7
370
    15
100
AcDbLine
 10
2919.9304734113
 20
781.6573334994
 30
0.0
 11
2919.9304734113
 21
771.8588437568
 31
0.0
  0
LINE
  5
117
330
1F
100
AcDbEntity
  8
0
  6
Continuous
 62
     7
370
    15
100
AcDbLine
 10
2757.7527684232
 20
1084.1914496413
 30
0.0
 11
2757.7527684232
 21
1074.3929598986
 31
0.0
  0
LINE
  5
118
330
1F
100
AcDbEntity
  8
0
  6
Continuous
 62
     7
370
    15
100
AcDbLine
 10
2614.8594761828
 20
1158.1007706457
 30
0.0
 11
2614.8594761828
 21
1148.3022809031
 31
0.0
  0
LINE
  5
119
330
1F
100
AcDbEntity
  8
0
  6
Continuous
 62
     7
370
    15
100
AcDbLine
 10
2829.8719613975
 20
1148.3022809031
 30
0.0
 11
2829.8719613975
 21
1158.1007706457
 31
0.0
  0
LINE
  5
11A
330
1F
100
AcDbEntity
  8
0
  6
Continuous
 62
     7
370
    15
100
AcDbLine
 10
2686.9786691571
 20
1223.1333683089
 30
0.0
 11
2686.9786691571
 21
1232.0100916502
 31
0.0
  0
LINE
  5
11B
330
1F
100
AcDbEntity
  8
0
  6
Continuous
 62
     7
370
    15
100
AcDbLine
 10
2040.0149129177
 20
1289.6217742452
 30
0.0
 11
2040.0149129177
 21
1279.8232845026
 31
0.0
  0
LINE
  5
11C
330
1F
100
AcDbEntity
  8
0
  6
Continuous
 62
     7
370
    15
100
AcDbLine
 10
1803.1269032476
 20
1821.8982706085
 30
0.0
 11
1803.1269032476
 21
1812.0997808658
 31
0.0
  0
LINE
  5
11D
330
1F
100
AcDbEntity
  8
0
  6
Continuous
 62
     7
370
    15
100
AcDbLine
 10
1803.1269032476
 20
1821.8982706085
 30
0.0
 11
3075.9191093834
 21
1087.130969968
 31
0.0
  0
LINE
  5
11E
330
1F
100
AcDbEntity
  8
0
  6
Continuous
 62
     7
370
    15
100
AcDbLine
 10
3075.9191093834
 20
1087.130969968
 30
0.0
 11
3075.9191093834
 21
1077.3324802254
 31
0.0
  0
LINE
  5
11F
330
1F
100
AcDbEntity
  8
0
  6
Continuous
 62
     7
370
    15
100
AcDbLine
 10
1803.1269032476
 20
1812.0997808658
 30
0.0
 11
3075.9191093834
 21
1077.3324802254
 31
0.0
  0
LINE
  5
120
330
1F
100
AcDbEntity
  8
0
  6
Continuous
 62
     7
370
    15
100
AcDbLine
 10
3075.9191093834
 20
1087.130969968
 30
0.0
 11
3641.6045343327
 21
1413.6942146971
 31
0.0
  0
LINE
  5
121
330
1F
100
AcDbEntity
  8
0
  6
Continuous
 62
     7
370
    15
100
AcDbLine
 10
3641.6045343327
 20
1413.6942146971
 30
0.0
 11
3641.6045343327
 21
1403.8957249545
 31
0.0
  0
LINE
  5
122
330
1F
100
AcDbEntity
  8
0
  6
Continuous
 62
     7
370
    15
100
AcDbLine
 10
3075.9191093834
 20
1077.3324802254
 30
0.0
 11
3641.6045343327
 21
1403.8957249545
 31
0.0
  0
LINE
  5
123
330
1F
100
AcDbEntity
  8
0
  6
Continuous
 62
     7
370
    15
100
AcDbLine
 10
3641.6045343327
 20
1413.6942146971
 30
0.0
 11
2368.8123281969
 21
2148.4615153375
 31
0.0
  0
LINE
  5
124
330
1F
100
AcDbEntity
  8
0
  6
Continuous
 62
     7
370
    15
100
AcDbLine
 10
2368.8123281969
 20
2148.4615153375
 30
0.0
 11
1803.1269032476
 21
1821.8982706085
 31
0.0
  0
LINE
  5
125
330
1F
100
AcDbEntity
  8
0
  6
Continuous
 62
     7
370
    15
100
AcDbLine
 10
1988.1842749726
 20
1791.8092863921
 30
0.0
 11
2023.5396140319
 21
1771.3990835965
 31
0.0
  0
LINE
  5
126
330
1F
100
AcDbEntity
  8
0
  6
Continuous
 62
     7
370
    15
100
AcDbLine
 10
2023.5396140319
 20
1771.3990835965
 30
0.0
 11
2032.0248954062
 21
1776.2975322675
 31
0.0
  0
LINE
  5
127
330
1F
100
AcDbEntity
  8
0
  6
Continuous
 62
     7
370
    15
100
AcDbLine
 10
2032.0248954062
 20
1776.2975322675
 30
0.0
 11
1996.6695563469
 21
1796.707735063
 31
0.0
  0
LINE
  5
128
330
1F
100
AcDbEntity
  8
0
  6
Continuous
 62
     7
370
    15
100
AcDbLine
 10
1996.6695563469
 20
1796.707735063
 30
0.0
 11
1988.1842749726
 21
1791.8092863921
 31
0.0
  0
LINE
  5
129
330
1F
100
AcDbEntity
  8
0
  6
Continuous
 62
     7
370
    15
100
AcDbLine
 10
2178.2714153195
 20
1682.0743160444
 30
0.0
 11
2213.6267543788
 21
1661.6641132488
 31
0.0
  0
LINE
  5
12A
330
1F
100
AcDbEntity
  8
0
  6
Continuous
 62
     7
370
    15
100
AcDbLine
 10
2213.6267543788
 20
1661.6641132488
 30
0.0
 11
2222.1120357531
 21
1666.5625619198
 31
0.0
  0
LINE
  5
12B
330
1F
100
AcDbEntity
  8
0
  6
Continuous
 62
     7
370
    15
100
AcDbLine
 10
2222.1120357531
 20
1666.5625619198
 30
0.0
 11
2186.7566966937
 21
1686.9727647153
 31
0.0
  0
LINE
  5
12C
330
1F
100
AcDbEntity
  8
0
  6
Continuous
 62
     7
370
    15
100
AcDbLine
 10
2186.7566966937
 20
1686.9727647153
 30
0.0
 11
2178.2714153195
 21
1682.0743160444
 31
0.0
  0
LINE
  5
12D
330
1F
100
AcDbEntity
  8
0
  6
Continuous
 62
     7
370
    15
100
AcDbLine
 10
2412.1991760999
 20
1556.827591572
 30
0.0
 11
2376.8438370406
 21
1577.2377943676
 31
0.0
  0
LINE
  5
12E
330
1F
100
AcDbEntity
  8
0
  6
Continuous
 62
     7
370
    15
100
AcDbLine
 10
2376.8438370406
 20
1577.2377943676
 30
0.0
 11
2368.3585556664
 21
1572.3393456967
 31
0.0
  0
LINE
  5
12F
330
1F
100
AcDbEntity
  8
0
  6
Continuous
 62
     7
370
    15
100
AcDbLine
 10
2368.3585556664
 20
1572.3393456967
 30
0.0
 11
2403.7138947257
 21
1551.9291429011
 31
0.0
  0
LINE
  5
130
330
1F
100
AcDbEntity
  8
0
  6
Continuous
 62
     7
370
    15
100
AcDbLine
 10
2403.7138947257
 20
1551.9291429011
 30
0.0
 11
2412.1991760999
 21
1556.827591572
 31
0.0
  0
LINE
  5
131
330
1F
100
AcDbEntity
  8
0
  6
Continuous
 62
     7
370
    15
100
AcDbLine
 10
2833.7106721746
 20
1303.6972870434
 30
0.0
 11
2842.1959535489
 21
1308.5957357144
 31
0.0
  0
LINE
  5
132
330
1F
100
AcDbEntity
  8
0
  6
Continuous
 62
     7
370
    15
100
AcDbLine
 10
2842.1959535489
 20
1308.5957357144
 30
0.0
 11
2806.8406144895
 21
1329.0059385099
 31
0.0
  0
LINE
  5
133
330
1F
100
AcDbEntity
  8
0
  6
Continuous
 62
     7
370
    15
100
AcDbLine
 10
2806.8406144895
 20
1329.0059385099
 30
0.0
 11
2798.3553331153
 21
1324.107489839
 31
0.0
  0
LINE
  5
134
330
1F
100
AcDbEntity
  8
0
  6
Continuous
 62
     7
370
    15
100
AcDbLine
 10
2798.3553331153
 20
1324.107489839
 30
0.0
 11
2833.7106721746
 21
1303.6972870434
 31
0.0
  0
LINE
  5
135
330
1F
100
AcDbEntity
  8
0
  6
Continuous
 62
     7
370
    15
100
AcDbLine
 10
2643.6235318278
 20
1413.4322573912
 30
0.0
 11
2652.108813202
 21
1418.3307060621
 31
0.0
  0
LINE
  5
136
330
1F
100
AcDbEntity
  8
0
  6
Continuous
 62
     7
370
    15
100
AcDbLine
 10
2652.108813202
 20
1418.3307060621
 30
0.0
 11
2616.7534741427
 21
1438.7409088577
 31
0.0
  0
LINE
  5
137
330
1F
100
AcDbEntity
  8
0
  6
Continuous
 62
     7
370
    15
100
AcDbLine
 10
2616.7534741427
 20
1438.7409088577
 30
0.0
 11
2608.2681927684
 21
1433.8424601867
 31
0.0
  0
LINE
  5
138
330
1F
100
AcDbEntity
  8
0
  6
Continuous
 62
     7
370
    15
100
AcDbLine
 10
2608.2681927684
 20
1433.8424601867
 30
0.0
 11
2643.6235318278
 21
1413.4322573912
 31
0.0
  0
LINE
  5
139
330
1F
100
AcDbEntity
  8
0
  6
Continuous
 62
     7
370
    15
100
AcDbLine
 10
3023.7978125215
 20
1193.9623166957
 30
0.0
 11
3032.2830938957
 21
1198.8607653666
 31
0.0
  0
LINE
  5
13A
330
1F
100
AcDbEntity
  8
0
  6
Continuous
 62
     7
370
    15
100
AcDbLine
 10
3032.2830938957
 20
1198.8607653666
 30
0.0
 11
2996.9277548364
 21
1219.2709681622
 31
0.0
  0
LINE
  5
13B
330
1F
100
AcDbEntity
  8
0
  6
Continuous
 62
     7
370
    15
100
AcDbLine
 10
2996.9277548364
 20
1219.2709681622
 30
0.0
 11
2988.4424734622
 21
1214.3725194913
 31
0.0
  0
LINE
  5
13C
330
1F
100
AcDbEntity
  8
0
  6
Continuous
 62
     7
370
    15
100
AcDbLine
 10
2988.4424734622
 20
1214.3725194913
 30
0.0
 11
3023.7978125215
 21
1193.9623166957
 31
0.0
  0
LINE
  5
13D
330
1F
100
AcDbEntity
  8
0
  6
Continuous
 62
     7
370
    15
100
AcDbLine
 10
3414.5254948626
 20
1460.345012074
 30
0.0
 11
3449.8808339219
 21
1439.9348092784
 31
0.0
  0
LINE
  5
13E
330
1F
100
AcDbEntity
  8
0
  6
Continuous
 62
     7
370
    15
100
AcDbLine
 10
3449.8808339219
 20
1439.9348092784
 30
0.0
 11
3458.3661152962
 21
1444.8332579494
 31
0.0
  0
LINE
  5
13F
330
1F
100
AcDbEntity
  8
0
  6
Continuous
 62
     7
370
    15
100
AcDbLine
 10
3458.3661152962
 20
1444.8332579494
 30
0.0
 11
3423.0107762368
 21
1465.2434607449
 31
0.0
  0
LINE
  5
140
330
1F
100
AcDbEntity
  8
0
  6
Continuous
 62
     7
370
    15
100
AcDbLine
 10
3423.0107762368
 20
1465.2434607449
 30
0.0
 11
3414.5254948626
 21
1460.345012074
 31
0.0
  0
LINE
  5
141
330
1F
100
AcDbEntity
  8
0
  6
Continuous
 62
     7
370
    15
100
AcDbLine
 10
3232.92363589
 20
1574.9784310927
 30
0.0
 11
3224.4383545157
 21
1570.0799824217
 31
0.0
  0
LINE
  5
142
330
1F
100
AcDbEntity
  8
0
  6
Continuous
 62
     7
370
    15
100
AcDbLine
 10
3224.4383545157
 20
1570.0799824217
 30
0.0
 11
3259.7936935751
 21
1549.6697796262
 31
0.0
  0
LINE
  5
143
330
1F
100
AcDbEntity
  8
0
  6
Continuous
 62
     7
370
    15
100
AcDbLine
 10
3259.7936935751
 20
1549.6697796262
 30
0.0
 11
3268.2789749493
 21
1554.5682282971
 31
0.0
  0
LINE
  5
144
330
1F
100
AcDbEntity
  8
0
  6
Continuous
 62
     7
370
    15
100
AcDbLine
 10
3268.2789749493
 20
1554.5682282971
 30
0.0
 11
3232.92363589
 21
1574.9784310927
 31
0.0
  0
LINE
  5
145
330
1F
100
AcDbEntity
  8
0
  6
Continuous
 62
     7
370
    15
100
AcDbLine
 10
3078.1918346024
 20
1664.3031986448
 30
0.0
 11
3042.8364955431
 21
1684.7134014404
 31
0.0
  0
LINE
  5
146
330
1F
100
AcDbEntity
  8
0
  6
Continuous
 62
     7
370
    15
100
AcDbLine
 10
3042.8364955431
 20
1684.7134014404
 30
0.0
 11
3034.3512141689
 21
1679.8149527695
 31
0.0
  0
LINE
  5
147
330
1F
100
AcDbEntity
  8
0
  6
Continuous
 62
     7
370
    15
100
AcDbLine
 10
3034.3512141689
 20
1679.8149527695
 30
0.0
 11
3069.7065532282
 21
1659.4047499739
 31
0.0
  0
LINE
  5
148
330
1F
100
AcDbEntity
  8
0
  6
Continuous
 62
     7
370
    15
100
AcDbLine
 10
3069.7065532282
 20
1659.4047499739
 30
0.0
 11
3078.1918346024
 21
1664.3031986448
 31
0.0
  0
LINE
  5
149
330
1F
100
AcDbEntity
  8
0
  6
Continuous
 62
     7
370
    15
100
AcDbLine
 10
2612.8397180941
 20
1932.9452572981
 30
0.0
 11
2604.3544367199
 21
1928.0468086271
 31
0.0
  0
LINE
  5
14A
330
1F
100
AcDbEntity
  8
0
  6
Continuous
 62
     7
370
    15
100
AcDbLine
 10
2604.3544367199
 20
1928.0468086271
 30
0.0
 11
2639.7097757792
 21
1907.6366058316
 31
0.0
  0
LINE
  5
14B
330
1F
100
AcDbEntity
  8
0
  6
Continuous
 62
     7
370
    15
100
AcDbLine
 10
2639.7097757792
 20
1907.6366058316
 30
0.0
 11
2648.1950571535
 21
1912.5350545025
 31
0.0
  0
LINE
  5
14C
330
1F
100
AcDbEntity
  8
0
  6
Continuous
 62
     7
370
    15
100
AcDbLine
 10
2648.1950571535
 20
1912.5350545025
 30
0.0
 11
2612.8397180941
 21
1932.9452572981
 31
0.0
  0
LINE
  5
14D
330
1F
100
AcDbEntity
  8
0
  6
Continuous
 62
     7
370
    15
100
AcDbLine
 10
2802.926858441
 20
1823.2102869503
 30
0.0
 11
2794.4415770668
 21
1818.3118382794
 31
0.0
  0
LINE
  5
14E
330
1F
100
AcDbEntity
  8
0
  6
Continuous
 62
     7
370
    15
100
AcDbLine
 10
2794.4415770668
 20
1818.3118382794
 30
0.0
 11
2829.7969161261
 21
1797.9016354838
 31
0.0
  0
LINE
  5
14F
330
1F
100
AcDbEntity
  8
0
  6
Continuous
 62
     7
370
    15
100
AcDbLine
 10
2829.7969161261
 20
1797.9016354838
 30
0.0
 11
2838.2821975003
 21
1802.8000841548
 31
0.0
  0
LINE
  5
150
330
1F
100
AcDbEntity
  8
0
  6
Continuous
 62
     7
370
    15
100
AcDbLine
 10
2838.2821975003
 20
1802.8000841548
 30
0.0
 11
2802.926858441
 21
1823.2102869503
 31
0.0
  0
LINE
  5
151
330
1F
100
AcDbEntity
  8
0
  6
Continuous
 62
     7
370
    15
100
AcDbLine
 10
2422.7525777473
 20
2042.6802276458
 30
0.0
 11
2414.267296373
 21
2037.7817789748
 31
0.0
  0
LINE
  5
152
330
1F
100
AcDbEntity
  8
0
  6
Continuous
 62
     7
370
    15
100
AcDbLine
 10
2414.267296373
 20
2037.7817789748
 30
0.0
 11
2449.6226354324
 21
2017.3715761793
 31
0.0
  0
LINE
  5
153
330
1F
100
AcDbEntity
  8
0
  6
Continuous
 62
     7
370
    15
100
AcDbLine
 10
2449.6226354324
 20
2017.3715761793
 30
0.0
 11
2458.1079168066
 21
2022.2700248502
 31
0.0
  0
LINE
  5
154
330
1F
100
AcDbEntity
  8
0
  6
Continuous
 62
     7
370
    15
100
AcDbLine
 10
2458.1079168066
 20
2022.2700248502
 30
0.0
 11
2422.7525777473
 21
2042.6802276458
 31
0.0
  0
SPLINE
  5
155
330
1F
100
AcDbEntity
  8
0
  6
Continuous
 62
     7
370
    15
100
AcDbSpline
210
0.0
220
0.0
230
1.0
 70
     8
 71
     3
 72
    22
 73
    18
 74
     0
 42
0.00000001
 43
0.00000001
 40
0.0
 40
0.0
 40
0.0
 40
0.0
 40
0.0361839331142643
 40
0.0954934153523479
 40
0.1548601103902563
 40
0.2143426561634429
 40
0.3080670820370797
 40
0.4019993190573448
 40
0.4959380395802117
 40
0.5662787254262698
 40
0.6364716430130479
 40
0.7065376780643421
 40
0.7765868424767028
 40
0.8317589466111335
 40
0.8872249723707334
 40
0.9432100473383829
 40
1.0
 40
1.0
 40
1.0
 40
1.0
 10
1983.565924796551
 20
1707.9345509449
 30
0.0
 10
1984.545078780557
 20
1704.401786335378
 30
0.0
 10
1987.129174815486
 20
1695.078428447947
 30
0.0
 10
1992.017022616578
 20
1679.885183350067
 30
0.0
 10
1998.022109407598
 20
1662.406423687323
 30
0.0
 10
2005.677143336857
 20
1641.557746223997
 30
0.0
 10
2015.067872428514
 20
1617.353172505915
 30
0.0
 10
2026.095422843544
 20
1589.811375791914
 30
0.0
 10
2036.176781825362
 20
1564.552448951628
 30
0.0
 10
2045.046609251111
 20
1541.586098682476
 30
0.0
 10
2052.636699173709
 20
1520.93152724113
 30
0.0
 10
2059.675535697169
 20
1500.293649577919
 30
0.0
 10
2065.545798801926
 20
1481.156745716677
 30
0.0
 10
2070.294203257738
 20
1463.53070649662
 30
0.0
 10
2074.011003190953
 20
1447.402275868801
 30
0.0
 10
2077.088384278252
 20
1431.281002674393
 30
0.0
 10
2078.449981620457
 20
1420.720981739204
 30
0.0
 10
2079.135639165691
 20
1415.4032877282
 30
0.0
  0
LWPOLYLINE
  5
156
330
1F
100
AcDbEntity
  8
0
  6
Continuous
 62
     7
370
    15
100
AcDbPolyline
 90
       30
 70
   128
 43
0.0
 10
2079.1356391657
 20
1415.4032877282
 10
2084.8904632358
 20
1423.1144122014
 10
2090.8591180854
 20
1430.5495528891
 10
2097.0385728898
 20
1437.7049342991
 10
2103.4256897819
 20
1444.5769229982
 10
2110.0172254458
 20
1451.1620294576
 10
2116.8098327638
 20
1457.456909824
 10
2123.8000625159
 20
1463.4583676186
 10
2130.9843651316
 20
1469.1633553594
 10
2138.3590924917
 20
1474.5689761091
 10
2145.9204997815
 20
1479.6724849461
 10
2153.6647473918
 20
1484.4712903582
 10
2161.5879028691
 20
1488.9629555587
 10
2169.685942912
 20
1493.1451997237
 10
2177.9547554146
 20
1497.0158991502
 10
2186.3901415542
 20
1500.5730883348
 10
2194.9878179239
 20
1503.8149609714
 10
2203.7434187072
 20
1506.7398708685
 10
2212.6524978951
 20
1509.3463327854
 10
2221.7105315439
 20
1511.6330231861
 10
2230.9129200722
 20
1513.5987809113
 10
2240.2549905966
 20
1515.2426077685
 10
2249.7319993045
 20
1516.5636690384
 10
2259.3391338631
 20
1517.5612938989
 10
2269.0715158628
 20
1518.2349757658
 10
2278.9242032947
 20
1518.5843725499
 10
2288.8921930601
 20
1518.6093068311
 10
2298.9704235105
 20
1518.3097659479
 10
2309.1537770186
 20
1517.6859020042
 10
2313.7955579105
 20
1517.2970415817
  0
SPLINE
  5
157
330
1F
100
AcDbEntity
  8
0
  6
Continuous
 62
     7
370
    15
100
AcDbSpline
210
0.0
220
0.0
230
1.0
 70
     8
 71
     3
 72
    24
 73
    20
 74
     0
 42
0.00000001
 43
0.00000001
 40
0.0
 40
0.0
 40
0.0
 40
0.0
 40
0.0525974263598619
 40
0.1044853951874929
 40
0.1558959968441577
 40
0.2070165538916463
 40
0.2579914069989075
 40
0.3089251586718121
 40
0.3598869465949988
 40
0.4300700693509945
 40
0.5004016469657446
 40
0.5708422523438809
 40
0.6413141163952293
 40
0.7117266344864311
 40
0.7820016856942956
 40
0.8520991869351247
 40
0.9220431501448116
 40
0.9769646916579114
 40
1.0
 40
1.0
 40
1.0
 40
1.0
 10
2932.846448328436
 20
922.5665279239395
 30
0.0
 10
2933.475692501598
 20
926.7627499218859
 30
0.0
 10
2934.725693322027
 20
935.0985934049899
 30
0.0
 10
2937.492211334494
 20
946.8161165598879
 30
0.0
 10
2940.816347142912
 20
957.8974609255627
 30
0.0
 10
2944.701898228635
 20
968.3618954392625
 30
0.0
 10
2949.068238849472
 20
978.2915196997103
 30
0.0
 10
2953.857449856436
 20
987.7518368890021
 30
0.0
 10
2959.650738245889
 20
997.9475267024969
 30
0.0
 10
2966.530239331084
 20
1008.78567274205
 30
0.0
 10
2974.494880827805
 20
1020.254645757078
 30
0.0
 10
2982.698684806117
 20
1031.452619511956
 30
0.0
 10
2990.981488535723
 20
1042.558149519308
 30
0.0
 10
2999.184869575739
 20
1053.748142316055
 30
0.0
 10
3007.144549282102
 20
1065.205553209468
 30
0.0
 10
3014.717165021173
 20
1077.091997211723
 30
0.0
 10
3021.182573750074
 20
1088.755164700719
 30
0.0
 10
3025.747891234835
 20
1097.989406572612
 30
0.0
 10
3027.814947485347
 20
1103.20783693121
 30
0.0
 10
3028.425737661957
 20
1104.749820125699
 30
0.0
  0
LWPOLYLINE
  5
158
330
1F
100
AcDbEntity
  8
0
  6
Continuous
 62
     7
370
    15
100
AcDbPolyline
 90
       30
 70
   128
 43
0.0
 10
2698.1865295836
 20
1295.3928569982
 10
2702.8283104755
 20
1290.4224312786
 10
2713.0116639836
 20
1279.2888455261
 10
2723.0898944341
 20
1267.9523092121
 10
2733.0578841994
 20
1256.4185789195
 10
2742.9105716313
 20
1244.6935113644
 10
2752.6429536311
 20
1232.783060422
 10
2762.2500881896
 20
1220.6932741035
 10
2771.7270968975
 20
1208.4302914848
 10
2781.0691674219
 20
1196.0003395893
 10
2790.2715559502
 20
1183.4097302256
 10
2799.329589599
 20
1170.6648567827
 10
2808.2386687869
 20
1157.7721909834
 10
2816.9942695702
 20
1144.7382795981
 10
2825.5919459399
 20
1131.5697411201
 10
2834.0273320795
 20
1118.2732624053
 10
2842.2961445821
 20
1104.8555952762
 10
2850.394184625
 20
1091.3235530937
 10
2858.3173401023
 20
1077.6840072972
 10
2866.0615877126
 20
1063.9438839156
 10
2873.6229950024
 20
1050.1101600496
 10
2880.9977223625
 20
1036.18986033
 10
2888.1820249782
 20
1022.1900533493
 10
2895.1722547304
 20
1008.1178480736
 10
2901.9648620483
 20
993.9803902317
 10
2908.5563977122
 20
979.7848586873
 10
2914.9435146043
 20
965.5384617933
 10
2921.1229694087
 20
951.2484337314
 10
2927.0916242584
 20
936.9220308389
 10
2932.8464483284
 20
922.5665279239
  0
LINE
  5
159
330
1F
100
AcDbEntity
  8
0
  6
Continuous
 62
     7
370
    15
100
AcDbLine
 10
2956.4352890359
 20
773.154401752
 30
0.0
 11
2945.9488239939
 21
779.2081091639
 31
0.0
  0
LWPOLYLINE
  5
15A
330
1F
100
AcDbEntity
  8
0
  6
Continuous
 62
     7
370
    15
100
AcDbPolyline
 90
       48
 70
   128
 43
0.0
 10
2589.9631676241
 20
1352.9571553408
 10
2600.4531138808
 20
1344.5043366529
 10
2610.8919285108
 20
1335.799876698
 10
2621.2739610603
 20
1326.8484871366
 10
2631.593591811
 20
1317.6550132902
 10
2641.8452348224
 20
1308.2244315188
 10
2652.0233409552
 20
1298.5618465274
 10
2662.1224008752
 20
1288.6724886024
 10
2672.1369480352
 20
1278.5617107807
 10
2682.0615616341
 20
1268.2349859525
 10
2691.8908695512
 20
1257.6979038982
 10
2701.6195512543
 20
1246.9561682631
 10
2711.2423406792
 20
1236.01559347
 10
2720.7540290804
 20
1224.8821015721
 10
2730.1494678506
 20
1213.5617190468
 10
2739.4235713078
 20
1202.0605735343
 10
2748.5713194475
 20
1190.3848905205
 10
2757.5877606608
 20
1178.540989967
 10
2766.468014414
 20
1166.5352828905
 10
2775.2072738909
 20
1154.3742678923
 10
2783.8008085943
 20
1142.0645276407
 10
2792.2439669067
 20
1129.6127253079
 10
2800.5321786086
 20
1117.0256009634
 10
2808.6609573514
 20
1104.3099679253
 10
2816.625903087
 20
1091.4727090727
 10
2824.4227044484
 20
1078.5207731199
 10
2832.0471410842
 20
1065.4611708547
 10
2839.4950859428
 20
1052.3009713444
 10
2846.762507506
 20
1039.0472981085
 10
2853.8454719719
 20
1025.7073252632
 10
2860.7401453836
 20
1012.2882736382
 10
2867.442795705
 20
998.7974068677
 10
2873.9497948405
 20
985.2420274592
 10
2880.2576205992
 20
971.6294728403
 10
2886.3628586011
 20
957.9671113871
 10
2892.2622041256
 20
944.2623384357
 10
2897.9524639003
 20
930.5225722793
 10
2903.4305578291
 20
916.7552501529
 10
2908.6935206601
 20
902.9678242069
 10
2913.7385035898
 20
889.167757474
 10
2918.5627758061
 20
875.3625198294
 10
2923.1637259657
 20
861.559583947
 10
2927.538863608
 20
847.7664212549
 10
2931.685820503
 20
833.990497891
 10
2935.6023519334
 20
820.2392706619
 10
2939.2863379093
 20
806.520183006
 10
2942.7357843161
 20
792.8406609649
 10
2945.9488239939
 20
779.2081091639
  0
LINE
  5
15B
330
1F
100
AcDbEntity
  8
0
  6
Continuous
 62
     7
370
    15
100
AcDbLine
 10
2422.0189198701
 20
1449.9093058846
 30
0.0
 11
2589.9631676241
 21
1352.9571553408
 31
0.0
  0
LWPOLYLINE
  5
15C
330
1F
100
AcDbEntity
  8
0
  6
Continuous
 62
     7
370
    15
100
AcDbPolyline
 90
       48
 70
   128
 43
0.0
 10
2066.0332635003
 20
1287.1725499098
 10
2069.246303178
 20
1297.095405062
 10
2072.6957495848
 20
1306.7922810546
 10
2076.3797355608
 20
1316.2579290398
 10
2080.2962669911
 20
1325.4872253315
 10
2084.4432238861
 20
1334.4751741792
 10
2088.8183615284
 20
1343.2169104721
 10
2093.419311688
 20
1351.7077023724
 10
2098.2435839043
 20
1359.9429538766
 10
2103.2885668341
 20
1367.9182073034
 10
2108.551529665
 20
1375.6291457065
 10
2114.0296235939
 20
1383.0715952114
 10
2119.7198833685
 20
1390.2415272748
 10
2125.6192288931
 20
1397.1350608648
 10
2131.724466895
 20
1403.7484645624
 10
2138.0322926536
 20
1410.0781585804
 10
2144.5392917891
 20
1416.120716702
 10
2151.2419421105
 20
1421.8728681345
 10
2158.1366155222
 20
1427.3314992807
 10
2165.2195799881
 20
1432.4936554234
 10
2172.4870015514
 20
1437.3565423253
 10
2179.9349464099
 20
1441.9175277414
 10
2187.5593830457
 20
1446.1741428436
 10
2195.3561844072
 20
1450.1240835574
 10
2203.3211301427
 20
1453.7652118089
 10
2211.4499088856
 20
1457.0955566819
 10
2219.7381205874
 20
1460.1133154852
 10
2228.1812788999
 20
1462.816854728
 10
2236.7748136032
 20
1465.2047110043
 10
2245.5140730801
 20
1467.2755917851
 10
2254.3943268333
 20
1469.0283761178
 10
2263.4107680466
 20
1470.4621152329
 10
2272.5585161863
 20
1471.5760330581
 10
2281.8326196435
 20
1472.3695266377
 10
2291.2280584137
 20
1472.8421664595
 10
2300.7397468149
 20
1472.9936966871
 10
2310.3625362398
 20
1472.8240352982
 10
2320.0912179429
 20
1472.3332741294
 10
2329.9205258601
 20
1471.5216788259
 10
2339.845139459
 20
1470.3896886985
 10
2349.8596866189
 20
1468.937916485
 10
2359.9587465389
 20
1467.1671480192
 10
2370.1368526717
 20
1465.078341805
 10
2380.3884956831
 20
1462.672628498
 10
2390.7081264339
 20
1459.9513102932
 10
2401.0901589833
 20
1456.9158602201
 10
2411.5289736134
 20
1453.5679213456
 10
2422.0189198701
 20
1449.9093058846
  0
LINE
  5
15D
330
1F
100
AcDbEntity
  8
0
  6
Continuous
 62
     7
370
    15
100
AcDbLine
 10
2066.0332635003
 20
1287.1725499098
 30
0.0
 11
2055.5467984582
 21
1293.2262573217
 31
0.0
  0
LWPOLYLINE
  5
15E
330
1F
100
AcDbEntity
  8
0
  6
Continuous
 62
     7
370
    15
100
AcDbPolyline
 90
       11
 70
   128
 43
0.0
 10
2046.3716359758
 20
1144.9474993654
 10
2046.5145510238
 20
1158.0996410166
 10
2046.9432072911
 20
1171.078597355
 10
2047.6573382032
 20
1183.8762969717
 10
2048.6564996533
 20
1196.4847811779
 10
2049.9400702784
 20
1208.8962089553
 10
2051.5072518463
 20
1221.1028618317
 10
2053.3570697512
 20
1233.0971486813
 10
2055.4883736205
 20
1244.8716104453
 10
2057.8998380297
 20
1256.4189247708
 10
2059.5419648456
 20
1263.4899170773
  0
LINE
  5
15F
330
1F
100
AcDbEntity
  8
0
  6
Continuous
 62
     7
370
    15
100
AcDbLine
 10
2011.0162969165
 20
1165.357702161
 30
0.0
 11
2046.3716359758
 21
1144.9474993654
 31
0.0
  0
LWPOLYLINE
  5
160
330
1F
100
AcDbEntity
  8
0
  6
Continuous
 62
     7
370
    15
100
AcDbPolyline
 90
       18
 70
   128
 43
0.0
 10
2046.3716359758
 20
1357.0910252614
 10
2042.3777388287
 20
1347.472875331
 10
2038.6157846137
 20
1337.6206588671
 10
2035.0876554137
 20
1327.5393048739
 10
2031.7951163305
 20
1317.2338569919
 10
2028.7398146014
 20
1306.7094709744
 10
2025.9232787754
 20
1295.9714121079
 10
2023.3469179484
 20
1285.0250525784
 10
2021.012021058
 20
1273.8758687833
 10
2018.9197562391
 20
1262.5294385919
 10
2017.0711702392
 20
1250.9914385546
 10
2015.4671878945
 20
1239.2676410629
 10
2014.1086116678
 20
1227.3639114618
 10
2012.9961212465
 20
1215.2862051153
 10
2012.1302732029
 20
1203.0405644268
 10
2011.5115007155
 20
1190.6331158163
 10
2011.1401133524
 20
1178.0700666552
 10
2011.0162969165
 20
1165.357702161
  0
SPLINE
  5
161
330
1F
100
AcDbEntity
  8
0
  6
Continuous
 62
     7
370
    15
100
AcDbSpline
210
0.0
220
0.0
230
1.0
 70
     8
 71
     3
 72
    37
 73
    33
 74
     0
 42
0.00000001
 43
0.00000001
 40
0.0
 40
0.0
 40
0.0
 40
0.0
 40
0.0056254107634878
 40
0.0398998154558723
 40
0.0728992418421008
 40
0.1047620109913339
 40
0.1410337444296348
 40
0.1761131172884537
 40
0.2101883651608238
 40
0.2434318308101817
 40
0.2897850229769196
 40
0.3351617570259104
 40
0.3799135692550987
 40
0.424355869334385
 40
0.4687878305296436
 40
0.5000466035756009
 40
0.5315699324197104
 40
0.5636006248246336
 40
0.5964898666200046
 40
0.6231992331062989
 40
0.6509159194524693
 40
0.6798899990866153
 40
0.710393772141957
 40
0.7360943802931292
 40
0.7631160019951868
 40
0.7916191329534997
 40
0.8217674614129821
 40
0.8537266637077625
 40
0.8870391353173664
 40
0.9224171963372146
 40
0.9600185200779482
 40
1.0
 40
1.0
 40
1.0
 40
1.0
 10
1936.580817995467
 20
1735.058475752192
 30
0.0
 10
1936.725555047801
 20
1734.34682117057
 30
0.0
 10
1937.752143490944
 20
1729.299209952677
 30
0.0
 10
1939.970902727072
 20
1719.989698325329
 30
0.0
 10
1943.213019530696
 20
1707.292741679953
 30
0.0
 10
1946.900741385427
 20
1694.279260214416
 30
0.0
 10
1951.028111334932
 20
1680.962019418615
 30
0.0
 10
1955.635333945075
 20
1667.341468111439
 30
0.0
 10
1960.456597757479
 20
1654.1164174522
 30
0.0
 10
1966.152902308945
 20
1639.458189587001
 30
0.0
 10
1972.81210894243
 20
1623.388350101319
 30
0.0
 10
1980.469376613695
 20
1605.909449196195
 30
0.0
 10
1988.264581521033
 20
1588.731610945942
 30
0.0
 10
1996.110160410396
 20
1571.701641208324
 30
0.0
 10
2003.132826866357
 20
1556.382978093054
 30
0.0
 10
2009.278891173529
 20
1542.682151957618
 30
0.0
 10
2014.584940423208
 20
1530.537594310375
 30
0.0
 10
2019.748780829333
 20
1518.140909704532
 30
0.0
 10
2024.313707049882
 20
1506.319603043388
 30
0.0
 10
2028.289789300291
 20
1495.037748471264
 30
0.0
 10
2031.725128790923
 20
1484.268814718436
 30
0.0
 10
2034.899458410607
 20
1473.047692152762
 30
0.0
 10
2037.568343698785
 20
1462.155545963203
 30
0.0
 10
2039.78862315357
 20
1451.603349130887
 30
0.0
 10
2041.618040137279
 20
1441.40070987308
 30
0.0
 10
2043.197154845438
 20
1430.757353113807
 30
0.0
 10
2044.507649187202
 20
1419.639208302047
 30
0.0
 10
2045.524079609734
 20
1408.088075512472
 30
0.0
 10
2046.237001578588
 20
1396.074551740037
 30
0.0
 10
2046.628962237237
 20
1383.574235352906
 30
0.0
 10
2046.711881656685
 20
1370.472798901639
 30
0.0
 10
2046.487347358923
 20
1361.641923695889
 30
0.0
 10
2046.371635975808
 20
1357.091025261393
 30
0.0
  0
LINE
  5
162
330
1F
100
AcDbEntity
  8
0
  6
Continuous
 62
     7
370
    15
100
AcDbLine
 10
3142.387146815
 20
1083.0420290056
 30
0.0
 11
3142.387146815
 21
1115.7036614811
 31
0.0
  0
LWPOLYLINE
  5
163
330
1F
100
AcDbEntity
  8
0
  6
Continuous
 62
     7
370
    15
100
AcDbPolyline
 90
        9
 70
   128
 43
0.0
 10
3135.3160790031
 20
1078.9586614459
 10
3136.6955758995
 20
1078.3191908661
 10
3138.0220595038
 20
1078.0180868369
 10
3139.244553795
 20
1078.0669206172
 10
3140.3160790031
 20
1078.4638155523
 10
3141.1954570152
 20
1079.1935191924
 10
3141.8488938275
 20
1080.2279894357
 10
3142.2512782297
 20
1081.5274721711
 10
3142.387146815
 20
1083.0420290056
  0
LINE
  5
164
330
1F
100
AcDbEntity
  8
0
  6
Continuous
 62
     7
370
    15
100
AcDbLine
 10
3107.0260610517
 20
1095.2901411839
 30
0.0
 11
3135.3160790031
 21
1078.9586614459
 31
0.0
  0
SPLINE
  5
165
330
1F
100
AcDbEntity
  8
0
  6
Continuous
 62
     7
370
    15
100
AcDbSpline
210
0.0
220
0.0
230
1.0
 70
     8
 71
     3
 72
    36
 73
    32
 74
     0
 42
0.00000001
 43
0.00000001
 40
0.0
 40
0.0
 40
0.0
 40
0.0
 40
0.0370144071025419
 40
0.0719881888479495
 40
0.1050448789384063
 40
0.1363086152482999
 40
0.1659038938196098
 40
0.2023429232711863
 40
0.2364124958276727
 40
0.268387377228929
 40
0.300625984886383
 40
0.3310858775383236
 40
0.360067586271915
 40
0.387849936338432
 40
0.4146868058601443
 40
0.4533527138258072
 40
0.4910717996162577
 40
0.5283349063741316
 40
0.5653797166575852
 40
0.6023837266690506
 40
0.6395193240311228
 40
0.6769626203672342
 40
0.7149019553382086
 40
0.7535454720484349
 40
0.7931272070173235
 40
0.8339112314345847
 40
0.8761935491869975
 40
0.9106801751364829
 40
0.9464651641687954
 40
0.9837300735448814
 40
1.0
 40
1.0
 40
1.0
 40
1.0
 10
2965.610451518319
 20
826.425752576631
 30
0.0
 10
2965.501271801735
 20
830.7635210148161
 30
0.0
 10
2965.288931508563
 20
839.1999142452049
 30
0.0
 10
2965.329733550785
 20
851.3145499629376
 30
0.0
 10
2965.636114314883
 20
862.6052777965958
 30
0.0
 10
2966.216315498541
 20
873.1018370806818
 30
0.0
 10
2967.129949366838
 20
883.7677157776352
 30
0.0
 10
2968.458715197708
 20
894.4678651132116
 30
0.0
 10
2970.29871341409
 20
905.0582907516164
 30
0.0
 10
2972.540935892961
 20
914.8244646346211
 30
0.0
 10
2975.185098272717
 20
923.8068465448632
 30
0.0
 10
2978.228748534011
 20
932.0473129944822
 30
0.0
 10
2981.567111526786
 20
939.4359042423878
 30
0.0
 10
2985.161196841512
 20
946.0869124827409
 30
0.0
 10
2989.563415975587
 20
953.0526177609781
 30
0.0
 10
2994.891681708156
 20
960.199319512798
 30
0.0
 10
3001.173613995105
 20
967.5193709266717
 30
0.0
 10
3007.573585954383
 20
974.4506654777581
 30
0.0
 10
3014.061251326343
 20
981.1582534443351
 30
0.0
 10
3020.588090296894
 20
987.7921664762565
 30
0.0
 10
3027.103899406563
 20
994.498610271603
 30
0.0
 10
3033.558178906412
 20
1001.424025892429
 30
0.0
 10
3039.900287369737
 20
1008.714805397856
 30
0.0
 10
3046.079343647479
 20
1016.517256637808
 30
0.0
 10
3052.043929176855
 20
1024.977779466657
 30
0.0
 10
3057.743244225793
 20
1034.241556163613
 30
0.0
 10
3062.715850888904
 20
1043.684096103272
 30
0.0
 10
3067.02978266848
 20
1053.20957217605
 30
0.0
 10
3070.725979957929
 20
1062.745250349115
 30
0.0
 10
3073.530325892116
 20
1070.930605217716
 30
0.0
 10
3074.940249458646
 20
1076.084012780698
 30
0.0
 10
3075.368743398686
 20
1077.650199745525
 30
0.0
  0
LWPOLYLINE
  5
166
330
1F
100
AcDbEntity
  8
0
  6
Continuous
 62
     7
370
    15
100
AcDbPolyline
 90
       18
 70
   128
 43
0.0
 10
3000.9657905776
 20
593.8720238851
 10
3000.8419741417
 20
606.7273437933
 10
3000.4705867787
 20
619.7191876767
 10
2999.8518142912
 20
632.8410557943
 10
2998.9859662476
 20
646.0863833551
 10
2997.8734758264
 20
659.4485438016
 10
2996.5148995996
 20
672.9208521258
 10
2994.910917255
 20
686.4965682135
 10
2993.062331255
 20
700.1689002159
 10
2990.9700664361
 20
713.931007948
 10
2988.6351695458
 20
727.7760063107
 10
2986.0588087187
 20
741.6969687348
 10
2983.2422728927
 20
755.6869306473
 10
2980.1869711637
 20
769.7388929547
 10
2976.8944320804
 20
783.8458255453
 10
2973.3663028805
 20
798.0006708061
 10
2969.6043486654
 20
812.1963471535
 10
2965.6104515183
 20
826.4257525766
  0
LINE
  5
167
330
1F
100
AcDbEntity
  8
0
  6
Continuous
 62
     7
370
    15
100
AcDbLine
 10
2965.6104515183
 20
614.2822266807
 30
0.0
 11
3000.9657905776
 21
593.8720238851
 31
0.0
  0
LWPOLYLINE
  5
168
330
1F
100
AcDbEntity
  8
0
  6
Continuous
 62
     7
370
    15
100
AcDbPolyline
 90
       12
 70
   128
 43
0.0
 10
2951.2122501811
 20
754.3994872953
 10
2951.3921241671
 20
753.482769212
 10
2954.0822494644
 20
739.0638308624
 10
2956.4937138736
 20
724.7322989938
 10
2958.6250177429
 20
710.4970861608
 10
2960.4748356478
 20
696.367045019
 10
2962.0420172157
 20
682.3509628191
 10
2963.3255878408
 20
668.4575559427
 10
2964.3247492909
 20
654.6954644815
 10
2965.038880203
 20
641.0732468641
 10
2965.4675364703
 20
627.599374534
 10
2965.6104515183
 20
614.2822266807
  0
LINE
  5
169
330
1F
100
AcDbEntity
  8
0
  6
Continuous
 62
     7
370
    15
100
AcDbLine
 10
3142.387146815
 20
1115.7036614811
 30
0.0
 11
3150.8724281892
 21
1120.602110152
 31
0.0
  0
LINE
  5
16A
330
1F
100
AcDbEntity
  8
0
  6
Continuous
 62
     7
370
    15
100
AcDbLine
 10
3150.8724281892
 20
1087.9404776766
 30
0.0
 11
3150.8724281892
 21
1120.602110152
 31
0.0
  0
LINE
  5
16B
330
1F
100
AcDbEntity
  8
0
  6
Continuous
 62
     7
370
    15
100
AcDbLine
 10
3142.387146815
 20
1083.0420290056
 30
0.0
 11
3150.8724281892
 21
1087.9404776766
 31
0.0
  0
ARC
  5
16C
330
1F
100
AcDbEntity
  8
0
  6
Continuous
 62
     7
370
    15
100
AcDbCircle
 10
3146.1155726309
 20
1087.3348373902
 30
0.0
 40
4.795255463394184
100
AcDbArc
 50
304.056350826
 51
7.2558295674
  0
LINE
  5
16D
330
1F
100
AcDbEntity
  8
0
  6
Continuous
 62
     7
370
    15
100
AcDbLine
 10
2965.6104515183
 20
826.4257525766
 30
0.0
 11
2974.0957328926
 21
831.3242012476
 31
0.0
  0
SPLINE
  5
16E
330
1F
100
AcDbEntity
  8
0
  6
Continuous
 62
     7
370
    15
100
AcDbSpline
210
0.0
220
0.0
230
1.0
 70
     8
 71
     3
 72
    36
 73
    32
 74
     0
 42
0.00000001
 43
0.00000001
 40
0.0
 40
0.0
 40
0.0
 40
0.0
 40
0.0371123072168509
 40
0.0721785917874748
 40
0.1053227141507105
 40
0.1366691405155869
 40
0.1663426962060497
 40
0.2028781039445655
 40
0.2370377877660655
 40
0.2690972401435779
 40
0.3014211163119143
 40
0.3319615729173502
 40
0.3610199359274784
 40
0.3888757680638217
 40
0.4157836189357578
 40
0.4545517951019949
 40
0.4923706448249133
 40
0.5297323094875782
 40
0.5668751002992963
 40
0.6039769829256054
 40
0.6412108009404253
 40
0.6787531317681944
 40
0.7167928132129128
 40
0.755538538900653
 40
0.7952249643584982
 40
0.8361168592231062
 40
0.878511010287606
 40
0.9130888505746123
 40
0.948968488009832
 40
0.9863319600584882
 40
0.9999999999999999
 40
0.9999999999999999
 40
0.9999999999999999
 40
0.9999999999999999
 10
2974.095732892557
 20
831.3242012475672
 30
0.0
 10
2973.986553175973
 20
835.6619696857522
 30
0.0
 10
2973.774212882801
 20
844.098362916141
 30
0.0
 10
2973.815014925025
 20
856.2129986338738
 30
0.0
 10
2974.121395689121
 20
867.5037264675323
 30
0.0
 10
2974.701596872779
 20
878.0002857516181
 30
0.0
 10
2975.615230741076
 20
888.6661644485716
 30
0.0
 10
2976.943996571946
 20
899.3663137841479
 30
0.0
 10
2978.783994788329
 20
909.9567394225527
 30
0.0
 10
2981.0262172672
 20
919.7229133055573
 30
0.0
 10
2983.670379646955
 20
928.7052952157994
 30
0.0
 10
2986.71402990825
 20
936.9457616654183
 30
0.0
 10
2990.052392901024
 20
944.3343529133248
 30
0.0
 10
2993.646478215753
 20
950.9853611536743
 30
0.0
 10
2998.048697349811
 20
957.9510664319272
 30
0.0
 10
3003.376963082472
 20
965.097768183663
 30
0.0
 10
3009.658895369065
 20
972.4178195978628
 30
0.0
 10
3016.058867329647
 20
979.3491141477584
 30
0.0
 10
3022.546532696783
 20
986.0567021187416
 30
0.0
 10
3029.073371685319
 20
992.6906151342356
 30
0.0
 10
3035.589180727459
 20
999.3970589912605
 30
0.0
 10
3042.043460482669
 20
1006.322474378849
 30
0.0
 10
3048.385567973117
 20
1013.613254772867
 30
0.0
 10
3054.564627986921
 20
1021.415702600433
 30
0.0
 10
3060.529199046556
 20
1029.876238645428
 30
0.0
 10
3066.22857064245
 20
1039.139963694408
 30
0.0
 10
3071.200971135114
 20
1048.582691942813
 30
0.0
 10
3075.515550345788
 20
1058.107576675075
 30
0.0
 10
3079.209323778866
 20
1067.645468712261
 30
0.0
 10
3081.938309110224
 20
1075.582264490416
 30
0.0
 10
3083.281729645642
 20
1080.47902277227
 30
0.0
 10
3083.64154507772
 20
1081.790547459079
 30
0.0
  0
LWPOLYLINE
  5
16F
330
1F
100
AcDbEntity
  8
0
  6
Continuous
 62
     7
370
    15
100
AcDbPolyline
 90
       28
 70
   128
 43
0.0
 10
2725.6794749281
 20
1279.5215174818
 10
2731.5751758083
 20
1272.850757883
 10
2741.5431655736
 20
1261.3170275904
 10
2751.3958530056
 20
1249.5919600353
 10
2761.1282350053
 20
1237.6815090929
 10
2770.7353695639
 20
1225.5917227744
 10
2780.2123782718
 20
1213.3287401557
 10
2789.5544487961
 20
1200.8987882602
 10
2798.7568373244
 20
1188.3081788965
 10
2807.8148709732
 20
1175.5633054536
 10
2816.7239501612
 20
1162.6706396543
 10
2825.4795509444
 20
1149.636728269
 10
2834.0772273141
 20
1136.468189791
 10
2842.5126134538
 20
1123.1717110762
 10
2850.7814259563
 20
1109.7540439471
 10
2858.8794659993
 20
1096.2220017646
 10
2866.8026214765
 20
1082.5824559682
 10
2874.5468690869
 20
1068.8423325865
 10
2882.1082763766
 20
1055.0086087206
 10
2889.4830037368
 20
1041.0883090009
 10
2896.6673063524
 20
1027.0885020203
 10
2903.6575361046
 20
1013.0162967445
 10
2910.4501434226
 20
998.8788389026
 10
2917.0416790865
 20
984.6833073583
 10
2923.4287959785
 20
970.4369104642
 10
2929.6082507829
 20
956.1468824023
 10
2935.5769056326
 20
941.8204795099
 10
2936.1590514158
 20
940.3935062924
  0
LINE
  5
170
330
1F
100
AcDbEntity
  8
0
  6
Continuous
 62
     7
370
    15
100
AcDbLine
 10
3000.9657905776
 20
593.8720238851
 30
0.0
 11
3009.4510719519
 21
598.7704725561
 31
0.0
  0
LWPOLYLINE
  5
171
330
1F
100
AcDbEntity
  8
0
  6
Continuous
 62
     7
370
    15
100
AcDbPolyline
 90
       18
 70
   128
 43
0.0
 10
3009.4510719519
 20
598.7704725561
 10
3009.327255516
 20
611.6257924642
 10
3008.9558681529
 20
624.6176363476
 10
3008.3370956655
 20
637.7395044653
 10
3007.4712476219
 20
650.984832026
 10
3006.3587572006
 20
664.3469924725
 10
3005.0001809739
 20
677.8193007968
 10
3003.3961986292
 20
691.3950168844
 10
3001.5476126292
 20
705.0673488868
 10
2999.4553478104
 20
718.829456619
 10
2997.12045092
 20
732.6744549816
 10
2994.544090093
 20
746.5954174058
 10
2991.727554267
 20
760.5853793182
 10
2988.6722525379
 20
774.6373416256
 10
2985.3797134547
 20
788.7442742162
 10
2981.8515842547
 20
802.899119477
 10
2978.0896300397
 20
817.0947958244
 10
2974.0957328926
 20
831.3242012476
  0
LINE
  5
172
330
1F
100
AcDbEntity
  8
0
  6
Continuous
 62
     7
370
    15
100
AcDbLine
 10
2066.0332635003
 20
1287.1725499098
 30
0.0
 11
2074.5185448745
 21
1292.0709985807
 31
0.0
  0
LWPOLYLINE
  5
173
330
1F
100
AcDbEntity
  8
0
  6
Continuous
 62
     7
370
    15
100
AcDbPolyline
 90
       22
 70
   128
 43
0.0
 10
2074.5185448745
 20
1292.0709985807
 10
2077.7315845522
 20
1301.9938537329
 10
2081.1810309591
 20
1311.6907297256
 10
2084.865016935
 20
1321.1563777107
 10
2088.7815483653
 20
1330.3856740024
 10
2092.9285052604
 20
1339.3736228501
 10
2097.3036429027
 20
1348.1153591431
 10
2101.9045930623
 20
1356.6061510434
 10
2106.7288652785
 20
1364.8414025476
 10
2111.7738482083
 20
1372.8166559744
 10
2117.0368110392
 20
1380.5275943774
 10
2122.5149049681
 20
1387.9700438824
 10
2128.2051647428
 20
1395.1399759457
 10
2134.1045102673
 20
1402.0335095358
 10
2140.2097482692
 20
1408.6469132333
 10
2146.5175740278
 20
1414.9766072514
 10
2153.0245731633
 20
1421.0191653729
 10
2159.7272234847
 20
1426.7713168055
 10
2166.6218968965
 20
1432.2299479516
 10
2173.7048613624
 20
1437.3921040943
 10
2180.9722829256
 20
1442.2549909962
 10
2185.2877830622
 20
1444.947887873
  0
LWPOLYLINE
  5
174
330
1F
100
AcDbEntity
  8
0
  6
Continuous
 62
     7
370
    15
100
AcDbPolyline
 90
       17
 70
   128
 43
0.0
 10
2164.5047686987
 20
1490.7475153605
 10
2170.0731842434
 20
1493.8614042296
 10
2178.1712242863
 20
1498.0436483946
 10
2186.4400367888
 20
1501.9143478212
 10
2194.8754229285
 20
1505.4715370058
 10
2203.4730992982
 20
1508.7134096423
 10
2212.2287000814
 20
1511.6383195394
 10
2221.1377792694
 20
1514.2447814563
 10
2230.1958129182
 20
1516.531471857
 10
2239.3982014465
 20
1518.4972295823
 10
2248.7402719708
 20
1520.1410564395
 10
2258.2172806787
 20
1521.4621177094
 10
2267.8244152373
 20
1522.4597425698
 10
2277.556797237
 20
1523.1334244367
 10
2287.409484669
 20
1523.4828212209
 10
2297.3774744343
 20
1523.507755502
 10
2303.2731753145
 20
1523.3714837562
  0
SPLINE
  5
175
330
1F
100
AcDbEntity
  8
0
  6
Continuous
 62
     7
370
    15
100
AcDbSpline
210
0.0
220
0.0
230
1.0
 70
     8
 71
     3
 72
    21
 73
    17
 74
     0
 42
0.00000001
 43
0.00000001
 40
0.0
 40
0.0
 40
0.0
 40
0.0
 40
0.0588990642159185
 40
0.1219385380779246
 40
0.1851010298945903
 40
0.2846238093135879
 40
0.3843672563196517
 40
0.4841175879365657
 40
0.5588099693129703
 40
0.6333454406017819
 40
0.7077461796425867
 40
0.7821290043258312
 40
0.8407143848034448
 40
0.8996118706558904
 40
0.9590605172048012
 40
0.9999999999999999
 40
0.9999999999999999
 40
0.9999999999999999
 40
0.9999999999999999
 10
1995.40756442245
 20
1701.098517897923
 30
0.0
 10
1997.0937981865
 20
1695.663511793071
 30
0.0
 10
2000.584802377878
 20
1684.411436608298
 30
0.0
 10
2006.520177693694
 20
1667.303585033898
 30
0.0
 10
2014.156744073882
 20
1646.456766773554
 30
0.0
 10
2023.554959006754
 20
1622.251439576844
 30
0.0
 10
2034.580217295983
 20
1594.709872968328
 30
0.0
 10
2044.66215130517
 20
1569.450890470669
 30
0.0
 10
2053.531886920157
 20
1546.484543082069
 30
0.0
 10
2061.121916889116
 20
1525.82999976703
 30
0.0
 10
2068.161074875511
 20
1505.192007273106
 30
0.0
 10
2074.030199414995
 20
1486.055503906248
 30
0.0
 10
2078.78201160558
 20
1468.428267350893
 30
0.0
 10
2082.486683705496
 20
1452.30409759643
 30
0.0
 10
2085.27155665845
 20
1437.915789312123
 30
0.0
 10
2086.430629246446
 20
1429.057119609336
 30
0.0
 10
2086.903312945053
 20
1425.444447889531
 30
0.0
  0
LINE
  5
176
330
1F
100
AcDbEntity
  8
0
  6
Continuous
 62
     7
370
    15
100
AcDbLine
 10
2046.3716359758
 20
1144.9474993654
 30
0.0
 11
2054.85691735
 21
1149.8459480364
 31
0.0
  0
LWPOLYLINE
  5
177
330
1F
100
AcDbEntity
  8
0
  6
Continuous
 62
     7
370
    15
100
AcDbPolyline
 90
       11
 70
   128
 43
0.0
 10
2054.85691735
 20
1149.8459480364
 10
2054.999832398
 20
1162.9980896875
 10
2055.4284886654
 20
1175.977046026
 10
2056.1426195775
 20
1188.7747456426
 10
2057.1417810275
 20
1201.3832298488
 10
2058.4253516527
 20
1213.7946576262
 10
2059.9925332205
 20
1226.0013105026
 10
2061.8423511255
 20
1237.9955973522
 10
2063.9736549948
 20
1249.7700591163
 10
2066.385119404
 20
1261.3173734418
 10
2066.6463135731
 20
1262.4801005576
  0
LINE
  5
178
330
1F
100
AcDbEntity
  8
0
  6
Continuous
 62
     7
370
    15
100
AcDbLine
 10
3566.6512155269
 20
1360.6260950279
 30
0.0
 11
3575.1364969011
 21
1365.5245436988
 31
0.0
  0
SPLINE
  5
179
330
1F
100
AcDbEntity
  8
0
  6
Continuous
 62
     7
370
    15
100
AcDbSpline
210
0.0
220
0.0
230
1.0
 70
     8
 71
     3
 72
    16
 73
    12
 74
     0
 42
0.00000001
 43
0.00000001
 40
0.0
 40
0.0
 40
0.0
 40
0.0
 40
0.1081872767313999
 40
0.2149152752493847
 40
0.3206613805873789
 40
0.4258108952066048
 40
0.5306607124148893
 40
0.6354259883716232
 40
0.7402489318945805
 40
0.8846081039865253
 40
1.0
 40
1.0
 40
1.0
 40
1.0
 10
3357.110517040365
 20
1167.488961470752
 30
0.0
 10
3357.73976159028
 20
1171.685183000344
 30
0.0
 10
3358.989763159133
 20
1180.021025553058
 30
0.0
 10
3361.756275633413
 20
1191.738555592665
 30
0.0
 10
3365.080432202086
 20
1202.819874150552
 30
0.0
 10
3368.965906346573
 20
1213.284404312549
 30
0.0
 10
3373.332532960491
 20
1223.21367304516
 30
0.0
 10
3378.120677832801
 20
1232.675315583119
 30
0.0
 10
3383.918447185616
 20
1242.865434956897
 30
0.0
 10
3390.265286787921
 20
1252.924568450296
 30
0.0
 10
3395.057362640502
 20
1259.759617324301
 30
0.0
 10
3397.186195921161
 20
1262.796021581149
 30
0.0
  0
LWPOLYLINE
  5
17A
330
1F
100
AcDbEntity
  8
0
  6
Continuous
 62
     7
370
    15
100
AcDbPolyline
 90
        6
 70
   128
 43
0.0
 10
3332.4839022273
 20
1225.4441824879
 10
3332.8204664241
 20
1224.7072922341
 10
3339.2075833162
 20
1210.4608953401
 10
3345.3870381206
 20
1196.1708672782
 10
3351.3556929703
 20
1181.8444643857
 10
3357.1105170404
 20
1167.4889614708
  0
LINE
  5
17B
330
1F
100
AcDbEntity
  8
0
  6
Continuous
 62
     7
370
    15
100
AcDbLine
 10
3380.6993577478
 20
1018.0768352988
 30
0.0
 11
3370.2128927058
 21
1024.1305427108
 31
0.0
  0
LWPOLYLINE
  5
17C
330
1F
100
AcDbEntity
  8
0
  6
Continuous
 62
     7
370
    15
100
AcDbPolyline
 90
       15
 70
   128
 43
0.0
 10
3307.1188674638
 20
1210.8012596023
 10
3310.626927313
 20
1202.8895449339
 10
3316.5262728375
 20
1189.1847719825
 10
3322.2165326122
 20
1175.4450058261
 10
3327.6946265411
 20
1161.6776836997
 10
3332.957589372
 20
1147.8902577537
 10
3338.0025723017
 20
1134.0901910208
 10
3342.826844518
 20
1120.2849533762
 10
3347.4277946776
 20
1106.4820174938
 10
3351.8029323199
 20
1092.6888548017
 10
3355.9498892149
 20
1078.9129314379
 10
3359.8664206453
 20
1065.1617042087
 10
3363.5504066212
 20
1051.4426165528
 10
3366.9998530281
 20
1037.7630945118
 10
3370.2128927058
 20
1024.1305427108
  0
LWPOLYLINE
  5
17D
330
1F
100
AcDbEntity
  8
0
  6
Continuous
 62
     7
370
    15
100
AcDbPolyline
 90
        4
 70
   128
 43
0.0
 10
2470.6357046877
 20
1389.8699329123
 10
2470.7786197357
 20
1403.0220745634
 10
2471.2072760031
 20
1416.0010309019
 10
2471.4704630725
 20
1421.3615376502
  0
LINE
  5
17E
330
1F
100
AcDbEntity
  8
0
  6
Continuous
 62
     7
370
    15
100
AcDbLine
 10
2435.2803656284
 20
1410.2801357078
 30
0.0
 11
2470.6357046877
 21
1389.8699329123
 31
0.0
  0
LWPOLYLINE
  5
17F
330
1F
100
AcDbEntity
  8
0
  6
Continuous
 62
     7
370
    15
100
AcDbPolyline
 90
        4
 70
   128
 43
0.0
 10
2436.0554012969
 20
1441.806217636
 10
2435.7755694274
 20
1435.5555493631
 10
2435.4041820643
 20
1422.992500202
 10
2435.2803656284
 20
1410.2801357078
  0
LINE
  5
180
330
1F
100
AcDbEntity
  8
0
  6
Continuous
 62
     7
370
    15
100
AcDbLine
 10
3566.6512155269
 20
1327.9644625524
 30
0.0
 11
3566.6512155269
 21
1360.6260950279
 31
0.0
  0
LWPOLYLINE
  5
181
330
1F
100
AcDbEntity
  8
0
  6
Continuous
 62
     7
370
    15
100
AcDbPolyline
 90
        9
 70
   128
 43
0.0
 10
3559.580147715
 20
1323.8810949927
 10
3560.9596446114
 20
1323.2416244129
 10
3562.2861282158
 20
1322.9405203837
 10
3563.508622507
 20
1322.9893541641
 10
3564.580147715
 20
1323.3862490991
 10
3565.4595257271
 20
1324.1159527392
 10
3566.1129625394
 20
1325.1504229825
 10
3566.5153469416
 20
1326.4499057179
 10
3566.6512155269
 20
1327.9644625524
  0
LINE
  5
182
330
1F
100
AcDbEntity
  8
0
  6
Continuous
 62
     7
370
    15
100
AcDbLine
 10
3531.2901297636
 20
1340.2125747307
 30
0.0
 11
3559.580147715
 21
1323.8810949927
 31
0.0
  0
SPLINE
  5
183
330
1F
100
AcDbEntity
  8
0
  6
Continuous
 62
     7
370
    15
100
AcDbSpline
210
0.0
220
0.0
230
1.0
 70
     8
 71
     3
 72
    36
 73
    32
 74
     0
 42
0.00000001
 43
0.00000001
 40
0.0
 40
0.0
 40
0.0
 40
0.0
 40
0.0371123072168508
 40
0.0721785917874748
 40
0.1053227141507104
 40
0.1366691405155867
 40
0.1663426962060495
 40
0.2028781039445652
 40
0.2370377877660652
 40
0.2690972401435776
 40
0.3014211163119139
 40
0.3319615729173498
 40
0.3610199359274781
 40
0.3888757680638212
 40
0.4157836189357574
 40
0.4545517951019944
 40
0.4923706448249128
 40
0.5297323094875775
 40
0.5668751002992957
 40
0.6039769829256048
 40
0.6412108009404245
 40
0.6787531317681936
 40
0.716792813212912
 40
0.7555385389006521
 40
0.7952249643584973
 40
0.8361168592231053
 40
0.878511010287605
 40
0.9130888505746113
 40
0.948968488009831
 40
0.9863319600584871
 40
1.0
 40
1.0
 40
1.0
 40
1.0
 10
3389.874520230248
 20
1071.348186123443
 30
0.0
 10
3389.765340513664
 20
1075.685954561628
 30
0.0
 10
3389.553000220491
 20
1084.122347792017
 30
0.0
 10
3389.593802262716
 20
1096.23698350975
 30
0.0
 10
3389.900183026812
 20
1107.527711343408
 30
0.0
 10
3390.48038421047
 20
1118.024270627494
 30
0.0
 10
3391.394018078766
 20
1128.690149324447
 30
0.0
 10
3392.722783909637
 20
1139.390298660024
 30
0.0
 10
3394.562782126019
 20
1149.980724298429
 30
0.0
 10
3396.805004604891
 20
1159.746898181433
 30
0.0
 10
3399.449166984646
 20
1168.729280091675
 30
0.0
 10
3402.492817245941
 20
1176.969746541294
 30
0.0
 10
3405.831180238715
 20
1184.358337789201
 30
0.0
 10
3409.425265553444
 20
1191.00934602955
 30
0.0
 10
3413.827484687502
 20
1197.975051307803
 30
0.0
 10
3419.155750420163
 20
1205.121753059539
 30
0.0
 10
3425.437682706756
 20
1212.441804473739
 30
0.0
 10
3431.837654667337
 20
1219.373099023634
 30
0.0
 10
3438.325320034473
 20
1226.080686994618
 30
0.0
 10
3444.852159023009
 20
1232.714600010112
 30
0.0
 10
3451.36796806515
 20
1239.421043867137
 30
0.0
 10
3457.822247820359
 20
1246.346459254725
 30
0.0
 10
3464.164355310807
 20
1253.637239648743
 30
0.0
 10
3470.343415324612
 20
1261.439687476309
 30
0.0
 10
3476.307986384247
 20
1269.900223521304
 30
0.0
 10
3482.00735798014
 20
1279.163948570284
 30
0.0
 10
3486.979758472805
 20
1288.606676818689
 30
0.0
 10
3491.294337683478
 20
1298.131561550951
 30
0.0
 10
3494.988111116557
 20
1307.669453588137
 30
0.0
 10
3497.717096447915
 20
1315.606249366292
 30
0.0
 10
3499.060516983333
 20
1320.503007648146
 30
0.0
 10
3499.420332415411
 20
1321.814532334955
 30
0.0
  0
LWPOLYLINE
  5
184
330
1F
100
AcDbEntity
  8
0
  6
Continuous
 62
     7
370
    15
100
AcDbPolyline
 90
       18
 70
   128
 43
0.0
 10
3425.2298592896
 20
838.7944574319
 10
3425.1060428537
 20
851.6497773401
 10
3424.7346554906
 20
864.6416212235
 10
3424.1158830032
 20
877.7634893411
 10
3423.2500349596
 20
891.0088169019
 10
3422.1375445383
 20
904.3709773484
 10
3420.7789683116
 20
917.8432856726
 10
3419.1749859669
 20
931.4190017603
 10
3417.3263999669
 20
945.0913337627
 10
3415.234135148
 20
958.8534414948
 10
3412.8992382577
 20
972.6984398575
 10
3410.3228774307
 20
986.6194022817
 10
3407.5063416047
 20
1000.6093641941
 10
3404.4510398756
 20
1014.6613265015
 10
3401.1585007924
 20
1028.7682590921
 10
3397.6303715924
 20
1042.9231043529
 10
3393.8684173774
 20
1057.1187807003
 10
3389.8745202302
 20
1071.3481861234
  0
LINE
  5
185
330
1F
100
AcDbEntity
  8
0
  6
Continuous
 62
     7
370
    15
100
AcDbLine
 10
3389.8745202302
 20
859.2046602275
 30
0.0
 11
3425.2298592896
 21
838.7944574319
 31
0.0
  0
LWPOLYLINE
  5
186
330
1F
100
AcDbEntity
  8
0
  6
Continuous
 62
     7
370
    15
100
AcDbPolyline
 90
       12
 70
   128
 43
0.0
 10
3375.543303338
 20
998.9811637532
 10
3375.6561928791
 20
998.4052027588
 10
3378.3463181763
 20
983.9862644092
 10
3380.7577825855
 20
969.6547325406
 10
3382.8890864548
 20
955.4195197076
 10
3384.7389043598
 20
941.2894785658
 10
3386.3060859276
 20
927.2733963659
 10
3387.5896565528
 20
913.3799894895
 10
3388.5888180028
 20
899.6178980283
 10
3389.3029489149
 20
885.9956804109
 10
3389.7316051823
 20
872.5218080808
 10
3389.8745202302
 20
859.2046602275
  0
LINE
  5
187
330
1F
100
AcDbEntity
  8
0
  6
Continuous
 62
     7
370
    15
100
AcDbLine
 10
3575.1364969011
 20
1332.8629112234
 30
0.0
 11
3575.1364969011
 21
1365.5245436988
 31
0.0
  0
LINE
  5
188
330
1F
100
AcDbEntity
  8
0
  6
Continuous
 62
     7
370
    15
100
AcDbLine
 10
3566.6512155269
 20
1327.9644625524
 30
0.0
 11
3575.1364969011
 21
1332.8629112234
 31
0.0
  0
ARC
  5
189
330
1F
100
AcDbEntity
  8
0
  6
Continuous
 62
     7
370
    15
100
AcDbCircle
 10
3570.3796413425
 20
1332.2572709372
 30
0.0
 40
4.795255463668331
100
AcDbArc
 50
304.056350828
 51
7.2558295654
  0
LINE
  5
18A
330
1F
100
AcDbEntity
  8
0
  6
Continuous
 62
     7
370
    15
100
AcDbLine
 10
3389.8745202302
 20
1071.3481861234
 30
0.0
 11
3398.3598016045
 21
1076.2466347944
 31
0.0
  0
SPLINE
  5
18B
330
1F
100
AcDbEntity
  8
0
  6
Continuous
 62
     7
370
    15
100
AcDbSpline
210
0.0
220
0.0
230
1.0
 70
     8
 71
     3
 72
    36
 73
    32
 74
     0
 42
0.00000001
 43
0.00000001
 40
0.0
 40
0.0
 40
0.0
 40
0.0
 40
0.0371123072168508
 40
0.0721785917874748
 40
0.1053227141507104
 40
0.1366691405155867
 40
0.1663426962060495
 40
0.2028781039445652
 40
0.2370377877660652
 40
0.2690972401435776
 40
0.3014211163119139
 40
0.3319615729173498
 40
0.3610199359274781
 40
0.3888757680638212
 40
0.4157836189357574
 40
0.4545517951019944
 40
0.4923706448249128
 40
0.5297323094875775
 40
0.5668751002992957
 40
0.6039769829256048
 40
0.6412108009404245
 40
0.6787531317681936
 40
0.716792813212912
 40
0.7555385389006521
 40
0.7952249643584973
 40
0.8361168592231053
 40
0.878511010287605
 40
0.9130888505746113
 40
0.948968488009831
 40
0.9863319600584871
 40
1.0
 40
1.0
 40
1.0
 40
1.0
 10
3398.359801604487
 20
1076.24663479438
 30
0.0
 10
3398.250621887903
 20
1080.584403232564
 30
0.0
 10
3398.03828159473
 20
1089.020796462953
 30
0.0
 10
3398.079083636954
 20
1101.135432180686
 30
0.0
 10
3398.385464401051
 20
1112.426160014344
 30
0.0
 10
3398.965665584708
 20
1122.92271929843
 30
0.0
 10
3399.879299453005
 20
1133.588597995384
 30
0.0
 10
3401.208065283876
 20
1144.28874733096
 30
0.0
 10
3403.048063500258
 20
1154.879172969365
 30
0.0
 10
3405.290285979129
 20
1164.64534685237
 30
0.0
 10
3407.934448358885
 20
1173.627728762612
 30
0.0
 10
3410.978098620179
 20
1181.868195212231
 30
0.0
 10
3414.316461612953
 20
1189.256786460137
 30
0.0
 10
3417.910546927683
 20
1195.907794700486
 30
0.0
 10
3422.312766061741
 20
1202.87349997874
 30
0.0
 10
3427.641031794402
 20
1210.020201730475
 30
0.0
 10
3433.922964080994
 20
1217.340253144675
 30
0.0
 10
3440.322936041575
 20
1224.27154769457
 30
0.0
 10
3446.810601408712
 20
1230.979135665554
 30
0.0
 10
3453.337440397248
 20
1237.613048681048
 30
0.0
 10
3459.853249439388
 20
1244.319492538073
 30
0.0
 10
3466.307529194598
 20
1251.244907925661
 30
0.0
 10
3472.649636685046
 20
1258.535688319679
 30
0.0
 10
3478.82869669885
 20
1266.338136147245
 30
0.0
 10
3484.793267758486
 20
1274.79867219224
 30
0.0
 10
3490.492639354378
 20
1284.06239724122
 30
0.0
 10
3495.465039847043
 20
1293.505125489626
 30
0.0
 10
3499.779619057717
 20
1303.030010221887
 30
0.0
 10
3503.473392490796
 20
1312.567902259073
 30
0.0
 10
3506.202377822153
 20
1320.504698037228
 30
0.0
 10
3507.545798357572
 20
1325.401456319082
 30
0.0
 10
3507.90561378965
 20
1326.712981005892
 30
0.0
  0
LWPOLYLINE
  5
18C
330
1F
100
AcDbEntity
  8
0
  6
Continuous
 62
     7
370
    15
100
AcDbPolyline
 90
        6
 70
   128
 43
0.0
 10
3340.9691836015
 20
1230.3426311589
 10
3341.3057477984
 20
1229.6057409051
 10
3347.6928646904
 20
1215.359344011
 10
3353.8723194948
 20
1201.0693159491
 10
3359.8409743445
 20
1186.7429130567
 10
3360.4231201277
 20
1185.3159398392
  0
LINE
  5
18D
330
1F
100
AcDbEntity
  8
0
  6
Continuous
 62
     7
370
    15
100
AcDbLine
 10
3425.2298592896
 20
838.7944574319
 30
0.0
 11
3433.7151406638
 21
843.6929061029
 31
0.0
  0
LWPOLYLINE
  5
18E
330
1F
100
AcDbEntity
  8
0
  6
Continuous
 62
     7
370
    15
100
AcDbPolyline
 90
       18
 70
   128
 43
0.0
 10
3433.7151406638
 20
843.6929061029
 10
3433.5913242279
 20
856.548226011
 10
3433.2199368648
 20
869.5400698944
 10
3432.6011643774
 20
882.6619380121
 10
3431.7353163338
 20
895.9072655728
 10
3430.6228259125
 20
909.2694260193
 10
3429.2642496858
 20
922.7417343436
 10
3427.6602673411
 20
936.3174504312
 10
3425.8116813412
 20
949.9897824336
 10
3423.7194165223
 20
963.7518901658
 10
3421.3845196319
 20
977.5968885284
 10
3418.8081588049
 20
991.5178509526
 10
3415.9916229789
 20
1005.5078128651
 10
3412.9363212498
 20
1019.5597751725
 10
3409.6437821666
 20
1033.6667077631
 10
3406.1156529666
 20
1047.8215530238
 10
3402.3536987516
 20
1062.0172293713
 10
3398.3598016045
 20
1076.2466347944
  0
LINE
  5
18F
330
1F
100
AcDbEntity
  8
0
  6
Continuous
 62
     7
370
    15
100
AcDbLine
 10
2470.6357046877
 20
1389.8699329123
 30
0.0
 11
2479.120986062
 21
1394.7683815832
 31
0.0
  0
LWPOLYLINE
  5
190
330
1F
100
AcDbEntity
  8
0
  6
Continuous
 62
     7
370
    15
100
AcDbPolyline
 90
        3
 70
   128
 43
0.0
 10
2479.120986062
 20
1394.7683815832
 10
2479.26390111
 20
1407.9205232343
 10
2479.5223751714
 20
1416.7132677367
  0
LINE
  5
191
330
1F
100
AcDbEntity
  8
0
  6
Continuous
 62
     7
370
    15
100
AcDbLine
 10
2966.921754078
 20
757.3022045973
 30
0.0
 11
2966.921754078
 21
767.10069434
 31
0.0
  0
LWPOLYLINE
  5
192
330
1F
100
AcDbEntity
  8
0
  6
Continuous
 62
     7
370
    15
100
AcDbPolyline
 90
       21
 70
   128
 43
0.0
 10
2919.9304734113
 20
771.8588437568
 10
2920.0431012581
 20
770.3530437235
 10
2920.5055552368
 20
768.4693057962
 10
2921.3201180574
 20
766.6257716663
 10
2922.4771280733
 20
764.8443077571
 10
2923.9628618222
 20
763.1460442685
 10
2925.7596968024
 20
761.5511245478
 10
2927.8463204957
 20
760.0784661674
 10
2930.1979831584
 20
758.7455365401
 10
2932.7867913814
 20
757.5681457359
 10
2935.5820389379
 20
756.5602589566
 10
2938.5505709946
 20
755.7338308922
 10
2941.6571773658
 20
755.0986639248
 10
2944.8650101464
 20
754.6622918612
 10
2948.1360207704
 20
754.4298905733
 10
2951.4314113103
 20
754.4042166061
 10
2954.7120946649
 20
754.5855744823
 10
2957.9391581769
 20
754.97181309
 10
2961.074325182
 20
755.5583511974
 10
2964.0804090133
 20
756.3382317919
 10
2966.921754078
 20
757.3022045973
  0
LWPOLYLINE
  5
193
330
1F
100
AcDbEntity
  8
0
  6
Continuous
 62
     7
370
    15
100
AcDbPolyline
 90
       28
 70
   128
 43
0.0
 10
2928.7937125488
 20
794.0099928716
 10
2926.5936659911
 20
792.5934163582
 10
2924.673516318
 20
791.0471253929
 10
2923.0560387011
 20
789.3894607553
 10
2921.7604182749
 20
787.6400842441
 10
2920.8020225797
 20
785.8197454658
 10
2920.1922192848
 20
783.9500357204
 10
2919.9382413547
 20
782.0531319041
 10
2920.0431012581
 20
780.1515334661
 10
2920.5055552368
 20
778.2677955388
 10
2921.3201180574
 20
776.4242614089
 10
2922.4771280733
 20
774.6427974998
 10
2923.9628618222
 20
772.9445340111
 10
2925.7596968024
 20
771.3496142905
 10
2927.8463204957
 20
769.87695591
 10
2930.1979831584
 20
768.5440262827
 10
2932.7867913814
 20
767.3666354785
 10
2935.5820389379
 20
766.3587486992
 10
2938.5505709946
 20
765.5323206348
 10
2941.6571773658
 20
764.8971536674
 10
2944.8650101464
 20
764.4607816039
 10
2948.1360207704
 20
764.2283803159
 10
2951.4314113103
 20
764.2027063488
 10
2954.7120946649
 20
764.3840642249
 10
2957.9391581769
 20
764.7703028326
 10
2961.074325182
 20
765.3568409401
 10
2964.0804090133
 20
766.1367215345
 10
2966.921754078
 20
767.10069434
  0
LWPOLYLINE
  5
194
330
1F
100
AcDbEntity
  8
0
  6
Continuous
 62
     7
370
    15
100
AcDbPolyline
 90
       10
 70
   128
 43
0.0
 10
2745.7832871057
 20
1097.5289838101
 10
2747.7898528945
 20
1097.6667524213
 10
2749.8034290745
 20
1097.5688342411
 10
2751.7417961114
 20
1097.2392275225
 10
2753.5258054555
 20
1096.6913909622
 10
2755.0826113813
 20
1095.9476941467
 10
2756.3486454682
 20
1095.0385041445
 10
2757.272212263
 20
1094.0009455398
 10
2757.8156001398
 20
1092.8773845396
 10
2757.9566211634
 20
1091.7136990515
  0
LWPOLYLINE
  5
195
330
1F
100
AcDbEntity
  8
0
  6
Continuous
 62
     7
370
    15
100
AcDbPolyline
 90
       36
 70
   128
 43
0.0
 10
2617.4409376671
 20
1171.6194450812
 10
2616.26983093
 20
1168.1205760176
 10
2615.4485253067
 20
1164.5886713751
 10
2614.9797286649
 20
1161.0353759421
 10
2614.8649866402
 20
1157.4724050333
 10
2615.1046775403
 20
1153.9115058635
 10
2615.6980110976
 20
1150.364418817
 10
2616.6430310747
 20
1146.8428387392
 10
2617.9366217143
 20
1143.3583763782
 10
2619.5745180118
 20
1139.922520104
 10
2621.5513197773
 20
1136.546598031
 10
2623.8605094399
 20
1133.2417406687
 10
2626.4944735367
 20
1130.0188442246
 10
2629.4445278143
 20
1126.8885346784
 10
2632.7009458611
 20
1123.8611327484
 10
2636.2529911756
 20
1120.9466198635
 10
2640.0889525648
 20
1118.1546052543
 10
2644.1961827568
 20
1115.4942942713
 10
2648.5611400984
 20
1112.9744580342
 10
2653.1694332031
 20
1110.6034045137
 10
2658.0058683994
 20
1108.3889511397
 10
2663.0544998251
 20
1106.3383990268
 10
2668.2986820009
 20
1104.458508903
 10
2673.7211247113
 20
1102.7554788186
 10
2679.3039500108
 20
1101.2349237114
 10
2685.0287511681
 20
1099.9018568943
 10
2690.8766533533
 20
1098.7606735259
 10
2696.8283758693
 20
1097.8151361196
 10
2702.8642957201
 20
1097.0683621389
 10
2708.964512309
 20
1096.5228137185
 10
2715.1089130509
 20
1096.1802895467
 10
2721.2772396847
 20
1096.0419189353
 10
2727.4491550646
 20
1096.1081580963
 10
2733.6043102126
 20
1096.378788637
 10
2739.72241141
 20
1096.8529182812
 10
2745.7832871057
 20
1097.5289838101
  0
LWPOLYLINE
  5
196
330
1F
100
AcDbEntity
  8
0
  6
Continuous
 62
     7
370
    15
100
AcDbPolyline
 90
       10
 70
   128
 43
0.0
 10
2607.3674775243
 20
1178.6469612478
 10
2609.3832583278
 20
1178.5655515438
 10
2611.3295339486
 20
1178.2518603996
 10
2613.1268329088
 20
1177.7186966376
 10
2614.7017668337
 20
1176.9878307162
 10
2615.9900270892
 20
1176.0891057851
 10
2616.9390106703
 20
1175.0592191126
 10
2617.5099681179
 20
1173.9402236406
 10
2617.6795857594
 20
1172.7778108546
 10
2617.4409376671
 20
1171.6194450812
  0
SPLINE
  5
197
330
1F
100
AcDbEntity
  8
0
  6
Continuous
 62
     7
370
    15
100
AcDbSpline
210
0.0
220
0.0
230
1.0
 70
     8
 71
     3
 72
    10
 73
     6
 74
     0
 42
0.00000001
 43
0.00000001
 40
0.0238961288234489
 40
0.0238961288234489
 40
0.0238961288234489
 40
0.0238961288234489
 40
0.3811362833574216
 40
0.752381329696074
 40
1.0
 40
1.0
 40
1.0
 40
1.0
 10
2091.673656319608
 20
1277.269114873045
 30
0.0
 10
2157.154289564401
 20
1268.280926871656
 30
0.0
 10
2277.99847669684
 20
1232.175010444494
 30
0.0
 10
2445.428808658255
 20
1187.544042311598
 30
0.0
 10
2559.909303200769
 20
1177.787416859826
 30
0.0
 10
2607.367477524308
 20
1178.646961247825
 30
0.0
  0
LWPOLYLINE
  5
198
330
1F
100
AcDbEntity
  8
0
  6
Continuous
 62
     7
370
    15
100
AcDbPolyline
 90
       28
 70
   128
 43
0.0
 10
2045.0603334162
 20
1299.2799647337
 10
2043.3905026103
 20
1297.6396911421
 10
2042.0395634199
 20
1295.9043158848
 10
2041.0235395288
 20
1294.0944224975
 10
2040.3544821428
 20
1292.2314783858
 10
2040.0403270475
 20
1290.337580198
 10
2040.0848004819
 20
1288.4351917328
 10
2040.4873749401
 20
1286.5468774934
 10
2041.2432754286
 20
1284.6950350468
 10
2042.3435361029
 20
1282.9016293624
 10
2043.7751066129
 20
1281.1879322831
 10
2045.5210068949
 20
1279.5742702165
 10
2047.5605285745
 20
1278.0797830405
 10
2049.8694805917
 20
1276.7221970823
 10
2052.4204761345
 20
1275.5176148644
 10
2055.1832574778
 20
1274.4803241097
 10
2058.1250548746
 20
1273.622628273
 10
2061.210975243
 20
1272.9547006081
 10
2064.4044160375
 20
1272.484463501
 10
2067.6674993976
 20
1272.2174945017
 10
2070.961521422
 20
1272.156960168
 10
2074.2474112418
 20
1272.3035785062
 10
2077.4861944451
 20
1272.6556104551
 10
2080.6394553586
 20
1273.2088805133
 10
2083.6697927009
 20
1273.9568262648
 10
2086.5412632049
 20
1274.8905762177
 10
2089.219807946
 20
1275.9990550293
 10
2091.6736563196
 20
1277.269114873
  0
LINE
  5
199
330
1F
100
AcDbEntity
  8
0
  6
Continuous
 62
     7
370
    15
100
AcDbLine
 10
2055.5467984582
 20
1293.2262573217
 30
0.0
 11
2045.0603334162
 21
1299.2799647337
 31
0.0
  0
SPLINE
  5
19A
330
1F
100
AcDbEntity
  8
0
  6
Continuous
 62
     7
370
    15
100
AcDbSpline
210
0.0
220
0.0
230
1.0
 70
     8
 71
     3
 72
    46
 73
    42
 74
     0
 42
0.00000001
 43
0.00000001
 40
0.0
 40
0.0
 40
0.0
 40
0.0
 40
0.0067083010766303
 40
0.0149875018456783
 40
0.0248544734244163
 40
0.0363242256642952
 40
0.0494122229325385
 40
0.0638580772284431
 40
0.0798992337807353
 40
0.0975557854588958
 40
0.1168500664914391
 40
0.1382518720298281
 40
0.1614132181759273
 40
0.1863652133212628
 40
0.2131413979425516
 40
0.2417776886154417
 40
0.2723123117490612
 40
0.3047857299539093
 40
0.3353843143463698
 40
0.3675870893117406
 40
0.4014268423330313
 40
0.4369375723947858
 40
0.4741544415268129
 40
0.5124025459765341
 40
0.5523667596184795
 40
0.5940834012485487
 40
0.6375896962077122
 40
0.6717638909112258
 40
0.7070039281438409
 40
0.7433269471666516
 40
0.7807503390717841
 40
0.8192891131199019
 40
0.8585359310380858
 40
0.8818952511962268
 40
0.9047514218196212
 40
0.9268229503030453
 40
0.9478505330661531
 40
0.9676108713493389
 40
0.9808571750709554
 40
0.9933392888505693
 40
1.0
 40
1.0
 40
1.0
 40
1.0
 10
2629.757867807291
 20
1195.068142542457
 30
0.0
 10
2628.451707752128
 20
1195.155518851935
 30
0.0
 10
2625.533520864882
 20
1195.350732600486
 30
0.0
 10
2620.679102795198
 20
1195.589299528061
 30
0.0
 10
2614.894950646595
 20
1195.870134769929
 30
0.0
 10
2608.172519372473
 20
1196.204641699304
 30
0.0
 10
2600.561807996343
 20
1196.621284149976
 30
0.0
 10
2592.068793613388
 20
1197.143028474872
 30
0.0
 10
2582.699929120362
 20
1197.79415871033
 30
0.0
 10
2572.40783855353
 20
1198.602558827792
 30
0.0
 10
2561.101735131081
 20
1199.601352945212
 30
0.0
 10
2548.764368573066
 20
1200.820465748617
 30
0.0
 10
2535.378676393561
 20
1202.29070443321
 30
0.0
 10
2521.012613568609
 20
1204.031976861042
 30
0.0
 10
2505.661381883835
 20
1206.07139085021
 30
0.0
 10
2489.320180847757
 20
1208.436058626235
 30
0.0
 10
2471.984221780567
 20
1211.153095141702
 30
0.0
 10
2454.374145332509
 20
1214.127101369484
 30
0.0
 10
2436.5495909054
 20
1217.343104588729
 30
0.0
 10
2418.569452329785
 20
1220.784601332239
 30
0.0
 10
2399.785389129556
 20
1224.587129640209
 30
0.0
 10
2380.193994604736
 20
1228.769869820165
 30
0.0
 10
2359.921781361788
 20
1233.322821574261
 30
0.0
 10
2338.973905096664
 20
1238.258074717562
 30
0.0
 10
2317.355360426696
 20
1243.587471536691
 30
0.0
 10
2294.945080063486
 20
1249.356950622212
 30
0.0
 10
2273.723318349649
 20
1255.052332614817
 30
0.0
 10
2253.781033659237
 20
1260.594708462929
 30
0.0
 10
2235.21239438021
 20
1265.908694444487
 30
0.0
 10
2216.183482330991
 20
1271.512529487964
 30
0.0
 10
2196.690250477594
 20
1277.410727230809
 30
0.0
 10
2176.81713097082
 20
1283.600882917093
 30
0.0
 10
2159.439535520537
 20
1289.108988120107
 30
0.0
 10
2144.639411917438
 20
1293.63856796355
 30
0.0
 10
2132.692529310721
 20
1297.123495515176
 30
0.0
 10
2120.982124427624
 20
1300.288896060539
 30
0.0
 10
2109.60581733131
 20
1303.02469478296
 30
0.0
 10
2099.599814697279
 20
1305.050333662156
 30
0.0
 10
2090.987774607045
 20
1306.383170408523
 30
0.0
 10
2084.758633923547
 20
1307.138546776904
 30
0.0
 10
2081.017218240047
 20
1307.316557916503
 30
0.0
 10
2079.715399451539
 20
1307.378496569061
 30
0.0
  0
ARC
  5
19B
330
1F
100
AcDbEntity
  8
0
  6
Continuous
 62
     7
370
    15
100
AcDbCircle
 10
2631.2520498693
 20
1209.2738878314
 30
0.0
 40
14.28410932636698
100
AcDbArc
 50
263.9956196112
 51
301.9943714143
  0
ARC
  5
19C
330
1F
100
AcDbEntity
  8
0
  6
Continuous
 62
     7
370
    15
100
AcDbCircle
 10
2697.1622341507
 20
1114.4423242388
 30
0.0
 40
101.2221301884472
100
AcDbArc
 50
114.7986114982
 51
125.1960119691
  0
LWPOLYLINE
  5
19D
330
1F
100
AcDbEntity
  8
0
  6
Continuous
 62
     7
370
    15
100
AcDbPolyline
 90
        9
 70
   128
 43
0.0
 10
2658.3294139757
 20
1211.5621450608
 10
2658.4131034447
 20
1210.828507013
 10
2658.3345904254
 20
1210.0946782849
 10
2658.0951484211
 20
1209.3725617857
 10
2657.6986612488
 20
1208.673870449
 10
2657.1515600424
 20
1208.0099372457
 10
2656.4627189379
 20
1207.3915313599
 10
2655.6433111328
 20
1206.8286835096
 10
2654.706627653
 20
1206.3305232461
  0
SPLINE
  5
19E
330
1F
100
AcDbEntity
  8
0
  6
Continuous
 62
     7
370
    15
100
AcDbSpline
210
0.0
220
0.0
230
1.0
 70
     8
 71
     3
 72
    25
 73
    21
 74
     0
 42
0.00000001
 43
0.00000001
 40
0.0
 40
0.0
 40
0.0
 40
0.0
 40
0.0020038253830053
 40
0.0880328237919117
 40
0.1698486239146199
 40
0.2581100390474162
 40
0.3411134873026203
 40
0.418968477373375
 40
0.4917784810331182
 40
0.5596407346645772
 40
0.621563090421763
 40
0.6788803259492444
 40
0.7316661087059242
 40
0.7799878401235592
 40
0.8317774389346981
 40
0.8774188050140139
 40
0.9169924348666754
 40
0.9505692797976998
 40
0.9782149665605123
 40
1.0
 40
1.0
 40
1.0
 40
1.0
 10
2613.91402678828
 20
1333.150163242502
 30
0.0
 10
2613.961640080562
 20
1333.071589234417
 30
0.0
 10
2616.053405463478
 20
1329.619645833047
 30
0.0
 10
2619.825636241979
 20
1322.907149682161
 30
0.0
 10
2625.347531373712
 20
1312.75677074154
 30
0.0
 10
2630.454124601381
 20
1302.664126912078
 30
0.0
 10
2635.154364448087
 20
1292.676650329438
 30
0.0
 10
2639.244292646314
 20
1283.260465793452
 30
0.0
 10
2642.773535171883
 20
1274.413421192495
 30
0.0
 10
2645.772004506478
 20
1266.176646220079
 30
0.0
 10
2648.293726453248
 20
1258.541166787224
 30
0.0
 10
2650.391351040582
 20
1251.497850306797
 30
0.0
 10
2652.12592346914
 20
1244.992869096024
 30
0.0
 10
2653.618562866109
 20
1238.699670400707
 30
0.0
 10
2654.866075674946
 20
1232.687479813326
 30
0.0
 10
2655.881910156972
 20
1227.026135880143
 30
0.0
 10
2656.652478001447
 20
1222.111263048811
 30
0.0
 10
2657.263739139003
 20
1217.939005349741
 30
0.0
 10
2657.751142849624
 20
1214.501857201699
 30
0.0
 10
2658.15251974692
 20
1212.461408552596
 30
0.0
 10
2658.329413975724
 20
1211.562145060777
 30
0.0
  0
SPLINE
  5
19F
330
1F
100
AcDbEntity
  8
0
  6
Continuous
 62
     7
370
    15
100
AcDbSpline
210
0.0
220
0.0
230
1.0
 70
     8
 71
     3
 72
    11
 73
     7
 74
     0
 42
0.00000001
 43
0.00000001
 40
0.0
 40
0.0
 40
0.0
 40
0.0
 40
0.291540096492983
 40
0.5803257790144641
 40
0.8671363334797936
 40
1.0
 40
1.0
 40
1.0
 40
1.0
 10
2686.774816416922
 20
1224.487842239943
 30
0.0
 10
2686.894733078802
 20
1228.699519992952
 30
0.0
 10
2687.133433453327
 20
1237.08308438898
 30
0.0
 10
2686.015220946433
 20
1249.597484730266
 30
0.0
 10
2684.466565643291
 20
1259.797944723522
 30
0.0
 10
2682.918930364059
 20
1265.794272029989
 30
0.0
 10
2682.428968180649
 20
1267.69263507388
 30
0.0
  0
LWPOLYLINE
  5
1A0
330
1F
100
AcDbEntity
  8
0
  6
Continuous
 62
     7
370
    15
100
AcDbPolyline
 90
       10
 70
   128
 43
0.0
 10
2698.9481504746
 20
1218.6725574814
 10
2696.9415846858
 20
1218.5347888701
 10
2694.9280085058
 20
1218.6327070503
 10
2692.9896414689
 20
1218.9623137689
 10
2691.2056321248
 20
1219.5101503293
 10
2689.648826199
 20
1220.2538471448
 10
2688.3827921121
 20
1221.1630371469
 10
2687.4592253173
 20
1222.2005957516
 10
2686.9158374405
 20
1223.3241567518
 10
2686.7748164169
 20
1224.4878422399
  0
LWPOLYLINE
  5
1A1
330
1F
100
AcDbEntity
  8
0
  6
Continuous
 62
     7
370
    15
100
AcDbPolyline
 90
       22
 70
   128
 43
0.0
 10
2827.832646223
 20
1146.0699033495
 10
2828.4616066503
 20
1148.0809652738
 10
2829.2829122736
 20
1151.6128699164
 10
2829.7517089154
 20
1155.1661653493
 10
2829.8664509401
 20
1158.7291362582
 10
2829.62676004
 20
1162.290035428
 10
2829.0334264827
 20
1165.8371224744
 10
2828.0884065056
 20
1169.3587025523
 10
2826.794815866
 20
1172.8431649133
 10
2825.1569195685
 20
1176.2790211875
 10
2823.180117803
 20
1179.6549432605
 10
2820.8709281404
 20
1182.9598006227
 10
2818.2369640436
 20
1186.1826970668
 10
2815.286909766
 20
1189.3130066131
 10
2812.0304917192
 20
1192.3404085431
 10
2808.4784464047
 20
1195.254921428
 10
2804.6424850155
 20
1198.0469360371
 10
2800.5352548235
 20
1200.7072470201
 10
2796.1702974819
 20
1203.2270832572
 10
2791.5620043772
 20
1205.5981367777
 10
2786.7255691809
 20
1207.8125901518
 10
2783.3299698066
 20
1209.219107938
  0
ARC
  5
1A2
330
1F
100
AcDbEntity
  8
0
  6
Continuous
 62
     7
370
    15
100
AcDbCircle
 10
2722.3225351937
 20
1036.1961240847
 30
0.0
 40
183.9674172405107
100
AcDbArc
 50
89.2544776049
 51
97.2995719849
  0
ARC
  5
1A3
330
1F
100
AcDbEntity
  8
0
  6
Continuous
 62
     7
370
    15
100
AcDbCircle
 10
2836.9972256637
 20
1153.9129353328
 30
0.0
 40
16.36246564183056
100
AcDbArc
 50
256.1174834386
 51
271.2842864267
  0
SPLINE
  5
1A4
330
1F
100
AcDbEntity
  8
0
  6
Continuous
 62
     7
370
    15
100
AcDbSpline
210
0.0
220
0.0
230
1.0
 70
     8
 71
     3
 72
    17
 73
    13
 74
     0
 42
0.00000001
 43
0.00000001
 40
0.0
 40
0.0
 40
0.0
 40
0.0
 40
0.0981603244276799
 40
0.1958417094020499
 40
0.2932937467492868
 40
0.3906956039842051
 40
0.4881655703282411
 40
0.5857715846813092
 40
0.6835422335559492
 40
0.7814778886467932
 40
0.9356673267028596
 40
0.9999999999999999
 40
0.9999999999999999
 40
0.9999999999999999
 40
0.9999999999999999
 10
3353.057781260687
 20
1038.932426418406
 30
0.0
 10
3346.093370139185
 20
1039.951423801115
 30
0.0
 10
3332.198528338634
 20
1041.984446720197
 30
0.0
 10
3311.735006836204
 20
1045.742204183537
 30
0.0
 10
3291.582957855773
 20
1049.917060474602
 30
0.0
 10
3271.711133655423
 20
1054.49530208893
 30
0.0
 10
3252.058957424598
 20
1059.392687250593
 30
0.0
 10
3232.573182230727
 20
1064.543449630256
 30
0.0
 10
3213.200692795599
 20
1069.879487814332
 30
0.0
 10
3190.19140942027
 20
1076.364273151253
 30
0.0
 10
3169.451837873542
 20
1082.31301197869
 30
0.0
 10
3155.033818438003
 20
1086.305896922492
 30
0.0
 10
3150.789169106205
 20
1087.48139793249
 30
0.0
  0
SPLINE
  5
1A5
330
1F
100
AcDbEntity
  8
0
  6
Continuous
 62
     7
370
    15
100
AcDbSpline
210
0.0
220
0.0
230
1.0
 70
     8
 71
     3
 72
    14
 73
    10
 74
     0
 42
0.00000001
 43
0.00000001
 40
0.0
 40
0.0
 40
0.0
 40
0.0
 40
0.1620955153940789
 40
0.330613165159363
 40
0.4632054692569985
 40
0.5961662156760273
 40
0.7297426364049396
 40
0.8642355483196877
 40
1.0
 40
1.0
 40
1.0
 40
1.0
 10
2994.261563495549
 20
1124.472378065518
 30
0.0
 10
2985.999440976143
 20
1125.859588705274
 30
0.0
 10
2969.14785522786
 20
1128.688970500553
 30
0.0
 10
2945.174338883767
 20
1131.870922695221
 30
0.0
 10
2922.519006772316
 20
1134.300053365029
 30
0.0
 10
2901.534616956822
 20
1136.008363732296
 30
0.0
 10
2880.337279484987
 20
1137.154931249878
 30
0.0
 10
2858.915412157392
 20
1137.756525238294
 30
0.0
 10
2844.570275006028
 20
1137.622105919311
 30
0.0
 10
2837.363960055986
 20
1137.554580043626
 30
0.0
  0
ARC
  5
1A6
330
1F
100
AcDbEntity
  8
0
  6
Continuous
 62
     7
370
    15
100
AcDbCircle
 10
3371.8794252135
 20
1004.941300787
 30
0.0
 40
38.85422631807762
100
AcDbArc
 50
99.2510612092
 51
118.9742764952
  0
LINE
  5
1A7
330
1F
100
AcDbEntity
  8
0
  6
Continuous
 62
     7
370
    15
100
AcDbLine
 10
3391.1858227899
 20
1012.0231278868
 30
0.0
 11
3380.6993577478
 21
1018.0768352988
 31
0.0
  0
SPLINE
  5
1A8
330
1F
100
AcDbEntity
  8
0
  6
Continuous
 62
     7
370
    15
100
AcDbSpline
210
0.0
220
0.0
230
1.0
 70
     8
 71
     3
 72
    20
 73
    16
 74
     0
 42
0.00000001
 43
0.00000001
 40
0.0
 40
0.0
 40
0.0
 40
0.0
 40
0.0417469386696942
 40
0.0927776300463959
 40
0.1489472732094526
 40
0.21032691859209
 40
0.2784110950523992
 40
0.3520927839753621
 40
0.4314709484701549
 40
0.5166522886808965
 40
0.6077510636811907
 40
0.7048888806681444
 40
0.8081944607213081
 40
0.9055357535143443
 40
1.0
 40
1.0
 40
1.0
 40
1.0
 10
2844.676822478701
 20
1119.539130028904
 30
0.0
 10
2847.23514923035
 20
1119.385532343436
 30
0.0
 10
2852.920727633602
 20
1119.044179667229
 30
0.0
 10
2862.03130653438
 20
1118.406237230967
 30
0.0
 10
2872.323660896848
 20
1117.59933346008
 30
0.0
 10
2883.629683275357
 20
1116.600079310572
 30
0.0
 10
2895.96707456005
 20
1115.381108249928
 30
0.0
 10
2909.352760709906
 20
1113.910829075155
 30
0.0
 10
2923.718819198536
 20
1112.169558298266
 30
0.0
 10
2939.070077662062
 20
1110.130187293506
 30
0.0
 10
2955.411165544533
 20
1107.765327300006
 30
0.0
 10
2972.747590431646
 20
1105.049085137942
 30
0.0
 10
2990.355835155654
 20
1102.071954448253
 30
0.0
 10
3007.717544552151
 20
1098.951669413501
 30
0.0
 10
3018.922035586706
 20
1096.782585766889
 30
0.0
 10
3024.440248495544
 20
1095.714311862954
 30
0.0
  0
SPLINE
  5
1A9
330
1F
100
AcDbEntity
  8
0
  6
Continuous
 62
     7
370
    15
100
AcDbSpline
210
0.0
220
0.0
230
1.0
 70
     8
 71
     3
 72
    29
 73
    25
 74
     0
 42
0.00000001
 43
0.00000001
 40
0.0
 40
0.0
 40
0.0
 40
0.0
 40
0.0648155467339005
 40
0.1347959664161375
 40
0.2078450226333147
 40
0.2840278998278737
 40
0.3438695498871231
 40
0.4055775724007376
 40
0.4691819795364824
 40
0.5347132244376773
 40
0.6021975894770926
 40
0.6709217939294522
 40
0.7118257647370428
 40
0.7518486819120023
 40
0.7904976301970079
 40
0.8273185490282696
 40
0.8619204250594026
 40
0.8851157242834111
 40
0.9069728679931521
 40
0.9274963421427748
 40
0.9467767306558248
 40
0.9650220990838848
 40
0.9825894465014331
 40
1.0
 40
1.0
 40
1.0
 40
1.0
 10
3085.270891245988
 20
1082.731148980754
 30
0.0
 10
3091.997527199576
 20
1081.162005615084
 30
0.0
 10
3105.986815877738
 20
1077.898680578435
 30
0.0
 10
3127.374064681928
 20
1072.611164111954
 30
0.0
 10
3149.786937181933
 20
1066.845427602139
 30
0.0
 10
3171.007998522711
 20
1061.149034388865
 30
0.0
 10
3190.950433909001
 20
1055.606876147332
 30
0.0
 10
3209.519034773626
 20
1050.292834595172
 30
0.0
 10
3228.547957678683
 20
1044.689015645267
 30
0.0
 10
3248.041186157035
 20
1038.790811390985
 30
0.0
 10
3267.914307900668
 20
1032.600665301712
 30
0.0
 10
3285.291898547843
 20
1027.092532140923
 30
0.0
 10
3300.09203291232
 20
1022.563016980782
 30
0.0
 10
3312.038881822596
 20
1019.077886435672
 30
0.0
 10
3323.74940637044
 20
1015.913206881418
 30
0.0
 10
3335.125298571942
 20
1013.174908352516
 30
0.0
 10
3345.132589652426
 20
1011.157032571855
 30
0.0
 10
3353.741399759149
 20
1009.804734650616
 30
0.0
 10
3360.953712680855
 20
1008.992006908065
 30
0.0
 10
3367.830790563958
 20
1008.588176301293
 30
0.0
 10
3374.348177325642
 20
1008.631307646008
 30
0.0
 10
3380.456565767106
 20
1009.182318400615
 30
0.0
 10
3386.180521073136
 20
1010.238740408423
 30
0.0
 10
3389.522382356496
 20
1011.430112230923
 30
0.0
 10
3391.185822789879
 20
1012.023127886781
 30
0.0
  0
ARC
  5
1AA
330
1F
100
AcDbEntity
  8
0
  6
Continuous
 62
     7
370
    15
100
AcDbCircle
 10
2745.3399016439
 20
1206.0014928714
 30
0.0
 40
106.0085337063889
100
AcDbArc
 50
294.9307026243
 51
301.8254999262
  0
LWPOLYLINE
  5
1AB
330
1F
100
AcDbEntity
  8
0
  6
Continuous
 62
     7
370
    15
100
AcDbPolyline
 90
        9
 70
   128
 43
0.0
 10
2786.4020236046
 20
1104.6393962307
 10
2786.3183341356
 20
1105.3730342785
 10
2786.3968471549
 20
1106.1068630066
 10
2786.6362891592
 20
1106.8289795058
 10
2787.0327763315
 20
1107.5276708424
 10
2787.5798775379
 20
1108.1916040457
 10
2788.2687186423
 20
1108.8100099316
 10
2789.0881264475
 20
1109.3728577818
 10
2790.0248099273
 20
1109.8710180454
  0
SPLINE
  5
1AC
330
1F
100
AcDbEntity
  8
0
  6
Continuous
 62
     7
370
    15
100
AcDbSpline
210
0.0
220
0.0
230
1.0
 70
     8
 71
     3
 72
    34
 73
    30
 74
     0
 42
0.00000001
 43
0.00000001
 40
0.0
 40
0.0
 40
0.0
 40
0.0
 40
0.0503386570938884
 40
0.1065178450577642
 40
0.1606701119552348
 40
0.2189616157419676
 40
0.274811682428784
 40
0.3282720039057006
 40
0.3793929873134911
 40
0.4282236936275787
 40
0.4739992605139503
 40
0.5176553482834925
 40
0.5592342925023808
 40
0.5987769426836203
 40
0.6414348432097149
 40
0.6815514993234424
 40
0.7191798380137006
 40
0.7543698685468482
 40
0.7871685865430625
 40
0.8170964739246228
 40
0.844798646248546
 40
0.8703107079647396
 40
0.8936652350699387
 40
0.9186958280085171
 40
0.9407548993610122
 40
0.959881354145035
 40
0.976109484057667
 40
0.9894710073703091
 40
1.0
 40
1.0
 40
1.0
 40
1.0
 10
2923.204002323142
 20
861.1017238088743
 30
0.0
 10
2919.743086162824
 20
864.9396104065383
 30
0.0
 10
2912.419701857299
 20
873.0606734932387
 30
0.0
 10
2901.740932633949
 20
885.419126639304
 30
0.0
 10
2890.816920828092
 20
898.4691794689383
 30
0.0
 10
2880.25797445992
 20
911.588165378446
 30
0.0
 10
2870.103013256417
 20
924.7478579667379
 30
0.0
 10
2860.737714687363
 20
937.4339458666457
 30
0.0
 10
2852.128183398415
 20
949.6481825805799
 30
0.0
 10
2844.285096803511
 20
961.3274674666935
 30
0.0
 10
2837.164681004017
 20
972.4785151795415
 30
0.0
 10
2830.723777135149
 20
983.1081694491686
 30
0.0
 10
2824.884973542393
 20
993.2902246595116
 30
0.0
 10
2819.389862467036
 20
1003.445962199679
 30
0.0
 10
2814.27577100354
 20
1013.537105881347
 30
0.0
 10
2809.577448720627
 20
1023.524966104773
 30
0.0
 10
2805.487053840712
 20
1032.941057273264
 30
0.0
 10
2801.957924405296
 20
1041.788124499802
 30
0.0
 10
2798.959427896504
 20
1050.024894035564
 30
0.0
 10
2796.437712353745
 20
1057.660374749649
 30
0.0
 10
2794.340086248891
 20
1064.703690926471
 30
0.0
 10
2792.605514179143
 20
1071.208672209029
 30
0.0
 10
2791.11287469516
 20
1077.501870886938
 30
0.0
 10
2789.865361909933
 20
1083.514061479042
 30
0.0
 10
2788.849527422326
 20
1089.175405411109
 30
0.0
 10
2788.078959579057
 20
1094.090278242682
 30
0.0
 10
2787.467698441249
 20
1098.262535941702
 30
0.0
 10
2786.980294730678
 20
1101.699684089754
 30
0.0
 10
2786.578917833377
 20
1103.740132738855
 30
0.0
 10
2786.40202360457
 20
1104.639396230674
 30
0.0
  0
LINE
  5
1AD
330
1F
100
AcDbEntity
  8
0
  6
Continuous
 62
     7
370
    15
100
AcDbLine
 10
2966.921754078
 20
767.10069434
 30
0.0
 11
2956.4352890359
 21
773.154401752
 31
0.0
  0
SPLINE
  5
1AE
330
1F
100
AcDbEntity
  8
0
  6
Continuous
 62
     7
370
    15
100
AcDbSpline
210
0.0
220
0.0
230
1.0
 70
     8
 71
     3
 72
    10
 73
     6
 74
     0
 42
0.00000001
 43
0.00000001
 40
0.0238961288234489
 40
0.0238961288234489
 40
0.0238961288234489
 40
0.0238961288234489
 40
0.2715147991273749
 40
0.6427598454660273
 40
1.0
 40
1.0
 40
1.0
 40
1.0
 10
2757.956621163372
 20
1091.713699051508
 30
0.0
 10
2756.467685282693
 20
1064.316678176515
 30
0.0
 10
2773.368487512702
 20
998.228495403646
 30
0.0
 10
2850.679968769872
 20
901.5730221319172
 30
0.0
 10
2913.224027254545
 20
831.8111578233946
 30
0.0
 10
2928.79371254876
 20
794.0099928715955
 30
0.0
  0
LWPOLYLINE
  5
1AF
330
1F
100
AcDbEntity
  8
0
  6
Continuous
 62
     7
370
    15
100
AcDbPolyline
 90
       30
 70
   128
 43
0.0
 10
2687.7436523623
 20
1138.1138771299
 10
2690.8045351039
 20
1136.4908731608
 10
2694.0928168973
 20
1135.0235689982
 10
2697.5848055966
 20
1133.7225366024
 10
2701.2553413434
 20
1132.5971499414
 10
2705.0779778434
 20
1131.6555174521
 10
2709.0251729131
 20
1130.904423618
 10
2713.0684869215
 20
1130.3492800874
 10
2717.1787876986
 20
1129.9940866822
 10
2721.326460433
 20
1129.841402579
 10
2725.4816210477
 20
1129.8923278704
 10
2729.6143315153
 20
1130.1464956383
 10
2733.6948155621
 20
1130.6020745982
 10
2737.693673207
 20
1131.2557822933
 10
2741.5820925891
 20
1132.1029087446
 10
2745.3320575577
 20
1133.1373503866
 10
2748.9165495291
 20
1134.3516540437
 10
2752.3097421567
 20
1135.73707063
 10
2755.4871874098
 20
1137.2836181875
 10
2758.4259917224
 20
1138.9801538054
 10
2761.1049809423
 20
1140.8144539058
 10
2763.5048528907
 20
1142.7733023144
 10
2765.6083164351
 20
1144.8425854836
 10
2767.4002160727
 20
1147.0073941807
 10
2768.8676411253
 20
1149.2521309095
 10
2770.000018762
 20
1151.5606222903
 10
2770.7891901758
 20
1153.9162355898
 10
2771.2294693686
 20
1156.3019985604
 10
2771.3176841188
 20
1158.700721725
 10
2771.2223227517
 20
1159.9631134038
  0
LWPOLYLINE
  5
1B0
330
1F
100
AcDbEntity
  8
0
  6
Continuous
 62
     7
370
    15
100
AcDbPolyline
 90
       40
 70
   128
 43
0.0
 10
2758.7120413748
 20
1177.0400294459
 10
2756.987785218
 20
1178.0876641615
 10
2753.9269024764
 20
1179.7106681307
 10
2750.638620683
 20
1181.1779722932
 10
2747.1466319837
 20
1182.4790046891
 10
2743.4760962369
 20
1183.60439135
 10
2739.6534597369
 20
1184.5460238394
 10
2735.7062646672
 20
1185.2971176735
 10
2731.6629506588
 20
1185.8522612041
 10
2727.5526498817
 20
1186.2074546092
 10
2723.4049771473
 20
1186.3601387124
 10
2719.2498165326
 20
1186.3092134211
 10
2715.117106065
 20
1186.0550456532
 10
2711.0366220182
 20
1185.5994666932
 10
2707.0377643733
 20
1184.9457589982
 10
2703.1493449912
 20
1184.0986325469
 10
2699.3993800226
 20
1183.0641909048
 10
2695.8148880512
 20
1181.8498872478
 10
2692.4216954236
 20
1180.4644706614
 10
2689.2442501705
 20
1178.917923104
 10
2686.3054458579
 20
1177.2213874861
 10
2683.626456638
 20
1175.3870873856
 10
2681.2265846896
 20
1173.428238977
 10
2679.1231211452
 20
1171.3589558078
 10
2677.3312215076
 20
1169.1941471107
 10
2675.863796455
 20
1166.949410382
 10
2674.7314188183
 20
1164.6409190012
 10
2673.9422474045
 20
1162.2853057016
 10
2673.5019682117
 20
1159.8995427311
 10
2673.4137534615
 20
1157.5008195665
 10
2673.6782387432
 20
1155.1064190631
 10
2674.2935184343
 20
1152.7335929315
 10
2675.2551594306
 20
1150.3994374384
 10
2676.5562330865
 20
1148.1207702274
 10
2678.1873651367
 20
1145.9140091482
 10
2680.1368032373
 20
1143.7950539648
 10
2682.3905016422
 20
1141.779171798
 10
2684.9322224026
 20
1139.8808871248
 10
2687.7436523623
 20
1138.1138771299
 10
2687.7436523623
 20
1138.1138771299
  0
SPLINE
  5
1B1
330
1F
100
AcDbEntity
  8
0
  6
Continuous
 62
     7
370
    15
100
AcDbSpline
210
0.0
220
0.0
230
1.0
 70
     8
 71
     3
 72
    29
 73
    25
 74
     0
 42
0.00000001
 43
0.00000001
 40
0.0
 40
0.0
 40
0.0
 40
0.0
 40
0.0169642955781495
 40
0.0585049488541152
 40
0.0997614879418712
 40
0.1408286278204051
 40
0.1817839232885864
 40
0.2226883578936731
 40
0.2635874924347381
 40
0.3045177137059848
 40
0.3560578345774094
 40
0.4077196542075445
 40
0.4595058489378019
 40
0.5113970123871765
 40
0.5633557850085019
 40
0.6283199774446079
 40
0.6931960172236256
 40
0.757920455321439
 40
0.8224726323377323
 40
0.8629746964025548
 40
0.9034506360130047
 40
0.9439493729990749
 40
0.9845443598527092
 40
1.0
 40
1.0
 40
1.0
 40
1.0
 10
2757.890738650758
 20
1074.392557210189
 30
0.0
 10
2757.856506964419
 20
1072.689020732801
 30
0.0
 10
2757.73845177909
 20
1066.814016137319
 30
0.0
 10
2758.712211331969
 20
1056.803019954547
 30
0.0
 10
2760.71557667343
 20
1044.417591876325
 30
0.0
 10
2763.765500643017
 20
1032.159144648914
 30
0.0
 10
2767.704690160808
 20
1020.02366221371
 30
0.0
 10
2772.487016593977
 20
1008.006855895889
 30
0.0
 10
2778.037229453016
 20
996.1038549739676
 30
0.0
 10
2784.825480946794
 20
983.2955674530082
 30
0.0
 10
2792.987286774907
 20
969.6077344631732
 30
0.0
 10
2802.608606736703
 20
955.0671506426925
 30
0.0
 10
2812.959464803144
 20
940.6570868507742
 30
0.0
 10
2823.905268044963
 20
926.3623496507319
 30
0.0
 10
2836.263868056005
 20
910.9849050173691
 30
0.0
 10
2849.994635245761
 20
894.5399417608463
 30
0.0
 10
2864.977354318449
 20
877.0219476543161
 30
0.0
 10
2879.797744830287
 20
859.5038611514804
 30
0.0
 10
2892.235167891115
 20
844.0386412319484
 30
0.0
 10
2902.233200358548
 20
830.6123285237974
 30
0.0
 10
2910.048952388574
 20
819.2764798685644
 30
0.0
 10
2917.135548333757
 20
807.7748231652965
 30
0.0
 10
2922.316163266692
 20
798.5452177350041
 30
0.0
 10
2924.75019189024
 20
793.094642874239
 30
0.0
 10
2925.421361376232
 20
791.5916779985299
 30
0.0
  0
LINE
  5
1B2
330
1F
100
AcDbEntity
  8
0
  6
Continuous
 62
     7
370
    15
100
AcDbLine
 10
3391.1858227899
 20
1002.2246381442
 30
0.0
 11
3391.1858227899
 21
1012.0231278868
 31
0.0
  0
SPLINE
  5
1B3
330
1F
100
AcDbEntity
  8
0
  6
Continuous
 62
     7
370
    15
100
AcDbSpline
210
0.0
220
0.0
230
1.0
 70
     8
 71
     3
 72
    20
 73
    16
 74
     0
 42
0.00000001
 43
0.00000001
 40
0.0
 40
0.0
 40
0.0
 40
0.0
 40
0.0078944913801536
 40
0.0621824740029444
 40
0.1219374279277225
 40
0.1872349387399513
 40
0.2596649311396189
 40
0.3380497254654493
 40
0.4224946016461738
 40
0.513113070500743
 40
0.6100266842643892
 40
0.7133648123268905
 40
0.8232643920398933
 40
0.9268189837780134
 40
1.0
 40
1.0
 40
1.0
 40
1.0
 10
2850.985738461693
 20
1109.35243118358
 30
0.0
 10
2851.44040907958
 20
1109.324654476878
 30
0.0
 10
2855.021709319857
 20
1109.105865924296
 30
0.0
 10
2862.030670737829
 20
1108.604418539807
 30
0.0
 10
2872.323855742989
 20
1107.801863942425
 30
0.0
 10
2883.629622729393
 20
1106.801272392499
 30
0.0
 10
2895.967092798864
 20
1105.58271471805
 30
0.0
 10
2909.352756042349
 20
1104.112311895976
 30
0.0
 10
2923.718817241261
 20
1102.371070803546
 30
0.0
 10
2939.070092122721
 20
1100.331721472024
 30
0.0
 10
2955.411104030776
 20
1097.966729089772
 30
0.0
 10
2972.747843584196
 20
1095.251043693228
 30
0.0
 10
2990.354850423294
 20
1092.271720344906
 30
0.0
 10
3006.21011796439
 20
1089.42996919389
 30
0.0
 10
3015.916530916507
 20
1087.554235442193
 30
0.0
 10
3019.935670986269
 20
1086.777549274107
 30
0.0
  0
SPLINE
  5
1B4
330
1F
100
AcDbEntity
  8
0
  6
Continuous
 62
     7
370
    15
100
AcDbSpline
210
0.0
220
0.0
230
1.0
 70
     8
 71
     3
 72
    30
 73
    26
 74
     0
 42
0.00000001
 43
0.00000001
 40
0.0
 40
0.0
 40
0.0
 40
0.0
 40
0.0107100010303001
 40
0.0768252768166265
 40
0.1459070011147344
 40
0.2180179542177054
 40
0.2932224834630051
 40
0.3522956412078169
 40
0.4132112032696573
 40
0.4759987963971022
 40
0.5406884826512304
 40
0.6073062068840144
 40
0.675147848390914
 40
0.715526526410547
 40
0.7550354653743462
 40
0.7931880800908636
 40
0.8295361410864149
 40
0.8636936564461976
 40
0.886591079372225
 40
0.9081675315077887
 40
0.9284274411979768
 40
0.9474602290787417
 40
0.9654712887035325
 40
0.9828130345298466
 40
1.0
 40
1.0
 40
1.0
 40
1.0
 10
3081.203893200634
 20
1073.853028988632
 30
0.0
 10
3082.33617297147
 20
1073.59962456837
 30
0.0
 10
3090.45827366803
 20
1071.781896943689
 30
0.0
 10
3105.749299886764
 20
1068.132829136664
 30
0.0
 10
3127.378431688712
 20
1062.819054270607
 30
0.0
 10
3149.785679325887
 20
1057.045100216978
 30
0.0
 10
3171.008260451981
 20
1051.35092730717
 30
0.0
 10
3190.950368846275
 20
1045.808291352465
 30
0.0
 10
3209.519053018296
 20
1040.49437150677
 30
0.0
 10
3228.547952565291
 20
1034.890518432319
 30
0.0
 10
3248.041187591321
 20
1028.992323743751
 30
0.0
 10
3267.914307496976
 20
1022.802174969317
 30
0.0
 10
3285.291898609149
 20
1017.294042487858
 30
0.0
 10
3300.092032899857
 20
1012.764527219945
 30
0.0
 10
3312.038881825784
 20
1009.2793966977
 30
0.0
 10
3323.74940636964
 20
1006.11471713762
 30
0.0
 10
3335.12529857214
 20
1003.376418610177
 30
0.0
 10
3345.132589652393
 20
1001.358542829178
 30
0.0
 10
3353.741399759155
 20
1000.006244907997
 30
0.0
 10
3360.953712680853
 20
999.1935171654334
 30
0.0
 10
3367.830790563959
 20
998.7896865586649
 30
0.0
 10
3374.348177325642
 20
998.8328179033791
 30
0.0
 10
3380.456565767106
 20
999.3838286579859
 30
0.0
 10
3386.180521073136
 20
1000.440250665794
 30
0.0
 10
3389.522382356496
 20
1001.631622488294
 30
0.0
 10
3391.185822789879
 20
1002.224638144152
 30
0.0
  0
LINE
  5
1B5
330
1F
100
AcDbEntity
  8
0
  6
Continuous
 62
     7
370
    15
100
AcDbLine
 10
2745.7832871057
 20
1087.7304940675
 30
0.0
 11
2745.7832871057
 21
1097.5289838101
 31
0.0
  0
LWPOLYLINE
  5
1B6
330
1F
100
AcDbEntity
  8
0
  6
Continuous
 62
     7
370
    15
100
AcDbPolyline
 90
       33
 70
   128
 43
0.0
 10
2614.8594761828
 20
1148.3022809031
 10
2614.8649866402
 20
1147.6739152907
 10
2615.1046775403
 20
1144.1130161209
 10
2615.6980110976
 20
1140.5659290744
 10
2616.6430310747
 20
1137.0443489966
 10
2617.9366217143
 20
1133.5598866356
 10
2619.5745180118
 20
1130.1240303614
 10
2621.5513197773
 20
1126.7481082883
 10
2623.8605094399
 20
1123.4432509261
 10
2626.4944735367
 20
1120.220354482
 10
2629.4445278143
 20
1117.0900449358
 10
2632.7009458611
 20
1114.0626430057
 10
2636.2529911756
 20
1111.1481301209
 10
2640.0889525648
 20
1108.3561155117
 10
2644.1961827568
 20
1105.6958045287
 10
2648.5611400984
 20
1103.1759682916
 10
2653.1694332031
 20
1100.8049147711
 10
2658.0058683994
 20
1098.590461397
 10
2663.0544998251
 20
1096.5399092842
 10
2668.2986820009
 20
1094.6600191604
 10
2673.7211247113
 20
1092.9569890759
 10
2679.3039500108
 20
1091.4364339688
 10
2685.0287511681
 20
1090.1033671517
 10
2690.8766533533
 20
1088.9621837832
 10
2696.8283758693
 20
1088.016646377
 10
2702.8642957201
 20
1087.2698723963
 10
2708.964512309
 20
1086.7243239758
 10
2715.1089130509
 20
1086.381799804
 10
2721.2772396847
 20
1086.2434291927
 10
2727.4491550646
 20
1086.3096683536
 10
2733.6043102126
 20
1086.5802988944
 10
2739.72241141
 20
1087.0544285386
 10
2745.7832871057
 20
1087.7304940675
  0
LINE
  5
1B7
330
1F
100
AcDbEntity
  8
0
  6
Continuous
 62
     7
370
    15
100
AcDbLine
 10
2607.3674775243
 20
1168.8484715052
 30
0.0
 11
2607.3674775243
 21
1178.6469612478
 31
0.0
  0
LINE
  5
1B8
330
1F
100
AcDbEntity
  8
0
  6
Continuous
 62
     7
370
    15
100
AcDbLine
 10
2091.6736563196
 20
1267.4706251304
 30
0.0
 11
2091.6736563196
 21
1277.269114873
 31
0.0
  0
SPLINE
  5
1B9
330
1F
100
AcDbEntity
  8
0
  6
Continuous
 62
     7
370
    15
100
AcDbSpline
210
0.0
220
0.0
230
1.0
 70
     8
 71
     3
 72
    10
 73
     6
 74
     0
 42
0.00000001
 43
0.00000001
 40
0.0238961288234489
 40
0.0238961288234489
 40
0.0238961288234489
 40
0.0238961288234489
 40
0.3811362833574216
 40
0.752381329696074
 40
1.0
 40
1.0
 40
1.0
 40
1.0
 10
2091.673656319608
 20
1267.470625130416
 30
0.0
 10
2157.154289564401
 20
1258.482437129027
 30
0.0
 10
2277.99847669684
 20
1222.376520701865
 30
0.0
 10
2445.428808658255
 20
1177.745552568969
 30
0.0
 10
2559.909303200769
 20
1167.988927117197
 30
0.0
 10
2607.367477524308
 20
1168.848471505196
 30
0.0
  0
LWPOLYLINE
  5
1BA
330
1F
100
AcDbEntity
  8
0
  6
Continuous
 62
     7
370
    15
100
AcDbPolyline
 90
        9
 70
   128
 43
0.0
 10
2745.7832871057
 20
1087.7304940675
 10
2747.7898528945
 20
1087.8682626787
 10
2749.8034290745
 20
1087.7703444985
 10
2751.7417961114
 20
1087.4407377799
 10
2753.5258054555
 20
1086.8929012196
 10
2755.0826113813
 20
1086.1492044041
 10
2756.3486454682
 20
1085.2400144019
 10
2757.272212263
 20
1084.2024557972
 10
2757.7527684232
 20
1083.2696832399
  0
LINE
  5
1BB
330
1F
100
AcDbEntity
  8
0
  6
Continuous
 62
     7
370
    15
100
AcDbLine
 10
2790.0248099273
 20
1100.0725283027
 30
0.0
 11
2790.0248099273
 21
1109.8710180454
 31
0.0
  0
ARC
  5
1BC
330
1F
100
AcDbEntity
  8
0
  6
Continuous
 62
     7
370
    15
100
AcDbCircle
 10
2793.1004980758
 20
1092.9991376392
 30
0.0
 40
7.71315195400285
100
AcDbArc
 50
113.5006155185
 51
138.3012742237
  0
ARC
  5
1BD
330
1F
100
AcDbEntity
  8
0
  6
Continuous
 62
     7
370
    15
100
AcDbCircle
 10
2747.4779501329
 20
1192.1362859118
 30
0.0
 40
101.4197749132637
100
AcDbArc
 50
294.8038112097
 51
305.0018620894
  0
LWPOLYLINE
  5
1BE
330
1F
100
AcDbEntity
  8
0
  6
Continuous
 62
     7
370
    15
100
AcDbPolyline
 90
       35
 70
   128
 43
0.0
 10
2770.5876179607
 20
1153.2015257744
 10
2770.437919146
 20
1153.6694586173
 10
2769.4762781497
 20
1156.0036141105
 10
2768.1752044938
 20
1158.2822813214
 10
2766.5440724436
 20
1160.4890424006
 10
2764.594634343
 20
1162.607997584
 10
2762.3409359381
 20
1164.6238797509
 10
2759.7992151777
 20
1166.522164424
 10
2756.987785218
 20
1168.2891744189
 10
2753.9269024764
 20
1169.912178388
 10
2750.638620683
 20
1171.3794825506
 10
2747.1466319837
 20
1172.6805149464
 10
2743.4760962369
 20
1173.8059016074
 10
2739.6534597369
 20
1174.7475340968
 10
2735.7062646672
 20
1175.4986279309
 10
2731.6629506588
 20
1176.0537714614
 10
2727.5526498817
 20
1176.4089648666
 10
2723.4049771473
 20
1176.5616489698
 10
2719.2498165326
 20
1176.5107236784
 10
2715.117106065
 20
1176.2565559105
 10
2711.0366220182
 20
1175.8009769506
 10
2707.0377643733
 20
1175.1472692555
 10
2703.1493449912
 20
1174.3001428042
 10
2699.3993800226
 20
1173.2657011622
 10
2695.8148880512
 20
1172.0513975052
 10
2692.4216954236
 20
1170.6659809188
 10
2689.2442501705
 20
1169.1194333614
 10
2686.3054458579
 20
1167.4228977434
 10
2683.626456638
 20
1165.588597643
 10
2681.2265846896
 20
1163.6297492344
 10
2679.1231211452
 20
1161.5604660652
 10
2677.3312215076
 20
1159.3956573681
 10
2675.863796455
 20
1157.1509206394
 10
2674.7314188183
 20
1154.8424292586
 10
2674.1438196196
 20
1153.2015257744
  0
LWPOLYLINE
  5
1BF
330
1F
100
AcDbEntity
  8
0
  6
Continuous
 62
     7
370
    15
100
AcDbPolyline
 90
        3
 70
   128
 43
0.0
 10
2829.5440090134
 20
1143.4583483463
 10
2829.7517089154
 20
1145.3676756067
 10
2829.8719613975
 20
1148.3022809031
  0
ARC
  5
1C0
330
1F
100
AcDbEntity
  8
0
  6
Continuous
 62
     7
370
    15
100
AcDbCircle
 10
2608.1760856284
 20
1155.6878858167
 30
0.0
 40
13.18540339655725
100
AcDbArc
 50
54.5119818535
 51
93.5159273974
  0
SPLINE
  5
1C1
330
1F
100
AcDbEntity
  8
0
  6
Continuous
 62
     7
370
    15
100
AcDbSpline
210
0.0
220
0.0
230
1.0
 70
     8
 71
     3
 72
    24
 73
    20
 74
     0
 42
0.00000001
 43
0.00000001
 40
0.0
 40
0.0
 40
0.0
 40
0.0
 40
0.0758680093720821
 40
0.1564797336019324
 40
0.2332559761923138
 40
0.3062721664784125
 40
0.3850407206279908
 40
0.4591168228370335
 40
0.5285982037097087
 40
0.593577206224845
 40
0.6541406086112604
 40
0.7094029724107838
 40
0.7605555147029923
 40
0.8076639797229739
 40
0.850788519614438
 40
0.8970079441750161
 40
0.9377404025212841
 40
0.9730577334439157
 40
0.9999999999999999
 40
0.9999999999999999
 40
0.9999999999999999
 40
0.9999999999999999
 10
2601.276291590106
 20
1343.683551974941
 30
0.0
 10
2603.410838388234
 20
1340.373888853811
 30
0.0
 10
2607.813396424174
 20
1333.547622977154
 30
0.0
 10
2614.003452973039
 20
1323.29397203031
 30
0.0
 10
2619.847505428888
 20
1313.113052140508
 30
0.0
 10
2625.341277300567
 20
1302.957024932637
 30
0.0
 10
2630.455743672736
 20
1292.86596234364
 30
0.0
 10
2635.153970090009
 20
1282.878081382748
 30
0.0
 10
2639.244388261104
 20
1273.461995258481
 30
0.0
 10
2642.77351218694
 20
1264.614926818697
 30
0.0
 10
2645.77200957021
 20
1256.378157544027
 30
0.0
 10
2648.293726384276
 20
1248.742676868466
 30
0.0
 10
2650.391347297279
 20
1241.699360351308
 30
0.0
 10
2652.125936730884
 20
1235.194380242021
 30
0.0
 10
2653.618516302849
 20
1228.90117750732
 30
0.0
 10
2654.866254579515
 20
1222.88900218606
 30
0.0
 10
2655.8813632978
 20
1217.227609102558
 30
0.0
 10
2656.632078770494
 20
1212.45303826807
 30
0.0
 10
2657.052359722843
 20
1209.565123455542
 30
0.0
 10
2657.2342324285
 20
1208.315404957169
 30
0.0
  0
LWPOLYLINE
  5
1C2
330
1F
100
AcDbEntity
  8
0
  6
Continuous
 62
     7
370
    15
100
AcDbPolyline
 90
       23
 70
   128
 43
0.0
 10
2040.0149129177
 20
1279.8232845026
 10
2040.0848004819
 20
1278.6367019901
 10
2040.4873749401
 20
1276.7483877508
 10
2041.2432754286
 20
1274.8965453041
 10
2042.3435361029
 20
1273.1031396198
 10
2043.7751066129
 20
1271.3894425405
 10
2045.5210068949
 20
1269.7757804739
 10
2047.5605285745
 20
1268.2812932978
 10
2049.8694805917
 20
1266.9237073397
 10
2052.4204761345
 20
1265.7191251218
 10
2055.1832574778
 20
1264.6818343671
 10
2058.1250548746
 20
1263.8241385304
 10
2061.210975243
 20
1263.1562108655
 10
2064.4044160375
 20
1262.6859737584
 10
2067.6674993976
 20
1262.4190047591
 10
2070.961521422
 20
1262.3584704253
 10
2074.2474112418
 20
1262.5050887635
 10
2077.4861944451
 20
1262.8571207125
 10
2080.6394553586
 20
1263.4103907706
 10
2083.6697927009
 20
1264.1583365222
 10
2086.5412632049
 20
1265.092086475
 10
2089.219807946
 20
1266.2005652866
 10
2091.6736563196
 20
1267.4706251304
  0
LINE
  5
1C3
330
1F
100
AcDbEntity
  8
0
  6
Continuous
 62
     8
370
    15
100
AcDbLine
 10
2658.3294139757
 20
1210.071357622
 30
0.0
 11
2658.3294139757
 21
1211.5621450608
 31
0.0
  0
LINE
  5
1C4
330
1F
100
AcDbEntity
  8
0
  6
Continuous
 62
     8
370
    15
100
AcDbLine
 10
2686.7748164169
 20
1224.1257879953
 30
0.0
 11
2686.7748164169
 21
1224.4878422399
 31
0.0
  0
LINE
  5
1C5
330
1F
100
AcDbEntity
  8
0
  6
Continuous
 62
     7
370
    15
100
AcDbLine
 10
3709.798677517
 20
-1328.873520651
 30
0.0
 11
3718.2839588912
 21
-1323.97507198
 31
0.0
  0
LINE
  5
1C6
330
1F
100
AcDbEntity
  8
0
  6
Continuous
 62
     7
370
    15
100
AcDbLine
 10
2733.9877735494
 20
-916.5895862314
 30
0.0
 11
2725.5024921752
 21
-921.4880349024
 31
0.0
  0
LINE
  5
1C7
330
1F
100
AcDbEntity
  8
0
  6
Continuous
 62
     7
370
    15
100
AcDbLine
 10
4411.481381129
 20
-924.7567847071
 30
0.0
 11
4419.9666625032
 21
-919.8583360361
 31
0.0
  0
LINE
  5
1C8
330
1F
100
AcDbEntity
  8
0
  6
Continuous
 62
     7
370
    15
100
AcDbLine
 10
3620.3720792729
 20
-1534.7035498172
 30
0.0
 11
3620.3720792729
 21
-1544.5020395598
 31
0.0
  0
LINE
  5
1C9
330
1F
100
AcDbEntity
  8
0
  6
Continuous
 62
     7
370
    15
100
AcDbLine
 10
3681.7312238797
 20
-1542.1386956995
 30
0.0
 11
3681.7312238797
 21
-1532.3402059568
 31
0.0
  0
LINE
  5
1CA
330
1F
100
AcDbEntity
  8
0
  6
Continuous
 62
     7
370
    15
100
AcDbLine
 10
3458.1943742848
 20
-1232.1694336754
 30
0.0
 11
3458.1943742848
 21
-1241.967923418
 31
0.0
  0
LINE
  5
1CB
330
1F
100
AcDbEntity
  8
0
  6
Continuous
 62
     7
370
    15
100
AcDbLine
 10
4105.1581305242
 20
-1299.579606013
 30
0.0
 11
4105.1581305242
 21
-1289.7811162704
 31
0.0
  0
LINE
  5
1CC
330
1F
100
AcDbEntity
  8
0
  6
Continuous
 62
     7
370
    15
100
AcDbLine
 10
3530.313567259
 20
-1168.0586024135
 30
0.0
 11
3530.313567259
 21
-1158.2601126709
 31
0.0
  0
LINE
  5
1CD
330
1F
100
AcDbEntity
  8
0
  6
Continuous
 62
     7
370
    15
100
AcDbLine
 10
3163.8834254237
 20
-784.180019385
 30
0.0
 11
3163.8834254237
 21
-793.9785091276
 31
0.0
  0
LINE
  5
1CE
330
1F
100
AcDbEntity
  8
0
  6
Continuous
 62
     7
370
    15
100
AcDbLine
 10
3387.4202750186
 20
-1084.7371260503
 30
0.0
 11
3387.4202750186
 21
-1084.3507916665
 31
0.0
  0
LINE
  5
1CF
330
1F
100
AcDbEntity
  8
0
  6
Continuous
 62
     7
370
    15
100
AcDbLine
 10
2740.4565187793
 20
-1026.7391090714
 30
0.0
 11
2740.4565187793
 21
-1036.537598814
 31
0.0
  0
LINE
  5
1D0
330
1F
100
AcDbEntity
  8
0
  6
Continuous
 62
     7
370
    15
100
AcDbLine
 10
3225.2425700306
 20
-791.6151652672
 30
0.0
 11
3225.2425700306
 21
-781.8166755246
 31
0.0
  0
LINE
  5
1D1
330
1F
100
AcDbEntity
  8
0
  6
Continuous
 62
     7
370
    15
100
AcDbLine
 10
2510.9581602916
 20
-277.8031638759
 30
0.0
 11
2510.9581602916
 21
-287.6016536185
 31
0.0
  0
LINE
  5
1D2
330
1F
100
AcDbEntity
  8
0
  6
Continuous
 62
     7
370
    15
100
AcDbLine
 10
2510.9581602916
 20
-277.8031638759
 30
0.0
 11
3783.7503664274
 21
-1012.5704645163
 31
0.0
  0
LINE
  5
1D3
330
1F
100
AcDbEntity
  8
0
  6
Continuous
 62
     7
370
    15
100
AcDbLine
 10
3783.7503664274
 20
-1012.5704645163
 30
0.0
 11
3783.7503664274
 21
-1022.368954259
 31
0.0
  0
LINE
  5
1D4
330
1F
100
AcDbEntity
  8
0
  6
Continuous
 62
     7
370
    15
100
AcDbLine
 10
2510.9581602916
 20
-287.6016536185
 30
0.0
 11
3783.7503664274
 21
-1022.368954259
 31
0.0
  0
LINE
  5
1D5
330
1F
100
AcDbEntity
  8
0
  6
Continuous
 62
     7
370
    15
100
AcDbLine
 10
4349.4357913767
 20
-686.0072197872
 30
0.0
 11
3076.6435852409
 21
48.7600808532
 31
0.0
  0
LINE
  5
1D6
330
1F
100
AcDbEntity
  8
0
  6
Continuous
 62
     7
370
    15
100
AcDbLine
 10
3783.7503664274
 20
-1012.5704645163
 30
0.0
 11
4349.4357913767
 21
-686.0072197872
 31
0.0
  0
LINE
  5
1D7
330
1F
100
AcDbEntity
  8
0
  6
Continuous
 62
     7
370
    15
100
AcDbLine
 10
3076.6435852409
 20
48.7600808532
 30
0.0
 11
2510.9581602916
 21
-277.8031638759
 31
0.0
  0
LINE
  5
1D8
330
1F
100
AcDbEntity
  8
0
  6
Continuous
 62
     7
370
    15
100
AcDbLine
 10
2696.0155320166
 20
-307.8921480922
 30
0.0
 11
2731.370871076
 21
-328.3023508878
 31
0.0
  0
LINE
  5
1D9
330
1F
100
AcDbEntity
  8
0
  6
Continuous
 62
     7
370
    15
100
AcDbLine
 10
2731.370871076
 20
-328.3023508878
 30
0.0
 11
2739.8561524502
 21
-323.4039022169
 31
0.0
  0
LINE
  5
1DA
330
1F
100
AcDbEntity
  8
0
  6
Continuous
 62
     7
370
    15
100
AcDbLine
 10
2739.8561524502
 20
-323.4039022169
 30
0.0
 11
2704.5008133909
 21
-302.9936994213
 31
0.0
  0
LINE
  5
1DB
330
1F
100
AcDbEntity
  8
0
  6
Continuous
 62
     7
370
    15
100
AcDbLine
 10
2704.5008133909
 20
-302.9936994213
 30
0.0
 11
2696.0155320166
 21
-307.8921480922
 31
0.0
  0
LINE
  5
1DC
330
1F
100
AcDbEntity
  8
0
  6
Continuous
 62
     7
370
    15
100
AcDbLine
 10
2886.1026723635
 20
-417.62711844
 30
0.0
 11
2921.4580114228
 21
-438.0373212355
 31
0.0
  0
LINE
  5
1DD
330
1F
100
AcDbEntity
  8
0
  6
Continuous
 62
     7
370
    15
100
AcDbLine
 10
2921.4580114228
 20
-438.0373212355
 30
0.0
 11
2929.9432927971
 21
-433.1388725646
 31
0.0
  0
LINE
  5
1DE
330
1F
100
AcDbEntity
  8
0
  6
Continuous
 62
     7
370
    15
100
AcDbLine
 10
2929.9432927971
 20
-433.1388725646
 30
0.0
 11
2894.5879537377
 21
-412.728669769
 31
0.0
  0
LINE
  5
1DF
330
1F
100
AcDbEntity
  8
0
  6
Continuous
 62
     7
370
    15
100
AcDbLine
 10
2894.5879537377
 20
-412.728669769
 30
0.0
 11
2886.1026723635
 21
-417.62711844
 31
0.0
  0
LINE
  5
1E0
330
1F
100
AcDbEntity
  8
0
  6
Continuous
 62
     7
370
    15
100
AcDbLine
 10
3120.0304331439
 20
-542.8738429123
 30
0.0
 11
3084.6750940846
 21
-522.4636401168
 31
0.0
  0
LINE
  5
1E1
330
1F
100
AcDbEntity
  8
0
  6
Continuous
 62
     7
370
    15
100
AcDbLine
 10
3084.6750940846
 20
-522.4636401168
 30
0.0
 11
3076.1898127104
 21
-527.3620887877
 31
0.0
  0
LINE
  5
1E2
330
1F
100
AcDbEntity
  8
0
  6
Continuous
 62
     7
370
    15
100
AcDbLine
 10
3076.1898127104
 20
-527.3620887877
 30
0.0
 11
3111.5451517697
 21
-547.7722915833
 31
0.0
  0
LINE
  5
1E3
330
1F
100
AcDbEntity
  8
0
  6
Continuous
 62
     7
370
    15
100
AcDbLine
 10
3111.5451517697
 20
-547.7722915833
 30
0.0
 11
3120.0304331439
 21
-542.8738429123
 31
0.0
  0
LINE
  5
1E4
330
1F
100
AcDbEntity
  8
0
  6
Continuous
 62
     7
370
    15
100
AcDbLine
 10
3541.5419292186
 20
-796.0041474409
 30
0.0
 11
3550.0272105929
 21
-791.10569877
 31
0.0
  0
LINE
  5
1E5
330
1F
100
AcDbEntity
  8
0
  6
Continuous
 62
     7
370
    15
100
AcDbLine
 10
3550.0272105929
 20
-791.10569877
 30
0.0
 11
3514.6718715336
 21
-770.6954959744
 31
0.0
  0
LINE
  5
1E6
330
1F
100
AcDbEntity
  8
0
  6
Continuous
 62
     7
370
    15
100
AcDbLine
 10
3514.6718715336
 20
-770.6954959744
 30
0.0
 11
3506.1865901593
 21
-775.5939446454
 31
0.0
  0
LINE
  5
1E7
330
1F
100
AcDbEntity
  8
0
  6
Continuous
 62
     7
370
    15
100
AcDbLine
 10
3506.1865901593
 20
-775.5939446454
 30
0.0
 11
3541.5419292186
 21
-796.0041474409
 31
0.0
  0
LINE
  5
1E8
330
1F
100
AcDbEntity
  8
0
  6
Continuous
 62
     7
370
    15
100
AcDbLine
 10
3351.4547888718
 20
-686.2691770932
 30
0.0
 11
3359.940070246
 21
-681.3707284223
 31
0.0
  0
LINE
  5
1E9
330
1F
100
AcDbEntity
  8
0
  6
Continuous
 62
     7
370
    15
100
AcDbLine
 10
3359.940070246
 20
-681.3707284223
 30
0.0
 11
3324.5847311867
 21
-660.9605256267
 31
0.0
  0
LINE
  5
1EA
330
1F
100
AcDbEntity
  8
0
  6
Continuous
 62
     7
370
    15
100
AcDbLine
 10
3324.5847311867
 20
-660.9605256267
 30
0.0
 11
3316.0994498125
 21
-665.8589742976
 31
0.0
  0
LINE
  5
1EB
330
1F
100
AcDbEntity
  8
0
  6
Continuous
 62
     7
370
    15
100
AcDbLine
 10
3316.0994498125
 20
-665.8589742976
 30
0.0
 11
3351.4547888718
 21
-686.2691770932
 31
0.0
  0
LINE
  5
1EC
330
1F
100
AcDbEntity
  8
0
  6
Continuous
 62
     7
370
    15
100
AcDbLine
 10
3731.6290695655
 20
-905.7391177886
 30
0.0
 11
3740.1143509398
 21
-900.8406691177
 31
0.0
  0
LINE
  5
1ED
330
1F
100
AcDbEntity
  8
0
  6
Continuous
 62
     7
370
    15
100
AcDbLine
 10
3740.1143509398
 20
-900.8406691177
 30
0.0
 11
3704.7590118804
 21
-880.4304663221
 31
0.0
  0
LINE
  5
1EE
330
1F
100
AcDbEntity
  8
0
  6
Continuous
 62
     7
370
    15
100
AcDbLine
 10
3704.7590118804
 20
-880.4304663221
 30
0.0
 11
3696.2737305062
 21
-885.3289149931
 31
0.0
  0
LINE
  5
1EF
330
1F
100
AcDbEntity
  8
0
  6
Continuous
 62
     7
370
    15
100
AcDbLine
 10
3696.2737305062
 20
-885.3289149931
 30
0.0
 11
3731.6290695655
 21
-905.7391177886
 31
0.0
  0
LINE
  5
1F0
330
1F
100
AcDbEntity
  8
0
  6
Continuous
 62
     7
370
    15
100
AcDbLine
 10
4122.3567519066
 20
-639.3564224103
 30
0.0
 11
4157.7120909659
 21
-659.7666252059
 31
0.0
  0
LINE
  5
1F1
330
1F
100
AcDbEntity
  8
0
  6
Continuous
 62
     7
370
    15
100
AcDbLine
 10
4157.7120909659
 20
-659.7666252059
 30
0.0
 11
4166.1973723402
 21
-654.868176535
 31
0.0
  0
LINE
  5
1F2
330
1F
100
AcDbEntity
  8
0
  6
Continuous
 62
     7
370
    15
100
AcDbLine
 10
4166.1973723402
 20
-654.868176535
 30
0.0
 11
4130.8420332808
 21
-634.4579737394
 31
0.0
  0
LINE
  5
1F3
330
1F
100
AcDbEntity
  8
0
  6
Continuous
 62
     7
370
    15
100
AcDbLine
 10
4130.8420332808
 20
-634.4579737394
 30
0.0
 11
4122.3567519066
 21
-639.3564224103
 31
0.0
  0
LINE
  5
1F4
330
1F
100
AcDbEntity
  8
0
  6
Continuous
 62
     7
370
    15
100
AcDbLine
 10
3940.754892934
 20
-524.7230033917
 30
0.0
 11
3932.2696115597
 21
-529.6214520626
 31
0.0
  0
LINE
  5
1F5
330
1F
100
AcDbEntity
  8
0
  6
Continuous
 62
     7
370
    15
100
AcDbLine
 10
3932.2696115597
 20
-529.6214520626
 30
0.0
 11
3967.6249506191
 21
-550.0316548582
 31
0.0
  0
LINE
  5
1F6
330
1F
100
AcDbEntity
  8
0
  6
Continuous
 62
     7
370
    15
100
AcDbLine
 10
3967.6249506191
 20
-550.0316548582
 30
0.0
 11
3976.1102319933
 21
-545.1332061872
 31
0.0
  0
LINE
  5
1F7
330
1F
100
AcDbEntity
  8
0
  6
Continuous
 62
     7
370
    15
100
AcDbLine
 10
3976.1102319933
 20
-545.1332061872
 30
0.0
 11
3940.754892934
 21
-524.7230033917
 31
0.0
  0
LINE
  5
1F8
330
1F
100
AcDbEntity
  8
0
  6
Continuous
 62
     7
370
    15
100
AcDbLine
 10
3786.0230916464
 20
-435.3982358395
 30
0.0
 11
3750.6677525871
 21
-414.9880330439
 31
0.0
  0
LINE
  5
1F9
330
1F
100
AcDbEntity
  8
0
  6
Continuous
 62
     7
370
    15
100
AcDbLine
 10
3750.6677525871
 20
-414.9880330439
 30
0.0
 11
3742.1824712129
 21
-419.8864817149
 31
0.0
  0
LINE
  5
1FA
330
1F
100
AcDbEntity
  8
0
  6
Continuous
 62
     7
370
    15
100
AcDbLine
 10
3742.1824712129
 20
-419.8864817149
 30
0.0
 11
3777.5378102722
 21
-440.2966845105
 31
0.0
  0
LINE
  5
1FB
330
1F
100
AcDbEntity
  8
0
  6
Continuous
 62
     7
370
    15
100
AcDbLine
 10
3777.5378102722
 20
-440.2966845105
 30
0.0
 11
3786.0230916464
 21
-435.3982358395
 31
0.0
  0
LINE
  5
1FC
330
1F
100
AcDbEntity
  8
0
  6
Continuous
 62
     7
370
    15
100
AcDbLine
 10
3320.6709751382
 20
-166.7561771863
 30
0.0
 11
3312.1856937639
 21
-171.6546258572
 31
0.0
  0
LINE
  5
1FD
330
1F
100
AcDbEntity
  8
0
  6
Continuous
 62
     7
370
    15
100
AcDbLine
 10
3312.1856937639
 20
-171.6546258572
 30
0.0
 11
3347.5410328232
 21
-192.0648286528
 31
0.0
  0
LINE
  5
1FE
330
1F
100
AcDbEntity
  8
0
  6
Continuous
 62
     7
370
    15
100
AcDbLine
 10
3347.5410328232
 20
-192.0648286528
 30
0.0
 11
3356.0263141975
 21
-187.1663799819
 31
0.0
  0
LINE
  5
1FF
330
1F
100
AcDbEntity
  8
0
  6
Continuous
 62
     7
370
    15
100
AcDbLine
 10
3356.0263141975
 20
-187.1663799819
 30
0.0
 11
3320.6709751382
 21
-166.7561771863
 31
0.0
  0
LINE
  5
200
330
1F
100
AcDbEntity
  8
0
  6
Continuous
 62
     7
370
    15
100
AcDbLine
 10
3510.758115485
 20
-276.491147534
 30
0.0
 11
3502.2728341108
 21
-281.3895962049
 31
0.0
  0
LINE
  5
201
330
1F
100
AcDbEntity
  8
0
  6
Continuous
 62
     7
370
    15
100
AcDbLine
 10
3502.2728341108
 20
-281.3895962049
 30
0.0
 11
3537.6281731701
 21
-301.7997990005
 31
0.0
  0
LINE
  5
202
330
1F
100
AcDbEntity
  8
0
  6
Continuous
 62
     7
370
    15
100
AcDbLine
 10
3537.6281731701
 20
-301.7997990005
 30
0.0
 11
3546.1134545443
 21
-296.9013503296
 31
0.0
  0
LINE
  5
203
330
1F
100
AcDbEntity
  8
0
  6
Continuous
 62
     7
370
    15
100
AcDbLine
 10
3546.1134545443
 20
-296.9013503296
 30
0.0
 11
3510.758115485
 21
-276.491147534
 31
0.0
  0
LINE
  5
204
330
1F
100
AcDbEntity
  8
0
  6
Continuous
 62
     7
370
    15
100
AcDbLine
 10
3130.5838347913
 20
-57.0212068386
 30
0.0
 11
3122.098553417
 21
-61.9196555095
 31
0.0
  0
LINE
  5
205
330
1F
100
AcDbEntity
  8
0
  6
Continuous
 62
     7
370
    15
100
AcDbLine
 10
3122.098553417
 20
-61.9196555095
 30
0.0
 11
3157.4538924764
 21
-82.3298583051
 31
0.0
  0
LINE
  5
206
330
1F
100
AcDbEntity
  8
0
  6
Continuous
 62
     7
370
    15
100
AcDbLine
 10
3157.4538924764
 20
-82.3298583051
 30
0.0
 11
3165.9391738506
 21
-77.4314096341
 31
0.0
  0
LINE
  5
207
330
1F
100
AcDbEntity
  8
0
  6
Continuous
 62
     7
370
    15
100
AcDbLine
 10
3165.9391738506
 20
-77.4314096341
 30
0.0
 11
3130.5838347913
 21
-57.0212068386
 31
0.0
  0
LINE
  5
208
330
1F
100
AcDbEntity
  8
0
  6
Continuous
 62
     7
370
    15
100
AcDbLine
 10
4349.4357913767
 20
-686.0072197872
 30
0.0
 11
4349.4357913767
 21
-695.8057095299
 31
0.0
  0
LINE
  5
209
330
1F
100
AcDbEntity
  8
0
  6
Continuous
 62
     7
370
    15
100
AcDbLine
 10
3783.7503664274
 20
-1022.368954259
 30
0.0
 11
4349.4357913767
 21
-695.8057095299
 31
0.0
  0
LINE
  5
20A
330
1F
100
AcDbEntity
  8
0
  6
Continuous
 62
     7
370
    15
100
AcDbLine
 10
3704.7590118804
 20
-890.227363664
 30
0.0
 11
3704.7590118804
 21
-880.4304663221
 31
0.0
  0
LINE
  5
20B
330
1F
100
AcDbEntity
  8
0
  6
Continuous
 62
     7
370
    15
100
AcDbLine
 10
3514.6718715336
 20
-780.4923933163
 30
0.0
 11
3514.6718715336
 21
-770.6954959744
 31
0.0
  0
LINE
  5
20C
330
1F
100
AcDbEntity
  8
0
  6
Continuous
 62
     7
370
    15
100
AcDbLine
 10
3324.5847311867
 20
-670.7574229686
 30
0.0
 11
3324.5847311867
 21
-660.9605256267
 31
0.0
  0
LINE
  5
20D
330
1F
100
AcDbEntity
  8
0
  6
Continuous
 62
     7
370
    15
100
AcDbLine
 10
4130.8420332808
 20
-644.2548710813
 30
0.0
 11
4130.8420332808
 21
-634.4579737394
 31
0.0
  0
LINE
  5
20E
330
1F
100
AcDbEntity
  8
0
  6
Continuous
 62
     7
370
    15
100
AcDbLine
 10
3940.754892934
 20
-534.5199007335
 30
0.0
 11
3940.754892934
 21
-524.7230033917
 31
0.0
  0
LINE
  5
20F
330
1F
100
AcDbEntity
  8
0
  6
Continuous
 62
     7
370
    15
100
AcDbLine
 10
3084.6750940846
 20
-532.2605374586
 30
0.0
 11
3084.6750940846
 21
-522.4636401168
 31
0.0
  0
LINE
  5
210
330
1F
100
AcDbEntity
  8
0
  6
Continuous
 62
     7
370
    15
100
AcDbLine
 10
3750.6677525871
 20
-424.7849303858
 30
0.0
 11
3750.6677525871
 21
-414.9880330439
 31
0.0
  0
LINE
  5
211
330
1F
100
AcDbEntity
  8
0
  6
Continuous
 62
     7
370
    15
100
AcDbLine
 10
2894.5879537377
 20
-422.5255671109
 30
0.0
 11
2894.5879537377
 21
-412.728669769
 31
0.0
  0
LINE
  5
212
330
1F
100
AcDbEntity
  8
0
  6
Continuous
 62
     7
370
    15
100
AcDbLine
 10
2704.5008133909
 20
-312.7905967632
 30
0.0
 11
2704.5008133909
 21
-302.9936994213
 31
0.0
  0
LINE
  5
213
330
1F
100
AcDbEntity
  8
0
  6
Continuous
 62
     7
370
    15
100
AcDbLine
 10
3510.758115485
 20
-286.2880448759
 30
0.0
 11
3510.758115485
 21
-276.491147534
 31
0.0
  0
LINE
  5
214
330
1F
100
AcDbEntity
  8
0
  6
Continuous
 62
     7
370
    15
100
AcDbLine
 10
3320.6709751382
 20
-176.5530745282
 30
0.0
 11
3320.6709751382
 21
-166.7561771863
 31
0.0
  0
LINE
  5
215
330
1F
100
AcDbEntity
  8
0
  6
Continuous
 62
     7
370
    15
100
AcDbLine
 10
3130.5838347913
 20
-66.8181041804
 30
0.0
 11
3130.5838347913
 21
-57.0212068386
 31
0.0
  0
LWPOLYLINE
  5
216
330
1F
100
AcDbEntity
  8
0
  6
Continuous
 62
     7
370
    15
100
AcDbPolyline
 90
       16
 70
   128
 43
0.0
 10
2930.9476894382
 20
-897.6185247542
 10
2932.1858093563
 20
-897.7436585576
 10
2933.3054486098
 20
-897.5413933988
 10
2934.2664423935
 20
-897.0189851334
 10
2935.0343169894
 20
-896.1951741064
 10
2935.5815264416
 20
-895.0995128808
 10
2935.8884407123
 20
-893.7713060981
 10
2935.9440498696
 20
-892.2582005037
 10
2935.7463590468
 20
-890.6144757159
 10
2935.3024600045
 20
-888.8990970536
 10
2934.6282767274
 20
-887.1736002744
 10
2933.747994184
 20
-885.4998841027
 10
2932.6931907389
 20
-883.9379897382
 10
2931.5017053431
 20
-882.543946998
 10
2930.2162801375
 20
-881.36776436
 10
2928.8830271645
 20
-880.4516350094
  0
LINE
  5
217
330
1F
100
AcDbEntity
  8
0
  6
Continuous
 62
     7
370
    15
100
AcDbLine
 10
2928.8830271645
 20
-880.4516350094
 30
0.0
 11
2543.4583286397
 21
-657.9506926168
 31
0.0
  0
SPLINE
  5
218
330
1F
100
AcDbEntity
  8
0
  6
Continuous
 62
     7
370
    15
100
AcDbSpline
210
0.0
220
0.0
230
1.0
 70
     8
 71
     3
 72
    24
 73
    20
 74
     0
 42
0.00000001
 43
0.00000001
 40
0.0
 40
0.0
 40
0.0
 40
0.0
 40
0.0525941424247521
 40
0.1047501384555693
 40
0.156694902968005
 40
0.2085886100684844
 40
0.2605323763528324
 40
0.3125775079483759
 40
0.3945830780682249
 40
0.4767704756188387
 40
0.5589635460057734
 40
0.6205091675623599
 40
0.6819254970989107
 40
0.7432308088878081
 40
0.8045213594621008
 40
0.8527950065085567
 40
0.90132582462027
 40
0.9503107924995556
 40
0.9999999999999999
 40
0.9999999999999999
 40
0.9999999999999999
 40
0.9999999999999999
 10
2543.458328639675
 20
-657.950692616753
 30
0.0
 10
2544.544860788742
 20
-663.7031122270631
 30
0.0
 10
2546.708873505823
 20
-675.1600297249884
 30
0.0
 10
2551.013398475041
 20
-692.5689398085484
 30
0.0
 10
2555.943851726532
 20
-709.9918682420458
 30
0.0
 10
2561.483040806518
 20
-727.4498410783665
 30
0.0
 10
2567.509609602502
 20
-744.9312276044146
 30
0.0
 10
2575.158151084122
 20
-765.7791111580254
 30
0.0
 10
2584.551512108787
 20
-789.9840067142338
 30
0.0
 10
2595.578255789933
 20
-817.5257047791735
 30
0.0
 10
2605.659820060137
 20
-842.7846567225406
 30
0.0
 10
2614.529606285188
 20
-865.7510019535874
 30
0.0
 10
2622.119706114016
 20
-886.4055746062883
 30
0.0
 10
2629.158539984141
 20
-907.0434519450439
 30
0.0
 10
2635.028803768397
 20
-926.1803558893758
 30
0.0
 10
2639.77720808046
 20
-943.8063950918554
 30
0.0
 10
2643.494008049223
 20
-959.9348257240206
 30
0.0
 10
2646.571389127039
 20
-976.0560989172694
 30
0.0
 10
2647.932986470526
 20
-986.6161198526148
 30
0.0
 10
2648.618644016406
 20
-991.9338138636986
 30
0.0
  0
LWPOLYLINE
  5
219
330
1F
100
AcDbEntity
  8
0
  6
Continuous
 62
     7
370
    15
100
AcDbPolyline
 90
       34
 70
   128
 43
0.0
 10
2648.6186440164
 20
-991.9338138637
 10
2654.3734680865
 20
-984.2226893905
 10
2660.3421229362
 20
-976.7875487028
 10
2666.5215777406
 20
-969.6321672928
 10
2672.9086946326
 20
-962.7601785937
 10
2679.5002302965
 20
-956.1750721343
 10
2686.2928376145
 20
-949.8801917679
 10
2693.2830673667
 20
-943.8787339733
 10
2700.4673699823
 20
-938.1737462325
 10
2707.8420973424
 20
-932.7681254828
 10
2715.4035046322
 20
-927.6646166458
 10
2723.1477522426
 20
-922.8658112337
 10
2731.0709077198
 20
-918.3741460332
 10
2739.1689477627
 20
-914.1919018682
 10
2747.4377602653
 20
-910.3212024417
 10
2755.873146405
 20
-906.7640132571
 10
2764.4708227746
 20
-903.5221406205
 10
2773.2264235579
 20
-900.5972307234
 10
2782.1355027458
 20
-897.9907688065
 10
2791.1935363946
 20
-895.7040784058
 10
2800.3959249229
 20
-893.7383206806
 10
2809.7379954473
 20
-892.0944938234
 10
2819.2150041552
 20
-890.7734325535
 10
2828.8221387138
 20
-889.775807693
 10
2838.5545207135
 20
-889.1021258261
 10
2848.4072081455
 20
-888.752729042
 10
2858.3751979108
 20
-888.7277947608
 10
2868.4534283612
 20
-889.027335644
 10
2878.6367818693
 20
-889.6511995877
 10
2888.9200874273
 20
-890.5990697997
 10
2899.2981232725
 20
-891.8704649609
 10
2909.7656195393
 20
-893.4647394691
 10
2920.3172609348
 20
-895.3810837672
 10
2930.9476894382
 20
-897.6185247542
  0
SPLINE
  5
21A
330
1F
100
AcDbEntity
  8
0
  6
Continuous
 62
     7
370
    15
100
AcDbSpline
210
0.0
220
0.0
230
1.0
 70
     8
 71
     3
 72
    26
 73
    22
 74
     0
 42
0.00000001
 43
0.00000001
 40
0.0
 40
0.0
 40
0.0
 40
0.0
 40
0.0460216308324978
 40
0.0914225013940219
 40
0.1364056858208015
 40
0.1811350873754471
 40
0.2257370010773201
 40
0.2703029518971747
 40
0.3148934338405026
 40
0.376302175478347
 40
0.4378408119642425
 40
0.4994748454272205
 40
0.5611362295652874
 40
0.6227456872488054
 40
0.6842348643293645
 40
0.7455686889601417
 40
0.8067681710750014
 40
0.8548233532995908
 40
0.9029477537915422
 40
0.9512778686406758
 40
1.0
 40
1.0
 40
1.0
 40
1.0
 10
3502.329453179151
 20
-1484.770573667959
 30
0.0
 10
3502.958697352371
 20
-1480.574351670072
 30
0.0
 10
3504.208698172916
 20
-1472.238508187086
 30
0.0
 10
3506.975216184527
 20
-1460.520985031313
 30
0.0
 10
3510.299351996151
 20
-1449.439640668919
 30
0.0
 10
3514.184903069991
 20
-1438.975206143058
 30
0.0
 10
3518.551243734997
 20
-1429.045581927815
 30
0.0
 10
3523.340454577311
 20
-1419.585264570008
 30
0.0
 10
3529.133743658786
 20
-1409.389575464782
 30
0.0
 10
3536.013241183211
 20
-1398.551425780866
 30
0.0
 10
3543.977896785595
 20
-1387.082467202639
 30
0.0
 10
3552.181648159789
 20
-1375.884439608741
 30
0.0
 10
3560.46464825964
 20
-1364.779110581503
 30
0.0
 10
3568.667297463202
 20
-1353.588368768152
 30
0.0
 10
3576.629700472442
 20
-1342.133745108224
 30
0.0
 10
3584.192189008644
 20
-1330.23693616302
 30
0.0
 10
3590.692596838589
 20
-1318.609589392767
 30
0.0
 10
3596.140474479457
 20
-1307.273007491651
 30
0.0
 10
3600.593183391274
 20
-1296.289129342073
 30
0.0
 10
3604.496427795415
 20
-1284.68491005504
 30
0.0
 10
3606.489305071365
 20
-1276.374804267989
 30
0.0
 10
3607.489768555882
 20
-1272.202968153068
 30
0.0
  0
LINE
  5
21B
330
1F
100
AcDbEntity
  8
0
  6
Continuous
 62
     7
370
    15
100
AcDbLine
 10
3607.4897685559
 20
-1272.2029681531
 30
0.0
 11
3222.065070031
 21
-1049.7020257604
 31
0.0
  0
LWPOLYLINE
  5
21C
330
1F
100
AcDbEntity
  8
0
  6
Continuous
 62
     7
370
    15
100
AcDbPolyline
 90
       16
 70
   128
 43
0.0
 10
3222.065070031
 20
-1049.7020257604
 10
3220.731817058
 20
-1049.0788139941
 10
3219.4463918524
 20
-1048.7708762801
 10
3218.2549064567
 20
-1048.7892592641
 10
3217.2001030116
 20
-1049.1333034936
 10
3216.3198204681
 20
-1049.7906670743
 10
3215.6456371911
 20
-1050.7377684104
 10
3215.2017381487
 20
-1051.9406321476
 10
3215.004047326
 20
-1053.3561079699
 10
3215.0596564833
 20
-1054.9334185306
 10
3215.3665707539
 20
-1056.6159809876
 10
3215.9137802062
 20
-1058.3434367986
 10
3216.6816548021
 20
-1060.0538169629
 10
3217.6426485858
 20
-1061.6857650338
 10
3218.7622878392
 20
-1063.1807381586
 10
3220.0004077573
 20
-1064.4851071847
  0
LWPOLYLINE
  5
21D
330
1F
100
AcDbEntity
  8
0
  6
Continuous
 62
     7
370
    15
100
AcDbPolyline
 90
       34
 70
   128
 43
0.0
 10
3220.0004077573
 20
-1064.4851071847
 10
3230.6308362608
 20
-1074.5212976962
 10
3241.1824776563
 20
-1084.787619238
 10
3251.6499739231
 20
-1095.2788586721
 10
3262.0280097683
 20
-1105.989688649
 10
3272.3113153262
 20
-1116.9146703133
 10
3282.4946688343
 20
-1128.0482560658
 10
3292.5728992848
 20
-1139.3847923798
 10
3302.5408890501
 20
-1150.9185226724
 10
3312.393576482
 20
-1162.6435902275
 10
3322.1259584818
 20
-1174.5540411699
 10
3331.7330930403
 20
-1186.6438274884
 10
3341.2101017482
 20
-1198.9068101071
 10
3350.5521722726
 20
-1211.3367620026
 10
3359.7545608009
 20
-1223.9273713663
 10
3368.8125944497
 20
-1236.6722448092
 10
3377.7216736376
 20
-1249.5649106085
 10
3386.4772744209
 20
-1262.5988219938
 10
3395.0749507906
 20
-1275.7673604718
 10
3403.5103369302
 20
-1289.0638391866
 10
3411.7791494328
 20
-1302.4815063157
 10
3419.8771894757
 20
-1316.0135484982
 10
3427.800344953
 20
-1329.6530942946
 10
3435.5445925633
 20
-1343.3932176763
 10
3443.1059998531
 20
-1357.2269415423
 10
3450.4807272133
 20
-1371.1472412619
 10
3457.6650298289
 20
-1385.1470482426
 10
3464.6552595811
 20
-1399.2192535183
 10
3471.4478668991
 20
-1413.3567113602
 10
3478.0394025629
 20
-1427.5522429046
 10
3484.426519455
 20
-1441.7986397986
 10
3490.6059742594
 20
-1456.0886678605
 10
3496.5746291091
 20
-1470.415070753
 10
3502.3294531792
 20
-1484.770573668
  0
LINE
  5
21E
330
1F
100
AcDbEntity
  8
0
  6
Continuous
 62
     7
370
    15
100
AcDbLine
 10
3525.9182938866
 20
-1643.9811895826
 30
0.0
 11
3525.9182938866
 21
-1634.1826998399
 31
0.0
  0
LINE
  5
21F
330
1F
100
AcDbEntity
  8
0
  6
Continuous
 62
     7
370
    15
100
AcDbLine
 10
3525.9182938866
 20
-1634.1826998399
 30
0.0
 11
3515.4318288446
 21
-1628.128992428
 31
0.0
  0
LWPOLYLINE
  5
220
330
1F
100
AcDbEntity
  8
0
  6
Continuous
 62
     7
370
    15
100
AcDbPolyline
 90
       48
 70
   128
 43
0.0
 10
3159.4461724748
 20
-1054.3799462511
 10
3169.9361187315
 20
-1062.832764939
 10
3180.3749333615
 20
-1071.5372248939
 10
3190.756965911
 20
-1080.4886144553
 10
3201.0765966617
 20
-1089.6820883017
 10
3211.3282396731
 20
-1099.1126700731
 10
3221.506345806
 20
-1108.7752550645
 10
3231.6054057259
 20
-1118.6646129895
 10
3241.6199528859
 20
-1128.7753908112
 10
3251.5445664848
 20
-1139.1021156394
 10
3261.373874402
 20
-1149.6391976937
 10
3271.102556105
 20
-1160.3809333288
 10
3280.7253455299
 20
-1171.3215081219
 10
3290.2370339311
 20
-1182.4550000198
 10
3299.6324727014
 20
-1193.7753825451
 10
3308.9065761585
 20
-1205.2765280576
 10
3318.0543242982
 20
-1216.9522110714
 10
3327.0707655115
 20
-1228.7961116249
 10
3335.9510192648
 20
-1240.8018187014
 10
3344.6902787416
 20
-1252.9628336996
 10
3353.283813445
 20
-1265.2725739512
 10
3361.7269717574
 20
-1277.724376284
 10
3370.0151834593
 20
-1290.3115006285
 10
3378.1439622021
 20
-1303.0271336666
 10
3386.1089079377
 20
-1315.8643925192
 10
3393.9057092991
 20
-1328.816328472
 10
3401.5301459349
 20
-1341.8759307372
 10
3408.9780907935
 20
-1355.0361302475
 10
3416.2455123567
 20
-1368.2898034834
 10
3423.3284768226
 20
-1381.6297763287
 10
3430.2231502344
 20
-1395.0488279537
 10
3436.9258005557
 20
-1408.5396947242
 10
3443.4327996912
 20
-1422.0950741327
 10
3449.7406254499
 20
-1435.7076287516
 10
3455.8458634518
 20
-1449.3699902048
 10
3461.7452089763
 20
-1463.0747631562
 10
3467.435468751
 20
-1476.8145293126
 10
3472.9135626798
 20
-1490.581851439
 10
3478.1765255108
 20
-1504.369277385
 10
3483.2215084405
 20
-1518.1693441179
 10
3488.0457806568
 20
-1531.9745817625
 10
3492.6467308164
 20
-1545.7775176449
 10
3497.0218684587
 20
-1559.570680337
 10
3501.1688253537
 20
-1573.3466037009
 10
3505.0853567841
 20
-1587.09783093
 10
3508.76934276
 20
-1600.8169185859
 10
3512.2187891669
 20
-1614.4964406269
 10
3515.4318288446
 20
-1628.128992428
  0
LINE
  5
221
330
1F
100
AcDbEntity
  8
0
  6
Continuous
 62
     7
370
    15
100
AcDbLine
 10
2991.5019247208
 20
-957.4277957073
 30
0.0
 11
3159.4461724748
 21
-1054.3799462511
 31
0.0
  0
LWPOLYLINE
  5
222
330
1F
100
AcDbEntity
  8
0
  6
Continuous
 62
     7
370
    15
100
AcDbPolyline
 90
       48
 70
   128
 43
0.0
 10
2635.516268351
 20
-1120.1645516821
 10
2638.7293080287
 20
-1110.2416965299
 10
2642.1787544355
 20
-1100.5448205373
 10
2645.8627404115
 20
-1091.0791725521
 10
2649.7792718418
 20
-1081.8498762604
 10
2653.9262287368
 20
-1072.8619274127
 10
2658.3013663791
 20
-1064.1201911198
 10
2662.9023165387
 20
-1055.6293992195
 10
2667.726588755
 20
-1047.3941477153
 10
2672.7715716848
 20
-1039.4188942885
 10
2678.0345345157
 20
-1031.7079558854
 10
2683.5126284446
 20
-1024.2655063805
 10
2689.2028882192
 20
-1017.0955743171
 10
2695.1022337438
 20
-1010.2020407271
 10
2701.2074717457
 20
-1003.5886370295
 10
2707.5152975043
 20
-997.2589430115
 10
2714.0222966398
 20
-991.2163848899
 10
2720.7249469612
 20
-985.4642334574
 10
2727.6196203729
 20
-980.0056023112
 10
2734.7025848388
 20
-974.8434461685
 10
2741.9700064021
 20
-969.9805592666
 10
2749.4179512606
 20
-965.4195738505
 10
2757.0423878964
 20
-961.1629587483
 10
2764.8391892579
 20
-957.2130180345
 10
2772.8041349934
 20
-953.571889783
 10
2780.9329137363
 20
-950.24154491
 10
2789.2211254381
 20
-947.2237861067
 10
2797.6642837506
 20
-944.5202468639
 10
2806.2578184539
 20
-942.1323905876
 10
2814.9970779308
 20
-940.0615098068
 10
2823.877331684
 20
-938.3087254741
 10
2832.8937728973
 20
-936.874986359
 10
2842.0415210371
 20
-935.7610685338
 10
2851.3156244942
 20
-934.9675749542
 10
2860.7110632645
 20
-934.4949351324
 10
2870.2227516656
 20
-934.3434049048
 10
2879.8455410905
 20
-934.5130662937
 10
2889.5742227936
 20
-935.0038274625
 10
2899.4035307108
 20
-935.815422766
 10
2909.3281443097
 20
-936.9474128934
 10
2919.3426914696
 20
-938.3991851069
 10
2929.4417513896
 20
-940.1699535727
 10
2939.6198575225
 20
-942.2587597869
 10
2949.8715005339
 20
-944.6644730939
 10
2960.1911312846
 20
-947.3857912987
 10
2970.573163834
 20
-950.4212413718
 10
2981.0119784641
 20
-953.7691802463
 10
2991.5019247208
 20
-957.4277957073
  0
LINE
  5
223
330
1F
100
AcDbEntity
  8
0
  6
Continuous
 62
     7
370
    15
100
AcDbLine
 10
2635.516268351
 20
-1120.1645516821
 30
0.0
 11
2625.0298033089
 21
-1114.1108442702
 31
0.0
  0
LINE
  5
224
330
1F
100
AcDbEntity
  8
0
  6
Continuous
 62
     7
370
    15
100
AcDbLine
 10
2625.0298033089
 20
-1114.1108442702
 30
0.0
 11
2625.0298033089
 21
-1123.9093340128
 31
0.0
  0
LINE
  5
225
330
1F
100
AcDbEntity
  8
0
  6
Continuous
 62
     7
370
    15
100
AcDbLine
 10
2625.0298033089
 20
-1123.9093340128
 30
0.0
 11
2633.0400814163
 21
-1128.5335691346
 31
0.0
  0
LWPOLYLINE
  5
226
330
1F
100
AcDbEntity
  8
0
  6
Continuous
 62
     7
370
    15
100
AcDbPolyline
 90
       12
 70
   128
 43
0.0
 10
2615.8546408265
 20
-1262.3896022265
 10
2615.9975558745
 20
-1249.2374605753
 10
2616.4262121419
 20
-1236.2585042369
 10
2617.140343054
 20
-1223.4608046202
 10
2618.139504504
 20
-1210.852320414
 10
2619.4230751292
 20
-1198.4408926366
 10
2620.990256697
 20
-1186.2342397602
 10
2622.840074602
 20
-1174.2399529106
 10
2624.9713784712
 20
-1162.4654911466
 10
2627.3828428804
 20
-1150.9181768211
 10
2630.0729681777
 20
-1139.6051910276
 10
2633.0400814163
 20
-1128.5335691346
  0
LINE
  5
227
330
1F
100
AcDbEntity
  8
0
  6
Continuous
 62
     7
370
    15
100
AcDbLine
 10
2580.4993017672
 20
-1241.9793994309
 30
0.0
 11
2615.8546408265
 21
-1262.3896022265
 31
0.0
  0
LWPOLYLINE
  5
228
330
1F
100
AcDbEntity
  8
0
  6
Continuous
 62
     7
370
    15
100
AcDbPolyline
 90
       18
 70
   128
 43
0.0
 10
2615.8546408265
 20
-1050.2460763305
 10
2611.8607436794
 20
-1059.8642262609
 10
2608.0987894644
 20
-1069.7164427248
 10
2604.5706602644
 20
-1079.797796718
 10
2601.2781211812
 20
-1090.1032446
 10
2598.2228194521
 20
-1100.6276306175
 10
2595.4062836261
 20
-1111.365689484
 10
2592.8299227991
 20
-1122.3120490135
 10
2590.4950259087
 20
-1133.4612328086
 10
2588.4027610898
 20
-1144.807663
 10
2586.5541750899
 20
-1156.3456630373
 10
2584.9501927452
 20
-1168.069460529
 10
2583.5916165185
 20
-1179.9731901301
 10
2582.4791260972
 20
-1192.0508964766
 10
2581.6132780536
 20
-1204.2965371651
 10
2580.9945055662
 20
-1216.7039857756
 10
2580.6231182031
 20
-1229.2670349367
 10
2580.4993017672
 20
-1241.9793994309
  0
SPLINE
  5
229
330
1F
100
AcDbEntity
  8
0
  6
Continuous
 62
     7
370
    15
100
AcDbSpline
210
0.0
220
0.0
230
1.0
 70
     8
 71
     3
 72
    39
 73
    35
 74
     0
 42
0.00000001
 43
0.00000001
 40
0.0
 40
0.0
 40
0.0
 40
0.0
 40
0.0352327742499148
 40
0.0689123143132411
 40
0.1011756209807558
 40
0.1321565720703652
 40
0.1619850584885135
 40
0.1907861099276721
 40
0.2235724649256054
 40
0.2552810341785883
 40
0.2860819655784203
 40
0.3161310413413818
 40
0.35803012003447
 40
0.3990465692126626
 40
0.4394981457837919
 40
0.4796699514627988
 40
0.519832411729004
 40
0.5480875055096168
 40
0.5765817337206183
 40
0.6055345725421701
 40
0.6352634620905603
 40
0.6594063052463509
 40
0.6844596741309035
 40
0.710649612426502
 40
0.7382222547395592
 40
0.7614532719155219
 40
0.7858783654460124
 40
0.8116426088820604
 40
0.8388939615406884
 40
0.8677821797911288
 40
0.897893630679157
 40
0.9298721869207089
 40
0.9638603708781409
 40
1.0
 40
1.0
 40
1.0
 40
1.0
 10
2498.99421070853
 20
-632.2821037063804
 30
0.0
 10
2499.705405959137
 20
-637.1210245848607
 30
0.0
 10
2501.096443471548
 20
-646.5855428810761
 30
0.0
 10
2503.625141148203
 20
-660.6476348395846
 30
0.0
 10
2506.39965443927
 20
-674.2188243614798
 30
0.0
 10
2509.433783992081
 20
-687.3421758026966
 30
0.0
 10
2512.701104464046
 20
-700.0456795549173
 30
0.0
 10
2516.382195258959
 20
-713.0574384832212
 30
0.0
 10
2520.511538771293
 20
-726.3751919475167
 30
0.0
 10
2525.11823071952
 20
-739.9956054057016
 30
0.0
 10
2529.939630125023
 20
-753.2206912876898
 30
0.0
 10
2535.635896592742
 20
-767.8789092599501
 30
0.0
 10
2542.295116936089
 20
-783.9487523070155
 30
0.0
 10
2549.952380642405
 20
-801.4276521821722
 30
0.0
 10
2557.747586589207
 20
-818.6054907024451
 30
0.0
 10
2565.593165202357
 20
-835.6354603683111
 30
0.0
 10
2572.61583172771
 20
-850.9541235016078
 30
0.0
 10
2578.761896021802
 20
-864.6549496336455
 30
0.0
 10
2584.067945274591
 20
-876.7995072816974
 30
0.0
 10
2589.231785679861
 20
-889.1961918873183
 30
0.0
 10
2593.796711900637
 20
-901.0174985485202
 30
0.0
 10
2597.772794150995
 20
-912.2993531206309
 30
0.0
 10
2601.208133641641
 20
-923.0682868734627
 30
0.0
 10
2604.382463261321
 20
-934.2894094391354
 30
0.0
 10
2607.0513485495
 20
-945.1815556286954
 30
0.0
 10
2609.271628004285
 20
-955.7337524610112
 30
0.0
 10
2611.101044987995
 20
-965.936391718818
 30
0.0
 10
2612.680159696153
 20
-976.5797484780909
 30
0.0
 10
2613.990654037917
 20
-987.6978932898512
 30
0.0
 10
2615.007084460449
 20
-999.2490260794258
 30
0.0
 10
2615.720006429303
 20
-1011.262549851861
 30
0.0
 10
2616.111967087951
 20
-1023.762866238992
 30
0.0
 10
2616.1948865074
 20
-1036.864302690259
 30
0.0
 10
2615.970352209638
 20
-1045.695177896009
 30
0.0
 10
2615.854640826523
 20
-1050.246076330506
 30
0.0
  0
LINE
  5
22A
330
1F
100
AcDbEntity
  8
0
  6
Continuous
 62
     7
370
    15
100
AcDbLine
 10
2446.1490133418
 20
-601.7752206238
 30
0.0
 11
2498.9942107085
 21
-632.2821037064
 31
0.0
  0
ARC
  5
22B
330
1F
100
AcDbEntity
  8
0
  6
Continuous
 62
     7
370
    15
100
AcDbCircle
 10
2454.4301065436
 20
-588.8291634232
 30
0.0
 40
15.3680480757203
100
AcDbArc
 50
182.6054784857
 51
237.39452166
  0
LINE
  5
22C
330
1F
100
AcDbEntity
  8
0
  6
Continuous
 62
     7
370
    15
100
AcDbLine
 10
2439.0779455299
 20
-556.8661394704
 30
0.0
 11
2439.0779455299
 21
-589.5277719458
 31
0.0
  0
LINE
  5
22D
330
1F
100
AcDbEntity
  8
0
  6
Continuous
 62
     7
370
    15
100
AcDbLine
 10
2557.6672798233
 20
-625.3263049424
 30
0.0
 11
2439.0779455299
 21
-556.8661394704
 31
0.0
  0
LINE
  5
22E
330
1F
100
AcDbEntity
  8
0
  6
Continuous
 62
     7
370
    15
100
AcDbLine
 10
2557.6672798233
 20
-625.3263049424
 30
0.0
 11
2557.6672798233
 21
-615.5278151998
 31
0.0
  0
LINE
  5
22F
330
1F
100
AcDbEntity
  8
0
  6
Continuous
 62
     7
370
    15
100
AcDbLine
 10
2557.6672798233
 20
-615.5278151998
 30
0.0
 11
2593.0226188827
 21
-635.9380179954
 31
0.0
  0
LINE
  5
230
330
1F
100
AcDbEntity
  8
0
  6
Continuous
 62
     7
370
    15
100
AcDbLine
 10
2593.0226188827
 20
-645.736507738
 30
0.0
 11
2593.0226188827
 21
-635.9380179954
 31
0.0
  0
LINE
  5
231
330
1F
100
AcDbEntity
  8
0
  6
Continuous
 62
     7
370
    15
100
AcDbLine
 10
2747.7544201702
 20
-735.0612752901
 30
0.0
 11
2593.0226188827
 21
-645.736507738
 31
0.0
  0
LINE
  5
232
330
1F
100
AcDbEntity
  8
0
  6
Continuous
 62
     7
370
    15
100
AcDbLine
 10
2747.7544201702
 20
-735.0612752901
 30
0.0
 11
2747.7544201702
 21
-725.2627855475
 31
0.0
  0
LINE
  5
233
330
1F
100
AcDbEntity
  8
0
  6
Continuous
 62
     7
370
    15
100
AcDbLine
 10
2747.7544201702
 20
-725.2627855475
 30
0.0
 11
2783.1097592295
 21
-745.6729883431
 31
0.0
  0
LINE
  5
234
330
1F
100
AcDbEntity
  8
0
  6
Continuous
 62
     7
370
    15
100
AcDbLine
 10
2783.1097592295
 20
-755.4714780857
 30
0.0
 11
2783.1097592295
 21
-745.6729883431
 31
0.0
  0
LINE
  5
235
330
1F
100
AcDbEntity
  8
0
  6
Continuous
 62
     7
370
    15
100
AcDbLine
 10
2937.8415605171
 20
-844.7962456379
 30
0.0
 11
2783.1097592295
 21
-755.4714780857
 31
0.0
  0
LINE
  5
236
330
1F
100
AcDbEntity
  8
0
  6
Continuous
 62
     7
370
    15
100
AcDbLine
 10
2937.8415605171
 20
-844.7962456379
 30
0.0
 11
2937.8415605171
 21
-834.9977558952
 31
0.0
  0
LINE
  5
237
330
1F
100
AcDbEntity
  8
0
  6
Continuous
 62
     7
370
    15
100
AcDbLine
 10
2937.8415605171
 20
-834.9977558952
 30
0.0
 11
2973.1968995764
 21
-855.4079586908
 31
0.0
  0
LINE
  5
238
330
1F
100
AcDbEntity
  8
0
  6
Continuous
 62
     7
370
    15
100
AcDbLine
 10
2973.1968995764
 20
-865.2064484334
 30
0.0
 11
2973.1968995764
 21
-855.4079586908
 31
0.0
  0
LINE
  5
239
330
1F
100
AcDbEntity
  8
0
  6
Continuous
 62
     7
370
    15
100
AcDbLine
 10
3177.7511976192
 20
-983.2931311478
 30
0.0
 11
2973.1968995764
 21
-865.2064484334
 31
0.0
  0
LINE
  5
23A
330
1F
100
AcDbEntity
  8
0
  6
Continuous
 62
     7
370
    15
100
AcDbLine
 10
3177.7511976192
 20
-983.2931311478
 30
0.0
 11
3177.7511976192
 21
-973.4946414052
 31
0.0
  0
LINE
  5
23B
330
1F
100
AcDbEntity
  8
0
  6
Continuous
 62
     7
370
    15
100
AcDbLine
 10
3177.7511976192
 20
-973.4946414052
 30
0.0
 11
3213.1065366785
 21
-993.9048442007
 31
0.0
  0
LINE
  5
23C
330
1F
100
AcDbEntity
  8
0
  6
Continuous
 62
     7
370
    15
100
AcDbLine
 10
3213.1065366785
 20
-1003.7033339434
 30
0.0
 11
3213.1065366785
 21
-993.9048442007
 31
0.0
  0
LINE
  5
23D
330
1F
100
AcDbEntity
  8
0
  6
Continuous
 62
     7
370
    15
100
AcDbLine
 10
3367.838337966
 20
-1093.0281014955
 30
0.0
 11
3213.1065366785
 21
-1003.7033339434
 31
0.0
  0
LINE
  5
23E
330
1F
100
AcDbEntity
  8
0
  6
Continuous
 62
     7
370
    15
100
AcDbLine
 10
3367.838337966
 20
-1093.0281014955
 30
0.0
 11
3367.838337966
 21
-1083.2296117529
 31
0.0
  0
LINE
  5
23F
330
1F
100
AcDbEntity
  8
0
  6
Continuous
 62
     7
370
    15
100
AcDbLine
 10
3367.838337966
 20
-1083.2296117529
 30
0.0
 11
3403.1936770254
 21
-1103.6398145485
 31
0.0
  0
LINE
  5
240
330
1F
100
AcDbEntity
  8
0
  6
Continuous
 62
     7
370
    15
100
AcDbLine
 10
3403.1936770254
 20
-1113.4383042911
 30
0.0
 11
3403.1936770254
 21
-1103.6398145485
 31
0.0
  0
LINE
  5
241
330
1F
100
AcDbEntity
  8
0
  6
Continuous
 62
     7
370
    15
100
AcDbLine
 10
3557.9254783129
 20
-1202.7630718433
 30
0.0
 11
3403.1936770254
 21
-1113.4383042911
 31
0.0
  0
LINE
  5
242
330
1F
100
AcDbEntity
  8
0
  6
Continuous
 62
     7
370
    15
100
AcDbLine
 10
3557.9254783129
 20
-1202.7630718433
 30
0.0
 11
3557.9254783129
 21
-1192.9645821006
 31
0.0
  0
LINE
  5
243
330
1F
100
AcDbEntity
  8
0
  6
Continuous
 62
     7
370
    15
100
AcDbLine
 10
3557.9254783129
 20
-1192.9645821006
 30
0.0
 11
3593.2808173722
 21
-1213.3747848962
 31
0.0
  0
LINE
  5
244
330
1F
100
AcDbEntity
  8
0
  6
Continuous
 62
     7
370
    15
100
AcDbLine
 10
3593.2808173722
 20
-1223.1732746388
 30
0.0
 11
3593.2808173722
 21
-1213.3747848962
 31
0.0
  0
LINE
  5
245
330
1F
100
AcDbEntity
  8
0
  6
Continuous
 62
     7
370
    15
100
AcDbLine
 10
3711.8701516657
 20
-1291.6334401108
 30
0.0
 11
3593.2808173722
 21
-1223.1732746388
 31
0.0
  0
LINE
  5
246
330
1F
100
AcDbEntity
  8
0
  6
Continuous
 62
     7
370
    15
100
AcDbLine
 10
3711.8701516657
 20
-1324.2950725863
 30
0.0
 11
3711.8701516657
 21
-1291.6334401108
 31
0.0
  0
LWPOLYLINE
  5
247
330
1F
100
AcDbEntity
  8
0
  6
Continuous
 62
     7
370
    15
100
AcDbPolyline
 90
        9
 70
   128
 43
0.0
 10
3704.7990838538
 20
-1328.378440146
 10
3706.1785807502
 20
-1329.0179107258
 10
3707.5050643545
 20
-1329.319014755
 10
3708.7275586457
 20
-1329.2701809747
 10
3709.7990838538
 20
-1328.8732860396
 10
3710.6784618659
 20
-1328.1435823995
 10
3711.3318986782
 20
-1327.1091121562
 10
3711.7342830804
 20
-1325.8096294208
 10
3711.8701516657
 20
-1324.2950725863
  0
LINE
  5
248
330
1F
100
AcDbEntity
  8
0
  6
Continuous
 62
     7
370
    15
100
AcDbLine
 10
3651.953886487
 20
-1297.8715570634
 30
0.0
 11
3704.7990838538
 21
-1328.378440146
 31
0.0
  0
SPLINE
  5
249
330
1F
100
AcDbEntity
  8
0
  6
Continuous
 62
     7
370
    15
100
AcDbSpline
210
0.0
220
0.0
230
1.0
 70
     8
 71
     3
 72
    38
 73
    34
 74
     0
 42
0.00000001
 43
0.00000001
 40
0.0
 40
0.0
 40
0.0
 40
0.0
 40
0.033456683169629
 40
0.0650688803300019
 40
0.0949482514605228
 40
0.1232070026414139
 40
0.149957663694397
 40
0.1828942729447572
 40
0.2136891710391476
 40
0.2425907139833499
 40
0.2717306345347545
 40
0.2992628053193274
 40
0.3254588711951916
 40
0.3505708574903699
 40
0.3748282402539302
 40
0.4097776865246603
 40
0.4438713165872233
 40
0.4775527950791114
 40
0.5110369591587628
 40
0.5444842445773738
 40
0.5780504695290749
 40
0.6118948182680227
 40
0.646187527760137
 40
0.681116734961879
 40
0.7168939814402481
 40
0.7537579565818902
 40
0.791976213186706
 40
0.8231480786385832
 40
0.85549351205228
 40
0.8891766198996303
 40
0.9243692015946717
 40
0.9612493427904019
 40
1.0
 40
1.0
 40
1.0
 40
1.0
 10
3535.093456369033
 20
-1580.911349015267
 30
0.0
 10
3534.984276652449
 20
-1576.573580577082
 30
0.0
 10
3534.771936359277
 20
-1568.137187346693
 30
0.0
 10
3534.812738401501
 20
-1556.022551628961
 30
0.0
 10
3535.119119165597
 20
-1544.731823795302
 30
0.0
 10
3535.699320349255
 20
-1534.235264511216
 30
0.0
 10
3536.612954217552
 20
-1523.569385814263
 30
0.0
 10
3537.941720048422
 20
-1512.869236478687
 30
0.0
 10
3539.781718264805
 20
-1502.278810840282
 30
0.0
 10
3542.023940743676
 20
-1492.512636957277
 30
0.0
 10
3544.668103123432
 20
-1483.530255047036
 30
0.0
 10
3547.711753384724
 20
-1475.289788597414
 30
0.0
 10
3551.050116377508
 20
-1467.901197349517
 30
0.0
 10
3554.644201692201
 20
-1461.250189109134
 30
0.0
 10
3559.046420826412
 20
-1454.284483831019
 30
0.0
 10
3564.374686558258
 20
-1447.137782078548
 30
0.0
 10
3570.656618848004
 20
-1439.817730667199
 30
0.0
 10
3577.05659079708
 20
-1432.886436106895
 30
0.0
 10
3583.544256206783
 20
-1426.178848174423
 30
0.0
 10
3590.071095036617
 20
-1419.544935015349
 30
0.0
 10
3596.586904674622
 20
-1412.838491697409
 30
0.0
 10
3603.041182176574
 20
-1405.913074271278
 30
0.0
 10
3609.383298251509
 20
-1398.622301643726
 30
0.0
 10
3615.562325298991
 20
-1390.819823991211
 30
0.0
 10
3621.527024036939
 20
-1382.359403458014
 30
0.0
 10
3627.225896672978
 20
-1373.095226995255
 30
0.0
 10
3632.200116375445
 20
-1363.654144603458
 30
0.0
 10
3636.508982774112
 20
-1354.124091435215
 30
0.0
 10
3640.224143866566
 20
-1344.605549019224
 30
0.0
 10
3643.664671348895
 20
-1334.275001553418
 30
0.0
 10
3646.796325026618
 20
-1323.055042927114
 30
0.0
 10
3649.63306837734
 20
-1310.905876342164
 30
0.0
 10
3651.167629426992
 20
-1302.287381600861
 30
0.0
 10
3651.953886487026
 20
-1297.87155706344
 30
0.0
  0
LWPOLYLINE
  5
24A
330
1F
100
AcDbEntity
  8
0
  6
Continuous
 62
     7
370
    15
100
AcDbPolyline
 90
       18
 70
   128
 43
0.0
 10
3570.4487954284
 20
-1813.4650777068
 10
3570.3249789925
 20
-1800.6097577986
 10
3569.9535916294
 20
-1787.6179139152
 10
3569.334819142
 20
-1774.4960457976
 10
3568.4689710983
 20
-1761.2507182368
 10
3567.3564806771
 20
-1747.8885577903
 10
3565.9979044504
 20
-1734.4162494661
 10
3564.3939221057
 20
-1720.8405333784
 10
3562.5453361057
 20
-1707.168201376
 10
3560.4530712868
 20
-1693.4060936439
 10
3558.1181743965
 20
-1679.5610952812
 10
3555.5418135694
 20
-1665.640132857
 10
3552.7252777435
 20
-1651.6501709446
 10
3549.6699760144
 20
-1637.5982086372
 10
3546.3774369311
 20
-1623.4912760466
 10
3542.8493077312
 20
-1609.3364307858
 10
3539.0873535162
 20
-1595.1407544384
 10
3535.093456369
 20
-1580.9113490153
  0
LINE
  5
24B
330
1F
100
AcDbEntity
  8
0
  6
Continuous
 62
     7
370
    15
100
AcDbLine
 10
3535.093456369
 20
-1793.0548749112
 30
0.0
 11
3570.4487954284
 21
-1813.4650777068
 31
0.0
  0
LWPOLYLINE
  5
24C
330
1F
100
AcDbEntity
  8
0
  6
Continuous
 62
     7
370
    15
100
AcDbPolyline
 90
       12
 70
   128
 43
0.0
 10
3517.9080157792
 20
-1639.3569544608
 10
3520.8751290178
 20
-1653.8543323799
 10
3523.5652543151
 20
-1668.2732707295
 10
3525.9767187243
 20
-1682.6048025981
 10
3528.1080225936
 20
-1696.8400154311
 10
3529.9578404985
 20
-1710.9700565729
 10
3531.5250220664
 20
-1724.9861387728
 10
3532.8085926916
 20
-1738.8795456492
 10
3533.8077541416
 20
-1752.6416371104
 10
3534.5218850537
 20
-1766.2638547278
 10
3534.950541321
 20
-1779.7377270579
 10
3535.093456369
 20
-1793.0548749112
  0
LINE
  5
24D
330
1F
100
AcDbEntity
  8
0
  6
Continuous
 62
     7
370
    15
100
AcDbLine
 10
3517.9080157792
 20
-1639.3569544608
 30
0.0
 11
3525.9182938866
 21
-1643.9811895826
 31
0.0
  0
LINE
  5
24E
330
1F
100
AcDbEntity
  8
0
  6
Continuous
 62
     7
370
    15
100
AcDbLine
 10
3711.8701516657
 20
-1291.6334401108
 30
0.0
 11
3720.3554330399
 21
-1286.7349914399
 31
0.0
  0
LINE
  5
24F
330
1F
100
AcDbEntity
  8
0
  6
Continuous
 62
     7
370
    15
100
AcDbLine
 10
3720.3554330399
 20
-1319.3966239153
 30
0.0
 11
3720.3554330399
 21
-1286.7349914399
 31
0.0
  0
LINE
  5
250
330
1F
100
AcDbEntity
  8
0
  6
Continuous
 62
     7
370
    15
100
AcDbLine
 10
3711.8701516657
 20
-1324.2950725863
 30
0.0
 11
3720.3554330399
 21
-1319.3966239153
 31
0.0
  0
LINE
  5
251
330
1F
100
AcDbEntity
  8
0
  6
Continuous
 62
     7
370
    15
100
AcDbLine
 10
3593.2808173722
 20
-1223.1732746388
 30
0.0
 11
3601.7660987465
 21
-1218.2748259679
 31
0.0
  0
LINE
  5
252
330
1F
100
AcDbEntity
  8
0
  6
Continuous
 62
     7
370
    15
100
AcDbLine
 10
3720.3554330399
 20
-1286.7349914399
 30
0.0
 11
3601.7660987465
 21
-1218.2748259679
 31
0.0
  0
ARC
  5
253
330
1F
100
AcDbEntity
  8
0
  6
Continuous
 62
     7
370
    15
100
AcDbCircle
 10
3715.5985774786
 20
-1320.0022642003
 30
0.0
 40
4.795255466173182
100
AcDbArc
 50
304.0563508464
 51
7.255829547
  0
LINE
  5
254
330
1F
100
AcDbEntity
  8
0
  6
Continuous
 62
     7
370
    15
100
AcDbLine
 10
3535.093456369
 20
-1580.9113490153
 30
0.0
 11
3543.5787377433
 21
-1576.0129003443
 31
0.0
  0
SPLINE
  5
255
330
1F
100
AcDbEntity
  8
0
  6
Continuous
 62
     7
370
    15
100
AcDbSpline
210
0.0
220
0.0
230
1.0
 70
     8
 71
     3
 72
    38
 73
    34
 74
     0
 42
0.00000001
 43
0.00000001
 40
0.0
 40
0.0
 40
0.0
 40
0.0
 40
0.0343508678235957
 40
0.066807952728389
 40
0.0974858989896132
 40
0.1264999115787587
 40
0.1539655278613372
 40
0.1877824219383805
 40
0.2194003641210585
 40
0.2490743481361714
 40
0.2789930807904604
 40
0.3072610939321831
 40
0.3341572925732031
 40
0.3599404378312088
 40
0.3848461388785213
 40
0.4207296663419827
 40
0.4557345045074347
 40
0.4903161756764527
 40
0.5246952588824002
 40
0.55903647778469
 40
0.5934998150738942
 40
0.6282487094640778
 40
0.6634579477828937
 40
0.6993206952551001
 40
0.7360541472425433
 40
0.7739033724966587
 40
0.8131430746041302
 40
0.845148059214331
 40
0.8783579773122324
 40
0.9129413213839059
 40
0.9490744824641071
 40
0.9869403058365833
 40
0.9999999999999999
 40
0.9999999999999999
 40
0.9999999999999999
 40
0.9999999999999999
 10
3543.578737743272
 20
-1576.012900344331
 30
0.0
 10
3543.469558026688
 20
-1571.675131906146
 30
0.0
 10
3543.257217733516
 20
-1563.238738675757
 30
0.0
 10
3543.298019775739
 20
-1551.124102958024
 30
0.0
 10
3543.604400539836
 20
-1539.833375124366
 30
0.0
 10
3544.184601723494
 20
-1529.33681584028
 30
0.0
 10
3545.098235591791
 20
-1518.670937143327
 30
0.0
 10
3546.427001422661
 20
-1507.97078780775
 30
0.0
 10
3548.266999639044
 20
-1497.380362169345
 30
0.0
 10
3550.509222117915
 20
-1487.614188286341
 30
0.0
 10
3553.153384497671
 20
-1478.631806376099
 30
0.0
 10
3556.197034758962
 20
-1470.391339926478
 30
0.0
 10
3559.535397751747
 20
-1463.00274867858
 30
0.0
 10
3563.129483066441
 20
-1456.351740438199
 30
0.0
 10
3567.531702200644
 20
-1449.386035160078
 30
0.0
 10
3572.859967932533
 20
-1442.239333407641
 30
0.0
 10
3579.141900222113
 20
-1434.919281996158
 30
0.0
 10
3585.541872171792
 20
-1427.987987436345
 30
0.0
 10
3592.029537579267
 20
-1421.280399502055
 30
0.0
 10
3598.556376417409
 20
-1414.646486349759
 30
0.0
 10
3605.072186024218
 20
-1407.940043006374
 30
0.0
 10
3611.52646364414
 20
-1401.014625676462
 30
0.0
 10
3617.868579269632
 20
-1393.723852682328
 30
0.0
 10
3624.047608043071
 20
-1385.921376437571
 30
0.0
 10
3630.012300096401
 20
-1377.46095045214
 30
0.0
 10
3635.711198855561
 20
-1368.196795296411
 30
0.0
 10
3640.685323313017
 20
-1358.75563521909
 30
0.0
 10
3644.994488806841
 20
-1349.225826004458
 30
0.0
 10
3648.708530145077
 20
-1339.70637027349
 30
0.0
 10
3652.153511141419
 20
-1329.379455266472
 30
0.0
 10
3655.267398616007
 20
-1318.14500583571
 30
0.0
 10
3657.492291329951
 20
-1308.893936246721
 30
0.0
 10
3658.520255972647
 20
-1303.25938793421
 30
0.0
 10
3658.783874380352
 20
-1301.81442514795
 30
0.0
  0
LINE
  5
256
330
1F
100
AcDbEntity
  8
0
  6
Continuous
 62
     7
370
    15
100
AcDbLine
 10
3593.2808173722
 20
-1213.3747848962
 30
0.0
 11
3601.7660987465
 21
-1208.4763362253
 31
0.0
  0
LINE
  5
257
330
1F
100
AcDbEntity
  8
0
  6
Continuous
 62
     7
370
    15
100
AcDbLine
 10
3601.7660987465
 20
-1218.2748259679
 30
0.0
 11
3601.7660987465
 21
-1208.4763362253
 31
0.0
  0
LINE
  5
258
330
1F
100
AcDbEntity
  8
0
  6
Continuous
 62
     7
370
    15
100
AcDbLine
 10
3566.4107596871
 20
-1188.0661334297
 30
0.0
 11
3557.9254783129
 21
-1192.9645821006
 31
0.0
  0
LINE
  5
259
330
1F
100
AcDbEntity
  8
0
  6
Continuous
 62
     7
370
    15
100
AcDbLine
 10
3601.7660987465
 20
-1208.4763362253
 30
0.0
 11
3566.4107596871
 21
-1188.0661334297
 31
0.0
  0
LINE
  5
25A
330
1F
100
AcDbEntity
  8
0
  6
Continuous
 62
     7
370
    15
100
AcDbLine
 10
3403.1936770254
 20
-1113.4383042911
 30
0.0
 11
3411.6789583996
 21
-1108.5398556202
 31
0.0
  0
LINE
  5
25B
330
1F
100
AcDbEntity
  8
0
  6
Continuous
 62
     7
370
    15
100
AcDbLine
 10
3557.9254783129
 20
-1192.9661745014
 30
0.0
 11
3411.6789583996
 21
-1108.5398556202
 31
0.0
  0
LINE
  5
25C
330
1F
100
AcDbEntity
  8
0
  6
Continuous
 62
     7
370
    15
100
AcDbLine
 10
3220.0004077573
 20
-1064.4851071847
 30
0.0
 11
3228.4856891316
 21
-1059.5866585138
 31
0.0
  0
LWPOLYLINE
  5
25D
330
1F
100
AcDbEntity
  8
0
  6
Continuous
 62
     7
370
    15
100
AcDbPolyline
 90
       34
 70
   128
 43
0.0
 10
3228.4856891316
 20
-1059.5866585138
 10
3239.116117635
 20
-1069.6228490252
 10
3249.6677590305
 20
-1079.8891705671
 10
3260.1352552973
 20
-1090.3804100011
 10
3270.5132911425
 20
-1101.091239978
 10
3280.7965967004
 20
-1112.0162216424
 10
3290.9799502086
 20
-1123.1498073949
 10
3301.058180659
 20
-1134.4863437089
 10
3311.0261704243
 20
-1146.0200740015
 10
3320.8788578563
 20
-1157.7451415566
 10
3330.611239856
 20
-1169.655592499
 10
3340.2183744146
 20
-1181.7453788175
 10
3349.6953831225
 20
-1194.0083614362
 10
3359.0374536469
 20
-1206.4383133317
 10
3368.2398421751
 20
-1219.0289226954
 10
3377.297875824
 20
-1231.7737961383
 10
3386.2069550119
 20
-1244.6664619376
 10
3394.9625557951
 20
-1257.7003733229
 10
3403.5602321648
 20
-1270.8689118009
 10
3411.9956183045
 20
-1284.1653905157
 10
3420.2644308071
 20
-1297.5830576448
 10
3428.36247085
 20
-1311.1150998273
 10
3436.2856263272
 20
-1324.7546456237
 10
3444.0298739376
 20
-1338.4947690054
 10
3451.5912812274
 20
-1352.3284928713
 10
3458.9660085875
 20
-1366.248792591
 10
3466.1503112031
 20
-1380.2485995716
 10
3473.1405409553
 20
-1394.3208048474
 10
3479.9331482733
 20
-1408.4582626893
 10
3486.5246839372
 20
-1422.6537942336
 10
3492.9118008292
 20
-1436.9001911277
 10
3499.0912556336
 20
-1451.1902191896
 10
3505.0599104833
 20
-1465.516622082
 10
3505.6420562665
 20
-1466.9435952995
  0
LINE
  5
25E
330
1F
100
AcDbEntity
  8
0
  6
Continuous
 62
     7
370
    15
100
AcDbLine
 10
3403.1936770254
 20
-1103.6398145485
 30
0.0
 11
3411.6789583996
 21
-1098.7413658775
 31
0.0
  0
LINE
  5
25F
330
1F
100
AcDbEntity
  8
0
  6
Continuous
 62
     7
370
    15
100
AcDbLine
 10
3376.3236193403
 20
-1078.331163082
 30
0.0
 11
3367.838337966
 21
-1083.2296117529
 31
0.0
  0
LINE
  5
260
330
1F
100
AcDbEntity
  8
0
  6
Continuous
 62
     7
370
    15
100
AcDbLine
 10
3411.6789583996
 20
-1098.7413658775
 30
0.0
 11
3376.3236193403
 21
-1078.331163082
 31
0.0
  0
LINE
  5
261
330
1F
100
AcDbEntity
  8
0
  6
Continuous
 62
     7
370
    15
100
AcDbLine
 10
3411.6789583996
 20
-1108.5398556202
 30
0.0
 11
3411.6789583996
 21
-1098.7413658775
 31
0.0
  0
LINE
  5
262
330
1F
100
AcDbEntity
  8
0
  6
Continuous
 62
     7
370
    15
100
AcDbLine
 10
3213.1065366785
 20
-1003.7033339434
 30
0.0
 11
3221.5918180527
 21
-998.8048852724
 31
0.0
  0
LINE
  5
263
330
1F
100
AcDbEntity
  8
0
  6
Continuous
 62
     7
370
    15
100
AcDbLine
 10
3367.838337966
 20
-1083.2312041537
 30
0.0
 11
3221.5918180527
 21
-998.8048852724
 31
0.0
  0
LINE
  5
264
330
1F
100
AcDbEntity
  8
0
  6
Continuous
 62
     7
370
    15
100
AcDbLine
 10
3570.4487954284
 20
-1813.4650777068
 30
0.0
 11
3578.9340768026
 21
-1808.5666290358
 31
0.0
  0
LWPOLYLINE
  5
265
330
1F
100
AcDbEntity
  8
0
  6
Continuous
 62
     7
370
    15
100
AcDbPolyline
 90
       18
 70
   128
 43
0.0
 10
3578.9340768026
 20
-1808.5666290358
 10
3578.8102603667
 20
-1795.7113091277
 10
3578.4388730036
 20
-1782.7194652443
 10
3577.8201005162
 20
-1769.5975971266
 10
3576.9542524726
 20
-1756.3522695659
 10
3575.8417620513
 20
-1742.9901091194
 10
3574.4831858246
 20
-1729.5178007951
 10
3572.8792034799
 20
-1715.9420847075
 10
3571.0306174799
 20
-1702.2697527051
 10
3568.9383526611
 20
-1688.5076449729
 10
3566.6034557707
 20
-1674.6626466103
 10
3564.0270949437
 20
-1660.7416841861
 10
3561.2105591177
 20
-1646.7517222737
 10
3558.1552573886
 20
-1632.6997599663
 10
3554.8627183054
 20
-1618.5928273757
 10
3551.3345891054
 20
-1604.4379821149
 10
3547.5726348904
 20
-1590.2423057675
 10
3543.5787377433
 20
-1576.0129003443
  0
LINE
  5
266
330
1F
100
AcDbEntity
  8
0
  6
Continuous
 62
     7
370
    15
100
AcDbLine
 10
3213.1065366785
 20
-993.9048442007
 30
0.0
 11
3221.5918180527
 21
-989.0063955298
 31
0.0
  0
LINE
  5
267
330
1F
100
AcDbEntity
  8
0
  6
Continuous
 62
     7
370
    15
100
AcDbLine
 10
3221.5918180527
 20
-998.8048852724
 30
0.0
 11
3221.5918180527
 21
-989.0063955298
 31
0.0
  0
LINE
  5
268
330
1F
100
AcDbEntity
  8
0
  6
Continuous
 62
     7
370
    15
100
AcDbLine
 10
3186.2364789934
 20
-968.5961927342
 30
0.0
 11
3177.7511976192
 21
-973.4946414052
 31
0.0
  0
LINE
  5
269
330
1F
100
AcDbEntity
  8
0
  6
Continuous
 62
     7
370
    15
100
AcDbLine
 10
3221.5918180527
 20
-989.0063955298
 30
0.0
 11
3186.2364789934
 21
-968.5961927342
 31
0.0
  0
ARC
  5
26A
330
1F
100
AcDbEntity
  8
0
  6
Continuous
 62
     7
370
    15
100
AcDbCircle
 10
3239.5677032965
 20
-1047.7789938679
 30
0.0
 40
16.19357842919614
100
AcDbArc
 50
190.0350894232
 51
226.8157873773
  0
LINE
  5
26B
330
1F
100
AcDbEntity
  8
0
  6
Continuous
 62
     7
370
    15
100
AcDbLine
 10
2973.1968995764
 20
-865.2064484334
 30
0.0
 11
2981.6821809506
 21
-860.3079997625
 31
0.0
  0
LINE
  5
26C
330
1F
100
AcDbEntity
  8
0
  6
Continuous
 62
     7
370
    15
100
AcDbLine
 10
3177.7511976192
 20
-973.4962338059
 30
0.0
 11
2981.6821809506
 21
-860.3079997625
 31
0.0
  0
LINE
  5
26D
330
1F
100
AcDbEntity
  8
0
  6
Continuous
 62
     7
370
    15
100
AcDbLine
 10
3517.9080157792
 20
-1639.3569544608
 30
0.0
 11
3525.9182938866
 21
-1634.732719339
 31
0.0
  0
LINE
  5
26E
330
1F
100
AcDbEntity
  8
0
  6
Continuous
 62
     7
370
    15
100
AcDbLine
 10
2973.1968995764
 20
-855.4079586908
 30
0.0
 11
2981.6821809506
 21
-850.5095100199
 31
0.0
  0
LINE
  5
26F
330
1F
100
AcDbEntity
  8
0
  6
Continuous
 62
     7
370
    15
100
AcDbLine
 10
2981.6821809506
 20
-860.3079997625
 30
0.0
 11
2981.6821809506
 21
-850.5095100199
 31
0.0
  0
LINE
  5
270
330
1F
100
AcDbEntity
  8
0
  6
Continuous
 62
     7
370
    15
100
AcDbLine
 10
2946.3268418913
 20
-830.0993072243
 30
0.0
 11
2937.8415605171
 21
-834.9977558952
 31
0.0
  0
LINE
  5
271
330
1F
100
AcDbEntity
  8
0
  6
Continuous
 62
     7
370
    15
100
AcDbLine
 10
2981.6821809506
 20
-850.5095100199
 30
0.0
 11
2946.3268418913
 21
-830.0993072243
 31
0.0
  0
LINE
  5
272
330
1F
100
AcDbEntity
  8
0
  6
Continuous
 62
     7
370
    15
100
AcDbLine
 10
2783.1097592295
 20
-755.4714780857
 30
0.0
 11
2791.5950406038
 21
-750.5730294148
 31
0.0
  0
LINE
  5
273
330
1F
100
AcDbEntity
  8
0
  6
Continuous
 62
     7
370
    15
100
AcDbLine
 10
2937.8415605171
 20
-834.999348296
 30
0.0
 11
2791.5950406038
 21
-750.5730294148
 31
0.0
  0
LINE
  5
274
330
1F
100
AcDbEntity
  8
0
  6
Continuous
 62
     7
370
    15
100
AcDbLine
 10
2635.516268351
 20
-1120.1645516821
 30
0.0
 11
2644.0015497252
 21
-1115.2661030112
 31
0.0
  0
LWPOLYLINE
  5
275
330
1F
100
AcDbEntity
  8
0
  6
Continuous
 62
     7
370
    15
100
AcDbPolyline
 90
       22
 70
   128
 43
0.0
 10
2644.0015497252
 20
-1115.2661030112
 10
2647.2145894029
 20
-1105.343247859
 10
2650.6640358098
 20
-1095.6463718663
 10
2654.3480217857
 20
-1086.1807238812
 10
2658.2645532161
 20
-1076.9514275895
 10
2662.4115101111
 20
-1067.9634787418
 10
2666.7866477534
 20
-1059.2217424488
 10
2671.387597913
 20
-1050.7309505485
 10
2676.2118701293
 20
-1042.4956990443
 10
2681.256853059
 20
-1034.5204456175
 10
2686.5198158899
 20
-1026.8095072145
 10
2691.9979098188
 20
-1019.3670577095
 10
2697.6881695935
 20
-1012.1971256462
 10
2703.587515118
 20
-1005.3035920561
 10
2709.6927531199
 20
-998.6901883586
 10
2716.0005788786
 20
-992.3604943405
 10
2722.5075780141
 20
-986.317936219
 10
2729.2102283354
 20
-980.5657847864
 10
2736.1049017472
 20
-975.1071536403
 10
2743.1878662131
 20
-969.9449974976
 10
2750.4552877763
 20
-965.0821105957
 10
2754.7707879222
 20
-962.3892137133
  0
LWPOLYLINE
  5
276
330
1F
100
AcDbEntity
  8
0
  6
Continuous
 62
     7
370
    15
100
AcDbPolyline
 90
       23
 70
   128
 43
0.0
 10
2733.9877735494
 20
-916.5895862314
 10
2739.5561890941
 20
-913.4756973623
 10
2747.654229137
 20
-909.2934531973
 10
2755.9230416395
 20
-905.4227537707
 10
2764.3584277792
 20
-901.8655645861
 10
2772.9561041489
 20
-898.6236919496
 10
2781.7117049322
 20
-895.6987820525
 10
2790.6207841201
 20
-893.0923201356
 10
2799.6788177689
 20
-890.8056297349
 10
2808.8812062972
 20
-888.8398720096
 10
2818.2232768216
 20
-887.1960451524
 10
2827.7002855295
 20
-885.8749838825
 10
2837.307420088
 20
-884.8773590221
 10
2847.0398020877
 20
-884.2036771552
 10
2856.8924895197
 20
-883.854280371
 10
2866.860479285
 20
-883.8293460899
 10
2876.9387097355
 20
-884.1288869731
 10
2887.1220632436
 20
-884.7527509168
 10
2897.4053688015
 20
-885.7006211288
 10
2907.7834046467
 20
-886.97201629
 10
2918.2509009135
 20
-888.5662907981
 10
2928.802542309
 20
-890.4826350962
 10
2935.9254418489
 20
-891.9482045852
  0
LINE
  5
277
330
1F
100
AcDbEntity
  8
0
  6
Continuous
 62
     7
370
    15
100
AcDbLine
 10
2783.1097592295
 20
-745.6729883431
 30
0.0
 11
2791.5950406038
 21
-740.7745396721
 31
0.0
  0
LINE
  5
278
330
1F
100
AcDbEntity
  8
0
  6
Continuous
 62
     7
370
    15
100
AcDbLine
 10
2791.5950406038
 20
-750.5730294148
 30
0.0
 11
2791.5950406038
 21
-740.7745396721
 31
0.0
  0
LINE
  5
279
330
1F
100
AcDbEntity
  8
0
  6
Continuous
 62
     7
370
    15
100
AcDbLine
 10
2756.2397015444
 20
-720.3643368766
 30
0.0
 11
2747.7544201702
 21
-725.2627855475
 31
0.0
  0
LINE
  5
27A
330
1F
100
AcDbEntity
  8
0
  6
Continuous
 62
     7
370
    15
100
AcDbLine
 10
2791.5950406038
 20
-740.7745396721
 30
0.0
 11
2756.2397015444
 21
-720.3643368766
 31
0.0
  0
LINE
  5
27B
330
1F
100
AcDbEntity
  8
0
  6
Continuous
 62
     7
370
    15
100
AcDbLine
 10
2593.0226188827
 20
-645.736507738
 30
0.0
 11
2601.5079002569
 21
-640.838059067
 31
0.0
  0
LINE
  5
27C
330
1F
100
AcDbEntity
  8
0
  6
Continuous
 62
     7
370
    15
100
AcDbLine
 10
2747.7544201702
 20
-725.2643779483
 30
0.0
 11
2601.5079002569
 21
-640.838059067
 31
0.0
  0
SPLINE
  5
27D
330
1F
100
AcDbEntity
  8
0
  6
Continuous
 62
     7
370
    15
100
AcDbSpline
210
0.0
220
0.0
230
1.0
 70
     8
 71
     3
 72
    24
 73
    20
 74
     0
 42
0.00000001
 43
0.00000001
 40
0.0
 40
0.0
 40
0.0
 40
0.0
 40
0.0199442008305314
 40
0.0748218329578083
 40
0.1294772109543697
 40
0.1840788672298647
 40
0.2387331949081896
 40
0.293494177404399
 40
0.3797790123592453
 40
0.4662551629750994
 40
0.5527372824506903
 40
0.6174945152879524
 40
0.6821157093098824
 40
0.7466200923881247
 40
0.8111089439730301
 40
0.8619016360058335
 40
0.9129649189617713
 40
0.9645060504063239
 40
1.0
 40
1.0
 40
1.0
 40
1.0
 10
2554.143491620941
 20
-664.11910590747
 30
0.0
 10
2554.544816012989
 20
-666.1947619515709
 30
0.0
 10
2556.050407882969
 20
-673.9817066945172
 30
0.0
 10
2559.523439387327
 20
-687.6767679851694
 30
0.0
 10
2564.422518183348
 20
-705.0917426080216
 30
0.0
 10
2569.970093802704
 20
-722.5518415358978
 30
0.0
 10
2575.994422117303
 20
-740.0326600699474
 30
0.0
 10
2583.643640835529
 20
-760.8807153220774
 30
0.0
 10
2593.036726715699
 20
-785.0855410623736
 30
0.0
 10
2604.063557150037
 20
-812.627261376124
 30
0.0
 10
2614.145091097767
 20
-837.8862047606369
 30
0.0
 10
2623.014907003764
 20
-860.8525599991165
 30
0.0
 10
2630.60491766768
 20
-881.5071014267432
 30
0.0
 10
2637.644080824841
 20
-902.1450944262008
 30
0.0
 10
2643.513204040107
 20
-921.2815976635933
 30
0.0
 10
2648.265016510897
 20
-938.9088342463435
 30
0.0
 10
2651.969688541282
 20
-955.0330039940092
 30
0.0
 10
2654.754561511587
 20
-969.4213122800118
 30
0.0
 10
2655.913634097862
 20
-978.2799819826305
 30
0.0
 10
2656.386317795767
 20
-981.8926537023668
 30
0.0
  0
LINE
  5
27E
330
1F
100
AcDbEntity
  8
0
  6
Continuous
 62
     7
370
    15
100
AcDbLine
 10
2593.0226188827
 20
-635.9380179954
 30
0.0
 11
2601.5079002569
 21
-631.0395693244
 31
0.0
  0
LINE
  5
27F
330
1F
100
AcDbEntity
  8
0
  6
Continuous
 62
     7
370
    15
100
AcDbLine
 10
2601.5079002569
 20
-640.838059067
 30
0.0
 11
2601.5079002569
 21
-631.0395693244
 31
0.0
  0
LINE
  5
280
330
1F
100
AcDbEntity
  8
0
  6
Continuous
 62
     7
370
    15
100
AcDbLine
 10
2566.1525611976
 20
-610.6293665289
 30
0.0
 11
2557.6672798233
 21
-615.5278151998
 31
0.0
  0
LINE
  5
281
330
1F
100
AcDbEntity
  8
0
  6
Continuous
 62
     7
370
    15
100
AcDbLine
 10
2601.5079002569
 20
-631.0395693244
 30
0.0
 11
2566.1525611976
 21
-610.6293665289
 31
0.0
  0
LINE
  5
282
330
1F
100
AcDbEntity
  8
0
  6
Continuous
 62
     7
370
    15
100
AcDbLine
 10
2439.0779455299
 20
-556.8661394704
 30
0.0
 11
2447.5632269041
 21
-551.9676907995
 31
0.0
  0
LINE
  5
283
330
1F
100
AcDbEntity
  8
0
  6
Continuous
 62
     7
370
    15
100
AcDbLine
 10
2557.6672798233
 20
-615.5294076005
 30
0.0
 11
2447.5632269041
 21
-551.9676907995
 31
0.0
  0
LINE
  5
284
330
1F
100
AcDbEntity
  8
0
  6
Continuous
 62
     7
370
    15
100
AcDbLine
 10
2633.5150846832
 20
-1119.0108853418
 30
0.0
 11
2625.0298033089
 21
-1123.9093340128
 31
0.0
  0
LINE
  5
285
330
1F
100
AcDbEntity
  8
0
  6
Continuous
 62
     7
370
    15
100
AcDbLine
 10
2633.5150846832
 20
-1119.0092929411
 30
0.0
 11
2633.5150846832
 21
-1119.0108853418
 31
0.0
  0
LINE
  5
286
330
1F
100
AcDbEntity
  8
0
  6
Continuous
 62
     7
370
    15
100
AcDbLine
 10
2641.5253627906
 20
-1123.6351204636
 30
0.0
 11
2633.0400814163
 21
-1128.5335691346
 31
0.0
  0
LINE
  5
287
330
1F
100
AcDbEntity
  8
0
  6
Continuous
 62
     7
370
    15
100
AcDbLine
 10
2633.5150846832
 20
-1119.0108853418
 30
0.0
 11
2641.5253627906
 21
-1123.6351204636
 31
0.0
  0
LINE
  5
288
330
1F
100
AcDbEntity
  8
0
  6
Continuous
 62
     7
370
    15
100
AcDbLine
 10
2615.8546408265
 20
-1262.3896022265
 30
0.0
 11
2624.3399222008
 21
-1257.4911535555
 31
0.0
  0
LWPOLYLINE
  5
289
330
1F
100
AcDbEntity
  8
0
  6
Continuous
 62
     7
370
    15
100
AcDbPolyline
 90
       12
 70
   128
 43
0.0
 10
2624.3399222008
 20
-1257.4911535555
 10
2624.4828372488
 20
-1244.3390119044
 10
2624.9114935161
 20
-1231.3600555659
 10
2625.6256244282
 20
-1218.5623559493
 10
2626.6247858782
 20
-1205.9538717431
 10
2627.9083565034
 20
-1193.5424439657
 10
2629.4755380713
 20
-1181.3357910893
 10
2631.3253559762
 20
-1169.3415042397
 10
2633.4566598455
 20
-1157.5670424756
 10
2635.8681242547
 20
-1146.0197281501
 10
2638.558249552
 20
-1134.7067423567
 10
2641.5253627906
 20
-1123.6351204636
  0
LINE
  5
28A
330
1F
100
AcDbEntity
  8
0
  6
Continuous
 62
     7
370
    15
100
AcDbLine
 10
4413.5528552776
 20
-887.5167041669
 30
0.0
 11
4422.0381366519
 21
-882.618255496
 31
0.0
  0
LINE
  5
28B
330
1F
100
AcDbEntity
  8
0
  6
Continuous
 62
     7
370
    15
100
AcDbLine
 10
4422.0381366519
 20
-915.2798879714
 30
0.0
 11
4422.0381366519
 21
-882.618255496
 31
0.0
  0
LINE
  5
28C
330
1F
100
AcDbEntity
  8
0
  6
Continuous
 62
     7
370
    15
100
AcDbLine
 10
4413.5528552776
 20
-920.1783366424
 30
0.0
 11
4422.0381366519
 21
-915.2798879714
 31
0.0
  0
LINE
  5
28D
330
1F
100
AcDbEntity
  8
0
  6
Continuous
 62
     7
370
    15
100
AcDbLine
 10
4413.5528552776
 20
-920.1783366424
 30
0.0
 11
4413.5528552776
 21
-887.5167041669
 31
0.0
  0
LINE
  5
28E
330
1F
100
AcDbEntity
  8
0
  6
Continuous
 62
     7
370
    15
100
AcDbLine
 10
4261.4271346133
 20
-789.8994975934
 30
0.0
 11
4223.9350218845
 21
-768.255761615
 31
0.0
  0
LINE
  5
28F
330
1F
100
AcDbEntity
  8
0
  6
Continuous
 62
     7
370
    15
100
AcDbLine
 10
4261.4271346133
 20
-797.5962768634
 30
0.0
 11
4296.7824736727
 21
-818.006479659
 31
0.0
  0
LINE
  5
290
330
1F
100
AcDbEntity
  8
0
  6
Continuous
 62
     7
370
    15
100
AcDbLine
 10
4296.7824736727
 20
-818.006479659
 30
0.0
 11
4303.4488023584
 21
-814.158090024
 31
0.0
  0
LINE
  5
291
330
1F
100
AcDbEntity
  8
0
  6
Continuous
 62
     7
370
    15
100
AcDbLine
 10
4422.0381366519
 20
-882.618255496
 30
0.0
 11
4303.4488023584
 21
-814.158090024
 31
0.0
  0
LINE
  5
292
330
1F
100
AcDbEntity
  8
0
  6
Continuous
 62
     7
370
    15
100
AcDbLine
 10
4413.5528552776
 20
-887.5167041669
 30
0.0
 11
4215.4497405103
 21
-773.1542102859
 31
0.0
  0
SPLINE
  5
293
330
1F
100
AcDbEntity
  8
0
  6
Continuous
 62
     7
370
    15
100
AcDbSpline
210
0.0
220
0.0
230
1.0
 70
     8
 71
     3
 72
    26
 73
    22
 74
     0
 42
0.00000001
 43
0.00000001
 40
0.0
 40
0.0
 40
0.0
 40
0.0
 40
0.0460216308324978
 40
0.0914225013940219
 40
0.1364056858208015
 40
0.1811350873754471
 40
0.2257370010773201
 40
0.2703029518971747
 40
0.3148934338405026
 40
0.376302175478347
 40
0.4378408119642425
 40
0.4994748454272205
 40
0.5611362295652874
 40
0.6227456872488054
 40
0.6842348643293645
 40
0.7455686889601417
 40
0.8067681710750014
 40
0.8548233532995908
 40
0.9029477537915422
 40
0.9512778686406758
 40
1.0
 40
1.0
 40
1.0
 40
1.0
 10
4204.012156791123
 20
-1080.653837724063
 30
0.0
 10
4204.641400964343
 20
-1076.457615726176
 30
0.0
 10
4205.891401784887
 20
-1068.12177224319
 30
0.0
 10
4208.657919796499
 20
-1056.404249087417
 30
0.0
 10
4211.982055608122
 20
-1045.322904725024
 30
0.0
 10
4215.867606681963
 20
-1034.858470199162
 30
0.0
 10
4220.233947346968
 20
-1024.928845983919
 30
0.0
 10
4225.023158189282
 20
-1015.468528626112
 30
0.0
 10
4230.816447270758
 20
-1005.272839520886
 30
0.0
 10
4237.695944795182
 20
-994.4346898369702
 30
0.0
 10
4245.660600397568
 20
-982.9657312587434
 30
0.0
 10
4253.86435177176
 20
-971.7677036648449
 30
0.0
 10
4262.147351871611
 20
-960.6623746376065
 30
0.0
 10
4270.350001075173
 20
-949.4716328242561
 30
0.0
 10
4278.312404084413
 20
-938.0170091643281
 30
0.0
 10
4285.874892620615
 20
-926.1202002191245
 30
0.0
 10
4292.375300450561
 20
-914.4928534488707
 30
0.0
 10
4297.823178091428
 20
-903.1562715477553
 30
0.0
 10
4302.275887003246
 20
-892.1723933981779
 30
0.0
 10
4306.179131407385
 20
-880.5681741111446
 30
0.0
 10
4308.172008683337
 20
-872.2580683240928
 30
0.0
 10
4309.172472167854
 20
-868.0862322091721
 30
0.0
  0
LINE
  5
294
330
1F
100
AcDbEntity
  8
0
  6
Continuous
 62
     7
370
    15
100
AcDbLine
 10
4309.1724721679
 20
-868.0862322092
 30
0.0
 11
4180.088654747
 21
-793.567730583
 31
0.0
  0
LWPOLYLINE
  5
295
330
1F
100
AcDbEntity
  8
0
  6
Continuous
 62
     7
370
    15
100
AcDbPolyline
 90
       18
 70
   128
 43
0.0
 10
4082.4466740024
 20
-849.9352462506
 10
4088.1599780329
 20
-858.4820860499
 10
4096.7576544026
 20
-871.6506245279
 10
4105.1930405422
 20
-884.9471032427
 10
4113.4618530448
 20
-898.3647703718
 10
4121.5598930877
 20
-911.8968125543
 10
4129.483048565
 20
-925.5363583508
 10
4137.2272961753
 20
-939.2764817324
 10
4144.7887034651
 20
-953.1102055984
 10
4152.1634308252
 20
-967.030505318
 10
4159.3477334409
 20
-981.0303122987
 10
4166.337963193
 20
-995.1025175744
 10
4173.130570511
 20
-1009.2399754163
 10
4179.7221061749
 20
-1023.4355069607
 10
4186.109223067
 20
-1037.6819038547
 10
4192.2886778714
 20
-1051.9719319166
 10
4198.257332721
 20
-1066.2983348091
 10
4204.0121567911
 20
-1080.6538377241
  0
LINE
  5
296
330
1F
100
AcDbEntity
  8
0
  6
Continuous
 62
     7
370
    15
100
AcDbLine
 10
4227.6009974986
 20
-1239.8644536387
 30
0.0
 11
4227.6009974986
 21
-1230.065963896
 31
0.0
  0
LINE
  5
297
330
1F
100
AcDbEntity
  8
0
  6
Continuous
 62
     7
370
    15
100
AcDbLine
 10
4227.6009974986
 20
-1230.065963896
 30
0.0
 11
4217.1145324565
 21
-1224.0122564841
 31
0.0
  0
LWPOLYLINE
  5
298
330
1F
100
AcDbEntity
  8
0
  6
Continuous
 62
     7
370
    15
100
AcDbPolyline
 90
       28
 70
   128
 43
0.0
 10
4057.246695573
 20
-864.4828841427
 10
4063.4096753694
 20
-873.6076403401
 10
4071.6978870712
 20
-886.1947646846
 10
4079.8266658141
 20
-898.9103977227
 10
4087.7916115497
 20
-911.7476565753
 10
4095.5884129111
 20
-924.6995925281
 10
4103.2128495469
 20
-937.7591947933
 10
4110.6607944055
 20
-950.9193943036
 10
4117.9282159687
 20
-964.1730675395
 10
4125.0111804346
 20
-977.5130403848
 10
4131.9058538463
 20
-990.9320920099
 10
4138.6085041677
 20
-1004.4229587803
 10
4145.1155033032
 20
-1017.9783381888
 10
4151.4233290618
 20
-1031.5908928077
 10
4157.5285670637
 20
-1045.2532542609
 10
4163.4279125883
 20
-1058.9580272123
 10
4169.118172363
 20
-1072.6977933687
 10
4174.5962662918
 20
-1086.4651154951
 10
4179.8592291227
 20
-1100.2525414411
 10
4184.9042120525
 20
-1114.052608174
 10
4189.7284842688
 20
-1127.8578458186
 10
4194.3294344284
 20
-1141.660781701
 10
4198.7045720707
 20
-1155.4539443931
 10
4202.8515289657
 20
-1169.229867757
 10
4206.7680603961
 20
-1182.9810949861
 10
4210.452046372
 20
-1196.700182642
 10
4213.9014927788
 20
-1210.3797046831
 10
4217.1145324565
 20
-1224.0122564841
  0
LWPOLYLINE
  5
299
330
1F
100
AcDbEntity
  8
0
  6
Continuous
 62
     7
370
    15
100
AcDbPolyline
 90
        9
 70
   128
 43
0.0
 10
3317.5373444385
 20
-858.2728662826
 10
3317.6802594865
 20
-845.1207246314
 10
3318.1089157538
 20
-832.141768293
 10
3318.8230466659
 20
-819.3440686763
 10
3319.822208116
 20
-806.7355844701
 10
3321.1057787411
 20
-794.3241566927
 10
3322.672960309
 20
-782.1175038163
 10
3324.5227782139
 20
-770.1232169667
 10
3326.6288631634
 20
-758.4783274945
  0
LINE
  5
29A
330
1F
100
AcDbEntity
  8
0
  6
Continuous
 62
     7
370
    15
100
AcDbLine
 10
3282.1820053792
 20
-837.862663487
 30
0.0
 11
3317.5373444385
 21
-858.2728662826
 31
0.0
  0
LWPOLYLINE
  5
29B
330
1F
100
AcDbEntity
  8
0
  6
Continuous
 62
     7
370
    15
100
AcDbPolyline
 90
       10
 70
   128
 43
0.0
 10
3290.6124286291
 20
-737.6864824048
 10
3290.0854647018
 20
-740.6909270561
 10
3288.2368787018
 20
-752.2289270935
 10
3286.6328963572
 20
-763.9527245851
 10
3285.2743201305
 20
-775.8564541862
 10
3284.1618297092
 20
-787.9341605327
 10
3283.2959816656
 20
-800.1798012212
 10
3282.6772091781
 20
-812.5872498317
 10
3282.3058218151
 20
-825.1502989928
 10
3282.1820053792
 20
-837.862663487
  0
LWPOLYLINE
  5
29C
330
1F
100
AcDbEntity
  8
0
  6
Continuous
 62
     7
370
    15
100
AcDbPolyline
 90
        9
 70
   128
 43
0.0
 10
4406.4817874658
 20
-924.2617042021
 10
4407.8612843622
 20
-924.9011747819
 10
4409.1877679665
 20
-925.2022788111
 10
4410.4102622577
 20
-925.1534450308
 10
4411.4817874658
 20
-924.7565500957
 10
4412.3611654779
 20
-924.0268464556
 10
4413.0146022902
 20
-922.9923762123
 10
4413.4169866924
 20
-921.692893477
 10
4413.5528552776
 20
-920.1783366424
  0
LINE
  5
29D
330
1F
100
AcDbEntity
  8
0
  6
Continuous
 62
     7
370
    15
100
AcDbLine
 10
4353.636590099
 20
-893.7548211195
 30
0.0
 11
4406.4817874658
 21
-924.2617042021
 31
0.0
  0
SPLINE
  5
29E
330
1F
100
AcDbEntity
  8
0
  6
Continuous
 62
     7
370
    15
100
AcDbSpline
210
0.0
220
0.0
230
1.0
 70
     8
 71
     3
 72
    38
 73
    34
 74
     0
 42
0.00000001
 43
0.00000001
 40
0.0
 40
0.0
 40
0.0
 40
0.0
 40
0.033456683169629
 40
0.0650688803300019
 40
0.0949482514605228
 40
0.1232070026414139
 40
0.149957663694397
 40
0.1828942729447572
 40
0.2136891710391476
 40
0.2425907139833499
 40
0.2717306345347545
 40
0.2992628053193274
 40
0.3254588711951916
 40
0.3505708574903699
 40
0.3748282402539302
 40
0.4097776865246603
 40
0.4438713165872233
 40
0.4775527950791114
 40
0.5110369591587628
 40
0.5444842445773738
 40
0.5780504695290749
 40
0.6118948182680227
 40
0.646187527760137
 40
0.681116734961879
 40
0.7168939814402481
 40
0.7537579565818902
 40
0.791976213186706
 40
0.8231480786385832
 40
0.85549351205228
 40
0.8891766198996303
 40
0.9243692015946717
 40
0.9612493427904019
 40
1.0
 40
1.0
 40
1.0
 40
1.0
 10
4236.776159981006
 20
-1176.794613071371
 30
0.0
 10
4236.666980264421
 20
-1172.456844633186
 30
0.0
 10
4236.454639971248
 20
-1164.020451402798
 30
0.0
 10
4236.495442013473
 20
-1151.905815685065
 30
0.0
 10
4236.801822777569
 20
-1140.615087851407
 30
0.0
 10
4237.382023961227
 20
-1130.11852856732
 30
0.0
 10
4238.295657829523
 20
-1119.452649870367
 30
0.0
 10
4239.624423660393
 20
-1108.752500534791
 30
0.0
 10
4241.464421876777
 20
-1098.162074896386
 30
0.0
 10
4243.706644355648
 20
-1088.395901013381
 30
0.0
 10
4246.350806735404
 20
-1079.41351910314
 30
0.0
 10
4249.394456996695
 20
-1071.173052653518
 30
0.0
 10
4252.73281998948
 20
-1063.784461405621
 30
0.0
 10
4256.326905304172
 20
-1057.133453165238
 30
0.0
 10
4260.729124438383
 20
-1050.167747887124
 30
0.0
 10
4266.05739017023
 20
-1043.021046134652
 30
0.0
 10
4272.339322459975
 20
-1035.700994723303
 30
0.0
 10
4278.739294409052
 20
-1028.769700162999
 30
0.0
 10
4285.226959818755
 20
-1022.062112230527
 30
0.0
 10
4291.753798648589
 20
-1015.428199071453
 30
0.0
 10
4298.269608286595
 20
-1008.721755753514
 30
0.0
 10
4304.723885788546
 20
-1001.796338327382
 30
0.0
 10
4311.066001863481
 20
-994.5055656998303
 30
0.0
 10
4317.245028910962
 20
-986.7030880473152
 30
0.0
 10
4323.20972764891
 20
-978.2426675141187
 30
0.0
 10
4328.90860028495
 20
-968.9784910513589
 30
0.0
 10
4333.882819987418
 20
-959.5374086595629
 30
0.0
 10
4338.191686386084
 20
-950.0073554913191
 30
0.0
 10
4341.906847478538
 20
-940.4888130753282
 30
0.0
 10
4345.347374960867
 20
-930.1582656095218
 30
0.0
 10
4348.47902863859
 20
-918.9383069832182
 30
0.0
 10
4351.315771989312
 20
-906.7891403982682
 30
0.0
 10
4352.850333038964
 20
-898.1706456569649
 30
0.0
 10
4353.636590098998
 20
-893.7548211195443
 30
0.0
  0
LWPOLYLINE
  5
29F
330
1F
100
AcDbEntity
  8
0
  6
Continuous
 62
     7
370
    15
100
AcDbPolyline
 90
       18
 70
   128
 43
0.0
 10
4272.1314990403
 20
-1409.3483417629
 10
4272.0076826044
 20
-1396.4930218547
 10
4271.6362952413
 20
-1383.5011779713
 10
4271.0175227539
 20
-1370.3793098537
 10
4270.1516747103
 20
-1357.1339822929
 10
4269.039184289
 20
-1343.7718218464
 10
4267.6806080623
 20
-1330.2995135222
 10
4266.0766257177
 20
-1316.7237974345
 10
4264.2280397177
 20
-1303.0514654321
 10
4262.1357748988
 20
-1289.2893577
 10
4259.8008780084
 20
-1275.4443593373
 10
4257.2245171814
 20
-1261.5233969132
 10
4254.4079813554
 20
-1247.5334350007
 10
4251.3526796263
 20
-1233.4814726933
 10
4248.0601405431
 20
-1219.3745401027
 10
4244.5320113431
 20
-1205.2196948419
 10
4240.7700571281
 20
-1191.0240184945
 10
4236.776159981
 20
-1176.7946130714
  0
LINE
  5
2A0
330
1F
100
AcDbEntity
  8
0
  6
Continuous
 62
     7
370
    15
100
AcDbLine
 10
4236.776159981
 20
-1388.9381389673
 30
0.0
 11
4272.1314990403
 21
-1409.3483417629
 31
0.0
  0
LWPOLYLINE
  5
2A1
330
1F
100
AcDbEntity
  8
0
  6
Continuous
 62
     7
370
    15
100
AcDbPolyline
 90
       12
 70
   128
 43
0.0
 10
4219.5907193912
 20
-1235.2402185169
 10
4222.5578326298
 20
-1249.737596436
 10
4225.2479579271
 20
-1264.1565347856
 10
4227.6594223363
 20
-1278.4880666542
 10
4229.7907262056
 20
-1292.7232794872
 10
4231.6405441105
 20
-1306.853320629
 10
4233.2077256784
 20
-1320.8694028289
 10
4234.4912963035
 20
-1334.7628097053
 10
4235.4904577536
 20
-1348.5249011665
 10
4236.2045886657
 20
-1362.1471187839
 10
4236.633244933
 20
-1375.6209911141
 10
4236.776159981
 20
-1388.9381389673
  0
LINE
  5
2A2
330
1F
100
AcDbEntity
  8
0
  6
Continuous
 62
     7
370
    15
100
AcDbLine
 10
4219.5907193912
 20
-1235.2402185169
 30
0.0
 11
4227.6009974986
 21
-1239.8644536387
 31
0.0
  0
ARC
  5
2A3
330
1F
100
AcDbEntity
  8
0
  6
Continuous
 62
     7
370
    15
100
AcDbCircle
 10
4417.2812810943
 20
-915.8855282581
 30
0.0
 40
4.795255462651458
100
AcDbArc
 50
304.0563508206
 51
7.2558295728
  0
LINE
  5
2A4
330
1F
100
AcDbEntity
  8
0
  6
Continuous
 62
     7
370
    15
100
AcDbLine
 10
4236.776159981
 20
-1176.7946130714
 30
0.0
 11
4245.2614413552
 21
-1171.8961644004
 31
0.0
  0
SPLINE
  5
2A5
330
1F
100
AcDbEntity
  8
0
  6
Continuous
 62
     7
370
    15
100
AcDbSpline
210
0.0
220
0.0
230
1.0
 70
     8
 71
     3
 72
    38
 73
    34
 74
     0
 42
0.00000001
 43
0.00000001
 40
0.0
 40
0.0
 40
0.0
 40
0.0
 40
0.0343508678235957
 40
0.066807952728389
 40
0.0974858989896132
 40
0.1264999115787587
 40
0.1539655278613372
 40
0.1877824219383805
 40
0.2194003641210585
 40
0.2490743481361714
 40
0.2789930807904604
 40
0.3072610939321831
 40
0.3341572925732031
 40
0.3599404378312088
 40
0.3848461388785213
 40
0.4207296663419827
 40
0.4557345045074347
 40
0.4903161756764527
 40
0.5246952588824002
 40
0.55903647778469
 40
0.5934998150738942
 40
0.6282487094640778
 40
0.6634579477828937
 40
0.6993206952551001
 40
0.7360541472425433
 40
0.7739033724966587
 40
0.8131430746041302
 40
0.845148059214331
 40
0.8783579773122324
 40
0.9129413213839059
 40
0.9490744824641071
 40
0.9869403058365833
 40
0.9999999999999999
 40
0.9999999999999999
 40
0.9999999999999999
 40
0.9999999999999999
 10
4245.261441355243
 20
-1171.896164400435
 30
0.0
 10
4245.15226163866
 20
-1167.55839596225
 30
0.0
 10
4244.939921345486
 20
-1159.122002731861
 30
0.0
 10
4244.980723387711
 20
-1147.007367014129
 30
0.0
 10
4245.287104151807
 20
-1135.71663918047
 30
0.0
 10
4245.867305335466
 20
-1125.220079896384
 30
0.0
 10
4246.780939203763
 20
-1114.554201199431
 30
0.0
 10
4248.109705034632
 20
-1103.854051863855
 30
0.0
 10
4249.949703251014
 20
-1093.26362622545
 30
0.0
 10
4252.191925729886
 20
-1083.497452342445
 30
0.0
 10
4254.836088109642
 20
-1074.515070432203
 30
0.0
 10
4257.879738370934
 20
-1066.274603982582
 30
0.0
 10
4261.218101363719
 20
-1058.886012734685
 30
0.0
 10
4264.812186678412
 20
-1052.235004494303
 30
0.0
 10
4269.214405812615
 20
-1045.269299216182
 30
0.0
 10
4274.542671544506
 20
-1038.122597463745
 30
0.0
 10
4280.824603834085
 20
-1030.802546052262
 30
0.0
 10
4287.224575783764
 20
-1023.871251492449
 30
0.0
 10
4293.712241191239
 20
-1017.163663558159
 30
0.0
 10
4300.239080029381
 20
-1010.529750405863
 30
0.0
 10
4306.75488963619
 20
-1003.823307062478
 30
0.0
 10
4313.209167256112
 20
-996.8978897325665
 30
0.0
 10
4319.551282881604
 20
-989.6071167384324
 30
0.0
 10
4325.730311655042
 20
-981.8046404936748
 30
0.0
 10
4331.695003708373
 20
-973.3442145082447
 30
0.0
 10
4337.393902467533
 20
-964.0800593525151
 30
0.0
 10
4342.368026924989
 20
-954.6388992751935
 30
0.0
 10
4346.677192418813
 20
-945.1090900605625
 30
0.0
 10
4350.391233757048
 20
-935.5896343295942
 30
0.0
 10
4353.836214753391
 20
-925.2627193225765
 30
0.0
 10
4356.950102227979
 20
-914.0282698918145
 30
0.0
 10
4359.174994941923
 20
-904.7772003028251
 30
0.0
 10
4360.202959584619
 20
-899.1426519903143
 30
0.0
 10
4360.466577992324
 20
-897.6976892040547
 30
0.0
  0
LINE
  5
2A6
330
1F
100
AcDbEntity
  8
0
  6
Continuous
 62
     7
370
    15
100
AcDbLine
 10
4296.7824736727
 20
-818.006479659
 30
0.0
 11
4296.7824736727
 21
-808.2079899164
 31
0.0
  0
LINE
  5
2A7
330
1F
100
AcDbEntity
  8
0
  6
Continuous
 62
     7
370
    15
100
AcDbLine
 10
4261.4271346133
 20
-797.5962768634
 30
0.0
 11
4261.4271346133
 21
-787.7977871208
 31
0.0
  0
LINE
  5
2A8
330
1F
100
AcDbEntity
  8
0
  6
Continuous
 62
     7
370
    15
100
AcDbLine
 10
4261.4271346133
 20
-787.7977871208
 30
0.0
 11
4296.7824736727
 21
-808.2079899164
 31
0.0
  0
LINE
  5
2A9
330
1F
100
AcDbEntity
  8
0
  6
Continuous
 62
     7
370
    15
100
AcDbLine
 10
4305.2677550469
 20
-813.1080309881
 30
0.0
 11
4305.2677550469
 21
-803.3095412454
 31
0.0
  0
LINE
  5
2AA
330
1F
100
AcDbEntity
  8
0
  6
Continuous
 62
     7
370
    15
100
AcDbLine
 10
4303.4488023584
 20
-814.158090024
 30
0.0
 11
4305.2677550469
 21
-813.1080309881
 31
0.0
  0
LINE
  5
2AB
330
1F
100
AcDbEntity
  8
0
  6
Continuous
 62
     7
370
    15
100
AcDbLine
 10
4296.7824736727
 20
-808.2079899164
 30
0.0
 11
4305.2677550469
 21
-803.3095412454
 31
0.0
  0
LINE
  5
2AC
330
1F
100
AcDbEntity
  8
0
  6
Continuous
 62
     7
370
    15
100
AcDbLine
 10
4269.9124159876
 20
-782.8993384499
 30
0.0
 11
4261.4271346133
 21
-787.7977871208
 31
0.0
  0
LINE
  5
2AD
330
1F
100
AcDbEntity
  8
0
  6
Continuous
 62
     7
370
    15
100
AcDbLine
 10
4305.2677550469
 20
-803.3095412454
 30
0.0
 11
4269.9124159876
 21
-782.8993384499
 31
0.0
  0
LWPOLYLINE
  5
2AE
330
1F
100
AcDbEntity
  8
0
  6
Continuous
 62
     7
370
    15
100
AcDbPolyline
 90
       18
 70
   128
 43
0.0
 10
4090.9319553766
 20
-845.0367975797
 10
4096.6452594071
 20
-853.583637379
 10
4105.2429357768
 20
-866.752175857
 10
4113.6783219165
 20
-880.0486545718
 10
4121.947134419
 20
-893.4663217009
 10
4130.0451744619
 20
-906.9983638834
 10
4137.9683299392
 20
-920.6379096798
 10
4145.7125775496
 20
-934.3780330615
 10
4153.2739848393
 20
-948.2117569274
 10
4160.6487121995
 20
-962.1320566471
 10
4167.8330148151
 20
-976.1318636277
 10
4174.8232445673
 20
-990.2040689035
 10
4181.6158518853
 20
-1004.3415267454
 10
4188.2073875491
 20
-1018.5370582897
 10
4194.5945044412
 20
-1032.7834551838
 10
4200.7739592456
 20
-1047.0734832457
 10
4206.7426140953
 20
-1061.3998861382
 10
4207.3247598785
 20
-1062.8268593556
  0
LINE
  5
2AF
330
1F
100
AcDbEntity
  8
0
  6
Continuous
 62
     7
370
    15
100
AcDbLine
 10
4272.1314990403
 20
-1409.3483417629
 30
0.0
 11
4280.6167804146
 21
-1404.449893092
 31
0.0
  0
LWPOLYLINE
  5
2B0
330
1F
100
AcDbEntity
  8
0
  6
Continuous
 62
     7
370
    15
100
AcDbPolyline
 90
       18
 70
   128
 43
0.0
 10
4280.6167804146
 20
-1404.449893092
 10
4280.4929639787
 20
-1391.5945731838
 10
4280.1215766156
 20
-1378.6027293004
 10
4279.5028041282
 20
-1365.4808611827
 10
4278.6369560846
 20
-1352.235533622
 10
4277.5244656633
 20
-1338.8733731755
 10
4276.1658894366
 20
-1325.4010648512
 10
4274.5619070919
 20
-1311.8253487636
 10
4272.7133210919
 20
-1298.1530167612
 10
4270.621056273
 20
-1284.390909029
 10
4268.2861593827
 20
-1270.5459106664
 10
4265.7097985556
 20
-1256.6249482422
 10
4262.8932627297
 20
-1242.6349863298
 10
4259.8379610006
 20
-1228.5830240224
 10
4256.5454219174
 20
-1214.4760914318
 10
4253.0172927174
 20
-1200.321246171
 10
4249.2553385024
 20
-1186.1255698236
 10
4245.2614413552
 20
-1171.8961644004
  0
LINE
  5
2B1
330
1F
100
AcDbEntity
  8
0
  6
Continuous
 62
     7
370
    15
100
AcDbLine
 10
4219.5907193912
 20
-1235.2402185169
 30
0.0
 11
4227.6009974986
 21
-1230.6159833951
 31
0.0
  0
LINE
  5
2B2
330
1F
100
AcDbEntity
  8
0
  6
Continuous
 62
     7
370
    15
100
AcDbLine
 10
3317.5373444385
 20
-858.2728662826
 30
0.0
 11
3326.0226258127
 21
-853.3744176116
 31
0.0
  0
LWPOLYLINE
  5
2B3
330
1F
100
AcDbEntity
  8
0
  6
Continuous
 62
     7
370
    15
100
AcDbPolyline
 90
        9
 70
   128
 43
0.0
 10
3326.0226258127
 20
-853.3744176116
 10
3326.1655408607
 20
-840.2222759605
 10
3326.5941971281
 20
-827.243319622
 10
3327.3083280402
 20
-814.4456200054
 10
3328.3074894902
 20
-801.8371357992
 10
3329.5910601154
 20
-789.4257080218
 10
3331.1582416832
 20
-777.2190551454
 10
3333.0080595882
 20
-765.2247682958
 10
3333.4840107261
 20
-762.435719947
  0
LINE
  5
2B4
330
1F
100
AcDbEntity
  8
0
  6
Continuous
 62
     7
370
    15
100
AcDbLine
 10
3667.3633599395
 20
-1559.0586787193
 30
0.0
 11
3667.3633599395
 21
-1549.2601889767
 31
0.0
  0
LWPOLYLINE
  5
2B5
330
1F
100
AcDbEntity
  8
0
  6
Continuous
 62
     7
370
    15
100
AcDbPolyline
 90
       21
 70
   128
 43
0.0
 10
3620.3720792729
 20
-1544.5020395598
 10
3620.4847071197
 20
-1546.0078395932
 10
3620.9471610983
 20
-1547.8915775204
 10
3621.761723919
 20
-1549.7351116504
 10
3622.9187339349
 20
-1551.5165755595
 10
3624.4044676838
 20
-1553.2148390482
 10
3626.201302664
 20
-1554.8097587688
 10
3628.2879263573
 20
-1556.2824171492
 10
3630.63958902
 20
-1557.6153467765
 10
3633.228397243
 20
-1558.7927375807
 10
3636.0236447995
 20
-1559.80062436
 10
3638.9921768562
 20
-1560.6270524245
 10
3642.0987832273
 20
-1561.2622193918
 10
3645.3066160079
 20
-1561.6985914554
 10
3648.577626632
 20
-1561.9309927433
 10
3651.8730171719
 20
-1561.9566667105
 10
3655.1537005264
 20
-1561.7753088343
 10
3658.3807640385
 20
-1561.3890702267
 10
3661.5159310436
 20
-1560.8025321192
 10
3664.5220148748
 20
-1560.0226515248
 10
3667.3633599395
 20
-1559.0586787193
  0
LWPOLYLINE
  5
2B6
330
1F
100
AcDbEntity
  8
0
  6
Continuous
 62
     7
370
    15
100
AcDbPolyline
 90
       28
 70
   128
 43
0.0
 10
3629.2353184103
 20
-1522.350890445
 10
3627.0352718526
 20
-1523.7674669585
 10
3625.1151221796
 20
-1525.3137579237
 10
3623.4976445626
 20
-1526.9714225613
 10
3622.2020241364
 20
-1528.7207990725
 10
3621.2436284413
 20
-1530.5411378509
 10
3620.6338251464
 20
-1532.4108475963
 10
3620.3798472162
 20
-1534.3077514125
 10
3620.4847071197
 20
-1536.2093498505
 10
3620.9471610983
 20
-1538.0930877778
 10
3621.761723919
 20
-1539.9366219077
 10
3622.9187339349
 20
-1541.7180858169
 10
3624.4044676838
 20
-1543.4163493055
 10
3626.201302664
 20
-1545.0112690262
 10
3628.2879263573
 20
-1546.4839274066
 10
3630.63958902
 20
-1547.8168570339
 10
3633.228397243
 20
-1548.9942478381
 10
3636.0236447995
 20
-1550.0021346174
 10
3638.9921768562
 20
-1550.8285626818
 10
3642.0987832273
 20
-1551.4637296492
 10
3645.3066160079
 20
-1551.9001017128
 10
3648.577626632
 20
-1552.1325030007
 10
3651.8730171719
 20
-1552.1581769679
 10
3655.1537005264
 20
-1551.9768190917
 10
3658.3807640385
 20
-1551.590580484
 10
3661.5159310436
 20
-1551.0040423766
 10
3664.5220148748
 20
-1550.2241617821
 10
3667.3633599395
 20
-1549.2601889767
  0
LWPOLYLINE
  5
2B7
330
1F
100
AcDbEntity
  8
0
  6
Continuous
 62
     7
370
    15
100
AcDbPolyline
 90
       10
 70
   128
 43
0.0
 10
3446.2248929673
 20
-1218.8318995065
 10
3448.2314587561
 20
-1218.6941308953
 10
3450.2450349361
 20
-1218.7920490755
 10
3452.183401973
 20
-1219.1216557941
 10
3453.967411317
 20
-1219.6694923544
 10
3455.5242172429
 20
-1220.4131891699
 10
3456.7902513297
 20
-1221.3223791721
 10
3457.7138181245
 20
-1222.3599377768
 10
3458.2572060014
 20
-1223.483498777
 10
3458.3982270249
 20
-1224.6471842651
  0
LWPOLYLINE
  5
2B8
330
1F
100
AcDbEntity
  8
0
  6
Continuous
 62
     7
370
    15
100
AcDbPolyline
 90
        3
 70
   128
 43
0.0
 10
3317.8825435286
 20
-1144.7414382354
 10
3316.7114367915
 20
-1148.240307299
 10
3315.8908654486
 20
-1151.7681805638
  0
LWPOLYLINE
  5
2B9
330
1F
100
AcDbEntity
  8
0
  6
Continuous
 62
     7
370
    15
100
AcDbPolyline
 90
       16
 70
   128
 43
0.0
 10
3360.94308973
 20
-1209.0168314908
 10
3363.4961056866
 20
-1210.0224842898
 10
3368.7402878624
 20
-1211.9023744136
 10
3374.1627305728
 20
-1213.6054044981
 10
3379.7455558724
 20
-1215.1259596052
 10
3385.4703570296
 20
-1216.4590264223
 10
3391.3182592149
 20
-1217.6002097908
 10
3397.2699817308
 20
-1218.545747197
 10
3403.3059015817
 20
-1219.2925211777
 10
3409.4061181705
 20
-1219.8380695982
 10
3415.5505189125
 20
-1220.18059377
 10
3421.7188455463
 20
-1220.3189643813
 10
3427.8907609261
 20
-1220.2527252204
 10
3434.0459160742
 20
-1219.9820946796
 10
3440.1640172716
 20
-1219.5079650354
 10
3446.2248929673
 20
-1218.8318995065
  0
LWPOLYLINE
  5
2BA
330
1F
100
AcDbEntity
  8
0
  6
Continuous
 62
     7
370
    15
100
AcDbPolyline
 90
       10
 70
   128
 43
0.0
 10
3307.8090833859
 20
-1137.7139220688
 10
3309.8248641894
 20
-1137.7953317729
 10
3311.7711398102
 20
-1138.1090229171
 10
3313.5684387704
 20
-1138.642186679
 10
3315.1433726952
 20
-1139.3730526004
 10
3316.4316329508
 20
-1140.2717775315
 10
3317.3806165319
 20
-1141.3016642041
 10
3317.9515739794
 20
-1142.420659676
 10
3318.121191621
 20
-1143.583072462
 10
3317.8825435286
 20
-1144.7414382354
  0
SPLINE
  5
2BB
330
1F
100
AcDbEntity
  8
0
  6
Continuous
 62
     7
370
    15
100
AcDbSpline
210
0.0
220
0.0
230
1.0
 70
     8
 71
     3
 72
    27
 73
    23
 74
     0
 42
0.00000001
 43
0.00000001
 40
0.0
 40
0.0
 40
0.0
 40
0.0
 40
0.0440723501145965
 40
0.0879296643947759
 40
0.1316840054117774
 40
0.1754158163944512
 40
0.2191782072322811
 40
0.2630016813593264
 40
0.3068990736434065
 40
0.3508705509692182
 40
0.4200990395423838
 40
0.4894269795206238
 40
0.5587344698392183
 40
0.6279165059184137
 40
0.6831263591604855
 40
0.7382015624297364
 40
0.7931566252467296
 40
0.8480360217023393
 40
0.9029117338587831
 40
0.9460887964629421
 40
0.9893858378040661
 40
1.0
 40
1.0
 40
1.0
 40
1.0
 10
2792.115262181177
 20
-1039.091768443584
 30
0.0
 10
2799.079673406284
 20
-1040.11076570223
 30
0.0
 10
2812.974515413541
 20
-1042.143788373791
 30
0.0
 10
2833.438035372684
 20
-1045.901547685143
 30
0.0
 10
2853.59009019738
 20
-1050.076396977985
 30
0.0
 10
2873.4618925742
 20
-1054.654664724931
 30
0.0
 10
2893.114150345267
 20
-1059.551952246112
 30
0.0
 10
2912.599620596031
 20
-1064.703079780344
 30
0.0
 10
2931.973250919096
 20
-1070.037751806486
 30
0.0
 10
2954.977450748426
 20
-1076.528624443025
 30
0.0
 10
2981.650511175771
 20
-1084.134644768851
 30
0.0
 10
3012.16020775879
 20
-1092.638862780342
 30
0.0
 10
3042.896396613428
 20
-1100.858078001023
 30
0.0
 10
3071.855048493495
 20
-1108.12278343449
 30
0.0
 10
3099.006954174683
 20
-1114.409720649701
 30
0.0
 10
3124.301486911147
 20
-1119.756280711808
 30
0.0
 10
3149.859926263017
 20
-1124.571457529386
 30
0.0
 10
3175.70851418642
 20
-1128.771047578281
 30
0.0
 10
3199.993751202314
 20
-1132.046217827562
 30
0.0
 10
3222.659723889664
 20
-1134.429975325759
 30
0.0
 10
3238.316712535028
 20
-1135.807229519824
 30
0.0
 10
3247.068740309185
 20
-1136.261855104607
 30
0.0
 10
3248.79185973972
 20
-1136.351362839154
 30
0.0
  0
LINE
  5
2BC
330
1F
100
AcDbEntity
  8
0
  6
Continuous
 62
     7
370
    15
100
AcDbLine
 10
3303.7634525806
 20
-1137.7264717106
 30
0.0
 11
3307.8090833859
 21
-1137.7139220688
 31
0.0
  0
LWPOLYLINE
  5
2BD
330
1F
100
AcDbEntity
  8
0
  6
Continuous
 62
     7
370
    15
100
AcDbPolyline
 90
       28
 70
   128
 43
0.0
 10
2745.5019392777
 20
-1017.0809185829
 10
2743.8321084719
 20
-1018.7211921745
 10
2742.4811692814
 20
-1020.4565674318
 10
2741.4651453904
 20
-1022.2664608192
 10
2740.7960880043
 20
-1024.1294049308
 10
2740.4819329091
 20
-1026.0233031187
 10
2740.5264063435
 20
-1027.9256915839
 10
2740.9289808017
 20
-1029.8140058232
 10
2741.6848812902
 20
-1031.6658482699
 10
2742.7851419645
 20
-1033.4592539542
 10
2744.2167124745
 20
-1035.1729510335
 10
2745.9626127565
 20
-1036.7866131001
 10
2748.0021344361
 20
-1038.2811002762
 10
2750.3110864533
 20
-1039.6386862343
 10
2752.8620819961
 20
-1040.8432684522
 10
2755.6248633393
 20
-1041.8805592069
 10
2758.5666607362
 20
-1042.7382550436
 10
2761.6525811046
 20
-1043.4061827085
 10
2764.8460218991
 20
-1043.8764198156
 10
2768.1091052591
 20
-1044.1433888149
 10
2771.4031272836
 20
-1044.2039231487
 10
2774.6890171034
 20
-1044.0573048105
 10
2777.9278003067
 20
-1043.7052728615
 10
2781.0810612202
 20
-1043.1520028034
 10
2784.1113985625
 20
-1042.4040570518
 10
2786.9828690665
 20
-1041.470307099
 10
2789.6614138075
 20
-1040.3618282874
 10
2792.1152621812
 20
-1039.0917684436
  0
LINE
  5
2BE
330
1F
100
AcDbEntity
  8
0
  6
Continuous
 62
     7
370
    15
100
AcDbLine
 10
2755.9884043198
 20
-1023.1346259949
 30
0.0
 11
2745.5019392777
 21
-1017.0809185829
 31
0.0
  0
LINE
  5
2BF
330
1F
100
AcDbEntity
  8
0
  6
Continuous
 62
     7
370
    15
100
AcDbLine
 10
2764.473685694
 20
-1018.2361773239
 30
0.0
 11
2755.9884043198
 21
-1023.1346259949
 31
0.0
  0
LINE
  5
2C0
330
1F
100
AcDbEntity
  8
0
  6
Continuous
 62
     7
370
    15
100
AcDbLine
 10
2753.987220652
 20
-1012.182469912
 30
0.0
 11
2764.473685694
 21
-1018.2361773239
 31
0.0
  0
SPLINE
  5
2C1
330
1F
100
AcDbEntity
  8
0
  6
Continuous
 62
     7
370
    15
100
AcDbSpline
210
0.0
220
0.0
230
1.0
 70
     8
 71
     3
 72
    14
 73
    10
 74
     0
 42
0.00000001
 43
0.00000001
 40
0.0
 40
0.0
 40
0.0
 40
0.0
 40
0.0907973771837914
 40
0.2028570039686389
 40
0.3364072322399157
 40
0.4916512215052335
 40
0.6687982831785676
 40
0.8643240454042251
 40
1.0
 40
1.0
 40
1.0
 40
1.0
 10
3330.199473668861
 20
-1121.292740774172
 30
0.0
 10
3328.89331380104
 20
-1121.205363573469
 30
0.0
 10
3325.97512733235
 20
-1121.010147833767
 30
0.0
 10
3321.120705304486
 20
-1120.771599736008
 30
0.0
 10
3315.336572739865
 20
-1120.490671329402
 30
0.0
 10
3308.614049765699
 20
-1120.156600634633
 30
0.0
 10
3301.003752584565
 20
-1119.737987779341
 30
0.0
 10
3293.68195206977
 20
-1119.295705905737
 30
0.0
 10
3288.921597930766
 20
-1118.957918682457
 30
0.0
 10
3286.97153076861
 20
-1118.819544991619
 30
0.0
  0
SPLINE
  5
2C2
330
1F
100
AcDbEntity
  8
0
  6
Continuous
 62
     7
370
    15
100
AcDbSpline
210
0.0
220
0.0
230
1.0
 70
     8
 71
     3
 72
    39
 73
    35
 74
     0
 42
0.00000001
 43
0.00000001
 40
0.0
 40
0.0
 40
0.0
 40
0.0
 40
0.0074906501877743
 40
0.0383889430309085
 40
0.0714336993196215
 40
0.1066690302968062
 40
0.1441416276627961
 40
0.1794507665306209
 40
0.2166110559936119
 40
0.2556603310632148
 40
0.2966378247592069
 40
0.3395841121937392
 40
0.3837203903340785
 40
0.4298369672033849
 40
0.4779757527603514
 40
0.5281797030684631
 40
0.5676149060505908
 40
0.6082800346197517
 40
0.6501948665716206
 40
0.6933794703014896
 40
0.7378511656978298
 40
0.7831399060597809
 40
0.8100953190534949
 40
0.8364701242463451
 40
0.8619394941443328
 40
0.8862042062079472
 40
0.909006585545735
 40
0.9242921154772173
 40
0.9386958108624514
 40
0.9522206279119056
 40
0.9649262607584871
 40
0.9769498230555137
 40
0.9885265745418556
 40
1.0
 40
1.0
 40
1.0
 40
1.0
 10
3225.549513592698
 20
-1112.798110771217
 30
0.0
 10
3224.30386469347
 20
-1112.648510255381
 30
0.0
 10
3217.920020376853
 20
-1111.881820377219
 30
0.0
 10
3206.106299681196
 20
-1110.280456457279
 30
0.0
 10
3189.760808632577
 20
-1107.927493193349
 30
0.0
 10
3172.426116343981
 20
-1105.207000504913
 30
0.0
 10
3154.815677049556
 20
-1102.23398423687
 30
0.0
 10
3136.991217233534
 20
-1099.017722888631
 30
0.0
 10
3119.011052282048
 20
-1095.576298106852
 30
0.0
 10
3100.226996693782
 20
-1091.77374903103
 30
0.0
 10
3080.635599976392
 20
-1087.591014833106
 30
0.0
 10
3060.363387361145
 20
-1083.038061366416
 30
0.0
 10
3039.41551091905
 20
-1078.102808706069
 30
0.0
 10
3017.79696629958
 20
-1072.773411748685
 30
0.0
 10
2995.386685921368
 20
-1067.003932706001
 30
0.0
 10
2974.16492421353
 20
-1061.308550690099
 30
0.0
 10
2954.222639515907
 20
-1055.766174882673
 30
0.0
 10
2935.654000260494
 20
-1050.452188759539
 30
0.0
 10
2916.6250881196
 20
-1044.848354268222
 30
0.0
 10
2897.131856623863
 20
-1038.950154370473
 30
0.0
 10
2877.25873572723
 20
-1032.760007058291
 30
0.0
 10
2859.881144865769
 20
-1027.251874206891
 30
0.0
 10
2845.081010535288
 20
-1022.722358997667
 30
0.0
 10
2833.134161617799
 20
-1019.237228462971
 30
0.0
 10
2821.423637071792
 20
-1016.072548906063
 30
0.0
 10
2810.047744869831
 20
-1013.334250377826
 30
0.0
 10
2800.040453789453
 20
-1011.316374597011
 30
0.0
 10
2791.431643682713
 20
-1009.964076675798
 30
0.0
 10
2784.21933076101
 20
-1009.151348933241
 30
0.0
 10
2777.342252877906
 20
-1008.747518326471
 30
0.0
 10
2770.824866116222
 20
-1008.790649671186
 30
0.0
 10
2764.716477674758
 20
-1009.341660425792
 30
0.0
 10
2758.992522368728
 20
-1010.398082433601
 30
0.0
 10
2755.650661085368
 20
-1011.5894542561
 30
0.0
 10
2753.987220651984
 20
-1012.182469911959
 30
0.0
  0
ARC
  5
2C3
330
1F
100
AcDbEntity
  8
0
  6
Continuous
 62
     7
370
    15
100
AcDbCircle
 10
3331.6936557308
 20
-1107.0869954853
 30
0.0
 40
14.28410932637453
100
AcDbArc
 50
263.9956196112
 51
301.9943714143
  0
LINE
  5
2C4
330
1F
100
AcDbEntity
  8
0
  6
Continuous
 62
     7
370
    15
100
AcDbLine
 10
3340.7074710409
 20
-1118.1928259957
 30
0.0
 11
3339.2618903896
 21
-1119.2013507466
 31
0.0
  0
SPLINE
  5
2C5
330
1F
100
AcDbEntity
  8
0
  6
Continuous
 62
     7
370
    15
100
AcDbSpline
210
0.0
220
0.0
230
1.0
 70
     8
 71
     3
 72
    42
 73
    38
 74
     0
 42
0.00000001
 43
0.00000001
 40
0.0
 40
0.0
 40
0.0
 40
0.0
 40
0.0103804397949199
 40
0.0208543625360506
 40
0.0317325318325758
 40
0.0432277960238532
 40
0.05546420699208
 40
0.0684957722657845
 40
0.0823251664398296
 40
0.1029553371556571
 40
0.1249085353209553
 40
0.1479516327642679
 40
0.1718139115933675
 40
0.1962014881500994
 40
0.2453150712928041
 40
0.293178379540569
 40
0.3393715284086989
 40
0.3839261093855383
 40
0.4268731801426703
 40
0.4731029961983554
 40
0.5173965577279332
 40
0.5597948605268765
 40
0.6003378814819437
 40
0.6390645298633026
 40
0.6753682087792567
 40
0.7099909715523821
 40
0.7429663936664072
 40
0.7743268720462612
 40
0.8081579926476122
 40
0.8399737035562217
 40
0.8698159800995758
 40
0.8977244836182589
 40
0.9237364853908462
 40
0.9474716893006087
 40
0.9694417234854076
 40
0.9896748251164099
 40
1.0
 40
1.0
 40
1.0
 40
1.0
 10
3169.766007989675
 20
-772.1584850360827
 30
0.0
 10
3168.738763439937
 20
-773.1187687580679
 30
0.0
 10
3166.675023302076
 20
-775.0479842124598
 30
0.0
 10
3164.845048429065
 20
-778.3523532750528
 30
0.0
 10
3163.890566385101
 20
-781.8786508633773
 30
0.0
 10
3163.815852614747
 20
-785.6410581540933
 30
0.0
 10
3164.515383516486
 20
-789.611110718084
 30
0.0
 10
3165.923221893635
 20
-793.7746903147254
 30
0.0
 10
3168.265723984996
 20
-798.744450739404
 30
0.0
 10
3171.761168581919
 20
-804.5215361357991
 30
0.0
 10
3176.504544021671
 20
-811.0887022583777
 30
0.0
 10
3181.986566500348
 20
-817.8490308382045
 30
0.0
 10
3188.023476166471
 20
-824.7458522783081
 30
0.0
 10
3196.586279537893
 20
-834.0689076062149
 30
0.0
 10
3207.582335051477
 20
-845.5893022249703
 30
0.0
 10
3220.253845425327
 20
-859.2738080090573
 30
0.0
 10
3232.209567790069
 20
-872.617359407404
 30
0.0
 10
3243.436726514189
 20
-885.5770775247424
 30
0.0
 10
3254.354799009911
 20
-898.6289204185289
 30
0.0
 10
3264.915418219239
 20
-911.7474021460964
 30
0.0
 10
3275.069942533136
 20
-924.9072264096351
 30
0.0
 10
3284.435350722075
 20
-937.5932812710926
 30
0.0
 10
3293.044854541909
 20
-949.8075262634138
 30
0.0
 10
3300.887947992472
 20
-961.4868090853653
 30
0.0
 10
3308.008362079597
 20
-972.6378573071804
 30
0.0
 10
3314.449266475848
 20
-983.2675114425365
 30
0.0
 10
3320.288069580403
 20
-993.4495667143862
 30
0.0
 10
3325.783182070933
 20
-1003.605304137253
 30
0.0
 10
3330.897268113631
 20
-1013.696448247341
 30
0.0
 10
3335.595609363314
 20
-1023.684306977115
 30
0.0
 10
3339.685940012088
 20
-1033.10040320255
 30
0.0
 10
3343.215286269765
 20
-1041.9474533589
 30
0.0
 10
3346.21305836594
 20
-1050.184279926828
 30
0.0
 10
3348.737154802566
 20
-1057.819573195915
 30
0.0
 10
3350.82690039375
 20
-1064.863509796386
 30
0.0
 10
3352.349828817094
 20
-1070.488661761699
 30
0.0
 10
3353.114036278997
 20
-1073.771043016188
 30
0.0
 10
3353.37225030778
 20
-1074.880109506605
 30
0.0
  0
LINE
  5
2C6
330
1F
100
AcDbEntity
  8
0
  6
Continuous
 62
     7
370
    15
100
AcDbLine
 10
3180.2524730317
 20
-778.2121924481
 30
0.0
 11
3169.7660079897
 21
-772.1584850361
 31
0.0
  0
LINE
  5
2C7
330
1F
100
AcDbEntity
  8
0
  6
Continuous
 62
     7
370
    15
100
AcDbLine
 10
3188.737754406
 20
-773.3137437771
 30
0.0
 11
3180.2524730317
 21
-778.2121924481
 31
0.0
  0
LINE
  5
2C8
330
1F
100
AcDbEntity
  8
0
  6
Continuous
 62
     7
370
    15
100
AcDbLine
 10
3178.2512893639
 20
-767.2600363651
 30
0.0
 11
3188.737754406
 21
-773.3137437771
 31
0.0
  0
LWPOLYLINE
  5
2C9
330
1F
100
AcDbEntity
  8
0
  6
Continuous
 62
     7
370
    15
100
AcDbPolyline
 90
       28
 70
   128
 43
0.0
 10
3216.3793308931
 20
-794.1693348968
 10
3218.5793774508
 20
-792.7527583833
 10
3220.4995271239
 20
-791.2064674181
 10
3222.1170047408
 20
-789.5488027805
 10
3223.412625167
 20
-787.7994262693
 10
3224.3710208621
 20
-785.979087491
 10
3224.9808241571
 20
-784.1093777456
 10
3225.2348020872
 20
-782.2124739293
 10
3225.1299421837
 20
-780.3108754913
 10
3224.6674882051
 20
-778.427137564
 10
3223.8529253844
 20
-776.5836034341
 10
3222.6959153686
 20
-774.8021395249
 10
3221.2101816197
 20
-773.1038760363
 10
3219.4133466395
 20
-771.5089563156
 10
3217.3267229461
 20
-770.0362979352
 10
3214.9750602834
 20
-768.7033683079
 10
3212.3862520605
 20
-767.5259775037
 10
3209.591004504
 20
-766.5180907244
 10
3206.6224724473
 20
-765.69166266
 10
3203.5158660761
 20
-765.0564956926
 10
3200.3080332955
 20
-764.620123629
 10
3197.0370226715
 20
-764.3877223411
 10
3193.7416321316
 20
-764.3620483739
 10
3190.460948777
 20
-764.5434062501
 10
3187.2338852649
 20
-764.9296448578
 10
3184.0987182599
 20
-765.5161829652
 10
3181.0926344286
 20
-766.2960635597
 10
3178.2512893639
 20
-767.2600363651
  0
SPLINE
  5
2CA
330
1F
100
AcDbEntity
  8
0
  6
Continuous
 62
     7
370
    15
100
AcDbSpline
210
0.0
220
0.0
230
1.0
 70
     8
 71
     3
 72
    29
 73
    25
 74
     0
 42
0.00000001
 43
0.00000001
 40
0.0
 40
0.0
 40
0.0
 40
0.0
 40
0.017516992400507
 40
0.0579910869286649
 40
0.0981883619173225
 40
0.138201100532739
 40
0.1781048663497025
 40
0.2179590771592613
 40
0.2578081239842581
 40
0.297687459385787
 40
0.3479042845831328
 40
0.3982396839163085
 40
0.4486962650115008
 40
0.4992551197476928
 40
0.549879847786318
 40
0.6131760807111305
 40
0.6763864243035773
 40
0.7394490585970172
 40
0.8023438546224678
 40
0.8418060257793569
 40
0.8812427432287956
 40
0.9207016727298774
 40
0.9602543808774385
 40
1.0
 40
1.0
 40
1.0
 40
1.0
 10
3387.279628874186
 20
-1084.655932759395
 30
0.0
 10
3387.316723134405
 20
-1082.850536706181
 30
0.0
 10
3387.439525977481
 20
-1076.873661391697
 30
0.0
 10
3386.462569711534
 20
-1066.760841450979
 30
0.0
 10
3384.457004859891
 20
-1054.375426374581
 30
0.0
 10
3381.407665956318
 20
-1042.116975688711
 30
0.0
 10
3377.468320366008
 20
-1029.981494176075
 30
0.0
 10
3372.686035656239
 20
-1017.964687611667
 30
0.0
 10
3367.135811645756
 20
-1006.061686755476
 30
0.0
 10
3360.347563302913
 20
-993.2533992166566
 30
0.0
 10
3352.185756447302
 20
-979.5655662292972
 30
0.0
 10
3342.56443669802
 20
-965.0249824216219
 30
0.0
 10
3332.213578888596
 20
-950.6149185756294
 30
0.0
 10
3321.267774401874
 20
-936.3201815796198
 30
0.0
 10
3308.90917951533
 20
-920.9427361193884
 30
0.0
 10
3295.178388438842
 20
-904.4977767129775
 30
0.0
 10
3280.195762135281
 20
-886.9797676548724
 30
0.0
 10
3265.375027273552
 20
-869.461736650502
 30
0.0
 10
3252.938726292624
 20
-853.9963358867506
 30
0.0
 10
3242.937951113432
 20
-840.5704652180226
 30
0.0
 10
3235.131258051078
 20
-829.2331565403067
 30
0.0
 10
3228.010673875208
 20
-817.736977677643
 30
0.0
 10
3221.597913416078
 20
-806.0647247705983
 30
0.0
 10
3218.121677308885
 20
-798.1408903564673
 30
0.0
 10
3216.379330893104
 20
-794.1693348967729
 30
0.0
  0
LWPOLYLINE
  5
2CB
330
1F
100
AcDbEntity
  8
0
  6
Continuous
 62
     7
370
    15
100
AcDbPolyline
 90
       35
 70
   128
 43
0.0
 10
3527.7321057748
 20
-1171.7787871064
 10
3528.9032125119
 20
-1168.2799180428
 10
3529.7245181352
 20
-1164.7480134003
 10
3530.193314777
 20
-1161.1947179673
 10
3530.3080568017
 20
-1157.6317470585
 10
3530.0683659016
 20
-1154.0708478887
 10
3529.4750323443
 20
-1150.5237608422
 10
3528.5300123672
 20
-1147.0021807644
 10
3527.2364217276
 20
-1143.5177184034
 10
3525.5985254301
 20
-1140.0818621292
 10
3523.6217236646
 20
-1136.7059400561
 10
3521.312534002
 20
-1133.4010826939
 10
3518.6785699052
 20
-1130.1781862498
 10
3515.7285156276
 20
-1127.0478767036
 10
3512.4720975808
 20
-1124.0204747736
 10
3508.9200522663
 20
-1121.1059618887
 10
3505.084090877
 20
-1118.3139472795
 10
3500.9768606851
 20
-1115.6536362965
 10
3496.6119033435
 20
-1113.1338000594
 10
3492.0036102388
 20
-1110.7627465389
 10
3487.1671750425
 20
-1108.5482931648
 10
3482.1185436168
 20
-1106.497741052
 10
3476.874361441
 20
-1104.6178509282
 10
3471.4519187306
 20
-1102.9148208438
 10
3465.8690934311
 20
-1101.3942657366
 10
3460.1442922738
 20
-1100.0611989195
 10
3454.2963900885
 20
-1098.920015551
 10
3448.3446675726
 20
-1097.9744781448
 10
3442.3087477218
 20
-1097.2277041641
 10
3436.2085311329
 20
-1096.6821557436
 10
3430.0641303909
 20
-1096.3396315719
 10
3423.8958037572
 20
-1096.2012609605
 10
3417.7238883773
 20
-1096.2675001214
 10
3411.5687332292
 20
-1096.5381306622
 10
3408.2619103094
 20
-1096.7687460035
  0
ARC
  5
2CC
330
1F
100
AcDbEntity
  8
0
  6
Continuous
 62
     7
370
    15
100
AcDbCircle
 10
3537.2905242155
 20
-1163.8509599059
 30
0.0
 40
14.96420940715885
100
AcDbArc
 50
245.3715889027
 51
271.9724092586
  0
ARC
  5
2CD
330
1F
100
AcDbEntity
  8
0
  6
Continuous
 62
     7
370
    15
100
AcDbCircle
 10
3531.8250943871
 20
-1172.9778697334
 30
0.0
 40
4.265015231757424
100
AcDbArc
 50
163.6715173479
 51
242.2560605072
  0
SPLINE
  5
2CE
330
1F
100
AcDbEntity
  8
0
  6
Continuous
 62
     7
370
    15
100
AcDbSpline
210
0.0
220
0.0
230
1.0
 70
     8
 71
     3
 72
    10
 73
     6
 74
     0
 42
0.00000001
 43
0.00000001
 40
0.0238961288234489
 40
0.0238961288234489
 40
0.0238961288234489
 40
0.0238961288234489
 40
0.3811362833574214
 40
0.752381329696074
 40
1.0
 40
1.0
 40
1.0
 40
1.0
 10
4053.499387122255
 20
-1277.428456898222
 30
0.0
 10
3988.018753877463
 20
-1268.440268896833
 30
0.0
 10
3867.174566745024
 20
-1232.334352469672
 30
0.0
 10
3699.744234783609
 20
-1187.703384336776
 30
0.0
 10
3585.263740241095
 20
-1177.946758885003
 30
0.0
 10
3537.805565917556
 20
-1178.806303273002
 30
0.0
  0
LWPOLYLINE
  5
2CF
330
1F
100
AcDbEntity
  8
0
  6
Continuous
 62
     7
370
    15
100
AcDbPolyline
 90
       28
 70
   128
 43
0.0
 10
4100.1127100257
 20
-1299.4393067589
 10
4101.7825408315
 20
-1297.7990331673
 10
4103.133480022
 20
-1296.06365791
 10
4104.149503913
 20
-1294.2537645226
 10
4104.8185612991
 20
-1292.390820411
 10
4105.1327163943
 20
-1290.4969222231
 10
4105.08824296
 20
-1288.5945337579
 10
4104.6856685017
 20
-1286.7062195186
 10
4103.9297680133
 20
-1284.8543770719
 10
4102.829507339
 20
-1283.0609713876
 10
4101.3979368289
 20
-1281.3472743083
 10
4099.6520365469
 20
-1279.7336122417
 10
4097.6125148673
 20
-1278.2391250656
 10
4095.3035628501
 20
-1276.8815391075
 10
4092.7525673074
 20
-1275.6769568896
 10
4089.9897859641
 20
-1274.6396661349
 10
4087.0479885672
 20
-1273.7819702982
 10
4083.9620681988
 20
-1273.1140426333
 10
4080.7686274043
 20
-1272.6438055262
 10
4077.5055440443
 20
-1272.3768365269
 10
4074.2115220199
 20
-1272.3163021931
 10
4070.9256322001
 20
-1272.4629205313
 10
4067.6868489967
 20
-1272.8149524803
 10
4064.5335880833
 20
-1273.3682225384
 10
4061.503250741
 20
-1274.11616829
 10
4058.631780237
 20
-1275.0499182428
 10
4055.9532354959
 20
-1276.1583970545
 10
4053.4993871223
 20
-1277.4284568982
  0
LINE
  5
2D0
330
1F
100
AcDbEntity
  8
0
  6
Continuous
 62
     7
370
    15
100
AcDbLine
 10
4089.6262449836
 20
-1293.3855993469
 30
0.0
 11
4100.1127100257
 21
-1299.4393067589
 31
0.0
  0
LINE
  5
2D1
330
1F
100
AcDbEntity
  8
0
  6
Continuous
 62
     7
370
    15
100
AcDbLine
 10
4081.1409636094
 20
-1298.2840480179
 30
0.0
 11
4089.6262449836
 21
-1293.3855993469
 31
0.0
  0
LINE
  5
2D2
330
1F
100
AcDbEntity
  8
0
  6
Continuous
 62
     7
370
    15
100
AcDbLine
 10
4091.6274286514
 20
-1304.3377554298
 30
0.0
 11
4081.1409636094
 21
-1298.2840480179
 31
0.0
  0
SPLINE
  5
2D3
330
1F
100
AcDbEntity
  8
0
  6
Continuous
 62
     7
370
    15
100
AcDbSpline
210
0.0
220
0.0
230
1.0
 70
     8
 71
     3
 72
    41
 73
    37
 74
     0
 42
0.00000001
 43
0.00000001
 40
0.0
 40
0.0
 40
0.0
 40
0.0
 40
0.0164613473857843
 40
0.0415436542724033
 40
0.0685651233925883
 40
0.0975620770103747
 40
0.1285734105581366
 40
0.1616405208751979
 40
0.1968072264688058
 40
0.2299436028774398
 40
0.2648172185639873
 40
0.3014635803468218
 40
0.3399195070256266
 40
0.3802230769062508
 40
0.4216434109225852
 40
0.4649221851668231
 40
0.5100987306510214
 40
0.5572133601195371
 40
0.594221901581233
 40
0.6323846846504372
 40
0.6717202700879907
 40
0.7122474913721834
 40
0.7539826026049891
 40
0.7964844816036296
 40
0.8217811821137576
 40
0.8465330027641069
 40
0.8704351044548253
 40
0.893206677429088
 40
0.9146059029264255
 40
0.9289508314536008
 40
0.9424681894879348
 40
0.9551607513282637
 40
0.967084537804344
 40
0.9783682252241465
 40
0.9892325965212386
 40
1.0
 40
1.0
 40
1.0
 40
1.0
 10
3587.252023698305
 20
-1200.097539047678
 30
0.0
 10
3590.190343958089
 20
-1200.382172467647
 30
0.0
 10
3597.605809907096
 20
-1201.100504455694
 30
0.0
 10
3609.793332035933
 20
-1202.453594820845
 30
0.0
 10
3624.160738467927
 20
-1204.190260922296
 30
0.0
 10
3639.511570028566
 20
-1206.231046668458
 30
0.0
 10
3655.852889624474
 20
-1208.595307982434
 30
0.0
 10
3673.188813682663
 20
-1211.31246452026
 30
0.0
 10
3690.798900158431
 20
-1214.286436369756
 30
0.0
 10
3708.623451970846
 20
-1217.502448553035
 30
0.0
 10
3726.60359127539
 20
-1220.943942797531
 30
0.0
 10
3745.387654265253
 20
-1224.746471826709
 30
0.0
 10
3764.979048850669
 20
-1228.929211798915
 30
0.0
 10
3785.25126207626
 20
-1233.482163612537
 30
0.0
 10
3806.199138346311
 20
-1238.417416738854
 30
0.0
 10
3827.817683014743
 20
-1243.746813563629
 30
0.0
 10
3850.227963378929
 20
-1249.5162926443
 30
0.0
 10
3871.449725090556
 20
-1255.211674649939
 30
0.0
 10
3891.392009787364
 20
-1260.754050459572
 30
0.0
 10
3909.960649042985
 20
-1266.068036582144
 30
0.0
 10
3928.989561183821
 20
-1271.671871073619
 30
0.0
 10
3948.482792679574
 20
-1277.570070971324
 30
0.0
 10
3968.355913576201
 20
-1283.760218283518
 30
0.0
 10
3985.733504437665
 20
-1289.268351134915
 30
0.0
 10
4000.533638768146
 20
-1293.79786634414
 30
0.0
 10
4012.480487685634
 20
-1297.282996878836
 30
0.0
 10
4024.191012231642
 20
-1300.447676435743
 30
0.0
 10
4035.566904433602
 20
-1303.18597496398
 30
0.0
 10
4045.57419551398
 20
-1305.203850744795
 30
0.0
 10
4054.183005620721
 20
-1306.556148666008
 30
0.0
 10
4061.395318542423
 20
-1307.368876408565
 30
0.0
 10
4068.272396425527
 20
-1307.772707015335
 30
0.0
 10
4074.789783187211
 20
-1307.729575670621
 30
0.0
 10
4080.898171628675
 20
-1307.178564916014
 30
0.0
 10
4086.622126934705
 20
-1306.122142908205
 30
0.0
 10
4089.963988218065
 20
-1304.930771085706
 30
0.0
 10
4091.627428651449
 20
-1304.337755429847
 30
0.0
  0
LINE
  5
2D4
330
1F
100
AcDbEntity
  8
0
  6
Continuous
 62
     7
370
    15
100
AcDbLine
 10
3490.4664157888
 20
-1206.4898652713
 30
0.0
 11
3492.2134211896
 21
-1205.6553493244
 31
0.0
  0
LWPOLYLINE
  5
2D5
330
1F
100
AcDbEntity
  8
0
  6
Continuous
 62
     7
370
    15
100
AcDbPolyline
 90
        9
 70
   128
 43
0.0
 10
3486.8436294661
 20
-1211.721487086
 10
3486.7599399971
 20
-1210.9878490382
 10
3486.8384530165
 20
-1210.25402031
 10
3487.0778950208
 20
-1209.5319038109
 10
3487.4743821931
 20
-1208.8332124742
 10
3488.0214833995
 20
-1208.1692792709
 10
3488.7103245039
 20
-1207.550873385
 10
3489.529732309
 20
-1206.9880255348
 10
3490.4664157888
 20
-1206.4898652713
  0
SPLINE
  5
2D6
330
1F
100
AcDbEntity
  8
0
  6
Continuous
 62
     7
370
    15
100
AcDbSpline
210
0.0
220
0.0
230
1.0
 70
     8
 71
     3
 72
    24
 73
    20
 74
     0
 42
0.00000001
 43
0.00000001
 40
0.0
 40
0.0
 40
0.0
 40
0.0
 40
0.02469687891487
 40
0.049616170082861
 40
0.0754972343960726
 40
0.1028464752216258
 40
0.1319590336493314
 40
0.1629634030204073
 40
0.1958659466630716
 40
0.2449487252570232
 40
0.297179217181639
 40
0.3520027698079499
 40
0.4087752979973194
 40
0.4667976012087401
 40
0.5836473917681345
 40
0.6975225600282168
 40
0.8074241274792502
 40
0.9134272557885436
 40
1.0
 40
1.0
 40
1.0
 40
1.0
 10
3675.848641313758
 20
-1544.361740305724
 30
0.0
 10
3676.875885863498
 20
-1543.401456583738
 30
0.0
 10
3678.939626001363
 20
-1541.472241129345
 30
0.0
 10
3680.769600874347
 20
-1538.16787206676
 30
0.0
 10
3681.724082918419
 20
-1534.641574478405
 30
0.0
 10
3681.798796688334
 20
-1530.87916718781
 30
0.0
 10
3681.09926578839
 20
-1526.909114623324
 30
0.0
 10
3679.691427403887
 20
-1522.745535028714
 30
0.0
 10
3677.34892534687
 20
-1517.775774594549
 30
0.0
 10
3673.853480551732
 20
-1511.998689252901
 30
0.0
 10
3669.110105965688
 20
-1505.431522894527
 30
0.0
 10
3663.628080076996
 20
-1498.671195256554
 30
0.0
 10
3657.591183793127
 20
-1491.774370120237
 30
0.0
 10
3649.028311594877
 20
-1482.451333802484
 30
0.0
 10
3638.032780603238
 20
-1470.93079430936
 30
0.0
 10
3625.359173594195
 20
-1457.24686762154
 30
0.0
 10
3613.4108383323
 20
-1443.901275885564
 30
0.0
 10
3602.709684596884
 20
-1431.584245086776
 30
0.0
 10
3596.139634100106
 20
-1423.674036874306
 30
0.0
 10
3593.186059004386
 20
-1420.117992063118
 30
0.0
  0
SPLINE
  5
2D7
330
1F
100
AcDbEntity
  8
0
  6
Continuous
 62
     7
370
    15
100
AcDbSpline
210
0.0
220
0.0
230
1.0
 70
     8
 71
     3
 72
    28
 73
    24
 74
     0
 42
0.00000001
 43
0.00000001
 40
0.0
 40
0.0
 40
0.0
 40
0.0
 40
0.0300943990966967
 40
0.1064086762188306
 40
0.1779482782536574
 40
0.2461754867376739
 40
0.3111564651236154
 40
0.3729550544101299
 40
0.4396222621555486
 40
0.5023179273008448
 40
0.5611247659319178
 40
0.6161209342193344
 40
0.6673798785056205
 40
0.7141521917428244
 40
0.757446082312723
 40
0.7973171940522005
 40
0.8338164378292325
 40
0.8729350939010763
 40
0.9074097556727732
 40
0.9373012252198926
 40
0.9626630947648616
 40
0.9835449346935347
 40
1.0
 40
1.0
 40
1.0
 40
1.0
 10
3555.741981562678
 20
-1371.116050801851
 30
0.0
 10
3554.656353336731
 20
-1369.584145806971
 30
0.0
 10
3550.817756592609
 20
-1364.167590318538
 30
0.0
 10
3544.739175617548
 20
-1355.030495349419
 30
0.0
 10
3537.603198453365
 20
-1343.883091278582
 30
0.0
 10
3531.166152173012
 20
-1333.252533767378
 30
0.0
 10
3525.326389025183
 20
-1323.070703233678
 30
0.0
 10
3519.831522772465
 20
-1312.9149083691
 30
0.0
 10
3514.717362770512
 20
-1302.823780735485
 30
0.0
 10
3510.019058015303
 20
-1292.835916408005
 30
0.0
 10
3505.928658869633
 20
-1283.419826238327
 30
0.0
 10
3502.399530467931
 20
-1274.572758769748
 30
0.0
 10
3499.401033710749
 20
-1266.335989292145
 30
0.0
 10
3496.879318226527
 20
-1258.700508564355
 30
0.0
 10
3494.781692107802
 20
-1251.65719239078
 30
0.0
 10
3493.047120041334
 20
-1245.152211107454
 30
0.0
 10
3491.554480556556
 20
-1238.859012429731
 30
0.0
 10
3490.306967771545
 20
-1232.846821837576
 30
0.0
 10
3489.291133283886
 20
-1227.185477905522
 30
0.0
 10
3488.520565440628
 20
-1222.270605073946
 30
0.0
 10
3487.909304302818
 20
-1218.098347374927
 30
0.0
 10
3487.421900592248
 20
-1214.661199226874
 30
0.0
 10
3487.020523694946
 20
-1212.620750577774
 30
0.0
 10
3486.84362946614
 20
-1211.721487085955
 30
0.0
  0
LINE
  5
2D8
330
1F
100
AcDbEntity
  8
0
  6
Continuous
 62
     7
370
    15
100
AcDbLine
 10
3665.3621762717
 20
-1538.3080328937
 30
0.0
 11
3675.8486413138
 21
-1544.3617403057
 31
0.0
  0
LINE
  5
2D9
330
1F
100
AcDbEntity
  8
0
  6
Continuous
 62
     7
370
    15
100
AcDbLine
 10
3656.8768948975
 20
-1543.2064815647
 30
0.0
 11
3665.3621762717
 21
-1538.3080328937
 31
0.0
  0
LINE
  5
2DA
330
1F
100
AcDbEntity
  8
0
  6
Continuous
 62
     7
370
    15
100
AcDbLine
 10
3667.3633599395
 20
-1549.2601889767
 30
0.0
 11
3656.8768948975
 21
-1543.2064815647
 31
0.0
  0
SPLINE
  5
2DB
330
1F
100
AcDbEntity
  8
0
  6
Continuous
 62
     7
370
    15
100
AcDbSpline
210
0.0
220
0.0
230
1.0
 70
     8
 71
     3
 72
    21
 73
    17
 74
     0
 42
0.00000001
 43
0.00000001
 40
0.0
 40
0.0
 40
0.0
 40
0.0
 40
0.0703542152938121
 40
0.140043737682976
 40
0.2092566238009484
 40
0.2781517695997233
 40
0.3468592827320693
 40
0.4154814705510693
 40
0.4840947668649732
 40
0.5527602149677431
 40
0.6392250662436252
 40
0.7258940820595674
 40
0.8127717523053534
 40
0.8998255204052699
 40
0.9869927111533829
 40
1.0
 40
1.0
 40
1.0
 40
1.0
 10
3458.398227024941
 20
-1224.647184265121
 30
0.0
 10
3458.281160934014
 20
-1228.858631280768
 30
0.0
 10
3458.048134769755
 20
-1237.241736382033
 30
0.0
 10
3459.124194899807
 20
-1249.759548716353
 30
0.0
 10
3461.165056966163
 20
-1262.144755177871
 30
0.0
 10
3464.205007319961
 20
-1274.403261230618
 30
0.0
 10
3468.146855731783
 20
-1286.538728435733
 30
0.0
 10
3472.928477586392
 20
-1298.5555371032
 30
0.0
 10
3478.478855497039
 20
-1310.458543823495
 30
0.0
 10
3485.267154940562
 20
-1323.26680357517
 30
0.0
 10
3493.428500899605
 20
-1336.954768346277
 30
0.0
 10
3503.051682810516
 20
-1351.494836796468
 30
0.0
 10
3513.395563990892
 20
-1365.906826871174
 30
0.0
 10
3524.367481256703
 20
-1380.1943554258
 30
0.0
 10
3532.467851022779
 20
-1390.379715550853
 30
0.0
 10
3536.974293538638
 20
-1395.781869004121
 30
0.0
 10
3537.559438574695
 20
-1396.483318820927
 30
0.0
  0
SPLINE
  5
2DC
330
1F
100
AcDbEntity
  8
0
  6
Continuous
 62
     7
370
    15
100
AcDbSpline
210
0.0
220
0.0
230
1.0
 70
     8
 71
     3
 72
    14
 73
    10
 74
     0
 42
0.00000001
 43
0.00000001
 40
0.0
 40
0.0
 40
0.0
 40
0.0
 40
0.0843268997905687
 40
0.3053626502413441
 40
0.4440474249331995
 40
0.5826427458119655
 40
0.7213161281173395
 40
0.8603190835322683
 40
1.0
 40
1.0
 40
1.0
 40
1.0
 10
3574.542805575551
 20
-1440.427525611783
 30
0.0
 10
3576.42051235319
 20
-1442.650193354418
 30
0.0
 10
3583.220021399765
 20
-1450.698867196132
 30
0.0
 10
3592.666427256028
 20
-1462.526554249756
 30
0.0
 10
3602.678730533236
 20
-1475.94918978708
 30
0.0
 10
3610.482846731194
 20
-1487.287221610532
 30
0.0
 10
3617.604121030307
 20
-1498.783206803835
 30
0.0
 10
3624.016699243453
 20
-1510.45551085459
 30
0.0
 10
3627.49295976012
 20
-1518.379338418688
 30
0.0
 10
3629.235318410329
 20
-1522.350890445033
 30
0.0
  0
LWPOLYLINE
  5
2DD
330
1F
100
AcDbEntity
  8
0
  6
Continuous
 62
     7
370
    15
100
AcDbPolyline
 90
       18
 70
   128
 43
0.0
 10
3388.1852582238
 20
-1178.2470061867
 10
3391.2461409655
 20
-1179.8700101558
 10
3394.5344227588
 20
-1181.3373143184
 10
3398.0264114582
 20
-1182.6383467142
 10
3401.6969472049
 20
-1183.7637333752
 10
3405.519583705
 20
-1184.7053658646
 10
3409.4667787746
 20
-1185.4564596987
 10
3413.5100927831
 20
-1186.0116032292
 10
3417.6203935601
 20
-1186.3667966344
 10
3421.7680662946
 20
-1186.5194807376
 10
3425.9232269093
 20
-1186.4685554463
 10
3430.0559373769
 20
-1186.2143876783
 10
3434.1364214237
 20
-1185.7588087184
 10
3438.1352790686
 20
-1185.1051010234
 10
3442.0236984507
 20
-1184.2579745721
 10
3445.7736634192
 20
-1183.22353293
 10
3449.3581553907
 20
-1182.009229273
 10
3450.4957897536
 20
-1181.5722733191
  0
LWPOLYLINE
  5
2DE
330
1F
100
AcDbEntity
  8
0
  6
Continuous
 62
     7
370
    15
100
AcDbPolyline
 90
       18
 70
   128
 43
0.0
 10
3382.4251024769
 20
-1142.2759020011
 10
3381.6681905512
 20
-1142.9326443396
 10
3379.5647270067
 20
-1145.0019275088
 10
3377.7728273692
 20
-1147.1667362059
 10
3376.3054023165
 20
-1149.4114729346
 10
3375.1730246799
 20
-1151.7199643154
 10
3374.3838532661
 20
-1154.075577615
 10
3373.9435740733
 20
-1156.4613405855
 10
3373.8553593231
 20
-1158.8600637502
 10
3374.1198446048
 20
-1161.2544642535
 10
3374.7351242959
 20
-1163.6272903851
 10
3375.6967652921
 20
-1165.9614458783
 10
3376.9978389481
 20
-1168.2401130892
 10
3378.6289709983
 20
-1170.4468741684
 10
3380.5784090989
 20
-1172.5658293518
 10
3382.8321075037
 20
-1174.5817115187
 10
3385.3738282642
 20
-1176.4799961918
 10
3388.1852582238
 20
-1178.2470061867
  0
LINE
  5
2DF
330
1F
100
AcDbEntity
  8
0
  6
Continuous
 62
     7
370
    15
100
AcDbLine
 10
3675.8486413138
 20
-1554.1602300484
 30
0.0
 11
3675.8486413138
 21
-1544.3617403057
 31
0.0
  0
LINE
  5
2E0
330
1F
100
AcDbEntity
  8
0
  6
Continuous
 62
     7
370
    15
100
AcDbLine
 10
3665.3621762717
 20
-1548.1049302356
 30
0.0
 11
3665.3621762717
 21
-1538.3080328937
 31
0.0
  0
LINE
  5
2E1
330
1F
100
AcDbEntity
  8
0
  6
Continuous
 62
     7
370
    15
100
AcDbLine
 10
3667.3633599395
 20
-1549.2617813774
 30
0.0
 11
3675.8486413138
 21
-1554.1602300484
 31
0.0
  0
SPLINE
  5
2E2
330
1F
100
AcDbEntity
  8
0
  6
Continuous
 62
     7
370
    15
100
AcDbSpline
210
0.0
220
0.0
230
1.0
 70
     8
 71
     3
 72
    11
 73
     7
 74
     0
 42
0.00000001
 43
0.00000001
 40
0.0
 40
0.0
 40
0.0
 40
0.0
 40
0.2661883884425436
 40
0.534773985027551
 40
0.8137257839353726
 40
1.0
 40
1.0
 40
1.0
 40
1.0
 10
3675.848641313758
 20
-1554.160230048352
 30
0.0
 10
3676.877387081527
 20
-1553.199958377668
 30
0.0
 10
3678.944143174941
 20
-1551.270767134407
 30
0.0
 10
3680.751048286687
 20
-1547.966212875115
 30
0.0
 10
3681.663471124492
 20
-1544.894801732941
 30
0.0
 10
3681.644403433678
 20
-1542.926016156025
 30
0.0
 10
3681.636768823737
 20
-1542.137724061136
 30
0.0
  0
SPLINE
  5
2E3
330
1F
100
AcDbEntity
  8
0
  6
Continuous
 62
     7
370
    15
100
AcDbSpline
210
0.0
220
0.0
230
1.0
 70
     8
 71
     3
 72
    20
 73
    16
 74
     0
 42
0.00000001
 43
0.00000001
 40
0.0
 40
0.0
 40
0.0
 40
0.0
 40
0.0305601415370159
 40
0.105393089230332
 40
0.1797142225801427
 40
0.2536941648316162
 40
0.3274726262143583
 40
0.4011594648611191
 40
0.4748367557665126
 40
0.5485700475161441
 40
0.6414164248625978
 40
0.7344820350839997
 40
0.8277716994458114
 40
0.9212504585388722
 40
1.0
 40
1.0
 40
1.0
 40
1.0
 10
3458.332344512327
 20
-1241.96832610644
 30
0.0
 10
3458.29811282661
 20
-1243.67186258366
 30
0.0
 10
3458.180057643421
 20
-1249.546867178563
 30
0.0
 10
3459.153817162178
 20
-1259.557863370554
 30
0.0
 10
3461.15718264823
 20
-1271.943291409715
 30
0.0
 10
3464.20710608527
 20
-1284.201738780993
 30
0.0
 10
3468.146297581795
 20
-1296.33722068164
 30
0.0
 10
3472.928616643535
 20
-1308.354028990863
 30
0.0
 10
3478.47885701019
 20
-1320.257022481561
 30
0.0
 10
3485.266996891006
 20
-1333.06534015493
 30
0.0
 10
3493.429326810385
 20
-1346.753031560719
 30
0.0
 10
3503.048598679782
 20
-1361.294168676454
 30
0.0
 10
3513.407111413636
 20
-1375.702164548411
 30
0.0
 10
3523.745992384912
 20
-1389.247045057487
 30
0.0
 10
3530.782390295437
 20
-1397.945660758157
 30
0.0
 10
3533.999707700352
 20
-1401.923009402776
 30
0.0
  0
SPLINE
  5
2E4
330
1F
100
AcDbEntity
  8
0
  6
Continuous
 62
     7
370
    15
100
AcDbSpline
210
0.0
220
0.0
230
1.0
 70
     8
 71
     3
 72
    14
 73
    10
 74
     0
 42
0.00000001
 43
0.00000001
 40
0.0
 40
0.0
 40
0.0
 40
0.0
 40
0.1478930816597795
 40
0.375113257170864
 40
0.5176783344578358
 40
0.6601514550768529
 40
0.8027048212263705
 40
0.9455969817095835
 40
1.0
 40
1.0
 40
1.0
 40
1.0
 10
3570.581753870159
 20
-1445.513348473124
 30
0.0
 10
3573.790442262679
 20
-1449.303921861638
 30
0.0
 10
3581.928899725708
 20
-1458.918261588371
 30
0.0
 10
3592.671872916291
 20
-1472.323620438276
 30
0.0
 10
3602.675855289022
 20
-1485.748259743623
 30
0.0
 10
3610.490276552236
 20
-1497.084482675219
 30
0.0
 10
3617.577231850373
 20
-1508.586038310955
 30
0.0
 10
3622.757762835164
 20
-1517.81566735155
 30
0.0
 10
3625.191796391595
 20
-1523.266240824948
 30
0.0
 10
3625.862967237801
 20
-1524.769205318099
 30
0.0
  0
LINE
  5
2E5
330
1F
100
AcDbEntity
  8
0
  6
Continuous
 62
     7
370
    15
100
AcDbLine
 10
4091.6274286514
 20
-1314.1362451725
 30
0.0
 11
4091.6274286514
 21
-1304.3377554298
 31
0.0
  0
SPLINE
  5
2E6
330
1F
100
AcDbEntity
  8
0
  6
Continuous
 62
     7
370
    15
100
AcDbSpline
210
0.0
220
0.0
230
1.0
 70
     8
 71
     3
 72
    40
 73
    36
 74
     0
 42
0.00000001
 43
0.00000001
 40
0.0
 40
0.0
 40
0.0
 40
0.0
 40
0.0147906489259204
 40
0.0425663574134637
 40
0.072372691300499
 40
0.1042496316919143
 40
0.1382397309203104
 40
0.1743880305812515
 40
0.2084493292976931
 40
0.2442963581512275
 40
0.2819656150477264
 40
0.3214949464951761
 40
0.3629234936638168
 40
0.4054999767549959
 40
0.4499867739664838
 40
0.4964243141410107
 40
0.5448540352563056
 40
0.5828955812069421
 40
0.6221235866454676
 40
0.6625571304117536
 40
0.7042155716753714
 40
0.7471156182324874
 40
0.7908038350347792
 40
0.8168066321418077
 40
0.8422493403773305
 40
0.8668186117906705
 40
0.8902257984955364
 40
0.9122223319419451
 40
0.9269676646724971
 40
0.9408623272688749
 40
0.9539091714677991
 40
0.9661657817858487
 40
0.9777644262208721
 40
0.9889320503314001
 40
1.0
 40
1.0
 40
1.0
 40
1.0
 10
3601.766098746459
 20
-1211.391812683058
 30
0.0
 10
3604.325971028525
 20
-1211.66837865646
 30
0.0
 10
3611.693087849228
 20
-1212.464314394725
 30
0.0
 10
3624.158801452711
 20
-1213.994777210395
 30
0.0
 10
3639.512144549056
 20
-1216.027748932171
 30
0.0
 10
3655.852719957798
 20
-1218.394325601108
 30
0.0
 10
3673.188863763684
 20
-1221.110798448135
 30
0.0
 10
3690.798887296604
 20
-1224.084966128792
 30
0.0
 10
3708.623455521174
 20
-1227.30092724969
 30
0.0
 10
3726.603590250304
 20
-1230.742435729462
 30
0.0
 10
3745.387654560612
 20
-1234.5449606504
 30
0.0
 10
3764.979048765685
 20
-1238.727701805952
 30
0.0
 10
3785.251262100161
 20
-1243.280653280805
 30
0.0
 10
3806.199138339519
 20
-1248.215906502615
 30
0.0
 10
3827.817683016685
 20
-1253.545303300214
 30
0.0
 10
3850.22796337837
 20
-1259.314782388669
 30
0.0
 10
3871.449725090672
 20
-1265.010164392205
 30
0.0
 10
3891.392009787335
 20
-1270.552540202291
 30
0.0
 10
3909.960649042993
 20
-1275.866526324748
 30
0.0
 10
3928.989561183818
 20
-1281.470360816255
 30
0.0
 10
3948.482792679575
 20
-1287.368560713951
 30
0.0
 10
3968.355913576201
 20
-1293.558708026148
 30
0.0
 10
3985.733504437664
 20
-1299.066840877544
 30
0.0
 10
4000.533638768146
 20
-1303.596356086769
 30
0.0
 10
4012.480487685634
 20
-1307.081486621465
 30
0.0
 10
4024.191012231642
 20
-1310.246166178372
 30
0.0
 10
4035.566904433603
 20
-1312.984464706609
 30
0.0
 10
4045.57419551398
 20
-1315.002340487424
 30
0.0
 10
4054.183005620721
 20
-1316.354638408637
 30
0.0
 10
4061.395318542423
 20
-1317.167366151194
 30
0.0
 10
4068.272396425527
 20
-1317.571196757964
 30
0.0
 10
4074.789783187211
 20
-1317.52806541325
 30
0.0
 10
4080.898171628675
 20
-1316.977054658643
 30
0.0
 10
4086.622126934705
 20
-1315.920632650834
 30
0.0
 10
4089.963988218065
 20
-1314.729260828335
 30
0.0
 10
4091.627428651449
 20
-1314.136245172476
 30
0.0
  0
LINE
  5
2E7
330
1F
100
AcDbEntity
  8
0
  6
Continuous
 62
     7
370
    15
100
AcDbLine
 10
4100.1127100257
 20
-1309.2377965015
 30
0.0
 11
4100.1127100257
 21
-1299.4393067589
 31
0.0
  0
ARC
  5
2E8
330
1F
100
AcDbEntity
  8
0
  6
Continuous
 62
     7
370
    15
100
AcDbCircle
 10
4092.2394420161
 20
-1298.9778618189
 30
0.0
 40
12.93269534329577
100
AcDbArc
 50
307.5019093524
 51
357.3331270753
  0
LINE
  5
2E9
330
1F
100
AcDbEntity
  8
0
  6
Continuous
 62
     7
370
    15
100
AcDbLine
 10
4089.6262449836
 20
-1303.1824966888
 30
0.0
 11
4089.6262449836
 21
-1293.3855993469
 31
0.0
  0
LINE
  5
2EA
330
1F
100
AcDbEntity
  8
0
  6
Continuous
 62
     7
370
    15
100
AcDbLine
 10
4091.6274286514
 20
-1304.3393478306
 30
0.0
 11
4100.1127100257
 21
-1309.2377965015
 31
0.0
  0
LINE
  5
2EB
330
1F
100
AcDbEntity
  8
0
  6
Continuous
 62
     7
370
    15
100
AcDbLine
 10
3446.2248929673
 20
-1228.6303892492
 30
0.0
 11
3446.2248929673
 21
-1218.8318995065
 31
0.0
  0
ARC
  5
2EC
330
1F
100
AcDbEntity
  8
0
  6
Continuous
 62
     7
370
    15
100
AcDbCircle
 10
3422.8649082224
 20
-1052.5089377644
 30
0.0
 40
177.6638808548212
100
AcDbArc
 50
252.8904273095
 51
277.5553642104
  0
LINE
  5
2ED
330
1F
100
AcDbEntity
  8
0
  6
Continuous
 62
     7
370
    15
100
AcDbLine
 10
2792.1152621812
 20
-1048.8902581862
 30
0.0
 11
2792.1152621812
 21
-1039.0917684436
 31
0.0
  0
SPLINE
  5
2EE
330
1F
100
AcDbEntity
  8
0
  6
Continuous
 62
     7
370
    15
100
AcDbSpline
210
0.0
220
0.0
230
1.0
 70
     8
 71
     3
 72
    27
 73
    23
 74
     0
 42
0.00000001
 43
0.00000001
 40
0.0
 40
0.0
 40
0.0
 40
0.0
 40
0.0432037501702721
 40
0.0861967025400262
 40
0.1290887110952349
 40
0.1719586336493137
 40
0.214858533375451
 40
0.2578183125307538
 40
0.3008505530270396
 40
0.3439554184599581
 40
0.4118195173156714
 40
0.4797811075383697
 40
0.5477226511335546
 40
0.6155412130043089
 40
0.6696629628135587
 40
0.7236527163990751
 40
0.7775246973205245
 40
0.8313225031511289
 40
0.8851166972945801
 40
0.9274428047289661
 40
0.9698865262992922
 40
0.9999999999999999
 40
0.9999999999999999
 40
0.9999999999999999
 40
0.9999999999999999
 10
2792.115262181177
 20
-1048.890258186213
 30
0.0
 10
2799.079673406284
 20
-1049.909255444858
 30
0.0
 10
2812.974515413541
 20
-1051.942278116417
 30
0.0
 10
2833.438035372682
 20
-1055.700037427783
 30
0.0
 10
2853.590090197387
 20
-1059.874886720573
 30
0.0
 10
2873.461892574172
 20
-1064.453154467712
 30
0.0
 10
2893.114150345372
 20
-1069.350441988174
 30
0.0
 10
2912.599620595635
 20
-1074.501569525093
 30
0.0
 10
2931.973250920581
 20
-1079.836241541182
 30
0.0
 10
2954.97745074153
 20
-1086.327114222519
 30
0.0
 10
2981.650511218431
 20
-1093.933134283409
 30
0.0
 10
3012.160207601682
 20
-1102.437353362907
 30
0.0
 10
3042.896397198468
 20
-1110.656564615882
 30
0.0
 10
3071.855046500604
 20
-1117.921283831615
 30
0.0
 10
3099.006959956155
 20
-1124.208179483125
 30
0.0
 10
3124.301465250738
 20
-1129.55488625642
 30
0.0
 10
3149.860006907418
 20
-1134.369516126802
 30
0.0
 10
3175.70821365204
 20
-1138.571144053146
 30
0.0
 10
3199.994771733211
 20
-1141.839251555826
 30
0.0
 10
3222.656803320077
 20
-1144.244079166573
 30
0.0
 10
3241.568582817621
 20
-1145.839218638211
 30
0.0
 10
3253.589888693568
 20
-1146.434277027301
 30
0.0
 10
3258.579101369047
 20
-1146.681244610368
 30
0.0
  0
LWPOLYLINE
  5
2EF
330
1F
100
AcDbEntity
  8
0
  6
Continuous
 62
     7
370
    15
100
AcDbPolyline
 90
        9
 70
   128
 43
0.0
 10
3446.2248929673
 20
-1228.6303892492
 10
3448.2314587561
 20
-1228.4926206379
 10
3450.2450349361
 20
-1228.5905388181
 10
3452.183401973
 20
-1228.9201455367
 10
3453.967411317
 20
-1229.4679820971
 10
3455.5242172429
 20
-1230.2116789126
 10
3456.7902513297
 20
-1231.1208689148
 10
3457.7138181245
 20
-1232.1584275194
 10
3458.1943742848
 20
-1233.0912000767
  0
LINE
  5
2F0
330
1F
100
AcDbEntity
  8
0
  6
Continuous
 62
     7
370
    15
100
AcDbLine
 10
3490.4664157888
 20
-1216.2883550139
 30
0.0
 11
3490.4664157888
 21
-1206.4898652713
 31
0.0
  0
ARC
  5
2F1
330
1F
100
AcDbEntity
  8
0
  6
Continuous
 62
     7
370
    15
100
AcDbCircle
 10
3493.5421039373
 20
-1223.3617456774
 30
0.0
 40
7.713151954008807
100
AcDbArc
 50
113.5006155185
 51
138.3012742236
  0
ARC
  5
2F2
330
1F
100
AcDbEntity
  8
0
  6
Continuous
 62
     7
370
    15
100
AcDbCircle
 10
3445.5410716129
 20
-1119.6829988943
 30
0.0
 40
106.5405152058091
100
AcDbArc
 50
294.9403068221
 51
301.3279947708
  0
LWPOLYLINE
  5
2F3
330
1F
100
AcDbEntity
  8
0
  6
Continuous
 62
     7
370
    15
100
AcDbPolyline
 90
       10
 70
   128
 43
0.0
 10
3390.3912270753
 20
-1146.8746478447
 10
3389.6858560321
 20
-1147.2414499553
 10
3386.7470517194
 20
-1148.9379855732
 10
3384.0680624995
 20
-1150.7722856736
 10
3381.6681905512
 20
-1152.7311340822
 10
3379.5647270067
 20
-1154.8004172514
 10
3377.7728273692
 20
-1156.9652259485
 10
3376.3054023165
 20
-1159.2099626773
 10
3375.1730246799
 20
-1161.5184540581
 10
3374.5854254811
 20
-1163.1593575422
  0
ARC
  5
2F4
330
1F
100
AcDbEntity
  8
0
  6
Continuous
 62
     7
370
    15
100
AcDbCircle
 10
3493.8620326974
 20
-1168.0235826981
 30
0.0
 40
36.4515513837131
100
AcDbArc
 50
346.7444004487
 51
359.9449548201
  0
ARC
  5
2F5
330
1F
100
AcDbEntity
  8
0
  6
Continuous
 62
     7
370
    15
100
AcDbCircle
 10
3309.9044863979
 20
-1158.2195072324
 30
0.0
 40
10.44744346474972
100
AcDbArc
 50
52.4463230201
 51
73.4296146561
  0
SPLINE
  5
2F6
330
1F
100
AcDbEntity
  8
0
  6
Continuous
 62
     7
370
    15
100
AcDbSpline
210
0.0
220
0.0
230
1.0
 70
     8
 71
     3
 72
    37
 73
    33
 74
     0
 42
0.00000001
 43
0.00000001
 40
0.0
 40
0.0
 40
0.0
 40
0.0
 40
0.0045739173028696
 40
0.0178014341936185
 40
0.0318885100705578
 40
0.0468380361612554
 40
0.0691391775916323
 40
0.0928705070060709
 40
0.1177800136774342
 40
0.1435750525236502
 40
0.169937936351779
 40
0.2230295456702479
 40
0.2747696122582677
 40
0.3247042424759556
 40
0.3728675866102517
 40
0.4192932178940685
 40
0.4692674852115549
 40
0.5171486682484155
 40
0.562981083314267
 40
0.6068079452820169
 40
0.648671314934822
 40
0.687915463182541
 40
0.7253425470370376
 40
0.7609888614772308
 40
0.7948894274641539
 40
0.8314607489365466
 40
0.865853419673708
 40
0.8981128148558902
 40
0.9282818082517045
 40
0.9564006899812014
 40
0.9820583612899683
 40
0.9999999999999999
 40
0.9999999999999999
 40
0.9999999999999999
 40
0.9999999999999999
 10
3163.977880479697
 20
-793.9794807659283
 30
0.0
 10
3163.953028390716
 20
-794.4381076509617
 30
0.0
 10
3163.856305429354
 20
-796.2230582245595
 30
0.0
 10
3164.554011015624
 20
-799.4099692912147
 30
0.0
 10
3165.912018611559
 20
-803.5730730840261
 30
0.0
 10
3168.270509652018
 20
-808.5429861774576
 30
0.0
 10
3171.759576231477
 20
-814.320010674042
 30
0.0
 10
3176.505005449465
 20
-820.8871964069002
 30
0.0
 10
3181.986435645261
 20
-827.6475193313779
 30
0.0
 10
3188.023511810912
 20
-834.5443423612842
 30
0.0
 10
3196.586258612767
 20
-843.8673971490426
 30
0.0
 10
3207.582341986518
 20
-855.3877920338177
 30
0.0
 10
3220.253843656397
 20
-869.0722977347958
 30
0.0
 10
3232.209568238972
 20
-882.4158491543205
 30
0.0
 10
3243.436726400801
 20
-895.3755672662855
 30
0.0
 10
3254.354799042324
 20
-908.4274101614794
 30
0.0
 10
3264.915418211099
 20
-921.5458918885996
 30
0.0
 10
3275.06994253375
 20
-934.7057161524376
 30
0.0
 10
3284.435350726914
 20
-947.391771013182
 30
0.0
 10
3293.044854523275
 20
-959.6060160079089
 30
0.0
 10
3300.887948057349
 20
-971.285298821544
 30
0.0
 10
3308.008361858201
 20
-982.4363470718114
 30
0.0
 10
3314.449267245671
 20
-993.0660011086648
 30
0.0
 10
3320.288066910668
 20
-1003.248056722317
 30
0.0
 10
3325.783191821416
 20
-1013.403792910938
 30
0.0
 10
3330.897229449182
 20
-1023.494941832207
 30
0.0
 10
3335.595740311982
 20
-1033.482783706864
 30
0.0
 10
3339.68549651118
 20
-1042.898937017592
 30
0.0
 10
3343.216781926145
 20
-1051.745794472329
 30
0.0
 10
3346.208075210272
 20
-1059.983264865042
 30
0.0
 10
3348.562776581498
 20
-1067.044600274619
 30
0.0
 10
3349.820983579826
 20
-1071.355089537662
 30
0.0
 10
3350.338750842121
 20
-1073.128907540462
 30
0.0
  0
LWPOLYLINE
  5
2F7
330
1F
100
AcDbEntity
  8
0
  6
Continuous
 62
     7
370
    15
100
AcDbPolyline
 90
       23
 70
   128
 43
0.0
 10
2740.4565187793
 20
-1036.537598814
 10
2740.5264063435
 20
-1037.7241813265
 10
2740.9289808017
 20
-1039.6124955658
 10
2741.6848812902
 20
-1041.4643380125
 10
2742.7851419645
 20
-1043.2577436969
 10
2744.2167124745
 20
-1044.9714407761
 10
2745.9626127565
 20
-1046.5851028427
 10
2748.0021344361
 20
-1048.0795900188
 10
2750.3110864533
 20
-1049.4371759769
 10
2752.8620819961
 20
-1050.6417581949
 10
2755.6248633393
 20
-1051.6790489496
 10
2758.5666607362
 20
-1052.5367447862
 10
2761.6525811046
 20
-1053.2046724512
 10
2764.8460218991
 20
-1053.6749095583
 10
2768.1091052591
 20
-1053.9418785575
 10
2771.4031272836
 20
-1054.0024128913
 10
2774.6890171034
 20
-1053.8557945531
 10
2777.9278003067
 20
-1053.5037626041
 10
2781.0810612202
 20
-1052.950492546
 10
2784.1113985625
 20
-1052.2025467944
 10
2786.9828690665
 20
-1051.2687968416
 10
2789.6614138075
 20
-1050.16031803
 10
2792.1152621812
 20
-1048.8902581862
  0
LINE
  5
2F8
330
1F
100
AcDbEntity
  8
0
  6
Continuous
 62
     7
370
    15
100
AcDbLine
 10
2753.987220652
 20
-1021.9793672538
 30
0.0
 11
2753.987220652
 21
-1012.182469912
 31
0.0
  0
LINE
  5
2F9
330
1F
100
AcDbEntity
  8
0
  6
Continuous
 62
     7
370
    15
100
AcDbLine
 10
3178.2512893639
 20
-777.056933707
 30
0.0
 11
3178.2512893639
 21
-767.2600363651
 31
0.0
  0
ARC
  5
2FA
330
1F
100
AcDbEntity
  8
0
  6
Continuous
 62
     7
370
    15
100
AcDbCircle
 10
3212.2733982297
 20
-791.0287592021
 30
0.0
 40
12.98242231914024
100
AcDbArc
 50
305.6011707551
 51
357.4111127134
  0
LINE
  5
2FB
330
1F
100
AcDbEntity
  8
0
  6
Continuous
 62
     8
370
    15
100
AcDbLine
 10
2930.9476894382
 20
-897.6185247542
 30
0.0
 11
2935.6456176288
 21
-894.9064685375
 31
0.0
  0
LINE
  5
2FC
330
1F
100
AcDbEntity
  8
0
  6
Continuous
 62
     8
370
    15
100
AcDbLine
 10
3307.8090833859
 20
-1142.2620904801
 30
0.0
 11
3307.8090833859
 21
-1137.7139220688
 31
0.0
  0
LINE
  5
2FD
330
1F
100
AcDbEntity
  8
0
  6
Continuous
 62
     8
370
    15
100
AcDbLine
 10
3527.7321057748
 20
-1174.2937432815
 30
0.0
 11
3527.7321057748
 21
-1171.7787871064
 31
0.0
  0
ENDSEC
  0
SECTION
  2
OBJECTS
  0
DICTIONARY
  5
C
330
0
100
AcDbDictionary
281
     1
  3
ACAD_GROUP
350
D
  3
ACAD_LAYOUT
350
1A
  3
ACAD_MLINESTYLE
350
17
  3
ACAD_PLOTSETTINGS
350
19
  3
ACAD_PLOTSTYLENAME
350
E
  0
DICTIONARY
  5
D
102
{ACAD_REACTORS
330
C
102
}
330
C
100
AcDbDictionary
281
     1
  0
DICTIONARY
  5
1A
102
{ACAD_REACTORS
330
C
102
}
330
C
100
AcDbDictionary
281
     1
  3
Layout1
350
1E
  3
Layout2
350
26
  3
Model
350
22
  0
DICTIONARY
  5
17
102
{ACAD_REACTORS
330
C
102
}
330
C
100
AcDbDictionary
281
     1
  3
Standard
350
18
  0
DICTIONARY
  5
19
102
{ACAD_REACTORS
330
C
102
}
330
C
100
AcDbDictionary
281
     1
  0
ACDBDICTIONARYWDFLT
  5
E
102
{ACAD_REACTORS
330
C
102
}
330
C
100
AcDbDictionary
281
     1
  3
Normal
350
F
100
AcDbDictionaryWithDefault
340
F
  0
LAYOUT
  5
1E
102
{ACAD_REACTORS
330
1A
102
}
330
1A
100
AcDbPlotSettings
  1

  2
none_device
  4

  6

 40
0.0
 41
0.0
 42
0.0
 43
0.0
 44
0.0
 45
0.0
 46
0.0
 47
0.0
 48
0.0
 49
0.0
140
0.0
141
0.0
142
1.0
143
1.0
 70
   688
 72
     0
 73
     0
 74
     5
  7

 75
    16
147
1.0
148
0.0
149
0.0
100
AcDbLayout
  1
Layout1
 70
     1
 71
     1
 10
0.0
 20
0.0
 11
420.0
 21
297.0
 12
0.0
 22
0.0
 32
0.0
 14
1.0000000000E+20
 24
1.0000000000E+20
 34
1.0000000000E+20
 15
-1.0000000000E+20
 25
-1.0000000000E+20
 35
-1.0000000000E+20
146
0.0
 13
0.0
 23
0.0
 33
0.0
 16
1.0
 26
0.0
 36
0.0
 17
0.0
 27
1.0
 37
0.0
 76
     0
330
1B
  0
LAYOUT
  5
26
102
{ACAD_REACTORS
330
1A
102
}
330
1A
100
AcDbPlotSettings
  1

  2
none_device
  4

  6

 40
0.0
 41
0.0
 42
0.0
 43
0.0
 44
0.0
 45
0.0
 46
0.0
 47
0.0
 48
0.0
 49
0.0
140
0.0
141
0.0
142
1.0
143
1.0
 70
   688
 72
     0
 73
     0
 74
     5
  7

 75
    16
147
1.0
148
0.0
149
0.0
100
AcDbLayout
  1
Layout2
 70
     1
 71
     2
 10
0.0
 20
0.0
 11
0.0
 21
0.0
 12
0.0
 22
0.0
 32
0.0
 14
0.0
 24
0.0
 34
0.0
 15
0.0
 25
0.0
 35
0.0
146
0.0
 13
0.0
 23
0.0
 33
0.0
 16
1.0
 26
0.0
 36
0.0
 17
0.0
 27
1.0
 37
0.0
 76
     0
330
23
  0
LAYOUT
  5
22
102
{ACAD_REACTORS
330
1A
102
}
330
1A
100
AcDbPlotSettings
  1

  2
none_device
  4

  6

 40
0.0
 41
0.0
 42
0.0
 43
0.0
 44
0.0
 45
0.0
 46
0.0
 47
0.0
 48
0.0
 49
0.0
140
0.0
141
0.0
142
1.0
143
1.0
 70
  1712
 72
     0
 73
     0
 74
     0
  7

 75
     0
147
1.0
148
0.0
149
0.0
100
AcDbLayout
  1
Model
 70
     1
 71
     0
 10
0.0
 20
0.0
 11
431.8
 21
279.4
 12
0.0
 22
0.0
 32
0.0
 14
0.0
 24
0.0
 34
0.0
 15
431.8
 25
279.4
 35
0.0
146
0.0
 13
0.0
 23
0.0
 33
0.0
 16
1.0
 26
0.0
 36
0.0
 17
0.0
 27
1.0
 37
0.0
 76
     0
330
1F
331
29
  0
MLINESTYLE
  5
18
102
{ACAD_REACTORS
330
17
102
}
330
17
100
AcDbMlineStyle
  2
Standard
 70
     0
  3

 62
   256
 51
90.0
 52
90.0
 71
     2
 49
0.5
 62
   256
  6
BYLAYER
 49
-0.5
 62
   256
  6
BYLAYER
  0
ACDBPLACEHOLDER
  5
F
102
{ACAD_REACTORS
330
E
102
}
330
E
  0
ENDSEC
  0
EOF
