  0
SECTION
  2
ENTITIES
  0
POLYLINE
  5
3E8
  100
AcDbEntity
  8
Layer 1
  62
0
  100
AcDb2dPolyline
 66
     1
  10
0
  20
0
  30
0
  70
1
  0
VERTEX
  5
3E9
  100
AcDbEntity
  8
Layer 1
  62
0
  100
AcDb2dVertex
  10
4.47100
  20
1.22250
  30
0.00000
  42
-0.1234
  70
32
  0
VERTEX
  5
3EA
  100
AcDbEntity
  8
Layer 1
  62
0
  100
AcDb2dVertex
  10
4.46559
  20
1.19682
  30
0.00000
  42
-0.2218
  70
32
  0
VERTEX
  5
3EB
  100
AcDbEntity
  8
Layer 1
  62
0
  100
AcDb2dVertex
  10
4.44305
  20
1.18015
  30
0.00000
  42
-0.0602
  70
32
  0
VERTEX
  5
3EC
  100
AcDbEntity
  8
Layer 1
  62
0
  100
AcDb2dVertex
  10
4.42800
  20
1.17850
  30
0.00000
  42
-0.2141
  70
32
  0
VERTEX
  5
3ED
  100
AcDbEntity
  8
Layer 1
  62
0
  100
AcDb2dVertex
  10
4.40953
  20
1.18563
  30
0.00000
  42
-0.1440
  70
32
  0
VERTEX
  5
3EE
  100
AcDbEntity
  8
Layer 1
  62
0
  100
AcDb2dVertex
  10
4.40136
  20
1.20380
  30
0.00000
  42
-0.0460
  70
32
  0
VERTEX
  5
3EF
  100
AcDbEntity
  8
Layer 1
  62
0
  100
AcDb2dVertex
  10
4.40000
  20
1.22050
  30
0.00000
  70
32
  0
VERTEX
  5
3F0
  100
AcDbEntity
  8
Layer 1
  62
0
  100
AcDb2dVertex
  10
4.40000
  20
1.28050
  30
0.00000
  42
0.2545
  70
32
  0
VERTEX
  5
3F1
  100
AcDbEntity
  8
Layer 1
  62
0
  100
AcDb2dVertex
  10
4.38394
  20
1.29405
  30
0.00000
  42
0.0637
  70
32
  0
VERTEX
  5
3F2
  100
AcDbEntity
  8
Layer 1
  62
0
  100
AcDb2dVertex
  10
4.37100
  20
1.29550
  30
0.00000
  42
-0.0174
  70
32
  0
VERTEX
  5
3F3
  100
AcDbEntity
  8
Layer 1
  62
0
  100
AcDb2dVertex
  10
4.32800
  20
1.29350
  30
0.00000
  70
32
  0
VERTEX
  5
3F4
  100
AcDbEntity
  8
Layer 1
  62
0
  100
AcDb2dVertex
  10
4.32500
  20
1.45550
  30
0.00000
  70
32
  0
VERTEX
  5
3F5
  100
AcDbEntity
  8
Layer 1
  62
0
  100
AcDb2dVertex
  10
4.32800
  20
1.29350
  30
0.00000
  70
32
  0
VERTEX
  5
3F6
  100
AcDbEntity
  8
Layer 1
  62
0
  100
AcDb2dVertex
  10
4.24800
  20
1.29350
  30
0.00000
  42
-0.3340
  70
32
  0
VERTEX
  5
3F7
  100
AcDbEntity
  8
Layer 1
  62
0
  100
AcDb2dVertex
  10
4.23075
  20
1.30533
  30
0.00000
  42
-0.0950
  70
32
  0
VERTEX
  5
3F8
  100
AcDbEntity
  8
Layer 1
  62
0
  100
AcDb2dVertex
  10
4.22800
  20
1.32250
  30
0.00000
  70
32
  0
VERTEX
  5
3F9
  100
AcDbEntity
  8
Layer 1
  62
0
  100
AcDb2dVertex
  10
4.22814
  20
1.32067
  30
0.00000
  42
0.4189
  70
32
  0
VERTEX
  5
3FA
  100
AcDbEntity
  8
Layer 1
  62
0
  100
AcDb2dVertex
  10
4.22837
  20
1.32032
  30
0.00000
  42
0.4152
  70
32
  0
VERTEX
  5
3FB
  100
AcDbEntity
  8
Layer 1
  62
0
  100
AcDb2dVertex
  10
4.22871
  20
1.32055
  30
0.00000
  42
0.0488
  70
32
  0
VERTEX
  5
3FC
  100
AcDbEntity
  8
Layer 1
  62
0
  100
AcDb2dVertex
  10
4.23311
  20
1.33330
  30
0.00000
  70
32
  0
VERTEX
  5
3FD
  100
AcDbEntity
  8
Layer 1
  62
0
  100
AcDb2dVertex
  10
4.23800
  20
1.35050
  30
0.00000
  42
0.0568
  70
32
  0
VERTEX
  5
3FE
  100
AcDbEntity
  8
Layer 1
  62
0
  100
AcDb2dVertex
  10
4.24500
  20
1.41850
  30
0.00000
  42
0.0615
  70
32
  0
VERTEX
  5
3FF
  100
AcDbEntity
  8
Layer 1
  62
0
  100
AcDb2dVertex
  10
4.24002
  20
1.46691
  30
0.00000
  42
0.1088
  70
32
  0
VERTEX
  5
400
  100
AcDbEntity
  8
Layer 1
  62
0
  100
AcDb2dVertex
  10
4.22800
  20
1.49286
  30
0.00000
  42
0.2359
  70
32
  0
VERTEX
  5
401
  100
AcDbEntity
  8
Layer 1
  62
0
  100
AcDb2dVertex
  10
4.20100
  20
1.50550
  30
0.00000
  42
0.1588
  70
32
  0
VERTEX
  5
402
  100
AcDbEntity
  8
Layer 1
  62
0
  100
AcDb2dVertex
  10
4.18398
  20
1.49901
  30
0.00000
  42
0.0692
  70
32
  0
VERTEX
  5
403
  100
AcDbEntity
  8
Layer 1
  62
0
  100
AcDb2dVertex
  10
4.16400
  20
1.47850
  30
0.00000
  42
-0.1379
  70
32
  0
VERTEX
  5
404
  100
AcDbEntity
  8
Layer 1
  62
0
  100
AcDb2dVertex
  10
4.13283
  20
1.45554
  30
0.00000
  42
-0.0846
  70
32
  0
VERTEX
  5
405
  100
AcDbEntity
  8
Layer 1
  62
0
  100
AcDb2dVertex
  10
4.11500
  20
1.45250
  30
0.00000
  42
-0.0544
  70
32
  0
VERTEX
  5
406
  100
AcDbEntity
  8
Layer 1
  62
0
  100
AcDb2dVertex
  10
4.09355
  20
1.45649
  30
0.00000
  42
-0.0197
  70
32
  0
VERTEX
  5
407
  100
AcDbEntity
  8
Layer 1
  62
0
  100
AcDb2dVertex
  10
4.02800
  20
1.47750
  30
0.00000
  42
0.0812
  70
32
  0
VERTEX
  5
408
  100
AcDbEntity
  8
Layer 1
  62
0
  100
AcDb2dVertex
  10
3.86800
  20
1.50250
  30
0.00000
  42
0.0611
  70
32
  0
VERTEX
  5
409
  100
AcDbEntity
  8
Layer 1
  62
0
  100
AcDb2dVertex
  10
3.79505
  20
1.49459
  30
0.00000
  42
0.0510
  70
32
  0
VERTEX
  5
40A
  100
AcDbEntity
  8
Layer 1
  62
0
  100
AcDb2dVertex
  10
3.76100
  20
1.48250
  30
0.00000
  42
0.0514
  70
32
  0
VERTEX
  5
40B
  100
AcDbEntity
  8
Layer 1
  62
0
  100
AcDb2dVertex
  10
3.72261
  20
1.45336
  30
0.00000
  70
32
  0
VERTEX
  5
40C
  100
AcDbEntity
  8
Layer 1
  62
0
  100
AcDb2dVertex
  10
3.71300
  20
1.44450
  30
0.00000
  42
-0.0762
  70
32
  0
VERTEX
  5
40D
  100
AcDbEntity
  8
Layer 1
  62
0
  100
AcDb2dVertex
  10
3.69167
  20
1.42649
  30
0.00000
  42
-0.1286
  70
32
  0
VERTEX
  5
40E
  100
AcDbEntity
  8
Layer 1
  62
0
  100
AcDb2dVertex
  10
3.67800
  20
1.42250
  30
0.00000
  42
-0.2022
  70
32
  0
VERTEX
  5
40F
  100
AcDbEntity
  8
Layer 1
  62
0
  100
AcDb2dVertex
  10
3.65241
  20
1.43351
  30
0.00000
  42
-0.0640
  70
32
  0
VERTEX
  5
410
  100
AcDbEntity
  8
Layer 1
  62
0
  100
AcDb2dVertex
  10
3.64000
  20
1.44950
  30
0.00000
  42
0.0980
  70
32
  0
VERTEX
  5
411
  100
AcDbEntity
  8
Layer 1
  62
0
  100
AcDb2dVertex
  10
3.62368
  20
1.47121
  30
0.00000
  42
0.1768
  70
32
  0
VERTEX
  5
412
  100
AcDbEntity
  8
Layer 1
  62
0
  100
AcDb2dVertex
  10
3.60800
  20
1.47750
  30
0.00000
  42
0.1406
  70
32
  0
VERTEX
  5
413
  100
AcDbEntity
  8
Layer 1
  62
0
  100
AcDb2dVertex
  10
3.58443
  20
1.46961
  30
0.00000
  42
0.0309
  70
32
  0
VERTEX
  5
414
  100
AcDbEntity
  8
Layer 1
  62
0
  100
AcDb2dVertex
  10
3.57600
  20
1.46350
  30
0.00000
  42
-0.1543
  70
32
  0
VERTEX
  5
415
  100
AcDbEntity
  8
Layer 1
  62
0
  100
AcDb2dVertex
  10
3.54087
  20
1.45053
  30
0.00000
  70
32
  0
VERTEX
  5
416
  100
AcDbEntity
  8
Layer 1
  62
0
  100
AcDb2dVertex
  10
3.53900
  20
1.45050
  30
0.00000
  42
-0.1076
  70
32
  0
VERTEX
  5
417
  100
AcDbEntity
  8
Layer 1
  62
0
  100
AcDb2dVertex
  10
3.53085
  20
1.45408
  30
0.00000
  42
-0.0320
  70
32
  0
VERTEX
  5
418
  100
AcDbEntity
  8
Layer 1
  62
0
  100
AcDb2dVertex
  10
3.49517
  20
1.48078
  30
0.00000
  70
32
  0
VERTEX
  5
419
  100
AcDbEntity
  8
Layer 1
  62
0
  100
AcDb2dVertex
  10
3.48000
  20
1.49350
  30
0.00000
  42
0.0562
  70
32
  0
VERTEX
  5
41A
  100
AcDbEntity
  8
Layer 1
  62
0
  100
AcDb2dVertex
  10
3.43301
  20
1.52524
  30
0.00000
  42
0.0963
  70
32
  0
VERTEX
  5
41B
  100
AcDbEntity
  8
Layer 1
  62
0
  100
AcDb2dVertex
  10
3.39995
  20
1.53535
  30
0.00000
  70
32
  0
VERTEX
  5
41C
  100
AcDbEntity
  8
Layer 1
  62
0
  100
AcDb2dVertex
  10
3.39600
  20
1.53550
  30
0.00000
  42
0.0326
  70
32
  0
VERTEX
  5
41D
  100
AcDbEntity
  8
Layer 1
  62
0
  100
AcDb2dVertex
  10
3.37400
  20
1.53150
  30
0.00000
  42
-0.0520
  70
32
  0
VERTEX
  5
41E
  100
AcDbEntity
  8
Layer 1
  62
0
  100
AcDb2dVertex
  10
3.34100
  20
1.52750
  30
0.00000
  42
-0.0477
  70
32
  0
VERTEX
  5
41F
  100
AcDbEntity
  8
Layer 1
  62
0
  100
AcDb2dVertex
  10
3.31293
  20
1.52929
  30
0.00000
  42
-0.1129
  70
32
  0
VERTEX
  5
420
  100
AcDbEntity
  8
Layer 1
  62
0
  100
AcDb2dVertex
  10
3.30500
  20
1.53250
  30
0.00000
  42
-0.0923
  70
32
  0
VERTEX
  5
421
  100
AcDbEntity
  8
Layer 1
  62
0
  100
AcDb2dVertex
  10
3.29604
  20
1.54248
  30
0.00000
  42
-0.0251
  70
32
  0
VERTEX
  5
422
  100
AcDbEntity
  8
Layer 1
  62
0
  100
AcDb2dVertex
  10
3.28100
  20
1.56750
  30
0.00000
  42
0.0468
  70
32
  0
VERTEX
  5
423
  100
AcDbEntity
  8
Layer 1
  62
0
  100
AcDb2dVertex
  10
3.27218
  20
1.55988
  30
0.00000
  42
0.0075
  70
32
  0
VERTEX
  5
424
  100
AcDbEntity
  8
Layer 1
  62
0
  100
AcDb2dVertex
  10
3.23600
  20
1.52450
  30
0.00000
  42
-0.0320
  70
32
  0
VERTEX
  5
425
  100
AcDbEntity
  8
Layer 1
  62
0
  100
AcDb2dVertex
  10
3.19762
  20
1.49076
  30
0.00000
  42
-0.0873
  70
32
  0
VERTEX
  5
426
  100
AcDbEntity
  8
Layer 1
  62
0
  100
AcDb2dVertex
  10
3.18333
  20
1.48282
  30
0.00000
  70
32
  0
VERTEX
  5
427
  100
AcDbEntity
  8
Layer 1
  62
0
  100
AcDb2dVertex
  10
3.18100
  20
1.48250
  30
0.00000
  42
-0.2214
  70
32
  0
VERTEX
  5
428
  100
AcDbEntity
  8
Layer 1
  62
0
  100
AcDb2dVertex
  10
3.16248
  20
1.48995
  30
0.00000
  42
-0.1458
  70
32
  0
VERTEX
  5
429
  100
AcDbEntity
  8
Layer 1
  62
0
  100
AcDb2dVertex
  10
3.15484
  20
1.50840
  30
0.00000
  42
-0.0378
  70
32
  0
VERTEX
  5
42A
  100
AcDbEntity
  8
Layer 1
  62
0
  100
AcDb2dVertex
  10
3.15400
  20
1.52050
  30
0.00000
  42
-0.0863
  70
32
  0
VERTEX
  5
42B
  100
AcDbEntity
  8
Layer 1
  62
0
  100
AcDb2dVertex
  10
3.16621
  20
1.58536
  30
0.00000
  42
-0.0206
  70
32
  0
VERTEX
  5
42C
  100
AcDbEntity
  8
Layer 1
  62
0
  100
AcDb2dVertex
  10
3.17600
  20
1.60950
  30
0.00000
  42
-0.0843
  70
32
  0
VERTEX
  5
42D
  100
AcDbEntity
  8
Layer 1
  62
0
  100
AcDb2dVertex
  10
3.20087
  20
1.64600
  30
0.00000
  42
-0.1636
  70
32
  0
VERTEX
  5
42E
  100
AcDbEntity
  8
Layer 1
  62
0
  100
AcDb2dVertex
  10
3.23691
  20
1.66485
  30
0.00000
  42
-0.0363
  70
32
  0
VERTEX
  5
42F
  100
AcDbEntity
  8
Layer 1
  62
0
  100
AcDb2dVertex
  10
3.24600
  20
1.66550
  30
0.00000
  42
-0.1025
  70
32
  0
VERTEX
  5
430
  100
AcDbEntity
  8
Layer 1
  62
0
  100
AcDb2dVertex
  10
3.27994
  20
1.65948
  30
0.00000
  42
-0.1188
  70
32
  0
VERTEX
  5
431
  100
AcDbEntity
  8
Layer 1
  62
0
  100
AcDb2dVertex
  10
3.29500
  20
1.64850
  30
0.00000
  42
0.0486
  70
32
  0
VERTEX
  5
432
  100
AcDbEntity
  8
Layer 1
  62
0
  100
AcDb2dVertex
  10
3.31031
  20
1.63224
  30
0.00000
  42
0.1503
  70
32
  0
VERTEX
  5
433
  100
AcDbEntity
  8
Layer 1
  62
0
  100
AcDb2dVertex
  10
3.31400
  20
1.63050
  30
0.00000
  70
32
  0
VERTEX
  5
434
  100
AcDbEntity
  8
Layer 1
  62
0
  100
AcDb2dVertex
  10
3.31824
  20
1.63112
  30
0.00000
  70
32
  0
VERTEX
  5
435
  100
AcDbEntity
  8
Layer 1
  62
0
  100
AcDb2dVertex
  10
3.32700
  20
1.63250
  30
0.00000
  70
32
  0
VERTEX
  5
436
  100
AcDbEntity
  8
Layer 1
  62
0
  100
AcDb2dVertex
  10
3.33495
  20
1.63339
  30
0.00000
  42
0.0365
  70
32
  0
VERTEX
  5
437
  100
AcDbEntity
  8
Layer 1
  62
0
  100
AcDb2dVertex
  10
3.34300
  20
1.63450
  30
0.00000
  42
-0.1022
  70
32
  0
VERTEX
  5
438
  100
AcDbEntity
  8
Layer 1
  62
0
  100
AcDb2dVertex
  10
3.39270
  20
1.62068
  30
0.00000
  42
-0.0311
  70
32
  0
VERTEX
  5
439
  100
AcDbEntity
  8
Layer 1
  62
0
  100
AcDb2dVertex
  10
3.41400
  20
1.60850
  30
0.00000
  42
0.0866
  70
32
  0
VERTEX
  5
43A
  100
AcDbEntity
  8
Layer 1
  62
0
  100
AcDb2dVertex
  10
3.46856
  20
1.58667
  30
0.00000
  42
0.0567
  70
32
  0
VERTEX
  5
43B
  100
AcDbEntity
  8
Layer 1
  62
0
  100
AcDb2dVertex
  10
3.49600
  20
1.58450
  30
0.00000
  42
0.1112
  70
32
  0
VERTEX
  5
43C
  100
AcDbEntity
  8
Layer 1
  62
0
  100
AcDb2dVertex
  10
3.50160
  20
1.58418
  30
0.00000
  42
0.0099
  70
32
  0
VERTEX
  5
43D
  100
AcDbEntity
  8
Layer 1
  62
0
  100
AcDb2dVertex
  10
3.52900
  20
1.58650
  30
0.00000
  42
-0.0092
  70
32
  0
VERTEX
  5
43E
  100
AcDbEntity
  8
Layer 1
  62
0
  100
AcDb2dVertex
  10
3.55182
  20
1.58831
  30
0.00000
  42
0.0508
  70
32
  0
VERTEX
  5
43F
  100
AcDbEntity
  8
Layer 1
  62
0
  100
AcDb2dVertex
  10
3.56300
  20
1.58950
  30
0.00000
  42
-0.1076
  70
32
  0
VERTEX
  5
440
  100
AcDbEntity
  8
Layer 1
  62
0
  100
AcDb2dVertex
  10
3.61300
  20
1.57550
  30
0.00000
  70
32
  0
VERTEX
  5
441
  100
AcDbEntity
  8
Layer 1
  62
0
  100
AcDb2dVertex
  10
3.62199
  20
1.57048
  30
0.00000
  70
32
  0
VERTEX
  5
442
  100
AcDbEntity
  8
Layer 1
  62
0
  100
AcDb2dVertex
  10
3.63259
  20
1.56443
  30
0.00000
  70
32
  0
VERTEX
  5
443
  100
AcDbEntity
  8
Layer 1
  62
0
  100
AcDb2dVertex
  10
3.63451
  20
1.56298
  30
0.00000
  70
32
  0
VERTEX
  5
444
  100
AcDbEntity
  8
Layer 1
  62
0
  100
AcDb2dVertex
  10
3.63457
  20
1.56262
  30
0.00000
  70
32
  0
VERTEX
  5
445
  100
AcDbEntity
  8
Layer 1
  62
0
  100
AcDb2dVertex
  10
3.63400
  20
1.56250
  30
0.00000
  42
0.0858
  70
32
  0
VERTEX
  5
446
  100
AcDbEntity
  8
Layer 1
  62
0
  100
AcDb2dVertex
  10
3.64532
  20
1.56606
  30
0.00000
  42
0.0127
  70
32
  0
VERTEX
  5
447
  100
AcDbEntity
  8
Layer 1
  62
0
  100
AcDb2dVertex
  10
3.66300
  20
1.57450
  30
0.00000
  42
-0.1349
  70
32
  0
VERTEX
  5
448
  100
AcDbEntity
  8
Layer 1
  62
0
  100
AcDb2dVertex
  10
3.70600
  20
1.58750
  30
0.00000
  42
-0.0119
  70
32
  0
VERTEX
  5
449
  100
AcDbEntity
  8
Layer 1
  62
0
  100
AcDb2dVertex
  10
3.75214
  20
1.57988
  30
0.00000
  70
32
  0
VERTEX
  5
44A
  100
AcDbEntity
  8
Layer 1
  62
0
  100
AcDb2dVertex
  10
3.76000
  20
1.57850
  30
0.00000
  70
32
  0
VERTEX
  5
44B
  100
AcDbEntity
  8
Layer 1
  62
0
  100
AcDb2dVertex
  10
3.79596
  20
1.57309
  30
0.00000
  70
32
  0
VERTEX
  5
44C
  100
AcDbEntity
  8
Layer 1
  62
0
  100
AcDb2dVertex
  10
3.81400
  20
1.57050
  30
0.00000
  42
-0.0202
  70
32
  0
VERTEX
  5
44D
  100
AcDbEntity
  8
Layer 1
  62
0
  100
AcDb2dVertex
  10
3.85500
  20
1.56850
  30
0.00000
  42
0.0098
  70
32
  0
VERTEX
  5
44E
  100
AcDbEntity
  8
Layer 1
  62
0
  100
AcDb2dVertex
  10
3.89600
  20
1.56750
  30
0.00000
  42
0.0845
  70
32
  0
VERTEX
  5
44F
  100
AcDbEntity
  8
Layer 1
  62
0
  100
AcDb2dVertex
  10
3.99152
  20
1.58264
  30
0.00000
  42
0.0689
  70
32
  0
VERTEX
  5
450
  100
AcDbEntity
  8
Layer 1
  62
0
  100
AcDb2dVertex
  10
4.05000
  20
1.61250
  30
0.00000
  42
-0.0329
  70
32
  0
VERTEX
  5
451
  100
AcDbEntity
  8
Layer 1
  62
0
  100
AcDb2dVertex
  10
4.10509
  20
1.64769
  30
0.00000
  42
-0.0696
  70
32
  0
VERTEX
  5
452
  100
AcDbEntity
  8
Layer 1
  62
0
  100
AcDb2dVertex
  10
4.12868
  20
1.65706
  30
0.00000
  70
32
  0
VERTEX
  5
453
  100
AcDbEntity
  8
Layer 1
  62
0
  100
AcDb2dVertex
  10
4.13300
  20
1.65750
  30
0.00000
  42
-0.1905
  70
32
  0
VERTEX
  5
454
  100
AcDbEntity
  8
Layer 1
  62
0
  100
AcDb2dVertex
  10
4.19022
  20
1.63523
  30
0.00000
  42
-0.0270
  70
32
  0
VERTEX
  5
455
  100
AcDbEntity
  8
Layer 1
  62
0
  100
AcDb2dVertex
  10
4.19900
  20
1.62650
  30
0.00000
  42
0.0620
  70
32
  0
VERTEX
  5
456
  100
AcDbEntity
  8
Layer 1
  62
0
  100
AcDb2dVertex
  10
4.22501
  20
1.60159
  30
0.00000
  42
0.1284
  70
32
  0
VERTEX
  5
457
  100
AcDbEntity
  8
Layer 1
  62
0
  100
AcDb2dVertex
  10
4.23906
  20
1.59553
  30
0.00000
  70
32
  0
VERTEX
  5
458
  100
AcDbEntity
  8
Layer 1
  62
0
  100
AcDb2dVertex
  10
4.24000
  20
1.59550
  30
0.00000
  42
0.0744
  70
32
  0
VERTEX
  5
459
  100
AcDbEntity
  8
Layer 1
  62
0
  100
AcDb2dVertex
  10
4.25101
  20
1.59920
  30
0.00000
  42
0.0124
  70
32
  0
VERTEX
  5
45A
  100
AcDbEntity
  8
Layer 1
  62
0
  100
AcDb2dVertex
  10
4.28500
  20
1.61550
  30
0.00000
  42
-0.0536
  70
32
  0
VERTEX
  5
45B
  100
AcDbEntity
  8
Layer 1
  62
0
  100
AcDb2dVertex
  10
4.32771
  20
1.63319
  30
0.00000
  42
-0.0628
  70
32
  0
VERTEX
  5
45C
  100
AcDbEntity
  8
Layer 1
  62
0
  100
AcDb2dVertex
  10
4.34300
  20
1.63550
  30
0.00000
  42
-0.1500
  70
32
  0
VERTEX
  5
45D
  100
AcDbEntity
  8
Layer 1
  62
0
  100
AcDb2dVertex
  10
4.39623
  20
1.61879
  30
0.00000
  70
32
  0
VERTEX
  5
45E
  100
AcDbEntity
  8
Layer 1
  62
0
  100
AcDb2dVertex
  10
4.40100
  20
1.61550
  30
0.00000
  42
-0.1574
  70
32
  0
VERTEX
  5
45F
  100
AcDbEntity
  8
Layer 1
  62
0
  100
AcDb2dVertex
  10
4.42470
  20
1.58506
  30
0.00000
  42
-0.0839
  70
32
  0
VERTEX
  5
460
  100
AcDbEntity
  8
Layer 1
  62
0
  100
AcDb2dVertex
  10
4.42800
  20
1.56450
  30
0.00000
  70
32
  0
VERTEX
  5
461
  100
AcDbEntity
  8
Layer 1
  62
0
  100
AcDb2dVertex
  10
4.42800
  20
1.41050
  30
0.00000
  42
0.0155
  70
32
  0
VERTEX
  5
462
  100
AcDbEntity
  8
Layer 1
  62
0
  100
AcDb2dVertex
  10
4.43683
  20
1.37048
  30
0.00000
  70
32
  0
VERTEX
  5
463
  100
AcDbEntity
  8
Layer 1
  62
0
  100
AcDb2dVertex
  10
4.45000
  20
1.31650
  30
0.00000
  70
32
  0
VERTEX
  5
464
  100
AcDbEntity
  8
Layer 1
  62
0
  100
AcDb2dVertex
  10
4.46575
  20
1.24737
  30
0.00000
  42
-0.0149
  70
32
  0
VERTEX
  5
465
  100
AcDbEntity
  8
Layer 1
  62
0
  100
AcDb2dVertex
  10
4.47100
  20
1.22250
  30
0.00000
  70
32
  0
SEQEND
  5
466
  100
AcDbEntity
  8
Layer 1
  62
0
  0
POLYLINE
  5
467
  100
AcDbEntity
  8
Layer 1
  62
0
  100
AcDb2dPolyline
 66
     1
  10
0
  20
0
  30
0
  70
1
  0
VERTEX
  5
468
  100
AcDbEntity
  8
Layer 1
  62
0
  100
AcDb2dVertex
  10
4.35600
  20
0.98050
  30
0.00000
  42
-0.1653
  70
32
  0
VERTEX
  5
469
  100
AcDbEntity
  8
Layer 1
  62
0
  100
AcDb2dVertex
  10
4.34752
  20
0.95794
  30
0.00000
  42
-0.0351
  70
32
  0
VERTEX
  5
46A
  100
AcDbEntity
  8
Layer 1
  62
0
  100
AcDb2dVertex
  10
4.34100
  20
0.95050
  30
0.00000
  42
0.0467
  70
32
  0
VERTEX
  5
46B
  100
AcDbEntity
  8
Layer 1
  62
0
  100
AcDb2dVertex
  10
4.30556
  20
0.92266
  30
0.00000
  70
32
  0
VERTEX
  5
46C
  100
AcDbEntity
  8
Layer 1
  62
0
  100
AcDb2dVertex
  10
4.30000
  20
0.91750
  30
0.00000
  42
0.0121
  70
32
  0
VERTEX
  5
46D
  100
AcDbEntity
  8
Layer 1
  62
0
  100
AcDb2dVertex
  10
4.25806
  20
0.83662
  30
0.00000
  70
32
  0
VERTEX
  5
46E
  100
AcDbEntity
  8
Layer 1
  62
0
  100
AcDb2dVertex
  10
4.25100
  20
0.82250
  30
0.00000
  42
-0.1506
  70
32
  0
VERTEX
  5
46F
  100
AcDbEntity
  8
Layer 1
  62
0
  100
AcDb2dVertex
  10
4.21727
  20
0.78669
  30
0.00000
  42
-0.0810
  70
32
  0
VERTEX
  5
470
  100
AcDbEntity
  8
Layer 1
  62
0
  100
AcDb2dVertex
  10
4.19100
  20
0.77750
  30
0.00000
  42
0.0258
  70
32
  0
VERTEX
  5
471
  100
AcDbEntity
  8
Layer 1
  62
0
  100
AcDb2dVertex
  10
4.12880
  20
0.77282
  30
0.00000
  70
32
  0
VERTEX
  5
472
  100
AcDbEntity
  8
Layer 1
  62
0
  100
AcDb2dVertex
  10
4.08500
  20
0.76750
  30
0.00000
  42
0.0299
  70
32
  0
VERTEX
  5
473
  100
AcDbEntity
  8
Layer 1
  62
0
  100
AcDb2dVertex
  10
4.01890
  20
0.74721
  30
0.00000
  70
32
  0
VERTEX
  5
474
  100
AcDbEntity
  8
Layer 1
  62
0
  100
AcDb2dVertex
  10
4.00600
  20
0.74250
  30
0.00000
  42
-0.0472
  70
32
  0
VERTEX
  5
475
  100
AcDbEntity
  8
Layer 1
  62
0
  100
AcDb2dVertex
  10
3.95696
  20
0.72738
  30
0.00000
  42
-0.0452
  70
32
  0
VERTEX
  5
476
  100
AcDbEntity
  8
Layer 1
  62
0
  100
AcDb2dVertex
  10
3.93800
  20
0.72550
  30
0.00000
  42
-0.1309
  70
32
  0
VERTEX
  5
477
  100
AcDbEntity
  8
Layer 1
  62
0
  100
AcDb2dVertex
  10
3.89248
  20
0.73648
  30
0.00000
  42
-0.1384
  70
32
  0
VERTEX
  5
478
  100
AcDbEntity
  8
Layer 1
  62
0
  100
AcDb2dVertex
  10
3.85961
  20
0.77060
  30
0.00000
  42
-0.0793
  70
32
  0
VERTEX
  5
479
  100
AcDbEntity
  8
Layer 1
  62
0
  100
AcDb2dVertex
  10
3.84213
  20
0.82077
  30
0.00000
  42
-0.0485
  70
32
  0
VERTEX
  5
47A
  100
AcDbEntity
  8
Layer 1
  62
0
  100
AcDb2dVertex
  10
3.83600
  20
0.89250
  30
0.00000
  42
-0.0461
  70
32
  0
VERTEX
  5
47B
  100
AcDbEntity
  8
Layer 1
  62
0
  100
AcDb2dVertex
  10
3.83964
  20
0.94229
  30
0.00000
  42
-0.0674
  70
32
  0
VERTEX
  5
47C
  100
AcDbEntity
  8
Layer 1
  62
0
  100
AcDb2dVertex
  10
3.84600
  20
0.96250
  30
0.00000
  42
-0.1095
  70
32
  0
VERTEX
  5
47D
  100
AcDbEntity
  8
Layer 1
  62
0
  100
AcDb2dVertex
  10
3.86466
  20
0.98631
  30
0.00000
  42
-0.0626
  70
32
  0
VERTEX
  5
47E
  100
AcDbEntity
  8
Layer 1
  62
0
  100
AcDb2dVertex
  10
3.90647
  20
1.01319
  30
0.00000
  42
-0.0243
  70
32
  0
VERTEX
  5
47F
  100
AcDbEntity
  8
Layer 1
  62
0
  100
AcDb2dVertex
  10
3.94600
  20
1.03050
  30
0.00000
  42
0.0826
  70
32
  0
VERTEX
  5
480
  100
AcDbEntity
  8
Layer 1
  62
0
  100
AcDb2dVertex
  10
3.98937
  20
1.05501
  30
0.00000
  42
0.1553
  70
32
  0
VERTEX
  5
481
  100
AcDbEntity
  8
Layer 1
  62
0
  100
AcDb2dVertex
  10
4.01616
  20
1.09547
  30
0.00000
  42
0.0669
  70
32
  0
VERTEX
  5
482
  100
AcDbEntity
  8
Layer 1
  62
0
  100
AcDb2dVertex
  10
4.01900
  20
1.11750
  30
0.00000
  42
0.0313
  70
32
  0
VERTEX
  5
483
  100
AcDbEntity
  8
Layer 1
  62
0
  100
AcDb2dVertex
  10
4.01434
  20
1.14968
  30
0.00000
  70
32
  0
VERTEX
  5
484
  100
AcDbEntity
  8
Layer 1
  62
0
  100
AcDb2dVertex
  10
4.01400
  20
1.15150
  30
0.00000
  70
32
  0
VERTEX
  5
485
  100
AcDbEntity
  8
Layer 1
  62
0
  100
AcDb2dVertex
  10
4.01137
  20
1.16875
  30
0.00000
  42
-0.0157
  70
32
  0
VERTEX
  5
486
  100
AcDbEntity
  8
Layer 1
  62
0
  100
AcDb2dVertex
  10
4.00900
  20
1.18550
  30
0.00000
  42
-0.1841
  70
32
  0
VERTEX
  5
487
  100
AcDbEntity
  8
Layer 1
  62
0
  100
AcDb2dVertex
  10
4.03400
  20
1.25350
  30
0.00000
  42
-0.1839
  70
32
  0
VERTEX
  5
488
  100
AcDbEntity
  8
Layer 1
  62
0
  100
AcDb2dVertex
  10
4.08785
  20
1.27979
  30
0.00000
  42
-0.0279
  70
32
  0
VERTEX
  5
489
  100
AcDbEntity
  8
Layer 1
  62
0
  100
AcDb2dVertex
  10
4.10100
  20
1.28050
  30
0.00000
  42
-0.1139
  70
32
  0
VERTEX
  5
48A
  100
AcDbEntity
  8
Layer 1
  62
0
  100
AcDb2dVertex
  10
4.14079
  20
1.27030
  30
0.00000
  42
-0.0311
  70
32
  0
VERTEX
  5
48B
  100
AcDbEntity
  8
Layer 1
  62
0
  100
AcDb2dVertex
  10
4.15800
  20
1.26050
  30
0.00000
  42
0.0249
  70
32
  0
VERTEX
  5
48C
  100
AcDbEntity
  8
Layer 1
  62
0
  100
AcDb2dVertex
  10
4.22854
  20
1.21866
  30
0.00000
  70
32
  0
VERTEX
  5
48D
  100
AcDbEntity
  8
Layer 1
  62
0
  100
AcDb2dVertex
  10
4.23500
  20
1.21550
  30
0.00000
  42
0.0927
  70
32
  0
VERTEX
  5
48E
  100
AcDbEntity
  8
Layer 1
  62
0
  100
AcDb2dVertex
  10
4.25767
  20
1.20944
  30
0.00000
  42
0.0366
  70
32
  0
VERTEX
  5
48F
  100
AcDbEntity
  8
Layer 1
  62
0
  100
AcDb2dVertex
  10
4.29500
  20
1.20850
  30
0.00000
  42
-0.0566
  70
32
  0
VERTEX
  5
490
  100
AcDbEntity
  8
Layer 1
  62
0
  100
AcDb2dVertex
  10
4.32440
  20
1.20730
  30
0.00000
  42
-0.1557
  70
32
  0
VERTEX
  5
491
  100
AcDbEntity
  8
Layer 1
  62
0
  100
AcDb2dVertex
  10
4.33467
  20
1.20257
  30
0.00000
  42
-0.0821
  70
32
  0
VERTEX
  5
492
  100
AcDbEntity
  8
Layer 1
  62
0
  100
AcDb2dVertex
  10
4.33600
  20
1.20050
  30
0.00000
  42
-0.0668
  70
32
  0
VERTEX
  5
493
  100
AcDbEntity
  8
Layer 1
  62
0
  100
AcDb2dVertex
  10
4.34764
  20
1.15516
  30
0.00000
  70
32
  0
VERTEX
  5
494
  100
AcDbEntity
  8
Layer 1
  62
0
  100
AcDb2dVertex
  10
4.34800
  20
1.14750
  30
0.00000
  70
32
  0
VERTEX
  5
495
  100
AcDbEntity
  8
Layer 1
  62
0
  100
AcDb2dVertex
  10
4.35100
  20
1.11850
  30
0.00000
  70
32
  0
VERTEX
  5
496
  100
AcDbEntity
  8
Layer 1
  62
0
  100
AcDb2dVertex
  10
4.19100
  20
1.10850
  30
0.00000
  70
32
  0
VERTEX
  5
497
  100
AcDbEntity
  8
Layer 1
  62
0
  100
AcDb2dVertex
  10
4.35100
  20
1.11850
  30
0.00000
  70
32
  0
VERTEX
  5
498
  100
AcDbEntity
  8
Layer 1
  62
0
  100
AcDb2dVertex
  10
4.35600
  20
0.98050
  30
0.00000
  70
32
  0
SEQEND
  5
499
  100
AcDbEntity
  8
Layer 1
  62
0
  0
POLYLINE
  5
49A
  100
AcDbEntity
  8
Layer 1
  62
0
  100
AcDb2dPolyline
 66
     1
  10
0
  20
0
  30
0
  70
1
  0
VERTEX
  5
49B
  100
AcDbEntity
  8
Layer 1
  62
0
  100
AcDb2dVertex
  10
3.87900
  20
1.21250
  30
0.00000
  70
32
  0
VERTEX
  5
49C
  100
AcDbEntity
  8
Layer 1
  62
0
  100
AcDb2dVertex
  10
3.87894
  20
1.21358
  30
0.00000
  70
32
  0
VERTEX
  5
49D
  100
AcDbEntity
  8
Layer 1
  62
0
  100
AcDb2dVertex
  10
3.87878
  20
1.21382
  30
0.00000
  42
0.0567
  70
32
  0
VERTEX
  5
49E
  100
AcDbEntity
  8
Layer 1
  62
0
  100
AcDb2dVertex
  10
3.87655
  20
1.20455
  30
0.00000
  42
0.0068
  70
32
  0
VERTEX
  5
49F
  100
AcDbEntity
  8
Layer 1
  62
0
  100
AcDb2dVertex
  10
3.86400
  20
1.12850
  30
0.00000
  70
32
  0
VERTEX
  5
4A0
  100
AcDbEntity
  8
Layer 1
  62
0
  100
AcDb2dVertex
  10
3.72900
  20
1.15850
  30
0.00000
  70
32
  0
VERTEX
  5
4A1
  100
AcDbEntity
  8
Layer 1
  62
0
  100
AcDb2dVertex
  10
3.86400
  20
1.12850
  30
0.00000
  42
-0.0569
  70
32
  0
VERTEX
  5
4A2
  100
AcDbEntity
  8
Layer 1
  62
0
  100
AcDb2dVertex
  10
3.84494
  20
1.06147
  30
0.00000
  42
-0.0894
  70
32
  0
VERTEX
  5
4A3
  100
AcDbEntity
  8
Layer 1
  62
0
  100
AcDb2dVertex
  10
3.81891
  20
1.02042
  30
0.00000
  42
-0.2127
  70
32
  0
VERTEX
  5
4A4
  100
AcDbEntity
  8
Layer 1
  62
0
  100
AcDb2dVertex
  10
3.76100
  20
0.99550
  30
0.00000
  70
32
  0
VERTEX
  5
4A5
  100
AcDbEntity
  8
Layer 1
  62
0
  100
AcDb2dVertex
  10
3.78400
  20
0.98050
  30
0.00000
  42
0.0121
  70
32
  0
VERTEX
  5
4A6
  100
AcDbEntity
  8
Layer 1
  62
0
  100
AcDb2dVertex
  10
3.75300
  20
0.94750
  30
0.00000
  42
-0.0762
  70
32
  0
VERTEX
  5
4A7
  100
AcDbEntity
  8
Layer 1
  62
0
  100
AcDb2dVertex
  10
3.73167
  20
0.92949
  30
0.00000
  42
-0.1286
  70
32
  0
VERTEX
  5
4A8
  100
AcDbEntity
  8
Layer 1
  62
0
  100
AcDb2dVertex
  10
3.71800
  20
0.92550
  30
0.00000
  42
-0.0894
  70
32
  0
VERTEX
  5
4A9
  100
AcDbEntity
  8
Layer 1
  62
0
  100
AcDb2dVertex
  10
3.70894
  20
0.92913
  30
0.00000
  42
-0.0233
  70
32
  0
VERTEX
  5
4AA
  100
AcDbEntity
  8
Layer 1
  62
0
  100
AcDb2dVertex
  10
3.66220
  20
0.95842
  30
0.00000
  70
32
  0
VERTEX
  5
4AB
  100
AcDbEntity
  8
Layer 1
  62
0
  100
AcDb2dVertex
  10
3.64300
  20
0.97150
  30
0.00000
  42
0.0625
  70
32
  0
VERTEX
  5
4AC
  100
AcDbEntity
  8
Layer 1
  62
0
  100
AcDb2dVertex
  10
3.57233
  20
1.00707
  30
0.00000
  42
0.0823
  70
32
  0
VERTEX
  5
4AD
  100
AcDbEntity
  8
Layer 1
  62
0
  100
AcDb2dVertex
  10
3.51300
  20
1.01750
  30
0.00000
  70
32
  0
VERTEX
  5
4AE
  100
AcDbEntity
  8
Layer 1
  62
0
  100
AcDb2dVertex
  10
3.50818
  20
1.01659
  30
0.00000
  70
32
  0
VERTEX
  5
4AF
  100
AcDbEntity
  8
Layer 1
  62
0
  100
AcDb2dVertex
  10
3.50300
  20
1.01550
  30
0.00000
  70
32
  0
VERTEX
  5
4B0
  100
AcDbEntity
  8
Layer 1
  62
0
  100
AcDb2dVertex
  10
3.49300
  20
1.01550
  30
0.00000
  42
-0.1263
  70
32
  0
VERTEX
  5
4B1
  100
AcDbEntity
  8
Layer 1
  62
0
  100
AcDb2dVertex
  10
3.47725
  20
1.02072
  30
0.00000
  42
-0.0512
  70
32
  0
VERTEX
  5
4B2
  100
AcDbEntity
  8
Layer 1
  62
0
  100
AcDb2dVertex
  10
3.45000
  20
1.04150
  30
0.00000
  42
0.0523
  70
32
  0
VERTEX
  5
4B3
  100
AcDbEntity
  8
Layer 1
  62
0
  100
AcDb2dVertex
  10
3.42315
  20
1.06315
  30
0.00000
  42
0.1280
  70
32
  0
VERTEX
  5
4B4
  100
AcDbEntity
  8
Layer 1
  62
0
  100
AcDb2dVertex
  10
3.41100
  20
1.06750
  30
0.00000
  42
0.0632
  70
32
  0
VERTEX
  5
4B5
  100
AcDbEntity
  8
Layer 1
  62
0
  100
AcDb2dVertex
  10
3.39900
  20
1.06450
  30
0.00000
  70
32
  0
VERTEX
  5
4B6
  100
AcDbEntity
  8
Layer 1
  62
0
  100
AcDb2dVertex
  10
3.39125
  20
1.06324
  30
0.00000
  70
32
  0
VERTEX
  5
4B7
  100
AcDbEntity
  8
Layer 1
  62
0
  100
AcDb2dVertex
  10
3.38600
  20
1.06250
  30
0.00000
  70
32
  0
VERTEX
  5
4B8
  100
AcDbEntity
  8
Layer 1
  62
0
  100
AcDb2dVertex
  10
3.35800
  20
1.06250
  30
0.00000
  42
-0.1772
  70
32
  0
VERTEX
  5
4B9
  100
AcDbEntity
  8
Layer 1
  62
0
  100
AcDb2dVertex
  10
3.35417
  20
1.07294
  30
0.00000
  70
32
  0
VERTEX
  5
4BA
  100
AcDbEntity
  8
Layer 1
  62
0
  100
AcDb2dVertex
  10
3.35400
  20
1.07750
  30
0.00000
  42
-0.1336
  70
32
  0
VERTEX
  5
4BB
  100
AcDbEntity
  8
Layer 1
  62
0
  100
AcDb2dVertex
  10
3.35928
  20
1.09248
  30
0.00000
  42
-0.0496
  70
32
  0
VERTEX
  5
4BC
  100
AcDbEntity
  8
Layer 1
  62
0
  100
AcDb2dVertex
  10
3.37600
  20
1.11350
  30
0.00000
  42
0.0337
  70
32
  0
VERTEX
  5
4BD
  100
AcDbEntity
  8
Layer 1
  62
0
  100
AcDb2dVertex
  10
3.40597
  20
1.15221
  30
0.00000
  70
32
  0
VERTEX
  5
4BE
  100
AcDbEntity
  8
Layer 1
  62
0
  100
AcDb2dVertex
  10
3.40900
  20
1.15750
  30
0.00000
  70
32
  0
VERTEX
  5
4BF
  100
AcDbEntity
  8
Layer 1
  62
0
  100
AcDb2dVertex
  10
3.48600
  20
1.14750
  30
0.00000
  70
32
  0
VERTEX
  5
4C0
  100
AcDbEntity
  8
Layer 1
  62
0
  100
AcDb2dVertex
  10
3.40900
  20
1.15750
  30
0.00000
  70
32
  0
VERTEX
  5
4C1
  100
AcDbEntity
  8
Layer 1
  62
0
  100
AcDb2dVertex
  10
3.40220
  20
1.16350
  30
0.00000
  42
0.0331
  70
32
  0
VERTEX
  5
4C2
  100
AcDbEntity
  8
Layer 1
  62
0
  100
AcDb2dVertex
  10
3.37900
  20
1.18150
  30
0.00000
  42
-0.1920
  70
32
  0
VERTEX
  5
4C3
  100
AcDbEntity
  8
Layer 1
  62
0
  100
AcDb2dVertex
  10
3.36444
  20
1.20535
  30
0.00000
  42
-0.0520
  70
32
  0
VERTEX
  5
4C4
  100
AcDbEntity
  8
Layer 1
  62
0
  100
AcDb2dVertex
  10
3.36300
  20
1.22050
  30
0.00000
  42
-0.0837
  70
32
  0
VERTEX
  5
4C5
  100
AcDbEntity
  8
Layer 1
  62
0
  100
AcDb2dVertex
  10
3.36814
  20
1.25686
  30
0.00000
  42
-0.1604
  70
32
  0
VERTEX
  5
4C6
  100
AcDbEntity
  8
Layer 1
  62
0
  100
AcDb2dVertex
  10
3.38369
  20
1.27869
  30
0.00000
  42
-0.1549
  70
32
  0
VERTEX
  5
4C7
  100
AcDbEntity
  8
Layer 1
  62
0
  100
AcDb2dVertex
  10
3.40800
  20
1.28550
  30
0.00000
  70
32
  0
VERTEX
  5
4C8
  100
AcDbEntity
  8
Layer 1
  62
0
  100
AcDb2dVertex
  10
3.40789
  20
1.28564
  30
0.00000
  70
32
  0
VERTEX
  5
4C9
  100
AcDbEntity
  8
Layer 1
  62
0
  100
AcDb2dVertex
  10
3.41153
  20
1.28796
  30
0.00000
  70
32
  0
VERTEX
  5
4CA
  100
AcDbEntity
  8
Layer 1
  62
0
  100
AcDb2dVertex
  10
3.41900
  20
1.29250
  30
0.00000
  42
-0.1344
  70
32
  0
VERTEX
  5
4CB
  100
AcDbEntity
  8
Layer 1
  62
0
  100
AcDb2dVertex
  10
3.44600
  20
1.29750
  30
0.00000
  70
32
  0
VERTEX
  5
4CC
  100
AcDbEntity
  8
Layer 1
  62
0
  100
AcDb2dVertex
  10
3.50800
  20
1.27550
  30
0.00000
  70
32
  0
VERTEX
  5
4CD
  100
AcDbEntity
  8
Layer 1
  62
0
  100
AcDb2dVertex
  10
3.44600
  20
1.29750
  30
0.00000
  42
0.0100
  70
32
  0
VERTEX
  5
4CE
  100
AcDbEntity
  8
Layer 1
  62
0
  100
AcDb2dVertex
  10
3.41523
  20
1.37854
  30
0.00000
  70
32
  0
VERTEX
  5
4CF
  100
AcDbEntity
  8
Layer 1
  62
0
  100
AcDb2dVertex
  10
3.41356
  20
1.38210
  30
0.00000
  70
32
  0
VERTEX
  5
4D0
  100
AcDbEntity
  8
Layer 1
  62
0
  100
AcDb2dVertex
  10
3.41314
  20
1.38269
  30
0.00000
  70
32
  0
VERTEX
  5
4D1
  100
AcDbEntity
  8
Layer 1
  62
0
  100
AcDb2dVertex
  10
3.41300
  20
1.38250
  30
0.00000
  42
-0.1392
  70
32
  0
VERTEX
  5
4D2
  100
AcDbEntity
  8
Layer 1
  62
0
  100
AcDb2dVertex
  10
3.41626
  20
1.39735
  30
0.00000
  42
-0.2669
  70
32
  0
VERTEX
  5
4D3
  100
AcDbEntity
  8
Layer 1
  62
0
  100
AcDb2dVertex
  10
3.42841
  20
1.40349
  30
0.00000
  70
32
  0
VERTEX
  5
4D4
  100
AcDbEntity
  8
Layer 1
  62
0
  100
AcDb2dVertex
  10
3.42900
  20
1.40350
  30
0.00000
  42
-0.0765
  70
32
  0
VERTEX
  5
4D5
  100
AcDbEntity
  8
Layer 1
  62
0
  100
AcDb2dVertex
  10
3.44510
  20
1.39952
  30
0.00000
  42
-0.0164
  70
32
  0
VERTEX
  5
4D6
  100
AcDbEntity
  8
Layer 1
  62
0
  100
AcDb2dVertex
  10
3.46000
  20
1.39350
  30
0.00000
  42
0.0892
  70
32
  0
VERTEX
  5
4D7
  100
AcDbEntity
  8
Layer 1
  62
0
  100
AcDb2dVertex
  10
3.49331
  20
1.38275
  30
0.00000
  70
32
  0
VERTEX
  5
4D8
  100
AcDbEntity
  8
Layer 1
  62
0
  100
AcDb2dVertex
  10
3.49800
  20
1.38250
  30
0.00000
  42
0.0397
  70
32
  0
VERTEX
  5
4D9
  100
AcDbEntity
  8
Layer 1
  62
0
  100
AcDb2dVertex
  10
3.52100
  20
1.38650
  30
0.00000
  42
-0.0326
  70
32
  0
VERTEX
  5
4DA
  100
AcDbEntity
  8
Layer 1
  62
0
  100
AcDb2dVertex
  10
3.54300
  20
1.39050
  30
0.00000
  42
-0.0181
  70
32
  0
VERTEX
  5
4DB
  100
AcDbEntity
  8
Layer 1
  62
0
  100
AcDb2dVertex
  10
3.57404
  20
1.38386
  30
0.00000
  70
32
  0
VERTEX
  5
4DC
  100
AcDbEntity
  8
Layer 1
  62
0
  100
AcDb2dVertex
  10
3.59700
  20
1.37850
  30
0.00000
  42
0.0163
  70
32
  0
VERTEX
  5
4DD
  100
AcDbEntity
  8
Layer 1
  62
0
  100
AcDb2dVertex
  10
3.64986
  20
1.36563
  30
0.00000
  70
32
  0
VERTEX
  5
4DE
  100
AcDbEntity
  8
Layer 1
  62
0
  100
AcDb2dVertex
  10
3.65100
  20
1.36550
  30
0.00000
  42
-0.0412
  70
32
  0
VERTEX
  5
4DF
  100
AcDbEntity
  8
Layer 1
  62
0
  100
AcDb2dVertex
  10
3.69425
  20
1.36283
  30
0.00000
  70
32
  0
VERTEX
  5
4E0
  100
AcDbEntity
  8
Layer 1
  62
0
  100
AcDb2dVertex
  10
3.69600
  20
1.36250
  30
0.00000
  70
32
  0
VERTEX
  5
4E1
  100
AcDbEntity
  8
Layer 1
  62
0
  100
AcDb2dVertex
  10
3.80400
  20
1.37550
  30
0.00000
  42
-0.2110
  70
32
  0
VERTEX
  5
4E2
  100
AcDbEntity
  8
Layer 1
  62
0
  100
AcDb2dVertex
  10
3.82332
  20
1.37613
  30
0.00000
  42
-0.1228
  70
32
  0
VERTEX
  5
4E3
  100
AcDbEntity
  8
Layer 1
  62
0
  100
AcDb2dVertex
  10
3.83400
  20
1.36750
  30
0.00000
  42
-0.1228
  70
32
  0
VERTEX
  5
4E4
  100
AcDbEntity
  8
Layer 1
  62
0
  100
AcDb2dVertex
  10
3.84706
  20
1.34506
  30
0.00000
  42
-0.0605
  70
32
  0
VERTEX
  5
4E5
  100
AcDbEntity
  8
Layer 1
  62
0
  100
AcDb2dVertex
  10
3.84800
  20
1.33750
  30
0.00000
  70
32
  0
VERTEX
  5
4E6
  100
AcDbEntity
  8
Layer 1
  62
0
  100
AcDb2dVertex
  10
3.84737
  20
1.33086
  30
0.00000
  70
32
  0
VERTEX
  5
4E7
  100
AcDbEntity
  8
Layer 1
  62
0
  100
AcDb2dVertex
  10
3.84600
  20
1.31750
  30
0.00000
  70
32
  0
VERTEX
  5
4E8
  100
AcDbEntity
  8
Layer 1
  62
0
  100
AcDb2dVertex
  10
3.84462
  20
1.30412
  30
0.00000
  70
32
  0
VERTEX
  5
4E9
  100
AcDbEntity
  8
Layer 1
  62
0
  100
AcDb2dVertex
  10
3.84400
  20
1.29750
  30
0.00000
  70
32
  0
VERTEX
  5
4EA
  100
AcDbEntity
  8
Layer 1
  62
0
  100
AcDb2dVertex
  10
3.81300
  20
1.29550
  30
0.00000
  42
-0.1079
  70
32
  0
VERTEX
  5
4EB
  100
AcDbEntity
  8
Layer 1
  62
0
  100
AcDb2dVertex
  10
3.84720
  20
1.27459
  30
0.00000
  42
-0.0282
  70
32
  0
VERTEX
  5
4EC
  100
AcDbEntity
  8
Layer 1
  62
0
  100
AcDb2dVertex
  10
3.85900
  20
1.26250
  30
0.00000
  42
-0.1242
  70
32
  0
VERTEX
  5
4ED
  100
AcDbEntity
  8
Layer 1
  62
0
  100
AcDb2dVertex
  10
3.87771
  20
1.22535
  30
0.00000
  42
-0.0496
  70
32
  0
VERTEX
  5
4EE
  100
AcDbEntity
  8
Layer 1
  62
0
  100
AcDb2dVertex
  10
3.87900
  20
1.21250
  30
0.00000
  70
32
  0
SEQEND
  5
4EF
  100
AcDbEntity
  8
Layer 1
  62
0
  0
POLYLINE
  5
4F0
  100
AcDbEntity
  8
Layer 1
  62
0
  100
AcDb2dPolyline
 66
     1
  10
0
  20
0
  30
0
  70
1
  0
VERTEX
  5
4F1
  100
AcDbEntity
  8
Layer 1
  62
0
  100
AcDb2dVertex
  10
4.47500
  20
0.07850
  30
0.00000
  42
-0.1519
  70
32
  0
VERTEX
  5
4F2
  100
AcDbEntity
  8
Layer 1
  62
0
  100
AcDb2dVertex
  10
4.46087
  20
0.03673
  30
0.00000
  70
32
  0
VERTEX
  5
4F3
  100
AcDbEntity
  8
Layer 1
  62
0
  100
AcDb2dVertex
  10
4.46000
  20
0.03550
  30
0.00000
  42
-0.1581
  70
32
  0
VERTEX
  5
4F4
  100
AcDbEntity
  8
Layer 1
  62
0
  100
AcDb2dVertex
  10
4.43708
  20
0.01605
  30
0.00000
  42
-0.0914
  70
32
  0
VERTEX
  5
4F5
  100
AcDbEntity
  8
Layer 1
  62
0
  100
AcDb2dVertex
  10
4.42300
  20
0.01350
  30
0.00000
  42
-0.0712
  70
32
  0
VERTEX
  5
4F6
  100
AcDbEntity
  8
Layer 1
  62
0
  100
AcDb2dVertex
  10
4.39886
  20
0.01839
  30
0.00000
  42
-0.0241
  70
32
  0
VERTEX
  5
4F7
  100
AcDbEntity
  8
Layer 1
  62
0
  100
AcDb2dVertex
  10
4.36200
  20
0.03250
  30
0.00000
  42
0.1047
  70
32
  0
VERTEX
  5
4F8
  100
AcDbEntity
  8
Layer 1
  62
0
  100
AcDb2dVertex
  10
4.27166
  20
0.05244
  30
0.00000
  70
32
  0
VERTEX
  5
4F9
  100
AcDbEntity
  8
Layer 1
  62
0
  100
AcDb2dVertex
  10
4.26600
  20
0.05250
  30
0.00000
  42
0.0075
  70
32
  0
VERTEX
  5
4FA
  100
AcDbEntity
  8
Layer 1
  62
0
  100
AcDb2dVertex
  10
4.20200
  20
0.04350
  30
0.00000
  70
32
  0
VERTEX
  5
4FB
  100
AcDbEntity
  8
Layer 1
  62
0
  100
AcDb2dVertex
  10
4.15409
  20
0.03746
  30
0.00000
  70
32
  0
VERTEX
  5
4FC
  100
AcDbEntity
  8
Layer 1
  62
0
  100
AcDb2dVertex
  10
4.13800
  20
0.03550
  30
0.00000
  42
-0.0990
  70
32
  0
VERTEX
  5
4FD
  100
AcDbEntity
  8
Layer 1
  62
0
  100
AcDb2dVertex
  10
4.10029
  20
0.04202
  30
0.00000
  42
-0.2261
  70
32
  0
VERTEX
  5
4FE
  100
AcDbEntity
  8
Layer 1
  62
0
  100
AcDb2dVertex
  10
4.06776
  20
0.07746
  30
0.00000
  42
-0.0811
  70
32
  0
VERTEX
  5
4FF
  100
AcDbEntity
  8
Layer 1
  62
0
  100
AcDb2dVertex
  10
4.06300
  20
0.11050
  30
0.00000
  42
-0.0987
  70
32
  0
VERTEX
  5
500
  100
AcDbEntity
  8
Layer 1
  62
0
  100
AcDb2dVertex
  10
4.06790
  20
0.14019
  30
0.00000
  42
-0.0979
  70
32
  0
VERTEX
  5
501
  100
AcDbEntity
  8
Layer 1
  62
0
  100
AcDb2dVertex
  10
4.07600
  20
0.15250
  30
0.00000
  42
0.0300
  70
32
  0
VERTEX
  5
502
  100
AcDbEntity
  8
Layer 1
  62
0
  100
AcDb2dVertex
  10
4.12600
  20
0.17750
  30
0.00000
  42
0.0838
  70
32
  0
VERTEX
  5
503
  100
AcDbEntity
  8
Layer 1
  62
0
  100
AcDb2dVertex
  10
4.15553
  20
0.19786
  30
0.00000
  42
0.1637
  70
32
  0
VERTEX
  5
504
  100
AcDbEntity
  8
Layer 1
  62
0
  100
AcDb2dVertex
  10
4.16772
  20
0.22111
  30
0.00000
  70
32
  0
VERTEX
  5
505
  100
AcDbEntity
  8
Layer 1
  62
0
  100
AcDb2dVertex
  10
4.16800
  20
0.22550
  30
0.00000
  70
32
  0
VERTEX
  5
506
  100
AcDbEntity
  8
Layer 1
  62
0
  100
AcDb2dVertex
  10
4.17000
  20
0.36550
  30
0.00000
  70
32
  0
VERTEX
  5
507
  100
AcDbEntity
  8
Layer 1
  62
0
  100
AcDb2dVertex
  10
4.27600
  20
0.36550
  30
0.00000
  70
32
  0
VERTEX
  5
508
  100
AcDbEntity
  8
Layer 1
  62
0
  100
AcDb2dVertex
  10
4.17000
  20
0.36550
  30
0.00000
  42
0.0157
  70
32
  0
VERTEX
  5
509
  100
AcDbEntity
  8
Layer 1
  62
0
  100
AcDb2dVertex
  10
4.17070
  20
0.42109
  30
0.00000
  70
32
  0
VERTEX
  5
50A
  100
AcDbEntity
  8
Layer 1
  62
0
  100
AcDb2dVertex
  10
4.17000
  20
0.48550
  30
0.00000
  42
0.1571
  70
32
  0
VERTEX
  5
50B
  100
AcDbEntity
  8
Layer 1
  62
0
  100
AcDb2dVertex
  10
4.15000
  20
0.53495
  30
0.00000
  42
0.0832
  70
32
  0
VERTEX
  5
50C
  100
AcDbEntity
  8
Layer 1
  62
0
  100
AcDb2dVertex
  10
4.11100
  20
0.56850
  30
0.00000
  42
-0.0675
  70
32
  0
VERTEX
  5
50D
  100
AcDbEntity
  8
Layer 1
  62
0
  100
AcDb2dVertex
  10
4.07318
  20
0.60014
  30
0.00000
  42
-0.1215
  70
32
  0
VERTEX
  5
50E
  100
AcDbEntity
  8
Layer 1
  62
0
  100
AcDb2dVertex
  10
4.05558
  20
0.63217
  30
0.00000
  42
-0.0591
  70
32
  0
VERTEX
  5
50F
  100
AcDbEntity
  8
Layer 1
  62
0
  100
AcDb2dVertex
  10
4.05400
  20
0.64550
  30
0.00000
  42
-0.1155
  70
32
  0
VERTEX
  5
510
  100
AcDbEntity
  8
Layer 1
  62
0
  100
AcDb2dVertex
  10
4.06076
  20
0.67889
  30
0.00000
  42
-0.2052
  70
32
  0
VERTEX
  5
511
  100
AcDbEntity
  8
Layer 1
  62
0
  100
AcDb2dVertex
  10
4.09034
  20
0.70403
  30
0.00000
  42
-0.0823
  70
32
  0
VERTEX
  5
512
  100
AcDbEntity
  8
Layer 1
  62
0
  100
AcDb2dVertex
  10
4.12100
  20
0.70850
  30
0.00000
  70
32
  0
VERTEX
  5
513
  100
AcDbEntity
  8
Layer 1
  62
0
  100
AcDb2dVertex
  10
4.23000
  20
0.70050
  30
0.00000
  42
0.0791
  70
32
  0
VERTEX
  5
514
  100
AcDbEntity
  8
Layer 1
  62
0
  100
AcDb2dVertex
  10
4.32831
  20
0.71502
  30
0.00000
  70
32
  0
VERTEX
  5
515
  100
AcDbEntity
  8
Layer 1
  62
0
  100
AcDb2dVertex
  10
4.34100
  20
0.71950
  30
0.00000
  42
-0.0316
  70
32
  0
VERTEX
  5
516
  100
AcDbEntity
  8
Layer 1
  62
0
  100
AcDb2dVertex
  10
4.39339
  20
0.73621
  30
0.00000
  42
-0.0531
  70
32
  0
VERTEX
  5
517
  100
AcDbEntity
  8
Layer 1
  62
0
  100
AcDb2dVertex
  10
4.41000
  20
0.73850
  30
0.00000
  42
-0.1750
  70
32
  0
VERTEX
  5
518
  100
AcDbEntity
  8
Layer 1
  62
0
  100
AcDb2dVertex
  10
4.44278
  20
0.72648
  30
0.00000
  70
32
  0
VERTEX
  5
519
  100
AcDbEntity
  8
Layer 1
  62
0
  100
AcDb2dVertex
  10
4.44400
  20
0.72550
  30
0.00000
  42
-0.1429
  70
32
  0
VERTEX
  5
51A
  100
AcDbEntity
  8
Layer 1
  62
0
  100
AcDb2dVertex
  10
4.45856
  20
0.70400
  30
0.00000
  42
-0.0703
  70
32
  0
VERTEX
  5
51B
  100
AcDbEntity
  8
Layer 1
  62
0
  100
AcDb2dVertex
  10
4.46000
  20
0.69350
  30
0.00000
  70
32
  0
VERTEX
  5
51C
  100
AcDbEntity
  8
Layer 1
  62
0
  100
AcDb2dVertex
  10
4.47100
  20
0.65250
  30
0.00000
  70
32
  0
VERTEX
  5
51D
  100
AcDbEntity
  8
Layer 1
  62
0
  100
AcDb2dVertex
  10
4.27500
  20
0.65050
  30
0.00000
  70
32
  0
VERTEX
  5
51E
  100
AcDbEntity
  8
Layer 1
  62
0
  100
AcDb2dVertex
  10
4.47100
  20
0.65250
  30
0.00000
  70
32
  0
VERTEX
  5
51F
  100
AcDbEntity
  8
Layer 1
  62
0
  100
AcDb2dVertex
  10
4.47300
  20
0.59750
  30
0.00000
  42
-0.2292
  70
32
  0
VERTEX
  5
520
  100
AcDbEntity
  8
Layer 1
  62
0
  100
AcDb2dVertex
  10
4.46380
  20
0.57609
  30
0.00000
  42
-0.1024
  70
32
  0
VERTEX
  5
521
  100
AcDbEntity
  8
Layer 1
  62
0
  100
AcDb2dVertex
  10
4.43947
  20
0.56231
  30
0.00000
  42
-0.0285
  70
32
  0
VERTEX
  5
522
  100
AcDbEntity
  8
Layer 1
  62
0
  100
AcDb2dVertex
  10
4.42300
  20
0.55750
  30
0.00000
  42
0.1310
  70
32
  0
VERTEX
  5
523
  100
AcDbEntity
  8
Layer 1
  62
0
  100
AcDb2dVertex
  10
4.39494
  20
0.54194
  30
0.00000
  42
0.1763
  70
32
  0
VERTEX
  5
524
  100
AcDbEntity
  8
Layer 1
  62
0
  100
AcDb2dVertex
  10
4.38133
  20
0.51073
  30
0.00000
  70
32
  0
VERTEX
  5
525
  100
AcDbEntity
  8
Layer 1
  62
0
  100
AcDb2dVertex
  10
4.38100
  20
0.50350
  30
0.00000
  42
0.0885
  70
32
  0
VERTEX
  5
526
  100
AcDbEntity
  8
Layer 1
  62
0
  100
AcDb2dVertex
  10
4.38385
  20
0.48252
  30
0.00000
  42
0.0678
  70
32
  0
VERTEX
  5
527
  100
AcDbEntity
  8
Layer 1
  62
0
  100
AcDb2dVertex
  10
4.38600
  20
0.47850
  30
0.00000
  42
0.0147
  70
32
  0
VERTEX
  5
528
  100
AcDbEntity
  8
Layer 1
  62
0
  100
AcDb2dVertex
  10
4.44000
  20
0.42750
  30
0.00000
  42
-0.1616
  70
32
  0
VERTEX
  5
529
  100
AcDbEntity
  8
Layer 1
  62
0
  100
AcDb2dVertex
  10
4.45982
  20
0.37401
  30
0.00000
  70
32
  0
VERTEX
  5
52A
  100
AcDbEntity
  8
Layer 1
  62
0
  100
AcDb2dVertex
  10
4.46000
  20
0.36750
  30
0.00000
  42
-0.1098
  70
32
  0
VERTEX
  5
52B
  100
AcDbEntity
  8
Layer 1
  62
0
  100
AcDb2dVertex
  10
4.45100
  20
0.32550
  30
0.00000
  42
-0.1151
  70
32
  0
VERTEX
  5
52C
  100
AcDbEntity
  8
Layer 1
  62
0
  100
AcDb2dVertex
  10
4.41833
  20
0.28924
  30
0.00000
  42
-0.0241
  70
32
  0
VERTEX
  5
52D
  100
AcDbEntity
  8
Layer 1
  62
0
  100
AcDb2dVertex
  10
4.40500
  20
0.28050
  30
0.00000
  42
0.1287
  70
32
  0
VERTEX
  5
52E
  100
AcDbEntity
  8
Layer 1
  62
0
  100
AcDb2dVertex
  10
4.38294
  20
0.25904
  30
0.00000
  42
0.1297
  70
32
  0
VERTEX
  5
52F
  100
AcDbEntity
  8
Layer 1
  62
0
  100
AcDb2dVertex
  10
4.37800
  20
0.24050
  30
0.00000
  42
0.1942
  70
32
  0
VERTEX
  5
530
  100
AcDbEntity
  8
Layer 1
  62
0
  100
AcDb2dVertex
  10
4.39033
  20
0.20688
  30
0.00000
  42
0.1011
  70
32
  0
VERTEX
  5
531
  100
AcDbEntity
  8
Layer 1
  62
0
  100
AcDb2dVertex
  10
4.41100
  20
0.19250
  30
0.00000
  42
0.0065
  70
32
  0
VERTEX
  5
532
  100
AcDbEntity
  8
Layer 1
  62
0
  100
AcDb2dVertex
  10
4.44798
  20
0.17577
  30
0.00000
  70
32
  0
VERTEX
  5
533
  100
AcDbEntity
  8
Layer 1
  62
0
  100
AcDb2dVertex
  10
4.46000
  20
0.17050
  30
0.00000
  42
-0.1337
  70
32
  0
VERTEX
  5
534
  100
AcDbEntity
  8
Layer 1
  62
0
  100
AcDb2dVertex
  10
4.47201
  20
0.15561
  30
0.00000
  42
-0.1265
  70
32
  0
VERTEX
  5
535
  100
AcDbEntity
  8
Layer 1
  62
0
  100
AcDb2dVertex
  10
4.47300
  20
0.14750
  30
0.00000
  70
32
  0
VERTEX
  5
536
  100
AcDbEntity
  8
Layer 1
  62
0
  100
AcDb2dVertex
  10
4.47500
  20
0.11250
  30
0.00000
  70
32
  0
VERTEX
  5
537
  100
AcDbEntity
  8
Layer 1
  62
0
  100
AcDb2dVertex
  10
4.28800
  20
0.11050
  30
0.00000
  70
32
  0
VERTEX
  5
538
  100
AcDbEntity
  8
Layer 1
  62
0
  100
AcDb2dVertex
  10
4.47500
  20
0.11250
  30
0.00000
  70
32
  0
VERTEX
  5
539
  100
AcDbEntity
  8
Layer 1
  62
0
  100
AcDb2dVertex
  10
4.47500
  20
0.07850
  30
0.00000
  70
32
  0
SEQEND
  5
53A
  100
AcDbEntity
  8
Layer 1
  62
0
  0
POLYLINE
  5
53B
  100
AcDbEntity
  8
Layer 1
  62
0
  100
AcDb2dPolyline
 66
     1
  10
0
  20
0
  30
0
  70
1
  0
VERTEX
  5
53C
  100
AcDbEntity
  8
Layer 1
  62
0
  100
AcDb2dVertex
  10
4.09300
  20
0.38750
  30
0.00000
  42
-0.0574
  70
32
  0
VERTEX
  5
53D
  100
AcDbEntity
  8
Layer 1
  62
0
  100
AcDb2dVertex
  10
4.08300
  20
0.30850
  30
0.00000
  42
-0.0548
  70
32
  0
VERTEX
  5
53E
  100
AcDbEntity
  8
Layer 1
  62
0
  100
AcDb2dVertex
  10
4.06927
  20
0.26869
  30
0.00000
  42
-0.1134
  70
32
  0
VERTEX
  5
53F
  100
AcDbEntity
  8
Layer 1
  62
0
  100
AcDb2dVertex
  10
4.05672
  20
0.25226
  30
0.00000
  42
-0.1643
  70
32
  0
VERTEX
  5
540
  100
AcDbEntity
  8
Layer 1
  62
0
  100
AcDb2dVertex
  10
4.04600
  20
0.24850
  30
0.00000
  42
-0.0512
  70
32
  0
VERTEX
  5
541
  100
AcDbEntity
  8
Layer 1
  62
0
  100
AcDb2dVertex
  10
4.03520
  20
0.25336
  30
0.00000
  70
32
  0
VERTEX
  5
542
  100
AcDbEntity
  8
Layer 1
  62
0
  100
AcDb2dVertex
  10
3.99500
  20
0.27450
  30
0.00000
  70
32
  0
VERTEX
  5
543
  100
AcDbEntity
  8
Layer 1
  62
0
  100
AcDb2dVertex
  10
3.97916
  20
0.28268
  30
0.00000
  70
32
  0
VERTEX
  5
544
  100
AcDbEntity
  8
Layer 1
  62
0
  100
AcDb2dVertex
  10
3.95321
  20
0.29597
  30
0.00000
  42
0.0510
  70
32
  0
VERTEX
  5
545
  100
AcDbEntity
  8
Layer 1
  62
0
  100
AcDb2dVertex
  10
3.94300
  20
0.30050
  30
0.00000
  42
0.1606
  70
32
  0
VERTEX
  5
546
  100
AcDbEntity
  8
Layer 1
  62
0
  100
AcDb2dVertex
  10
3.93300
  20
0.29605
  30
0.00000
  42
0.0622
  70
32
  0
VERTEX
  5
547
  100
AcDbEntity
  8
Layer 1
  62
0
  100
AcDb2dVertex
  10
3.91391
  20
0.27521
  30
0.00000
  42
0.0151
  70
32
  0
VERTEX
  5
548
  100
AcDbEntity
  8
Layer 1
  62
0
  100
AcDb2dVertex
  10
3.90000
  20
0.25550
  30
0.00000
  42
-0.1749
  70
32
  0
VERTEX
  5
549
  100
AcDbEntity
  8
Layer 1
  62
0
  100
AcDb2dVertex
  10
3.85173
  20
0.21650
  30
0.00000
  42
-0.0836
  70
32
  0
VERTEX
  5
54A
  100
AcDbEntity
  8
Layer 1
  62
0
  100
AcDb2dVertex
  10
3.81300
  20
0.21050
  30
0.00000
  42
-0.0677
  70
32
  0
VERTEX
  5
54B
  100
AcDbEntity
  8
Layer 1
  62
0
  100
AcDb2dVertex
  10
3.78080
  20
0.21619
  30
0.00000
  42
-0.0191
  70
32
  0
VERTEX
  5
54C
  100
AcDbEntity
  8
Layer 1
  62
0
  100
AcDb2dVertex
  10
3.75900
  20
0.22350
  30
0.00000
  42
-0.0690
  70
32
  0
VERTEX
  5
54D
  100
AcDbEntity
  8
Layer 1
  62
0
  100
AcDb2dVertex
  10
3.72795
  20
0.23987
  30
0.00000
  42
-0.1395
  70
32
  0
VERTEX
  5
54E
  100
AcDbEntity
  8
Layer 1
  62
0
  100
AcDb2dVertex
  10
3.71695
  20
0.25326
  30
0.00000
  42
-0.0874
  70
32
  0
VERTEX
  5
54F
  100
AcDbEntity
  8
Layer 1
  62
0
  100
AcDb2dVertex
  10
3.71600
  20
0.25850
  30
0.00000
  42
-0.1527
  70
32
  0
VERTEX
  5
550
  100
AcDbEntity
  8
Layer 1
  62
0
  100
AcDb2dVertex
  10
3.72015
  20
0.27500
  30
0.00000
  42
-0.2142
  70
32
  0
VERTEX
  5
551
  100
AcDbEntity
  8
Layer 1
  62
0
  100
AcDb2dVertex
  10
3.73453
  20
0.28305
  30
0.00000
  42
-0.0375
  70
32
  0
VERTEX
  5
552
  100
AcDbEntity
  8
Layer 1
  62
0
  100
AcDb2dVertex
  10
3.74100
  20
0.28350
  30
0.00000
  42
-0.0398
  70
32
  0
VERTEX
  5
553
  100
AcDbEntity
  8
Layer 1
  62
0
  100
AcDb2dVertex
  10
3.75932
  20
0.27941
  30
0.00000
  70
32
  0
VERTEX
  5
554
  100
AcDbEntity
  8
Layer 1
  62
0
  100
AcDb2dVertex
  10
3.77700
  20
0.27450
  30
0.00000
  70
32
  0
VERTEX
  5
555
  100
AcDbEntity
  8
Layer 1
  62
0
  100
AcDb2dVertex
  10
3.80112
  20
0.26775
  30
0.00000
  42
0.0370
  70
32
  0
VERTEX
  5
556
  100
AcDbEntity
  8
Layer 1
  62
0
  100
AcDb2dVertex
  10
3.81100
  20
0.26550
  30
0.00000
  42
0.1722
  70
32
  0
VERTEX
  5
557
  100
AcDbEntity
  8
Layer 1
  62
0
  100
AcDb2dVertex
  10
3.84914
  20
0.27951
  30
0.00000
  42
0.0870
  70
32
  0
VERTEX
  5
558
  100
AcDbEntity
  8
Layer 1
  62
0
  100
AcDb2dVertex
  10
3.87699
  20
0.31214
  30
0.00000
  42
0.0526
  70
32
  0
VERTEX
  5
559
  100
AcDbEntity
  8
Layer 1
  62
0
  100
AcDb2dVertex
  10
3.90400
  20
0.37050
  30
0.00000
  70
32
  0
VERTEX
  5
55A
  100
AcDbEntity
  8
Layer 1
  62
0
  100
AcDb2dVertex
  10
3.97100
  20
0.35250
  30
0.00000
  70
32
  0
VERTEX
  5
55B
  100
AcDbEntity
  8
Layer 1
  62
0
  100
AcDb2dVertex
  10
3.90400
  20
0.37050
  30
0.00000
  42
0.0659
  70
32
  0
VERTEX
  5
55C
  100
AcDbEntity
  8
Layer 1
  62
0
  100
AcDb2dVertex
  10
3.89941
  20
0.42926
  30
0.00000
  42
0.1055
  70
32
  0
VERTEX
  5
55D
  100
AcDbEntity
  8
Layer 1
  62
0
  100
AcDb2dVertex
  10
3.88276
  20
0.46700
  30
0.00000
  42
0.0745
  70
32
  0
VERTEX
  5
55E
  100
AcDbEntity
  8
Layer 1
  62
0
  100
AcDb2dVertex
  10
3.86900
  20
0.48050
  30
0.00000
  42
0.1277
  70
32
  0
VERTEX
  5
55F
  100
AcDbEntity
  8
Layer 1
  62
0
  100
AcDb2dVertex
  10
3.85113
  20
0.48826
  30
0.00000
  42
0.0500
  70
32
  0
VERTEX
  5
560
  100
AcDbEntity
  8
Layer 1
  62
0
  100
AcDb2dVertex
  10
3.82400
  20
0.49050
  30
0.00000
  70
32
  0
VERTEX
  5
561
  100
AcDbEntity
  8
Layer 1
  62
0
  100
AcDb2dVertex
  10
3.81800
  20
0.49050
  30
0.00000
  42
-0.0582
  70
32
  0
VERTEX
  5
562
  100
AcDbEntity
  8
Layer 1
  62
0
  100
AcDb2dVertex
  10
3.79015
  20
0.49287
  30
0.00000
  70
32
  0
VERTEX
  5
563
  100
AcDbEntity
  8
Layer 1
  62
0
  100
AcDb2dVertex
  10
3.78800
  20
0.49350
  30
0.00000
  42
-0.1056
  70
32
  0
VERTEX
  5
564
  100
AcDbEntity
  8
Layer 1
  62
0
  100
AcDb2dVertex
  10
3.76977
  20
0.50229
  30
0.00000
  42
-0.2304
  70
32
  0
VERTEX
  5
565
  100
AcDbEntity
  8
Layer 1
  62
0
  100
AcDb2dVertex
  10
3.76300
  20
0.51750
  30
0.00000
  42
-0.2809
  70
32
  0
VERTEX
  5
566
  100
AcDbEntity
  8
Layer 1
  62
0
  100
AcDb2dVertex
  10
3.77521
  20
0.53846
  30
0.00000
  42
-0.1007
  70
32
  0
VERTEX
  5
567
  100
AcDbEntity
  8
Layer 1
  62
0
  100
AcDb2dVertex
  10
3.79993
  20
0.54611
  30
0.00000
  42
-0.0338
  70
32
  0
VERTEX
  5
568
  100
AcDbEntity
  8
Layer 1
  62
0
  100
AcDb2dVertex
  10
3.82300
  20
0.54750
  30
0.00000
  42
-0.0708
  70
32
  0
VERTEX
  5
569
  100
AcDbEntity
  8
Layer 1
  62
0
  100
AcDb2dVertex
  10
3.87581
  20
0.54099
  30
0.00000
  42
-0.1180
  70
32
  0
VERTEX
  5
56A
  100
AcDbEntity
  8
Layer 1
  62
0
  100
AcDb2dVertex
  10
3.91052
  20
0.52229
  30
0.00000
  42
-0.0526
  70
32
  0
VERTEX
  5
56B
  100
AcDbEntity
  8
Layer 1
  62
0
  100
AcDb2dVertex
  10
3.91900
  20
0.51250
  30
0.00000
  42
-0.0751
  70
32
  0
VERTEX
  5
56C
  100
AcDbEntity
  8
Layer 1
  62
0
  100
AcDb2dVertex
  10
3.92806
  20
0.49342
  30
0.00000
  42
-0.0260
  70
32
  0
VERTEX
  5
56D
  100
AcDbEntity
  8
Layer 1
  62
0
  100
AcDb2dVertex
  10
3.94100
  20
0.44550
  30
0.00000
  42
0.1197
  70
32
  0
VERTEX
  5
56E
  100
AcDbEntity
  8
Layer 1
  62
0
  100
AcDb2dVertex
  10
3.95448
  20
0.42073
  30
0.00000
  42
0.2094
  70
32
  0
VERTEX
  5
56F
  100
AcDbEntity
  8
Layer 1
  62
0
  100
AcDb2dVertex
  10
3.97900
  20
0.41050
  30
0.00000
  42
0.0354
  70
32
  0
VERTEX
  5
570
  100
AcDbEntity
  8
Layer 1
  62
0
  100
AcDb2dVertex
  10
4.00076
  20
0.41444
  30
0.00000
  70
32
  0
VERTEX
  5
571
  100
AcDbEntity
  8
Layer 1
  62
0
  100
AcDb2dVertex
  10
4.01400
  20
0.41750
  30
0.00000
  42
-0.0210
  70
32
  0
VERTEX
  5
572
  100
AcDbEntity
  8
Layer 1
  62
0
  100
AcDb2dVertex
  10
4.04800
  20
0.42350
  30
0.00000
  42
-0.1069
  70
32
  0
VERTEX
  5
573
  100
AcDbEntity
  8
Layer 1
  62
0
  100
AcDb2dVertex
  10
4.07487
  20
0.41870
  30
0.00000
  42
-0.2709
  70
32
  0
VERTEX
  5
574
  100
AcDbEntity
  8
Layer 1
  62
0
  100
AcDb2dVertex
  10
4.09250
  20
0.39469
  30
0.00000
  42
-0.0365
  70
32
  0
VERTEX
  5
575
  100
AcDbEntity
  8
Layer 1
  62
0
  100
AcDb2dVertex
  10
4.09300
  20
0.38750
  30
0.00000
  70
32
  0
SEQEND
  5
576
  100
AcDbEntity
  8
Layer 1
  62
0
  0
POLYLINE
  5
577
  100
AcDbEntity
  8
Layer 1
  62
0
  100
AcDb2dPolyline
 66
     1
  10
0
  20
0
  30
0
  70
1
  0
VERTEX
  5
578
  100
AcDbEntity
  8
Layer 1
  62
0
  100
AcDb2dVertex
  10
3.30600
  20
1.19350
  30
0.00000
  42
-0.0752
  70
32
  0
VERTEX
  5
579
  100
AcDbEntity
  8
Layer 1
  62
0
  100
AcDb2dVertex
  10
3.30203
  20
1.16096
  30
0.00000
  42
-0.1550
  70
32
  0
VERTEX
  5
57A
  100
AcDbEntity
  8
Layer 1
  62
0
  100
AcDb2dVertex
  10
3.29180
  20
1.14484
  30
0.00000
  42
-0.1676
  70
32
  0
VERTEX
  5
57B
  100
AcDbEntity
  8
Layer 1
  62
0
  100
AcDb2dVertex
  10
3.27800
  20
1.14050
  30
0.00000
  42
-0.0196
  70
32
  0
VERTEX
  5
57C
  100
AcDbEntity
  8
Layer 1
  62
0
  100
AcDb2dVertex
  10
3.25128
  20
1.15141
  30
0.00000
  70
32
  0
VERTEX
  5
57D
  100
AcDbEntity
  8
Layer 1
  62
0
  100
AcDb2dVertex
  10
3.22800
  20
1.16150
  30
0.00000
  42
0.0181
  70
32
  0
VERTEX
  5
57E
  100
AcDbEntity
  8
Layer 1
  62
0
  100
AcDb2dVertex
  10
3.17884
  20
1.18113
  30
0.00000
  42
0.0625
  70
32
  0
VERTEX
  5
57F
  100
AcDbEntity
  8
Layer 1
  62
0
  100
AcDb2dVertex
  10
3.17300
  20
1.18250
  30
0.00000
  42
0.1679
  70
32
  0
VERTEX
  5
580
  100
AcDbEntity
  8
Layer 1
  62
0
  100
AcDb2dVertex
  10
3.16834
  20
1.17937
  30
0.00000
  42
0.0368
  70
32
  0
VERTEX
  5
581
  100
AcDbEntity
  8
Layer 1
  62
0
  100
AcDb2dVertex
  10
3.15033
  20
1.15573
  30
0.00000
  70
32
  0
VERTEX
  5
582
  100
AcDbEntity
  8
Layer 1
  62
0
  100
AcDb2dVertex
  10
3.13800
  20
1.13750
  30
0.00000
  42
-0.0546
  70
32
  0
VERTEX
  5
583
  100
AcDbEntity
  8
Layer 1
  62
0
  100
AcDb2dVertex
  10
3.08160
  20
1.07113
  30
0.00000
  42
-0.0236
  70
32
  0
VERTEX
  5
584
  100
AcDbEntity
  8
Layer 1
  62
0
  100
AcDb2dVertex
  10
3.06300
  20
1.05550
  30
0.00000
  42
-0.1560
  70
32
  0
VERTEX
  5
585
  100
AcDbEntity
  8
Layer 1
  62
0
  100
AcDb2dVertex
  10
2.94522
  20
1.01280
  30
0.00000
  70
32
  0
VERTEX
  5
586
  100
AcDbEntity
  8
Layer 1
  62
0
  100
AcDb2dVertex
  10
2.93300
  20
1.01250
  30
0.00000
  42
-0.0462
  70
32
  0
VERTEX
  5
587
  100
AcDbEntity
  8
Layer 1
  62
0
  100
AcDb2dVertex
  10
2.87381
  20
1.01928
  30
0.00000
  42
-0.0192
  70
32
  0
VERTEX
  5
588
  100
AcDbEntity
  8
Layer 1
  62
0
  100
AcDb2dVertex
  10
2.81400
  20
1.03350
  30
0.00000
  42
-0.0469
  70
32
  0
VERTEX
  5
589
  100
AcDbEntity
  8
Layer 1
  62
0
  100
AcDb2dVertex
  10
2.75327
  20
1.05500
  30
0.00000
  42
-0.0814
  70
32
  0
VERTEX
  5
58A
  100
AcDbEntity
  8
Layer 1
  62
0
  100
AcDb2dVertex
  10
2.72243
  20
1.07561
  30
0.00000
  42
-0.1558
  70
32
  0
VERTEX
  5
58B
  100
AcDbEntity
  8
Layer 1
  62
0
  100
AcDb2dVertex
  10
2.70951
  20
1.09831
  30
0.00000
  42
-0.0530
  70
32
  0
VERTEX
  5
58C
  100
AcDbEntity
  8
Layer 1
  62
0
  100
AcDb2dVertex
  10
2.70900
  20
1.10550
  30
0.00000
  42
-0.1302
  70
32
  0
VERTEX
  5
58D
  100
AcDbEntity
  8
Layer 1
  62
0
  100
AcDb2dVertex
  10
2.71290
  20
1.12390
  30
0.00000
  42
-0.2822
  70
32
  0
VERTEX
  5
58E
  100
AcDbEntity
  8
Layer 1
  62
0
  100
AcDb2dVertex
  10
2.72870
  20
1.13250
  30
0.00000
  70
32
  0
VERTEX
  5
58F
  100
AcDbEntity
  8
Layer 1
  62
0
  100
AcDb2dVertex
  10
2.72900
  20
1.13250
  30
0.00000
  42
-0.0664
  70
32
  0
VERTEX
  5
590
  100
AcDbEntity
  8
Layer 1
  62
0
  100
AcDb2dVertex
  10
2.73941
  20
1.12870
  30
0.00000
  42
-0.0073
  70
32
  0
VERTEX
  5
591
  100
AcDbEntity
  8
Layer 1
  62
0
  100
AcDb2dVertex
  10
2.78763
  20
1.10553
  30
0.00000
  70
32
  0
VERTEX
  5
592
  100
AcDbEntity
  8
Layer 1
  62
0
  100
AcDb2dVertex
  10
2.80200
  20
1.09850
  30
0.00000
  42
0.0440
  70
32
  0
VERTEX
  5
593
  100
AcDbEntity
  8
Layer 1
  62
0
  100
AcDb2dVertex
  10
2.86861
  20
1.07049
  30
0.00000
  42
0.0720
  70
32
  0
VERTEX
  5
594
  100
AcDbEntity
  8
Layer 1
  62
0
  100
AcDb2dVertex
  10
2.90900
  20
1.06350
  30
0.00000
  42
0.0923
  70
32
  0
VERTEX
  5
595
  100
AcDbEntity
  8
Layer 1
  62
0
  100
AcDb2dVertex
  10
2.99635
  20
1.07865
  30
0.00000
  42
0.0720
  70
32
  0
VERTEX
  5
596
  100
AcDbEntity
  8
Layer 1
  62
0
  100
AcDb2dVertex
  10
3.04800
  20
1.10750
  30
0.00000
  42
0.1376
  70
32
  0
VERTEX
  5
597
  100
AcDbEntity
  8
Layer 1
  62
0
  100
AcDb2dVertex
  10
3.10741
  20
1.18968
  30
0.00000
  42
0.0648
  70
32
  0
VERTEX
  5
598
  100
AcDbEntity
  8
Layer 1
  62
0
  100
AcDb2dVertex
  10
3.12300
  20
1.25750
  30
0.00000
  70
32
  0
VERTEX
  5
599
  100
AcDbEntity
  8
Layer 1
  62
0
  100
AcDb2dVertex
  10
3.17400
  20
1.25250
  30
0.00000
  70
32
  0
VERTEX
  5
59A
  100
AcDbEntity
  8
Layer 1
  62
0
  100
AcDb2dVertex
  10
3.12300
  20
1.25750
  30
0.00000
  42
0.1022
  70
32
  0
VERTEX
  5
59B
  100
AcDbEntity
  8
Layer 1
  62
0
  100
AcDb2dVertex
  10
3.09876
  20
1.33108
  30
0.00000
  42
0.1069
  70
32
  0
VERTEX
  5
59C
  100
AcDbEntity
  8
Layer 1
  62
0
  100
AcDb2dVertex
  10
3.05100
  20
1.38250
  30
0.00000
  42
0.1349
  70
32
  0
VERTEX
  5
59D
  100
AcDbEntity
  8
Layer 1
  62
0
  100
AcDb2dVertex
  10
2.95339
  20
1.41673
  30
0.00000
  42
0.0202
  70
32
  0
VERTEX
  5
59E
  100
AcDbEntity
  8
Layer 1
  62
0
  100
AcDb2dVertex
  10
2.93400
  20
1.41750
  30
0.00000
  42
0.1012
  70
32
  0
VERTEX
  5
59F
  100
AcDbEntity
  8
Layer 1
  62
0
  100
AcDb2dVertex
  10
2.82308
  20
1.39384
  30
0.00000
  42
0.0177
  70
32
  0
VERTEX
  5
5A0
  100
AcDbEntity
  8
Layer 1
  62
0
  100
AcDb2dVertex
  10
2.80100
  20
1.38350
  30
0.00000
  70
32
  0
VERTEX
  5
5A1
  100
AcDbEntity
  8
Layer 1
  62
0
  100
AcDb2dVertex
  10
2.73600
  20
1.34850
  30
0.00000
  42
-0.2139
  70
32
  0
VERTEX
  5
5A2
  100
AcDbEntity
  8
Layer 1
  62
0
  100
AcDb2dVertex
  10
2.72301
  20
1.35325
  30
0.00000
  42
-0.1907
  70
32
  0
VERTEX
  5
5A3
  100
AcDbEntity
  8
Layer 1
  62
0
  100
AcDb2dVertex
  10
2.71900
  20
1.36550
  30
0.00000
  42
-0.1710
  70
32
  0
VERTEX
  5
5A4
  100
AcDbEntity
  8
Layer 1
  62
0
  100
AcDb2dVertex
  10
2.72652
  20
1.38441
  30
0.00000
  42
-0.0852
  70
32
  0
VERTEX
  5
5A5
  100
AcDbEntity
  8
Layer 1
  62
0
  100
AcDb2dVertex
  10
2.75070
  20
1.40455
  30
0.00000
  42
-0.0485
  70
32
  0
VERTEX
  5
5A6
  100
AcDbEntity
  8
Layer 1
  62
0
  100
AcDb2dVertex
  10
2.80461
  20
1.42970
  30
0.00000
  70
32
  0
VERTEX
  5
5A7
  100
AcDbEntity
  8
Layer 1
  62
0
  100
AcDb2dVertex
  10
2.82100
  20
1.43550
  30
0.00000
  42
-0.0295
  70
32
  0
VERTEX
  5
5A8
  100
AcDbEntity
  8
Layer 1
  62
0
  100
AcDb2dVertex
  10
2.90612
  20
1.45985
  30
0.00000
  42
-0.0392
  70
32
  0
VERTEX
  5
5A9
  100
AcDbEntity
  8
Layer 1
  62
0
  100
AcDb2dVertex
  10
2.93900
  20
1.46450
  30
0.00000
  42
-0.0547
  70
32
  0
VERTEX
  5
5AA
  100
AcDbEntity
  8
Layer 1
  62
0
  100
AcDb2dVertex
  10
3.01813
  20
1.45563
  30
0.00000
  42
-0.0876
  70
32
  0
VERTEX
  5
5AB
  100
AcDbEntity
  8
Layer 1
  62
0
  100
AcDb2dVertex
  10
3.07786
  20
1.43085
  30
0.00000
  42
-0.0219
  70
32
  0
VERTEX
  5
5AC
  100
AcDbEntity
  8
Layer 1
  62
0
  100
AcDb2dVertex
  10
3.08800
  20
1.42350
  30
0.00000
  42
-0.0768
  70
32
  0
VERTEX
  5
5AD
  100
AcDbEntity
  8
Layer 1
  62
0
  100
AcDb2dVertex
  10
3.11801
  20
1.38803
  30
0.00000
  42
-0.0377
  70
32
  0
VERTEX
  5
5AE
  100
AcDbEntity
  8
Layer 1
  62
0
  100
AcDb2dVertex
  10
3.13900
  20
1.34850
  30
0.00000
  42
0.0722
  70
32
  0
VERTEX
  5
5AF
  100
AcDbEntity
  8
Layer 1
  62
0
  100
AcDb2dVertex
  10
3.15864
  20
1.31946
  30
0.00000
  42
0.1512
  70
32
  0
VERTEX
  5
5B0
  100
AcDbEntity
  8
Layer 1
  62
0
  100
AcDb2dVertex
  10
3.17759
  20
1.30805
  30
0.00000
  42
0.0507
  70
32
  0
VERTEX
  5
5B1
  100
AcDbEntity
  8
Layer 1
  62
0
  100
AcDb2dVertex
  10
3.18300
  20
1.30750
  30
0.00000
  42
0.0184
  70
32
  0
VERTEX
  5
5B2
  100
AcDbEntity
  8
Layer 1
  62
0
  100
AcDb2dVertex
  10
3.21219
  20
1.31843
  30
0.00000
  70
32
  0
VERTEX
  5
5B3
  100
AcDbEntity
  8
Layer 1
  62
0
  100
AcDb2dVertex
  10
3.23000
  20
1.32550
  30
0.00000
  70
32
  0
VERTEX
  5
5B4
  100
AcDbEntity
  8
Layer 1
  62
0
  100
AcDb2dVertex
  10
3.26538
  20
1.33900
  30
0.00000
  42
-0.0383
  70
32
  0
VERTEX
  5
5B5
  100
AcDbEntity
  8
Layer 1
  62
0
  100
AcDb2dVertex
  10
3.27900
  20
1.34350
  30
0.00000
  70
32
  0
VERTEX
  5
5B6
  100
AcDbEntity
  8
Layer 1
  62
0
  100
AcDb2dVertex
  10
3.29400
  20
1.34350
  30
0.00000
  42
0.1447
  70
32
  0
VERTEX
  5
5B7
  100
AcDbEntity
  8
Layer 1
  62
0
  100
AcDb2dVertex
  10
3.30128
  20
1.33551
  30
0.00000
  70
32
  0
VERTEX
  5
5B8
  100
AcDbEntity
  8
Layer 1
  62
0
  100
AcDb2dVertex
  10
3.30600
  20
1.33250
  30
0.00000
  70
32
  0
VERTEX
  5
5B9
  100
AcDbEntity
  8
Layer 1
  62
0
  100
AcDb2dVertex
  10
3.30600
  20
1.19350
  30
0.00000
  70
32
  0
SEQEND
  5
5BA
  100
AcDbEntity
  8
Layer 1
  62
0
  0
POLYLINE
  5
5BB
  100
AcDbEntity
  8
Layer 1
  62
0
  100
AcDb2dPolyline
 66
     1
  10
0
  20
0
  30
0
  70
1
  0
VERTEX
  5
5BC
  100
AcDbEntity
  8
Layer 1
  62
0
  100
AcDb2dVertex
  10
3.03900
  20
1.55950
  30
0.00000
  42
-0.1505
  70
32
  0
VERTEX
  5
5BD
  100
AcDbEntity
  8
Layer 1
  62
0
  100
AcDb2dVertex
  10
3.03494
  20
1.54304
  30
0.00000
  42
-0.2368
  70
32
  0
VERTEX
  5
5BE
  100
AcDbEntity
  8
Layer 1
  62
0
  100
AcDb2dVertex
  10
3.02063
  20
1.53560
  30
0.00000
  70
32
  0
VERTEX
  5
5BF
  100
AcDbEntity
  8
Layer 1
  62
0
  100
AcDb2dVertex
  10
3.01800
  20
1.53550
  30
0.00000
  70
32
  0
VERTEX
  5
5C0
  100
AcDbEntity
  8
Layer 1
  62
0
  100
AcDb2dVertex
  10
3.01809
  20
1.53566
  30
0.00000
  42
0.0449
  70
32
  0
VERTEX
  5
5C1
  100
AcDbEntity
  8
Layer 1
  62
0
  100
AcDb2dVertex
  10
3.00724
  20
1.54321
  30
0.00000
  42
0.0080
  70
32
  0
VERTEX
  5
5C2
  100
AcDbEntity
  8
Layer 1
  62
0
  100
AcDb2dVertex
  10
2.95200
  20
1.57650
  30
0.00000
  42
0.0949
  70
32
  0
VERTEX
  5
5C3
  100
AcDbEntity
  8
Layer 1
  62
0
  100
AcDb2dVertex
  10
2.84867
  20
1.61442
  30
0.00000
  42
0.0387
  70
32
  0
VERTEX
  5
5C4
  100
AcDbEntity
  8
Layer 1
  62
0
  100
AcDb2dVertex
  10
2.80900
  20
1.61750
  30
0.00000
  42
0.1074
  70
32
  0
VERTEX
  5
5C5
  100
AcDbEntity
  8
Layer 1
  62
0
  100
AcDb2dVertex
  10
2.69124
  20
1.59136
  30
0.00000
  42
0.0393
  70
32
  0
VERTEX
  5
5C6
  100
AcDbEntity
  8
Layer 1
  62
0
  100
AcDb2dVertex
  10
2.63900
  20
1.56250
  30
0.00000
  42
0.0891
  70
32
  0
VERTEX
  5
5C7
  100
AcDbEntity
  8
Layer 1
  62
0
  100
AcDb2dVertex
  10
2.59365
  20
1.51752
  30
0.00000
  42
0.1626
  70
32
  0
VERTEX
  5
5C8
  100
AcDbEntity
  8
Layer 1
  62
0
  100
AcDb2dVertex
  10
2.57081
  20
1.43674
  30
0.00000
  70
32
  0
VERTEX
  5
5C9
  100
AcDbEntity
  8
Layer 1
  62
0
  100
AcDb2dVertex
  10
2.57100
  20
1.43250
  30
0.00000
  70
32
  0
VERTEX
  5
5CA
  100
AcDbEntity
  8
Layer 1
  62
0
  100
AcDb2dVertex
  10
2.49800
  20
1.43050
  30
0.00000
  70
32
  0
VERTEX
  5
5CB
  100
AcDbEntity
  8
Layer 1
  62
0
  100
AcDb2dVertex
  10
2.57100
  20
1.43250
  30
0.00000
  42
0.1028
  70
32
  0
VERTEX
  5
5CC
  100
AcDbEntity
  8
Layer 1
  62
0
  100
AcDb2dVertex
  10
2.60244
  20
1.34956
  30
0.00000
  42
0.1042
  70
32
  0
VERTEX
  5
5CD
  100
AcDbEntity
  8
Layer 1
  62
0
  100
AcDb2dVertex
  10
2.66591
  20
1.28687
  30
0.00000
  70
32
  0
VERTEX
  5
5CE
  100
AcDbEntity
  8
Layer 1
  62
0
  100
AcDb2dVertex
  10
2.66800
  20
1.28550
  30
0.00000
  42
0.1452
  70
32
  0
VERTEX
  5
5CF
  100
AcDbEntity
  8
Layer 1
  62
0
  100
AcDb2dVertex
  10
2.79780
  20
1.24272
  30
0.00000
  70
32
  0
VERTEX
  5
5D0
  100
AcDbEntity
  8
Layer 1
  62
0
  100
AcDb2dVertex
  10
2.80900
  20
1.24250
  30
0.00000
  42
0.1351
  70
32
  0
VERTEX
  5
5D1
  100
AcDbEntity
  8
Layer 1
  62
0
  100
AcDb2dVertex
  10
2.94300
  20
1.27850
  30
0.00000
  42
-0.0219
  70
32
  0
VERTEX
  5
5D2
  100
AcDbEntity
  8
Layer 1
  62
0
  100
AcDb2dVertex
  10
3.00183
  20
1.31106
  30
0.00000
  70
32
  0
VERTEX
  5
5D3
  100
AcDbEntity
  8
Layer 1
  62
0
  100
AcDb2dVertex
  10
3.00964
  20
1.31439
  30
0.00000
  42
-0.0756
  70
32
  0
VERTEX
  5
5D4
  100
AcDbEntity
  8
Layer 1
  62
0
  100
AcDb2dVertex
  10
3.01400
  20
1.31550
  30
0.00000
  42
-0.1595
  70
32
  0
VERTEX
  5
5D5
  100
AcDbEntity
  8
Layer 1
  62
0
  100
AcDb2dVertex
  10
3.02786
  20
1.31197
  30
0.00000
  42
-0.0983
  70
32
  0
VERTEX
  5
5D6
  100
AcDbEntity
  8
Layer 1
  62
0
  100
AcDb2dVertex
  10
3.03100
  20
1.30850
  30
0.00000
  42
-0.3002
  70
32
  0
VERTEX
  5
5D7
  100
AcDbEntity
  8
Layer 1
  62
0
  100
AcDb2dVertex
  10
3.03249
  20
1.29950
  30
0.00000
  70
32
  0
VERTEX
  5
5D8
  100
AcDbEntity
  8
Layer 1
  62
0
  100
AcDb2dVertex
  10
3.03100
  20
1.29750
  30
0.00000
  42
-0.1359
  70
32
  0
VERTEX
  5
5D9
  100
AcDbEntity
  8
Layer 1
  62
0
  100
AcDb2dVertex
  10
2.94215
  20
1.22195
  30
0.00000
  42
-0.0737
  70
32
  0
VERTEX
  5
5DA
  100
AcDbEntity
  8
Layer 1
  62
0
  100
AcDb2dVertex
  10
2.85324
  20
1.19576
  30
0.00000
  42
-0.0377
  70
32
  0
VERTEX
  5
5DB
  100
AcDbEntity
  8
Layer 1
  62
0
  100
AcDb2dVertex
  10
2.77900
  20
1.19050
  30
0.00000
  42
-0.0821
  70
32
  0
VERTEX
  5
5DC
  100
AcDbEntity
  8
Layer 1
  62
0
  100
AcDb2dVertex
  10
2.68312
  20
1.20524
  30
0.00000
  42
-0.0711
  70
32
  0
VERTEX
  5
5DD
  100
AcDbEntity
  8
Layer 1
  62
0
  100
AcDb2dVertex
  10
2.62300
  20
1.23550
  30
0.00000
  42
-0.0685
  70
32
  0
VERTEX
  5
5DE
  100
AcDbEntity
  8
Layer 1
  62
0
  100
AcDb2dVertex
  10
2.56716
  20
1.29098
  30
0.00000
  42
-0.0208
  70
32
  0
VERTEX
  5
5DF
  100
AcDbEntity
  8
Layer 1
  62
0
  100
AcDb2dVertex
  10
2.54600
  20
1.32050
  30
0.00000
  42
0.0417
  70
32
  0
VERTEX
  5
5E0
  100
AcDbEntity
  8
Layer 1
  62
0
  100
AcDb2dVertex
  10
2.51945
  20
1.35536
  30
0.00000
  42
0.1019
  70
32
  0
VERTEX
  5
5E1
  100
AcDbEntity
  8
Layer 1
  62
0
  100
AcDb2dVertex
  10
2.50718
  20
1.36484
  30
0.00000
  42
0.0920
  70
32
  0
VERTEX
  5
5E2
  100
AcDbEntity
  8
Layer 1
  62
0
  100
AcDb2dVertex
  10
2.50400
  20
1.36550
  30
0.00000
  42
0.0971
  70
32
  0
VERTEX
  5
5E3
  100
AcDbEntity
  8
Layer 1
  62
0
  100
AcDb2dVertex
  10
2.49113
  20
1.36136
  30
0.00000
  42
0.0422
  70
32
  0
VERTEX
  5
5E4
  100
AcDbEntity
  8
Layer 1
  62
0
  100
AcDb2dVertex
  10
2.46200
  20
1.34350
  30
0.00000
  42
-0.0537
  70
32
  0
VERTEX
  5
5E5
  100
AcDbEntity
  8
Layer 1
  62
0
  100
AcDb2dVertex
  10
2.42780
  20
1.32555
  30
0.00000
  42
-0.0844
  70
32
  0
VERTEX
  5
5E6
  100
AcDbEntity
  8
Layer 1
  62
0
  100
AcDb2dVertex
  10
2.41300
  20
1.32250
  30
0.00000
  42
-0.2404
  70
32
  0
VERTEX
  5
5E7
  100
AcDbEntity
  8
Layer 1
  62
0
  100
AcDb2dVertex
  10
2.39958
  20
1.32979
  30
0.00000
  42
-0.0968
  70
32
  0
VERTEX
  5
5E8
  100
AcDbEntity
  8
Layer 1
  62
0
  100
AcDb2dVertex
  10
2.39010
  20
1.35092
  30
0.00000
  42
-0.0472
  70
32
  0
VERTEX
  5
5E9
  100
AcDbEntity
  8
Layer 1
  62
0
  100
AcDb2dVertex
  10
2.38282
  20
1.39962
  30
0.00000
  42
-0.0181
  70
32
  0
VERTEX
  5
5EA
  100
AcDbEntity
  8
Layer 1
  62
0
  100
AcDb2dVertex
  10
2.38100
  20
1.45750
  30
0.00000
  70
32
  0
VERTEX
  5
5EB
  100
AcDbEntity
  8
Layer 1
  62
0
  100
AcDb2dVertex
  10
2.38100
  20
1.50450
  30
0.00000
  42
-0.1730
  70
32
  0
VERTEX
  5
5EC
  100
AcDbEntity
  8
Layer 1
  62
0
  100
AcDb2dVertex
  10
2.39051
  20
1.52229
  30
0.00000
  42
-0.1789
  70
32
  0
VERTEX
  5
5ED
  100
AcDbEntity
  8
Layer 1
  62
0
  100
AcDb2dVertex
  10
2.40600
  20
1.52750
  30
0.00000
  42
-0.0854
  70
32
  0
VERTEX
  5
5EE
  100
AcDbEntity
  8
Layer 1
  62
0
  100
AcDb2dVertex
  10
2.42682
  20
1.52261
  30
0.00000
  42
-0.0253
  70
32
  0
VERTEX
  5
5EF
  100
AcDbEntity
  8
Layer 1
  62
0
  100
AcDb2dVertex
  10
2.45800
  20
1.50850
  30
0.00000
  42
0.0365
  70
32
  0
VERTEX
  5
5F0
  100
AcDbEntity
  8
Layer 1
  62
0
  100
AcDb2dVertex
  10
2.49383
  20
1.49140
  30
0.00000
  42
0.1107
  70
32
  0
VERTEX
  5
5F1
  100
AcDbEntity
  8
Layer 1
  62
0
  100
AcDb2dVertex
  10
2.50400
  20
1.48950
  30
0.00000
  42
0.2064
  70
32
  0
VERTEX
  5
5F2
  100
AcDbEntity
  8
Layer 1
  62
0
  100
AcDb2dVertex
  10
2.50826
  20
1.49153
  30
0.00000
  42
0.0447
  70
32
  0
VERTEX
  5
5F3
  100
AcDbEntity
  8
Layer 1
  62
0
  100
AcDb2dVertex
  10
2.52484
  20
1.51027
  30
0.00000
  42
0.0071
  70
32
  0
VERTEX
  5
5F4
  100
AcDbEntity
  8
Layer 1
  62
0
  100
AcDb2dVertex
  10
2.54400
  20
1.53550
  30
0.00000
  42
-0.0324
  70
32
  0
VERTEX
  5
5F5
  100
AcDbEntity
  8
Layer 1
  62
0
  100
AcDb2dVertex
  10
2.59526
  20
1.59463
  30
0.00000
  42
-0.0181
  70
32
  0
VERTEX
  5
5F6
  100
AcDbEntity
  8
Layer 1
  62
0
  100
AcDb2dVertex
  10
2.60600
  20
1.60450
  30
0.00000
  42
-0.1070
  70
32
  0
VERTEX
  5
5F7
  100
AcDbEntity
  8
Layer 1
  62
0
  100
AcDb2dVertex
  10
2.70652
  20
1.65404
  30
0.00000
  42
-0.0638
  70
32
  0
VERTEX
  5
5F8
  100
AcDbEntity
  8
Layer 1
  62
0
  100
AcDb2dVertex
  10
2.80300
  20
1.66550
  30
0.00000
  42
-0.0451
  70
32
  0
VERTEX
  5
5F9
  100
AcDbEntity
  8
Layer 1
  62
0
  100
AcDb2dVertex
  10
2.85559
  20
1.65940
  30
0.00000
  42
-0.0204
  70
32
  0
VERTEX
  5
5FA
  100
AcDbEntity
  8
Layer 1
  62
0
  100
AcDb2dVertex
  10
2.92600
  20
1.64250
  30
0.00000
  42
-0.0445
  70
32
  0
VERTEX
  5
5FB
  100
AcDbEntity
  8
Layer 1
  62
0
  100
AcDb2dVertex
  10
2.99034
  20
1.61676
  30
0.00000
  42
-0.0769
  70
32
  0
VERTEX
  5
5FC
  100
AcDbEntity
  8
Layer 1
  62
0
  100
AcDb2dVertex
  10
3.02358
  20
1.59320
  30
0.00000
  42
-0.1439
  70
32
  0
VERTEX
  5
5FD
  100
AcDbEntity
  8
Layer 1
  62
0
  100
AcDb2dVertex
  10
3.03814
  20
1.56781
  30
0.00000
  42
-0.0517
  70
32
  0
VERTEX
  5
5FE
  100
AcDbEntity
  8
Layer 1
  62
0
  100
AcDb2dVertex
  10
3.03900
  20
1.55950
  30
0.00000
  70
32
  0
SEQEND
  5
5FF
  100
AcDbEntity
  8
Layer 1
  62
0
  0
POLYLINE
  5
600
  100
AcDbEntity
  8
Layer 1
  62
0
  100
AcDb2dPolyline
 66
     1
  10
0
  20
0
  30
0
  70
1
  0
VERTEX
  5
601
  100
AcDbEntity
  8
Layer 1
  62
0
  100
AcDb2dVertex
  10
3.68100
  20
0.67250
  30
0.00000
  42
-0.0799
  70
32
  0
VERTEX
  5
602
  100
AcDbEntity
  8
Layer 1
  62
0
  100
AcDb2dVertex
  10
3.67545
  20
0.63176
  30
0.00000
  42
-0.1517
  70
32
  0
VERTEX
  5
603
  100
AcDbEntity
  8
Layer 1
  62
0
  100
AcDb2dVertex
  10
3.65725
  20
0.60465
  30
0.00000
  42
-0.1457
  70
32
  0
VERTEX
  5
604
  100
AcDbEntity
  8
Layer 1
  62
0
  100
AcDb2dVertex
  10
3.62681
  20
0.59382
  30
0.00000
  70
32
  0
VERTEX
  5
605
  100
AcDbEntity
  8
Layer 1
  62
0
  100
AcDb2dVertex
  10
3.61900
  20
0.59350
  30
0.00000
  42
-0.0939
  70
32
  0
VERTEX
  5
606
  100
AcDbEntity
  8
Layer 1
  62
0
  100
AcDb2dVertex
  10
3.59125
  20
0.59780
  30
0.00000
  42
-0.2040
  70
32
  0
VERTEX
  5
607
  100
AcDbEntity
  8
Layer 1
  62
0
  100
AcDb2dVertex
  10
3.57611
  20
0.61144
  30
0.00000
  42
-0.1027
  70
32
  0
VERTEX
  5
608
  100
AcDbEntity
  8
Layer 1
  62
0
  100
AcDb2dVertex
  10
3.57400
  20
0.62250
  30
0.00000
  42
-0.0509
  70
32
  0
VERTEX
  5
609
  100
AcDbEntity
  8
Layer 1
  62
0
  100
AcDb2dVertex
  10
3.57681
  20
0.63151
  30
0.00000
  70
32
  0
VERTEX
  5
60A
  100
AcDbEntity
  8
Layer 1
  62
0
  100
AcDb2dVertex
  10
3.58100
  20
0.64350
  30
0.00000
  42
0.0573
  70
32
  0
VERTEX
  5
60B
  100
AcDbEntity
  8
Layer 1
  62
0
  100
AcDb2dVertex
  10
3.58797
  20
0.66504
  30
0.00000
  70
32
  0
VERTEX
  5
60C
  100
AcDbEntity
  8
Layer 1
  62
0
  100
AcDb2dVertex
  10
3.58800
  20
0.66550
  30
0.00000
  42
0.3406
  70
32
  0
VERTEX
  5
60D
  100
AcDbEntity
  8
Layer 1
  62
0
  100
AcDb2dVertex
  10
3.57402
  20
0.68534
  30
0.00000
  42
0.0724
  70
32
  0
VERTEX
  5
60E
  100
AcDbEntity
  8
Layer 1
  62
0
  100
AcDb2dVertex
  10
3.56300
  20
0.68750
  30
0.00000
  42
-0.0241
  70
32
  0
VERTEX
  5
60F
  100
AcDbEntity
  8
Layer 1
  62
0
  100
AcDb2dVertex
  10
3.51900
  20
0.69050
  30
0.00000
  42
-0.0570
  70
32
  0
VERTEX
  5
610
  100
AcDbEntity
  8
Layer 1
  62
0
  100
AcDb2dVertex
  10
3.49346
  20
0.70019
  30
0.00000
  42
-0.0096
  70
32
  0
VERTEX
  5
611
  100
AcDbEntity
  8
Layer 1
  62
0
  100
AcDb2dVertex
  10
3.47300
  20
0.71050
  30
0.00000
  42
0.0912
  70
32
  0
VERTEX
  5
612
  100
AcDbEntity
  8
Layer 1
  62
0
  100
AcDb2dVertex
  10
3.43664
  20
0.72210
  30
0.00000
  70
32
  0
VERTEX
  5
613
  100
AcDbEntity
  8
Layer 1
  62
0
  100
AcDb2dVertex
  10
3.42900
  20
0.72250
  30
0.00000
  42
0.1377
  70
32
  0
VERTEX
  5
614
  100
AcDbEntity
  8
Layer 1
  62
0
  100
AcDb2dVertex
  10
3.40338
  20
0.71433
  30
0.00000
  42
0.0409
  70
32
  0
VERTEX
  5
615
  100
AcDbEntity
  8
Layer 1
  62
0
  100
AcDb2dVertex
  10
3.39000
  20
0.70450
  30
0.00000
  42
-0.1003
  70
32
  0
VERTEX
  5
616
  100
AcDbEntity
  8
Layer 1
  62
0
  100
AcDb2dVertex
  10
3.36495
  20
0.68942
  30
0.00000
  42
-0.0773
  70
32
  0
VERTEX
  5
617
  100
AcDbEntity
  8
Layer 1
  62
0
  100
AcDb2dVertex
  10
3.35300
  20
0.68750
  30
0.00000
  42
-0.1570
  70
32
  0
VERTEX
  5
618
  100
AcDbEntity
  8
Layer 1
  62
0
  100
AcDb2dVertex
  10
3.33259
  20
0.69512
  30
0.00000
  42
-0.0405
  70
32
  0
VERTEX
  5
619
  100
AcDbEntity
  8
Layer 1
  62
0
  100
AcDb2dVertex
  10
3.32400
  20
0.70250
  30
0.00000
  42
0.0733
  70
32
  0
VERTEX
  5
61A
  100
AcDbEntity
  8
Layer 1
  62
0
  100
AcDb2dVertex
  10
3.30593
  20
0.71699
  30
0.00000
  42
0.1118
  70
32
  0
VERTEX
  5
61B
  100
AcDbEntity
  8
Layer 1
  62
0
  100
AcDb2dVertex
  10
3.30100
  20
0.71850
  30
0.00000
  42
0.1701
  70
32
  0
VERTEX
  5
61C
  100
AcDbEntity
  8
Layer 1
  62
0
  100
AcDb2dVertex
  10
3.28789
  20
0.71304
  30
0.00000
  42
0.0429
  70
32
  0
VERTEX
  5
61D
  100
AcDbEntity
  8
Layer 1
  62
0
  100
AcDb2dVertex
  10
3.27800
  20
0.70350
  30
0.00000
  42
-0.1262
  70
32
  0
VERTEX
  5
61E
  100
AcDbEntity
  8
Layer 1
  62
0
  100
AcDb2dVertex
  10
3.25938
  20
0.68995
  30
0.00000
  42
-0.0838
  70
32
  0
VERTEX
  5
61F
  100
AcDbEntity
  8
Layer 1
  62
0
  100
AcDb2dVertex
  10
3.25100
  20
0.68850
  30
0.00000
  42
-0.1246
  70
32
  0
VERTEX
  5
620
  100
AcDbEntity
  8
Layer 1
  62
0
  100
AcDb2dVertex
  10
3.24076
  20
0.69245
  30
0.00000
  42
-0.0417
  70
32
  0
VERTEX
  5
621
  100
AcDbEntity
  8
Layer 1
  62
0
  100
AcDb2dVertex
  10
3.21253
  20
0.71454
  30
0.00000
  70
32
  0
VERTEX
  5
622
  100
AcDbEntity
  8
Layer 1
  62
0
  100
AcDb2dVertex
  10
3.19500
  20
0.73050
  30
0.00000
  42
0.0887
  70
32
  0
VERTEX
  5
623
  100
AcDbEntity
  8
Layer 1
  62
0
  100
AcDb2dVertex
  10
3.14791
  20
0.76335
  30
0.00000
  42
0.1046
  70
32
  0
VERTEX
  5
624
  100
AcDbEntity
  8
Layer 1
  62
0
  100
AcDb2dVertex
  10
3.10600
  20
0.77250
  30
0.00000
  42
0.1182
  70
32
  0
VERTEX
  5
625
  100
AcDbEntity
  8
Layer 1
  62
0
  100
AcDb2dVertex
  10
3.07181
  20
0.76531
  30
0.00000
  70
32
  0
VERTEX
  5
626
  100
AcDbEntity
  8
Layer 1
  62
0
  100
AcDb2dVertex
  10
3.06700
  20
0.76250
  30
0.00000
  42
-0.1647
  70
32
  0
VERTEX
  5
627
  100
AcDbEntity
  8
Layer 1
  62
0
  100
AcDb2dVertex
  10
3.03400
  20
0.75250
  30
0.00000
  42
-0.0330
  70
32
  0
VERTEX
  5
628
  100
AcDbEntity
  8
Layer 1
  62
0
  100
AcDb2dVertex
  10
3.01246
  20
0.75732
  30
0.00000
  70
32
  0
VERTEX
  5
629
  100
AcDbEntity
  8
Layer 1
  62
0
  100
AcDb2dVertex
  10
3.00800
  20
0.75850
  30
0.00000
  42
0.0357
  70
32
  0
VERTEX
  5
62A
  100
AcDbEntity
  8
Layer 1
  62
0
  100
AcDb2dVertex
  10
2.98158
  20
0.76546
  30
0.00000
  70
32
  0
VERTEX
  5
62B
  100
AcDbEntity
  8
Layer 1
  62
0
  100
AcDb2dVertex
  10
2.98100
  20
0.76550
  30
0.00000
  42
0.1946
  70
32
  0
VERTEX
  5
62C
  100
AcDbEntity
  8
Layer 1
  62
0
  100
AcDb2dVertex
  10
2.95823
  20
0.75577
  30
0.00000
  42
0.0593
  70
32
  0
VERTEX
  5
62D
  100
AcDbEntity
  8
Layer 1
  62
0
  100
AcDb2dVertex
  10
2.94800
  20
0.74350
  30
0.00000
  42
-0.1052
  70
32
  0
VERTEX
  5
62E
  100
AcDbEntity
  8
Layer 1
  62
0
  100
AcDb2dVertex
  10
2.93036
  20
0.72607
  30
0.00000
  42
-0.1334
  70
32
  0
VERTEX
  5
62F
  100
AcDbEntity
  8
Layer 1
  62
0
  100
AcDb2dVertex
  10
2.91800
  20
0.72250
  30
0.00000
  42
-0.1273
  70
32
  0
VERTEX
  5
630
  100
AcDbEntity
  8
Layer 1
  62
0
  100
AcDb2dVertex
  10
2.90749
  20
0.72659
  30
0.00000
  42
-0.0488
  70
32
  0
VERTEX
  5
631
  100
AcDbEntity
  8
Layer 1
  62
0
  100
AcDb2dVertex
  10
2.88016
  20
0.74904
  30
0.00000
  42
-0.0137
  70
32
  0
VERTEX
  5
632
  100
AcDbEntity
  8
Layer 1
  62
0
  100
AcDb2dVertex
  10
2.85600
  20
0.77350
  30
0.00000
  42
0.1500
  70
32
  0
VERTEX
  5
633
  100
AcDbEntity
  8
Layer 1
  62
0
  100
AcDb2dVertex
  10
2.77460
  20
0.81965
  30
0.00000
  42
0.0539
  70
32
  0
VERTEX
  5
634
  100
AcDbEntity
  8
Layer 1
  62
0
  100
AcDb2dVertex
  10
2.73800
  20
0.82350
  30
0.00000
  42
0.0200
  70
32
  0
VERTEX
  5
635
  100
AcDbEntity
  8
Layer 1
  62
0
  100
AcDb2dVertex
  10
2.72359
  20
0.82172
  30
0.00000
  70
32
  0
VERTEX
  5
636
  100
AcDbEntity
  8
Layer 1
  62
0
  100
AcDb2dVertex
  10
2.70000
  20
0.81850
  30
0.00000
  70
32
  0
VERTEX
  5
637
  100
AcDbEntity
  8
Layer 1
  62
0
  100
AcDb2dVertex
  10
2.67363
  20
0.81400
  30
0.00000
  42
-0.0221
  70
32
  0
VERTEX
  5
638
  100
AcDbEntity
  8
Layer 1
  62
0
  100
AcDb2dVertex
  10
2.66300
  20
0.81250
  30
0.00000
  42
-0.1973
  70
32
  0
VERTEX
  5
639
  100
AcDbEntity
  8
Layer 1
  62
0
  100
AcDb2dVertex
  10
2.62300
  20
0.82850
  30
0.00000
  42
0.0793
  70
32
  0
VERTEX
  5
63A
  100
AcDbEntity
  8
Layer 1
  62
0
  100
AcDb2dVertex
  10
2.60408
  20
0.84334
  30
0.00000
  42
0.1128
  70
32
  0
VERTEX
  5
63B
  100
AcDbEntity
  8
Layer 1
  62
0
  100
AcDb2dVertex
  10
2.59600
  20
0.84550
  30
0.00000
  42
0.0461
  70
32
  0
VERTEX
  5
63C
  100
AcDbEntity
  8
Layer 1
  62
0
  100
AcDb2dVertex
  10
2.57760
  20
0.84068
  30
0.00000
  70
32
  0
VERTEX
  5
63D
  100
AcDbEntity
  8
Layer 1
  62
0
  100
AcDb2dVertex
  10
2.57400
  20
0.83950
  30
0.00000
  70
32
  0
VERTEX
  5
63E
  100
AcDbEntity
  8
Layer 1
  62
0
  100
AcDb2dVertex
  10
2.55975
  20
0.83500
  30
0.00000
  42
-0.0513
  70
32
  0
VERTEX
  5
63F
  100
AcDbEntity
  8
Layer 1
  62
0
  100
AcDb2dVertex
  10
2.55300
  20
0.83350
  30
0.00000
  42
-0.1996
  70
32
  0
VERTEX
  5
640
  100
AcDbEntity
  8
Layer 1
  62
0
  100
AcDb2dVertex
  10
2.53110
  20
0.84291
  30
0.00000
  42
-0.0569
  70
32
  0
VERTEX
  5
641
  100
AcDbEntity
  8
Layer 1
  62
0
  100
AcDb2dVertex
  10
2.52000
  20
0.85650
  30
0.00000
  42
0.1551
  70
32
  0
VERTEX
  5
642
  100
AcDbEntity
  8
Layer 1
  62
0
  100
AcDb2dVertex
  10
2.50043
  20
0.87514
  30
0.00000
  42
0.1077
  70
32
  0
VERTEX
  5
643
  100
AcDbEntity
  8
Layer 1
  62
0
  100
AcDb2dVertex
  10
2.48400
  20
0.87850
  30
0.00000
  42
0.0295
  70
32
  0
VERTEX
  5
644
  100
AcDbEntity
  8
Layer 1
  62
0
  100
AcDb2dVertex
  10
2.46800
  20
0.87750
  30
0.00000
  70
32
  0
VERTEX
  5
645
  100
AcDbEntity
  8
Layer 1
  62
0
  100
AcDb2dVertex
  10
2.45899
  20
0.87624
  30
0.00000
  70
32
  0
VERTEX
  5
646
  100
AcDbEntity
  8
Layer 1
  62
0
  100
AcDb2dVertex
  10
2.45300
  20
0.87550
  30
0.00000
  42
-0.0943
  70
32
  0
VERTEX
  5
647
  100
AcDbEntity
  8
Layer 1
  62
0
  100
AcDb2dVertex
  10
2.43171
  20
0.87862
  30
0.00000
  42
-0.2399
  70
32
  0
VERTEX
  5
648
  100
AcDbEntity
  8
Layer 1
  62
0
  100
AcDb2dVertex
  10
2.42308
  20
0.88720
  30
0.00000
  70
32
  0
VERTEX
  5
649
  100
AcDbEntity
  8
Layer 1
  62
0
  100
AcDb2dVertex
  10
2.42300
  20
0.88750
  30
0.00000
  42
-0.0735
  70
32
  0
VERTEX
  5
64A
  100
AcDbEntity
  8
Layer 1
  62
0
  100
AcDb2dVertex
  10
2.40700
  20
1.00050
  30
0.00000
  42
-0.1009
  70
32
  0
VERTEX
  5
64B
  100
AcDbEntity
  8
Layer 1
  62
0
  100
AcDb2dVertex
  10
2.41057
  20
1.02273
  30
0.00000
  42
-0.2389
  70
32
  0
VERTEX
  5
64C
  100
AcDbEntity
  8
Layer 1
  62
0
  100
AcDb2dVertex
  10
2.42041
  20
1.03207
  30
0.00000
  42
-0.0627
  70
32
  0
VERTEX
  5
64D
  100
AcDbEntity
  8
Layer 1
  62
0
  100
AcDb2dVertex
  10
2.42400
  20
1.03250
  30
0.00000
  70
32
  0
VERTEX
  5
64E
  100
AcDbEntity
  8
Layer 1
  62
0
  100
AcDb2dVertex
  10
2.45600
  20
0.99550
  30
0.00000
  42
0.0458
  70
32
  0
VERTEX
  5
64F
  100
AcDbEntity
  8
Layer 1
  62
0
  100
AcDb2dVertex
  10
2.48998
  20
0.96189
  30
0.00000
  42
0.0815
  70
32
  0
VERTEX
  5
650
  100
AcDbEntity
  8
Layer 1
  62
0
  100
AcDb2dVertex
  10
2.50600
  20
0.95250
  30
0.00000
  42
-0.0449
  70
32
  0
VERTEX
  5
651
  100
AcDbEntity
  8
Layer 1
  62
0
  100
AcDb2dVertex
  10
2.53999
  20
0.94803
  30
0.00000
  70
32
  0
VERTEX
  5
652
  100
AcDbEntity
  8
Layer 1
  62
0
  100
AcDb2dVertex
  10
2.56600
  20
0.94250
  30
0.00000
  42
-0.0805
  70
32
  0
VERTEX
  5
653
  100
AcDbEntity
  8
Layer 1
  62
0
  100
AcDb2dVertex
  10
2.57369
  20
0.93884
  30
0.00000
  70
32
  0
VERTEX
  5
654
  100
AcDbEntity
  8
Layer 1
  62
0
  100
AcDb2dVertex
  10
2.58535
  20
0.93190
  30
0.00000
  70
32
  0
VERTEX
  5
655
  100
AcDbEntity
  8
Layer 1
  62
0
  100
AcDb2dVertex
  10
2.59100
  20
0.92850
  30
0.00000
  42
0.0639
  70
32
  0
VERTEX
  5
656
  100
AcDbEntity
  8
Layer 1
  62
0
  100
AcDb2dVertex
  10
2.61041
  20
0.91902
  30
0.00000
  42
0.0626
  70
32
  0
VERTEX
  5
657
  100
AcDbEntity
  8
Layer 1
  62
0
  100
AcDb2dVertex
  10
2.61400
  20
0.91850
  30
0.00000
  42
0.0330
  70
32
  0
VERTEX
  5
658
  100
AcDbEntity
  8
Layer 1
  62
0
  100
AcDb2dVertex
  10
2.63554
  20
0.92332
  30
0.00000
  70
32
  0
VERTEX
  5
659
  100
AcDbEntity
  8
Layer 1
  62
0
  100
AcDb2dVertex
  10
2.64000
  20
0.92450
  30
0.00000
  42
-0.0183
  70
32
  0
VERTEX
  5
65A
  100
AcDbEntity
  8
Layer 1
  62
0
  100
AcDb2dVertex
  10
2.66400
  20
0.93050
  30
0.00000
  42
-0.1086
  70
32
  0
VERTEX
  5
65B
  100
AcDbEntity
  8
Layer 1
  62
0
  100
AcDb2dVertex
  10
2.68931
  20
0.92383
  30
0.00000
  42
-0.0491
  70
32
  0
VERTEX
  5
65C
  100
AcDbEntity
  8
Layer 1
  62
0
  100
AcDb2dVertex
  10
2.71900
  20
0.90550
  30
0.00000
  42
0.0395
  70
32
  0
VERTEX
  5
65D
  100
AcDbEntity
  8
Layer 1
  62
0
  100
AcDb2dVertex
  10
2.75382
  20
0.88375
  30
0.00000
  42
0.0989
  70
32
  0
VERTEX
  5
65E
  100
AcDbEntity
  8
Layer 1
  62
0
  100
AcDb2dVertex
  10
2.76400
  20
0.88050
  30
0.00000
  42
-0.0166
  70
32
  0
VERTEX
  5
65F
  100
AcDbEntity
  8
Layer 1
  62
0
  100
AcDb2dVertex
  10
2.79000
  20
0.87750
  30
0.00000
  70
32
  0
VERTEX
  5
660
  100
AcDbEntity
  8
Layer 1
  62
0
  100
AcDb2dVertex
  10
2.80676
  20
0.87624
  30
0.00000
  70
32
  0
VERTEX
  5
661
  100
AcDbEntity
  8
Layer 1
  62
0
  100
AcDb2dVertex
  10
2.81800
  20
0.87550
  30
0.00000
  42
0.0141
  70
32
  0
VERTEX
  5
662
  100
AcDbEntity
  8
Layer 1
  62
0
  100
AcDb2dVertex
  10
2.85700
  20
0.88150
  30
0.00000
  42
-0.0141
  70
32
  0
VERTEX
  5
663
  100
AcDbEntity
  8
Layer 1
  62
0
  100
AcDb2dVertex
  10
2.89600
  20
0.88750
  30
0.00000
  42
-0.1689
  70
32
  0
VERTEX
  5
664
  100
AcDbEntity
  8
Layer 1
  62
0
  100
AcDb2dVertex
  10
2.93012
  20
0.87499
  30
0.00000
  70
32
  0
VERTEX
  5
665
  100
AcDbEntity
  8
Layer 1
  62
0
  100
AcDb2dVertex
  10
2.93200
  20
0.87350
  30
0.00000
  42
0.1493
  70
32
  0
VERTEX
  5
666
  100
AcDbEntity
  8
Layer 1
  62
0
  100
AcDb2dVertex
  10
2.95698
  20
0.85908
  30
0.00000
  42
0.0473
  70
32
  0
VERTEX
  5
667
  100
AcDbEntity
  8
Layer 1
  62
0
  100
AcDb2dVertex
  10
2.96300
  20
0.85850
  30
0.00000
  42
0.0544
  70
32
  0
VERTEX
  5
668
  100
AcDbEntity
  8
Layer 1
  62
0
  100
AcDb2dVertex
  10
2.97425
  20
0.86425
  30
0.00000
  70
32
  0
VERTEX
  5
669
  100
AcDbEntity
  8
Layer 1
  62
0
  100
AcDb2dVertex
  10
2.98600
  20
0.87150
  30
0.00000
  42
-0.0722
  70
32
  0
VERTEX
  5
66A
  100
AcDbEntity
  8
Layer 1
  62
0
  100
AcDb2dVertex
  10
3.01228
  20
0.88281
  30
0.00000
  42
-0.0529
  70
32
  0
VERTEX
  5
66B
  100
AcDbEntity
  8
Layer 1
  62
0
  100
AcDb2dVertex
  10
3.01800
  20
0.88350
  30
0.00000
  42
-0.0641
  70
32
  0
VERTEX
  5
66C
  100
AcDbEntity
  8
Layer 1
  62
0
  100
AcDb2dVertex
  10
3.02875
  20
0.87960
  30
0.00000
  42
-0.0076
  70
32
  0
VERTEX
  5
66D
  100
AcDbEntity
  8
Layer 1
  62
0
  100
AcDb2dVertex
  10
3.06300
  20
0.86350
  30
0.00000
  42
0.1060
  70
32
  0
VERTEX
  5
66E
  100
AcDbEntity
  8
Layer 1
  62
0
  100
AcDb2dVertex
  10
3.13694
  20
0.84311
  30
0.00000
  42
0.0180
  70
32
  0
VERTEX
  5
66F
  100
AcDbEntity
  8
Layer 1
  62
0
  100
AcDb2dVertex
  10
3.15400
  20
0.84250
  30
0.00000
  42
0.0633
  70
32
  0
VERTEX
  5
670
  100
AcDbEntity
  8
Layer 1
  62
0
  100
AcDb2dVertex
  10
3.21492
  20
0.84923
  30
0.00000
  42
0.0472
  70
32
  0
VERTEX
  5
671
  100
AcDbEntity
  8
Layer 1
  62
0
  100
AcDb2dVertex
  10
3.23800
  20
0.85750
  30
0.00000
  42
-0.0567
  70
32
  0
VERTEX
  5
672
  100
AcDbEntity
  8
Layer 1
  62
0
  100
AcDb2dVertex
  10
3.27496
  20
0.87120
  30
0.00000
  42
-0.0516
  70
32
  0
VERTEX
  5
673
  100
AcDbEntity
  8
Layer 1
  62
0
  100
AcDb2dVertex
  10
3.28600
  20
0.87250
  30
0.00000
  42
-0.1261
  70
32
  0
VERTEX
  5
674
  100
AcDbEntity
  8
Layer 1
  62
0
  100
AcDb2dVertex
  10
3.29906
  20
0.86796
  30
0.00000
  42
-0.0370
  70
32
  0
VERTEX
  5
675
  100
AcDbEntity
  8
Layer 1
  62
0
  100
AcDb2dVertex
  10
3.31800
  20
0.85450
  30
0.00000
  42
0.0588
  70
32
  0
VERTEX
  5
676
  100
AcDbEntity
  8
Layer 1
  62
0
  100
AcDb2dVertex
  10
3.33988
  20
0.83882
  30
0.00000
  42
0.0999
  70
32
  0
VERTEX
  5
677
  100
AcDbEntity
  8
Layer 1
  62
0
  100
AcDb2dVertex
  10
3.34400
  20
0.83750
  30
0.00000
  42
0.1391
  70
32
  0
VERTEX
  5
678
  100
AcDbEntity
  8
Layer 1
  62
0
  100
AcDb2dVertex
  10
3.35044
  20
0.84082
  30
0.00000
  42
0.0210
  70
32
  0
VERTEX
  5
679
  100
AcDbEntity
  8
Layer 1
  62
0
  100
AcDb2dVertex
  10
3.36400
  20
0.85250
  30
0.00000
  42
-0.1050
  70
32
  0
VERTEX
  5
67A
  100
AcDbEntity
  8
Layer 1
  62
0
  100
AcDb2dVertex
  10
3.38295
  20
0.86594
  30
0.00000
  42
-0.0898
  70
32
  0
VERTEX
  5
67B
  100
AcDbEntity
  8
Layer 1
  62
0
  100
AcDb2dVertex
  10
3.39100
  20
0.86750
  30
0.00000
  70
32
  0
VERTEX
  5
67C
  100
AcDbEntity
  8
Layer 1
  62
0
  100
AcDb2dVertex
  10
3.39882
  20
0.86659
  30
0.00000
  70
32
  0
VERTEX
  5
67D
  100
AcDbEntity
  8
Layer 1
  62
0
  100
AcDb2dVertex
  10
3.40700
  20
0.86550
  30
0.00000
  70
32
  0
VERTEX
  5
67E
  100
AcDbEntity
  8
Layer 1
  62
0
  100
AcDb2dVertex
  10
3.41491
  20
0.86441
  30
0.00000
  42
0.0310
  70
32
  0
VERTEX
  5
67F
  100
AcDbEntity
  8
Layer 1
  62
0
  100
AcDb2dVertex
  10
3.42300
  20
0.86350
  30
0.00000
  42
0.1183
  70
32
  0
VERTEX
  5
680
  100
AcDbEntity
  8
Layer 1
  62
0
  100
AcDb2dVertex
  10
3.45308
  20
0.86969
  30
0.00000
  42
0.1825
  70
32
  0
VERTEX
  5
681
  100
AcDbEntity
  8
Layer 1
  62
0
  100
AcDb2dVertex
  10
3.47300
  20
0.89150
  30
0.00000
  42
-0.1520
  70
32
  0
VERTEX
  5
682
  100
AcDbEntity
  8
Layer 1
  62
0
  100
AcDb2dVertex
  10
3.49005
  20
0.91252
  30
0.00000
  42
-0.1427
  70
32
  0
VERTEX
  5
683
  100
AcDbEntity
  8
Layer 1
  62
0
  100
AcDb2dVertex
  10
3.51300
  20
0.91850
  30
0.00000
  42
-0.0190
  70
32
  0
VERTEX
  5
684
  100
AcDbEntity
  8
Layer 1
  62
0
  100
AcDb2dVertex
  10
3.55646
  20
0.91460
  30
0.00000
  42
-0.0032
  70
32
  0
VERTEX
  5
685
  100
AcDbEntity
  8
Layer 1
  62
0
  100
AcDb2dVertex
  10
3.64900
  20
0.90350
  30
0.00000
  42
-0.3089
  70
32
  0
VERTEX
  5
686
  100
AcDbEntity
  8
Layer 1
  62
0
  100
AcDb2dVertex
  10
3.65933
  20
0.89454
  30
0.00000
  42
-0.0829
  70
32
  0
VERTEX
  5
687
  100
AcDbEntity
  8
Layer 1
  62
0
  100
AcDb2dVertex
  10
3.66100
  20
0.88250
  30
0.00000
  42
-0.0727
  70
32
  0
VERTEX
  5
688
  100
AcDbEntity
  8
Layer 1
  62
0
  100
AcDb2dVertex
  10
3.65400
  20
0.83050
  30
0.00000
  70
32
  0
VERTEX
  5
689
  100
AcDbEntity
  8
Layer 1
  62
0
  100
AcDb2dVertex
  10
3.51300
  20
0.80050
  30
0.00000
  70
32
  0
VERTEX
  5
68A
  100
AcDbEntity
  8
Layer 1
  62
0
  100
AcDb2dVertex
  10
3.65400
  20
0.83050
  30
0.00000
  42
0.0229
  70
32
  0
VERTEX
  5
68B
  100
AcDbEntity
  8
Layer 1
  62
0
  100
AcDb2dVertex
  10
3.65878
  20
0.80192
  30
0.00000
  70
32
  0
VERTEX
  5
68C
  100
AcDbEntity
  8
Layer 1
  62
0
  100
AcDb2dVertex
  10
3.66900
  20
0.75050
  30
0.00000
  42
-0.0428
  70
32
  0
VERTEX
  5
68D
  100
AcDbEntity
  8
Layer 1
  62
0
  100
AcDb2dVertex
  10
3.68055
  20
0.68477
  30
0.00000
  42
-0.0173
  70
32
  0
VERTEX
  5
68E
  100
AcDbEntity
  8
Layer 1
  62
0
  100
AcDb2dVertex
  10
3.68100
  20
0.67250
  30
0.00000
  70
32
  0
SEQEND
  5
68F
  100
AcDbEntity
  8
Layer 1
  62
0
  0
POLYLINE
  5
690
  100
AcDbEntity
  8
Layer 1
  62
0
  100
AcDb2dPolyline
 66
     1
  10
0
  20
0
  30
0
  70
1
  0
VERTEX
  5
691
  100
AcDbEntity
  8
Layer 1
  62
0
  100
AcDb2dVertex
  10
3.59600
  20
0.28050
  30
0.00000
  42
-0.0060
  70
32
  0
VERTEX
  5
692
  100
AcDbEntity
  8
Layer 1
  62
0
  100
AcDb2dVertex
  10
3.59529
  20
0.15480
  30
0.00000
  42
-0.0418
  70
32
  0
VERTEX
  5
693
  100
AcDbEntity
  8
Layer 1
  62
0
  100
AcDb2dVertex
  10
3.59400
  20
0.13850
  30
0.00000
  42
0.0044
  70
32
  0
VERTEX
  5
694
  100
AcDbEntity
  8
Layer 1
  62
0
  100
AcDb2dVertex
  10
3.44400
  20
0.12550
  30
0.00000
  70
32
  0
VERTEX
  5
695
  100
AcDbEntity
  8
Layer 1
  62
0
  100
AcDb2dVertex
  10
3.59400
  20
0.13850
  30
0.00000
  70
32
  0
VERTEX
  5
696
  100
AcDbEntity
  8
Layer 1
  62
0
  100
AcDb2dVertex
  10
3.59400
  20
0.05250
  30
0.00000
  42
-0.0130
  70
32
  0
VERTEX
  5
697
  100
AcDbEntity
  8
Layer 1
  62
0
  100
AcDb2dVertex
  10
3.52300
  20
0.04050
  30
0.00000
  70
32
  0
VERTEX
  5
698
  100
AcDbEntity
  8
Layer 1
  62
0
  100
AcDb2dVertex
  10
3.51573
  20
0.03624
  30
0.00000
  70
32
  0
VERTEX
  5
699
  100
AcDbEntity
  8
Layer 1
  62
0
  100
AcDb2dVertex
  10
3.50100
  20
0.02750
  30
0.00000
  42
-0.1528
  70
32
  0
VERTEX
  5
69A
  100
AcDbEntity
  8
Layer 1
  62
0
  100
AcDb2dVertex
  10
3.46400
  20
0.01550
  30
0.00000
  42
-0.1905
  70
32
  0
VERTEX
  5
69B
  100
AcDbEntity
  8
Layer 1
  62
0
  100
AcDb2dVertex
  10
3.43777
  20
0.02471
  30
0.00000
  42
-0.0939
  70
32
  0
VERTEX
  5
69C
  100
AcDbEntity
  8
Layer 1
  62
0
  100
AcDb2dVertex
  10
3.42900
  20
0.03650
  30
0.00000
  42
0.1262
  70
32
  0
VERTEX
  5
69D
  100
AcDbEntity
  8
Layer 1
  62
0
  100
AcDb2dVertex
  10
3.41711
  20
0.05352
  30
0.00000
  42
0.1689
  70
32
  0
VERTEX
  5
69E
  100
AcDbEntity
  8
Layer 1
  62
0
  100
AcDb2dVertex
  10
3.40600
  20
0.05750
  30
0.00000
  42
0.1406
  70
32
  0
VERTEX
  5
69F
  100
AcDbEntity
  8
Layer 1
  62
0
  100
AcDb2dVertex
  10
3.38243
  20
0.04961
  30
0.00000
  42
0.0309
  70
32
  0
VERTEX
  5
6A0
  100
AcDbEntity
  8
Layer 1
  62
0
  100
AcDb2dVertex
  10
3.37400
  20
0.04350
  30
0.00000
  42
-0.0838
  70
32
  0
VERTEX
  5
6A1
  100
AcDbEntity
  8
Layer 1
  62
0
  100
AcDb2dVertex
  10
3.35303
  20
0.03166
  30
0.00000
  42
-0.0744
  70
32
  0
VERTEX
  5
6A2
  100
AcDbEntity
  8
Layer 1
  62
0
  100
AcDb2dVertex
  10
3.34600
  20
0.03050
  30
0.00000
  42
-0.0682
  70
32
  0
VERTEX
  5
6A3
  100
AcDbEntity
  8
Layer 1
  62
0
  100
AcDb2dVertex
  10
3.33492
  20
0.03467
  30
0.00000
  70
32
  0
VERTEX
  5
6A4
  100
AcDbEntity
  8
Layer 1
  62
0
  100
AcDb2dVertex
  10
3.32700
  20
0.03850
  30
0.00000
  70
32
  0
VERTEX
  5
6A5
  100
AcDbEntity
  8
Layer 1
  62
0
  100
AcDb2dVertex
  10
3.31413
  20
0.04525
  30
0.00000
  42
0.0846
  70
32
  0
VERTEX
  5
6A6
  100
AcDbEntity
  8
Layer 1
  62
0
  100
AcDb2dVertex
  10
3.30800
  20
0.04750
  30
0.00000
  42
0.1507
  70
32
  0
VERTEX
  5
6A7
  100
AcDbEntity
  8
Layer 1
  62
0
  100
AcDb2dVertex
  10
3.29304
  20
0.04180
  30
0.00000
  42
0.0673
  70
32
  0
VERTEX
  5
6A8
  100
AcDbEntity
  8
Layer 1
  62
0
  100
AcDb2dVertex
  10
3.27032
  20
0.01941
  30
0.00000
  42
0.0174
  70
32
  0
VERTEX
  5
6A9
  100
AcDbEntity
  8
Layer 1
  62
0
  100
AcDb2dVertex
  10
3.25600
  20
0.00050
  30
0.00000
  42
-0.0495
  70
32
  0
VERTEX
  5
6AA
  100
AcDbEntity
  8
Layer 1
  62
0
  100
AcDb2dVertex
  10
3.22365
  20
0.00128
  30
0.00000
  42
-0.0721
  70
32
  0
VERTEX
  5
6AB
  100
AcDbEntity
  8
Layer 1
  62
0
  100
AcDb2dVertex
  10
3.21600
  20
0.00350
  30
0.00000
  42
0.0128
  70
32
  0
VERTEX
  5
6AC
  100
AcDbEntity
  8
Layer 1
  62
0
  100
AcDb2dVertex
  10
3.15300
  20
0.05350
  30
0.00000
  42
0.1076
  70
32
  0
VERTEX
  5
6AD
  100
AcDbEntity
  8
Layer 1
  62
0
  100
AcDb2dVertex
  10
3.11319
  20
0.07242
  30
0.00000
  42
0.0627
  70
32
  0
VERTEX
  5
6AE
  100
AcDbEntity
  8
Layer 1
  62
0
  100
AcDb2dVertex
  10
3.05800
  20
0.07850
  30
0.00000
  42
0.0267
  70
32
  0
VERTEX
  5
6AF
  100
AcDbEntity
  8
Layer 1
  62
0
  100
AcDb2dVertex
  10
3.01814
  20
0.07398
  30
0.00000
  70
32
  0
VERTEX
  5
6B0
  100
AcDbEntity
  8
Layer 1
  62
0
  100
AcDb2dVertex
  10
3.01500
  20
0.07350
  30
0.00000
  70
32
  0
VERTEX
  5
6B1
  100
AcDbEntity
  8
Layer 1
  62
0
  100
AcDb2dVertex
  10
2.98496
  20
0.06987
  30
0.00000
  70
32
  0
VERTEX
  5
6B2
  100
AcDbEntity
  8
Layer 1
  62
0
  100
AcDb2dVertex
  10
2.97300
  20
0.06850
  30
0.00000
  42
-0.2071
  70
32
  0
VERTEX
  5
6B3
  100
AcDbEntity
  8
Layer 1
  62
0
  100
AcDb2dVertex
  10
2.93700
  20
0.08350
  30
0.00000
  42
0.0597
  70
32
  0
VERTEX
  5
6B4
  100
AcDbEntity
  8
Layer 1
  62
0
  100
AcDb2dVertex
  10
2.91983
  20
0.09679
  30
0.00000
  42
0.1179
  70
32
  0
VERTEX
  5
6B5
  100
AcDbEntity
  8
Layer 1
  62
0
  100
AcDb2dVertex
  10
2.91400
  20
0.09850
  30
0.00000
  42
0.0495
  70
32
  0
VERTEX
  5
6B6
  100
AcDbEntity
  8
Layer 1
  62
0
  100
AcDb2dVertex
  10
2.90105
  20
0.09433
  30
0.00000
  70
32
  0
VERTEX
  5
6B7
  100
AcDbEntity
  8
Layer 1
  62
0
  100
AcDb2dVertex
  10
2.89100
  20
0.09050
  30
0.00000
  42
-0.0711
  70
32
  0
VERTEX
  5
6B8
  100
AcDbEntity
  8
Layer 1
  62
0
  100
AcDb2dVertex
  10
2.86727
  20
0.08258
  30
0.00000
  70
32
  0
VERTEX
  5
6B9
  100
AcDbEntity
  8
Layer 1
  62
0
  100
AcDb2dVertex
  10
2.86600
  20
0.08250
  30
0.00000
  42
-0.0377
  70
32
  0
VERTEX
  5
6BA
  100
AcDbEntity
  8
Layer 1
  62
0
  100
AcDb2dVertex
  10
2.85128
  20
0.08829
  30
0.00000
  42
-0.0060
  70
32
  0
VERTEX
  5
6BB
  100
AcDbEntity
  8
Layer 1
  62
0
  100
AcDb2dVertex
  10
2.79800
  20
0.11250
  30
0.00000
  42
0.0813
  70
32
  0
VERTEX
  5
6BC
  100
AcDbEntity
  8
Layer 1
  62
0
  100
AcDb2dVertex
  10
2.69699
  20
0.14099
  30
0.00000
  42
0.0260
  70
32
  0
VERTEX
  5
6BD
  100
AcDbEntity
  8
Layer 1
  62
0
  100
AcDb2dVertex
  10
2.66800
  20
0.14250
  30
0.00000
  70
32
  0
VERTEX
  5
6BE
  100
AcDbEntity
  8
Layer 1
  62
0
  100
AcDb2dVertex
  10
2.66023
  20
0.14187
  30
0.00000
  70
32
  0
VERTEX
  5
6BF
  100
AcDbEntity
  8
Layer 1
  62
0
  100
AcDb2dVertex
  10
2.64500
  20
0.14050
  30
0.00000
  70
32
  0
VERTEX
  5
6C0
  100
AcDbEntity
  8
Layer 1
  62
0
  100
AcDb2dVertex
  10
2.62852
  20
0.13898
  30
0.00000
  70
32
  0
VERTEX
  5
6C1
  100
AcDbEntity
  8
Layer 1
  62
0
  100
AcDb2dVertex
  10
2.62300
  20
0.13850
  30
0.00000
  42
-0.0997
  70
32
  0
VERTEX
  5
6C2
  100
AcDbEntity
  8
Layer 1
  62
0
  100
AcDb2dVertex
  10
2.57732
  20
0.14663
  30
0.00000
  42
-0.0413
  70
32
  0
VERTEX
  5
6C3
  100
AcDbEntity
  8
Layer 1
  62
0
  100
AcDb2dVertex
  10
2.56400
  20
0.15350
  30
0.00000
  42
0.0525
  70
32
  0
VERTEX
  5
6C4
  100
AcDbEntity
  8
Layer 1
  62
0
  100
AcDb2dVertex
  10
2.53973
  20
0.16720
  30
0.00000
  42
0.0851
  70
32
  0
VERTEX
  5
6C5
  100
AcDbEntity
  8
Layer 1
  62
0
  100
AcDb2dVertex
  10
2.53400
  20
0.16850
  30
0.00000
  42
0.1653
  70
32
  0
VERTEX
  5
6C6
  100
AcDbEntity
  8
Layer 1
  62
0
  100
AcDb2dVertex
  10
2.51144
  20
0.16002
  30
0.00000
  42
0.0351
  70
32
  0
VERTEX
  5
6C7
  100
AcDbEntity
  8
Layer 1
  62
0
  100
AcDb2dVertex
  10
2.50400
  20
0.15350
  30
0.00000
  70
32
  0
VERTEX
  5
6C8
  100
AcDbEntity
  8
Layer 1
  62
0
  100
AcDb2dVertex
  10
2.47834
  20
0.12525
  30
0.00000
  70
32
  0
VERTEX
  5
6C9
  100
AcDbEntity
  8
Layer 1
  62
0
  100
AcDb2dVertex
  10
2.45400
  20
0.09850
  30
0.00000
  42
-0.0296
  70
32
  0
VERTEX
  5
6CA
  100
AcDbEntity
  8
Layer 1
  62
0
  100
AcDb2dVertex
  10
2.44100
  20
0.05250
  30
0.00000
  70
32
  0
VERTEX
  5
6CB
  100
AcDbEntity
  8
Layer 1
  62
0
  100
AcDb2dVertex
  10
2.42600
  20
0.05250
  30
0.00000
  42
-0.1317
  70
32
  0
VERTEX
  5
6CC
  100
AcDbEntity
  8
Layer 1
  62
0
  100
AcDb2dVertex
  10
2.42045
  20
0.06092
  30
0.00000
  42
-0.0424
  70
32
  0
VERTEX
  5
6CD
  100
AcDbEntity
  8
Layer 1
  62
0
  100
AcDb2dVertex
  10
2.41091
  20
0.09453
  30
0.00000
  70
32
  0
VERTEX
  5
6CE
  100
AcDbEntity
  8
Layer 1
  62
0
  100
AcDb2dVertex
  10
2.40700
  20
0.11350
  30
0.00000
  42
-0.0184
  70
32
  0
VERTEX
  5
6CF
  100
AcDbEntity
  8
Layer 1
  62
0
  100
AcDb2dVertex
  10
2.39921
  20
0.17202
  30
0.00000
  70
32
  0
VERTEX
  5
6D0
  100
AcDbEntity
  8
Layer 1
  62
0
  100
AcDb2dVertex
  10
2.39900
  20
0.17750
  30
0.00000
  42
-0.1481
  70
32
  0
VERTEX
  5
6D1
  100
AcDbEntity
  8
Layer 1
  62
0
  100
AcDb2dVertex
  10
2.40655
  20
0.19922
  30
0.00000
  42
-0.0767
  70
32
  0
VERTEX
  5
6D2
  100
AcDbEntity
  8
Layer 1
  62
0
  100
AcDb2dVertex
  10
2.43189
  20
0.22530
  30
0.00000
  70
32
  0
VERTEX
  5
6D3
  100
AcDbEntity
  8
Layer 1
  62
0
  100
AcDb2dVertex
  10
2.43600
  20
0.22850
  30
0.00000
  42
-0.0694
  70
32
  0
VERTEX
  5
6D4
  100
AcDbEntity
  8
Layer 1
  62
0
  100
AcDb2dVertex
  10
2.47454
  20
0.25228
  30
0.00000
  42
-0.0965
  70
32
  0
VERTEX
  5
6D5
  100
AcDbEntity
  8
Layer 1
  62
0
  100
AcDb2dVertex
  10
2.49800
  20
0.25750
  30
0.00000
  42
-0.0180
  70
32
  0
VERTEX
  5
6D6
  100
AcDbEntity
  8
Layer 1
  62
0
  100
AcDb2dVertex
  10
2.52000
  20
0.25150
  30
0.00000
  70
32
  0
VERTEX
  5
6D7
  100
AcDbEntity
  8
Layer 1
  62
0
  100
AcDb2dVertex
  10
2.53600
  20
0.24700
  30
0.00000
  42
0.0463
  70
32
  0
VERTEX
  5
6D8
  100
AcDbEntity
  8
Layer 1
  62
0
  100
AcDb2dVertex
  10
2.54300
  20
0.24550
  30
0.00000
  42
0.0455
  70
32
  0
VERTEX
  5
6D9
  100
AcDbEntity
  8
Layer 1
  62
0
  100
AcDb2dVertex
  10
2.55600
  20
0.24956
  30
0.00000
  70
32
  0
VERTEX
  5
6DA
  100
AcDbEntity
  8
Layer 1
  62
0
  100
AcDb2dVertex
  10
2.56098
  20
0.25134
  30
0.00000
  70
32
  0
VERTEX
  5
6DB
  100
AcDbEntity
  8
Layer 1
  62
0
  100
AcDb2dVertex
  10
2.56700
  20
0.25350
  30
0.00000
  70
32
  0
VERTEX
  5
6DC
  100
AcDbEntity
  8
Layer 1
  62
0
  100
AcDb2dVertex
  10
2.58350
  20
0.26025
  30
0.00000
  42
-0.0612
  70
32
  0
VERTEX
  5
6DD
  100
AcDbEntity
  8
Layer 1
  62
0
  100
AcDb2dVertex
  10
2.59100
  20
0.26250
  30
0.00000
  42
-0.0920
  70
32
  0
VERTEX
  5
6DE
  100
AcDbEntity
  8
Layer 1
  62
0
  100
AcDb2dVertex
  10
2.60320
  20
0.25867
  30
0.00000
  42
-0.0262
  70
32
  0
VERTEX
  5
6DF
  100
AcDbEntity
  8
Layer 1
  62
0
  100
AcDb2dVertex
  10
2.64669
  20
0.23450
  30
0.00000
  70
32
  0
VERTEX
  5
6E0
  100
AcDbEntity
  8
Layer 1
  62
0
  100
AcDb2dVertex
  10
2.65000
  20
0.23250
  30
0.00000
  42
0.0715
  70
32
  0
VERTEX
  5
6E1
  100
AcDbEntity
  8
Layer 1
  62
0
  100
AcDb2dVertex
  10
2.70704
  20
0.20712
  30
0.00000
  42
0.0649
  70
32
  0
VERTEX
  5
6E2
  100
AcDbEntity
  8
Layer 1
  62
0
  100
AcDb2dVertex
  10
2.74100
  20
0.20250
  30
0.00000
  42
0.0658
  70
32
  0
VERTEX
  5
6E3
  100
AcDbEntity
  8
Layer 1
  62
0
  100
AcDb2dVertex
  10
2.77637
  20
0.20840
  30
0.00000
  42
0.0233
  70
32
  0
VERTEX
  5
6E4
  100
AcDbEntity
  8
Layer 1
  62
0
  100
AcDb2dVertex
  10
2.81800
  20
0.22250
  30
0.00000
  42
-0.0289
  70
32
  0
VERTEX
  5
6E5
  100
AcDbEntity
  8
Layer 1
  62
0
  100
AcDb2dVertex
  10
2.86867
  20
0.24153
  30
0.00000
  42
-0.0601
  70
32
  0
VERTEX
  5
6E6
  100
AcDbEntity
  8
Layer 1
  62
0
  100
AcDb2dVertex
  10
2.87900
  20
0.24350
  30
0.00000
  42
-0.1308
  70
32
  0
VERTEX
  5
6E7
  100
AcDbEntity
  8
Layer 1
  62
0
  100
AcDb2dVertex
  10
2.90603
  20
0.23735
  30
0.00000
  42
-0.1508
  70
32
  0
VERTEX
  5
6E8
  100
AcDbEntity
  8
Layer 1
  62
0
  100
AcDb2dVertex
  10
2.92000
  20
0.22250
  30
0.00000
  42
0.0567
  70
32
  0
VERTEX
  5
6E9
  100
AcDbEntity
  8
Layer 1
  62
0
  100
AcDb2dVertex
  10
2.93125
  20
0.20261
  30
0.00000
  42
0.1834
  70
32
  0
VERTEX
  5
6EA
  100
AcDbEntity
  8
Layer 1
  62
0
  100
AcDb2dVertex
  10
2.93400
  20
0.20050
  30
0.00000
  42
-0.0258
  70
32
  0
VERTEX
  5
6EB
  100
AcDbEntity
  8
Layer 1
  62
0
  100
AcDb2dVertex
  10
2.98343
  20
0.19659
  30
0.00000
  70
32
  0
VERTEX
  5
6EC
  100
AcDbEntity
  8
Layer 1
  62
0
  100
AcDb2dVertex
  10
2.99300
  20
0.19550
  30
0.00000
  42
-0.0085
  70
32
  0
VERTEX
  5
6ED
  100
AcDbEntity
  8
Layer 1
  62
0
  100
AcDb2dVertex
  10
3.02457
  20
0.18189
  30
0.00000
  70
32
  0
VERTEX
  5
6EE
  100
AcDbEntity
  8
Layer 1
  62
0
  100
AcDb2dVertex
  10
3.04600
  20
0.17250
  30
0.00000
  42
0.1140
  70
32
  0
VERTEX
  5
6EF
  100
AcDbEntity
  8
Layer 1
  62
0
  100
AcDb2dVertex
  10
3.10800
  20
0.15850
  30
0.00000
  70
32
  0
VERTEX
  5
6F0
  100
AcDbEntity
  8
Layer 1
  62
0
  100
AcDb2dVertex
  10
3.12002
  20
0.16024
  30
0.00000
  70
32
  0
VERTEX
  5
6F1
  100
AcDbEntity
  8
Layer 1
  62
0
  100
AcDb2dVertex
  10
3.14100
  20
0.16350
  30
0.00000
  42
-0.0341
  70
32
  0
VERTEX
  5
6F2
  100
AcDbEntity
  8
Layer 1
  62
0
  100
AcDb2dVertex
  10
3.17400
  20
0.16850
  30
0.00000
  42
-0.1725
  70
32
  0
VERTEX
  5
6F3
  100
AcDbEntity
  8
Layer 1
  62
0
  100
AcDb2dVertex
  10
3.20500
  20
0.15750
  30
0.00000
  42
0.1092
  70
32
  0
VERTEX
  5
6F4
  100
AcDbEntity
  8
Layer 1
  62
0
  100
AcDb2dVertex
  10
3.22855
  20
0.14787
  30
0.00000
  70
32
  0
VERTEX
  5
6F5
  100
AcDbEntity
  8
Layer 1
  62
0
  100
AcDb2dVertex
  10
3.23400
  20
0.14750
  30
0.00000
  42
0.2012
  70
32
  0
VERTEX
  5
6F6
  100
AcDbEntity
  8
Layer 1
  62
0
  100
AcDb2dVertex
  10
3.25491
  20
0.15693
  30
0.00000
  42
0.0706
  70
32
  0
VERTEX
  5
6F7
  100
AcDbEntity
  8
Layer 1
  62
0
  100
AcDb2dVertex
  10
3.26500
  20
0.17050
  30
0.00000
  42
-0.1126
  70
32
  0
VERTEX
  5
6F8
  100
AcDbEntity
  8
Layer 1
  62
0
  100
AcDb2dVertex
  10
3.28320
  20
0.18911
  30
0.00000
  42
-0.1360
  70
32
  0
VERTEX
  5
6F9
  100
AcDbEntity
  8
Layer 1
  62
0
  100
AcDb2dVertex
  10
3.29900
  20
0.19350
  30
0.00000
  70
32
  0
VERTEX
  5
6FA
  100
AcDbEntity
  8
Layer 1
  62
0
  100
AcDb2dVertex
  10
3.29886
  20
0.19341
  30
0.00000
  42
0.0352
  70
32
  0
VERTEX
  5
6FB
  100
AcDbEntity
  8
Layer 1
  62
0
  100
AcDb2dVertex
  10
3.31000
  20
0.18750
  30
0.00000
  42
0.1202
  70
32
  0
VERTEX
  5
6FC
  100
AcDbEntity
  8
Layer 1
  62
0
  100
AcDb2dVertex
  10
3.33725
  20
0.18062
  30
0.00000
  70
32
  0
VERTEX
  5
6FD
  100
AcDbEntity
  8
Layer 1
  62
0
  100
AcDb2dVertex
  10
3.34300
  20
0.18050
  30
0.00000
  42
0.1628
  70
32
  0
VERTEX
  5
6FE
  100
AcDbEntity
  8
Layer 1
  62
0
  100
AcDb2dVertex
  10
3.38504
  20
0.19338
  30
0.00000
  42
0.0885
  70
32
  0
VERTEX
  5
6FF
  100
AcDbEntity
  8
Layer 1
  62
0
  100
AcDb2dVertex
  10
3.40300
  20
0.21250
  30
0.00000
  42
-0.1010
  70
32
  0
VERTEX
  5
700
  100
AcDbEntity
  8
Layer 1
  62
0
  100
AcDb2dVertex
  10
3.42409
  20
0.23731
  30
0.00000
  42
-0.1628
  70
32
  0
VERTEX
  5
701
  100
AcDbEntity
  8
Layer 1
  62
0
  100
AcDb2dVertex
  10
3.44800
  20
0.24550
  30
0.00000
  70
32
  0
VERTEX
  5
702
  100
AcDbEntity
  8
Layer 1
  62
0
  100
AcDb2dVertex
  10
3.45600
  20
0.24550
  30
0.00000
  70
32
  0
VERTEX
  5
703
  100
AcDbEntity
  8
Layer 1
  62
0
  100
AcDb2dVertex
  10
3.46091
  20
0.24441
  30
0.00000
  42
0.0511
  70
32
  0
VERTEX
  5
704
  100
AcDbEntity
  8
Layer 1
  62
0
  100
AcDb2dVertex
  10
3.46600
  20
0.24350
  30
0.00000
  42
0.1807
  70
32
  0
VERTEX
  5
705
  100
AcDbEntity
  8
Layer 1
  62
0
  100
AcDb2dVertex
  10
3.49400
  20
0.25450
  30
0.00000
  42
0.1533
  70
32
  0
VERTEX
  5
706
  100
AcDbEntity
  8
Layer 1
  62
0
  100
AcDb2dVertex
  10
3.50691
  20
0.27139
  30
0.00000
  42
0.0762
  70
32
  0
VERTEX
  5
707
  100
AcDbEntity
  8
Layer 1
  62
0
  100
AcDb2dVertex
  10
3.50800
  20
0.27850
  30
0.00000
  42
0.0608
  70
32
  0
VERTEX
  5
708
  100
AcDbEntity
  8
Layer 1
  62
0
  100
AcDb2dVertex
  10
3.50389
  20
0.28852
  30
0.00000
  70
32
  0
VERTEX
  5
709
  100
AcDbEntity
  8
Layer 1
  62
0
  100
AcDb2dVertex
  10
3.49400
  20
0.30850
  30
0.00000
  70
32
  0
VERTEX
  5
70A
  100
AcDbEntity
  8
Layer 1
  62
0
  100
AcDb2dVertex
  10
3.48722
  20
0.32352
  30
0.00000
  70
32
  0
VERTEX
  5
70B
  100
AcDbEntity
  8
Layer 1
  62
0
  100
AcDb2dVertex
  10
3.48263
  20
0.33374
  30
0.00000
  42
-0.0681
  70
32
  0
VERTEX
  5
70C
  100
AcDbEntity
  8
Layer 1
  62
0
  100
AcDb2dVertex
  10
3.48100
  20
0.33850
  30
0.00000
  42
-0.2473
  70
32
  0
VERTEX
  5
70D
  100
AcDbEntity
  8
Layer 1
  62
0
  100
AcDb2dVertex
  10
3.48821
  20
0.35447
  30
0.00000
  42
-0.1378
  70
32
  0
VERTEX
  5
70E
  100
AcDbEntity
  8
Layer 1
  62
0
  100
AcDb2dVertex
  10
3.50559
  20
0.36017
  30
0.00000
  70
32
  0
VERTEX
  5
70F
  100
AcDbEntity
  8
Layer 1
  62
0
  100
AcDb2dVertex
  10
3.51300
  20
0.36050
  30
0.00000
  42
-0.1957
  70
32
  0
VERTEX
  5
710
  100
AcDbEntity
  8
Layer 1
  62
0
  100
AcDb2dVertex
  10
3.57200
  20
0.33750
  30
0.00000
  42
-0.1966
  70
32
  0
VERTEX
  5
711
  100
AcDbEntity
  8
Layer 1
  62
0
  100
AcDb2dVertex
  10
3.59594
  20
0.28370
  30
0.00000
  70
32
  0
VERTEX
  5
712
  100
AcDbEntity
  8
Layer 1
  62
0
  100
AcDb2dVertex
  10
3.59600
  20
0.28050
  30
0.00000
  70
32
  0
SEQEND
  5
713
  100
AcDbEntity
  8
Layer 1
  62
0
  0
POLYLINE
  5
714
  100
AcDbEntity
  8
Layer 1
  62
0
  100
AcDb2dPolyline
 66
     1
  10
0
  20
0
  30
0
  70
1
  0
VERTEX
  5
715
  100
AcDbEntity
  8
Layer 1
  62
0
  100
AcDb2dVertex
  10
2.08400
  20
1.43350
  30
0.00000
  42
-0.0363
  70
32
  0
VERTEX
  5
716
  100
AcDbEntity
  8
Layer 1
  62
0
  100
AcDb2dVertex
  10
2.07912
  20
1.35269
  30
0.00000
  42
-0.0283
  70
32
  0
VERTEX
  5
717
  100
AcDbEntity
  8
Layer 1
  62
0
  100
AcDb2dVertex
  10
2.07400
  20
1.32750
  30
0.00000
  42
-0.1030
  70
32
  0
VERTEX
  5
718
  100
AcDbEntity
  8
Layer 1
  62
0
  100
AcDb2dVertex
  10
2.04362
  20
1.33270
  30
0.00000
  42
-0.0388
  70
32
  0
VERTEX
  5
719
  100
AcDbEntity
  8
Layer 1
  62
0
  100
AcDb2dVertex
  10
2.02000
  20
1.34350
  30
0.00000
  70
32
  0
VERTEX
  5
71A
  100
AcDbEntity
  8
Layer 1
  62
0
  100
AcDb2dVertex
  10
1.99807
  20
1.35462
  30
0.00000
  42
0.0293
  70
32
  0
VERTEX
  5
71B
  100
AcDbEntity
  8
Layer 1
  62
0
  100
AcDb2dVertex
  10
1.98600
  20
1.36050
  30
0.00000
  42
0.1482
  70
32
  0
VERTEX
  5
71C
  100
AcDbEntity
  8
Layer 1
  62
0
  100
AcDb2dVertex
  10
1.98080
  20
1.35728
  30
0.00000
  42
0.0289
  70
32
  0
VERTEX
  5
71D
  100
AcDbEntity
  8
Layer 1
  62
0
  100
AcDb2dVertex
  10
1.95751
  20
1.33162
  30
0.00000
  70
32
  0
VERTEX
  5
71E
  100
AcDbEntity
  8
Layer 1
  62
0
  100
AcDb2dVertex
  10
1.94400
  20
1.31550
  30
0.00000
  42
-0.0497
  70
32
  0
VERTEX
  5
71F
  100
AcDbEntity
  8
Layer 1
  62
0
  100
AcDb2dVertex
  10
1.87080
  20
1.24635
  30
0.00000
  42
-0.0182
  70
32
  0
VERTEX
  5
720
  100
AcDbEntity
  8
Layer 1
  62
0
  100
AcDb2dVertex
  10
1.85100
  20
1.23250
  30
0.00000
  42
-0.1292
  70
32
  0
VERTEX
  5
721
  100
AcDbEntity
  8
Layer 1
  62
0
  100
AcDb2dVertex
  10
1.70201
  20
1.18782
  30
0.00000
  70
32
  0
VERTEX
  5
722
  100
AcDbEntity
  8
Layer 1
  62
0
  100
AcDb2dVertex
  10
1.68700
  20
1.18750
  30
0.00000
  42
-0.0858
  70
32
  0
VERTEX
  5
723
  100
AcDbEntity
  8
Layer 1
  62
0
  100
AcDb2dVertex
  10
1.55594
  20
1.20900
  30
0.00000
  42
-0.0705
  70
32
  0
VERTEX
  5
724
  100
AcDbEntity
  8
Layer 1
  62
0
  100
AcDb2dVertex
  10
1.46700
  20
1.25550
  30
0.00000
  42
-0.0352
  70
32
  0
VERTEX
  5
725
  100
AcDbEntity
  8
Layer 1
  62
0
  100
AcDb2dVertex
  10
1.42993
  20
1.28480
  30
0.00000
  42
-0.0955
  70
32
  0
VERTEX
  5
726
  100
AcDbEntity
  8
Layer 1
  62
0
  100
AcDb2dVertex
  10
1.42143
  20
1.29551
  30
0.00000
  70
32
  0
VERTEX
  5
727
  100
AcDbEntity
  8
Layer 1
  62
0
  100
AcDb2dVertex
  10
1.42100
  20
1.29750
  30
0.00000
  42
-0.1819
  70
32
  0
VERTEX
  5
728
  100
AcDbEntity
  8
Layer 1
  62
0
  100
AcDb2dVertex
  10
1.42443
  20
1.30928
  30
0.00000
  42
-0.2179
  70
32
  0
VERTEX
  5
729
  100
AcDbEntity
  8
Layer 1
  62
0
  100
AcDb2dVertex
  10
1.43549
  20
1.31350
  30
0.00000
  70
32
  0
VERTEX
  5
72A
  100
AcDbEntity
  8
Layer 1
  62
0
  100
AcDb2dVertex
  10
1.43600
  20
1.31350
  30
0.00000
  70
32
  0
VERTEX
  5
72B
  100
AcDbEntity
  8
Layer 1
  62
0
  100
AcDb2dVertex
  10
1.43559
  20
1.31337
  30
0.00000
  42
0.1798
  70
32
  0
VERTEX
  5
72C
  100
AcDbEntity
  8
Layer 1
  62
0
  100
AcDb2dVertex
  10
1.43776
  20
1.31135
  30
0.00000
  42
0.0157
  70
32
  0
VERTEX
  5
72D
  100
AcDbEntity
  8
Layer 1
  62
0
  100
AcDb2dVertex
  10
1.47735
  20
1.28878
  30
0.00000
  70
32
  0
VERTEX
  5
72E
  100
AcDbEntity
  8
Layer 1
  62
0
  100
AcDb2dVertex
  10
1.49650
  20
1.27826
  30
0.00000
  70
32
  0
VERTEX
  5
72F
  100
AcDbEntity
  8
Layer 1
  62
0
  100
AcDb2dVertex
  10
1.50700
  20
1.27250
  30
0.00000
  42
0.0891
  70
32
  0
VERTEX
  5
730
  100
AcDbEntity
  8
Layer 1
  62
0
  100
AcDb2dVertex
  10
1.61510
  20
1.23396
  30
0.00000
  42
0.0392
  70
32
  0
VERTEX
  5
731
  100
AcDbEntity
  8
Layer 1
  62
0
  100
AcDb2dVertex
  10
1.65900
  20
1.23050
  30
0.00000
  42
0.0290
  70
32
  0
VERTEX
  5
732
  100
AcDbEntity
  8
Layer 1
  62
0
  100
AcDb2dVertex
  10
1.71165
  20
1.23269
  30
0.00000
  70
32
  0
VERTEX
  5
733
  100
AcDbEntity
  8
Layer 1
  62
0
  100
AcDb2dVertex
  10
1.71700
  20
1.23350
  30
0.00000
  42
0.0484
  70
32
  0
VERTEX
  5
734
  100
AcDbEntity
  8
Layer 1
  62
0
  100
AcDb2dVertex
  10
1.79963
  20
1.26099
  30
0.00000
  42
0.0504
  70
32
  0
VERTEX
  5
735
  100
AcDbEntity
  8
Layer 1
  62
0
  100
AcDb2dVertex
  10
1.84200
  20
1.28550
  30
0.00000
  42
0.0654
  70
32
  0
VERTEX
  5
736
  100
AcDbEntity
  8
Layer 1
  62
0
  100
AcDb2dVertex
  10
1.88681
  20
1.32943
  30
0.00000
  42
0.0410
  70
32
  0
VERTEX
  5
737
  100
AcDbEntity
  8
Layer 1
  62
0
  100
AcDb2dVertex
  10
1.89900
  20
1.34850
  30
0.00000
  70
32
  0
VERTEX
  5
738
  100
AcDbEntity
  8
Layer 1
  62
0
  100
AcDb2dVertex
  10
1.90513
  20
1.36207
  30
0.00000
  42
-0.0110
  70
32
  0
VERTEX
  5
739
  100
AcDbEntity
  8
Layer 1
  62
0
  100
AcDb2dVertex
  10
1.91600
  20
1.38550
  30
0.00000
  42
-0.0430
  70
32
  0
VERTEX
  5
73A
  100
AcDbEntity
  8
Layer 1
  62
0
  100
AcDb2dVertex
  10
1.92057
  20
1.40077
  30
0.00000
  70
32
  0
VERTEX
  5
73B
  100
AcDbEntity
  8
Layer 1
  62
0
  100
AcDb2dVertex
  10
1.92400
  20
1.41050
  30
0.00000
  70
32
  0
VERTEX
  5
73C
  100
AcDbEntity
  8
Layer 1
  62
0
  100
AcDb2dVertex
  10
1.97100
  20
1.40750
  30
0.00000
  70
32
  0
VERTEX
  5
73D
  100
AcDbEntity
  8
Layer 1
  62
0
  100
AcDb2dVertex
  10
1.92400
  20
1.41050
  30
0.00000
  42
0.1077
  70
32
  0
VERTEX
  5
73E
  100
AcDbEntity
  8
Layer 1
  62
0
  100
AcDb2dVertex
  10
1.90782
  20
1.45299
  30
0.00000
  42
0.0660
  70
32
  0
VERTEX
  5
73F
  100
AcDbEntity
  8
Layer 1
  62
0
  100
AcDb2dVertex
  10
1.86867
  20
1.49887
  30
0.00000
  42
0.0321
  70
32
  0
VERTEX
  5
740
  100
AcDbEntity
  8
Layer 1
  62
0
  100
AcDb2dVertex
  10
1.82200
  20
1.53650
  30
0.00000
  42
0.0495
  70
32
  0
VERTEX
  5
741
  100
AcDbEntity
  8
Layer 1
  62
0
  100
AcDb2dVertex
  10
1.74304
  20
1.58383
  30
0.00000
  42
0.0717
  70
32
  0
VERTEX
  5
742
  100
AcDbEntity
  8
Layer 1
  62
0
  100
AcDb2dVertex
  10
1.68111
  20
1.60306
  30
0.00000
  42
0.0293
  70
32
  0
VERTEX
  5
743
  100
AcDbEntity
  8
Layer 1
  62
0
  100
AcDb2dVertex
  10
1.66400
  20
1.60450
  30
0.00000
  42
0.0521
  70
32
  0
VERTEX
  5
744
  100
AcDbEntity
  8
Layer 1
  62
0
  100
AcDb2dVertex
  10
1.56949
  20
1.59365
  30
0.00000
  42
0.0249
  70
32
  0
VERTEX
  5
745
  100
AcDbEntity
  8
Layer 1
  62
0
  100
AcDb2dVertex
  10
1.54100
  20
1.58550
  30
0.00000
  42
0.0649
  70
32
  0
VERTEX
  5
746
  100
AcDbEntity
  8
Layer 1
  62
0
  100
AcDb2dVertex
  10
1.47200
  20
1.55050
  30
0.00000
  42
-0.0621
  70
32
  0
VERTEX
  5
747
  100
AcDbEntity
  8
Layer 1
  62
0
  100
AcDb2dVertex
  10
1.44317
  20
1.53411
  30
0.00000
  42
-0.0822
  70
32
  0
VERTEX
  5
748
  100
AcDbEntity
  8
Layer 1
  62
0
  100
AcDb2dVertex
  10
1.43600
  20
1.53250
  30
0.00000
  42
-0.2464
  70
32
  0
VERTEX
  5
749
  100
AcDbEntity
  8
Layer 1
  62
0
  100
AcDb2dVertex
  10
1.42438
  20
1.53747
  30
0.00000
  42
-0.1613
  70
32
  0
VERTEX
  5
74A
  100
AcDbEntity
  8
Layer 1
  62
0
  100
AcDb2dVertex
  10
1.42100
  20
1.55050
  30
0.00000
  42
-0.1780
  70
32
  0
VERTEX
  5
74B
  100
AcDbEntity
  8
Layer 1
  62
0
  100
AcDb2dVertex
  10
1.43175
  20
1.57816
  30
0.00000
  42
-0.0895
  70
32
  0
VERTEX
  5
74C
  100
AcDbEntity
  8
Layer 1
  62
0
  100
AcDb2dVertex
  10
1.45970
  20
1.60045
  30
0.00000
  42
-0.0529
  70
32
  0
VERTEX
  5
74D
  100
AcDbEntity
  8
Layer 1
  62
0
  100
AcDb2dVertex
  10
1.51493
  20
1.62353
  30
0.00000
  42
-0.0116
  70
32
  0
VERTEX
  5
74E
  100
AcDbEntity
  8
Layer 1
  62
0
  100
AcDb2dVertex
  10
1.53900
  20
1.63050
  30
0.00000
  42
-0.0387
  70
32
  0
VERTEX
  5
74F
  100
AcDbEntity
  8
Layer 1
  62
0
  100
AcDb2dVertex
  10
1.64608
  20
1.65055
  30
0.00000
  42
-0.0242
  70
32
  0
VERTEX
  5
750
  100
AcDbEntity
  8
Layer 1
  62
0
  100
AcDb2dVertex
  10
1.68400
  20
1.65250
  30
0.00000
  42
-0.1402
  70
32
  0
VERTEX
  5
751
  100
AcDbEntity
  8
Layer 1
  62
0
  100
AcDb2dVertex
  10
1.82186
  20
1.61359
  30
0.00000
  42
-0.0134
  70
32
  0
VERTEX
  5
752
  100
AcDbEntity
  8
Layer 1
  62
0
  100
AcDb2dVertex
  10
1.83600
  20
1.60450
  30
0.00000
  42
-0.0437
  70
32
  0
VERTEX
  5
753
  100
AcDbEntity
  8
Layer 1
  62
0
  100
AcDb2dVertex
  10
1.89967
  20
1.54709
  30
0.00000
  42
-0.0136
  70
32
  0
VERTEX
  5
754
  100
AcDbEntity
  8
Layer 1
  62
0
  100
AcDb2dVertex
  10
1.92900
  20
1.51450
  30
0.00000
  42
0.0412
  70
32
  0
VERTEX
  5
755
  100
AcDbEntity
  8
Layer 1
  62
0
  100
AcDb2dVertex
  10
1.96480
  20
1.47855
  30
0.00000
  42
0.0884
  70
32
  0
VERTEX
  5
756
  100
AcDbEntity
  8
Layer 1
  62
0
  100
AcDb2dVertex
  10
1.98174
  20
1.46823
  30
0.00000
  42
0.0756
  70
32
  0
VERTEX
  5
757
  100
AcDbEntity
  8
Layer 1
  62
0
  100
AcDb2dVertex
  10
1.98600
  20
1.46750
  30
0.00000
  42
0.0291
  70
32
  0
VERTEX
  5
758
  100
AcDbEntity
  8
Layer 1
  62
0
  100
AcDb2dVertex
  10
2.00874
  20
1.47559
  30
0.00000
  70
32
  0
VERTEX
  5
759
  100
AcDbEntity
  8
Layer 1
  62
0
  100
AcDb2dVertex
  10
2.02100
  20
1.48050
  30
0.00000
  42
-0.0405
  70
32
  0
VERTEX
  5
75A
  100
AcDbEntity
  8
Layer 1
  62
0
  100
AcDb2dVertex
  10
2.06015
  20
1.49379
  30
0.00000
  70
32
  0
VERTEX
  5
75B
  100
AcDbEntity
  8
Layer 1
  62
0
  100
AcDb2dVertex
  10
2.06400
  20
1.49450
  30
0.00000
  42
-0.2456
  70
32
  0
VERTEX
  5
75C
  100
AcDbEntity
  8
Layer 1
  62
0
  100
AcDb2dVertex
  10
2.07498
  20
1.48710
  30
0.00000
  42
-0.0982
  70
32
  0
VERTEX
  5
75D
  100
AcDbEntity
  8
Layer 1
  62
0
  100
AcDb2dVertex
  10
2.08176
  20
1.46653
  30
0.00000
  42
-0.0404
  70
32
  0
VERTEX
  5
75E
  100
AcDbEntity
  8
Layer 1
  62
0
  100
AcDb2dVertex
  10
2.08400
  20
1.43350
  30
0.00000
  70
32
  0
SEQEND
  5
75F
  100
AcDbEntity
  8
Layer 1
  62
0
  0
POLYLINE
  5
760
  100
AcDbEntity
  8
Layer 1
  62
0
  100
AcDb2dPolyline
 66
     1
  10
0
  20
0
  30
0
  70
1
  0
VERTEX
  5
761
  100
AcDbEntity
  8
Layer 1
  62
0
  100
AcDb2dVertex
  10
1.80900
  20
1.11250
  30
0.00000
  42
-0.1722
  70
32
  0
VERTEX
  5
762
  100
AcDbEntity
  8
Layer 1
  62
0
  100
AcDb2dVertex
  10
1.79837
  20
1.08446
  30
0.00000
  42
-0.0878
  70
32
  0
VERTEX
  5
763
  100
AcDbEntity
  8
Layer 1
  62
0
  100
AcDb2dVertex
  10
1.76988
  20
1.06060
  30
0.00000
  42
-0.0520
  70
32
  0
VERTEX
  5
764
  100
AcDbEntity
  8
Layer 1
  62
0
  100
AcDb2dVertex
  10
1.71344
  20
1.03504
  30
0.00000
  70
32
  0
VERTEX
  5
765
  100
AcDbEntity
  8
Layer 1
  62
0
  100
AcDb2dVertex
  10
1.70600
  20
1.03250
  30
0.00000
  42
-0.0394
  70
32
  0
VERTEX
  5
766
  100
AcDbEntity
  8
Layer 1
  62
0
  100
AcDb2dVertex
  10
1.61811
  20
1.01075
  30
0.00000
  42
-0.0374
  70
32
  0
VERTEX
  5
767
  100
AcDbEntity
  8
Layer 1
  62
0
  100
AcDb2dVertex
  10
1.57900
  20
1.00750
  30
0.00000
  42
-0.0688
  70
32
  0
VERTEX
  5
768
  100
AcDbEntity
  8
Layer 1
  62
0
  100
AcDb2dVertex
  10
1.48525
  20
1.01937
  30
0.00000
  42
-0.0843
  70
32
  0
VERTEX
  5
769
  100
AcDbEntity
  8
Layer 1
  62
0
  100
AcDb2dVertex
  10
1.41400
  20
1.05250
  30
0.00000
  42
-0.0608
  70
32
  0
VERTEX
  5
76A
  100
AcDbEntity
  8
Layer 1
  62
0
  100
AcDb2dVertex
  10
1.36824
  20
1.09581
  30
0.00000
  42
-0.0282
  70
32
  0
VERTEX
  5
76B
  100
AcDbEntity
  8
Layer 1
  62
0
  100
AcDb2dVertex
  10
1.33600
  20
1.13850
  30
0.00000
  42
0.0543
  70
32
  0
VERTEX
  5
76C
  100
AcDbEntity
  8
Layer 1
  62
0
  100
AcDb2dVertex
  10
1.30792
  20
1.17198
  30
0.00000
  42
0.1083
  70
32
  0
VERTEX
  5
76D
  100
AcDbEntity
  8
Layer 1
  62
0
  100
AcDb2dVertex
  10
1.29099
  20
1.18272
  30
0.00000
  42
0.0723
  70
32
  0
VERTEX
  5
76E
  100
AcDbEntity
  8
Layer 1
  62
0
  100
AcDb2dVertex
  10
1.28600
  20
1.18350
  30
0.00000
  42
0.0310
  70
32
  0
VERTEX
  5
76F
  100
AcDbEntity
  8
Layer 1
  62
0
  100
AcDb2dVertex
  10
1.26683
  20
1.17925
  30
0.00000
  70
32
  0
VERTEX
  5
770
  100
AcDbEntity
  8
Layer 1
  62
0
  100
AcDb2dVertex
  10
1.25685
  20
1.17674
  30
0.00000
  70
32
  0
VERTEX
  5
771
  100
AcDbEntity
  8
Layer 1
  62
0
  100
AcDb2dVertex
  10
1.24000
  20
1.17250
  30
0.00000
  42
-0.0297
  70
32
  0
VERTEX
  5
772
  100
AcDbEntity
  8
Layer 1
  62
0
  100
AcDb2dVertex
  10
1.19146
  20
1.16129
  30
0.00000
  42
-0.0337
  70
32
  0
VERTEX
  5
773
  100
AcDbEntity
  8
Layer 1
  62
0
  100
AcDb2dVertex
  10
1.18200
  20
1.16050
  30
0.00000
  42
-0.1588
  70
32
  0
VERTEX
  5
774
  100
AcDbEntity
  8
Layer 1
  62
0
  100
AcDb2dVertex
  10
1.17872
  20
1.16590
  30
0.00000
  42
-0.0460
  70
32
  0
VERTEX
  5
775
  100
AcDbEntity
  8
Layer 1
  62
0
  100
AcDb2dVertex
  10
1.17235
  20
1.19574
  30
0.00000
  42
-0.0113
  70
32
  0
VERTEX
  5
776
  100
AcDbEntity
  8
Layer 1
  62
0
  100
AcDb2dVertex
  10
1.16900
  20
1.22350
  30
0.00000
  70
32
  0
VERTEX
  5
777
  100
AcDbEntity
  8
Layer 1
  62
0
  100
AcDb2dVertex
  10
1.16767
  20
1.23541
  30
0.00000
  70
32
  0
VERTEX
  5
778
  100
AcDbEntity
  8
Layer 1
  62
0
  100
AcDb2dVertex
  10
1.16359
  20
1.27343
  30
0.00000
  42
-0.0221
  70
32
  0
VERTEX
  5
779
  100
AcDbEntity
  8
Layer 1
  62
0
  100
AcDb2dVertex
  10
1.16200
  20
1.29850
  30
0.00000
  42
-0.1466
  70
32
  0
VERTEX
  5
77A
  100
AcDbEntity
  8
Layer 1
  62
0
  100
AcDb2dVertex
  10
1.16667
  20
1.31747
  30
0.00000
  42
-0.2257
  70
32
  0
VERTEX
  5
77B
  100
AcDbEntity
  8
Layer 1
  62
0
  100
AcDb2dVertex
  10
1.18347
  20
1.32715
  30
0.00000
  70
32
  0
VERTEX
  5
77C
  100
AcDbEntity
  8
Layer 1
  62
0
  100
AcDb2dVertex
  10
1.18900
  20
1.32750
  30
0.00000
  42
-0.0406
  70
32
  0
VERTEX
  5
77D
  100
AcDbEntity
  8
Layer 1
  62
0
  100
AcDb2dVertex
  10
1.20536
  20
1.32266
  30
0.00000
  70
32
  0
VERTEX
  5
77E
  100
AcDbEntity
  8
Layer 1
  62
0
  100
AcDb2dVertex
  10
1.22800
  20
1.31450
  30
0.00000
  70
32
  0
VERTEX
  5
77F
  100
AcDbEntity
  8
Layer 1
  62
0
  100
AcDb2dVertex
  10
1.25575
  20
1.30550
  30
0.00000
  42
0.0386
  70
32
  0
VERTEX
  5
780
  100
AcDbEntity
  8
Layer 1
  62
0
  100
AcDb2dVertex
  10
1.26700
  20
1.30250
  30
0.00000
  42
0.1460
  70
32
  0
VERTEX
  5
781
  100
AcDbEntity
  8
Layer 1
  62
0
  100
AcDb2dVertex
  10
1.27644
  20
1.30662
  30
0.00000
  42
0.0562
  70
32
  0
VERTEX
  5
782
  100
AcDbEntity
  8
Layer 1
  62
0
  100
AcDb2dVertex
  10
1.29860
  20
1.32842
  30
0.00000
  42
0.0138
  70
32
  0
VERTEX
  5
783
  100
AcDbEntity
  8
Layer 1
  62
0
  100
AcDb2dVertex
  10
1.31400
  20
1.34750
  30
0.00000
  42
-0.0446
  70
32
  0
VERTEX
  5
784
  100
AcDbEntity
  8
Layer 1
  62
0
  100
AcDb2dVertex
  10
1.37482
  20
1.41332
  30
0.00000
  42
-0.0273
  70
32
  0
VERTEX
  5
785
  100
AcDbEntity
  8
Layer 1
  62
0
  100
AcDb2dVertex
  10
1.39900
  20
1.43250
  30
0.00000
  42
-0.1307
  70
32
  0
VERTEX
  5
786
  100
AcDbEntity
  8
Layer 1
  62
0
  100
AcDb2dVertex
  10
1.52440
  20
1.47637
  30
0.00000
  42
-0.0215
  70
32
  0
VERTEX
  5
787
  100
AcDbEntity
  8
Layer 1
  62
0
  100
AcDb2dVertex
  10
1.55100
  20
1.47750
  30
0.00000
  42
-0.0588
  70
32
  0
VERTEX
  5
788
  100
AcDbEntity
  8
Layer 1
  62
0
  100
AcDb2dVertex
  10
1.62526
  20
1.46756
  30
0.00000
  42
-0.0322
  70
32
  0
VERTEX
  5
789
  100
AcDbEntity
  8
Layer 1
  62
0
  100
AcDb2dVertex
  10
1.70400
  20
1.44250
  30
0.00000
  42
-0.0466
  70
32
  0
VERTEX
  5
78A
  100
AcDbEntity
  8
Layer 1
  62
0
  100
AcDb2dVertex
  10
1.76439
  20
1.41284
  30
0.00000
  42
-0.0791
  70
32
  0
VERTEX
  5
78B
  100
AcDbEntity
  8
Layer 1
  62
0
  100
AcDb2dVertex
  10
1.79434
  20
1.38757
  30
0.00000
  42
-0.1480
  70
32
  0
VERTEX
  5
78C
  100
AcDbEntity
  8
Layer 1
  62
0
  100
AcDb2dVertex
  10
1.80581
  20
1.36223
  30
0.00000
  70
32
  0
VERTEX
  5
78D
  100
AcDbEntity
  8
Layer 1
  62
0
  100
AcDb2dVertex
  10
1.80600
  20
1.35850
  30
0.00000
  42
-0.1890
  70
32
  0
VERTEX
  5
78E
  100
AcDbEntity
  8
Layer 1
  62
0
  100
AcDb2dVertex
  10
1.80198
  20
1.34562
  30
0.00000
  42
-0.1975
  70
32
  0
VERTEX
  5
78F
  100
AcDbEntity
  8
Layer 1
  62
0
  100
AcDb2dVertex
  10
1.78954
  20
1.34058
  30
0.00000
  70
32
  0
VERTEX
  5
790
  100
AcDbEntity
  8
Layer 1
  62
0
  100
AcDb2dVertex
  10
1.78700
  20
1.34050
  30
0.00000
  42
0.9125
  70
32
  0
VERTEX
  5
791
  100
AcDbEntity
  8
Layer 1
  62
0
  100
AcDb2dVertex
  10
1.78742
  20
1.34159
  30
0.00000
  42
0.0609
  70
32
  0
VERTEX
  5
792
  100
AcDbEntity
  8
Layer 1
  62
0
  100
AcDb2dVertex
  10
1.77730
  20
1.35025
  30
0.00000
  42
0.0135
  70
32
  0
VERTEX
  5
793
  100
AcDbEntity
  8
Layer 1
  62
0
  100
AcDb2dVertex
  10
1.72100
  20
1.38850
  30
0.00000
  42
0.0815
  70
32
  0
VERTEX
  5
794
  100
AcDbEntity
  8
Layer 1
  62
0
  100
AcDb2dVertex
  10
1.62966
  20
1.42845
  30
0.00000
  42
0.0601
  70
32
  0
VERTEX
  5
795
  100
AcDbEntity
  8
Layer 1
  62
0
  100
AcDb2dVertex
  10
1.57200
  20
1.43550
  30
0.00000
  42
0.1204
  70
32
  0
VERTEX
  5
796
  100
AcDbEntity
  8
Layer 1
  62
0
  100
AcDb2dVertex
  10
1.46391
  20
1.40837
  30
0.00000
  42
0.0331
  70
32
  0
VERTEX
  5
797
  100
AcDbEntity
  8
Layer 1
  62
0
  100
AcDb2dVertex
  10
1.43100
  20
1.38850
  30
0.00000
  42
0.0922
  70
32
  0
VERTEX
  5
798
  100
AcDbEntity
  8
Layer 1
  62
0
  100
AcDb2dVertex
  10
1.37392
  20
1.33306
  30
0.00000
  42
0.1360
  70
32
  0
VERTEX
  5
799
  100
AcDbEntity
  8
Layer 1
  62
0
  100
AcDb2dVertex
  10
1.34400
  20
1.24750
  30
0.00000
  70
32
  0
VERTEX
  5
79A
  100
AcDbEntity
  8
Layer 1
  62
0
  100
AcDb2dVertex
  10
1.28900
  20
1.24750
  30
0.00000
  70
32
  0
VERTEX
  5
79B
  100
AcDbEntity
  8
Layer 1
  62
0
  100
AcDb2dVertex
  10
1.34400
  20
1.24750
  30
0.00000
  42
0.1742
  70
32
  0
VERTEX
  5
79C
  100
AcDbEntity
  8
Layer 1
  62
0
  100
AcDb2dVertex
  10
1.38720
  20
1.13665
  30
0.00000
  42
0.0550
  70
32
  0
VERTEX
  5
79D
  100
AcDbEntity
  8
Layer 1
  62
0
  100
AcDb2dVertex
  10
1.42600
  20
1.10050
  30
0.00000
  42
0.0900
  70
32
  0
VERTEX
  5
79E
  100
AcDbEntity
  8
Layer 1
  62
0
  100
AcDb2dVertex
  10
1.50563
  20
1.05734
  30
0.00000
  42
0.0773
  70
32
  0
VERTEX
  5
79F
  100
AcDbEntity
  8
Layer 1
  62
0
  100
AcDb2dVertex
  10
1.56900
  20
1.04750
  30
0.00000
  42
0.1148
  70
32
  0
VERTEX
  5
7A0
  100
AcDbEntity
  8
Layer 1
  62
0
  100
AcDb2dVertex
  10
1.70762
  20
1.08013
  30
0.00000
  70
32
  0
VERTEX
  5
7A1
  100
AcDbEntity
  8
Layer 1
  62
0
  100
AcDb2dVertex
  10
1.72200
  20
1.08750
  30
0.00000
  42
0.0125
  70
32
  0
VERTEX
  5
7A2
  100
AcDbEntity
  8
Layer 1
  62
0
  100
AcDb2dVertex
  10
1.79243
  20
1.12635
  30
0.00000
  70
32
  0
VERTEX
  5
7A3
  100
AcDbEntity
  8
Layer 1
  62
0
  100
AcDb2dVertex
  10
1.79400
  20
1.12750
  30
0.00000
  42
-0.1666
  70
32
  0
VERTEX
  5
7A4
  100
AcDbEntity
  8
Layer 1
  62
0
  100
AcDb2dVertex
  10
1.80617
  20
1.12423
  30
0.00000
  70
32
  0
VERTEX
  5
7A5
  100
AcDbEntity
  8
Layer 1
  62
0
  100
AcDb2dVertex
  10
1.80700
  20
1.12350
  30
0.00000
  42
-0.0782
  70
32
  0
VERTEX
  5
7A6
  100
AcDbEntity
  8
Layer 1
  62
0
  100
AcDb2dVertex
  10
1.80900
  20
1.11250
  30
0.00000
  70
32
  0
SEQEND
  5
7A7
  100
AcDbEntity
  8
Layer 1
  62
0
  0
POLYLINE
  5
7A8
  100
AcDbEntity
  8
Layer 1
  62
0
  100
AcDb2dPolyline
 66
     1
  10
0
  20
0
  30
0
  70
1
  0
VERTEX
  5
7A9
  100
AcDbEntity
  8
Layer 1
  62
0
  100
AcDb2dVertex
  10
2.09600
  20
0.94350
  30
0.00000
  42
-0.2811
  70
32
  0
VERTEX
  5
7AA
  100
AcDbEntity
  8
Layer 1
  62
0
  100
AcDb2dVertex
  10
2.07766
  20
0.93254
  30
0.00000
  70
32
  0
VERTEX
  5
7AB
  100
AcDbEntity
  8
Layer 1
  62
0
  100
AcDb2dVertex
  10
2.07600
  20
0.93250
  30
0.00000
  42
-0.1346
  70
32
  0
VERTEX
  5
7AC
  100
AcDbEntity
  8
Layer 1
  62
0
  100
AcDb2dVertex
  10
2.06326
  20
0.93724
  30
0.00000
  42
-0.0582
  70
32
  0
VERTEX
  5
7AD
  100
AcDbEntity
  8
Layer 1
  62
0
  100
AcDb2dVertex
  10
2.03761
  20
0.95945
  30
0.00000
  70
32
  0
VERTEX
  5
7AE
  100
AcDbEntity
  8
Layer 1
  62
0
  100
AcDb2dVertex
  10
2.03100
  20
0.96650
  30
0.00000
  42
0.1369
  70
32
  0
VERTEX
  5
7AF
  100
AcDbEntity
  8
Layer 1
  62
0
  100
AcDb2dVertex
  10
1.98522
  20
0.99642
  30
0.00000
  42
0.0740
  70
32
  0
VERTEX
  5
7B0
  100
AcDbEntity
  8
Layer 1
  62
0
  100
AcDb2dVertex
  10
1.95700
  20
1.00050
  30
0.00000
  42
0.1634
  70
32
  0
VERTEX
  5
7B1
  100
AcDbEntity
  8
Layer 1
  62
0
  100
AcDb2dVertex
  10
1.91763
  20
0.98679
  30
0.00000
  42
0.0829
  70
32
  0
VERTEX
  5
7B2
  100
AcDbEntity
  8
Layer 1
  62
0
  100
AcDb2dVertex
  10
1.88739
  20
0.95421
  30
0.00000
  42
0.0245
  70
32
  0
VERTEX
  5
7B3
  100
AcDbEntity
  8
Layer 1
  62
0
  100
AcDb2dVertex
  10
1.87400
  20
0.93250
  30
0.00000
  42
0.0655
  70
32
  0
VERTEX
  5
7B4
  100
AcDbEntity
  8
Layer 1
  62
0
  100
AcDb2dVertex
  10
1.84991
  20
0.86803
  30
0.00000
  42
0.0774
  70
32
  0
VERTEX
  5
7B5
  100
AcDbEntity
  8
Layer 1
  62
0
  100
AcDb2dVertex
  10
1.84700
  20
0.82550
  30
0.00000
  70
32
  0
VERTEX
  5
7B6
  100
AcDbEntity
  8
Layer 1
  62
0
  100
AcDb2dVertex
  10
1.80200
  20
0.82850
  30
0.00000
  70
32
  0
VERTEX
  5
7B7
  100
AcDbEntity
  8
Layer 1
  62
0
  100
AcDb2dVertex
  10
1.84700
  20
0.82550
  30
0.00000
  42
0.1030
  70
32
  0
VERTEX
  5
7B8
  100
AcDbEntity
  8
Layer 1
  62
0
  100
AcDb2dVertex
  10
1.86051
  20
0.74628
  30
0.00000
  42
0.0581
  70
32
  0
VERTEX
  5
7B9
  100
AcDbEntity
  8
Layer 1
  62
0
  100
AcDb2dVertex
  10
1.87900
  20
0.71250
  30
0.00000
  42
0.1278
  70
32
  0
VERTEX
  5
7BA
  100
AcDbEntity
  8
Layer 1
  62
0
  100
AcDb2dVertex
  10
1.92085
  20
0.67698
  30
0.00000
  42
0.1105
  70
32
  0
VERTEX
  5
7BB
  100
AcDbEntity
  8
Layer 1
  62
0
  100
AcDb2dVertex
  10
1.96600
  20
0.66750
  30
0.00000
  42
0.0863
  70
32
  0
VERTEX
  5
7BC
  100
AcDbEntity
  8
Layer 1
  62
0
  100
AcDb2dVertex
  10
1.99386
  20
0.67359
  30
0.00000
  42
0.0406
  70
32
  0
VERTEX
  5
7BD
  100
AcDbEntity
  8
Layer 1
  62
0
  100
AcDb2dVertex
  10
2.02900
  20
0.69050
  30
0.00000
  42
0.0200
  70
32
  0
VERTEX
  5
7BE
  100
AcDbEntity
  8
Layer 1
  62
0
  100
AcDb2dVertex
  10
2.06829
  20
0.71281
  30
0.00000
  70
32
  0
VERTEX
  5
7BF
  100
AcDbEntity
  8
Layer 1
  62
0
  100
AcDb2dVertex
  10
2.06900
  20
0.71350
  30
0.00000
  42
-0.1899
  70
32
  0
VERTEX
  5
7C0
  100
AcDbEntity
  8
Layer 1
  62
0
  100
AcDb2dVertex
  10
2.08210
  20
0.70938
  30
0.00000
  42
-0.2047
  70
32
  0
VERTEX
  5
7C1
  100
AcDbEntity
  8
Layer 1
  62
0
  100
AcDb2dVertex
  10
2.08698
  20
0.69676
  30
0.00000
  70
32
  0
VERTEX
  5
7C2
  100
AcDbEntity
  8
Layer 1
  62
0
  100
AcDb2dVertex
  10
2.08700
  20
0.69550
  30
0.00000
  42
-0.1795
  70
32
  0
VERTEX
  5
7C3
  100
AcDbEntity
  8
Layer 1
  62
0
  100
AcDb2dVertex
  10
2.07959
  20
0.67778
  30
0.00000
  42
-0.0851
  70
32
  0
VERTEX
  5
7C4
  100
AcDbEntity
  8
Layer 1
  62
0
  100
AcDb2dVertex
  10
2.05601
  20
0.65939
  30
0.00000
  42
-0.0289
  70
32
  0
VERTEX
  5
7C5
  100
AcDbEntity
  8
Layer 1
  62
0
  100
AcDb2dVertex
  10
2.03200
  20
0.64750
  30
0.00000
  42
-0.0478
  70
32
  0
VERTEX
  5
7C6
  100
AcDbEntity
  8
Layer 1
  62
0
  100
AcDb2dVertex
  10
1.98293
  20
0.62979
  30
0.00000
  42
-0.0552
  70
32
  0
VERTEX
  5
7C7
  100
AcDbEntity
  8
Layer 1
  62
0
  100
AcDb2dVertex
  10
1.96600
  20
0.62750
  30
0.00000
  42
-0.0869
  70
32
  0
VERTEX
  5
7C8
  100
AcDbEntity
  8
Layer 1
  62
0
  100
AcDb2dVertex
  10
1.90745
  20
0.63668
  30
0.00000
  42
-0.1120
  70
32
  0
VERTEX
  5
7C9
  100
AcDbEntity
  8
Layer 1
  62
0
  100
AcDb2dVertex
  10
1.86200
  20
0.66550
  30
0.00000
  42
-0.0556
  70
32
  0
VERTEX
  5
7CA
  100
AcDbEntity
  8
Layer 1
  62
0
  100
AcDb2dVertex
  10
1.83825
  20
0.69738
  30
0.00000
  42
-0.0190
  70
32
  0
VERTEX
  5
7CB
  100
AcDbEntity
  8
Layer 1
  62
0
  100
AcDb2dVertex
  10
1.81700
  20
0.73550
  30
0.00000
  42
0.0715
  70
32
  0
VERTEX
  5
7CC
  100
AcDbEntity
  8
Layer 1
  62
0
  100
AcDb2dVertex
  10
1.80134
  20
0.76327
  30
0.00000
  42
0.1523
  70
32
  0
VERTEX
  5
7CD
  100
AcDbEntity
  8
Layer 1
  62
0
  100
AcDb2dVertex
  10
1.78810
  20
0.77294
  30
0.00000
  42
0.0672
  70
32
  0
VERTEX
  5
7CE
  100
AcDbEntity
  8
Layer 1
  62
0
  100
AcDb2dVertex
  10
1.78400
  20
0.77350
  30
0.00000
  42
0.0941
  70
32
  0
VERTEX
  5
7CF
  100
AcDbEntity
  8
Layer 1
  62
0
  100
AcDb2dVertex
  10
1.76329
  20
0.76826
  30
0.00000
  42
0.0325
  70
32
  0
VERTEX
  5
7D0
  100
AcDbEntity
  8
Layer 1
  62
0
  100
AcDb2dVertex
  10
1.74200
  20
0.75750
  30
0.00000
  42
-0.0651
  70
32
  0
VERTEX
  5
7D1
  100
AcDbEntity
  8
Layer 1
  62
0
  100
AcDb2dVertex
  10
1.70736
  20
0.74447
  30
0.00000
  42
-0.0693
  70
32
  0
VERTEX
  5
7D2
  100
AcDbEntity
  8
Layer 1
  62
0
  100
AcDb2dVertex
  10
1.69400
  20
0.74350
  30
0.00000
  42
-0.1128
  70
32
  0
VERTEX
  5
7D3
  100
AcDbEntity
  8
Layer 1
  62
0
  100
AcDb2dVertex
  10
1.68717
  20
0.75833
  30
0.00000
  42
-0.0488
  70
32
  0
VERTEX
  5
7D4
  100
AcDbEntity
  8
Layer 1
  62
0
  100
AcDb2dVertex
  10
1.68190
  20
0.79846
  30
0.00000
  42
-0.0138
  70
32
  0
VERTEX
  5
7D5
  100
AcDbEntity
  8
Layer 1
  62
0
  100
AcDb2dVertex
  10
1.68100
  20
0.83550
  30
0.00000
  42
-0.0383
  70
32
  0
VERTEX
  5
7D6
  100
AcDbEntity
  8
Layer 1
  62
0
  100
AcDb2dVertex
  10
1.68508
  20
0.90097
  30
0.00000
  42
-0.0352
  70
32
  0
VERTEX
  5
7D7
  100
AcDbEntity
  8
Layer 1
  62
0
  100
AcDb2dVertex
  10
1.68900
  20
0.91850
  30
0.00000
  42
-0.1677
  70
32
  0
VERTEX
  5
7D8
  100
AcDbEntity
  8
Layer 1
  62
0
  100
AcDb2dVertex
  10
1.70557
  20
0.91689
  30
0.00000
  42
-0.0664
  70
32
  0
VERTEX
  5
7D9
  100
AcDbEntity
  8
Layer 1
  62
0
  100
AcDb2dVertex
  10
1.72800
  20
0.90350
  30
0.00000
  42
0.0794
  70
32
  0
VERTEX
  5
7DA
  100
AcDbEntity
  8
Layer 1
  62
0
  100
AcDb2dVertex
  10
1.75625
  20
0.88608
  30
0.00000
  42
0.0886
  70
32
  0
VERTEX
  5
7DB
  100
AcDbEntity
  8
Layer 1
  62
0
  100
AcDb2dVertex
  10
1.76900
  20
0.88350
  30
0.00000
  42
0.2163
  70
32
  0
VERTEX
  5
7DC
  100
AcDbEntity
  8
Layer 1
  62
0
  100
AcDb2dVertex
  10
1.78746
  20
0.89230
  30
0.00000
  42
0.0904
  70
32
  0
VERTEX
  5
7DD
  100
AcDbEntity
  8
Layer 1
  62
0
  100
AcDb2dVertex
  10
1.80113
  20
0.91579
  30
0.00000
  70
32
  0
VERTEX
  5
7DE
  100
AcDbEntity
  8
Layer 1
  62
0
  100
AcDb2dVertex
  10
1.80400
  20
0.92350
  30
0.00000
  42
-0.0475
  70
32
  0
VERTEX
  5
7DF
  100
AcDbEntity
  8
Layer 1
  62
0
  100
AcDb2dVertex
  10
1.82968
  20
0.98005
  30
0.00000
  42
-0.0416
  70
32
  0
VERTEX
  5
7E0
  100
AcDbEntity
  8
Layer 1
  62
0
  100
AcDb2dVertex
  10
1.84200
  20
0.99750
  30
0.00000
  42
-0.1244
  70
32
  0
VERTEX
  5
7E1
  100
AcDbEntity
  8
Layer 1
  62
0
  100
AcDb2dVertex
  10
1.89593
  20
1.02885
  30
0.00000
  42
-0.0741
  70
32
  0
VERTEX
  5
7E2
  100
AcDbEntity
  8
Layer 1
  62
0
  100
AcDb2dVertex
  10
1.96100
  20
1.03750
  30
0.00000
  42
-0.1244
  70
32
  0
VERTEX
  5
7E3
  100
AcDbEntity
  8
Layer 1
  62
0
  100
AcDb2dVertex
  10
2.03220
  20
1.01887
  30
0.00000
  42
-0.0230
  70
32
  0
VERTEX
  5
7E4
  100
AcDbEntity
  8
Layer 1
  62
0
  100
AcDb2dVertex
  10
2.04800
  20
1.00950
  30
0.00000
  42
-0.0961
  70
32
  0
VERTEX
  5
7E5
  100
AcDbEntity
  8
Layer 1
  62
0
  100
AcDb2dVertex
  10
2.08164
  20
0.98066
  30
0.00000
  42
-0.1463
  70
32
  0
VERTEX
  5
7E6
  100
AcDbEntity
  8
Layer 1
  62
0
  100
AcDb2dVertex
  10
2.09600
  20
0.94350
  30
0.00000
  70
32
  0
SEQEND
  5
7E7
  100
AcDbEntity
  8
Layer 1
  62
0
  0
POLYLINE
  5
7E8
  100
AcDbEntity
  8
Layer 1
  62
0
  100
AcDb2dPolyline
 66
     1
  10
0
  20
0
  30
0
  70
1
  0
VERTEX
  5
7E9
  100
AcDbEntity
  8
Layer 1
  62
0
  100
AcDb2dVertex
  10
2.07100
  20
0.34350
  30
0.00000
  42
-0.1455
  70
32
  0
VERTEX
  5
7EA
  100
AcDbEntity
  8
Layer 1
  62
0
  100
AcDb2dVertex
  10
2.06724
  20
0.32756
  30
0.00000
  42
-0.2492
  70
32
  0
VERTEX
  5
7EB
  100
AcDbEntity
  8
Layer 1
  62
0
  100
AcDb2dVertex
  10
2.05367
  20
0.32055
  30
0.00000
  70
32
  0
VERTEX
  5
7EC
  100
AcDbEntity
  8
Layer 1
  62
0
  100
AcDb2dVertex
  10
2.05200
  20
0.32050
  30
0.00000
  70
32
  0
VERTEX
  5
7ED
  100
AcDbEntity
  8
Layer 1
  62
0
  100
AcDb2dVertex
  10
1.97400
  20
0.32050
  30
0.00000
  42
0.1821
  70
32
  0
VERTEX
  5
7EE
  100
AcDbEntity
  8
Layer 1
  62
0
  100
AcDb2dVertex
  10
1.96372
  20
0.31532
  30
0.00000
  42
0.0696
  70
32
  0
VERTEX
  5
7EF
  100
AcDbEntity
  8
Layer 1
  62
0
  100
AcDb2dVertex
  10
1.95600
  20
0.30550
  30
0.00000
  42
0.0841
  70
32
  0
VERTEX
  5
7F0
  100
AcDbEntity
  8
Layer 1
  62
0
  100
AcDb2dVertex
  10
1.94661
  20
0.28775
  30
0.00000
  42
0.0642
  70
32
  0
VERTEX
  5
7F1
  100
AcDbEntity
  8
Layer 1
  62
0
  100
AcDb2dVertex
  10
1.94600
  20
0.28350
  30
0.00000
  42
-0.0448
  70
32
  0
VERTEX
  5
7F2
  100
AcDbEntity
  8
Layer 1
  62
0
  100
AcDb2dVertex
  10
1.94944
  20
0.22098
  30
0.00000
  42
-0.0158
  70
32
  0
VERTEX
  5
7F3
  100
AcDbEntity
  8
Layer 1
  62
0
  100
AcDb2dVertex
  10
1.94700
  20
0.17550
  30
0.00000
  42
-0.1285
  70
32
  0
VERTEX
  5
7F4
  100
AcDbEntity
  8
Layer 1
  62
0
  100
AcDb2dVertex
  10
1.89634
  20
0.09223
  30
0.00000
  42
-0.0568
  70
32
  0
VERTEX
  5
7F5
  100
AcDbEntity
  8
Layer 1
  62
0
  100
AcDb2dVertex
  10
1.86100
  20
0.06550
  30
0.00000
  42
-0.1198
  70
32
  0
VERTEX
  5
7F6
  100
AcDbEntity
  8
Layer 1
  62
0
  100
AcDb2dVertex
  10
1.75939
  20
0.03337
  30
0.00000
  42
-0.0197
  70
32
  0
VERTEX
  5
7F7
  100
AcDbEntity
  8
Layer 1
  62
0
  100
AcDb2dVertex
  10
1.73700
  20
0.03250
  30
0.00000
  42
-0.0530
  70
32
  0
VERTEX
  5
7F8
  100
AcDbEntity
  8
Layer 1
  62
0
  100
AcDb2dVertex
  10
1.69448
  20
0.03607
  30
0.00000
  42
-0.0318
  70
32
  0
VERTEX
  5
7F9
  100
AcDbEntity
  8
Layer 1
  62
0
  100
AcDb2dVertex
  10
1.68600
  20
0.03850
  30
0.00000
  70
32
  0
VERTEX
  5
7FA
  100
AcDbEntity
  8
Layer 1
  62
0
  100
AcDb2dVertex
  10
1.68600
  20
0.05850
  30
0.00000
  42
-0.2451
  70
32
  0
VERTEX
  5
7FB
  100
AcDbEntity
  8
Layer 1
  62
0
  100
AcDb2dVertex
  10
1.69180
  20
0.06542
  30
0.00000
  42
-0.0840
  70
32
  0
VERTEX
  5
7FC
  100
AcDbEntity
  8
Layer 1
  62
0
  100
AcDb2dVertex
  10
1.71109
  20
0.07059
  30
0.00000
  70
32
  0
VERTEX
  5
7FD
  100
AcDbEntity
  8
Layer 1
  62
0
  100
AcDb2dVertex
  10
1.71900
  20
0.07150
  30
0.00000
  42
0.0272
  70
32
  0
VERTEX
  5
7FE
  100
AcDbEntity
  8
Layer 1
  62
0
  100
AcDb2dVertex
  10
1.77900
  20
0.07750
  30
0.00000
  42
0.1483
  70
32
  0
VERTEX
  5
7FF
  100
AcDbEntity
  8
Layer 1
  62
0
  100
AcDb2dVertex
  10
1.84782
  20
0.10842
  30
0.00000
  42
0.0395
  70
32
  0
VERTEX
  5
800
  100
AcDbEntity
  8
Layer 1
  62
0
  100
AcDb2dVertex
  10
1.86700
  20
0.12750
  30
0.00000
  42
0.0836
  70
32
  0
VERTEX
  5
801
  100
AcDbEntity
  8
Layer 1
  62
0
  100
AcDb2dVertex
  10
1.89658
  20
0.17616
  30
0.00000
  42
0.0913
  70
32
  0
VERTEX
  5
802
  100
AcDbEntity
  8
Layer 1
  62
0
  100
AcDb2dVertex
  10
1.90400
  20
0.21550
  30
0.00000
  42
0.0892
  70
32
  0
VERTEX
  5
803
  100
AcDbEntity
  8
Layer 1
  62
0
  100
AcDb2dVertex
  10
1.89763
  20
0.24406
  30
0.00000
  42
0.0486
  70
32
  0
VERTEX
  5
804
  100
AcDbEntity
  8
Layer 1
  62
0
  100
AcDb2dVertex
  10
1.87168
  20
0.29344
  30
0.00000
  42
0.0109
  70
32
  0
VERTEX
  5
805
  100
AcDbEntity
  8
Layer 1
  62
0
  100
AcDb2dVertex
  10
1.85700
  20
0.31550
  30
0.00000
  70
32
  0
VERTEX
  5
806
  100
AcDbEntity
  8
Layer 1
  62
0
  100
AcDb2dVertex
  10
1.91200
  20
0.35050
  30
0.00000
  70
32
  0
VERTEX
  5
807
  100
AcDbEntity
  8
Layer 1
  62
0
  100
AcDb2dVertex
  10
1.85700
  20
0.31550
  30
0.00000
  70
32
  0
VERTEX
  5
808
  100
AcDbEntity
  8
Layer 1
  62
0
  100
AcDb2dVertex
  10
1.81200
  20
0.35750
  30
0.00000
  42
0.0580
  70
32
  0
VERTEX
  5
809
  100
AcDbEntity
  8
Layer 1
  62
0
  100
AcDb2dVertex
  10
1.76849
  20
0.38852
  30
0.00000
  42
0.1019
  70
32
  0
VERTEX
  5
80A
  100
AcDbEntity
  8
Layer 1
  62
0
  100
AcDb2dVertex
  10
1.73748
  20
0.39838
  30
0.00000
  70
32
  0
VERTEX
  5
80B
  100
AcDbEntity
  8
Layer 1
  62
0
  100
AcDb2dVertex
  10
1.73400
  20
0.39850
  30
0.00000
  42
0.1120
  70
32
  0
VERTEX
  5
80C
  100
AcDbEntity
  8
Layer 1
  62
0
  100
AcDb2dVertex
  10
1.67046
  20
0.38522
  30
0.00000
  42
0.0767
  70
32
  0
VERTEX
  5
80D
  100
AcDbEntity
  8
Layer 1
  62
0
  100
AcDb2dVertex
  10
1.63700
  20
0.36250
  30
0.00000
  42
0.0595
  70
32
  0
VERTEX
  5
80E
  100
AcDbEntity
  8
Layer 1
  62
0
  100
AcDb2dVertex
  10
1.60649
  20
0.32179
  30
0.00000
  42
0.0197
  70
32
  0
VERTEX
  5
80F
  100
AcDbEntity
  8
Layer 1
  62
0
  100
AcDb2dVertex
  10
1.59100
  20
0.29350
  30
0.00000
  42
-0.0572
  70
32
  0
VERTEX
  5
810
  100
AcDbEntity
  8
Layer 1
  62
0
  100
AcDb2dVertex
  10
1.57180
  20
0.26629
  30
0.00000
  42
-0.1394
  70
32
  0
VERTEX
  5
811
  100
AcDbEntity
  8
Layer 1
  62
0
  100
AcDb2dVertex
  10
1.55913
  20
0.25788
  30
0.00000
  70
32
  0
VERTEX
  5
812
  100
AcDbEntity
  8
Layer 1
  62
0
  100
AcDb2dVertex
  10
1.55600
  20
0.25750
  30
0.00000
  42
-0.3777
  70
32
  0
VERTEX
  5
813
  100
AcDbEntity
  8
Layer 1
  62
0
  100
AcDb2dVertex
  10
1.54294
  20
0.26757
  30
0.00000
  42
-0.0664
  70
32
  0
VERTEX
  5
814
  100
AcDbEntity
  8
Layer 1
  62
0
  100
AcDb2dVertex
  10
1.54200
  20
0.27550
  30
0.00000
  42
-0.1791
  70
32
  0
VERTEX
  5
815
  100
AcDbEntity
  8
Layer 1
  62
0
  100
AcDb2dVertex
  10
1.57390
  20
0.36277
  30
0.00000
  42
-0.0490
  70
32
  0
VERTEX
  5
816
  100
AcDbEntity
  8
Layer 1
  62
0
  100
AcDb2dVertex
  10
1.59900
  20
0.38750
  30
0.00000
  42
-0.0840
  70
32
  0
VERTEX
  5
817
  100
AcDbEntity
  8
Layer 1
  62
0
  100
AcDb2dVertex
  10
1.66033
  20
0.42487
  30
0.00000
  42
-0.0925
  70
32
  0
VERTEX
  5
818
  100
AcDbEntity
  8
Layer 1
  62
0
  100
AcDb2dVertex
  10
1.71700
  20
0.43550
  30
0.00000
  42
-0.0943
  70
32
  0
VERTEX
  5
819
  100
AcDbEntity
  8
Layer 1
  62
0
  100
AcDb2dVertex
  10
1.81200
  20
0.41650
  30
0.00000
  42
0.0273
  70
32
  0
VERTEX
  5
81A
  100
AcDbEntity
  8
Layer 1
  62
0
  100
AcDb2dVertex
  10
1.86246
  20
0.39940
  30
0.00000
  42
0.0560
  70
32
  0
VERTEX
  5
81B
  100
AcDbEntity
  8
Layer 1
  62
0
  100
AcDb2dVertex
  10
1.87400
  20
0.39750
  30
0.00000
  42
0.1539
  70
32
  0
VERTEX
  5
81C
  100
AcDbEntity
  8
Layer 1
  62
0
  100
AcDb2dVertex
  10
1.88805
  20
0.40300
  30
0.00000
  42
0.0707
  70
32
  0
VERTEX
  5
81D
  100
AcDbEntity
  8
Layer 1
  62
0
  100
AcDb2dVertex
  10
1.90967
  20
0.42525
  30
0.00000
  42
0.0179
  70
32
  0
VERTEX
  5
81E
  100
AcDbEntity
  8
Layer 1
  62
0
  100
AcDb2dVertex
  10
1.92200
  20
0.44250
  30
0.00000
  42
-0.0580
  70
32
  0
VERTEX
  5
81F
  100
AcDbEntity
  8
Layer 1
  62
0
  100
AcDb2dVertex
  10
1.94675
  20
0.47555
  30
0.00000
  42
-0.1176
  70
32
  0
VERTEX
  5
820
  100
AcDbEntity
  8
Layer 1
  62
0
  100
AcDb2dVertex
  10
1.96443
  20
0.48744
  30
0.00000
  42
-0.0769
  70
32
  0
VERTEX
  5
821
  100
AcDbEntity
  8
Layer 1
  62
0
  100
AcDb2dVertex
  10
1.97100
  20
0.48850
  30
0.00000
  42
-0.1541
  70
32
  0
VERTEX
  5
822
  100
AcDbEntity
  8
Layer 1
  62
0
  100
AcDb2dVertex
  10
1.98333
  20
0.48349
  30
0.00000
  42
-0.0675
  70
32
  0
VERTEX
  5
823
  100
AcDbEntity
  8
Layer 1
  62
0
  100
AcDb2dVertex
  10
2.00432
  20
0.46178
  30
0.00000
  42
-0.0277
  70
32
  0
VERTEX
  5
824
  100
AcDbEntity
  8
Layer 1
  62
0
  100
AcDb2dVertex
  10
2.03100
  20
0.42250
  30
0.00000
  42
-0.0167
  70
32
  0
VERTEX
  5
825
  100
AcDbEntity
  8
Layer 1
  62
0
  100
AcDb2dVertex
  10
2.06465
  20
0.36130
  30
0.00000
  42
-0.0659
  70
32
  0
VERTEX
  5
826
  100
AcDbEntity
  8
Layer 1
  62
0
  100
AcDb2dVertex
  10
2.07090
  20
0.34479
  30
0.00000
  70
32
  0
VERTEX
  5
827
  100
AcDbEntity
  8
Layer 1
  62
0
  100
AcDb2dVertex
  10
2.07100
  20
0.34350
  30
0.00000
  70
32
  0
SEQEND
  5
828
  100
AcDbEntity
  8
Layer 1
  62
0
  0
POLYLINE
  5
829
  100
AcDbEntity
  8
Layer 1
  62
0
  100
AcDb2dPolyline
 66
     1
  10
0
  20
0
  30
0
  70
1
  0
VERTEX
  5
82A
  100
AcDbEntity
  8
Layer 1
  62
0
  100
AcDb2dVertex
  10
1.10700
  20
1.36750
  30
0.00000
  42
-0.0392
  70
32
  0
VERTEX
  5
82B
  100
AcDbEntity
  8
Layer 1
  62
0
  100
AcDb2dVertex
  10
1.10016
  20
1.29463
  30
0.00000
  70
32
  0
VERTEX
  5
82C
  100
AcDbEntity
  8
Layer 1
  62
0
  100
AcDb2dVertex
  10
1.09900
  20
1.28750
  30
0.00000
  42
-0.0555
  70
32
  0
VERTEX
  5
82D
  100
AcDbEntity
  8
Layer 1
  62
0
  100
AcDb2dVertex
  10
1.08624
  20
1.24241
  30
0.00000
  42
-0.1057
  70
32
  0
VERTEX
  5
82E
  100
AcDbEntity
  8
Layer 1
  62
0
  100
AcDb2dVertex
  10
1.07262
  20
1.22186
  30
0.00000
  42
-0.1898
  70
32
  0
VERTEX
  5
82F
  100
AcDbEntity
  8
Layer 1
  62
0
  100
AcDb2dVertex
  10
1.05700
  20
1.21550
  30
0.00000
  42
-0.2150
  70
32
  0
VERTEX
  5
830
  100
AcDbEntity
  8
Layer 1
  62
0
  100
AcDb2dVertex
  10
1.04368
  20
1.22043
  30
0.00000
  42
-0.1821
  70
32
  0
VERTEX
  5
831
  100
AcDbEntity
  8
Layer 1
  62
0
  100
AcDb2dVertex
  10
1.03902
  20
1.23431
  30
0.00000
  70
32
  0
VERTEX
  5
832
  100
AcDbEntity
  8
Layer 1
  62
0
  100
AcDb2dVertex
  10
1.03900
  20
1.23550
  30
0.00000
  70
32
  0
VERTEX
  5
833
  100
AcDbEntity
  8
Layer 1
  62
0
  100
AcDb2dVertex
  10
1.03903
  20
1.23533
  30
0.00000
  42
0.0576
  70
32
  0
VERTEX
  5
834
  100
AcDbEntity
  8
Layer 1
  62
0
  100
AcDb2dVertex
  10
1.04195
  20
1.24256
  30
0.00000
  70
32
  0
VERTEX
  5
835
  100
AcDbEntity
  8
Layer 1
  62
0
  100
AcDb2dVertex
  10
1.04786
  20
1.25932
  30
0.00000
  70
32
  0
VERTEX
  5
836
  100
AcDbEntity
  8
Layer 1
  62
0
  100
AcDb2dVertex
  10
1.05600
  20
1.28250
  30
0.00000
  42
0.0674
  70
32
  0
VERTEX
  5
837
  100
AcDbEntity
  8
Layer 1
  62
0
  100
AcDb2dVertex
  10
1.06700
  20
1.36350
  30
0.00000
  42
0.1046
  70
32
  0
VERTEX
  5
838
  100
AcDbEntity
  8
Layer 1
  62
0
  100
AcDb2dVertex
  10
1.04857
  20
1.45613
  30
0.00000
  42
0.1102
  70
32
  0
VERTEX
  5
839
  100
AcDbEntity
  8
Layer 1
  62
0
  100
AcDb2dVertex
  10
0.99100
  20
1.53350
  30
0.00000
  42
0.0899
  70
32
  0
VERTEX
  5
83A
  100
AcDbEntity
  8
Layer 1
  62
0
  100
AcDb2dVertex
  10
0.90650
  20
1.58477
  30
0.00000
  42
0.0905
  70
32
  0
VERTEX
  5
83B
  100
AcDbEntity
  8
Layer 1
  62
0
  100
AcDb2dVertex
  10
0.81700
  20
1.60050
  30
0.00000
  42
0.0901
  70
32
  0
VERTEX
  5
83C
  100
AcDbEntity
  8
Layer 1
  62
0
  100
AcDb2dVertex
  10
0.72564
  20
1.58500
  30
0.00000
  42
0.1317
  70
32
  0
VERTEX
  5
83D
  100
AcDbEntity
  8
Layer 1
  62
0
  100
AcDb2dVertex
  10
0.63184
  20
1.51772
  30
0.00000
  42
0.0178
  70
32
  0
VERTEX
  5
83E
  100
AcDbEntity
  8
Layer 1
  62
0
  100
AcDb2dVertex
  10
0.62000
  20
1.50250
  30
0.00000
  42
0.1232
  70
32
  0
VERTEX
  5
83F
  100
AcDbEntity
  8
Layer 1
  62
0
  100
AcDb2dVertex
  10
0.56393
  20
1.36310
  30
0.00000
  42
0.0364
  70
32
  0
VERTEX
  5
840
  100
AcDbEntity
  8
Layer 1
  62
0
  100
AcDb2dVertex
  10
0.56000
  20
1.30750
  30
0.00000
  42
0.1054
  70
32
  0
VERTEX
  5
841
  100
AcDbEntity
  8
Layer 1
  62
0
  100
AcDb2dVertex
  10
0.58421
  20
1.19770
  30
0.00000
  42
0.0517
  70
32
  0
VERTEX
  5
842
  100
AcDbEntity
  8
Layer 1
  62
0
  100
AcDb2dVertex
  10
0.62200
  20
1.13250
  30
0.00000
  42
0.0676
  70
32
  0
VERTEX
  5
843
  100
AcDbEntity
  8
Layer 1
  62
0
  100
AcDb2dVertex
  10
0.67059
  20
1.07885
  30
0.00000
  42
0.1065
  70
32
  0
VERTEX
  5
844
  100
AcDbEntity
  8
Layer 1
  62
0
  100
AcDb2dVertex
  10
0.72540
  20
1.04967
  30
0.00000
  42
0.0660
  70
32
  0
VERTEX
  5
845
  100
AcDbEntity
  8
Layer 1
  62
0
  100
AcDb2dVertex
  10
0.75700
  20
1.04550
  30
0.00000
  42
0.2473
  70
32
  0
VERTEX
  5
846
  100
AcDbEntity
  8
Layer 1
  62
0
  100
AcDb2dVertex
  10
0.80257
  20
1.06852
  30
0.00000
  70
32
  0
VERTEX
  5
847
  100
AcDbEntity
  8
Layer 1
  62
0
  100
AcDb2dVertex
  10
0.80600
  20
1.07350
  30
0.00000
  42
-0.0953
  70
32
  0
VERTEX
  5
848
  100
AcDbEntity
  8
Layer 1
  62
0
  100
AcDb2dVertex
  10
0.82710
  20
1.09471
  30
0.00000
  42
-0.1437
  70
32
  0
VERTEX
  5
849
  100
AcDbEntity
  8
Layer 1
  62
0
  100
AcDb2dVertex
  10
0.84600
  20
1.10050
  30
0.00000
  42
-0.0611
  70
32
  0
VERTEX
  5
84A
  100
AcDbEntity
  8
Layer 1
  62
0
  100
AcDb2dVertex
  10
0.85873
  20
1.09668
  30
0.00000
  42
-0.0095
  70
32
  0
VERTEX
  5
84B
  100
AcDbEntity
  8
Layer 1
  62
0
  100
AcDb2dVertex
  10
0.87900
  20
1.08850
  30
0.00000
  42
0.0518
  70
32
  0
VERTEX
  5
84C
  100
AcDbEntity
  8
Layer 1
  62
0
  100
AcDb2dVertex
  10
0.91598
  20
1.07809
  30
0.00000
  42
0.0338
  70
32
  0
VERTEX
  5
84D
  100
AcDbEntity
  8
Layer 1
  62
0
  100
AcDb2dVertex
  10
0.92400
  20
1.07750
  30
0.00000
  42
0.0239
  70
32
  0
VERTEX
  5
84E
  100
AcDbEntity
  8
Layer 1
  62
0
  100
AcDb2dVertex
  10
0.95426
  20
1.08356
  30
0.00000
  70
32
  0
VERTEX
  5
84F
  100
AcDbEntity
  8
Layer 1
  62
0
  100
AcDb2dVertex
  10
0.97100
  20
1.08750
  30
0.00000
  70
32
  0
VERTEX
  5
850
  100
AcDbEntity
  8
Layer 1
  62
0
  100
AcDb2dVertex
  10
1.00183
  20
1.09432
  30
0.00000
  42
-0.0207
  70
32
  0
VERTEX
  5
851
  100
AcDbEntity
  8
Layer 1
  62
0
  100
AcDb2dVertex
  10
1.01700
  20
1.09750
  30
0.00000
  42
-0.1299
  70
32
  0
VERTEX
  5
852
  100
AcDbEntity
  8
Layer 1
  62
0
  100
AcDb2dVertex
  10
1.03960
  20
1.09254
  30
0.00000
  42
-0.2271
  70
32
  0
VERTEX
  5
853
  100
AcDbEntity
  8
Layer 1
  62
0
  100
AcDb2dVertex
  10
1.05307
  20
1.07272
  30
0.00000
  42
-0.0491
  70
32
  0
VERTEX
  5
854
  100
AcDbEntity
  8
Layer 1
  62
0
  100
AcDb2dVertex
  10
1.05400
  20
1.06250
  30
0.00000
  42
-0.1050
  70
32
  0
VERTEX
  5
855
  100
AcDbEntity
  8
Layer 1
  62
0
  100
AcDb2dVertex
  10
1.05036
  20
1.05318
  30
0.00000
  42
-0.0302
  70
32
  0
VERTEX
  5
856
  100
AcDbEntity
  8
Layer 1
  62
0
  100
AcDb2dVertex
  10
1.02530
  20
1.01646
  30
0.00000
  42
-0.0097
  70
32
  0
VERTEX
  5
857
  100
AcDbEntity
  8
Layer 1
  62
0
  100
AcDb2dVertex
  10
0.96400
  20
0.93850
  30
0.00000
  70
32
  0
VERTEX
  5
858
  100
AcDbEntity
  8
Layer 1
  62
0
  100
AcDb2dVertex
  10
0.88700
  20
0.98050
  30
0.00000
  70
32
  0
VERTEX
  5
859
  100
AcDbEntity
  8
Layer 1
  62
0
  100
AcDb2dVertex
  10
0.96400
  20
0.93850
  30
0.00000
  42
-0.1992
  70
32
  0
VERTEX
  5
85A
  100
AcDbEntity
  8
Layer 1
  62
0
  100
AcDb2dVertex
  10
0.93487
  20
0.88796
  30
0.00000
  70
32
  0
VERTEX
  5
85B
  100
AcDbEntity
  8
Layer 1
  62
0
  100
AcDb2dVertex
  10
0.93300
  20
0.88650
  30
0.00000
  42
-0.1448
  70
32
  0
VERTEX
  5
85C
  100
AcDbEntity
  8
Layer 1
  62
0
  100
AcDb2dVertex
  10
0.88691
  20
0.86774
  30
0.00000
  70
32
  0
VERTEX
  5
85D
  100
AcDbEntity
  8
Layer 1
  62
0
  100
AcDb2dVertex
  10
0.88100
  20
0.86750
  30
0.00000
  42
-0.0679
  70
32
  0
VERTEX
  5
85E
  100
AcDbEntity
  8
Layer 1
  62
0
  100
AcDb2dVertex
  10
0.81600
  20
0.87650
  30
0.00000
  42
-0.0746
  70
32
  0
VERTEX
  5
85F
  100
AcDbEntity
  8
Layer 1
  62
0
  100
AcDb2dVertex
  10
0.79118
  20
0.88679
  30
0.00000
  42
-0.1773
  70
32
  0
VERTEX
  5
860
  100
AcDbEntity
  8
Layer 1
  62
0
  100
AcDb2dVertex
  10
0.78329
  20
0.89606
  30
0.00000
  70
32
  0
VERTEX
  5
861
  100
AcDbEntity
  8
Layer 1
  62
0
  100
AcDb2dVertex
  10
0.78300
  20
0.89750
  30
0.00000
  42
0.0325
  70
32
  0
VERTEX
  5
862
  100
AcDbEntity
  8
Layer 1
  62
0
  100
AcDb2dVertex
  10
0.77500
  20
0.93469
  30
0.00000
  70
32
  0
VERTEX
  5
863
  100
AcDbEntity
  8
Layer 1
  62
0
  100
AcDb2dVertex
  10
0.77400
  20
0.93850
  30
0.00000
  42
-0.0220
  70
32
  0
VERTEX
  5
864
  100
AcDbEntity
  8
Layer 1
  62
0
  100
AcDb2dVertex
  10
0.69204
  20
0.96916
  30
0.00000
  70
32
  0
VERTEX
  5
865
  100
AcDbEntity
  8
Layer 1
  62
0
  100
AcDb2dVertex
  10
0.66500
  20
0.98050
  30
0.00000
  42
-0.0858
  70
32
  0
VERTEX
  5
866
  100
AcDbEntity
  8
Layer 1
  62
0
  100
AcDb2dVertex
  10
0.57185
  20
1.04915
  30
0.00000
  42
-0.1150
  70
32
  0
VERTEX
  5
867
  100
AcDbEntity
  8
Layer 1
  62
0
  100
AcDb2dVertex
  10
0.50247
  20
1.16908
  30
0.00000
  42
-0.0676
  70
32
  0
VERTEX
  5
868
  100
AcDbEntity
  8
Layer 1
  62
0
  100
AcDb2dVertex
  10
0.48432
  20
1.28176
  30
0.00000
  70
32
  0
VERTEX
  5
869
  100
AcDbEntity
  8
Layer 1
  62
0
  100
AcDb2dVertex
  10
0.48400
  20
1.30050
  30
0.00000
  42
-0.0813
  70
32
  0
VERTEX
  5
86A
  100
AcDbEntity
  8
Layer 1
  62
0
  100
AcDb2dVertex
  10
0.50370
  20
1.42783
  30
0.00000
  42
-0.0974
  70
32
  0
VERTEX
  5
86B
  100
AcDbEntity
  8
Layer 1
  62
0
  100
AcDb2dVertex
  10
0.57200
  20
1.54750
  30
0.00000
  42
-0.0881
  70
32
  0
VERTEX
  5
86C
  100
AcDbEntity
  8
Layer 1
  62
0
  100
AcDb2dVertex
  10
0.65993
  20
1.62130
  30
0.00000
  42
-0.1089
  70
32
  0
VERTEX
  5
86D
  100
AcDbEntity
  8
Layer 1
  62
0
  100
AcDb2dVertex
  10
0.78495
  20
1.65914
  30
0.00000
  42
-0.0215
  70
32
  0
VERTEX
  5
86E
  100
AcDbEntity
  8
Layer 1
  62
0
  100
AcDb2dVertex
  10
0.81700
  20
1.66050
  30
0.00000
  42
-0.0798
  70
32
  0
VERTEX
  5
86F
  100
AcDbEntity
  8
Layer 1
  62
0
  100
AcDb2dVertex
  10
0.91807
  20
1.64537
  30
0.00000
  42
-0.1286
  70
32
  0
VERTEX
  5
870
  100
AcDbEntity
  8
Layer 1
  62
0
  100
AcDb2dVertex
  10
1.03100
  20
1.57250
  30
0.00000
  42
-0.1522
  70
32
  0
VERTEX
  5
871
  100
AcDbEntity
  8
Layer 1
  62
0
  100
AcDb2dVertex
  10
1.10320
  20
1.42012
  30
0.00000
  42
-0.0373
  70
32
  0
VERTEX
  5
872
  100
AcDbEntity
  8
Layer 1
  62
0
  100
AcDb2dVertex
  10
1.10700
  20
1.36750
  30
0.00000
  70
32
  0
SEQEND
  5
873
  100
AcDbEntity
  8
Layer 1
  62
0
  0
POLYLINE
  5
874
  100
AcDbEntity
  8
Layer 1
  62
0
  100
AcDb2dPolyline
 66
     1
  10
0
  20
0
  30
0
  70
1
  0
VERTEX
  5
875
  100
AcDbEntity
  8
Layer 1
  62
0
  100
AcDb2dVertex
  10
1.72100
  20
0.56850
  30
0.00000
  42
-0.1472
  70
32
  0
VERTEX
  5
876
  100
AcDbEntity
  8
Layer 1
  62
0
  100
AcDb2dVertex
  10
1.71669
  20
0.55823
  30
0.00000
  42
-0.0518
  70
32
  0
VERTEX
  5
877
  100
AcDbEntity
  8
Layer 1
  62
0
  100
AcDb2dVertex
  10
1.69541
  20
0.53592
  30
0.00000
  70
32
  0
VERTEX
  5
878
  100
AcDbEntity
  8
Layer 1
  62
0
  100
AcDb2dVertex
  10
1.68700
  20
0.52850
  30
0.00000
  42
-0.0438
  70
32
  0
VERTEX
  5
879
  100
AcDbEntity
  8
Layer 1
  62
0
  100
AcDb2dVertex
  10
1.65426
  20
0.50489
  30
0.00000
  42
-0.1100
  70
32
  0
VERTEX
  5
87A
  100
AcDbEntity
  8
Layer 1
  62
0
  100
AcDb2dVertex
  10
1.64218
  20
0.50050
  30
0.00000
  70
32
  0
VERTEX
  5
87B
  100
AcDbEntity
  8
Layer 1
  62
0
  100
AcDb2dVertex
  10
1.64200
  20
0.50050
  30
0.00000
  70
32
  0
VERTEX
  5
87C
  100
AcDbEntity
  8
Layer 1
  62
0
  100
AcDb2dVertex
  10
1.58900
  20
0.57750
  30
0.00000
  70
32
  0
VERTEX
  5
87D
  100
AcDbEntity
  8
Layer 1
  62
0
  100
AcDb2dVertex
  10
1.64200
  20
0.50050
  30
0.00000
  42
-0.0087
  70
32
  0
VERTEX
  5
87E
  100
AcDbEntity
  8
Layer 1
  62
0
  100
AcDb2dVertex
  10
1.57900
  20
0.46250
  30
0.00000
  42
-0.0344
  70
32
  0
VERTEX
  5
87F
  100
AcDbEntity
  8
Layer 1
  62
0
  100
AcDb2dVertex
  10
1.53003
  20
0.43473
  30
0.00000
  42
-0.0800
  70
32
  0
VERTEX
  5
880
  100
AcDbEntity
  8
Layer 1
  62
0
  100
AcDb2dVertex
  10
1.51049
  20
0.42856
  30
0.00000
  70
32
  0
VERTEX
  5
881
  100
AcDbEntity
  8
Layer 1
  62
0
  100
AcDb2dVertex
  10
1.50900
  20
0.42850
  30
0.00000
  42
-0.1688
  70
32
  0
VERTEX
  5
882
  100
AcDbEntity
  8
Layer 1
  62
0
  100
AcDb2dVertex
  10
1.49133
  20
0.43360
  30
0.00000
  42
-0.1923
  70
32
  0
VERTEX
  5
883
  100
AcDbEntity
  8
Layer 1
  62
0
  100
AcDb2dVertex
  10
1.48267
  20
0.44980
  30
0.00000
  42
-0.0415
  70
32
  0
VERTEX
  5
884
  100
AcDbEntity
  8
Layer 1
  62
0
  100
AcDb2dVertex
  10
1.48200
  20
0.45850
  30
0.00000
  42
-0.0207
  70
32
  0
VERTEX
  5
885
  100
AcDbEntity
  8
Layer 1
  62
0
  100
AcDb2dVertex
  10
1.48518
  20
0.47367
  30
0.00000
  70
32
  0
VERTEX
  5
886
  100
AcDbEntity
  8
Layer 1
  62
0
  100
AcDb2dVertex
  10
1.49200
  20
0.50450
  30
0.00000
  42
0.0220
  70
32
  0
VERTEX
  5
887
  100
AcDbEntity
  8
Layer 1
  62
0
  100
AcDb2dVertex
  10
1.50195
  20
0.54985
  30
0.00000
  70
32
  0
VERTEX
  5
888
  100
AcDbEntity
  8
Layer 1
  62
0
  100
AcDb2dVertex
  10
1.50200
  20
0.55050
  30
0.00000
  42
0.1236
  70
32
  0
VERTEX
  5
889
  100
AcDbEntity
  8
Layer 1
  62
0
  100
AcDb2dVertex
  10
1.49200
  20
0.59050
  30
0.00000
  42
-0.0521
  70
32
  0
VERTEX
  5
88A
  100
AcDbEntity
  8
Layer 1
  62
0
  100
AcDb2dVertex
  10
1.47037
  20
0.64216
  30
0.00000
  70
32
  0
VERTEX
  5
88B
  100
AcDbEntity
  8
Layer 1
  62
0
  100
AcDb2dVertex
  10
1.46900
  20
0.64750
  30
0.00000
  42
-0.0289
  70
32
  0
VERTEX
  5
88C
  100
AcDbEntity
  8
Layer 1
  62
0
  100
AcDb2dVertex
  10
1.49208
  20
0.66001
  30
0.00000
  70
32
  0
VERTEX
  5
88D
  100
AcDbEntity
  8
Layer 1
  62
0
  100
AcDb2dVertex
  10
1.50900
  20
0.66850
  30
0.00000
  42
0.1843
  70
32
  0
VERTEX
  5
88E
  100
AcDbEntity
  8
Layer 1
  62
0
  100
AcDb2dVertex
  10
1.52450
  20
0.68382
  30
0.00000
  42
0.1013
  70
32
  0
VERTEX
  5
88F
  100
AcDbEntity
  8
Layer 1
  62
0
  100
AcDb2dVertex
  10
1.52700
  20
0.69750
  30
0.00000
  42
0.1203
  70
32
  0
VERTEX
  5
890
  100
AcDbEntity
  8
Layer 1
  62
0
  100
AcDb2dVertex
  10
1.50757
  20
0.78190
  30
0.00000
  42
0.1002
  70
32
  0
VERTEX
  5
891
  100
AcDbEntity
  8
Layer 1
  62
0
  100
AcDb2dVertex
  10
1.45781
  20
0.84305
  30
0.00000
  42
0.0362
  70
32
  0
VERTEX
  5
892
  100
AcDbEntity
  8
Layer 1
  62
0
  100
AcDb2dVertex
  10
1.42400
  20
0.86750
  30
0.00000
  42
0.0763
  70
32
  0
VERTEX
  5
893
  100
AcDbEntity
  8
Layer 1
  62
0
  100
AcDb2dVertex
  10
1.32483
  20
0.90984
  30
0.00000
  42
0.0609
  70
32
  0
VERTEX
  5
894
  100
AcDbEntity
  8
Layer 1
  62
0
  100
AcDb2dVertex
  10
1.25400
  20
0.91850
  30
0.00000
  42
0.0865
  70
32
  0
VERTEX
  5
895
  100
AcDbEntity
  8
Layer 1
  62
0
  100
AcDb2dVertex
  10
1.15171
  20
0.90179
  30
0.00000
  42
0.1048
  70
32
  0
VERTEX
  5
896
  100
AcDbEntity
  8
Layer 1
  62
0
  100
AcDb2dVertex
  10
1.05900
  20
0.84450
  30
0.00000
  42
0.1711
  70
32
  0
VERTEX
  5
897
  100
AcDbEntity
  8
Layer 1
  62
0
  100
AcDb2dVertex
  10
0.98293
  20
0.70309
  30
0.00000
  42
0.0410
  70
32
  0
VERTEX
  5
898
  100
AcDbEntity
  8
Layer 1
  62
0
  100
AcDb2dVertex
  10
0.97900
  20
0.65350
  30
0.00000
  42
0.0821
  70
32
  0
VERTEX
  5
899
  100
AcDbEntity
  8
Layer 1
  62
0
  100
AcDb2dVertex
  10
0.99229
  20
0.56654
  30
0.00000
  42
0.1198
  70
32
  0
VERTEX
  5
89A
  100
AcDbEntity
  8
Layer 1
  62
0
  100
AcDb2dVertex
  10
1.04600
  20
0.48150
  30
0.00000
  42
0.1587
  70
32
  0
VERTEX
  5
89B
  100
AcDbEntity
  8
Layer 1
  62
0
  100
AcDb2dVertex
  10
1.17112
  20
0.41895
  30
0.00000
  42
0.0397
  70
32
  0
VERTEX
  5
89C
  100
AcDbEntity
  8
Layer 1
  62
0
  100
AcDb2dVertex
  10
1.21600
  20
0.41550
  30
0.00000
  42
0.0305
  70
32
  0
VERTEX
  5
89D
  100
AcDbEntity
  8
Layer 1
  62
0
  100
AcDb2dVertex
  10
1.26762
  20
0.42015
  30
0.00000
  42
0.0091
  70
32
  0
VERTEX
  5
89E
  100
AcDbEntity
  8
Layer 1
  62
0
  100
AcDb2dVertex
  10
1.32100
  20
0.42850
  30
0.00000
  42
-0.1464
  70
32
  0
VERTEX
  5
89F
  100
AcDbEntity
  8
Layer 1
  62
0
  100
AcDb2dVertex
  10
1.33723
  20
0.42464
  30
0.00000
  42
-0.2618
  70
32
  0
VERTEX
  5
8A0
  100
AcDbEntity
  8
Layer 1
  62
0
  100
AcDb2dVertex
  10
1.34400
  20
0.41076
  30
0.00000
  70
32
  0
VERTEX
  5
8A1
  100
AcDbEntity
  8
Layer 1
  62
0
  100
AcDb2dVertex
  10
1.34400
  20
0.41050
  30
0.00000
  42
-0.2211
  70
32
  0
VERTEX
  5
8A2
  100
AcDbEntity
  8
Layer 1
  62
0
  100
AcDb2dVertex
  10
1.33602
  20
0.39452
  30
0.00000
  42
-0.0961
  70
32
  0
VERTEX
  5
8A3
  100
AcDbEntity
  8
Layer 1
  62
0
  100
AcDb2dVertex
  10
1.31346
  20
0.38241
  30
0.00000
  42
-0.0484
  70
32
  0
VERTEX
  5
8A4
  100
AcDbEntity
  8
Layer 1
  62
0
  100
AcDb2dVertex
  10
1.26900
  20
0.37250
  30
0.00000
  42
-0.0461
  70
32
  0
VERTEX
  5
8A5
  100
AcDbEntity
  8
Layer 1
  62
0
  100
AcDb2dVertex
  10
1.19347
  20
0.36351
  30
0.00000
  70
32
  0
VERTEX
  5
8A6
  100
AcDbEntity
  8
Layer 1
  62
0
  100
AcDb2dVertex
  10
1.19100
  20
0.36350
  30
0.00000
  42
-0.1067
  70
32
  0
VERTEX
  5
8A7
  100
AcDbEntity
  8
Layer 1
  62
0
  100
AcDb2dVertex
  10
1.08641
  20
0.38490
  30
0.00000
  42
-0.0980
  70
32
  0
VERTEX
  5
8A8
  100
AcDbEntity
  8
Layer 1
  62
0
  100
AcDb2dVertex
  10
1.00390
  20
0.44433
  30
0.00000
  42
-0.0134
  70
32
  0
VERTEX
  5
8A9
  100
AcDbEntity
  8
Layer 1
  62
0
  100
AcDb2dVertex
  10
0.99200
  20
0.45750
  30
0.00000
  42
-0.1310
  70
32
  0
VERTEX
  5
8AA
  100
AcDbEntity
  8
Layer 1
  62
0
  100
AcDb2dVertex
  10
0.92496
  20
0.59356
  30
0.00000
  42
-0.0492
  70
32
  0
VERTEX
  5
8AB
  100
AcDbEntity
  8
Layer 1
  62
0
  100
AcDb2dVertex
  10
0.91900
  20
0.65550
  30
0.00000
  42
-0.1067
  70
32
  0
VERTEX
  5
8AC
  100
AcDbEntity
  8
Layer 1
  62
0
  100
AcDb2dVertex
  10
0.94621
  20
0.78710
  30
0.00000
  42
-0.0920
  70
32
  0
VERTEX
  5
8AD
  100
AcDbEntity
  8
Layer 1
  62
0
  100
AcDb2dVertex
  10
1.01655
  20
0.88743
  30
0.00000
  70
32
  0
VERTEX
  5
8AE
  100
AcDbEntity
  8
Layer 1
  62
0
  100
AcDb2dVertex
  10
1.02700
  20
0.89750
  30
0.00000
  42
-0.0930
  70
32
  0
VERTEX
  5
8AF
  100
AcDbEntity
  8
Layer 1
  62
0
  100
AcDb2dVertex
  10
1.13820
  20
0.96893
  30
0.00000
  42
-0.0961
  70
32
  0
VERTEX
  5
8B0
  100
AcDbEntity
  8
Layer 1
  62
0
  100
AcDb2dVertex
  10
1.27100
  20
0.99350
  30
0.00000
  42
-0.1340
  70
32
  0
VERTEX
  5
8B1
  100
AcDbEntity
  8
Layer 1
  62
0
  100
AcDb2dVertex
  10
1.46456
  20
0.94099
  30
0.00000
  70
32
  0
VERTEX
  5
8B2
  100
AcDbEntity
  8
Layer 1
  62
0
  100
AcDb2dVertex
  10
1.47700
  20
0.93350
  30
0.00000
  42
-0.0916
  70
32
  0
VERTEX
  5
8B3
  100
AcDbEntity
  8
Layer 1
  62
0
  100
AcDb2dVertex
  10
1.54548
  20
0.87268
  30
0.00000
  42
-0.0381
  70
32
  0
VERTEX
  5
8B4
  100
AcDbEntity
  8
Layer 1
  62
0
  100
AcDb2dVertex
  10
1.57600
  20
0.82750
  30
0.00000
  42
0.0052
  70
32
  0
VERTEX
  5
8B5
  100
AcDbEntity
  8
Layer 1
  62
0
  100
AcDb2dVertex
  10
1.62900
  20
0.70750
  30
0.00000
  42
0.1796
  70
32
  0
VERTEX
  5
8B6
  100
AcDbEntity
  8
Layer 1
  62
0
  100
AcDb2dVertex
  10
1.64116
  20
0.69612
  30
0.00000
  42
0.0473
  70
32
  0
VERTEX
  5
8B7
  100
AcDbEntity
  8
Layer 1
  62
0
  100
AcDb2dVertex
  10
1.65100
  20
0.69250
  30
0.00000
  42
0.0149
  70
32
  0
VERTEX
  5
8B8
  100
AcDbEntity
  8
Layer 1
  62
0
  100
AcDb2dVertex
  10
1.68200
  20
0.68250
  30
0.00000
  42
-0.1713
  70
32
  0
VERTEX
  5
8B9
  100
AcDbEntity
  8
Layer 1
  62
0
  100
AcDb2dVertex
  10
1.68574
  20
0.67830
  30
0.00000
  42
-0.0398
  70
32
  0
VERTEX
  5
8BA
  100
AcDbEntity
  8
Layer 1
  62
0
  100
AcDb2dVertex
  10
1.69672
  20
0.65132
  30
0.00000
  70
32
  0
VERTEX
  5
8BB
  100
AcDbEntity
  8
Layer 1
  62
0
  100
AcDb2dVertex
  10
1.70400
  20
0.62950
  30
0.00000
  42
-0.0185
  70
32
  0
VERTEX
  5
8BC
  100
AcDbEntity
  8
Layer 1
  62
0
  100
AcDb2dVertex
  10
1.71966
  20
0.57726
  30
0.00000
  42
-0.0504
  70
32
  0
VERTEX
  5
8BD
  100
AcDbEntity
  8
Layer 1
  62
0
  100
AcDb2dVertex
  10
1.72100
  20
0.56850
  30
0.00000
  70
32
  0
SEQEND
  5
8BE
  100
AcDbEntity
  8
Layer 1
  62
0
  0
POLYLINE
  5
8BF
  100
AcDbEntity
  8
Layer 1
  62
0
  100
AcDb2dPolyline
 66
     1
  10
0
  20
0
  30
0
  70
1
  0
VERTEX
  5
8C0
  100
AcDbEntity
  8
Layer 1
  62
0
  100
AcDb2dVertex
  10
0.42400
  20
1.22050
  30
0.00000
  42
-0.1368
  70
32
  0
VERTEX
  5
8C1
  100
AcDbEntity
  8
Layer 1
  62
0
  100
AcDb2dVertex
  10
0.40041
  20
1.13153
  30
0.00000
  42
-0.0587
  70
32
  0
VERTEX
  5
8C2
  100
AcDbEntity
  8
Layer 1
  62
0
  100
AcDb2dVertex
  10
0.37500
  20
1.09850
  30
0.00000
  42
-0.1135
  70
32
  0
VERTEX
  5
8C3
  100
AcDbEntity
  8
Layer 1
  62
0
  100
AcDb2dVertex
  10
0.31264
  20
1.05683
  30
0.00000
  42
-0.0889
  70
32
  0
VERTEX
  5
8C4
  100
AcDbEntity
  8
Layer 1
  62
0
  100
AcDb2dVertex
  10
0.25900
  20
1.04750
  30
0.00000
  42
-0.0774
  70
32
  0
VERTEX
  5
8C5
  100
AcDbEntity
  8
Layer 1
  62
0
  100
AcDb2dVertex
  10
0.21627
  20
1.05316
  30
0.00000
  42
-0.1085
  70
32
  0
VERTEX
  5
8C6
  100
AcDbEntity
  8
Layer 1
  62
0
  100
AcDb2dVertex
  10
0.19400
  20
1.06550
  30
0.00000
  42
0.0325
  70
32
  0
VERTEX
  5
8C7
  100
AcDbEntity
  8
Layer 1
  62
0
  100
AcDb2dVertex
  10
0.16595
  20
1.10423
  30
0.00000
  42
0.0059
  70
32
  0
VERTEX
  5
8C8
  100
AcDbEntity
  8
Layer 1
  62
0
  100
AcDb2dVertex
  10
0.13200
  20
1.14550
  30
0.00000
  70
32
  0
VERTEX
  5
8C9
  100
AcDbEntity
  8
Layer 1
  62
0
  100
AcDb2dVertex
  10
0.10148
  20
1.16603
  30
0.00000
  42
-0.0039
  70
32
  0
VERTEX
  5
8CA
  100
AcDbEntity
  8
Layer 1
  62
0
  100
AcDb2dVertex
  10
0.05500
  20
1.19750
  30
0.00000
  42
-0.0751
  70
32
  0
VERTEX
  5
8CB
  100
AcDbEntity
  8
Layer 1
  62
0
  100
AcDb2dVertex
  10
0.02298
  20
1.22527
  30
0.00000
  42
-0.1366
  70
32
  0
VERTEX
  5
8CC
  100
AcDbEntity
  8
Layer 1
  62
0
  100
AcDb2dVertex
  10
0.01039
  20
1.25190
  30
0.00000
  70
32
  0
VERTEX
  5
8CD
  100
AcDbEntity
  8
Layer 1
  62
0
  100
AcDb2dVertex
  10
0.01000
  20
1.25750
  30
0.00000
  70
32
  0
VERTEX
  5
8CE
  100
AcDbEntity
  8
Layer 1
  62
0
  100
AcDb2dVertex
  10
0.01000
  20
1.35750
  30
0.00000
  42
-0.0152
  70
32
  0
VERTEX
  5
8CF
  100
AcDbEntity
  8
Layer 1
  62
0
  100
AcDb2dVertex
  10
0.01108
  20
1.41694
  30
0.00000
  70
32
  0
VERTEX
  5
8D0
  100
AcDbEntity
  8
Layer 1
  62
0
  100
AcDb2dVertex
  10
0.01153
  20
1.41979
  30
0.00000
  42
-0.8774
  70
32
  0
VERTEX
  5
8D1
  100
AcDbEntity
  8
Layer 1
  62
0
  100
AcDb2dVertex
  10
0.01183
  20
1.41945
  30
0.00000
  70
32
  0
VERTEX
  5
8D2
  100
AcDbEntity
  8
Layer 1
  62
0
  100
AcDb2dVertex
  10
0.01200
  20
1.41850
  30
0.00000
  42
0.0282
  70
32
  0
VERTEX
  5
8D3
  100
AcDbEntity
  8
Layer 1
  62
0
  100
AcDb2dVertex
  10
0.00636
  20
1.45346
  30
0.00000
  70
32
  0
VERTEX
  5
8D4
  100
AcDbEntity
  8
Layer 1
  62
0
  100
AcDb2dVertex
  10
0.00579
  20
1.45511
  30
0.00000
  70
32
  0
VERTEX
  5
8D5
  100
AcDbEntity
  8
Layer 1
  62
0
  100
AcDb2dVertex
  10
0.00545
  20
1.45552
  30
0.00000
  42
0.2276
  70
32
  0
VERTEX
  5
8D6
  100
AcDbEntity
  8
Layer 1
  62
0
  100
AcDb2dVertex
  10
0.00501
  20
1.45338
  30
0.00000
  70
32
  0
VERTEX
  5
8D7
  100
AcDbEntity
  8
Layer 1
  62
0
  100
AcDb2dVertex
  10
0.00500
  20
1.45250
  30
0.00000
  42
-0.0929
  70
32
  0
VERTEX
  5
8D8
  100
AcDbEntity
  8
Layer 1
  62
0
  100
AcDb2dVertex
  10
0.00981
  20
1.47107
  30
0.00000
  42
-0.0411
  70
32
  0
VERTEX
  5
8D9
  100
AcDbEntity
  8
Layer 1
  62
0
  100
AcDb2dVertex
  10
0.03337
  20
1.51388
  30
0.00000
  42
-0.0181
  70
32
  0
VERTEX
  5
8DA
  100
AcDbEntity
  8
Layer 1
  62
0
  100
AcDb2dVertex
  10
0.08500
  20
1.58750
  30
0.00000
  42
0.0074
  70
32
  0
VERTEX
  5
8DB
  100
AcDbEntity
  8
Layer 1
  62
0
  100
AcDb2dVertex
  10
0.20535
  20
1.50802
  30
0.00000
  70
32
  0
VERTEX
  5
8DC
  100
AcDbEntity
  8
Layer 1
  62
0
  100
AcDb2dVertex
  10
0.21558
  20
1.50190
  30
0.00000
  70
32
  0
VERTEX
  5
8DD
  100
AcDbEntity
  8
Layer 1
  62
0
  100
AcDb2dVertex
  10
0.21815
  20
1.50061
  30
0.00000
  42
0.3714
  70
32
  0
VERTEX
  5
8DE
  100
AcDbEntity
  8
Layer 1
  62
0
  100
AcDb2dVertex
  10
0.21900
  20
1.50050
  30
0.00000
  70
32
  0
VERTEX
  5
8DF
  100
AcDbEntity
  8
Layer 1
  62
0
  100
AcDb2dVertex
  10
0.08500
  20
1.58750
  30
0.00000
  42
-0.0089
  70
32
  0
VERTEX
  5
8E0
  100
AcDbEntity
  8
Layer 1
  62
0
  100
AcDb2dVertex
  10
0.10900
  20
1.62550
  30
0.00000
  42
-0.0841
  70
32
  0
VERTEX
  5
8E1
  100
AcDbEntity
  8
Layer 1
  62
0
  100
AcDb2dVertex
  10
0.12440
  20
1.64526
  30
0.00000
  42
-0.1780
  70
32
  0
VERTEX
  5
8E2
  100
AcDbEntity
  8
Layer 1
  62
0
  100
AcDb2dVertex
  10
0.13700
  20
1.65050
  30
0.00000
  42
-0.0843
  70
32
  0
VERTEX
  5
8E3
  100
AcDbEntity
  8
Layer 1
  62
0
  100
AcDb2dVertex
  10
0.14842
  20
1.64686
  30
0.00000
  42
-0.0216
  70
32
  0
VERTEX
  5
8E4
  100
AcDbEntity
  8
Layer 1
  62
0
  100
AcDb2dVertex
  10
0.18400
  20
1.62850
  30
0.00000
  42
0.0606
  70
32
  0
VERTEX
  5
8E5
  100
AcDbEntity
  8
Layer 1
  62
0
  100
AcDb2dVertex
  10
0.22883
  20
1.60839
  30
0.00000
  42
0.0673
  70
32
  0
VERTEX
  5
8E6
  100
AcDbEntity
  8
Layer 1
  62
0
  100
AcDb2dVertex
  10
0.24700
  20
1.60550
  30
0.00000
  70
32
  0
VERTEX
  5
8E7
  100
AcDbEntity
  8
Layer 1
  62
0
  100
AcDb2dVertex
  10
0.31500
  20
1.60550
  30
0.00000
  42
-0.1763
  70
32
  0
VERTEX
  5
8E8
  100
AcDbEntity
  8
Layer 1
  62
0
  100
AcDb2dVertex
  10
0.38600
  20
1.58050
  30
0.00000
  42
-0.1305
  70
32
  0
VERTEX
  5
8E9
  100
AcDbEntity
  8
Layer 1
  62
0
  100
AcDb2dVertex
  10
0.41329
  20
1.54662
  30
0.00000
  42
-0.1012
  70
32
  0
VERTEX
  5
8EA
  100
AcDbEntity
  8
Layer 1
  62
0
  100
AcDb2dVertex
  10
0.41900
  20
1.51750
  30
0.00000
  42
-0.0765
  70
32
  0
VERTEX
  5
8EB
  100
AcDbEntity
  8
Layer 1
  62
0
  100
AcDb2dVertex
  10
0.41595
  20
1.49188
  30
0.00000
  42
-0.0536
  70
32
  0
VERTEX
  5
8EC
  100
AcDbEntity
  8
Layer 1
  62
0
  100
AcDb2dVertex
  10
0.41400
  20
1.48750
  30
0.00000
  42
-0.0400
  70
32
  0
VERTEX
  5
8ED
  100
AcDbEntity
  8
Layer 1
  62
0
  100
AcDb2dVertex
  10
0.38934
  20
1.44204
  30
0.00000
  42
-0.0091
  70
32
  0
VERTEX
  5
8EE
  100
AcDbEntity
  8
Layer 1
  62
0
  100
AcDb2dVertex
  10
0.37200
  20
1.41550
  30
0.00000
  42
0.0897
  70
32
  0
VERTEX
  5
8EF
  100
AcDbEntity
  8
Layer 1
  62
0
  100
AcDb2dVertex
  10
0.35390
  20
1.37755
  30
0.00000
  42
0.0595
  70
32
  0
VERTEX
  5
8F0
  100
AcDbEntity
  8
Layer 1
  62
0
  100
AcDb2dVertex
  10
0.35200
  20
1.36250
  30
0.00000
  42
0.0891
  70
32
  0
VERTEX
  5
8F1
  100
AcDbEntity
  8
Layer 1
  62
0
  100
AcDb2dVertex
  10
0.35499
  20
1.34049
  30
0.00000
  42
0.0835
  70
32
  0
VERTEX
  5
8F2
  100
AcDbEntity
  8
Layer 1
  62
0
  100
AcDb2dVertex
  10
0.35900
  20
1.33350
  30
0.00000
  70
32
  0
VERTEX
  5
8F3
  100
AcDbEntity
  8
Layer 1
  62
0
  100
AcDb2dVertex
  10
0.37699
  20
1.31167
  30
0.00000
  42
0.0045
  70
32
  0
VERTEX
  5
8F4
  100
AcDbEntity
  8
Layer 1
  62
0
  100
AcDb2dVertex
  10
0.40700
  20
1.27550
  30
0.00000
  42
-0.1421
  70
32
  0
VERTEX
  5
8F5
  100
AcDbEntity
  8
Layer 1
  62
0
  100
AcDb2dVertex
  10
0.42341
  20
1.23218
  30
0.00000
  42
-0.0257
  70
32
  0
VERTEX
  5
8F6
  100
AcDbEntity
  8
Layer 1
  62
0
  100
AcDb2dVertex
  10
0.42400
  20
1.22050
  30
0.00000
  70
32
  0
SEQEND
  5
8F7
  100
AcDbEntity
  8
Layer 1
  62
0
  0
POLYLINE
  5
8F8
  100
AcDbEntity
  8
Layer 1
  62
0
  100
AcDb2dPolyline
 66
     1
  10
0
  20
0
  30
0
  70
1
  0
VERTEX
  5
8F9
  100
AcDbEntity
  8
Layer 1
  62
0
  100
AcDb2dVertex
  10
1.77100
  20
0.30250
  30
0.00000
  42
-0.1038
  70
32
  0
VERTEX
  5
8FA
  100
AcDbEntity
  8
Layer 1
  62
0
  100
AcDb2dVertex
  10
1.76461
  20
0.27782
  30
0.00000
  42
-0.0552
  70
32
  0
VERTEX
  5
8FB
  100
AcDbEntity
  8
Layer 1
  62
0
  100
AcDb2dVertex
  10
1.73897
  20
0.23682
  30
0.00000
  42
-0.0323
  70
32
  0
VERTEX
  5
8FC
  100
AcDbEntity
  8
Layer 1
  62
0
  100
AcDb2dVertex
  10
1.67751
  20
0.16783
  30
0.00000
  70
32
  0
VERTEX
  5
8FD
  100
AcDbEntity
  8
Layer 1
  62
0
  100
AcDb2dVertex
  10
1.66100
  20
0.15150
  30
0.00000
  42
-0.0274
  70
32
  0
VERTEX
  5
8FE
  100
AcDbEntity
  8
Layer 1
  62
0
  100
AcDb2dVertex
  10
1.58311
  20
0.08233
  30
0.00000
  42
-0.0483
  70
32
  0
VERTEX
  5
8FF
  100
AcDbEntity
  8
Layer 1
  62
0
  100
AcDb2dVertex
  10
1.53742
  20
0.05239
  30
0.00000
  42
-0.0905
  70
32
  0
VERTEX
  5
900
  100
AcDbEntity
  8
Layer 1
  62
0
  100
AcDb2dVertex
  10
1.51046
  20
0.04366
  30
0.00000
  70
32
  0
VERTEX
  5
901
  100
AcDbEntity
  8
Layer 1
  62
0
  100
AcDb2dVertex
  10
1.50700
  20
0.04350
  30
0.00000
  70
32
  0
VERTEX
  5
902
  100
AcDbEntity
  8
Layer 1
  62
0
  100
AcDb2dVertex
  10
1.48900
  20
0.04350
  30
0.00000
  42
-0.0939
  70
32
  0
VERTEX
  5
903
  100
AcDbEntity
  8
Layer 1
  62
0
  100
AcDb2dVertex
  10
1.48030
  20
0.04731
  30
0.00000
  70
32
  0
VERTEX
  5
904
  100
AcDbEntity
  8
Layer 1
  62
0
  100
AcDb2dVertex
  10
1.47200
  20
0.05250
  30
0.00000
  70
32
  0
VERTEX
  5
905
  100
AcDbEntity
  8
Layer 1
  62
0
  100
AcDb2dVertex
  10
1.46527
  20
0.05708
  30
0.00000
  70
32
  0
VERTEX
  5
906
  100
AcDbEntity
  8
Layer 1
  62
0
  100
AcDb2dVertex
  10
1.45935
  20
0.06105
  30
0.00000
  42
0.1158
  70
32
  0
VERTEX
  5
907
  100
AcDbEntity
  8
Layer 1
  62
0
  100
AcDb2dVertex
  10
1.45600
  20
0.06250
  30
0.00000
  42
0.1787
  70
32
  0
VERTEX
  5
908
  100
AcDbEntity
  8
Layer 1
  62
0
  100
AcDb2dVertex
  10
1.44720
  20
0.05811
  30
0.00000
  42
0.0672
  70
32
  0
VERTEX
  5
909
  100
AcDbEntity
  8
Layer 1
  62
0
  100
AcDb2dVertex
  10
1.43200
  20
0.03850
  30
0.00000
  42
-0.0813
  70
32
  0
VERTEX
  5
90A
  100
AcDbEntity
  8
Layer 1
  62
0
  100
AcDb2dVertex
  10
1.41540
  20
0.01936
  30
0.00000
  42
-0.1595
  70
32
  0
VERTEX
  5
90B
  100
AcDbEntity
  8
Layer 1
  62
0
  100
AcDb2dVertex
  10
1.40600
  20
0.01550
  30
0.00000
  42
-0.2328
  70
32
  0
VERTEX
  5
90C
  100
AcDbEntity
  8
Layer 1
  62
0
  100
AcDb2dVertex
  10
1.39586
  20
0.02121
  30
0.00000
  42
-0.0828
  70
32
  0
VERTEX
  5
90D
  100
AcDbEntity
  8
Layer 1
  62
0
  100
AcDb2dVertex
  10
1.38800
  20
0.03650
  30
0.00000
  42
0.1222
  70
32
  0
VERTEX
  5
90E
  100
AcDbEntity
  8
Layer 1
  62
0
  100
AcDb2dVertex
  10
1.37813
  20
0.05308
  30
0.00000
  42
0.1912
  70
32
  0
VERTEX
  5
90F
  100
AcDbEntity
  8
Layer 1
  62
0
  100
AcDb2dVertex
  10
1.36700
  20
0.05750
  30
0.00000
  42
0.2403
  70
32
  0
VERTEX
  5
910
  100
AcDbEntity
  8
Layer 1
  62
0
  100
AcDb2dVertex
  10
1.35258
  20
0.04969
  30
0.00000
  42
0.0742
  70
32
  0
VERTEX
  5
911
  100
AcDbEntity
  8
Layer 1
  62
0
  100
AcDb2dVertex
  10
1.34600
  20
0.03750
  30
0.00000
  42
-0.0362
  70
32
  0
VERTEX
  5
912
  100
AcDbEntity
  8
Layer 1
  62
0
  100
AcDb2dVertex
  10
1.32850
  20
0.00373
  30
0.00000
  70
32
  0
VERTEX
  5
913
  100
AcDbEntity
  8
Layer 1
  62
0
  100
AcDb2dVertex
  10
1.32600
  20
0.00050
  30
0.00000
  70
32
  0
VERTEX
  5
914
  100
AcDbEntity
  8
Layer 1
  62
0
  100
AcDb2dVertex
  10
1.30200
  20
0.00050
  30
0.00000
  70
32
  0
VERTEX
  5
915
  100
AcDbEntity
  8
Layer 1
  62
0
  100
AcDb2dVertex
  10
1.29600
  20
0.04350
  30
0.00000
  42
0.0868
  70
32
  0
VERTEX
  5
916
  100
AcDbEntity
  8
Layer 1
  62
0
  100
AcDb2dVertex
  10
1.28605
  20
0.06823
  30
0.00000
  42
0.1962
  70
32
  0
VERTEX
  5
917
  100
AcDbEntity
  8
Layer 1
  62
0
  100
AcDb2dVertex
  10
1.27287
  20
0.07810
  30
0.00000
  42
0.0535
  70
32
  0
VERTEX
  5
918
  100
AcDbEntity
  8
Layer 1
  62
0
  100
AcDb2dVertex
  10
1.26900
  20
0.07850
  30
0.00000
  42
0.2211
  70
32
  0
VERTEX
  5
919
  100
AcDbEntity
  8
Layer 1
  62
0
  100
AcDb2dVertex
  10
1.24179
  20
0.06585
  30
0.00000
  42
0.0778
  70
32
  0
VERTEX
  5
91A
  100
AcDbEntity
  8
Layer 1
  62
0
  100
AcDb2dVertex
  10
1.22900
  20
0.04550
  30
0.00000
  42
-0.0660
  70
32
  0
VERTEX
  5
91B
  100
AcDbEntity
  8
Layer 1
  62
0
  100
AcDb2dVertex
  10
1.21417
  20
0.02006
  30
0.00000
  42
-0.1565
  70
32
  0
VERTEX
  5
91C
  100
AcDbEntity
  8
Layer 1
  62
0
  100
AcDb2dVertex
  10
1.20411
  20
0.01275
  30
0.00000
  70
32
  0
VERTEX
  5
91D
  100
AcDbEntity
  8
Layer 1
  62
0
  100
AcDb2dVertex
  10
1.20200
  20
0.01250
  30
0.00000
  42
-0.1534
  70
32
  0
VERTEX
  5
91E
  100
AcDbEntity
  8
Layer 1
  62
0
  100
AcDb2dVertex
  10
1.18700
  20
0.01750
  30
0.00000
  42
-0.0730
  70
32
  0
VERTEX
  5
91F
  100
AcDbEntity
  8
Layer 1
  62
0
  100
AcDb2dVertex
  10
1.17956
  20
0.04428
  30
0.00000
  42
-0.0316
  70
32
  0
VERTEX
  5
920
  100
AcDbEntity
  8
Layer 1
  62
0
  100
AcDb2dVertex
  10
1.17600
  20
0.08750
  30
0.00000
  42
-0.0042
  70
32
  0
VERTEX
  5
921
  100
AcDbEntity
  8
Layer 1
  62
0
  100
AcDb2dVertex
  10
1.17200
  20
0.17250
  30
0.00000
  70
32
  0
VERTEX
  5
922
  100
AcDbEntity
  8
Layer 1
  62
0
  100
AcDb2dVertex
  10
1.17600
  20
0.11050
  30
0.00000
  70
32
  0
VERTEX
  5
923
  100
AcDbEntity
  8
Layer 1
  62
0
  100
AcDb2dVertex
  10
1.05400
  20
0.11850
  30
0.00000
  70
32
  0
VERTEX
  5
924
  100
AcDbEntity
  8
Layer 1
  62
0
  100
AcDb2dVertex
  10
1.05900
  20
0.19250
  30
0.00000
  70
32
  0
VERTEX
  5
925
  100
AcDbEntity
  8
Layer 1
  62
0
  100
AcDb2dVertex
  10
1.05400
  20
0.11850
  30
0.00000
  70
32
  0
VERTEX
  5
926
  100
AcDbEntity
  8
Layer 1
  62
0
  100
AcDb2dVertex
  10
0.93700
  20
0.12250
  30
0.00000
  70
32
  0
VERTEX
  5
927
  100
AcDbEntity
  8
Layer 1
  62
0
  100
AcDb2dVertex
  10
0.82100
  20
0.13050
  30
0.00000
  70
32
  0
VERTEX
  5
928
  100
AcDbEntity
  8
Layer 1
  62
0
  100
AcDb2dVertex
  10
0.82550
  20
0.17675
  30
0.00000
  70
32
  0
VERTEX
  5
929
  100
AcDbEntity
  8
Layer 1
  62
0
  100
AcDb2dVertex
  10
0.82663
  20
0.18703
  30
0.00000
  70
32
  0
VERTEX
  5
92A
  100
AcDbEntity
  8
Layer 1
  62
0
  100
AcDb2dVertex
  10
0.82691
  20
0.18888
  30
0.00000
  70
32
  0
VERTEX
  5
92B
  100
AcDbEntity
  8
Layer 1
  62
0
  100
AcDb2dVertex
  10
0.82700
  20
0.18850
  30
0.00000
  70
32
  0
VERTEX
  5
92C
  100
AcDbEntity
  8
Layer 1
  62
0
  100
AcDb2dVertex
  10
0.82100
  20
0.13050
  30
0.00000
  42
0.0074
  70
32
  0
VERTEX
  5
92D
  100
AcDbEntity
  8
Layer 1
  62
0
  100
AcDb2dVertex
  10
0.74745
  20
0.14594
  30
0.00000
  70
32
  0
VERTEX
  5
92E
  100
AcDbEntity
  8
Layer 1
  62
0
  100
AcDb2dVertex
  10
0.71000
  20
0.15350
  30
0.00000
  70
32
  0
VERTEX
  5
92F
  100
AcDbEntity
  8
Layer 1
  62
0
  100
AcDb2dVertex
  10
0.72000
  20
0.20750
  30
0.00000
  70
32
  0
VERTEX
  5
930
  100
AcDbEntity
  8
Layer 1
  62
0
  100
AcDb2dVertex
  10
0.71000
  20
0.15350
  30
0.00000
  70
32
  0
VERTEX
  5
931
  100
AcDbEntity
  8
Layer 1
  62
0
  100
AcDb2dVertex
  10
0.61500
  20
0.18750
  30
0.00000
  70
32
  0
VERTEX
  5
932
  100
AcDbEntity
  8
Layer 1
  62
0
  100
AcDb2dVertex
  10
0.62500
  20
0.24850
  30
0.00000
  70
32
  0
VERTEX
  5
933
  100
AcDbEntity
  8
Layer 1
  62
0
  100
AcDb2dVertex
  10
0.61500
  20
0.18750
  30
0.00000
  70
32
  0
VERTEX
  5
934
  100
AcDbEntity
  8
Layer 1
  62
0
  100
AcDb2dVertex
  10
0.48500
  20
0.25250
  30
0.00000
  70
32
  0
VERTEX
  5
935
  100
AcDbEntity
  8
Layer 1
  62
0
  100
AcDb2dVertex
  10
0.49400
  20
0.32850
  30
0.00000
  70
32
  0
VERTEX
  5
936
  100
AcDbEntity
  8
Layer 1
  62
0
  100
AcDb2dVertex
  10
0.48500
  20
0.25250
  30
0.00000
  42
0.0393
  70
32
  0
VERTEX
  5
937
  100
AcDbEntity
  8
Layer 1
  62
0
  100
AcDb2dVertex
  10
0.44092
  20
0.27731
  30
0.00000
  42
0.0898
  70
32
  0
VERTEX
  5
938
  100
AcDbEntity
  8
Layer 1
  62
0
  100
AcDb2dVertex
  10
0.42246
  20
0.28249
  30
0.00000
  70
32
  0
VERTEX
  5
939
  100
AcDbEntity
  8
Layer 1
  62
0
  100
AcDb2dVertex
  10
0.42200
  20
0.28250
  30
0.00000
  42
0.2347
  70
32
  0
VERTEX
  5
93A
  100
AcDbEntity
  8
Layer 1
  62
0
  100
AcDb2dVertex
  10
0.39847
  20
0.27066
  30
0.00000
  42
0.0558
  70
32
  0
VERTEX
  5
93B
  100
AcDbEntity
  8
Layer 1
  62
0
  100
AcDb2dVertex
  10
0.39200
  20
0.26050
  30
0.00000
  42
0.1598
  70
32
  0
VERTEX
  5
93C
  100
AcDbEntity
  8
Layer 1
  62
0
  100
AcDb2dVertex
  10
0.39100
  20
0.25498
  30
0.00000
  42
0.0393
  70
32
  0
VERTEX
  5
93D
  100
AcDbEntity
  8
Layer 1
  62
0
  100
AcDb2dVertex
  10
0.39500
  20
0.22550
  30
0.00000
  42
-0.0808
  70
32
  0
VERTEX
  5
93E
  100
AcDbEntity
  8
Layer 1
  62
0
  100
AcDb2dVertex
  10
0.39937
  20
0.15934
  30
0.00000
  42
-0.0854
  70
32
  0
VERTEX
  5
93F
  100
AcDbEntity
  8
Layer 1
  62
0
  100
AcDb2dVertex
  10
0.38700
  20
0.11550
  30
0.00000
  42
-0.0652
  70
32
  0
VERTEX
  5
940
  100
AcDbEntity
  8
Layer 1
  62
0
  100
AcDb2dVertex
  10
0.35073
  20
0.05502
  30
0.00000
  42
-0.1029
  70
32
  0
VERTEX
  5
941
  100
AcDbEntity
  8
Layer 1
  62
0
  100
AcDb2dVertex
  10
0.30638
  20
0.01782
  30
0.00000
  42
-0.1213
  70
32
  0
VERTEX
  5
942
  100
AcDbEntity
  8
Layer 1
  62
0
  100
AcDb2dVertex
  10
0.25500
  20
0.00550
  30
0.00000
  42
-0.0864
  70
32
  0
VERTEX
  5
943
  100
AcDbEntity
  8
Layer 1
  62
0
  100
AcDb2dVertex
  10
0.21176
  20
0.01197
  30
0.00000
  42
-0.0749
  70
32
  0
VERTEX
  5
944
  100
AcDbEntity
  8
Layer 1
  62
0
  100
AcDb2dVertex
  10
0.19200
  20
0.02250
  30
0.00000
  42
-0.0977
  70
32
  0
VERTEX
  5
945
  100
AcDbEntity
  8
Layer 1
  62
0
  100
AcDb2dVertex
  10
0.17509
  20
0.04187
  30
0.00000
  42
-0.0293
  70
32
  0
VERTEX
  5
946
  100
AcDbEntity
  8
Layer 1
  62
0
  100
AcDb2dVertex
  10
0.16400
  20
0.06250
  30
0.00000
  70
32
  0
VERTEX
  5
947
  100
AcDbEntity
  8
Layer 1
  62
0
  100
AcDb2dVertex
  10
0.15961
  20
0.07155
  30
0.00000
  70
32
  0
VERTEX
  5
948
  100
AcDbEntity
  8
Layer 1
  62
0
  100
AcDb2dVertex
  10
0.14279
  20
0.10590
  30
0.00000
  42
0.0267
  70
32
  0
VERTEX
  5
949
  100
AcDbEntity
  8
Layer 1
  62
0
  100
AcDb2dVertex
  10
0.13200
  20
0.12550
  30
0.00000
  42
0.0852
  70
32
  0
VERTEX
  5
94A
  100
AcDbEntity
  8
Layer 1
  62
0
  100
AcDb2dVertex
  10
0.11717
  20
0.14193
  30
0.00000
  42
0.0203
  70
32
  0
VERTEX
  5
94B
  100
AcDbEntity
  8
Layer 1
  62
0
  100
AcDb2dVertex
  10
0.09700
  20
0.15750
  30
0.00000
  42
-0.0141
  70
32
  0
VERTEX
  5
94C
  100
AcDbEntity
  8
Layer 1
  62
0
  100
AcDb2dVertex
  10
0.04700
  20
0.19250
  30
0.00000
  42
-0.1737
  70
32
  0
VERTEX
  5
94D
  100
AcDbEntity
  8
Layer 1
  62
0
  100
AcDb2dVertex
  10
0.00448
  20
0.25906
  30
0.00000
  42
-0.0601
  70
32
  0
VERTEX
  5
94E
  100
AcDbEntity
  8
Layer 1
  62
0
  100
AcDb2dVertex
  10
0.00000
  20
0.29850
  30
0.00000
  42
-0.0725
  70
32
  0
VERTEX
  5
94F
  100
AcDbEntity
  8
Layer 1
  62
0
  100
AcDb2dVertex
  10
0.00720
  20
0.33955
  30
0.00000
  42
-0.0424
  70
32
  0
VERTEX
  5
950
  100
AcDbEntity
  8
Layer 1
  62
0
  100
AcDb2dVertex
  10
0.03543
  20
0.40688
  30
0.00000
  42
-0.0258
  70
32
  0
VERTEX
  5
951
  100
AcDbEntity
  8
Layer 1
  62
0
  100
AcDb2dVertex
  10
0.09958
  20
0.51649
  30
0.00000
  70
32
  0
VERTEX
  5
952
  100
AcDbEntity
  8
Layer 1
  62
0
  100
AcDb2dVertex
  10
0.11200
  20
0.53550
  30
0.00000
  70
32
  0
VERTEX
  5
953
  100
AcDbEntity
  8
Layer 1
  62
0
  100
AcDb2dVertex
  10
0.24000
  20
0.44350
  30
0.00000
  70
32
  0
VERTEX
  5
954
  100
AcDbEntity
  8
Layer 1
  62
0
  100
AcDb2dVertex
  10
0.11200
  20
0.53550
  30
0.00000
  70
32
  0
VERTEX
  5
955
  100
AcDbEntity
  8
Layer 1
  62
0
  100
AcDb2dVertex
  10
0.12700
  20
0.55362
  30
0.00000
  70
32
  0
VERTEX
  5
956
  100
AcDbEntity
  8
Layer 1
  62
0
  100
AcDb2dVertex
  10
0.14200
  20
0.57250
  30
0.00000
  42
-0.0493
  70
32
  0
VERTEX
  5
957
  100
AcDbEntity
  8
Layer 1
  62
0
  100
AcDb2dVertex
  10
0.16945
  20
0.59484
  30
0.00000
  42
-0.0911
  70
32
  0
VERTEX
  5
958
  100
AcDbEntity
  8
Layer 1
  62
0
  100
AcDb2dVertex
  10
0.18300
  20
0.60050
  30
0.00000
  42
-0.0298
  70
32
  0
VERTEX
  5
959
  100
AcDbEntity
  8
Layer 1
  62
0
  100
AcDb2dVertex
  10
0.21222
  20
0.60241
  30
0.00000
  42
-0.0070
  70
32
  0
VERTEX
  5
95A
  100
AcDbEntity
  8
Layer 1
  62
0
  100
AcDb2dVertex
  10
0.32200
  20
0.60350
  30
0.00000
  42
-0.0861
  70
32
  0
VERTEX
  5
95B
  100
AcDbEntity
  8
Layer 1
  62
0
  100
AcDb2dVertex
  10
0.36363
  20
0.59731
  30
0.00000
  42
-0.1658
  70
32
  0
VERTEX
  5
95C
  100
AcDbEntity
  8
Layer 1
  62
0
  100
AcDb2dVertex
  10
0.39323
  20
0.57501
  30
0.00000
  42
-0.0569
  70
32
  0
VERTEX
  5
95D
  100
AcDbEntity
  8
Layer 1
  62
0
  100
AcDb2dVertex
  10
0.39900
  20
0.56350
  30
0.00000
  42
-0.0617
  70
32
  0
VERTEX
  5
95E
  100
AcDbEntity
  8
Layer 1
  62
0
  100
AcDb2dVertex
  10
0.40424
  20
0.53932
  30
0.00000
  42
-0.0245
  70
32
  0
VERTEX
  5
95F
  100
AcDbEntity
  8
Layer 1
  62
0
  100
AcDb2dVertex
  10
0.40800
  20
0.47550
  30
0.00000
  42
0.0803
  70
32
  0
VERTEX
  5
960
  100
AcDbEntity
  8
Layer 1
  62
0
  100
AcDb2dVertex
  10
0.41399
  20
0.43750
  30
0.00000
  42
0.1544
  70
32
  0
VERTEX
  5
961
  100
AcDbEntity
  8
Layer 1
  62
0
  100
AcDb2dVertex
  10
0.43081
  20
0.41378
  30
0.00000
  42
0.1545
  70
32
  0
VERTEX
  5
962
  100
AcDbEntity
  8
Layer 1
  62
0
  100
AcDb2dVertex
  10
0.45870
  20
0.40551
  30
0.00000
  70
32
  0
VERTEX
  5
963
  100
AcDbEntity
  8
Layer 1
  62
0
  100
AcDb2dVertex
  10
0.46000
  20
0.40550
  30
0.00000
  42
0.0999
  70
32
  0
VERTEX
  5
964
  100
AcDbEntity
  8
Layer 1
  62
0
  100
AcDb2dVertex
  10
0.48989
  20
0.41052
  30
0.00000
  42
0.2724
  70
32
  0
VERTEX
  5
965
  100
AcDbEntity
  8
Layer 1
  62
0
  100
AcDb2dVertex
  10
0.51121
  20
0.43773
  30
0.00000
  42
0.0427
  70
32
  0
VERTEX
  5
966
  100
AcDbEntity
  8
Layer 1
  62
0
  100
AcDb2dVertex
  10
0.51200
  20
0.44750
  30
0.00000
  42
0.0330
  70
32
  0
VERTEX
  5
967
  100
AcDbEntity
  8
Layer 1
  62
0
  100
AcDb2dVertex
  10
0.50775
  20
0.46590
  30
0.00000
  70
32
  0
VERTEX
  5
968
  100
AcDbEntity
  8
Layer 1
  62
0
  100
AcDb2dVertex
  10
0.50600
  20
0.47250
  30
0.00000
  42
-0.0378
  70
32
  0
VERTEX
  5
969
  100
AcDbEntity
  8
Layer 1
  62
0
  100
AcDb2dVertex
  10
0.50003
  20
0.49780
  30
0.00000
  70
32
  0
VERTEX
  5
96A
  100
AcDbEntity
  8
Layer 1
  62
0
  100
AcDb2dVertex
  10
0.50000
  20
0.49850
  30
0.00000
  42
-0.1226
  70
32
  0
VERTEX
  5
96B
  100
AcDbEntity
  8
Layer 1
  62
0
  100
AcDb2dVertex
  10
0.50606
  20
0.52704
  30
0.00000
  42
-0.2021
  70
32
  0
VERTEX
  5
96C
  100
AcDbEntity
  8
Layer 1
  62
0
  100
AcDb2dVertex
  10
0.53083
  20
0.54691
  30
0.00000
  42
-0.0780
  70
32
  0
VERTEX
  5
96D
  100
AcDbEntity
  8
Layer 1
  62
0
  100
AcDb2dVertex
  10
0.55700
  20
0.55050
  30
0.00000
  42
-0.0851
  70
32
  0
VERTEX
  5
96E
  100
AcDbEntity
  8
Layer 1
  62
0
  100
AcDb2dVertex
  10
0.60700
  20
0.54250
  30
0.00000
  70
32
  0
VERTEX
  5
96F
  100
AcDbEntity
  8
Layer 1
  62
0
  100
AcDb2dVertex
  10
0.58900
  20
0.41850
  30
0.00000
  70
32
  0
VERTEX
  5
970
  100
AcDbEntity
  8
Layer 1
  62
0
  100
AcDb2dVertex
  10
0.60700
  20
0.54250
  30
0.00000
  42
-0.0148
  70
32
  0
VERTEX
  5
971
  100
AcDbEntity
  8
Layer 1
  62
0
  100
AcDb2dVertex
  10
0.68700
  20
0.51050
  30
0.00000
  42
-0.0404
  70
32
  0
VERTEX
  5
972
  100
AcDbEntity
  8
Layer 1
  62
0
  100
AcDb2dVertex
  10
0.67453
  20
0.46810
  30
0.00000
  42
-0.0096
  70
32
  0
VERTEX
  5
973
  100
AcDbEntity
  8
Layer 1
  62
0
  100
AcDb2dVertex
  10
0.66000
  20
0.43050
  30
0.00000
  42
0.0613
  70
32
  0
VERTEX
  5
974
  100
AcDbEntity
  8
Layer 1
  62
0
  100
AcDb2dVertex
  10
0.64321
  20
0.37086
  30
0.00000
  42
0.0329
  70
32
  0
VERTEX
  5
975
  100
AcDbEntity
  8
Layer 1
  62
0
  100
AcDb2dVertex
  10
0.64200
  20
0.35350
  30
0.00000
  42
0.1425
  70
32
  0
VERTEX
  5
976
  100
AcDbEntity
  8
Layer 1
  62
0
  100
AcDb2dVertex
  10
0.64699
  20
0.33283
  30
0.00000
  42
0.2135
  70
32
  0
VERTEX
  5
977
  100
AcDbEntity
  8
Layer 1
  62
0
  100
AcDb2dVertex
  10
0.66509
  20
0.32138
  30
0.00000
  42
0.0482
  70
32
  0
VERTEX
  5
978
  100
AcDbEntity
  8
Layer 1
  62
0
  100
AcDb2dVertex
  10
0.67500
  20
0.32050
  30
0.00000
  42
0.1338
  70
32
  0
VERTEX
  5
979
  100
AcDbEntity
  8
Layer 1
  62
0
  100
AcDb2dVertex
  10
0.68464
  20
0.32450
  30
0.00000
  42
0.0374
  70
32
  0
VERTEX
  5
97A
  100
AcDbEntity
  8
Layer 1
  62
0
  100
AcDb2dVertex
  10
0.69600
  20
0.33350
  30
0.00000
  42
-0.0471
  70
32
  0
VERTEX
  5
97B
  100
AcDbEntity
  8
Layer 1
  62
0
  100
AcDb2dVertex
  10
0.71397
  20
0.34656
  30
0.00000
  42
-0.1070
  70
32
  0
VERTEX
  5
97C
  100
AcDbEntity
  8
Layer 1
  62
0
  100
AcDb2dVertex
  10
0.71700
  20
0.34750
  30
0.00000
  42
-0.2085
  70
32
  0
VERTEX
  5
97D
  100
AcDbEntity
  8
Layer 1
  62
0
  100
AcDb2dVertex
  10
0.73153
  20
0.34043
  30
0.00000
  42
-0.0951
  70
32
  0
VERTEX
  5
97E
  100
AcDbEntity
  8
Layer 1
  62
0
  100
AcDb2dVertex
  10
0.74454
  20
0.31833
  30
0.00000
  70
32
  0
VERTEX
  5
97F
  100
AcDbEntity
  8
Layer 1
  62
0
  100
AcDb2dVertex
  10
0.74600
  20
0.31450
  30
0.00000
  42
0.0856
  70
32
  0
VERTEX
  5
980
  100
AcDbEntity
  8
Layer 1
  62
0
  100
AcDb2dVertex
  10
0.75948
  20
0.29120
  30
0.00000
  42
0.1997
  70
32
  0
VERTEX
  5
981
  100
AcDbEntity
  8
Layer 1
  62
0
  100
AcDb2dVertex
  10
0.77556
  20
0.28255
  30
0.00000
  70
32
  0
VERTEX
  5
982
  100
AcDbEntity
  8
Layer 1
  62
0
  100
AcDb2dVertex
  10
0.77700
  20
0.28250
  30
0.00000
  42
0.1573
  70
32
  0
VERTEX
  5
983
  100
AcDbEntity
  8
Layer 1
  62
0
  100
AcDb2dVertex
  10
0.78410
  20
0.28608
  30
0.00000
  42
0.0429
  70
32
  0
VERTEX
  5
984
  100
AcDbEntity
  8
Layer 1
  62
0
  100
AcDb2dVertex
  10
0.80000
  20
0.30250
  30
0.00000
  42
-0.0745
  70
32
  0
VERTEX
  5
985
  100
AcDbEntity
  8
Layer 1
  62
0
  100
AcDb2dVertex
  10
0.81837
  20
0.31981
  30
0.00000
  42
-0.1348
  70
32
  0
VERTEX
  5
986
  100
AcDbEntity
  8
Layer 1
  62
0
  100
AcDb2dVertex
  10
0.82600
  20
0.32250
  30
0.00000
  42
-0.2335
  70
32
  0
VERTEX
  5
987
  100
AcDbEntity
  8
Layer 1
  62
0
  100
AcDb2dVertex
  10
0.83716
  20
0.31633
  30
0.00000
  42
-0.0965
  70
32
  0
VERTEX
  5
988
  100
AcDbEntity
  8
Layer 1
  62
0
  100
AcDb2dVertex
  10
0.84600
  20
0.29750
  30
0.00000
  42
0.1497
  70
32
  0
VERTEX
  5
989
  100
AcDbEntity
  8
Layer 1
  62
0
  100
AcDb2dVertex
  10
0.85578
  20
0.27936
  30
0.00000
  42
0.1906
  70
32
  0
VERTEX
  5
98A
  100
AcDbEntity
  8
Layer 1
  62
0
  100
AcDb2dVertex
  10
0.87200
  20
0.27350
  30
0.00000
  42
0.1756
  70
32
  0
VERTEX
  5
98B
  100
AcDbEntity
  8
Layer 1
  62
0
  100
AcDb2dVertex
  10
0.88377
  20
0.27868
  30
0.00000
  42
0.0477
  70
32
  0
VERTEX
  5
98C
  100
AcDbEntity
  8
Layer 1
  62
0
  100
AcDb2dVertex
  10
0.89500
  20
0.29050
  30
0.00000
  42
-0.0906
  70
32
  0
VERTEX
  5
98D
  100
AcDbEntity
  8
Layer 1
  62
0
  100
AcDb2dVertex
  10
0.90910
  20
0.30520
  30
0.00000
  42
-0.1409
  70
32
  0
VERTEX
  5
98E
  100
AcDbEntity
  8
Layer 1
  62
0
  100
AcDb2dVertex
  10
0.91600
  20
0.30750
  30
0.00000
  42
0.0148
  70
32
  0
VERTEX
  5
98F
  100
AcDbEntity
  8
Layer 1
  62
0
  100
AcDb2dVertex
  10
0.93800
  20
0.28450
  30
0.00000
  42
0.2062
  70
32
  0
VERTEX
  5
990
  100
AcDbEntity
  8
Layer 1
  62
0
  100
AcDb2dVertex
  10
0.99100
  20
0.26250
  30
0.00000
  42
0.1103
  70
32
  0
VERTEX
  5
991
  100
AcDbEntity
  8
Layer 1
  62
0
  100
AcDb2dVertex
  10
1.00419
  20
0.28090
  30
0.00000
  70
32
  0
VERTEX
  5
992
  100
AcDbEntity
  8
Layer 1
  62
0
  100
AcDb2dVertex
  10
1.00700
  20
0.28750
  30
0.00000
  42
-0.2040
  70
32
  0
VERTEX
  5
993
  100
AcDbEntity
  8
Layer 1
  62
0
  100
AcDb2dVertex
  10
1.01949
  20
0.29949
  30
0.00000
  42
-0.0811
  70
32
  0
VERTEX
  5
994
  100
AcDbEntity
  8
Layer 1
  62
0
  100
AcDb2dVertex
  10
1.02600
  20
0.30050
  30
0.00000
  42
-0.1948
  70
32
  0
VERTEX
  5
995
  100
AcDbEntity
  8
Layer 1
  62
0
  100
AcDb2dVertex
  10
1.03614
  20
0.29539
  30
0.00000
  42
-0.0748
  70
32
  0
VERTEX
  5
996
  100
AcDbEntity
  8
Layer 1
  62
0
  100
AcDb2dVertex
  10
1.04600
  20
0.28150
  30
0.00000
  42
0.1300
  70
32
  0
VERTEX
  5
997
  100
AcDbEntity
  8
Layer 1
  62
0
  100
AcDb2dVertex
  10
1.06113
  20
0.26575
  30
0.00000
  42
0.1287
  70
32
  0
VERTEX
  5
998
  100
AcDbEntity
  8
Layer 1
  62
0
  100
AcDb2dVertex
  10
1.07400
  20
0.26250
  30
0.00000
  42
0.2349
  70
32
  0
VERTEX
  5
999
  100
AcDbEntity
  8
Layer 1
  62
0
  100
AcDb2dVertex
  10
1.09027
  20
0.27097
  30
0.00000
  42
0.0702
  70
32
  0
VERTEX
  5
99A
  100
AcDbEntity
  8
Layer 1
  62
0
  100
AcDb2dVertex
  10
1.09700
  20
0.28250
  30
0.00000
  70
32
  0
VERTEX
  5
99B
  100
AcDbEntity
  8
Layer 1
  62
0
  100
AcDb2dVertex
  10
1.10401
  20
0.29753
  30
0.00000
  70
32
  0
VERTEX
  5
99C
  100
AcDbEntity
  8
Layer 1
  62
0
  100
AcDb2dVertex
  10
1.11100
  20
0.31250
  30
0.00000
  70
32
  0
VERTEX
  5
99D
  100
AcDbEntity
  8
Layer 1
  62
0
  100
AcDb2dVertex
  10
1.12700
  20
0.31250
  30
0.00000
  42
-0.0106
  70
32
  0
VERTEX
  5
99E
  100
AcDbEntity
  8
Layer 1
  62
0
  100
AcDb2dVertex
  10
1.14200
  20
0.28350
  30
0.00000
  42
0.1482
  70
32
  0
VERTEX
  5
99F
  100
AcDbEntity
  8
Layer 1
  62
0
  100
AcDb2dVertex
  10
1.15489
  20
0.27050
  30
0.00000
  42
0.1132
  70
32
  0
VERTEX
  5
9A0
  100
AcDbEntity
  8
Layer 1
  62
0
  100
AcDb2dVertex
  10
1.16400
  20
0.26850
  30
0.00000
  42
0.1258
  70
32
  0
VERTEX
  5
9A1
  100
AcDbEntity
  8
Layer 1
  62
0
  100
AcDb2dVertex
  10
1.17508
  20
0.27266
  30
0.00000
  42
0.0446
  70
32
  0
VERTEX
  5
9A2
  100
AcDbEntity
  8
Layer 1
  62
0
  100
AcDb2dVertex
  10
1.20308
  20
0.29467
  30
0.00000
  70
32
  0
VERTEX
  5
9A3
  100
AcDbEntity
  8
Layer 1
  62
0
  100
AcDb2dVertex
  10
1.20400
  20
0.29550
  30
0.00000
  70
32
  0
VERTEX
  5
9A4
  100
AcDbEntity
  8
Layer 1
  62
0
  100
AcDb2dVertex
  10
1.21700
  20
0.29550
  30
0.00000
  42
0.0544
  70
32
  0
VERTEX
  5
9A5
  100
AcDbEntity
  8
Layer 1
  62
0
  100
AcDb2dVertex
  10
1.23711
  20
0.26160
  30
0.00000
  42
0.1198
  70
32
  0
VERTEX
  5
9A6
  100
AcDbEntity
  8
Layer 1
  62
0
  100
AcDb2dVertex
  10
1.25097
  20
0.24981
  30
0.00000
  42
0.1017
  70
32
  0
VERTEX
  5
9A7
  100
AcDbEntity
  8
Layer 1
  62
0
  100
AcDb2dVertex
  10
1.25700
  20
0.24850
  30
0.00000
  42
0.2164
  70
32
  0
VERTEX
  5
9A8
  100
AcDbEntity
  8
Layer 1
  62
0
  100
AcDb2dVertex
  10
1.27165
  20
0.25576
  30
0.00000
  42
0.0767
  70
32
  0
VERTEX
  5
9A9
  100
AcDbEntity
  8
Layer 1
  62
0
  100
AcDb2dVertex
  10
1.28100
  20
0.27050
  30
0.00000
  42
-0.1015
  70
32
  0
VERTEX
  5
9AA
  100
AcDbEntity
  8
Layer 1
  62
0
  100
AcDb2dVertex
  10
1.29242
  20
0.28856
  30
0.00000
  42
-0.1896
  70
32
  0
VERTEX
  5
9AB
  100
AcDbEntity
  8
Layer 1
  62
0
  100
AcDb2dVertex
  10
1.30100
  20
0.29250
  30
0.00000
  42
-0.1706
  70
32
  0
VERTEX
  5
9AC
  100
AcDbEntity
  8
Layer 1
  62
0
  100
AcDb2dVertex
  10
1.31079
  20
0.28788
  30
0.00000
  42
-0.0646
  70
32
  0
VERTEX
  5
9AD
  100
AcDbEntity
  8
Layer 1
  62
0
  100
AcDb2dVertex
  10
1.32400
  20
0.27250
  30
0.00000
  42
0.1819
  70
32
  0
VERTEX
  5
9AE
  100
AcDbEntity
  8
Layer 1
  62
0
  100
AcDb2dVertex
  10
1.35034
  20
0.25443
  30
0.00000
  42
0.0544
  70
32
  0
VERTEX
  5
9AF
  100
AcDbEntity
  8
Layer 1
  62
0
  100
AcDb2dVertex
  10
1.35900
  20
0.25350
  30
0.00000
  42
0.1804
  70
32
  0
VERTEX
  5
9B0
  100
AcDbEntity
  8
Layer 1
  62
0
  100
AcDb2dVertex
  10
1.37406
  20
0.26005
  30
0.00000
  42
0.0746
  70
32
  0
VERTEX
  5
9B1
  100
AcDbEntity
  8
Layer 1
  62
0
  100
AcDb2dVertex
  10
1.38900
  20
0.27850
  30
0.00000
  42
-0.1219
  70
32
  0
VERTEX
  5
9B2
  100
AcDbEntity
  8
Layer 1
  62
0
  100
AcDb2dVertex
  10
1.40685
  20
0.29817
  30
0.00000
  42
-0.1427
  70
32
  0
VERTEX
  5
9B3
  100
AcDbEntity
  8
Layer 1
  62
0
  100
AcDb2dVertex
  10
1.42600
  20
0.30350
  30
0.00000
  42
-0.1546
  70
32
  0
VERTEX
  5
9B4
  100
AcDbEntity
  8
Layer 1
  62
0
  100
AcDb2dVertex
  10
1.45411
  20
0.29569
  30
0.00000
  42
-0.1592
  70
32
  0
VERTEX
  5
9B5
  100
AcDbEntity
  8
Layer 1
  62
0
  100
AcDb2dVertex
  10
1.47132
  20
0.27183
  30
0.00000
  42
-0.0838
  70
32
  0
VERTEX
  5
9B6
  100
AcDbEntity
  8
Layer 1
  62
0
  100
AcDb2dVertex
  10
1.47700
  20
0.23369
  30
0.00000
  70
32
  0
VERTEX
  5
9B7
  100
AcDbEntity
  8
Layer 1
  62
0
  100
AcDb2dVertex
  10
1.47700
  20
0.23250
  30
0.00000
  42
-0.0328
  70
32
  0
VERTEX
  5
9B8
  100
AcDbEntity
  8
Layer 1
  62
0
  100
AcDb2dVertex
  10
1.47483
  20
0.18564
  30
0.00000
  42
-0.0954
  70
32
  0
VERTEX
  5
9B9
  100
AcDbEntity
  8
Layer 1
  62
0
  100
AcDb2dVertex
  10
1.47047
  20
0.17039
  30
0.00000
  70
32
  0
VERTEX
  5
9BA
  100
AcDbEntity
  8
Layer 1
  62
0
  100
AcDb2dVertex
  10
1.46900
  20
0.16850
  30
0.00000
  70
32
  0
VERTEX
  5
9BB
  100
AcDbEntity
  8
Layer 1
  62
0
  100
AcDb2dVertex
  10
1.37100
  20
0.16750
  30
0.00000
  70
32
  0
VERTEX
  5
9BC
  100
AcDbEntity
  8
Layer 1
  62
0
  100
AcDb2dVertex
  10
1.46900
  20
0.16850
  30
0.00000
  42
-0.0995
  70
32
  0
VERTEX
  5
9BD
  100
AcDbEntity
  8
Layer 1
  62
0
  100
AcDb2dVertex
  10
1.48044
  20
0.16048
  30
0.00000
  42
-0.0174
  70
32
  0
VERTEX
  5
9BE
  100
AcDbEntity
  8
Layer 1
  62
0
  100
AcDb2dVertex
  10
1.49600
  20
0.14450
  30
0.00000
  42
0.1085
  70
32
  0
VERTEX
  5
9BF
  100
AcDbEntity
  8
Layer 1
  62
0
  100
AcDb2dVertex
  10
1.51801
  20
0.12667
  30
0.00000
  42
0.1079
  70
32
  0
VERTEX
  5
9C0
  100
AcDbEntity
  8
Layer 1
  62
0
  100
AcDb2dVertex
  10
1.53200
  20
0.12350
  30
0.00000
  42
0.1120
  70
32
  0
VERTEX
  5
9C1
  100
AcDbEntity
  8
Layer 1
  62
0
  100
AcDb2dVertex
  10
1.55728
  20
0.13038
  30
0.00000
  42
0.0603
  70
32
  0
VERTEX
  5
9C2
  100
AcDbEntity
  8
Layer 1
  62
0
  100
AcDb2dVertex
  10
1.59528
  20
0.15632
  30
0.00000
  42
0.0351
  70
32
  0
VERTEX
  5
9C3
  100
AcDbEntity
  8
Layer 1
  62
0
  100
AcDb2dVertex
  10
1.65571
  20
0.21652
  30
0.00000
  70
32
  0
VERTEX
  5
9C4
  100
AcDbEntity
  8
Layer 1
  62
0
  100
AcDb2dVertex
  10
1.66100
  20
0.22250
  30
0.00000
  42
-0.0127
  70
32
  0
VERTEX
  5
9C5
  100
AcDbEntity
  8
Layer 1
  62
0
  100
AcDb2dVertex
  10
1.73733
  20
0.30896
  30
0.00000
  42
-0.0425
  70
32
  0
VERTEX
  5
9C6
  100
AcDbEntity
  8
Layer 1
  62
0
  100
AcDb2dVertex
  10
1.75119
  20
0.32216
  30
0.00000
  70
32
  0
VERTEX
  5
9C7
  100
AcDbEntity
  8
Layer 1
  62
0
  100
AcDb2dVertex
  10
1.75200
  20
0.32250
  30
0.00000
  42
-0.1904
  70
32
  0
VERTEX
  5
9C8
  100
AcDbEntity
  8
Layer 1
  62
0
  100
AcDb2dVertex
  10
1.76557
  20
0.31817
  30
0.00000
  42
-0.1971
  70
32
  0
VERTEX
  5
9C9
  100
AcDbEntity
  8
Layer 1
  62
0
  100
AcDb2dVertex
  10
1.77092
  20
0.30494
  30
0.00000
  70
32
  0
VERTEX
  5
9CA
  100
AcDbEntity
  8
Layer 1
  62
0
  100
AcDb2dVertex
  10
1.77100
  20
0.30250
  30
0.00000
  70
32
  0
SEQEND
  5
9CB
  100
AcDbEntity
  8
Layer 1
  62
0
  0
POLYLINE
  5
9CC
  100
AcDbEntity
  8
Layer 1
  62
0
  100
AcDb2dPolyline
 66
     1
  10
0
  20
0
  30
0
  70
1
  0
VERTEX
  5
9CD
  100
AcDbEntity
  8
Layer 1
  62
0
  100
AcDb2dVertex
  10
0.65400
  20
0.90250
  30
0.00000
  42
0.0073
  70
32
  0
VERTEX
  5
9CE
  100
AcDbEntity
  8
Layer 1
  62
0
  100
AcDb2dVertex
  10
0.63100
  20
0.84750
  30
0.00000
  42
0.0637
  70
32
  0
VERTEX
  5
9CF
  100
AcDbEntity
  8
Layer 1
  62
0
  100
AcDb2dVertex
  10
0.60943
  20
0.77914
  30
0.00000
  42
0.0408
  70
32
  0
VERTEX
  5
9D0
  100
AcDbEntity
  8
Layer 1
  62
0
  100
AcDb2dVertex
  10
0.60700
  20
0.75050
  30
0.00000
  70
32
  0
VERTEX
  5
9D1
  100
AcDbEntity
  8
Layer 1
  62
0
  100
AcDb2dVertex
  10
0.61300
  20
0.70250
  30
0.00000
  42
-0.0106
  70
32
  0
VERTEX
  5
9D2
  100
AcDbEntity
  8
Layer 1
  62
0
  100
AcDb2dVertex
  10
0.61900
  20
0.65350
  30
0.00000
  42
-0.2642
  70
32
  0
VERTEX
  5
9D3
  100
AcDbEntity
  8
Layer 1
  62
0
  100
AcDb2dVertex
  10
0.60543
  20
0.62860
  30
0.00000
  42
-0.0999
  70
32
  0
VERTEX
  5
9D4
  100
AcDbEntity
  8
Layer 1
  62
0
  100
AcDb2dVertex
  10
0.57890
  20
0.61867
  30
0.00000
  42
-0.0475
  70
32
  0
VERTEX
  5
9D5
  100
AcDbEntity
  8
Layer 1
  62
0
  100
AcDb2dVertex
  10
0.54000
  20
0.61550
  30
0.00000
  70
32
  0
VERTEX
  5
9D6
  100
AcDbEntity
  8
Layer 1
  62
0
  100
AcDb2dVertex
  10
0.50700
  20
0.62350
  30
0.00000
  42
-0.2346
  70
32
  0
VERTEX
  5
9D7
  100
AcDbEntity
  8
Layer 1
  62
0
  100
AcDb2dVertex
  10
0.48045
  20
0.63660
  30
0.00000
  42
-0.0980
  70
32
  0
VERTEX
  5
9D8
  100
AcDbEntity
  8
Layer 1
  62
0
  100
AcDb2dVertex
  10
0.46671
  20
0.66441
  30
0.00000
  70
32
  0
VERTEX
  5
9D9
  100
AcDbEntity
  8
Layer 1
  62
0
  100
AcDb2dVertex
  10
0.46500
  20
0.67050
  30
0.00000
  42
0.1268
  70
32
  0
VERTEX
  5
9DA
  100
AcDbEntity
  8
Layer 1
  62
0
  100
AcDb2dVertex
  10
0.45057
  20
0.70090
  30
0.00000
  42
0.1949
  70
32
  0
VERTEX
  5
9DB
  100
AcDbEntity
  8
Layer 1
  62
0
  100
AcDb2dVertex
  10
0.41713
  20
0.71716
  30
0.00000
  70
32
  0
VERTEX
  5
9DC
  100
AcDbEntity
  8
Layer 1
  62
0
  100
AcDb2dVertex
  10
0.41000
  20
0.71750
  30
0.00000
  42
0.0978
  70
32
  0
VERTEX
  5
9DD
  100
AcDbEntity
  8
Layer 1
  62
0
  100
AcDb2dVertex
  10
0.38818
  20
0.71204
  30
0.00000
  42
0.0269
  70
32
  0
VERTEX
  5
9DE
  100
AcDbEntity
  8
Layer 1
  62
0
  100
AcDb2dVertex
  10
0.36900
  20
0.70250
  30
0.00000
  42
-0.0502
  70
32
  0
VERTEX
  5
9DF
  100
AcDbEntity
  8
Layer 1
  62
0
  100
AcDb2dVertex
  10
0.33830
  20
0.68985
  30
0.00000
  42
-0.0618
  70
32
  0
VERTEX
  5
9E0
  100
AcDbEntity
  8
Layer 1
  62
0
  100
AcDb2dVertex
  10
0.32900
  20
0.68850
  30
0.00000
  42
-0.1323
  70
32
  0
VERTEX
  5
9E1
  100
AcDbEntity
  8
Layer 1
  62
0
  100
AcDb2dVertex
  10
0.31325
  20
0.69389
  30
0.00000
  42
-0.0596
  70
32
  0
VERTEX
  5
9E2
  100
AcDbEntity
  8
Layer 1
  62
0
  100
AcDb2dVertex
  10
0.28600
  20
0.71650
  30
0.00000
  42
0.0977
  70
32
  0
VERTEX
  5
9E3
  100
AcDbEntity
  8
Layer 1
  62
0
  100
AcDb2dVertex
  10
0.25385
  20
0.73926
  30
0.00000
  42
0.0985
  70
32
  0
VERTEX
  5
9E4
  100
AcDbEntity
  8
Layer 1
  62
0
  100
AcDb2dVertex
  10
0.23400
  20
0.74350
  30
0.00000
  42
0.2001
  70
32
  0
VERTEX
  5
9E5
  100
AcDbEntity
  8
Layer 1
  62
0
  100
AcDb2dVertex
  10
0.20469
  20
0.73145
  30
0.00000
  42
0.0448
  70
32
  0
VERTEX
  5
9E6
  100
AcDbEntity
  8
Layer 1
  62
0
  100
AcDb2dVertex
  10
0.19500
  20
0.72050
  30
0.00000
  70
32
  0
VERTEX
  5
9E7
  100
AcDbEntity
  8
Layer 1
  62
0
  100
AcDb2dVertex
  10
0.17713
  20
0.69362
  30
0.00000
  42
-0.0275
  70
32
  0
VERTEX
  5
9E8
  100
AcDbEntity
  8
Layer 1
  62
0
  100
AcDb2dVertex
  10
0.16900
  20
0.68250
  30
0.00000
  70
32
  0
VERTEX
  5
9E9
  100
AcDbEntity
  8
Layer 1
  62
0
  100
AcDb2dVertex
  10
0.12200
  20
0.68250
  30
0.00000
  70
32
  0
VERTEX
  5
9EA
  100
AcDbEntity
  8
Layer 1
  62
0
  100
AcDb2dVertex
  10
0.13200
  20
0.83250
  30
0.00000
  70
32
  0
VERTEX
  5
9EB
  100
AcDbEntity
  8
Layer 1
  62
0
  100
AcDb2dVertex
  10
0.12200
  20
0.68250
  30
0.00000
  42
-0.0060
  70
32
  0
VERTEX
  5
9EC
  100
AcDbEntity
  8
Layer 1
  62
0
  100
AcDb2dVertex
  10
0.07500
  20
0.68850
  30
0.00000
  42
-0.0610
  70
32
  0
VERTEX
  5
9ED
  100
AcDbEntity
  8
Layer 1
  62
0
  100
AcDb2dVertex
  10
0.04384
  20
0.69721
  30
0.00000
  42
-0.1047
  70
32
  0
VERTEX
  5
9EE
  100
AcDbEntity
  8
Layer 1
  62
0
  100
AcDb2dVertex
  10
0.03200
  20
0.70550
  30
0.00000
  42
-0.0945
  70
32
  0
VERTEX
  5
9EF
  100
AcDbEntity
  8
Layer 1
  62
0
  100
AcDb2dVertex
  10
0.03319
  20
0.73361
  30
0.00000
  42
-0.0436
  70
32
  0
VERTEX
  5
9F0
  100
AcDbEntity
  8
Layer 1
  62
0
  100
AcDb2dVertex
  10
0.04700
  20
0.77750
  30
0.00000
  42
0.0260
  70
32
  0
VERTEX
  5
9F1
  100
AcDbEntity
  8
Layer 1
  62
0
  100
AcDb2dVertex
  10
0.07143
  20
0.83793
  30
0.00000
  42
0.0479
  70
32
  0
VERTEX
  5
9F2
  100
AcDbEntity
  8
Layer 1
  62
0
  100
AcDb2dVertex
  10
0.07500
  20
0.85250
  30
0.00000
  42
0.0186
  70
32
  0
VERTEX
  5
9F3
  100
AcDbEntity
  8
Layer 1
  62
0
  100
AcDb2dVertex
  10
0.07996
  20
0.93631
  30
0.00000
  70
32
  0
VERTEX
  5
9F4
  100
AcDbEntity
  8
Layer 1
  62
0
  100
AcDb2dVertex
  10
0.08000
  20
0.93750
  30
0.00000
  42
-0.0696
  70
32
  0
VERTEX
  5
9F5
  100
AcDbEntity
  8
Layer 1
  62
0
  100
AcDb2dVertex
  10
0.09249
  20
0.98010
  30
0.00000
  42
-0.1233
  70
32
  0
VERTEX
  5
9F6
  100
AcDbEntity
  8
Layer 1
  62
0
  100
AcDb2dVertex
  10
0.10943
  20
1.00186
  30
0.00000
  42
-0.1619
  70
32
  0
VERTEX
  5
9F7
  100
AcDbEntity
  8
Layer 1
  62
0
  100
AcDb2dVertex
  10
0.13000
  20
1.00850
  30
0.00000
  42
-0.1875
  70
32
  0
VERTEX
  5
9F8
  100
AcDbEntity
  8
Layer 1
  62
0
  100
AcDb2dVertex
  10
0.16040
  20
0.99626
  30
0.00000
  42
-0.0760
  70
32
  0
VERTEX
  5
9F9
  100
AcDbEntity
  8
Layer 1
  62
0
  100
AcDb2dVertex
  10
0.17800
  20
0.97450
  30
0.00000
  42
0.0927
  70
32
  0
VERTEX
  5
9FA
  100
AcDbEntity
  8
Layer 1
  62
0
  100
AcDb2dVertex
  10
0.19925
  20
0.94934
  30
0.00000
  42
0.1686
  70
32
  0
VERTEX
  5
9FB
  100
AcDbEntity
  8
Layer 1
  62
0
  100
AcDb2dVertex
  10
0.22400
  20
0.94050
  30
0.00000
  42
0.1354
  70
32
  0
VERTEX
  5
9FC
  100
AcDbEntity
  8
Layer 1
  62
0
  100
AcDb2dVertex
  10
0.24068
  20
0.94620
  30
0.00000
  42
0.0585
  70
32
  0
VERTEX
  5
9FD
  100
AcDbEntity
  8
Layer 1
  62
0
  100
AcDb2dVertex
  10
0.26400
  20
0.96550
  30
0.00000
  42
-0.2004
  70
32
  0
VERTEX
  5
9FE
  100
AcDbEntity
  8
Layer 1
  62
0
  100
AcDb2dVertex
  10
0.31831
  20
0.99035
  30
0.00000
  70
32
  0
VERTEX
  5
9FF
  100
AcDbEntity
  8
Layer 1
  62
0
  100
AcDb2dVertex
  10
0.32400
  20
0.99050
  30
0.00000
  42
-0.0861
  70
32
  0
VERTEX
  5
A00
  100
AcDbEntity
  8
Layer 1
  62
0
  100
AcDb2dVertex
  10
0.36717
  20
0.98157
  30
0.00000
  70
32
  0
VERTEX
  5
A01
  100
AcDbEntity
  8
Layer 1
  62
0
  100
AcDb2dVertex
  10
0.37000
  20
0.98050
  30
0.00000
  70
32
  0
VERTEX
  5
A02
  100
AcDbEntity
  8
Layer 1
  62
0
  100
AcDb2dVertex
  10
0.35400
  20
0.86050
  30
0.00000
  70
32
  0
VERTEX
  5
A03
  100
AcDbEntity
  8
Layer 1
  62
0
  100
AcDb2dVertex
  10
0.37000
  20
0.98050
  30
0.00000
  42
0.9900
  70
32
  0
VERTEX
  5
A04
  100
AcDbEntity
  8
Layer 1
  62
0
  100
AcDb2dVertex
  10
0.36998
  20
0.98005
  30
0.00000
  42
0.0576
  70
32
  0
VERTEX
  5
A05
  100
AcDbEntity
  8
Layer 1
  62
0
  100
AcDb2dVertex
  10
0.38195
  20
0.97886
  30
0.00000
  42
0.0099
  70
32
  0
VERTEX
  5
A06
  100
AcDbEntity
  8
Layer 1
  62
0
  100
AcDb2dVertex
  10
0.40400
  20
0.97850
  30
0.00000
  42
-0.2129
  70
32
  0
VERTEX
  5
A07
  100
AcDbEntity
  8
Layer 1
  62
0
  100
AcDb2dVertex
  10
0.44448
  20
0.96073
  30
0.00000
  42
-0.0753
  70
32
  0
VERTEX
  5
A08
  100
AcDbEntity
  8
Layer 1
  62
0
  100
AcDb2dVertex
  10
0.46100
  20
0.93650
  30
0.00000
  42
0.0828
  70
32
  0
VERTEX
  5
A09
  100
AcDbEntity
  8
Layer 1
  62
0
  100
AcDb2dVertex
  10
0.48099
  20
0.90650
  30
0.00000
  42
0.1605
  70
32
  0
VERTEX
  5
A0A
  100
AcDbEntity
  8
Layer 1
  62
0
  100
AcDb2dVertex
  10
0.50364
  20
0.89392
  30
0.00000
  42
0.0398
  70
32
  0
VERTEX
  5
A0B
  100
AcDbEntity
  8
Layer 1
  62
0
  100
AcDb2dVertex
  10
0.50900
  20
0.89350
  30
0.00000
  42
0.1348
  70
32
  0
VERTEX
  5
A0C
  100
AcDbEntity
  8
Layer 1
  62
0
  100
AcDb2dVertex
  10
0.52275
  20
0.89843
  30
0.00000
  42
0.0546
  70
32
  0
VERTEX
  5
A0D
  100
AcDbEntity
  8
Layer 1
  62
0
  100
AcDb2dVertex
  10
0.54854
  20
0.92004
  30
0.00000
  70
32
  0
VERTEX
  5
A0E
  100
AcDbEntity
  8
Layer 1
  62
0
  100
AcDb2dVertex
  10
0.55000
  20
0.92150
  30
0.00000
  42
-0.0994
  70
32
  0
VERTEX
  5
A0F
  100
AcDbEntity
  8
Layer 1
  62
0
  100
AcDb2dVertex
  10
0.58196
  20
0.94400
  30
0.00000
  42
-0.0980
  70
32
  0
VERTEX
  5
A10
  100
AcDbEntity
  8
Layer 1
  62
0
  100
AcDb2dVertex
  10
0.60400
  20
0.94850
  30
0.00000
  42
-0.1117
  70
32
  0
VERTEX
  5
A11
  100
AcDbEntity
  8
Layer 1
  62
0
  100
AcDb2dVertex
  10
0.63245
  20
0.94308
  30
0.00000
  42
-0.2371
  70
32
  0
VERTEX
  5
A12
  100
AcDbEntity
  8
Layer 1
  62
0
  100
AcDb2dVertex
  10
0.65235
  20
0.91770
  30
0.00000
  42
-0.0591
  70
32
  0
VERTEX
  5
A13
  100
AcDbEntity
  8
Layer 1
  62
0
  100
AcDb2dVertex
  10
0.65400
  20
0.90250
  30
0.00000
  70
32
  0
SEQEND
  5
A14
  100
AcDbEntity
  8
Layer 1
  62
0
  0
POLYLINE
  5
A15
  100
AcDbEntity
  8
Layer 1
  62
0
  100
AcDb2dPolyline
 66
     1
  10
0
  20
0
  30
0
  70
1
  0
VERTEX
  5
A16
  100
AcDbEntity
  8
Layer 1
  62
0
  100
AcDb2dVertex
  10
4.28800
  20
0.97750
  30
0.00000
  42
0.1545
  70
32
  0
VERTEX
  5
A17
  100
AcDbEntity
  8
Layer 1
  62
0
  100
AcDb2dVertex
  10
4.28353
  20
0.99485
  30
0.00000
  42
0.2182
  70
32
  0
VERTEX
  5
A18
  100
AcDbEntity
  8
Layer 1
  62
0
  100
AcDb2dVertex
  10
4.26821
  20
1.00318
  30
0.00000
  70
32
  0
VERTEX
  5
A19
  100
AcDbEntity
  8
Layer 1
  62
0
  100
AcDb2dVertex
  10
4.26300
  20
1.00350
  30
0.00000
  42
0.0397
  70
32
  0
VERTEX
  5
A1A
  100
AcDbEntity
  8
Layer 1
  62
0
  100
AcDb2dVertex
  10
4.24000
  20
0.99950
  30
0.00000
  42
-0.0355
  70
32
  0
VERTEX
  5
A1B
  100
AcDbEntity
  8
Layer 1
  62
0
  100
AcDb2dVertex
  10
4.21600
  20
0.99550
  30
0.00000
  42
-0.0208
  70
32
  0
VERTEX
  5
A1C
  100
AcDbEntity
  8
Layer 1
  62
0
  100
AcDb2dVertex
  10
4.19300
  20
0.99850
  30
0.00000
  70
32
  0
VERTEX
  5
A1D
  100
AcDbEntity
  8
Layer 1
  62
0
  100
AcDb2dVertex
  10
4.17656
  20
0.99995
  30
0.00000
  70
32
  0
VERTEX
  5
A1E
  100
AcDbEntity
  8
Layer 1
  62
0
  100
AcDb2dVertex
  10
4.17000
  20
1.00050
  30
0.00000
  42
0.1272
  70
32
  0
VERTEX
  5
A1F
  100
AcDbEntity
  8
Layer 1
  62
0
  100
AcDb2dVertex
  10
4.15009
  20
0.99634
  30
0.00000
  42
0.2746
  70
32
  0
VERTEX
  5
A20
  100
AcDbEntity
  8
Layer 1
  62
0
  100
AcDb2dVertex
  10
4.14004
  20
0.97905
  30
0.00000
  70
32
  0
VERTEX
  5
A21
  100
AcDbEntity
  8
Layer 1
  62
0
  100
AcDb2dVertex
  10
4.14000
  20
0.97750
  30
0.00000
  42
0.1568
  70
32
  0
VERTEX
  5
A22
  100
AcDbEntity
  8
Layer 1
  62
0
  100
AcDb2dVertex
  10
4.14514
  20
0.95821
  30
0.00000
  42
0.1269
  70
32
  0
VERTEX
  5
A23
  100
AcDbEntity
  8
Layer 1
  62
0
  100
AcDb2dVertex
  10
4.15700
  20
0.94850
  30
0.00000
  42
-0.0451
  70
32
  0
VERTEX
  5
A24
  100
AcDbEntity
  8
Layer 1
  62
0
  100
AcDb2dVertex
  10
4.19407
  20
0.92751
  30
0.00000
  70
32
  0
VERTEX
  5
A25
  100
AcDbEntity
  8
Layer 1
  62
0
  100
AcDb2dVertex
  10
4.20300
  20
0.92150
  30
0.00000
  42
0.0250
  70
32
  0
VERTEX
  5
A26
  100
AcDbEntity
  8
Layer 1
  62
0
  100
AcDb2dVertex
  10
4.23211
  20
0.90283
  30
0.00000
  70
32
  0
VERTEX
  5
A27
  100
AcDbEntity
  8
Layer 1
  62
0
  100
AcDb2dVertex
  10
4.23300
  20
0.90250
  30
0.00000
  42
0.0074
  70
32
  0
VERTEX
  5
A28
  100
AcDbEntity
  8
Layer 1
  62
0
  100
AcDb2dVertex
  10
4.28800
  20
0.97750
  30
0.00000
  70
32
  0
SEQEND
  5
A29
  100
AcDbEntity
  8
Layer 1
  62
0
  0
POLYLINE
  5
A2A
  100
AcDbEntity
  8
Layer 1
  62
0
  100
AcDb2dPolyline
 66
     1
  10
0
  20
0
  30
0
  70
1
  0
VERTEX
  5
A2B
  100
AcDbEntity
  8
Layer 1
  62
0
  100
AcDb2dVertex
  10
0.17700
  20
1.38250
  30
0.00000
  42
0.2134
  70
32
  0
VERTEX
  5
A2C
  100
AcDbEntity
  8
Layer 1
  62
0
  100
AcDb2dVertex
  10
0.17191
  20
1.39630
  30
0.00000
  42
0.0550
  70
32
  0
VERTEX
  5
A2D
  100
AcDbEntity
  8
Layer 1
  62
0
  100
AcDb2dVertex
  10
0.16900
  20
1.39850
  30
0.00000
  70
32
  0
VERTEX
  5
A2E
  100
AcDbEntity
  8
Layer 1
  62
0
  100
AcDb2dVertex
  10
0.16336
  20
1.40208
  30
0.00000
  70
32
  0
VERTEX
  5
A2F
  100
AcDbEntity
  8
Layer 1
  62
0
  100
AcDb2dVertex
  10
0.09539
  20
1.44505
  30
0.00000
  70
32
  0
VERTEX
  5
A30
  100
AcDbEntity
  8
Layer 1
  62
0
  100
AcDb2dVertex
  10
0.07704
  20
1.45626
  30
0.00000
  42
0.0438
  70
32
  0
VERTEX
  5
A31
  100
AcDbEntity
  8
Layer 1
  62
0
  100
AcDb2dVertex
  10
0.06900
  20
1.46050
  30
0.00000
  42
0.1927
  70
32
  0
VERTEX
  5
A32
  100
AcDbEntity
  8
Layer 1
  62
0
  100
AcDb2dVertex
  10
0.05736
  20
1.45512
  30
0.00000
  42
0.0313
  70
32
  0
VERTEX
  5
A33
  100
AcDbEntity
  8
Layer 1
  62
0
  100
AcDb2dVertex
  10
0.05200
  20
1.44950
  30
0.00000
  42
0.0970
  70
32
  0
VERTEX
  5
A34
  100
AcDbEntity
  8
Layer 1
  62
0
  100
AcDb2dVertex
  10
0.04421
  20
1.43449
  30
0.00000
  70
32
  0
VERTEX
  5
A35
  100
AcDbEntity
  8
Layer 1
  62
0
  100
AcDb2dVertex
  10
0.04400
  20
1.43250
  30
0.00000
  42
0.1290
  70
32
  0
VERTEX
  5
A36
  100
AcDbEntity
  8
Layer 1
  62
0
  100
AcDb2dVertex
  10
0.04797
  20
1.42210
  30
0.00000
  70
32
  0
VERTEX
  5
A37
  100
AcDbEntity
  8
Layer 1
  62
0
  100
AcDb2dVertex
  10
0.04900
  20
1.42050
  30
0.00000
  42
-0.0673
  70
32
  0
VERTEX
  5
A38
  100
AcDbEntity
  8
Layer 1
  62
0
  100
AcDb2dVertex
  10
0.05400
  20
1.41050
  30
0.00000
  42
0.0207
  70
32
  0
VERTEX
  5
A39
  100
AcDbEntity
  8
Layer 1
  62
0
  100
AcDb2dVertex
  10
0.05200
  20
1.36050
  30
0.00000
  42
0.1195
  70
32
  0
VERTEX
  5
A3A
  100
AcDbEntity
  8
Layer 1
  62
0
  100
AcDb2dVertex
  10
0.06522
  20
1.35291
  30
0.00000
  42
0.0549
  70
32
  0
VERTEX
  5
A3B
  100
AcDbEntity
  8
Layer 1
  62
0
  100
AcDb2dVertex
  10
0.06900
  20
1.35250
  30
0.00000
  42
0.0095
  70
32
  0
VERTEX
  5
A3C
  100
AcDbEntity
  8
Layer 1
  62
0
  100
AcDb2dVertex
  10
0.10200
  20
1.36050
  30
0.00000
  42
-0.0355
  70
32
  0
VERTEX
  5
A3D
  100
AcDbEntity
  8
Layer 1
  62
0
  100
AcDb2dVertex
  10
0.12600
  20
1.35650
  30
0.00000
  42
0.0355
  70
32
  0
VERTEX
  5
A3E
  100
AcDbEntity
  8
Layer 1
  62
0
  100
AcDb2dVertex
  10
0.15000
  20
1.35250
  30
0.00000
  42
0.1487
  70
32
  0
VERTEX
  5
A3F
  100
AcDbEntity
  8
Layer 1
  62
0
  100
AcDb2dVertex
  10
0.15982
  20
1.35663
  30
0.00000
  70
32
  0
VERTEX
  5
A40
  100
AcDbEntity
  8
Layer 1
  62
0
  100
AcDb2dVertex
  10
0.16600
  20
1.36150
  30
0.00000
  42
0.1845
  70
32
  0
VERTEX
  5
A41
  100
AcDbEntity
  8
Layer 1
  62
0
  100
AcDb2dVertex
  10
0.17676
  20
1.37914
  30
0.00000
  70
32
  0
VERTEX
  5
A42
  100
AcDbEntity
  8
Layer 1
  62
0
  100
AcDb2dVertex
  10
0.17700
  20
1.38250
  30
0.00000
  70
32
  0
SEQEND
  5
A43
  100
AcDbEntity
  8
Layer 1
  62
0
 0
ENDSEC
 0
EOF
