  0
SECTION
  2
HEADER
  9
$ACADVER
  1
AC1006
  0
ENDSEC
  0
SECTION
  2
TABLES
  0
TABLE
  2
LTYPE
 70
    25
  0
LTYPE
  2
CONTINUOUS
 70
    64
  3
Solid line
 72
    64
 73
     0
 40
0.000000
  0
LTYPE
  2
DASHDOT
 70
    64
  3
__ . __ . __ . __ . __ . __ . __ . __ . __ . __
 72
    65
 73
     4
 40
1.000000
 49
0.500000
 49
-0.250000
 49
0.000000
 49
-0.250000
  0
LTYPE
  2
DASHED
 70
    64
  3
__ __ __ __ __ __ __ __ __ __ __ __ __ __ __ __
 72
    65
 73
     2
 40
0.750000
 49
0.500000
 49
-0.250000
  0
LTYPE
  2
DIVIDE
 70
    64
  3
____ . . ____ . . ____ . . ____ . . ____ . . __
 72
    65
 73
     6
 40
1.250000
 49
0.500000
 49
-0.250000
 49
0.000000
 49
-0.250000
 49
0.000000
 49
-0.250000
  0
LTYPE
  2
DOT
 70
    64
  3
. . . . . . . . . . . . . . . . . . . . . . . . 
 72
    65
 73
     2
 40
0.250000
 49
0.000000
 49
-0.250000
  0
ENDTAB
  0
ENDSEC
  0
SECTION
  2
ENTITIES
  0
ARC
  8
Default
 62
     5
  6
CONTINUOUS
 10
1.411416
 20
0.382828
 30
0.000000
 40
0.256132
 50
280.677201
 51
306.056432
  0
LINE
  8
Default
 62
     5
  6
CONTINUOUS
 10
1.562171
 20
0.175761
 30
0.000000
 11
1.647550
 21
0.190672
 31
0.000000
  0
ARC
  8
Default
 62
     5
  6
CONTINUOUS
 10
1.703665
 20
0.997394
 30
0.000000
 40
0.808671
 50
266.020958
 51
281.040961
  0
ARC
  8
Default
 62
     5
  6
CONTINUOUS
 10
1.539965
 20
2.445097
 30
0.000000
 40
2.263933
 50
278.089220
 51
288.719346
  0
ARC
  8
Default
 62
     5
  6
CONTINUOUS
 10
2.281077
 20
0.160096
 30
0.000000
 40
0.141575
 50
67.870426
 51
95.895434
  0
ARC
  8
Default
 62
     5
  6
CONTINUOUS
 10
2.351360
 20
0.332927
 30
0.000000
 40
0.045000
 50
247.870426
 51
253.094354
  0
LINE
  8
Default
 62
     5
  6
CONTINUOUS
 10
2.338274
 20
0.289872
 30
0.000000
 11
2.437924
 21
0.259585
 31
0.000000
  0
ARC
  8
Default
 62
     5
  6
CONTINUOUS
 10
2.451010
 20
0.302640
 30
0.000000
 40
0.045000
 50
253.094354
 51
256.968329
  0
ARC
  8
Default
 62
     5
  6
CONTINUOUS
 10
2.504514
 20
0.533810
 30
0.000000
 40
0.282281
 50
256.968329
 51
282.391579
  0
LINE
  8
Default
 62
     5
  6
CONTINUOUS
 10
2.565090
 20
0.258105
 30
0.000000
 11
2.687318
 21
0.269955
 31
0.000000
  0
ARC
  8
Default
 62
     5
  6
CONTINUOUS
 10
2.682976
 20
0.314745
 30
0.000000
 40
0.045000
 50
275.537416
 51
286.311911
  0
ARC
  8
Default
 62
     5
  6
CONTINUOUS
 10
2.769564
 20
0.018864
 30
0.000000
 40
0.263291
 50
67.116742
 51
106.311911
  0
ARC
  8
Default
 62
     5
  6
CONTINUOUS
 10
2.889445
 20
0.302892
 30
0.000000
 40
0.045000
 50
247.116742
 51
275.152406
  0
ARC
  8
Default
 62
     5
  6
CONTINUOUS
 10
2.860447
 20
0.624479
 30
0.000000
 40
0.367892
 50
275.152406
 51
304.811900
  0
ARC
  8
Default
 62
     5
  6
CONTINUOUS
 10
3.581829
 20
4.508247
 30
0.000000
 40
4.216938
 50
263.035007
 51
273.863456
  0
ARC
  8
Default
 62
     5
  6
CONTINUOUS
 10
3.862930
 20
0.345790
 30
0.000000
 40
0.045000
 50
273.863456
 51
275.550171
  0
LINE
  8
Default
 62
     5
  6
CONTINUOUS
 10
3.867282
 20
0.301001
 30
0.000000
 11
4.109122
 21
0.324502
 31
0.000000
  0
ARC
  8
Default
 62
     5
  6
CONTINUOUS
 10
4.104769
 20
0.369291
 30
0.000000
 40
0.045000
 50
275.550171
 51
278.147696
  0
LINE
  8
Default
 62
     5
  6
CONTINUOUS
 10
4.111147
 20
0.324745
 30
0.000000
 11
4.226361
 21
0.341240
 31
0.000000
  0
ARC
  8
Default
 62
     5
  6
CONTINUOUS
 10
4.219983
 20
0.385786
 30
0.000000
 40
0.045000
 50
278.147696
 51
297.775935
  0
ARC
  8
Default
 62
     5
  6
CONTINUOUS
 10
4.253796
 20
0.321589
 30
0.000000
 40
0.027557
 50
87.865422
 51
117.775935
  0
LINE
  8
Default
 62
     5
  6
CONTINUOUS
 10
4.254822
 20
0.349127
 30
0.000000
 11
4.279262
 21
0.328703
 31
0.000000
  0
ARC
  8
Default
 62
     5
  6
CONTINUOUS
 10
4.308118
 20
0.363233
 30
0.000000
 40
0.045000
 50
230.115512
 51
286.406673
  0
ARC
  8
Default
 62
     5
  6
CONTINUOUS
 10
4.381376
 20
0.337707
 30
0.000000
 40
0.063065
 50
196.243795
 51
253.814762
  0
ARC
  8
Default
 62
     5
  6
CONTINUOUS
 10
4.376340
 20
0.320358
 30
0.000000
 40
0.045000
 50
253.814762
 51
283.989053
  0
LINE
  8
Default
 62
     5
  6
CONTINUOUS
 10
4.387218
 20
0.276693
 30
0.000000
 11
4.412726
 21
0.283047
 31
0.000000
  0
ARC
  8
Default
 62
     5
  6
CONTINUOUS
 10
4.401848
 20
0.326713
 30
0.000000
 40
0.045000
 50
283.989053
 51
292.838784
  0
LINE
  8
Default
 62
     5
  6
CONTINUOUS
 10
4.419314
 20
0.285241
 30
0.000000
 11
4.473085
 21
0.307887
 31
0.000000
  0
ARC
  8
Default
 62
     5
  6
CONTINUOUS
 10
4.543476
 20
0.122577
 30
0.000000
 40
0.198229
 50
81.654654
 51
110.799569
  0
ARC
  8
Default
 62
     5
  6
CONTINUOUS
 10
4.578778
 20
0.363230
 30
0.000000
 40
0.045000
 50
261.654654
 51
267.057559
  0
LINE
  8
Default
 62
     5
  6
CONTINUOUS
 10
4.576468
 20
0.318289
 30
0.000000
 11
4.691087
 21
0.312398
 31
0.000000
  0
ARC
  8
Default
 62
     5
  6
CONTINUOUS
 10
5.132145
 20
2.524226
 30
0.000000
 40
2.255375
 50
258.722625
 51
284.132032
  0
LINE
  8
Default
 62
     5
  6
CONTINUOUS
 10
5.682811
 20
0.337109
 30
0.000000
 11
5.723257
 21
0.342206
 31
0.000000
  0
LINE
  8
Default
 62
     5
  6
CONTINUOUS
 10
5.723257
 20
0.342206
 30
0.000000
 11
5.760702
 21
0.338682
 31
0.000000
  0
LINE
  8
Default
 62
     5
  6
CONTINUOUS
 10
5.760702
 20
0.338682
 30
0.000000
 11
5.798909
 21
0.296971
 31
0.000000
  0
ARC
  8
Default
 62
     5
  6
CONTINUOUS
 10
5.832092
 20
0.327367
 30
0.000000
 40
0.045000
 50
222.489869
 51
243.672462
  0
LINE
  8
Default
 62
     5
  6
CONTINUOUS
 10
5.812135
 20
0.287034
 30
0.000000
 11
5.884818
 21
0.251068
 31
0.000000
  0
ARC
  8
Default
 62
     5
  6
CONTINUOUS
 10
5.904776
 20
0.291401
 30
0.000000
 40
0.045000
 50
243.672462
 51
271.048196
  0
ARC
  8
Default
 62
     5
  6
CONTINUOUS
 10
5.902148
 20
0.435040
 30
0.000000
 40
0.188663
 50
271.048196
 51
308.415083
  0
LINE
  8
Default
 62
     5
  6
CONTINUOUS
 10
6.019374
 20
0.287217
 30
0.000000
 11
6.104893
 21
0.324202
 31
0.000000
  0
ARC
  8
Default
 62
     5
  6
CONTINUOUS
 10
6.087030
 20
0.365505
 30
0.000000
 40
0.045000
 50
293.387889
 51
301.810845
  0
ARC
  8
Default
 62
     5
  6
CONTINUOUS
 10
6.219866
 20
0.151353
 30
0.000000
 40
0.207005
 50
97.207620
 51
121.810845
  0
ARC
  8
Default
 62
     5
  6
CONTINUOUS
 10
6.208283
 20
0.029825
 30
0.000000
 40
0.327214
 50
59.674431
 51
92.520400
  0
ARC
  8
Default
 62
     5
  6
CONTINUOUS
 10
6.396219
 20
0.351109
 30
0.000000
 40
0.045000
 50
239.674431
 51
248.115652
  0
ARC
  8
Default
 62
     5
  6
CONTINUOUS
 10
6.537526
 20
0.702899
 30
0.000000
 40
0.424110
 50
248.115652
 51
276.575978
  0
LINE
  8
Default
 62
     5
  6
CONTINUOUS
 10
6.586096
 20
0.281580
 30
0.000000
 11
6.801396
 21
0.306399
 31
0.000000
  0
ARC
  8
Default
 62
     5
  6
CONTINUOUS
 10
6.796243
 20
0.351103
 30
0.000000
 40
0.045000
 50
276.575978
 51
287.524757
  0
LINE
  8
Default
 62
     5
  6
CONTINUOUS
 10
6.809793
 20
0.308192
 30
0.000000
 11
7.147668
 21
0.414884
 31
0.000000
  0
LINE
  8
Default
 62
     5
  6
CONTINUOUS
 10
7.147668
 20
0.414884
 30
0.000000
 11
7.197735
 21
0.409406
 31
0.000000
  0
ARC
  8
Default
 62
     5
  6
CONTINUOUS
 10
7.202629
 20
0.454139
 30
0.000000
 40
0.045000
 50
263.756156
 51
270.000000
  0
LINE
  8
Default
 62
     5
  6
CONTINUOUS
 10
7.202629
 20
0.409139
 30
0.000000
 11
7.219112
 21
0.409139
 31
0.000000
  0
ARC
  8
Default
 62
     5
  6
CONTINUOUS
 10
7.237675
 20
0.459054
 30
0.000000
 40
0.053254
 50
249.600360
 51
397.025465
  0
LINE
  8
Default
 62
     5
  6
CONTINUOUS
 10
7.280191
 20
0.491122
 30
0.000000
 11
7.252267
 21
0.561509
 31
0.000000
  0
ARC
  8
Default
 62
     5
  6
CONTINUOUS
 10
7.210439
 20
0.544915
 30
0.000000
 40
0.045000
 50
21.639171
 51
31.821962
  0
LINE
  8
Default
 62
     5
  6
CONTINUOUS
 10
7.248675
 20
0.568643
 30
0.000000
 11
7.198812
 21
0.648994
 31
0.000000
  0
ARC
  8
Default
 62
     5
  6
CONTINUOUS
 10
7.037939
 20
0.549163
 30
0.000000
 40
0.189332
 50
31.821962
 51
69.599935
  0
ARC
  8
Default
 62
     5
  6
CONTINUOUS
 10
7.088249
 20
0.684442
 30
0.000000
 40
0.045000
 50
69.599935
 51
87.943789
  0
ARC
  8
Default
 62
     5
  6
CONTINUOUS
 10
6.986540
 20
-2.148427
 30
0.000000
 40
2.879695
 50
87.943789
 51
96.811329
  0
ARC
  8
Default
 62
     5
  6
CONTINUOUS
 10
6.650345
 20
0.666260
 30
0.000000
 40
0.045000
 50
96.811329
 51
98.049826
  0
ARC
  8
Default
 62
     5
  6
CONTINUOUS
 10
6.555207
 20
1.338957
 30
0.000000
 40
0.634391
 50
258.977342
 51
278.049826
  0
ARC
  8
Default
 62
     5
  6
CONTINUOUS
 10
6.507576
 20
1.011549
 30
0.000000
 40
0.304329
 50
222.685759
 51
255.992421
  0
ARC
  8
Default
 62
     5
  6
CONTINUOUS
 10
6.250790
 20
0.774712
 30
0.000000
 40
0.045000
 50
42.685759
 51
44.486759
  0
ARC
  8
Default
 62
     5
  6
CONTINUOUS
 10
6.705167
 20
1.221020
 30
0.000000
 40
0.591906
 50
210.191204
 51
224.486759
  0
ARC
  8
Default
 62
     5
  6
CONTINUOUS
 10
7.037397
 20
1.311431
 30
0.000000
 40
0.928803
 50
191.045264
 51
204.697014
  0
ARC
  8
Default
 62
     5
  6
CONTINUOUS
 10
7.577316
 20
1.416823
 30
0.000000
 40
1.478912
 50
173.688181
 51
191.045264
  0
ARC
  8
Default
 62
     5
  6
CONTINUOUS
 10
6.062641
 20
1.584361
 30
0.000000
 40
0.045000
 50
353.688181
 51
358.195464
  0
ARC
  8
Default
 62
     5
  6
CONTINUOUS
 10
9.471279
 20
1.476970
 30
0.000000
 40
3.365328
 50
171.432601
 51
178.195464
  0
ARC
  8
Default
 62
     5
  6
CONTINUOUS
 10
6.099005
 20
1.985016
 30
0.000000
 40
0.045000
 50
351.432601
 51
353.479846
  0
ARC
  8
Default
 62
     5
  6
CONTINUOUS
 10
0.673114
 20
2.605151
 30
0.000000
 40
5.506214
 50
353.479846
 51
357.543072
  0
ARC
  8
Default
 62
     5
  6
CONTINUOUS
 10
6.129308
 20
2.371038
 30
0.000000
 40
0.045000
 50
357.543072
 51
361.813194
  0
LINE
  8
Default
 62
     5
  6
CONTINUOUS
 10
6.174285
 20
2.372462
 30
0.000000
 11
6.168225
 21
2.563909
 31
0.000000
  0
ARC
  8
Default
 62
     5
  6
CONTINUOUS
 10
6.123247
 20
2.562485
 30
0.000000
 40
0.045000
 50
1.813194
 51
3.882682
  0
LINE
  8
Default
 62
     5
  6
CONTINUOUS
 10
6.168144
 20
2.565532
 30
0.000000
 11
6.162302
 21
2.651612
 31
0.000000
  0
LINE
  8
Default
 62
     5
  6
CONTINUOUS
 10
6.162302
 20
2.651612
 30
0.000000
 11
6.168120
 21
2.728709
 31
0.000000
  0
ARC
  8
Default
 62
     5
  6
CONTINUOUS
 10
6.123247
 20
2.732095
 30
0.000000
 40
0.045000
 50
355.684482
 51
358.099130
  0
LINE
  8
Default
 62
     5
  6
CONTINUOUS
 10
6.168223
 20
2.730602
 30
0.000000
 11
6.174242
 21
2.911961
 31
0.000000
  0
ARC
  8
Default
 62
     5
  6
CONTINUOUS
 10
6.219108
 20
2.907446
 30
0.000000
 40
0.045093
 50
117.700404
 51
174.252626
  0
ARC
  8
Default
 62
     5
  6
CONTINUOUS
 10
6.177228
 20
2.987213
 30
0.000000
 40
0.045000
 50
297.700404
 51
311.641087
  0
LINE
  8
Default
 62
     5
  6
CONTINUOUS
 10
6.207129
 20
2.953584
 30
0.000000
 11
6.262478
 21
3.002796
 31
0.000000
  0
ARC
  8
Default
 62
     5
  6
CONTINUOUS
 10
6.232577
 20
3.036426
 30
0.000000
 40
0.045000
 50
311.641087
 51
317.808780
  0
LINE
  8
Default
 62
     5
  6
CONTINUOUS
 10
6.265918
 20
3.006203
 30
0.000000
 11
6.387313
 21
3.140124
 31
0.000000
  0
ARC
  8
Default
 62
     5
  6
CONTINUOUS
 10
6.353972
 20
3.170347
 30
0.000000
 40
0.045000
 50
317.808780
 51
324.971538
  0
LINE
  8
Default
 62
     5
  6
CONTINUOUS
 10
6.390821
 20
3.144517
 30
0.000000
 11
6.493819
 21
3.291458
 31
0.000000
  0
ARC
  8
Default
 62
     5
  6
CONTINUOUS
 10
6.456970
 20
3.317288
 30
0.000000
 40
0.045000
 50
324.971538
 51
350.306617
  0
LINE
  8
Default
 62
     5
  6
CONTINUOUS
 10
6.501328
 20
3.309711
 30
0.000000
 11
6.531418
 21
3.485870
 31
0.000000
  0
LINE
  8
Default
 62
     5
  6
CONTINUOUS
 10
6.531418
 20
3.485870
 30
0.000000
 11
6.690058
 21
3.572189
 31
0.000000
  0
ARC
  8
Default
 62
     5
  6
CONTINUOUS
 10
6.668550
 20
3.611717
 30
0.000000
 40
0.045000
 50
298.551618
 51
303.950844
  0
LINE
  8
Default
 62
     5
  6
CONTINUOUS
 10
6.693681
 20
3.574388
 30
0.000000
 11
6.990880
 21
3.774481
 31
0.000000
  0
ARC
  8
Default
 62
     5
  6
CONTINUOUS
 10
6.965749
 20
3.811809
 30
0.000000
 40
0.045000
 50
303.950844
 51
309.501900
  0
ARC
  8
Default
 62
     5
  6
CONTINUOUS
 10
5.440244
 20
5.662269
 30
0.000000
 40
2.443200
 50
309.501900
 51
317.047246
  0
ARC
  8
Default
 62
     5
  6
CONTINUOUS
 10
7.195525
 20
4.028147
 30
0.000000
 40
0.045000
 50
317.047246
 51
327.125545
  0
ARC
  8
Default
 62
     5
  6
CONTINUOUS
 10
5.296250
 20
5.255642
 30
0.000000
 40
2.306413
 50
327.125545
 51
339.758409
  0
ARC
  8
Default
 62
     5
  6
CONTINUOUS
 10
5.482674
 20
5.186898
 30
0.000000
 40
2.107718
 50
339.758409
 51
355.304585
  0
ARC
  8
Default
 62
     5
  6
CONTINUOUS
 10
2.842438
 20
5.403752
 30
0.000000
 40
4.756845
 50
355.304585
 51
364.541223
  0
ARC
  8
Default
 62
     5
  6
CONTINUOUS
 10
4.869031
 20
5.564716
 30
0.000000
 40
2.723870
 50
4.541223
 51
35.921923
  0
LINE
  8
Default
 62
     5
  6
CONTINUOUS
 10
6.627356
 20
7.806691
 30
0.000000
 11
7.074868
 21
7.162762
 31
0.000000
  0
ARC
  8
Default
 62
     5
  6
CONTINUOUS
 10
7.726833
 20
8.462238
 30
0.000000
 40
1.280076
 50
194.527006
 51
210.804904
  0
ARC
  8
Default
 62
     5
  6
CONTINUOUS
 10
6.444121
 20
8.129861
 30
0.000000
 40
0.045000
 50
14.527006
 51
18.739236
  0
ARC
  8
Default
 62
     5
  6
CONTINUOUS
 10
6.826494
 20
8.259579
 30
0.000000
 40
0.358777
 50
172.386152
 51
198.739236
  0
ARC
  8
Default
 62
     5
  6
CONTINUOUS
 10
6.426277
 20
8.313078
 30
0.000000
 40
0.045000
 50
352.386152
 51
355.270343
  0
ARC
  8
Default
 62
     5
  6
CONTINUOUS
 10
5.713270
 20
8.372069
 30
0.000000
 40
0.760443
 50
355.270343
 51
371.240041
  0
ARC
  8
Default
 62
     5
  6
CONTINUOUS
 10
6.032359
 20
8.515348
 30
0.000000
 40
0.426797
 50
0.664117
 51
35.231204
  0
LINE
  8
Default
 62
     5
  6
CONTINUOUS
 10
6.380980
 20
8.761557
 30
0.000000
 11
6.303299
 21
8.926792
 31
0.000000
  0
ARC
  8
Default
 62
     5
  6
CONTINUOUS
 10
6.262575
 20
8.907646
 30
0.000000
 40
0.045000
 50
25.179216
 51
26.872176
  0
LINE
  8
Default
 62
     5
  6
CONTINUOUS
 10
6.302716
 20
8.927986
 30
0.000000
 11
6.115300
 21
9.297848
 31
0.000000
  0
ARC
  8
Default
 62
     5
  6
CONTINUOUS
 10
6.075159
 20
9.277508
 30
0.000000
 40
0.045000
 50
26.872176
 51
30.199764
  0
ARC
  8
Default
 62
     5
  6
CONTINUOUS
 10
14.639778
 20
14.262188
 30
0.000000
 40
9.864577
 50
204.642843
 51
210.199764
  0
ARC
  8
Default
 62
     5
  6
CONTINUOUS
 10
5.632719
 20
10.130285
 30
0.000000
 40
0.045000
 50
24.642843
 51
27.251594
  0
LINE
  8
Default
 62
     5
  6
CONTINUOUS
 10
5.672725
 20
10.150890
 30
0.000000
 11
5.472249
 21
10.540111
 31
0.000000
  0
ARC
  8
Default
 62
     5
  6
CONTINUOUS
 10
5.432244
 20
10.519505
 30
0.000000
 40
0.045000
 50
27.251594
 51
33.911274
  0
ARC
  8
Default
 62
     5
  6
CONTINUOUS
 10
6.918897
 20
11.518919
 30
0.000000
 40
1.746358
 50
199.306000
 51
213.911274
  0
ARC
  8
Default
 62
     5
  6
CONTINUOUS
 10
5.228273
 20
10.926672
 30
0.000000
 40
0.045000
 50
19.306000
 51
31.895525
  0
ARC
  8
Default
 62
     5
  6
CONTINUOUS
 10
5.473918
 20
11.079545
 30
0.000000
 40
0.244329
 50
168.691010
 51
211.895525
  0
ARC
  8
Default
 62
     5
  6
CONTINUOUS
 10
5.190206
 20
11.136283
 30
0.000000
 40
0.045000
 50
348.691010
 51
357.567620
  0
LINE
  8
Default
 62
     5
  6
CONTINUOUS
 10
5.235166
 20
11.134373
 30
0.000000
 11
5.240891
 21
11.269155
 31
0.000000
  0
LINE
  8
Default
 62
     5
  6
CONTINUOUS
 10
5.240891
 20
11.269155
 30
0.000000
 11
5.246255
 21
11.328337
 31
0.000000
  0
LINE
  8
Default
 62
     5
  6
CONTINUOUS
 10
5.246255
 20
11.328337
 30
0.000000
 11
5.261954
 21
11.367264
 31
0.000000
  0
ARC
  8
Default
 62
     5
  6
CONTINUOUS
 10
5.220220
 20
11.384095
 30
0.000000
 40
0.045000
 50
338.036149
 51
343.244178
  0
ARC
  8
Default
 62
     5
  6
CONTINUOUS
 10
6.397243
 20
11.029720
 30
0.000000
 40
1.184214
 50
144.763054
 51
163.244178
  0
ARC
  8
Default
 62
     5
  6
CONTINUOUS
 10
5.393255
 20
11.738926
 30
0.000000
 40
0.045000
 50
324.763054
 51
333.593023
  0
ARC
  8
Default
 62
     5
  6
CONTINUOUS
 10
5.940066
 20
11.467404
 30
0.000000
 40
0.565513
 50
131.577379
 51
153.593023
  0
ARC
  8
Default
 62
     5
  6
CONTINUOUS
 10
5.672172
 20
11.769380
 30
0.000000
 40
0.161835
 50
95.236666
 51
131.577379
  0
ARC
  8
Default
 62
     5
  6
CONTINUOUS
 10
5.653294
 20
11.975351
 30
0.000000
 40
0.045000
 50
275.236666
 51
284.166198
  0
LINE
  8
Default
 62
     5
  6
CONTINUOUS
 10
5.664307
 20
11.931720
 30
0.000000
 11
5.716371
 21
11.944861
 31
0.000000
  0
ARC
  8
Default
 62
     5
  6
CONTINUOUS
 10
5.705358
 20
11.988493
 30
0.000000
 40
0.045000
 50
284.166198
 51
286.488033
  0
LINE
  8
Default
 62
     5
  6
CONTINUOUS
 10
5.718130
 20
11.945343
 30
0.000000
 11
5.775119
 21
11.962211
 31
0.000000
  0
ARC
  8
Default
 62
     5
  6
CONTINUOUS
 10
5.762347
 20
12.005361
 30
0.000000
 40
0.045000
 50
286.488033
 51
287.323051
  0
LINE
  8
Default
 62
     5
  6
CONTINUOUS
 10
5.775746
 20
11.962402
 30
0.000000
 11
5.910751
 21
12.004511
 31
0.000000
  0
ARC
  8
Default
 62
     5
  6
CONTINUOUS
 10
5.814398
 20
12.345452
 30
0.000000
 40
0.354295
 50
285.780636
 51
310.843684
  0
LINE
  8
Default
 62
     5
  6
CONTINUOUS
 10
6.046106
 20
12.077429
 30
0.000000
 11
6.158720
 21
12.140351
 31
0.000000
  0
ARC
  8
Default
 62
     5
  6
CONTINUOUS
 10
6.248149
 20
11.916777
 30
0.000000
 40
0.240796
 50
81.718948
 51
111.801194
  0
ARC
  8
Default
 62
     5
  6
CONTINUOUS
 10
6.289312
 20
12.199594
 30
0.000000
 40
0.045000
 50
261.718948
 51
269.304435
  0
ARC
  8
Default
 62
     5
  6
CONTINUOUS
 10
6.312396
 20
14.101030
 30
0.000000
 40
1.946577
 50
269.304435
 51
279.956374
  0
LINE
  8
Default
 62
     5
  6
CONTINUOUS
 10
6.648956
 20
12.183770
 30
0.000000
 11
6.903744
 21
12.104636
 31
0.000000
  0
ARC
  8
Default
 62
     5
  6
CONTINUOUS
 10
6.917092
 20
12.147611
 30
0.000000
 40
0.045000
 50
252.745880
 51
257.400180
  0
ARC
  8
Default
 62
     5
  6
CONTINUOUS
 10
6.642611
 20
10.919637
 30
0.000000
 40
1.213276
 50
64.204655
 51
77.400180
  0
ARC
  8
Default
 62
     5
  6
CONTINUOUS
 10
7.190160
 20
12.052531
 30
0.000000
 40
0.045000
 50
244.204655
 51
248.100331
  0
LINE
  8
Default
 62
     5
  6
CONTINUOUS
 10
7.173376
 20
12.010778
 30
0.000000
 11
7.226531
 21
11.989410
 31
0.000000
  0
ARC
  8
Default
 62
     5
  6
CONTINUOUS
 10
7.306776
 20
12.084874
 30
0.000000
 40
0.124710
 50
229.949962
 51
263.301209
  0
LINE
  8
Default
 62
     5
  6
CONTINUOUS
 10
7.292229
 20
11.961015
 30
0.000000
 11
7.338486
 21
11.935595
 31
0.000000
  0
ARC
  8
Default
 62
     5
  6
CONTINUOUS
 10
7.360159
 20
11.975032
 30
0.000000
 40
0.045000
 50
241.209189
 51
259.068269
  0
LINE
  8
Default
 62
     5
  6
CONTINUOUS
 10
7.351625
 20
11.930849
 30
0.000000
 11
7.408455
 21
11.919872
 31
0.000000
  0
ARC
  8
Default
 62
     5
  6
CONTINUOUS
 10
7.865707
 20
13.502723
 30
0.000000
 40
1.647573
 50
253.887108
 51
273.061220
  0
LINE
  8
Default
 62
     5
  6
CONTINUOUS
 10
7.953693
 20
11.857501
 30
0.000000
 11
8.123874
 21
11.840443
 31
0.000000
  0
LINE
  8
Default
 62
     5
  6
CONTINUOUS
 10
8.123874
 20
11.840443
 30
0.000000
 11
8.235380
 21
11.788828
 31
0.000000
  0
ARC
  8
Default
 62
     5
  6
CONTINUOUS
 10
8.254283
 20
11.829666
 30
0.000000
 40
0.045000
 50
245.161290
 51
256.475517
  0
LINE
  8
Default
 62
     5
  6
CONTINUOUS
 10
8.243759
 20
11.785913
 30
0.000000
 11
8.368782
 21
11.755842
 31
0.000000
  0
ARC
  8
Default
 62
     5
  6
CONTINUOUS
 10
8.379306
 20
11.799594
 30
0.000000
 40
0.045000
 50
256.475517
 51
299.699257
  0
LINE
  8
Default
 62
     5
  6
CONTINUOUS
 10
8.401601
 20
11.760505
 30
0.000000
 11
8.507447
 21
11.820877
 31
0.000000
  0
ARC
  8
Default
 62
     5
  6
CONTINUOUS
 10
8.485152
 20
11.859965
 30
0.000000
 40
0.045000
 50
299.699257
 51
322.881605
  0
LINE
  8
Default
 62
     5
  6
CONTINUOUS
 10
8.521034
 20
11.832810
 30
0.000000
 11
8.562447
 21
11.887531
 31
0.000000
  0
ARC
  8
Default
 62
     5
  6
CONTINUOUS
 10
8.526565
 20
11.914687
 30
0.000000
 40
0.045000
 50
322.881605
 51
326.877749
  0
LINE
  8
Default
 62
     5
  6
CONTINUOUS
 10
8.564253
 20
11.890097
 30
0.000000
 11
8.573486
 21
11.904250
 31
0.000000
  0
ARC
  8
Default
 62
     5
  6
CONTINUOUS
 10
8.535799
 20
11.928839
 30
0.000000
 40
0.045000
 50
326.877749
 51
379.760517
  0
LINE
  8
Default
 62
     5
  6
CONTINUOUS
 10
8.578149
 20
11.944053
 30
0.000000
 11
8.573262
 21
11.957657
 31
0.000000
  0
LINE
  8
Default
 62
     5
  6
CONTINUOUS
 10
8.573262
 20
11.957657
 30
0.000000
 11
8.569377
 21
11.986494
 31
0.000000
  0
ARC
  8
Default
 62
     5
  6
CONTINUOUS
 10
8.501606
 20
12.004873
 30
0.000000
 40
0.070218
 50
344.826960
 51
422.638013
  0
LINE
  8
Default
 62
     5
  6
CONTINUOUS
 10
8.533879
 20
12.067235
 30
0.000000
 11
8.507853
 21
12.084975
 31
0.000000
  0
LINE
  8
Default
 62
     5
  6
CONTINUOUS
 10
8.507853
 20
12.084975
 30
0.000000
 11
8.460581
 21
12.125183
 31
0.000000
  0
ARC
  8
Default
 62
     5
  6
CONTINUOUS
 10
8.431425
 20
12.090905
 30
0.000000
 40
0.045000
 50
49.617041
 51
55.181853
  0
LINE
  8
Default
 62
     5
  6
CONTINUOUS
 10
8.457119
 20
12.127849
 30
0.000000
 11
8.257319
 21
12.266807
 31
0.000000
  0
ARC
  8
Default
 62
     5
  6
CONTINUOUS
 10
8.231625
 20
12.229864
 30
0.000000
 40
0.045000
 50
55.181853
 51
57.514781
  0
LINE
  8
Default
 62
     5
  6
CONTINUOUS
 10
8.255794
 20
12.267822
 30
0.000000
 11
8.055152
 21
12.395573
 31
0.000000
  0
ARC
  8
Default
 62
     5
  6
CONTINUOUS
 10
8.030983
 20
12.357614
 30
0.000000
 40
0.045000
 50
57.514781
 51
61.012547
  0
LINE
  8
Default
 62
     5
  6
CONTINUOUS
 10
8.052791
 20
12.396977
 30
0.000000
 11
7.823868
 21
12.523805
 31
0.000000
  0
ARC
  8
Default
 62
     5
  6
CONTINUOUS
 10
7.802061
 20
12.484442
 30
0.000000
 40
0.045000
 50
61.012547
 51
66.091719
  0
ARC
  8
Default
 62
     5
  6
CONTINUOUS
 10
8.192631
 20
13.365471
 30
0.000000
 40
0.918720
 50
223.933251
 51
246.091719
  0
ARC
  8
Default
 62
     5
  6
CONTINUOUS
 10
7.498609
 20
12.696823
 30
0.000000
 40
0.045000
 50
43.933251
 51
54.071150
  0
ARC
  8
Default
 62
     5
  6
CONTINUOUS
 10
8.162100
 20
13.612429
 30
0.000000
 40
1.085732
 50
216.310879
 51
234.071150
  0
ARC
  8
Default
 62
     5
  6
CONTINUOUS
 10
7.250939
 20
12.942847
 30
0.000000
 40
0.045000
 50
36.310879
 51
42.942355
  0
ARC
  8
Default
 62
     5
  6
CONTINUOUS
 10
8.205101
 20
13.830825
 30
0.000000
 40
1.258430
 50
205.896666
 51
222.942355
  0
LINE
  8
Default
 62
     5
  6
CONTINUOUS
 10
7.073038
 20
13.281207
 30
0.000000
 11
7.003141
 21
13.425176
 31
0.000000
  0
LINE
  8
Default
 62
     5
  6
CONTINUOUS
 10
7.003141
 20
13.425176
 30
0.000000
 11
6.973840
 21
13.627319
 31
0.000000
  0
ARC
  8
Default
 62
     5
  6
CONTINUOUS
 10
6.929306
 20
13.620864
 30
0.000000
 40
0.045000
 50
8.247611
 51
15.761230
  0
ARC
  8
Default
 62
     5
  6
CONTINUOUS
 10
4.995856
 20
13.075166
 30
0.000000
 40
2.053983
 50
15.761230
 51
24.549779
  0
ARC
  8
Default
 62
     5
  6
CONTINUOUS
 10
6.731364
 20
13.914978
 30
0.000000
 40
0.133490
 50
5.840786
 51
56.364853
  0
LINE
  8
Default
 62
     5
  6
CONTINUOUS
 10
6.805304
 20
14.026119
 30
0.000000
 11
6.752570
 21
14.074346
 31
0.000000
  0
LINE
  8
Default
 62
     5
  6
CONTINUOUS
 10
6.752570
 20
14.074346
 30
0.000000
 11
6.644351
 21
14.183089
 31
0.000000
  0
ARC
  8
Default
 62
     5
  6
CONTINUOUS
 10
6.612454
 20
14.151346
 30
0.000000
 40
0.045000
 50
44.861576
 51
60.921097
  0
ARC
  8
Default
 62
     5
  6
CONTINUOUS
 10
2.659607
 20
7.043324
 30
0.000000
 40
8.178203
 50
60.921097
 51
65.884625
  0
ARC
  8
Default
 62
     5
  6
CONTINUOUS
 10
5.982634
 20
14.466698
 30
0.000000
 40
0.045000
 50
65.884625
 51
68.965705
  0
LINE
  8
Default
 62
     5
  6
CONTINUOUS
 10
5.998785
 20
14.508699
 30
0.000000
 11
5.780968
 21
14.592461
 31
0.000000
  0
ARC
  8
Default
 62
     5
  6
CONTINUOUS
 10
5.656035
 20
14.329957
 30
0.000000
 40
0.290718
 50
64.549067
 51
92.488981
  0
LINE
  8
Default
 62
     5
  6
CONTINUOUS
 10
5.643410
 20
14.620400
 30
0.000000
 11
5.516306
 21
14.626241
 31
0.000000
  0
ARC
  8
Default
 62
     5
  6
CONTINUOUS
 10
5.416801
 20
14.020474
 30
0.000000
 40
0.613886
 50
80.671743
 51
109.047941
  0
LINE
  8
Default
 62
     5
  6
CONTINUOUS
 10
5.216453
 20
14.600747
 30
0.000000
 11
5.096080
 21
14.577678
 31
0.000000
  0
ARC
  8
Default
 62
     5
  6
CONTINUOUS
 10
5.112136
 20
14.329318
 30
0.000000
 40
0.248879
 50
93.698914
 51
124.034330
  0
LINE
  8
Default
 62
     5
  6
CONTINUOUS
 10
4.972841
 20
14.535565
 30
0.000000
 11
4.759755
 21
14.440699
 31
0.000000
  0
ARC
  8
Default
 62
     5
  6
CONTINUOUS
 10
4.778058
 20
14.399589
 30
0.000000
 40
0.045000
 50
113.998670
 51
119.011430
  0
LINE
  8
Default
 62
     5
  6
CONTINUOUS
 10
4.756233
 20
14.438942
 30
0.000000
 11
4.702322
 21
14.409045
 31
0.000000
  0
ARC
  8
Default
 62
     5
  6
CONTINUOUS
 10
4.724147
 20
14.369691
 30
0.000000
 40
0.045000
 50
119.011430
 51
129.687092
  0
LINE
  8
Default
 62
     5
  6
CONTINUOUS
 10
4.695410
 20
14.404321
 30
0.000000
 11
4.652455
 21
14.368675
 31
0.000000
  0
LINE
  8
Default
 62
     5
  6
CONTINUOUS
 10
4.652455
 20
14.368675
 30
0.000000
 11
4.567427
 21
14.312520
 31
0.000000
  0
ARC
  8
Default
 62
     5
  6
CONTINUOUS
 10
4.844510
 20
13.777364
 30
0.000000
 40
0.602633
 50
117.373304
 51
136.611590
  0
LINE
  8
Default
 62
     5
  6
CONTINUOUS
 10
4.406568
 20
14.191337
 30
0.000000
 11
4.253563
 21
14.044813
 31
0.000000
  0
ARC
  8
Default
 62
     5
  6
CONTINUOUS
 10
5.758063
 20
12.341121
 30
0.000000
 40
2.272903
 50
131.447151
 51
172.800700
  0
ARC
  8
Default
 62
     5
  6
CONTINUOUS
 10
5.764564
 20
12.152261
 30
0.000000
 40
2.310564
 50
168.169561
 51
180.159524
  0
ARC
  8
Default
 62
     5
  6
CONTINUOUS
 10
11.913233
 20
11.671846
 30
0.000000
 40
8.472493
 50
176.792991
 51
180.947056
  0
ARC
  8
Default
 62
     5
  6
CONTINUOUS
 10
3.486891
 20
11.532552
 30
0.000000
 40
0.045000
 50
180.947056
 51
184.536233
  0
ARC
  8
Default
 62
     5
  6
CONTINUOUS
 10
-0.497098
 20
11.216470
 30
0.000000
 40
3.951508
 50
355.353968
 51
364.536233
  0
ARC
  8
Default
 62
     5
  6
CONTINUOUS
 10
1.776126
 20
11.031733
 30
0.000000
 40
1.670791
 50
339.557521
 51
355.353968
  0
ARC
  8
Default
 62
     5
  6
CONTINUOUS
 10
3.383861
 20
10.432464
 30
0.000000
 40
0.045000
 50
159.557521
 51
162.894451
  0
ARC
  8
Default
 62
     5
  6
CONTINUOUS
 10
-0.791960
 20
11.717557
 30
0.000000
 40
4.324090
 50
334.757046
 51
342.894451
  0
ARC
  8
Default
 62
     5
  6
CONTINUOUS
 10
3.159915
 20
9.854326
 30
0.000000
 40
0.045000
 50
154.757046
 51
166.576264
  0
ARC
  8
Default
 62
     5
  6
CONTINUOUS
 10
2.949080
 20
9.904646
 30
0.000000
 40
0.171757
 50
313.656454
 51
346.576264
  0
ARC
  8
Default
 62
     5
  6
CONTINUOUS
 10
3.098715
 20
9.747824
 30
0.000000
 40
0.045000
 50
133.656454
 51
147.324711
  0
LINE
  8
Default
 62
     5
  6
CONTINUOUS
 10
3.060836
 20
9.772119
 30
0.000000
 11
3.000680
 21
9.678328
 31
0.000000
  0
LINE
  8
Default
 62
     5
  6
CONTINUOUS
 10
3.000680
 20
9.678328
 30
0.000000
 11
2.933045
 21
9.575558
 31
0.000000
  0
ARC
  8
Default
 62
     5
  6
CONTINUOUS
 10
2.970635
 20
9.550819
 30
0.000000
 40
0.045000
 50
146.650061
 51
152.034220
  0
LINE
  8
Default
 62
     5
  6
CONTINUOUS
 10
2.930890
 20
9.571922
 30
0.000000
 11
2.860404
 21
9.439167
 31
0.000000
  0
ARC
  8
Default
 62
     5
  6
CONTINUOUS
 10
2.900149
 20
9.418064
 30
0.000000
 40
0.045000
 50
152.034220
 51
156.979587
  0
LINE
  8
Default
 62
     5
  6
CONTINUOUS
 10
2.858733
 20
9.435662
 30
0.000000
 11
2.763356
 21
9.211191
 31
0.000000
  0
ARC
  8
Default
 62
     5
  6
CONTINUOUS
 10
2.804773
 20
9.193593
 30
0.000000
 40
0.045000
 50
156.979587
 51
158.120245
  0
LINE
  8
Default
 62
     5
  6
CONTINUOUS
 10
2.763014
 20
9.210363
 30
0.000000
 11
2.742148
 21
9.158404
 31
0.000000
  0
LINE
  8
Default
 62
     5
  6
CONTINUOUS
 10
2.742148
 20
9.158404
 30
0.000000
 11
2.706533
 21
9.139316
 31
0.000000
  0
LINE
  8
Default
 62
     5
  6
CONTINUOUS
 10
2.706533
 20
9.139316
 30
0.000000
 11
2.581807
 21
9.103625
 31
0.000000
  0
ARC
  8
Default
 62
     5
  6
CONTINUOUS
 10
2.594187
 20
9.060361
 30
0.000000
 40
0.045000
 50
105.968780
 51
109.477912
  0
LINE
  8
Default
 62
     5
  6
CONTINUOUS
 10
2.579182
 20
9.102786
 30
0.000000
 11
2.429763
 21
9.049938
 31
0.000000
  0
LINE
  8
Default
 62
     5
  6
CONTINUOUS
 10
2.429763
 20
9.049938
 30
0.000000
 11
2.302132
 21
9.005325
 31
0.000000
  0
ARC
  8
Default
 62
     5
  6
CONTINUOUS
 10
2.316981
 20
8.962845
 30
0.000000
 40
0.045000
 50
109.267129
 51
122.794035
  0
ARC
  8
Default
 62
     5
  6
CONTINUOUS
 10
1.556944
 20
10.142461
 30
0.000000
 40
1.358264
 50
292.728513
 51
302.794035
  0
ARC
  8
Default
 62
     5
  6
CONTINUOUS
 10
2.099116
 20
8.848167
 30
0.000000
 40
0.045000
 50
112.728513
 51
117.051129
  0
LINE
  8
Default
 62
     5
  6
CONTINUOUS
 10
2.078651
 20
8.888244
 30
0.000000
 11
1.902704
 21
8.798396
 31
0.000000
  0
ARC
  8
Default
 62
     5
  6
CONTINUOUS
 10
2.013295
 20
8.477728
 30
0.000000
 40
0.339203
 50
109.028225
 51
131.839122
  0
ARC
  8
Default
 62
     5
  6
CONTINUOUS
 10
1.817050
 20
8.696915
 30
0.000000
 40
0.045000
 50
131.839122
 51
133.327006
  0
LINE
  8
Default
 62
     5
  6
CONTINUOUS
 10
1.786173
 20
8.729651
 30
0.000000
 11
1.705537
 21
8.653592
 31
0.000000
  0
LINE
  8
Default
 62
     5
  6
CONTINUOUS
 10
1.705537
 20
8.653592
 30
0.000000
 11
1.575500
 21
8.543549
 31
0.000000
  0
LINE
  8
Default
 62
     5
  6
CONTINUOUS
 10
1.575500
 20
8.543549
 30
0.000000
 11
1.506834
 21
8.488147
 31
0.000000
  0
ARC
  8
Default
 62
     5
  6
CONTINUOUS
 10
1.535090
 20
8.453125
 30
0.000000
 40
0.045000
 50
128.897631
 51
139.802182
  0
LINE
  8
Default
 62
     5
  6
CONTINUOUS
 10
1.500719
 20
8.482169
 30
0.000000
 11
1.433901
 21
8.403095
 31
0.000000
  0
ARC
  8
Default
 62
     5
  6
CONTINUOUS
 10
1.468273
 20
8.374051
 30
0.000000
 40
0.045000
 50
139.802182
 51
143.681349
  0
LINE
  8
Default
 62
     5
  6
CONTINUOUS
 10
1.432015
 20
8.400704
 30
0.000000
 11
1.295014
 21
8.214326
 31
0.000000
  0
ARC
  8
Default
 62
     5
  6
CONTINUOUS
 10
1.331272
 20
8.187674
 30
0.000000
 40
0.045000
 50
143.681349
 51
154.266578
  0
LINE
  8
Default
 62
     5
  6
CONTINUOUS
 10
1.290735
 20
8.207212
 30
0.000000
 11
1.197657
 21
8.014099
 31
0.000000
  0
ARC
  8
Default
 62
     5
  6
CONTINUOUS
 10
2.458913
 20
7.302756
 30
0.000000
 40
1.448025
 50
150.577220
 51
161.308218
  0
LINE
  8
Default
 62
     5
  6
CONTINUOUS
 10
1.087263
 20
7.766815
 30
0.000000
 11
1.045610
 21
7.657493
 31
0.000000
  0
LINE
  8
Default
 62
     5
  6
CONTINUOUS
 10
1.045610
 20
7.657493
 30
0.000000
 11
1.021844
 21
7.606327
 31
0.000000
  0
ARC
  8
Default
 62
     5
  6
CONTINUOUS
 10
1.062656
 20
7.587370
 30
0.000000
 40
0.045000
 50
155.085943
 51
169.498309
  0
ARC
  8
Default
 62
     5
  6
CONTINUOUS
 10
0.964464
 20
7.605572
 30
0.000000
 40
0.054865
 50
316.441296
 51
349.498309
  0
LINE
  8
Default
 62
     5
  6
CONTINUOUS
 10
1.004223
 20
7.567765
 30
0.000000
 11
0.911130
 21
7.510353
 31
0.000000
  0
ARC
  8
Default
 62
     5
  6
CONTINUOUS
 10
0.934752
 20
7.472051
 30
0.000000
 40
0.045000
 50
121.662660
 51
122.573094
  0
LINE
  8
Default
 62
     5
  6
CONTINUOUS
 10
0.910525
 20
7.509973
 30
0.000000
 11
0.795716
 21
7.436626
 31
0.000000
  0
ARC
  8
Default
 62
     5
  6
CONTINUOUS
 10
0.819942
 20
7.398704
 30
0.000000
 40
0.045000
 50
122.573094
 51
136.050319
  0
LINE
  8
Default
 62
     5
  6
CONTINUOUS
 10
0.787545
 20
7.429935
 30
0.000000
 11
0.647949
 21
7.285125
 31
0.000000
  0
ARC
  8
Default
 62
     5
  6
CONTINUOUS
 10
0.680347
 20
7.253894
 30
0.000000
 40
0.045000
 50
136.050319
 51
136.248961
  0
LINE
  8
Default
 62
     5
  6
CONTINUOUS
 10
0.647841
 20
7.285013
 30
0.000000
 11
0.585092
 21
7.219467
 31
0.000000
  0
ARC
  8
Default
 62
     5
  6
CONTINUOUS
 10
0.688070
 20
7.068699
 30
0.000000
 40
0.182580
 50
124.333665
 51
166.937835
  0
LINE
  8
Default
 62
     5
  6
CONTINUOUS
 10
0.510214
 20
7.109963
 30
0.000000
 11
0.414199
 21
6.879035
 31
0.000000
  0
ARC
  8
Default
 62
     5
  6
CONTINUOUS
 10
1.789988
 20
6.162028
 30
0.000000
 40
1.551417
 50
152.473242
 51
171.727760
  0
LINE
  8
Default
 62
     5
  6
CONTINUOUS
 10
0.254712
 20
6.385241
 30
0.000000
 11
0.194439
 21
6.107430
 31
0.000000
  0
ARC
  8
Default
 62
     5
  6
CONTINUOUS
 10
0.238416
 20
6.097889
 30
0.000000
 40
0.045000
 50
167.759009
 51
180.000000
  0
LINE
  8
Default
 62
     5
  6
CONTINUOUS
 10
0.193416
 20
6.097889
 30
0.000000
 11
0.193416
 21
5.695606
 31
0.000000
  0
ARC
  8
Default
 62
     5
  6
CONTINUOUS
 10
0.238416
 20
5.695606
 30
0.000000
 40
0.045000
 50
180.000000
 51
181.270034
  0
LINE
  8
Default
 62
     5
  6
CONTINUOUS
 10
0.193427
 20
5.694609
 30
0.000000
 11
0.205171
 21
5.164896
 31
0.000000
  0
ARC
  8
Default
 62
     5
  6
CONTINUOUS
 10
0.250160
 20
5.165893
 30
0.000000
 40
0.045000
 50
181.270034
 51
184.745808
  0
LINE
  8
Default
 62
     5
  6
CONTINUOUS
 10
0.205314
 20
5.162170
 30
0.000000
 11
0.247951
 21
4.648594
 31
0.000000
  0
ARC
  8
Default
 62
     5
  6
CONTINUOUS
 10
0.292797
 20
4.652318
 30
0.000000
 40
0.045000
 50
184.745808
 51
199.759705
  0
LINE
  8
Default
 62
     5
  6
CONTINUOUS
 10
0.250446
 20
4.637104
 30
0.000000
 11
0.401335
 21
4.217067
 31
0.000000
  0
ARC
  8
Default
 62
     5
  6
CONTINUOUS
 10
0.856693
 20
4.305268
 30
0.000000
 40
0.463821
 50
190.962254
 51
220.848872
  0
LINE
  8
Default
 62
     5
  6
CONTINUOUS
 10
0.505841
 20
4.001899
 30
0.000000
 11
0.560211
 21
3.929134
 31
0.000000
  0
LINE
  8
Default
 62
     5
  6
CONTINUOUS
 10
0.560211
 20
3.929134
 30
0.000000
 11
0.620235
 21
3.846579
 31
0.000000
  0
ARC
  8
Default
 62
     5
  6
CONTINUOUS
 10
0.656631
 20
3.873042
 30
0.000000
 40
0.045000
 50
216.020046
 51
216.818268
  0
LINE
  8
Default
 62
     5
  6
CONTINUOUS
 10
0.620607
 20
3.846074
 30
0.000000
 11
0.723524
 21
3.708594
 31
0.000000
  0
ARC
  8
Default
 62
     5
  6
CONTINUOUS
 10
0.759548
 20
3.735561
 30
0.000000
 40
0.045000
 50
216.818268
 51
220.933565
  0
LINE
  8
Default
 62
     5
  6
CONTINUOUS
 10
0.725552
 20
3.706078
 30
0.000000
 11
0.756081
 21
3.670875
 31
0.000000
  0
ARC
  8
Default
 62
     5
  6
CONTINUOUS
 10
0.790078
 20
3.700359
 30
0.000000
 40
0.045000
 50
220.933565
 51
241.274614
  0
LINE
  8
Default
 62
     5
  6
CONTINUOUS
 10
0.768450
 20
3.660897
 30
0.000000
 11
0.806578
 21
3.640000
 31
0.000000
  0
LINE
  8
Default
 62
     5
  6
CONTINUOUS
 10
0.806578
 20
3.640000
 30
0.000000
 11
0.890676
 21
3.586318
 31
0.000000
  0
ARC
  8
Default
 62
     5
  6
CONTINUOUS
 10
0.914889
 20
3.624249
 30
0.000000
 40
0.045000
 50
237.448723
 51
238.259900
  0
LINE
  8
Default
 62
     5
  6
CONTINUOUS
 10
0.891216
 20
3.585979
 30
0.000000
 11
1.037635
 21
3.495407
 31
0.000000
  0
LINE
  8
Default
 62
     5
  6
CONTINUOUS
 10
1.037635
 20
3.495407
 30
0.000000
 11
1.211328
 21
3.380071
 31
0.000000
  0
ARC
  8
Default
 62
     5
  6
CONTINUOUS
 10
1.236221
 20
3.417559
 30
0.000000
 40
0.045000
 50
236.414874
 51
238.157230
  0
ARC
  8
Default
 62
     5
  6
CONTINUOUS
 10
-0.371589
 20
0.828744
 30
0.000000
 40
3.002461
 50
46.576038
 51
58.157230
  0
ARC
  8
Default
 62
     5
  6
CONTINUOUS
 10
1.723209
 20
3.042075
 30
0.000000
 40
0.045000
 50
226.576038
 51
231.356146
  0
LINE
  8
Default
 62
     5
  6
CONTINUOUS
 10
1.695107
 20
3.006928
 30
0.000000
 11
1.968365
 21
2.788447
 31
0.000000
  0
ARC
  8
Default
 62
     5
  6
CONTINUOUS
 10
1.996466
 20
2.823594
 30
0.000000
 40
0.045000
 50
231.356146
 51
232.470299
  0
LINE
  8
Default
 62
     5
  6
CONTINUOUS
 10
1.969054
 20
2.787907
 30
0.000000
 11
1.995046
 21
2.767941
 31
0.000000
  0
ARC
  8
Default
 62
     5
  6
CONTINUOUS
 10
2.038411
 20
2.755921
 30
0.000000
 40
0.045000
 50
164.507640
 51
170.410786
  0
LINE
  8
Default
 62
     5
  6
CONTINUOUS
 10
1.994040
 20
2.763418
 30
0.000000
 11
1.975858
 21
2.655797
 31
0.000000
  0
ARC
  8
Default
 62
     5
  6
CONTINUOUS
 10
2.020229
 20
2.648301
 30
0.000000
 40
0.045000
 50
170.410786
 51
178.839060
  0
ARC
  8
Default
 62
     5
  6
CONTINUOUS
 10
3.317874
 20
2.622004
 30
0.000000
 40
1.342912
 50
178.839060
 51
188.957121
  0
ARC
  8
Default
 62
     5
  6
CONTINUOUS
 10
3.444805
 20
2.642011
 30
0.000000
 40
1.471409
 50
188.957121
 51
210.241010
  0
ARC
  8
Default
 62
     5
  6
CONTINUOUS
 10
0.834213
 20
1.411724
 30
0.000000
 40
1.425970
 50
0.742775
 51
20.064920
  0
LINE
  8
Default
 62
     5
  6
CONTINUOUS
 10
2.260063
 20
1.430210
 30
0.000000
 11
2.248091
 21
1.181993
 31
0.000000
  0
ARC
  8
Default
 62
     5
  6
CONTINUOUS
 10
3.980720
 20
0.964833
 30
0.000000
 40
1.746185
 50
172.856040
 51
182.239235
  0
ARC
  8
Default
 62
     5
  6
CONTINUOUS
 10
2.280834
 20
0.898364
 30
0.000000
 40
0.045000
 50
182.239235
 51
186.077038
  0
LINE
  8
Default
 62
     5
  6
CONTINUOUS
 10
2.236087
 20
0.893600
 30
0.000000
 11
2.248208
 21
0.779747
 31
0.000000
  0
ARC
  8
Default
 62
     5
  6
CONTINUOUS
 10
2.292956
 20
0.784511
 30
0.000000
 40
0.045000
 50
186.077038
 51
193.640668
  0
ARC
  8
Default
 62
     5
  6
CONTINUOUS
 10
2.153269
 20
0.750613
 30
0.000000
 40
0.098740
 50
321.081578
 51
373.640668
  0
ARC
  8
Default
 62
     5
  6
CONTINUOUS
 10
2.265105
 20
0.660313
 30
0.000000
 40
0.045000
 50
141.081578
 51
142.449517
  0
ARC
  8
Default
 62
     5
  6
CONTINUOUS
 10
2.077496
 20
0.804534
 30
0.000000
 40
0.191637
 50
277.143864
 51
322.449517
  0
ARC
  8
Default
 62
     5
  6
CONTINUOUS
 10
2.106924
 20
0.569734
 30
0.000000
 40
0.045000
 50
97.143864
 51
108.202442
  0
ARC
  8
Default
 62
     5
  6
CONTINUOUS
 10
3.024946
 20
-2.222045
 30
0.000000
 40
2.983843
 50
108.202442
 51
115.636195
  0
ARC
  8
Default
 62
     5
  6
CONTINUOUS
 10
1.753440
 20
0.427496
 30
0.000000
 40
0.045000
 50
115.636195
 51
116.723149
  0
LINE
  8
Default
 62
     5
  6
CONTINUOUS
 10
1.733205
 20
0.467689
 30
0.000000
 11
1.524893
 21
0.362814
 31
0.000000
  0
ARC
  8
Default
 62
     5
  6
CONTINUOUS
 10
1.584438
 20
0.162409
 30
0.000000
 40
0.209064
 50
106.547985
 51
137.460293
  0
ARC
  8
Default
 62
     5
  6
CONTINUOUS
 10
1.514273
 20
0.216631
 30
0.000000
 40
0.120938
 50
133.910395
 51
212.928182
  0
ARC
  8
Default
 62
     5
  6
CONTINUOUS
 10
1.450534
 20
0.175351
 30
0.000000
 40
0.045000
 50
212.928182
 51
280.677201
  0
ARC
  8
Default
 62
     5
  6
CONTINUOUS
 10
2.577803
 20
1.248333
 30
0.000000
 40
0.045000
 50
0.520241
 51
7.372242
  0
LINE
  8
Default
 62
     5
  6
CONTINUOUS
 10
2.622431
 20
1.254107
 30
0.000000
 11
2.580143
 21
1.580944
 31
0.000000
  0
ARC
  8
Default
 62
     5
  6
CONTINUOUS
 10
4.664739
 20
1.750537
 30
0.000000
 40
2.091483
 50
172.399161
 51
184.651066
  0
ARC
  8
Default
 62
     5
  6
CONTINUOUS
 10
1.289845
 20
2.412574
 30
0.000000
 40
1.357638
 50
343.508604
 51
356.730170
  0
LINE
  8
Default
 62
     5
  6
CONTINUOUS
 10
2.645273
 20
2.335137
 30
0.000000
 11
2.686062
 21
2.307668
 31
0.000000
  0
ARC
  8
Default
 62
     5
  6
CONTINUOUS
 10
2.711198
 20
2.344993
 30
0.000000
 40
0.045000
 50
236.042415
 51
236.396211
  0
LINE
  8
Default
 62
     5
  6
CONTINUOUS
 10
2.686293
 20
2.307513
 30
0.000000
 11
2.824567
 21
2.215631
 31
0.000000
  0
ARC
  8
Default
 62
     5
  6
CONTINUOUS
 10
3.269844
 20
2.797472
 30
0.000000
 40
0.732674
 50
232.573540
 51
248.078449
  0
ARC
  8
Default
 62
     5
  6
CONTINUOUS
 10
3.358735
 20
2.632831
 30
0.000000
 40
0.629790
 50
234.867526
 51
254.432372
  0
ARC
  8
Default
 62
     5
  6
CONTINUOUS
 10
4.252775
 20
5.841922
 30
0.000000
 40
3.961093
 50
254.432372
 51
260.335184
  0
ARC
  8
Default
 62
     5
  6
CONTINUOUS
 10
3.595325
 20
1.981412
 30
0.000000
 40
0.045000
 50
260.335184
 51
265.408877
  0
LINE
  8
Default
 62
     5
  6
CONTINUOUS
 10
3.591723
 20
1.936556
 30
0.000000
 11
3.969086
 21
1.906253
 31
0.000000
  0
ARC
  8
Default
 62
     5
  6
CONTINUOUS
 10
3.972688
 20
1.951109
 30
0.000000
 40
0.045000
 50
265.408877
 51
268.500579
  0
ARC
  8
Default
 62
     5
  6
CONTINUOUS
 10
4.097376
 20
6.714572
 30
0.000000
 40
4.810095
 50
268.500579
 51
275.004862
  0
LINE
  8
Default
 62
     5
  6
CONTINUOUS
 10
4.517010
 20
1.922817
 30
0.000000
 11
4.670556
 21
1.936263
 31
0.000000
  0
ARC
  8
Default
 62
     5
  6
CONTINUOUS
 10
4.704716
 20
2.413789
 30
0.000000
 40
0.478746
 50
265.908372
 51
292.253191
  0
ARC
  8
Default
 62
     5
  6
CONTINUOUS
 10
4.868975
 20
2.012349
 30
0.000000
 40
0.045000
 50
292.253191
 51
297.344392
  0
LINE
  8
Default
 62
     5
  6
CONTINUOUS
 10
4.889646
 20
1.972377
 30
0.000000
 11
5.216922
 21
2.141618
 31
0.000000
  0
ARC
  8
Default
 62
     5
  6
CONTINUOUS
 10
5.196251
 20
2.181590
 30
0.000000
 40
0.045000
 50
297.344392
 51
309.062331
  0
LINE
  8
Default
 62
     5
  6
CONTINUOUS
 10
5.224609
 20
2.146649
 30
0.000000
 11
5.545283
 21
2.406904
 31
0.000000
  0
ARC
  8
Default
 62
     5
  6
CONTINUOUS
 10
5.516925
 20
2.441845
 30
0.000000
 40
0.045000
 50
309.062331
 51
310.764558
  0
LINE
  8
Default
 62
     5
  6
CONTINUOUS
 10
5.546308
 20
2.407762
 30
0.000000
 11
5.588807
 21
2.444399
 31
0.000000
  0
LINE
  8
Default
 62
     5
  6
CONTINUOUS
 10
5.588807
 20
2.444399
 30
0.000000
 11
5.593664
 21
2.417431
 31
0.000000
  0
ARC
  8
Default
 62
     5
  6
CONTINUOUS
 10
5.637951
 20
2.425408
 30
0.000000
 40
0.045000
 50
190.210455
 51
192.679860
  0
LINE
  8
Default
 62
     5
  6
CONTINUOUS
 10
5.594049
 20
2.415530
 30
0.000000
 11
5.651466
 21
2.160330
 31
0.000000
  0
ARC
  8
Default
 62
     5
  6
CONTINUOUS
 10
3.359967
 20
1.644764
 30
0.000000
 40
2.348782
 50
0.736450
 51
12.679860
  0
ARC
  8
Default
 62
     5
  6
CONTINUOUS
 10
5.753551
 20
1.675532
 30
0.000000
 40
0.045000
 50
180.736450
 51
182.514104
  0
ARC
  8
Default
 62
     5
  6
CONTINUOUS
 10
2.781849
 20
1.545052
 30
0.000000
 40
2.929566
 50
353.180448
 51
362.514104
  0
ARC
  8
Default
 62
     5
  6
CONTINUOUS
 10
5.735370
 20
1.191843
 30
0.000000
 40
0.045000
 50
173.180448
 51
176.288320
  0
ARC
  8
Default
 62
     5
  6
CONTINUOUS
 10
5.068544
 20
1.235101
 30
0.000000
 40
0.623227
 50
316.774303
 51
356.288320
  0
ARC
  8
Default
 62
     5
  6
CONTINUOUS
 10
5.114266
 20
1.288714
 30
0.000000
 40
0.630569
 50
276.712204
 51
310.366044
  0
ARC
  8
Default
 62
     5
  6
CONTINUOUS
 10
5.193228
 20
0.617776
 30
0.000000
 40
0.045000
 50
96.712204
 51
103.316500
  0
ARC
  8
Default
 62
     5
  6
CONTINUOUS
 10
4.985537
 20
1.495241
 30
0.000000
 40
0.856710
 50
269.872368
 51
283.316500
  0
ARC
  8
Default
 62
     5
  6
CONTINUOUS
 10
4.983529
 20
0.593533
 30
0.000000
 40
0.045000
 50
89.872368
 51
95.745951
  0
LINE
  8
Default
 62
     5
  6
CONTINUOUS
 10
4.979023
 20
0.638307
 30
0.000000
 11
4.798331
 21
0.620125
 31
0.000000
  0
ARC
  8
Default
 62
     5
  6
CONTINUOUS
 10
4.802837
 20
0.575351
 30
0.000000
 40
0.045000
 50
95.745951
 51
96.220616
  0
LINE
  8
Default
 62
     5
  6
CONTINUOUS
 10
4.797961
 20
0.620086
 30
0.000000
 11
4.575551
 21
0.595844
 31
0.000000
  0
ARC
  8
Default
 62
     5
  6
CONTINUOUS
 10
4.580427
 20
0.551109
 30
0.000000
 40
0.045000
 50
96.220616
 51
98.325920
  0
ARC
  8
Default
 62
     5
  6
CONTINUOUS
 10
4.644756
 20
0.111541
 30
0.000000
 40
0.489250
 50
98.325920
 51
113.874853
  0
ARC
  8
Default
 62
     5
  6
CONTINUOUS
 10
4.504572
 20
0.383180
 30
0.000000
 40
0.185018
 50
108.215545
 51
146.977635
  0
ARC
  8
Default
 62
     5
  6
CONTINUOUS
 10
4.435520
 20
0.390447
 30
0.000000
 40
0.127135
 50
132.614533
 51
148.414992
  0
ARC
  8
Default
 62
     5
  6
CONTINUOUS
 10
4.041971
 20
0.326596
 30
0.000000
 40
0.313657
 50
24.574021
 51
82.533092
  0
ARC
  8
Default
 62
     5
  6
CONTINUOUS
 10
3.909701
 20
-0.327930
 30
0.000000
 40
0.980905
 50
79.839906
 51
93.907775
  0
LINE
  8
Default
 62
     5
  6
CONTINUOUS
 10
3.842852
 20
0.650694
 30
0.000000
 11
3.608411
 21
0.656700
 31
0.000000
  0
ARC
  8
Default
 62
     5
  6
CONTINUOUS
 10
3.607259
 20
0.611715
 30
0.000000
 40
0.045000
 50
88.532524
 51
90.902325
  0
ARC
  8
Default
 62
     5
  6
CONTINUOUS
 10
3.567356
 20
3.145208
 30
0.000000
 40
2.488808
 50
261.705855
 51
270.902325
  0
ARC
  8
Default
 62
     5
  6
CONTINUOUS
 10
3.201842
 20
0.637903
 30
0.000000
 40
0.045000
 50
81.705855
 51
84.667648
  0
ARC
  8
Default
 62
     5
  6
CONTINUOUS
 10
3.293870
 20
1.623885
 30
0.000000
 40
0.945267
 50
252.706774
 51
264.667648
  0
ARC
  8
Default
 62
     5
  6
CONTINUOUS
 10
2.999501
 20
0.678382
 30
0.000000
 40
0.045000
 50
72.706774
 51
89.245360
  0
ARC
  8
Default
 62
     5
  6
CONTINUOUS
 10
3.001823
 20
0.854631
 30
0.000000
 40
0.131264
 50
218.726689
 51
269.245360
  0
LINE
  8
Default
 62
     5
  6
CONTINUOUS
 10
2.899418
 20
0.772511
 30
0.000000
 11
2.828217
 21
0.883254
 31
0.000000
  0
ARC
  8
Default
 62
     5
  6
CONTINUOUS
 10
2.790365
 20
0.858917
 30
0.000000
 40
0.045000
 50
32.738817
 51
35.858681
  0
LINE
  8
Default
 62
     5
  6
CONTINUOUS
 10
2.826836
 20
0.885278
 30
0.000000
 11
2.748052
 21
0.994278
 31
0.000000
  0
ARC
  8
Default
 62
     5
  6
CONTINUOUS
 10
2.711582
 20
0.967918
 30
0.000000
 40
0.045000
 50
35.858681
 51
50.488794
  0
ARC
  8
Default
 62
     5
  6
CONTINUOUS
 10
2.945584
 20
1.251673
 30
0.000000
 40
0.322796
 50
180.520241
 51
230.488794
  0
ENDSEC
  0
EOF
