  0
SECTION
  2
HEADER
  9
$ACADVER
  1
AC1006
  0
ENDSEC
  0
SECTION
  2
TABLES
  0
TABLE
  2
LTYPE
 70
    25
  0
LTYPE
  2
CONTINUOUS
 70
    64
  3
Solid line
 72
    64
 73
     0
 40
0.000000
  0
LTYPE
  2
DASHDOT
 70
    64
  3
__ . __ . __ . __ . __ . __ . __ . __ . __ . __
 72
    65
 73
     4
 40
1.000000
 49
0.500000
 49
-0.250000
 49
0.000000
 49
-0.250000
  0
LTYPE
  2
DASHED
 70
    64
  3
__ __ __ __ __ __ __ __ __ __ __ __ __ __ __ __
 72
    65
 73
     2
 40
0.750000
 49
0.500000
 49
-0.250000
  0
LTYPE
  2
DIVIDE
 70
    64
  3
____ . . ____ . . ____ . . ____ . . ____ . . __
 72
    65
 73
     6
 40
1.250000
 49
0.500000
 49
-0.250000
 49
0.000000
 49
-0.250000
 49
0.000000
 49
-0.250000
  0
LTYPE
  2
DOT
 70
    64
  3
. . . . . . . . . . . . . . . . . . . . . . . . 
 72
    65
 73
     2
 40
0.250000
 49
0.000000
 49
-0.250000
  0
ENDTAB
  0
ENDSEC
  0
SECTION
  2
ENTITIES
  0
LINE
  8
Default
 62
     5
  6
CONTINUOUS
 10
7.876755
 20
0.872704
 30
0.000000
 11
7.833992
 21
0.887595
 31
0.000000
  0
LINE
  8
Default
 62
     5
  6
CONTINUOUS
 10
7.833992
 20
0.887595
 30
0.000000
 11
7.820284
 21
0.935100
 31
0.000000
  0
LINE
  8
Default
 62
     5
  6
CONTINUOUS
 10
7.820284
 20
0.935100
 30
0.000000
 11
7.862302
 21
1.012910
 31
0.000000
  0
ARC
  8
Default
 62
     5
  6
CONTINUOUS
 10
7.813288
 20
1.066491
 30
0.000000
 40
0.072617
 50
312.451309
 51
374.645529
  0
LINE
  8
Default
 62
     5
  6
CONTINUOUS
 10
7.883545
 20
1.084851
 30
0.000000
 11
7.876755
 21
1.200936
 31
0.000000
  0
LINE
  8
Default
 62
     5
  6
CONTINUOUS
 10
7.876755
 20
1.200936
 30
0.000000
 11
7.897750
 21
1.594750
 31
0.000000
  0
LINE
  8
Default
 62
     5
  6
CONTINUOUS
 10
7.897750
 20
1.594750
 30
0.000000
 11
7.996755
 21
1.976039
 31
0.000000
  0
ARC
  8
Default
 62
     5
  6
CONTINUOUS
 10
6.546116
 20
2.458711
 30
0.000000
 40
1.528831
 50
341.596141
 51
358.469541
  0
LINE
  8
Default
 62
     5
  6
CONTINUOUS
 10
8.074402
 20
2.417878
 30
0.000000
 11
8.115103
 21
2.792388
 31
0.000000
  0
LINE
  8
Default
 62
     5
  6
CONTINUOUS
 10
8.115103
 20
2.792388
 30
0.000000
 11
8.138243
 21
2.899063
 31
0.000000
  0
ARC
  8
Default
 62
     5
  6
CONTINUOUS
 10
8.188643
 20
2.913372
 30
0.000000
 40
0.052393
 50
68.486494
 51
195.849077
  0
LINE
  8
Default
 62
     5
  6
CONTINUOUS
 10
8.207857
 20
2.962114
 30
0.000000
 11
8.462167
 21
2.953512
 31
0.000000
  0
ARC
  8
Default
 62
     5
  6
CONTINUOUS
 10
8.801865
 20
12.996733
 30
0.000000
 40
10.048964
 50
268.062789
 51
273.061810
  0
LINE
  8
Default
 62
     5
  6
CONTINUOUS
 10
9.465502
 20
2.976232
 30
0.000000
 11
9.338612
 21
2.962114
 31
0.000000
  0
LINE
  8
Default
 62
     5
  6
CONTINUOUS
 10
9.465502
 20
2.976232
 30
0.000000
 11
9.612563
 21
2.990349
 31
0.000000
  0
LINE
  8
Default
 62
     5
  6
CONTINUOUS
 10
9.612563
 20
2.990349
 30
0.000000
 11
9.738917
 21
3.004467
 31
0.000000
  0
LINE
  8
Default
 62
     5
  6
CONTINUOUS
 10
9.738917
 20
3.004467
 30
0.000000
 11
9.772075
 21
3.011526
 31
0.000000
  0
ARC
  8
Default
 62
     5
  6
CONTINUOUS
 10
9.767937
 20
2.994462
 30
0.000000
 40
0.017558
 50
329.986916
 51
436.368541
  0
LINE
  8
Default
 62
     5
  6
CONTINUOUS
 10
9.783141
 20
2.985680
 30
0.000000
 11
9.768519
 21
2.927390
 31
0.000000
  0
LINE
  8
Default
 62
     5
  6
CONTINUOUS
 10
9.768519
 20
2.927390
 30
0.000000
 11
9.683814
 21
2.444010
 31
0.000000
  0
LINE
  8
Default
 62
     5
  6
CONTINUOUS
 10
9.683814
 20
2.444010
 30
0.000000
 11
9.655778
 21
2.150607
 31
0.000000
  0
LINE
  8
Default
 62
     5
  6
CONTINUOUS
 10
9.655778
 20
2.150607
 30
0.000000
 11
9.578292
 21
1.960372
 31
0.000000
  0
LINE
  8
Default
 62
     5
  6
CONTINUOUS
 10
9.578292
 20
1.960372
 30
0.000000
 11
9.366472
 21
1.597348
 31
0.000000
  0
ARC
  8
Default
 62
     5
  6
CONTINUOUS
 10
7.755396
 20
2.537391
 30
0.000000
 40
1.865274
 50
305.998640
 51
329.736968
  0
ARC
  8
Default
 62
     5
  6
CONTINUOUS
 10
8.611878
 20
1.216978
 30
0.000000
 40
0.305162
 50
281.833730
 51
321.814974
  0
ARC
  8
Default
 62
     5
  6
CONTINUOUS
 10
8.444222
 20
2.273516
 30
0.000000
 40
1.374631
 50
266.866583
 51
279.641868
  0
ARC
  8
Default
 62
     5
  6
CONTINUOUS
 10
7.822958
 20
6.117140
 30
0.000000
 40
5.244712
 50
270.587710
 51
275.976973
  0
LINE
  8
Default
 62
     5
  6
CONTINUOUS
 10
4.142825
 20
15.983130
 30
0.000000
 11
3.894929
 21
15.848057
 31
0.000000
  0
ARC
  8
Default
 62
     5
  6
CONTINUOUS
 10
3.916460
 20
15.808542
 30
0.000000
 40
0.045000
 50
118.585021
 51
124.004546
  0
ARC
  8
Default
 62
     5
  6
CONTINUOUS
 10
5.438780
 20
13.551996
 30
0.000000
 40
2.767032
 50
124.004546
 51
134.265397
  0
LINE
  8
Default
 62
     5
  6
CONTINUOUS
 10
3.507439
 20
15.533507
 30
0.000000
 11
3.294847
 21
15.326298
 31
0.000000
  0
ARC
  8
Default
 62
     5
  6
CONTINUOUS
 10
3.326257
 20
15.294073
 30
0.000000
 40
0.045000
 50
134.265397
 51
138.760917
  0
LINE
  8
Default
 62
     5
  6
CONTINUOUS
 10
3.292418
 20
15.323737
 30
0.000000
 11
3.100619
 21
15.104949
 31
0.000000
  0
ARC
  8
Default
 62
     5
  6
CONTINUOUS
 10
1.383145
 20
16.610554
 30
0.000000
 40
2.283981
 50
307.698953
 51
318.760917
  0
ARC
  8
Default
 62
     5
  6
CONTINUOUS
 10
8.321164
 20
2.984847
 30
0.000000
 40
13.053136
 50
115.120379
 51
119.469463
  0
ARC
  8
Default
 62
     5
  6
CONTINUOUS
 10
1.319261
 20
15.376075
 30
0.000000
 40
1.179544
 50
277.928948
 51
299.469463
  0
ARC
  8
Default
 62
     5
  6
CONTINUOUS
 10
1.488180
 20
14.163238
 30
0.000000
 40
0.045000
 50
97.928948
 51
106.894287
  0
LINE
  8
Default
 62
     5
  6
CONTINUOUS
 10
1.475103
 20
14.206296
 30
0.000000
 11
1.045084
 21
14.075693
 31
0.000000
  0
ARC
  8
Default
 62
     5
  6
CONTINUOUS
 10
1.058162
 20
14.032635
 30
0.000000
 40
0.045000
 50
106.894287
 51
109.777065
  0
ARC
  8
Default
 62
     5
  6
CONTINUOUS
 10
-0.306764
 20
17.828628
 30
0.000000
 40
3.988929
 50
281.950780
 51
289.777065
  0
ARC
  8
Default
 62
     5
  6
CONTINUOUS
 10
0.528547
 20
13.882131
 30
0.000000
 40
0.045000
 50
101.950780
 51
118.926597
  0
ARC
  8
Default
 62
     5
  6
CONTINUOUS
 10
0.918933
 20
13.175724
 30
0.000000
 40
0.852100
 50
118.926597
 51
147.282588
  0
ARC
  8
Default
 62
     5
  6
CONTINUOUS
 10
0.348459
 20
13.522636
 30
0.000000
 40
0.185362
 50
142.186077
 51
221.778739
  0
ARC
  8
Default
 62
     5
  6
CONTINUOUS
 10
0.276324
 20
13.443840
 30
0.000000
 40
0.079793
 50
214.072924
 51
318.619750
  0
ARC
  8
Default
 62
     5
  6
CONTINUOUS
 10
0.302430
 20
13.420841
 30
0.000000
 40
0.045000
 50
318.619750
 51
327.807360
  0
ARC
  8
Default
 62
     5
  6
CONTINUOUS
 10
0.360061
 20
13.437398
 30
0.000000
 40
0.045000
 50
244.251941
 51
263.480228
  0
LINE
  8
Default
 62
     5
  6
CONTINUOUS
 10
0.354951
 20
13.392689
 30
0.000000
 11
0.477022
 21
13.378738
 31
0.000000
  0
ARC
  8
Default
 62
     5
  6
CONTINUOUS
 10
1.126179
 20
16.969697
 30
0.000000
 40
3.649163
 50
259.752995
 51
268.468105
  0
ARC
  8
Default
 62
     5
  6
CONTINUOUS
 10
1.374780
 20
20.636581
 30
0.000000
 40
7.322928
 50
267.290613
 51
277.201827
  0
LINE
  8
Default
 62
     5
  6
CONTINUOUS
 10
2.292818
 20
13.371425
 30
0.000000
 11
2.839582
 21
13.410818
 31
0.000000
  0
ARC
  8
Default
 62
     5
  6
CONTINUOUS
 10
2.573464
 20
17.104443
 30
0.000000
 40
3.703198
 50
274.120911
 51
283.226224
  0
ARC
  8
Default
 62
     5
  6
CONTINUOUS
 10
3.410447
 20
13.543280
 30
0.000000
 40
0.045000
 50
283.226224
 51
285.027057
  0
LINE
  8
Default
 62
     5
  6
CONTINUOUS
 10
3.422115
 20
13.499819
 30
0.000000
 11
3.555278
 21
13.535568
 31
0.000000
  0
ARC
  8
Default
 62
     5
  6
CONTINUOUS
 10
3.543610
 20
13.579029
 30
0.000000
 40
0.045000
 50
285.027057
 51
288.991053
  0
ARC
  8
Default
 62
     5
  6
CONTINUOUS
 10
3.625714
 20
13.340462
 30
0.000000
 40
0.207300
 50
70.545650
 51
108.991053
  0
ARC
  8
Default
 62
     5
  6
CONTINUOUS
 10
3.709744
 20
13.578357
 30
0.000000
 40
0.045000
 50
250.545650
 51
258.066028
  0
LINE
  8
Default
 62
     5
  6
CONTINUOUS
 10
3.700438
 20
13.534330
 30
0.000000
 11
3.998990
 21
13.471230
 31
0.000000
  0
ARC
  8
Default
 62
     5
  6
CONTINUOUS
 10
3.465226
 20
11.416379
 30
0.000000
 40
2.123044
 50
60.506143
 51
75.438759
  0
LINE
  8
Default
 62
     5
  6
CONTINUOUS
 10
4.510465
 20
13.264295
 30
0.000000
 11
4.795524
 21
13.089612
 31
0.000000
  0
ARC
  8
Default
 62
     5
  6
CONTINUOUS
 10
4.132130
 20
12.268152
 30
0.000000
 40
1.055883
 50
36.457841
 51
51.076342
  0
ARC
  8
Default
 62
     5
  6
CONTINUOUS
 10
5.017563
 20
12.922331
 30
0.000000
 40
0.045000
 50
216.457841
 51
217.943526
  0
ARC
  8
Default
 62
     5
  6
CONTINUOUS
 10
4.534457
 20
12.545653
 30
0.000000
 40
0.567599
 50
342.134373
 51
397.943526
  0
ARC
  8
Default
 62
     5
  6
CONTINUOUS
 10
5.117516
 20
12.357716
 30
0.000000
 40
0.045000
 50
162.134373
 51
174.568805
  0
ARC
  8
Default
 62
     5
  6
CONTINUOUS
 10
0.811899
 20
12.767082
 30
0.000000
 40
4.280034
 50
339.246556
 51
354.568805
  0
ARC
  8
Default
 62
     5
  6
CONTINUOUS
 10
4.294065
 20
11.537337
 30
0.000000
 40
0.594016
 50
309.095083
 51
331.122530
  0
LINE
  8
Default
 62
     5
  6
CONTINUOUS
 10
4.668657
 20
11.076321
 30
0.000000
 11
4.446965
 21
10.896188
 31
0.000000
  0
ARC
  8
Default
 62
     5
  6
CONTINUOUS
 10
4.475343
 20
10.861264
 30
0.000000
 40
0.045000
 50
129.095083
 51
132.243436
  0
LINE
  8
Default
 62
     5
  6
CONTINUOUS
 10
4.445090
 20
10.894577
 30
0.000000
 11
4.118485
 21
10.597978
 31
0.000000
  0
ARC
  8
Default
 62
     5
  6
CONTINUOUS
 10
5.651020
 20
8.739004
 30
0.000000
 40
2.409242
 50
129.502126
 51
139.189874
  0
LINE
  8
Default
 62
     5
  6
CONTINUOUS
 10
3.827514
 20
10.313575
 30
0.000000
 11
3.693800
 21
10.177742
 31
0.000000
  0
ARC
  8
Default
 62
     5
  6
CONTINUOUS
 10
3.725869
 20
10.146173
 30
0.000000
 40
0.045000
 50
135.450536
 51
140.084820
  0
LINE
  8
Default
 62
     5
  6
CONTINUOUS
 10
3.691355
 20
10.175048
 30
0.000000
 11
3.557084
 21
10.014548
 31
0.000000
  0
LINE
  8
Default
 62
     5
  6
CONTINUOUS
 10
3.557084
 20
10.014548
 30
0.000000
 11
3.249350
 21
9.661589
 31
0.000000
  0
ARC
  8
Default
 62
     5
  6
CONTINUOUS
 10
4.687366
 20
8.407832
 30
0.000000
 40
1.907824
 50
138.915922
 51
153.757125
  0
ARC
  8
Default
 62
     5
  6
CONTINUOUS
 10
6.750913
 20
7.140115
 30
0.000000
 40
4.325068
 50
150.780467
 51
167.394981
  0
ARC
  8
Default
 62
     5
  6
CONTINUOUS
 10
4.699974
 20
7.598743
 30
0.000000
 40
2.223476
 50
167.394981
 51
183.724122
  0
LINE
  8
Default
 62
     5
  6
CONTINUOUS
 10
2.481193
 20
7.454322
 30
0.000000
 11
2.488233
 21
7.069076
 31
0.000000
  0
ARC
  8
Default
 62
     5
  6
CONTINUOUS
 10
2.533225
 20
7.069898
 30
0.000000
 40
0.045000
 50
181.046835
 51
183.526203
  0
LINE
  8
Default
 62
     5
  6
CONTINUOUS
 10
2.488310
 20
7.067131
 30
0.000000
 11
2.509487
 21
6.723478
 31
0.000000
  0
ARC
  8
Default
 62
     5
  6
CONTINUOUS
 10
2.554402
 20
6.726245
 30
0.000000
 40
0.045000
 50
183.526203
 51
194.037081
  0
ARC
  8
Default
 62
     5
  6
CONTINUOUS
 10
5.344407
 20
7.423790
 30
0.000000
 40
2.920882
 50
194.037081
 51
217.477981
  0
ARC
  8
Default
 62
     5
  6
CONTINUOUS
 10
3.062144
 20
5.673941
 30
0.000000
 40
0.045000
 50
217.477981
 51
220.153027
  0
ARC
  8
Default
 62
     5
  6
CONTINUOUS
 10
17.278988
 20
17.668141
 30
0.000000
 40
18.645524
 50
220.153027
 51
223.702183
  0
ARC
  8
Default
 62
     5
  6
CONTINUOUS
 10
3.831910
 20
4.816853
 30
0.000000
 40
0.045000
 50
223.702183
 51
225.329350
  0
ARC
  8
Default
 62
     5
  6
CONTINUOUS
 10
9.228998
 20
10.276349
 30
0.000000
 40
7.721891
 50
225.329350
 51
229.762636
  0
ARC
  8
Default
 62
     5
  6
CONTINUOUS
 10
4.270067
 20
4.416003
 30
0.000000
 40
0.045000
 50
229.762636
 51
232.748399
  0
ARC
  8
Default
 62
     5
  6
CONTINUOUS
 10
7.682884
 20
8.903824
 30
0.000000
 40
5.683072
 50
232.748399
 51
237.582955
  0
ARC
  8
Default
 62
     5
  6
CONTINUOUS
 10
9.462500
 20
11.706208
 30
0.000000
 40
9.002769
 50
237.582955
 51
245.289268
  0
ARC
  8
Default
 62
     5
  6
CONTINUOUS
 10
5.717819
 20
3.568702
 30
0.000000
 40
0.045000
 50
245.289268
 51
248.419576
  0
LINE
  8
Default
 62
     5
  6
CONTINUOUS
 10
5.701268
 20
3.526857
 30
0.000000
 11
6.271441
 21
3.301335
 31
0.000000
  0
ARC
  8
Default
 62
     5
  6
CONTINUOUS
 10
7.980933
 20
7.198820
 30
0.000000
 40
4.255908
 50
246.317058
 51
254.613142
  0
ARC
  8
Default
 62
     5
  6
CONTINUOUS
 10
7.680967
 20
5.663573
 30
0.000000
 40
2.698686
 50
252.104102
 51
264.530606
  0
LINE
  8
Default
 62
     5
  6
CONTINUOUS
 10
7.423744
 20
2.977173
 30
0.000000
 11
7.429486
 21
2.883440
 31
0.000000
  0
ARC
  8
Default
 62
     5
  6
CONTINUOUS
 10
7.474402
 20
2.886191
 30
0.000000
 40
0.045000
 50
183.505221
 51
189.868783
  0
ARC
  8
Default
 62
     5
  6
CONTINUOUS
 10
6.999891
 20
2.803642
 30
0.000000
 40
0.436638
 50
350.131217
 51
369.868783
  0
ARC
  8
Default
 62
     5
  6
CONTINUOUS
 10
7.474402
 20
2.721093
 30
0.000000
 40
0.045000
 50
170.131217
 51
177.824929
  0
LINE
  8
Default
 62
     5
  6
CONTINUOUS
 10
7.429434
 20
2.722801
 30
0.000000
 11
7.422994
 21
2.553234
 31
0.000000
  0
ARC
  8
Default
 62
     5
  6
CONTINUOUS
 10
7.882937
 20
2.468545
 30
0.000000
 40
0.467675
 50
169.566963
 51
190.350094
  0
ARC
  8
Default
 62
     5
  6
CONTINUOUS
 10
6.218659
 20
2.242499
 30
0.000000
 40
1.212559
 50
349.279164
 51
366.726247
  0
LINE
  8
Default
 62
     5
  6
CONTINUOUS
 10
7.410053
 20
2.016934
 30
0.000000
 11
7.299600
 21
1.775992
 31
0.000000
  0
ARC
  8
Default
 62
     5
  6
CONTINUOUS
 10
8.205301
 20
1.218986
 30
0.000000
 40
1.063273
 50
148.408482
 51
168.760296
  0
LINE
  8
Default
 62
     5
  6
CONTINUOUS
 10
7.162421
 20
1.426233
 30
0.000000
 11
7.078410
 21
1.083982
 31
0.000000
  0
ARC
  8
Default
 62
     5
  6
CONTINUOUS
 10
7.300064
 20
0.997814
 30
0.000000
 40
0.237814
 50
158.756322
 51
198.751594
  0
LINE
  8
Default
 62
     5
  6
CONTINUOUS
 10
7.074872
 20
0.921364
 30
0.000000
 11
7.013671
 21
0.931236
 31
0.000000
  0
LINE
  8
Default
 62
     5
  6
CONTINUOUS
 10
7.013671
 20
0.931236
 30
0.000000
 11
6.710580
 21
0.980647
 31
0.000000
  0
ARC
  8
Default
 62
     5
  6
CONTINUOUS
 10
6.703340
 20
0.936234
 30
0.000000
 40
0.045000
 50
80.740741
 51
83.950911
  0
ARC
  8
Default
 62
     5
  6
CONTINUOUS
 10
6.403374
 20
-1.894418
 30
0.000000
 40
2.891501
 50
83.950911
 51
91.691972
  0
ARC
  8
Default
 62
     5
  6
CONTINUOUS
 10
6.319328
 20
0.950842
 30
0.000000
 40
0.045000
 50
91.691972
 51
108.252114
  0
LINE
  8
Default
 62
     5
  6
CONTINUOUS
 10
6.305234
 20
0.993578
 30
0.000000
 11
6.135659
 21
0.937653
 31
0.000000
  0
ARC
  8
Default
 62
     5
  6
CONTINUOUS
 10
6.233105
 20
0.497812
 30
0.000000
 40
0.450507
 50
102.492013
 51
125.298665
  0
ARC
  8
Default
 62
     5
  6
CONTINUOUS
 10
5.998788
 20
0.828767
 30
0.000000
 40
0.045000
 50
125.298665
 51
131.680696
  0
LINE
  8
Default
 62
     5
  6
CONTINUOUS
 10
5.968863
 20
0.862376
 30
0.000000
 11
5.898263
 21
0.799516
 31
0.000000
  0
ARC
  8
Default
 62
     5
  6
CONTINUOUS
 10
5.928187
 20
0.765907
 30
0.000000
 40
0.045000
 50
131.680696
 51
138.847773
  0
ARC
  8
Default
 62
     5
  6
CONTINUOUS
 10
6.039569
 20
0.668564
 30
0.000000
 40
0.192924
 50
138.847773
 51
185.701396
  0
LINE
  8
Default
 62
     5
  6
CONTINUOUS
 10
5.847599
 20
0.649398
 30
0.000000
 11
5.833777
 21
0.649469
 31
0.000000
  0
ARC
  8
Default
 62
     5
  6
CONTINUOUS
 10
5.833547
 20
0.604469
 30
0.000000
 40
0.045000
 50
89.706913
 51
90.000000
  0
LINE
  8
Default
 62
     5
  6
CONTINUOUS
 10
5.833547
 20
0.649469
 30
0.000000
 11
5.705167
 21
0.649469
 31
0.000000
  0
ARC
  8
Default
 62
     5
  6
CONTINUOUS
 10
5.705167
 20
0.604469
 30
0.000000
 40
0.045000
 50
90.000000
 51
92.510001
  0
ARC
  8
Default
 62
     5
  6
CONTINUOUS
 10
5.585398
 20
3.336689
 30
0.000000
 40
2.689843
 50
262.987055
 51
272.510001
  0
LINE
  8
Default
 62
     5
  6
CONTINUOUS
 10
5.256986
 20
0.666969
 30
0.000000
 11
4.857298
 21
0.726435
 31
0.000000
  0
ARC
  8
Default
 62
     5
  6
CONTINUOUS
 10
4.721887
 20
0.073250
 30
0.000000
 40
0.667073
 50
78.287969
 51
117.444942
  0
ARC
  8
Default
 62
     5
  6
CONTINUOUS
 10
4.435176
 20
0.625312
 30
0.000000
 40
0.045000
 50
117.444942
 51
119.503578
  0
ARC
  8
Default
 62
     5
  6
CONTINUOUS
 10
4.739113
 20
0.088183
 30
0.000000
 40
0.662159
 50
119.503578
 51
148.115213
  0
ARC
  8
Default
 62
     5
  6
CONTINUOUS
 10
4.215076
 20
0.414174
 30
0.000000
 40
0.045000
 50
148.115213
 51
170.536876
  0
LINE
  8
Default
 62
     5
  6
CONTINUOUS
 10
4.170689
 20
0.421573
 30
0.000000
 11
4.154720
 21
0.325770
 31
0.000000
  0
ARC
  8
Default
 62
     5
  6
CONTINUOUS
 10
4.199108
 20
0.318371
 30
0.000000
 40
0.045000
 50
170.536876
 51
195.294634
  0
LINE
  8
Default
 62
     5
  6
CONTINUOUS
 10
4.155701
 20
0.306501
 30
0.000000
 11
4.169819
 21
0.254877
 31
0.000000
  0
ARC
  8
Default
 62
     5
  6
CONTINUOUS
 10
4.213225
 20
0.266747
 30
0.000000
 40
0.045000
 50
195.294634
 51
197.515671
  0
LINE
  8
Default
 62
     5
  6
CONTINUOUS
 10
4.170312
 20
0.253203
 30
0.000000
 11
4.175814
 21
0.235771
 31
0.000000
  0
ARC
  8
Default
 62
     5
  6
CONTINUOUS
 10
4.226793
 20
0.243524
 30
0.000000
 40
0.051566
 50
188.647954
 51
371.033556
  0
LINE
  8
Default
 62
     5
  6
CONTINUOUS
 10
4.277406
 20
0.253393
 30
0.000000
 11
4.309957
 21
0.332185
 31
0.000000
  0
ARC
  8
Default
 62
     5
  6
CONTINUOUS
 10
4.341068
 20
0.311634
 30
0.000000
 40
0.037285
 50
80.141872
 51
146.552341
  0
ARC
  8
Default
 62
     5
  6
CONTINUOUS
 10
4.355156
 20
0.392705
 30
0.000000
 40
0.045000
 50
260.141872
 51
263.466079
  0
ARC
  8
Default
 62
     5
  6
CONTINUOUS
 10
4.402806
 20
0.808737
 30
0.000000
 40
0.463752
 50
263.466079
 51
289.898364
  0
ARC
  8
Default
 62
     5
  6
CONTINUOUS
 10
4.545329
 20
0.414985
 30
0.000000
 40
0.045000
 50
289.898364
 51
291.733027
  0
LINE
  8
Default
 62
     5
  6
CONTINUOUS
 10
4.561992
 20
0.373184
 30
0.000000
 11
4.660215
 21
0.412337
 31
0.000000
  0
ARC
  8
Default
 62
     5
  6
CONTINUOUS
 10
4.643553
 20
0.454139
 30
0.000000
 40
0.045000
 50
291.733027
 51
295.394345
  0
ARC
  8
Default
 62
     5
  6
CONTINUOUS
 10
4.684271
 20
0.368365
 30
0.000000
 40
0.049948
 50
69.184769
 51
115.394345
  0
LINE
  8
Default
 62
     5
  6
CONTINUOUS
 10
4.702020
 20
0.415053
 30
0.000000
 11
4.714263
 21
0.395247
 31
0.000000
  0
ARC
  8
Default
 62
     5
  6
CONTINUOUS
 10
4.680643
 20
0.391629
 30
0.000000
 40
0.033814
 50
328.191687
 51
366.142508
  0
ARC
  8
Default
 62
     5
  6
CONTINUOUS
 10
4.747621
 20
0.350088
 30
0.000000
 40
0.045000
 50
148.191687
 51
154.271832
  0
LINE
  8
Default
 62
     5
  6
CONTINUOUS
 10
4.707082
 20
0.369623
 30
0.000000
 11
4.664007
 21
0.280233
 31
0.000000
  0
ARC
  8
Default
 62
     5
  6
CONTINUOUS
 10
4.843075
 20
0.171734
 30
0.000000
 40
0.209374
 50
148.787950
 51
183.634327
  0
ARC
  8
Default
 62
     5
  6
CONTINUOUS
 10
4.738820
 20
0.160226
 30
0.000000
 40
0.104713
 50
180.965586
 51
236.779616
  0
ARC
  8
Default
 62
     5
  6
CONTINUOUS
 10
4.706106
 20
0.110273
 30
0.000000
 40
0.045000
 50
236.779616
 51
252.148615
  0
LINE
  8
Default
 62
     5
  6
CONTINUOUS
 10
4.692311
 20
0.067439
 30
0.000000
 11
4.729558
 21
0.055444
 31
0.000000
  0
ARC
  8
Default
 62
     5
  6
CONTINUOUS
 10
4.761035
 20
0.108604
 30
0.000000
 40
0.061781
 50
239.369705
 51
358.230683
  0
LINE
  8
Default
 62
     5
  6
CONTINUOUS
 10
4.822786
 20
0.106697
 30
0.000000
 11
4.826205
 21
0.127563
 31
0.000000
  0
LINE
  8
Default
 62
     5
  6
CONTINUOUS
 10
4.826205
 20
0.127563
 30
0.000000
 11
4.845856
 21
0.144227
 31
0.000000
  0
LINE
  8
Default
 62
     5
  6
CONTINUOUS
 10
4.845856
 20
0.144227
 30
0.000000
 11
4.970598
 21
0.149940
 31
0.000000
  0
LINE
  8
Default
 62
     5
  6
CONTINUOUS
 10
4.970598
 20
0.149940
 30
0.000000
 11
5.212899
 21
0.122116
 31
0.000000
  0
ARC
  8
Default
 62
     5
  6
CONTINUOUS
 10
5.218033
 20
0.166823
 30
0.000000
 40
0.045000
 50
263.449408
 51
263.849323
  0
LINE
  8
Default
 62
     5
  6
CONTINUOUS
 10
5.213211
 20
0.122082
 30
0.000000
 11
5.475222
 21
0.093846
 31
0.000000
  0
ARC
  8
Default
 62
     5
  6
CONTINUOUS
 10
5.480043
 20
0.138587
 30
0.000000
 40
0.045000
 50
263.849323
 51
272.466177
  0
LINE
  8
Default
 62
     5
  6
CONTINUOUS
 10
5.481980
 20
0.093629
 30
0.000000
 11
5.809655
 21
0.107742
 31
0.000000
  0
LINE
  8
Default
 62
     5
  6
CONTINUOUS
 10
5.809655
 20
0.107742
 30
0.000000
 11
6.365757
 21
0.128914
 31
0.000000
  0
ARC
  8
Default
 62
     5
  6
CONTINUOUS
 10
6.364045
 20
0.173881
 30
0.000000
 40
0.045000
 50
272.180339
 51
272.588008
  0
LINE
  8
Default
 62
     5
  6
CONTINUOUS
 10
6.366077
 20
0.128927
 30
0.000000
 11
6.678414
 21
0.143045
 31
0.000000
  0
ARC
  8
Default
 62
     5
  6
CONTINUOUS
 10
6.676382
 20
0.187999
 30
0.000000
 40
0.045000
 50
272.588008
 51
278.046972
  0
ARC
  8
Default
 62
     5
  6
CONTINUOUS
 10
6.729977
 20
-0.191094
 30
0.000000
 40
0.337863
 50
55.542300
 51
98.046972
  0
ARC
  8
Default
 62
     5
  6
CONTINUOUS
 10
6.946600
 20
0.124593
 30
0.000000
 40
0.045000
 50
235.542300
 51
296.318241
  0
ARC
  8
Default
 62
     5
  6
CONTINUOUS
 10
7.698231
 20
-1.394998
 30
0.000000
 40
1.650319
 50
102.799196
 51
116.318241
  0
ARC
  8
Default
 62
     5
  6
CONTINUOUS
 10
7.322659
 20
0.258196
 30
0.000000
 40
0.045000
 50
282.799196
 51
292.866288
  0
LINE
  8
Default
 62
     5
  6
CONTINUOUS
 10
7.340145
 20
0.216733
 30
0.000000
 11
7.440280
 21
0.258962
 31
0.000000
  0
ARC
  8
Default
 62
     5
  6
CONTINUOUS
 10
7.422794
 20
0.300426
 30
0.000000
 40
0.045000
 50
292.866288
 51
301.740974
  0
ARC
  8
Default
 62
     5
  6
CONTINUOUS
 10
7.327644
 20
0.454240
 30
0.000000
 40
0.225866
 50
301.740974
 51
332.163307
  0
LINE
  8
Default
 62
     5
  6
CONTINUOUS
 10
7.527373
 20
0.348772
 30
0.000000
 11
7.553467
 21
0.389094
 31
0.000000
  0
ARC
  8
Default
 62
     5
  6
CONTINUOUS
 10
7.515688
 20
0.413542
 30
0.000000
 40
0.045000
 50
327.091432
 51
354.875838
  0
ARC
  8
Default
 62
     5
  6
CONTINUOUS
 10
7.569886
 20
0.408682
 30
0.000000
 40
0.009416
 50
166.057818
 51
174.875838
  0
LINE
  8
Default
 62
     5
  6
CONTINUOUS
 10
7.560748
 20
0.410951
 30
0.000000
 11
7.671006
 21
0.408579
 31
0.000000
  0
LINE
  8
Default
 62
     5
  6
CONTINUOUS
 10
7.671006
 20
0.408579
 30
0.000000
 11
8.025845
 21
0.397140
 31
0.000000
  0
ARC
  8
Default
 62
     5
  6
CONTINUOUS
 10
8.027295
 20
0.442116
 30
0.000000
 40
0.045000
 50
268.153609
 51
270.000000
  0
LINE
  8
Default
 62
     5
  6
CONTINUOUS
 10
8.027295
 20
0.397116
 30
0.000000
 11
8.183211
 21
0.397116
 31
0.000000
  0
ARC
  8
Default
 62
     5
  6
CONTINUOUS
 10
8.183211
 20
0.442116
 30
0.000000
 40
0.045000
 50
270.000000
 51
280.456492
  0
ARC
  8
Default
 62
     5
  6
CONTINUOUS
 10
8.260541
 20
0.023107
 30
0.000000
 40
0.381085
 50
79.543508
 51
100.456492
  0
ARC
  8
Default
 62
     5
  6
CONTINUOUS
 10
8.337870
 20
0.442116
 30
0.000000
 40
0.045000
 50
259.543508
 51
268.773187
  0
LINE
  8
Default
 62
     5
  6
CONTINUOUS
 10
8.336907
 20
0.397127
 30
0.000000
 11
8.666524
 21
0.390068
 31
0.000000
  0
ARC
  8
Default
 62
     5
  6
CONTINUOUS
 10
8.667487
 20
0.435058
 30
0.000000
 40
0.045000
 50
268.773187
 51
273.007495
  0
LINE
  8
Default
 62
     5
  6
CONTINUOUS
 10
8.669848
 20
0.390120
 30
0.000000
 11
8.804103
 21
0.397173
 31
0.000000
  0
ARC
  8
Default
 62
     5
  6
CONTINUOUS
 10
8.801742
 20
0.442111
 30
0.000000
 40
0.045000
 50
273.007495
 51
288.451125
  0
LINE
  8
Default
 62
     5
  6
CONTINUOUS
 10
8.815985
 20
0.399424
 30
0.000000
 11
8.920286
 21
0.434224
 31
0.000000
  0
ARC
  8
Default
 62
     5
  6
CONTINUOUS
 10
8.906044
 20
0.476911
 30
0.000000
 40
0.045000
 50
288.451125
 51
305.950579
  0
LINE
  8
Default
 62
     5
  6
CONTINUOUS
 10
8.932463
 20
0.440483
 30
0.000000
 11
9.089234
 21
0.554177
 31
0.000000
  0
ARC
  8
Default
 62
     5
  6
CONTINUOUS
 10
9.062815
 20
0.590605
 30
0.000000
 40
0.045000
 50
305.950579
 51
309.871595
  0
ARC
  8
Default
 62
     5
  6
CONTINUOUS
 10
9.184092
 20
0.445414
 30
0.000000
 40
0.144179
 50
99.111357
 51
129.871595
  0
ARC
  8
Default
 62
     5
  6
CONTINUOUS
 10
9.154134
 20
0.632206
 30
0.000000
 40
0.045000
 50
279.111357
 51
283.956207
  0
LINE
  8
Default
 62
     5
  6
CONTINUOUS
 10
9.164988
 20
0.588534
 30
0.000000
 11
9.252206
 21
0.610209
 31
0.000000
  0
ARC
  8
Default
 62
     5
  6
CONTINUOUS
 10
9.241353
 20
0.653881
 30
0.000000
 40
0.045000
 50
283.956207
 51
284.922111
  0
LINE
  8
Default
 62
     5
  6
CONTINUOUS
 10
9.252940
 20
0.610398
 30
0.000000
 11
9.287642
 21
0.619646
 31
0.000000
  0
LINE
  8
Default
 62
     5
  6
CONTINUOUS
 10
9.287642
 20
0.619646
 30
0.000000
 11
9.274651
 21
0.585217
 31
0.000000
  0
ARC
  8
Default
 62
     5
  6
CONTINUOUS
 10
9.316753
 20
0.569330
 30
0.000000
 40
0.045000
 50
159.326261
 51
191.693283
  0
LINE
  8
Default
 62
     5
  6
CONTINUOUS
 10
9.272687
 20
0.560210
 30
0.000000
 11
9.286955
 21
0.491272
 31
0.000000
  0
ARC
  8
Default
 62
     5
  6
CONTINUOUS
 10
9.331021
 20
0.500392
 30
0.000000
 40
0.045000
 50
191.693283
 51
199.453534
  0
LINE
  8
Default
 62
     5
  6
CONTINUOUS
 10
9.288590
 20
0.485405
 30
0.000000
 11
9.323267
 21
0.387227
 31
0.000000
  0
LINE
  8
Default
 62
     5
  6
CONTINUOUS
 10
9.323267
 20
0.387227
 30
0.000000
 11
9.336512
 21
0.340650
 31
0.000000
  0
ARC
  8
Default
 62
     5
  6
CONTINUOUS
 10
9.379796
 20
0.352958
 30
0.000000
 40
0.045000
 50
195.874008
 51
304.058076
  0
LINE
  8
Default
 62
     5
  6
CONTINUOUS
 10
9.404998
 20
0.315677
 30
0.000000
 11
9.443217
 21
0.341513
 31
0.000000
  0
ARC
  8
Default
 62
     5
  6
CONTINUOUS
 10
9.418016
 20
0.378794
 30
0.000000
 40
0.045000
 50
304.058076
 51
306.804926
  0
LINE
  8
Default
 62
     5
  6
CONTINUOUS
 10
9.444975
 20
0.342764
 30
0.000000
 11
9.520262
 21
0.399096
 31
0.000000
  0
ARC
  8
Default
 62
     5
  6
CONTINUOUS
 10
9.493303
 20
0.435126
 30
0.000000
 40
0.045000
 50
306.804926
 51
315.430715
  0
ARC
  8
Default
 62
     5
  6
CONTINUOUS
 10
8.315913
 20
1.594946
 30
0.000000
 40
1.697704
 50
315.430715
 51
321.319509
  0
ARC
  8
Default
 62
     5
  6
CONTINUOUS
 10
9.606085
 20
0.562044
 30
0.000000
 40
0.045000
 50
321.319509
 51
332.792949
  0
LINE
  8
Default
 62
     5
  6
CONTINUOUS
 10
9.646106
 20
0.541470
 30
0.000000
 11
9.724211
 21
0.693399
 31
0.000000
  0
ARC
  8
Default
 62
     5
  6
CONTINUOUS
 10
9.684189
 20
0.713974
 30
0.000000
 40
0.045000
 50
332.792949
 51
345.728734
  0
LINE
  8
Default
 62
     5
  6
CONTINUOUS
 10
9.727801
 20
0.702880
 30
0.000000
 11
9.770099
 21
0.869172
 31
0.000000
  0
ARC
  8
Default
 62
     5
  6
CONTINUOUS
 10
9.726488
 20
0.880266
 30
0.000000
 40
0.045000
 50
345.728734
 51
351.199080
  0
LINE
  8
Default
 62
     5
  6
CONTINUOUS
 10
9.770958
 20
0.873380
 30
0.000000
 11
9.847952
 21
1.370678
 31
0.000000
  0
ARC
  8
Default
 62
     5
  6
CONTINUOUS
 10
11.701529
 20
0.896449
 30
0.000000
 40
1.913280
 50
153.817673
 51
165.648998
  0
LINE
  8
Default
 62
     5
  6
CONTINUOUS
 10
9.984562
 20
1.740644
 30
0.000000
 11
10.366036
 21
2.516506
 31
0.000000
  0
ARC
  8
Default
 62
     5
  6
CONTINUOUS
 10
10.325653
 20
2.536362
 30
0.000000
 40
0.045000
 50
333.817673
 51
336.530155
  0
LINE
  8
Default
 62
     5
  6
CONTINUOUS
 10
10.366931
 20
2.518440
 30
0.000000
 11
10.416352
 21
2.632266
 31
0.000000
  0
ARC
  8
Default
 62
     5
  6
CONTINUOUS
 10
10.375075
 20
2.650188
 30
0.000000
 40
0.045000
 50
336.530155
 51
349.085648
  0
LINE
  8
Default
 62
     5
  6
CONTINUOUS
 10
10.419261
 20
2.641667
 30
0.000000
 11
10.440941
 21
2.754096
 31
0.000000
  0
ARC
  8
Default
 62
     5
  6
CONTINUOUS
 10
10.396755
 20
2.762616
 30
0.000000
 40
0.045000
 50
349.085648
 51
365.775838
  0
ARC
  8
Default
 62
     5
  6
CONTINUOUS
 10
11.786817
 20
2.903221
 30
0.000000
 40
1.352155
 50
174.224162
 51
185.775838
  0
ARC
  8
Default
 62
     5
  6
CONTINUOUS
 10
10.396755
 20
3.043826
 30
0.000000
 40
0.045000
 50
354.224162
 51
360.260751
  0
ARC
  8
Default
 62
     5
  6
CONTINUOUS
 10
10.612868
 20
3.044810
 30
0.000000
 40
0.171116
 50
157.150915
 51
180.260751
  0
LINE
  8
Default
 62
     5
  6
CONTINUOUS
 10
10.455180
 20
3.111255
 30
0.000000
 11
10.544219
 21
3.128998
 31
0.000000
  0
LINE
  8
Default
 62
     5
  6
CONTINUOUS
 10
10.544219
 20
3.128998
 30
0.000000
 11
10.773824
 21
3.150170
 31
0.000000
  0
LINE
  8
Default
 62
     5
  6
CONTINUOUS
 10
10.773824
 20
3.150170
 30
0.000000
 11
11.279994
 21
3.178360
 31
0.000000
  0
ARC
  8
Default
 62
     5
  6
CONTINUOUS
 10
11.277492
 20
3.223290
 30
0.000000
 40
0.045000
 50
273.187646
 51
274.690778
  0
LINE
  8
Default
 62
     5
  6
CONTINUOUS
 10
11.281172
 20
3.178441
 30
0.000000
 11
11.545588
 21
3.200137
 31
0.000000
  0
ARC
  8
Default
 62
     5
  6
CONTINUOUS
 10
11.541908
 20
3.244986
 30
0.000000
 40
0.045000
 50
274.690778
 51
276.711115
  0
LINE
  8
Default
 62
     5
  6
CONTINUOUS
 10
11.547167
 20
3.200295
 30
0.000000
 11
11.842693
 21
3.235069
 31
0.000000
  0
ARC
  8
Default
 62
     5
  6
CONTINUOUS
 10
11.837434
 20
3.279761
 30
0.000000
 40
0.045000
 50
276.711115
 51
280.988157
  0
ARC
  8
Default
 62
     5
  6
CONTINUOUS
 10
10.958940
 20
7.804215
 30
0.000000
 40
4.653952
 50
280.988157
 51
287.134593
  0
ARC
  8
Default
 62
     5
  6
CONTINUOUS
 10
12.316817
 20
3.399830
 30
0.000000
 40
0.045000
 50
287.134593
 51
289.059698
  0
LINE
  8
Default
 62
     5
  6
CONTINUOUS
 10
12.331512
 20
3.357297
 30
0.000000
 11
12.790321
 21
3.515812
 31
0.000000
  0
ARC
  8
Default
 62
     5
  6
CONTINUOUS
 10
12.775626
 20
3.558345
 30
0.000000
 40
0.045000
 50
289.059698
 51
291.816429
  0
LINE
  8
Default
 62
     5
  6
CONTINUOUS
 10
12.792349
 20
3.516568
 30
0.000000
 11
13.279672
 21
3.711646
 31
0.000000
  0
ARC
  8
Default
 62
     5
  6
CONTINUOUS
 10
13.262949
 20
3.753423
 30
0.000000
 40
0.045000
 50
291.816429
 51
298.424968
  0
LINE
  8
Default
 62
     5
  6
CONTINUOUS
 10
13.284369
 20
3.713848
 30
0.000000
 11
13.504463
 21
3.832976
 31
0.000000
  0
ARC
  8
Default
 62
     5
  6
CONTINUOUS
 10
13.856132
 20
3.079796
 30
0.000000
 40
0.831235
 50
99.930070
 51
115.028430
  0
ARC
  8
Default
 62
     5
  6
CONTINUOUS
 10
13.290301
 20
9.535840
 30
0.000000
 40
5.653072
 50
274.286049
 51
296.880962
  0
LINE
  8
Default
 62
     5
  6
CONTINUOUS
 10
15.846272
 20
4.493595
 30
0.000000
 11
15.884702
 21
4.513076
 31
0.000000
  0
LINE
  8
Default
 62
     5
  6
CONTINUOUS
 10
15.884702
 20
4.513076
 30
0.000000
 11
16.016268
 21
4.557856
 31
0.000000
  0
ARC
  8
Default
 62
     5
  6
CONTINUOUS
 10
16.001769
 20
4.600456
 30
0.000000
 40
0.045000
 50
288.796645
 51
290.701310
  0
LINE
  8
Default
 62
     5
  6
CONTINUOUS
 10
16.017676
 20
4.558362
 30
0.000000
 11
16.090550
 21
4.585900
 31
0.000000
  0
ARC
  8
Default
 62
     5
  6
CONTINUOUS
 10
16.074642
 20
4.627995
 30
0.000000
 40
0.045000
 50
290.701310
 51
291.312165
  0
LINE
  8
Default
 62
     5
  6
CONTINUOUS
 10
16.090997
 20
4.586072
 30
0.000000
 11
16.127464
 21
4.600299
 31
0.000000
  0
ARC
  8
Default
 62
     5
  6
CONTINUOUS
 10
16.144095
 20
4.642112
 30
0.000000
 40
0.045000
 50
248.309654
 51
253.663686
  0
LINE
  8
Default
 62
     5
  6
CONTINUOUS
 10
16.131438
 20
4.598929
 30
0.000000
 11
16.298326
 21
4.550013
 31
0.000000
  0
LINE
  8
Default
 62
     5
  6
CONTINUOUS
 10
16.298326
 20
4.550013
 30
0.000000
 11
16.433376
 21
4.507431
 31
0.000000
  0
ARC
  8
Default
 62
     5
  6
CONTINUOUS
 10
16.446908
 20
4.550348
 30
0.000000
 40
0.045000
 50
252.499527
 51
263.863729
  0
ARC
  8
Default
 62
     5
  6
CONTINUOUS
 10
16.460396
 20
4.675807
 30
0.000000
 40
0.171183
 50
263.863729
 51
327.311120
  0
ARC
  8
Default
 62
     5
  6
CONTINUOUS
 10
16.566593
 20
4.607659
 30
0.000000
 40
0.045000
 50
327.311120
 51
329.709086
  0
ARC
  8
Default
 62
     5
  6
CONTINUOUS
 10
16.632483
 20
4.620936
 30
0.000000
 40
0.045000
 50
233.075840
 51
259.019006
  0
LINE
  8
Default
 62
     5
  6
CONTINUOUS
 10
16.623912
 20
4.576760
 30
0.000000
 11
16.692006
 21
4.563547
 31
0.000000
  0
ARC
  8
Default
 62
     5
  6
CONTINUOUS
 10
16.773136
 20
4.717570
 30
0.000000
 40
0.174084
 50
242.222610
 51
323.463491
  0
ARC
  8
Default
 62
     5
  6
CONTINUOUS
 10
16.876851
 20
4.640722
 30
0.000000
 40
0.045000
 50
323.463491
 51
348.907056
  0
LINE
  8
Default
 62
     5
  6
CONTINUOUS
 10
16.921011
 20
4.632064
 30
0.000000
 11
16.923725
 21
4.645910
 31
0.000000
  0
LINE
  8
Default
 62
     5
  6
CONTINUOUS
 10
16.923725
 20
4.645910
 30
0.000000
 11
16.962746
 21
4.634229
 31
0.000000
  0
ARC
  8
Default
 62
     5
  6
CONTINUOUS
 10
16.975652
 20
4.677339
 30
0.000000
 40
0.045000
 50
253.334569
 51
264.300165
  0
LINE
  8
Default
 62
     5
  6
CONTINUOUS
 10
16.971182
 20
4.632561
 30
0.000000
 11
17.111948
 21
4.618511
 31
0.000000
  0
ARC
  8
Default
 62
     5
  6
CONTINUOUS
 10
17.116417
 20
4.663289
 30
0.000000
 40
0.045000
 50
264.300165
 51
270.116221
  0
ARC
  8
Default
 62
     5
  6
CONTINUOUS
 10
17.116269
 20
4.736596
 30
0.000000
 40
0.118308
 50
270.116221
 51
372.544503
  0
ARC
  8
Default
 62
     5
  6
CONTINUOUS
 10
17.089130
 20
4.749591
 30
0.000000
 40
0.143187
 50
5.088947
 51
77.919826
  0
ARC
  8
Default
 62
     5
  6
CONTINUOUS
 10
14.736188
 20
-0.606510
 30
0.000000
 40
5.990455
 50
66.560277
 51
71.651764
  0
LINE
  8
Default
 62
     5
  6
CONTINUOUS
 10
16.621933
 20
5.079395
 30
0.000000
 11
15.813150
 21
5.413895
 31
0.000000
  0
ARC
  8
Default
 62
     5
  6
CONTINUOUS
 10
17.078101
 20
8.472411
 30
0.000000
 40
3.309777
 50
238.848324
 51
247.530827
  0
ARC
  8
Default
 62
     5
  6
CONTINUOUS
 10
16.850073
 20
7.912502
 30
0.000000
 40
2.714291
 50
226.870677
 51
236.853190
  0
ARC
  8
Default
 62
     5
  6
CONTINUOUS
 10
14.963691
 20
5.898736
 30
0.000000
 40
0.045000
 50
46.870677
 51
48.047985
  0
LINE
  8
Default
 62
     5
  6
CONTINUOUS
 10
14.993774
 20
5.932203
 30
0.000000
 11
14.711002
 21
6.186384
 31
0.000000
  0
LINE
  8
Default
 62
     5
  6
CONTINUOUS
 10
14.711002
 20
6.186384
 30
0.000000
 11
14.688298
 21
6.207009
 31
0.000000
  0
LINE
  8
Default
 62
     5
  6
CONTINUOUS
 10
14.688298
 20
6.207009
 30
0.000000
 11
14.756909
 21
6.199783
 31
0.000000
  0
LINE
  8
Default
 62
     5
  6
CONTINUOUS
 10
14.756909
 20
6.199783
 30
0.000000
 11
15.218633
 21
6.136926
 31
0.000000
  0
ARC
  8
Default
 62
     5
  6
CONTINUOUS
 10
15.224703
 20
6.181515
 30
0.000000
 40
0.045000
 50
262.247670
 51
263.497051
  0
ARC
  8
Default
 62
     5
  6
CONTINUOUS
 10
15.070486
 20
4.828585
 30
0.000000
 40
1.316691
 50
72.159361
 51
83.497051
  0
LINE
  8
Default
 62
     5
  6
CONTINUOUS
 10
15.473881
 20
6.081959
 30
0.000000
 11
15.695619
 21
6.010593
 31
0.000000
  0
ARC
  8
Default
 62
     5
  6
CONTINUOUS
 10
15.757067
 20
6.201516
 30
0.000000
 40
0.200567
 50
252.159361
 51
296.018982
  0
ARC
  8
Default
 62
     5
  6
CONTINUOUS
 10
15.825310
 20
6.061715
 30
0.000000
 40
0.045000
 50
296.018982
 51
324.859999
  0
ARC
  8
Default
 62
     5
  6
CONTINUOUS
 10
15.698172
 20
6.151202
 30
0.000000
 40
0.200473
 50
324.859999
 51
361.628113
  0
ARC
  8
Default
 62
     5
  6
CONTINUOUS
 10
15.905174
 20
6.384029
 30
0.000000
 40
0.227228
 50
268.332945
 51
284.930859
  0
ARC
  8
Default
 62
     5
  6
CONTINUOUS
 10
15.952126
 20
6.207954
 30
0.000000
 40
0.045000
 50
284.930859
 51
344.170940
  0
ARC
  8
Default
 62
     5
  6
CONTINUOUS
 10
15.861028
 20
6.233782
 30
0.000000
 40
0.139689
 50
344.170940
 51
411.535159
  0
ARC
  8
Default
 62
     5
  6
CONTINUOUS
 10
15.919927
 20
6.307922
 30
0.000000
 40
0.045000
 50
51.535159
 51
58.494795
  0
ARC
  8
Default
 62
     5
  6
CONTINUOUS
 10
15.333959
 20
5.351904
 30
0.000000
 40
1.166307
 50
58.494795
 51
70.184369
  0
ARC
  8
Default
 62
     5
  6
CONTINUOUS
 10
15.714076
 20
6.406817
 30
0.000000
 40
0.045000
 50
70.184369
 51
75.025142
  0
LINE
  8
Default
 62
     5
  6
CONTINUOUS
 10
15.725704
 20
6.450288
 30
0.000000
 11
15.277275
 21
6.570234
 31
0.000000
  0
ARC
  8
Default
 62
     5
  6
CONTINUOUS
 10
16.111784
 20
9.690139
 30
0.000000
 40
3.229585
 50
247.592090
 51
255.025142
  0
LINE
  8
Default
 62
     5
  6
CONTINUOUS
 10
14.880673
 20
6.704410
 30
0.000000
 11
14.456044
 21
6.879498
 31
0.000000
  0
ARC
  8
Default
 62
     5
  6
CONTINUOUS
 10
14.438890
 20
6.837895
 30
0.000000
 40
0.045000
 50
67.592090
 51
69.691434
  0
ARC
  8
Default
 62
     5
  6
CONTINUOUS
 10
16.283560
 20
11.822394
 30
0.000000
 40
5.269888
 50
244.242866
 51
249.691434
  0
ARC
  8
Default
 62
     5
  6
CONTINUOUS
 10
13.973936
 20
7.035572
 30
0.000000
 40
0.045000
 50
64.242866
 51
68.355676
  0
ARC
  8
Default
 62
     5
  6
CONTINUOUS
 10
14.623022
 20
8.671278
 30
0.000000
 40
1.714786
 50
233.452908
 51
248.355676
  0
ARC
  8
Default
 62
     5
  6
CONTINUOUS
 10
11.613261
 20
5.058095
 30
0.000000
 40
2.992070
 50
48.345674
 51
56.304084
  0
ARC
  8
Default
 62
     5
  6
CONTINUOUS
 10
13.248252
 20
7.510038
 30
0.000000
 40
0.045000
 50
56.304084
 51
58.650690
  0
LINE
  8
Default
 62
     5
  6
CONTINUOUS
 10
13.271663
 20
7.548468
 30
0.000000
 11
11.826425
 21
8.428891
 31
0.000000
  0
ARC
  8
Default
 62
     5
  6
CONTINUOUS
 10
11.803014
 20
8.390461
 30
0.000000
 40
0.045000
 50
58.650690
 51
60.234067
  0
LINE
  8
Default
 62
     5
  6
CONTINUOUS
 10
11.825354
 20
8.429523
 30
0.000000
 11
11.089834
 21
8.850179
 31
0.000000
  0
ARC
  8
Default
 62
     5
  6
CONTINUOUS
 10
11.067494
 20
8.811116
 30
0.000000
 40
0.045000
 50
60.234067
 51
62.192461
  0
ARC
  8
Default
 62
     5
  6
CONTINUOUS
 10
7.215184
 20
1.506892
 30
0.000000
 40
8.302844
 50
62.192461
 51
67.926921
  0
ARC
  8
Default
 62
     5
  6
CONTINUOUS
 10
8.102679
 20
4.047896
 30
0.000000
 40
5.616133
 50
66.575696
 51
79.055588
  0
ARC
  8
Default
 62
     5
  6
CONTINUOUS
 10
8.693176
 20
7.101552
 30
0.000000
 40
2.505907
 50
79.055588
 51
90.574946
  0
LINE
  8
Default
 62
     5
  6
CONTINUOUS
 10
8.668031
 20
9.607333
 30
0.000000
 11
7.941930
 21
9.600047
 31
0.000000
  0
ARC
  8
Default
 62
     5
  6
CONTINUOUS
 10
7.942382
 20
9.555049
 30
0.000000
 40
0.045000
 50
90.574946
 51
92.686037
  0
LINE
  8
Default
 62
     5
  6
CONTINUOUS
 10
7.940273
 20
9.599999
 30
0.000000
 11
7.338428
 21
9.571764
 31
0.000000
  0
ARC
  8
Default
 62
     5
  6
CONTINUOUS
 10
7.340537
 20
9.526814
 30
0.000000
 40
0.045000
 50
92.686037
 51
97.097743
  0
ARC
  8
Default
 62
     5
  6
CONTINUOUS
 10
6.435622
 20
16.794239
 30
0.000000
 40
7.278547
 50
272.452861
 51
277.097743
  0
ARC
  8
Default
 62
     5
  6
CONTINUOUS
 10
6.749051
 20
9.477402
 30
0.000000
 40
0.045000
 50
92.452861
 51
101.018510
  0
ARC
  8
Default
 62
     5
  6
CONTINUOUS
 10
6.716152
 20
9.646363
 30
0.000000
 40
0.127135
 50
245.732802
 51
281.018510
  0
ARC
  8
Default
 62
     5
  6
CONTINUOUS
 10
6.691298
 20
9.568479
 30
0.000000
 40
0.046860
 50
177.020956
 51
234.220870
  0
ARC
  8
Default
 62
     5
  6
CONTINUOUS
 10
6.599561
 20
9.573253
 30
0.000000
 40
0.045000
 50
357.020956
 51
379.023634
  0
ARC
  8
Default
 62
     5
  6
CONTINUOUS
 10
7.160778
 20
9.766755
 30
0.000000
 40
0.548639
 50
173.571141
 51
199.023634
  0
ARC
  8
Default
 62
     5
  6
CONTINUOUS
 10
6.570872
 20
9.833224
 30
0.000000
 40
0.045000
 50
353.571141
 51
355.729243
  0
LINE
  8
Default
 62
     5
  6
CONTINUOUS
 10
6.615747
 20
9.829873
 30
0.000000
 11
6.651022
 21
10.302239
 31
0.000000
  0
LINE
  8
Default
 62
     5
  6
CONTINUOUS
 10
6.651022
 20
10.302239
 30
0.000000
 11
6.706947
 21
10.951198
 31
0.000000
  0
ARC
  8
Default
 62
     5
  6
CONTINUOUS
 10
12.044474
 20
10.169095
 30
0.000000
 40
5.394524
 50
165.611224
 51
171.663817
  0
ARC
  8
Default
 62
     5
  6
CONTINUOUS
 10
6.775578
 20
11.520817
 30
0.000000
 40
0.045000
 50
345.611224
 51
347.702462
  0
LINE
  8
Default
 62
     5
  6
CONTINUOUS
 10
6.819546
 20
11.511233
 30
0.000000
 11
6.951048
 21
12.114483
 31
0.000000
  0
ARC
  8
Default
 62
     5
  6
CONTINUOUS
 10
2.448196
 20
13.096061
 30
0.000000
 40
4.608598
 50
347.702462
 51
354.036922
  0
ARC
  8
Default
 62
     5
  6
CONTINUOUS
 10
4.218071
 20
13.210400
 30
0.000000
 40
2.875618
 50
348.096944
 51
377.248881
  0
ARC
  8
Default
 62
     5
  6
CONTINUOUS
 10
4.946772
 20
13.624625
 30
0.000000
 40
2.064682
 50
12.260851
 51
42.432438
  0
LINE
  8
Default
 62
     5
  6
CONTINUOUS
 10
6.470658
 20
15.017708
 30
0.000000
 11
6.309744
 21
15.215506
 31
0.000000
  0
ARC
  8
Default
 62
     5
  6
CONTINUOUS
 10
6.274836
 20
15.187108
 30
0.000000
 40
0.045000
 50
39.129263
 51
45.700225
  0
ARC
  8
Default
 62
     5
  6
CONTINUOUS
 10
7.066299
 20
15.998157
 30
0.000000
 40
1.088232
 50
213.912068
 51
225.700225
  0
ARC
  8
Default
 62
     5
  6
CONTINUOUS
 10
6.125836
 20
15.365904
 30
0.000000
 40
0.045000
 50
33.912068
 51
35.926747
  0
ARC
  8
Default
 62
     5
  6
CONTINUOUS
 10
4.437332
 20
14.142429
 30
0.000000
 40
2.130171
 50
35.926747
 51
51.153687
  0
ARC
  8
Default
 62
     5
  6
CONTINUOUS
 10
5.745221
 20
15.766426
 30
0.000000
 40
0.045000
 50
51.153687
 51
60.769858
  0
ARC
  8
Default
 62
     5
  6
CONTINUOUS
 10
4.718092
 20
13.930863
 30
0.000000
 40
2.148398
 50
60.769858
 51
97.270975
  0
ARC
  8
Default
 62
     5
  6
CONTINUOUS
 10
4.603600
 20
14.828222
 30
0.000000
 40
1.243764
 50
97.270975
 51
111.494637
  0
ARC
  8
Default
 62
     5
  6
CONTINUOUS
 10
4.164356
 20
15.943615
 30
0.000000
 40
0.045000
 50
111.494637
 51
118.585021
  0
ENDSEC
  0
EOF
