  0
SECTION
  2
HEADER
  9
$ACADVER
  1
AC1015
  9
$ACADMAINTVER
 70
    20
  9
$DWGCODEPAGE
  3
ANSI_1251
  9
$INSBASE
 10
0.0
 20
0.0
 30
0.0
  9
$EXTMIN
 10
1234.451018600681
 20
281.6764205935215
 30
0.0
  9
$EXTMAX
 10
2759.451018600681
 20
1806.676420593521
 30
0.0
  9
$LIMMIN
 10
5.599999999999999
 20
5.599999999999999
  9
$LIMMAX
 10
309.9
 20
691.8999999999999
  9
$ORTHOMODE
 70
     0
  9
$REGENMODE
 70
     1
  9
$FILLMODE
 70
     1
  9
$QTEXTMODE
 70
     0
  9
$MIRRTEXT
 70
     0
  9
$LTSCALE
 40
1.0
  9
$ATTMODE
 70
     1
  9
$TEXTSIZE
 40
0.2
  9
$TRACEWID
 40
0.05
  9
$TEXTSTYLE
  7
Standard
  9
$CLAYER
  8
0
  9
$CELTYPE
  6
CONTINUOUS
  9
$CECOLOR
 62
   256
  9
$CELTSCALE
 40
1.0
  9
$DISPSILH
 70
     0
  9
$DIMSCALE
 40
1.0
  9
$DIMASZ
 40
0.18
  9
$DIMEXO
 40
0.0625
  9
$DIMDLI
 40
0.38
  9
$DIMRND
 40
0.0
  9
$DIMDLE
 40
0.0
  9
$DIMEXE
 40
0.18
  9
$DIMTP
 40
0.0
  9
$DIMTM
 40
0.0
  9
$DIMTXT
 40
0.18
  9
$DIMCEN
 40
0.09
  9
$DIMTSZ
 40
0.0
  9
$DIMTOL
 70
     0
  9
$DIMLIM
 70
     0
  9
$DIMTIH
 70
     1
  9
$DIMTOH
 70
     1
  9
$DIMSE1
 70
     0
  9
$DIMSE2
 70
     0
  9
$DIMTAD
 70
     0
  9
$DIMZIN
 70
     0
  9
$DIMBLK
  1

  9
$DIMASO
 70
     1
  9
$DIMSHO
 70
     1
  9
$DIMPOST
  1

  9
$DIMAPOST
  1

  9
$DIMALT
 70
     0
  9
$DIMALTD
 70
     2
  9
$DIMALTF
 40
25.4
  9
$DIMLFAC
 40
1.0
  9
$DIMTOFL
 70
     0
  9
$DIMTVP
 40
0.0
  9
$DIMTIX
 70
     0
  9
$DIMSOXD
 70
     0
  9
$DIMSAH
 70
     0
  9
$DIMBLK1
  1

  9
$DIMBLK2
  1

  9
$DIMSTYLE
  2
Standard
  9
$DIMCLRD
 70
     0
  9
$DIMCLRE
 70
     0
  9
$DIMCLRT
 70
     0
  9
$DIMTFAC
 40
1.0
  9
$DIMGAP
 40
0.09
  9
$DIMJUST
 70
     0
  9
$DIMSD1
 70
     0
  9
$DIMSD2
 70
     0
  9
$DIMTOLJ
 70
     1
  9
$DIMTZIN
 70
     0
  9
$DIMALTZ
 70
     0
  9
$DIMALTTZ
 70
     0
  9
$DIMUPT
 70
     0
  9
$DIMDEC
 70
     4
  9
$DIMTDEC
 70
     4
  9
$DIMALTU
 70
     2
  9
$DIMALTTD
 70
     2
  9
$DIMTXSTY
  7
Standard
  9
$DIMAUNIT
 70
     0
  9
$DIMADEC
 70
     0
  9
$DIMALTRND
 40
0.0
  9
$DIMAZIN
 70
     0
  9
$DIMDSEP
 70
    46
  9
$DIMATFIT
 70
     3
  9
$DIMFRAC
 70
     0
  9
$DIMLDRBLK
  1

  9
$DIMLUNIT
 70
     2
  9
$DIMLWD
 70
    -2
  9
$DIMLWE
 70
    -2
  9
$DIMTMOVE
 70
     0
  9
$LUNITS
 70
     2
  9
$LUPREC
 70
     4
  9
$SKETCHINC
 40
0.1
  9
$FILLETRAD
 40
0.0
  9
$AUNITS
 70
     0
  9
$AUPREC
 70
     0
  9
$MENU
  1
.
  9
$ELEVATION
 40
0.0
  9
$PELEVATION
 40
0.0
  9
$THICKNESS
 40
0.0
  9
$LIMCHECK
 70
     0
  9
$CHAMFERA
 40
0.0
  9
$CHAMFERB
 40
0.0
  9
$CHAMFERC
 40
0.0
  9
$CHAMFERD
 40
0.0
  9
$SKPOLY
 70
     0
  9
$TDCREATE
 40
2454954.412879584
  9
$TDUCREATE
 40
2454954.246212917
  9
$TDUPDATE
 40
2454961.933267963
  9
$TDUUPDATE
 40
2454961.766601297
  9
$TDINDWG
 40
0.0383039468
  9
$TDUSRTIMER
 40
0.0383039468
  9
$USRTIMER
 70
     1
  9
$ANGBASE
 50
0.0
  9
$ANGDIR
 70
     0
  9
$PDMODE
 70
     0
  9
$PDSIZE
 40
0.0
  9
$PLINEWID
 40
0.0
  9
$SPLFRAME
 70
     0
  9
$SPLINETYPE
 70
     6
  9
$SPLINESEGS
 70
     8
  9
$HANDSEED
  5
600
  9
$SURFTAB1
 70
     6
  9
$SURFTAB2
 70
     6
  9
$SURFTYPE
 70
     6
  9
$SURFU
 70
     6
  9
$SURFV
 70
     6
  9
$UCSBASE
  2

  9
$UCSNAME
  2

  9
$UCSORG
 10
0.0
 20
0.0
 30
0.0
  9
$UCSXDIR
 10
1.0
 20
0.0
 30
0.0
  9
$UCSYDIR
 10
0.0
 20
1.0
 30
0.0
  9
$UCSORTHOREF
  2

  9
$UCSORTHOVIEW
 70
     0
  9
$UCSORGTOP
 10
0.0
 20
0.0
 30
0.0
  9
$UCSORGBOTTOM
 10
0.0
 20
0.0
 30
0.0
  9
$UCSORGLEFT
 10
0.0
 20
0.0
 30
0.0
  9
$UCSORGRIGHT
 10
0.0
 20
0.0
 30
0.0
  9
$UCSORGFRONT
 10
0.0
 20
0.0
 30
0.0
  9
$UCSORGBACK
 10
0.0
 20
0.0
 30
0.0
  9
$PUCSBASE
  2

  9
$PUCSNAME
  2

  9
$PUCSORG
 10
0.0
 20
0.0
 30
0.0
  9
$PUCSXDIR
 10
1.0
 20
0.0
 30
0.0
  9
$PUCSYDIR
 10
0.0
 20
1.0
 30
0.0
  9
$PUCSORTHOREF
  2

  9
$PUCSORTHOVIEW
 70
     0
  9
$PUCSORGTOP
 10
0.0
 20
0.0
 30
0.0
  9
$PUCSORGBOTTOM
 10
0.0
 20
0.0
 30
0.0
  9
$PUCSORGLEFT
 10
0.0
 20
0.0
 30
0.0
  9
$PUCSORGRIGHT
 10
0.0
 20
0.0
 30
0.0
  9
$PUCSORGFRONT
 10
0.0
 20
0.0
 30
0.0
  9
$PUCSORGBACK
 10
0.0
 20
0.0
 30
0.0
  9
$USERI1
 70
     0
  9
$USERI2
 70
     0
  9
$USERI3
 70
     0
  9
$USERI4
 70
     0
  9
$USERI5
 70
     0
  9
$USERR1
 40
0.0
  9
$USERR2
 40
0.0
  9
$USERR3
 40
0.0
  9
$USERR4
 40
0.0
  9
$USERR5
 40
0.0
  9
$WORLDVIEW
 70
     1
  9
$SHADEDGE
 70
     3
  9
$SHADEDIF
 70
    70
  9
$TILEMODE
 70
     1
  9
$MAXACTVP
 70
    64
  9
$PINSBASE
 10
0.0
 20
0.0
 30
0.0
  9
$PLIMCHECK
 70
     0
  9
$PEXTMIN
 10
1.000000000000000E+20
 20
1.000000000000000E+20
 30
1.000000000000000E+20
  9
$PEXTMAX
 10
-1.000000000000000E+20
 20
-1.000000000000000E+20
 30
-1.000000000000000E+20
  9
$PLIMMIN
 10
0.0
 20
0.0
  9
$PLIMMAX
 10
12.0
 20
9.0
  9
$UNITMODE
 70
     0
  9
$VISRETAIN
 70
     1
  9
$PLINEGEN
 70
     0
  9
$PSLTSCALE
 70
     1
  9
$TREEDEPTH
 70
  3020
  9
$CMLSTYLE
  2
Standard
  9
$CMLJUST
 70
     0
  9
$CMLSCALE
 40
1.0
  9
$PROXYGRAPHICS
 70
     1
  9
$MEASUREMENT
 70
     0
  9
$CELWEIGHT
370
    -1
  9
$ENDCAPS
280
     0
  9
$JOINSTYLE
280
     0
  9
$LWDISPLAY
290
     0
  9
$INSUNITS
 70
     0
  9
$HYPERLINKBASE
  1

  9
$STYLESHEET
  1

  9
$XEDIT
290
     1
  9
$CEPSNTYPE
380
     0
  9
$PSTYLEMODE
290
     1
  9
$FINGERPRINTGUID
  2
{30F23AFF-94F2-4B68-943A-6939EAB814CF}
  9
$VERSIONGUID
  2
{65DFBFAC-C418-4DCB-8929-CD45E8B5302A}
  9
$EXTNAMES
290
     1
  9
$PSVPSCALE
 40
0.0
  9
$OLESTARTUP
290
     0
  0
ENDSEC
  0
SECTION
  2
CLASSES
  0
CLASS
  1
ACDBDICTIONARYWDFLT
  2
AcDbDictionaryWithDefault
  3
ObjectDBX Classes
 90
        0
280
     0
281
     0
  0
CLASS
  1
TABLESTYLE
  2
AcDbTableStyle
  3
ObjectDBX Classes
 90
     2047
280
     0
281
     0
  0
CLASS
  1
DICTIONARYVAR
  2
AcDbDictionaryVar
  3
ObjectDBX Classes
 90
        0
280
     0
281
     0
  0
CLASS
  1
ACDBPLACEHOLDER
  2
AcDbPlaceHolder
  3
ObjectDBX Classes
 90
        0
280
     0
281
     0
  0
CLASS
  1
LAYOUT
  2
AcDbLayout
  3
ObjectDBX Classes
 90
        0
280
     0
281
     0
  0
ENDSEC
  0
SECTION
  2
TABLES
  0
TABLE
  2
VPORT
  5
8
330
0
100
AcDbSymbolTable
 70
     3
  0
VPORT
  5
5FA
330
8
100
AcDbSymbolTableRecord
100
AcDbViewportTableRecord
  2
*Active
 70
     0
 10
0.0
 20
0.0
 11
1.0
 21
1.0
 12
2320.032870689153
 22
1062.018365742027
 13
0.0
 23
0.0
 14
1.0
 24
1.0
 15
0.0
 25
0.0
 16
0.0
 26
0.0
 36
1.0
 17
0.0
 27
0.0
 37
0.0
 40
1933.383910633704
 41
2.271186440677966
 42
50.0
 43
0.0
 44
0.0
 50
0.0
 51
0.0
 71
     0
 72
   100
 73
     1
 74
     1
 75
     0
 76
     0
 77
     0
 78
     1
281
     0
 65
     1
110
0.0
120
0.0
130
0.0
111
1.0
121
0.0
131
0.0
112
0.0
122
1.0
132
0.0
 79
     0
146
0.0
  0
ENDTAB
  0
TABLE
  2
LTYPE
  5
5
330
0
100
AcDbSymbolTable
 70
     1
  0
LTYPE
  5
13
330
5
100
AcDbSymbolTableRecord
100
AcDbLinetypeTableRecord
  2
ByBlock
 70
     0
  3

 72
    65
 73
     0
 40
0.0
  0
LTYPE
  5
14
330
5
100
AcDbSymbolTableRecord
100
AcDbLinetypeTableRecord
  2
ByLayer
 70
     0
  3

 72
    65
 73
     0
 40
0.0
  0
LTYPE
  5
15
330
5
100
AcDbSymbolTableRecord
100
AcDbLinetypeTableRecord
  2
CONTINUOUS
 70
     0
  3
Ausgezogene Linie
 72
    65
 73
     0
 40
0.0
  0
ENDTAB
  0
TABLE
  2
LAYER
  5
2
330
0
100
AcDbSymbolTable
 70
     3
  0
LAYER
  5
10
330
2
100
AcDbSymbolTableRecord
100
AcDbLayerTableRecord
  2
0
 70
     0
 62
     7
  6
CONTINUOUS
370
    -3
390
F
  0
LAYER
  5
26
330
2
100
AcDbSymbolTableRecord
100
AcDbLayerTableRecord
  2
255
 70
     0
 62
     7
  6
CONTINUOUS
370
    -3
390
F
  0
LAYER
  5
532
330
2
100
AcDbSymbolTableRecord
100
AcDbLayerTableRecord
  2
Defpoints
 70
     0
 62
     7
  6
CONTINUOUS
290
     0
370
    -3
390
F
  0
ENDTAB
  0
TABLE
  2
STYLE
  5
3
330
0
100
AcDbSymbolTable
 70
     2
  0
STYLE
  5
11
330
3
100
AcDbSymbolTableRecord
100
AcDbTextStyleTableRecord
  2
Standard
 70
     0
 40
0.0
 41
1.0
 50
0.0
 71
     0
 42
0.2
  3
txt
  4

  0
STYLE
  5
27
330
3
100
AcDbSymbolTableRecord
100
AcDbTextStyleTableRecord
  2
Standard
 70
     0
 40
0.0
 41
1.0
 50
0.0
 71
     0
 42
0.2
  3
txt
  4

  0
ENDTAB
  0
TABLE
  2
VIEW
  5
6
330
0
100
AcDbSymbolTable
 70
     0
  0
ENDTAB
  0
TABLE
  2
UCS
  5
7
330
0
100
AcDbSymbolTable
 70
     0
  0
ENDTAB
  0
TABLE
  2
APPID
  5
9
330
0
100
AcDbSymbolTable
 70
     1
  0
APPID
  5
12
330
9
100
AcDbSymbolTableRecord
100
AcDbRegAppTableRecord
  2
ACAD
 70
     0
  0
ENDTAB
  0
TABLE
  2
DIMSTYLE
  5
A
330
0
100
AcDbSymbolTable
 70
     1
100
AcDbDimStyleTable
 71
     1
340
530
  0
DIMSTYLE
105
530
330
A
100
AcDbSymbolTableRecord
100
AcDbDimStyleTableRecord
  2
Standard
 70
     0
340
11
  0
ENDTAB
  0
TABLE
  2
BLOCK_RECORD
  5
1
330
0
100
AcDbSymbolTable
 70
    10
  0
BLOCK_RECORD
  5
22
330
1
100
AcDbSymbolTableRecord
100
AcDbBlockTableRecord
  2
*Model_Space
340
25
  0
BLOCK_RECORD
  5
1E
330
1
100
AcDbSymbolTableRecord
100
AcDbBlockTableRecord
  2
*Paper_Space
340
21
  0
ENDTAB
  0
ENDSEC
  0
SECTION
  2
BLOCKS
  0
BLOCK
  5
23
330
22
100
AcDbEntity
  8
0
100
AcDbBlockBegin
  2
*Model_Space
 70
     0
 10
0.0
 20
0.0
 30
0.0
  3
*Model_Space
  1

  0
ENDBLK
  5
24
330
22
100
AcDbEntity
  8
0
100
AcDbBlockEnd
  0
BLOCK
  5
1F
330
1E
100
AcDbEntity
 67
     1
  8
0
100
AcDbBlockBegin
  2
*Paper_Space
 70
     0
 10
0.0
 20
0.0
 30
0.0
  3
*Paper_Space
  1

  0
ENDBLK
  5
20
330
1E
100
AcDbEntity
 67
     1
  8
0
100
AcDbBlockEnd
  0
ENDSEC
  0
SECTION
  2
ENTITIES
  0
LINE
  5
2B
330
22
100
AcDbEntity
  8
255
  6
Continuous
 62
     7
100
AcDbLine
 10
1534.994547520436
 20
704.773590586349
 30
0.0
 11
1410.007047520436
 21
704.773590586349
 31
0.0
  0
ARC
  5
2C
330
22
100
AcDbEntity
  8
255
  6
Continuous
 62
     7
100
AcDbCircle
 10
1410.007047520436
 20
699.7740905863491
 30
0.0
 40
4.9995
100
AcDbArc
 50
90.0
 51
270.0
  0
LINE
  5
2D
330
22
100
AcDbEntity
  8
255
  6
Continuous
 62
     7
100
AcDbLine
 10
1410.007047520436
 20
694.7745905863489
 30
0.0
 11
1534.994547520436
 21
694.7745905863489
 31
0.0
  0
ARC
  5
2E
330
22
100
AcDbEntity
  8
255
  6
Continuous
 62
     7
100
AcDbCircle
 10
1561.599576751436
 20
694.940010709349
 30
0.0
 40
26.60554584600001
100
AcDbArc
 50
180.3562360000007
 51
219.2415160000004
  0
ARC
  5
2F
330
22
100
AcDbEntity
  8
255
  6
Continuous
 62
     7
100
AcDbCircle
 10
1458.950229379436
 20
611.251303750349
 30
0.0
 40
105.835732035
100
AcDbArc
 50
2.815032000000041
 51
39.17695199999636
  0
ARC
  5
30
330
22
100
AcDbEntity
  8
255
  6
Continuous
 62
     7
100
AcDbCircle
 10
1458.659805091436
 20
621.7583362753491
 30
0.0
 40
106.131322473
100
AcDbArc
 50
320.8754470000022
 51
357.1325670000009
  0
ARC
  5
31
330
22
100
AcDbEntity
  8
255
  6
Continuous
 62
     7
100
AcDbCircle
 10
1561.705016206436
 20
537.920934187349
 30
0.0
 40
26.71078865400001
100
AcDbArc
 50
140.8396940000014
 51
180.2802369999989
  0
LINE
  5
32
330
22
100
AcDbEntity
  8
255
  6
Continuous
 62
     7
100
AcDbLine
 10
1534.994547520436
 20
537.7902905863491
 30
0.0
 11
1410.007047520436
 21
538.1235905863491
 31
0.0
  0
ARC
  5
33
330
22
100
AcDbEntity
  8
255
  6
Continuous
 62
     7
100
AcDbCircle
 10
1410.006864205436
 20
533.118541141349
 30
0.0
 40
5.005049445
100
AcDbArc
 50
89.99788400000021
 51
266.1838120000016
  0
LINE
  5
34
330
22
100
AcDbEntity
  8
255
  6
Continuous
 62
     7
100
AcDbLine
 10
1409.673747520436
 20
528.1245905863491
 30
0.0
 11
1534.661247520436
 21
528.1245905863491
 31
0.0
  0
LINE
  5
35
330
22
100
AcDbEntity
  8
255
  6
Continuous
 62
     7
100
AcDbLine
 10
1534.661247520436
 20
528.1245905863491
 30
0.0
 11
1534.661247520436
 21
518.1255905863491
 31
0.0
  0
ARC
  5
36
330
22
100
AcDbEntity
  8
255
  6
Continuous
 62
     7
100
AcDbCircle
 10
1526.328747520436
 20
518.1255905863491
 30
0.0
 40
8.332499999999999
100
AcDbArc
 50
270.0
 51
0.0
  0
LINE
  5
37
330
22
100
AcDbEntity
  8
255
  6
Continuous
 62
     7
100
AcDbLine
 10
1526.328747520436
 20
509.793090586349
 30
0.0
 11
1276.353747520436
 21
510.1263905863491
 31
0.0
  0
ARC
  5
38
330
22
100
AcDbEntity
  8
255
  6
Continuous
 62
     7
100
AcDbCircle
 10
1276.353747520436
 20
518.458890586349
 30
0.0
 40
8.332499999999999
100
AcDbArc
 50
180.0
 51
270.0
  0
LINE
  5
39
330
22
100
AcDbEntity
  8
255
  6
Continuous
 62
     7
100
AcDbLine
 10
1268.021247520436
 20
518.458890586349
 30
0.0
 11
1268.354547520436
 21
616.782390586349
 31
0.0
  0
LINE
  5
3A
330
22
100
AcDbEntity
  8
255
  6
Continuous
 62
     7
100
AcDbLine
 10
1268.354547520436
 20
616.782390586349
 30
0.0
 11
1268.354547520436
 21
715.1058905863489
 31
0.0
  0
ARC
  5
3B
330
22
100
AcDbEntity
  8
255
  6
Continuous
 62
     7
100
AcDbCircle
 10
1276.687047520436
 20
715.1058905863489
 30
0.0
 40
8.332499999999999
100
AcDbArc
 50
90.0
 51
180.0
  0
LINE
  5
3C
330
22
100
AcDbEntity
  8
255
  6
Continuous
 62
     7
100
AcDbLine
 10
1276.687047520436
 20
723.438390586349
 30
0.0
 11
1526.662047520436
 21
723.1050905863489
 31
0.0
  0
ARC
  5
3D
330
22
100
AcDbEntity
  8
255
  6
Continuous
 62
     7
100
AcDbCircle
 10
1526.662047520436
 20
714.772590586349
 30
0.0
 40
8.332499999999999
100
AcDbArc
 50
0.0
 51
90.0
  0
LINE
  5
3E
330
22
100
AcDbEntity
  8
255
  6
Continuous
 62
     7
100
AcDbLine
 10
1534.994547520436
 20
714.772590586349
 30
0.0
 11
1534.994547520436
 21
704.773590586349
 31
0.0
  0
LINE
  5
3F
330
22
100
AcDbEntity
  8
255
  6
Continuous
 62
     7
100
AcDbLine
 10
1580.323347520436
 20
731.7708905863489
 30
0.0
 11
1615.319847520436
 21
731.7708905863489
 31
0.0
  0
ARC
  5
40
330
22
100
AcDbEntity
  8
255
  6
Continuous
 62
     7
100
AcDbCircle
 10
1615.319847520436
 20
736.7703905863491
 30
0.0
 40
4.9995
100
AcDbArc
 50
270.0
 51
90.0
  0
LINE
  5
41
330
22
100
AcDbEntity
  8
255
  6
Continuous
 62
     7
100
AcDbLine
 10
1615.319847520436
 20
741.7698905863489
 30
0.0
 11
1580.323347520436
 21
741.7698905863489
 31
0.0
  0
LINE
  5
42
330
22
100
AcDbEntity
  8
255
  6
Continuous
 62
     7
100
AcDbLine
 10
1580.323347520436
 20
741.7698905863489
 30
0.0
 11
1580.323347520436
 21
751.768890586349
 31
0.0
  0
ARC
  5
43
330
22
100
AcDbEntity
  8
255
  6
Continuous
 62
     7
100
AcDbCircle
 10
1586.989347520436
 20
751.768890586349
 30
0.0
 40
6.666
100
AcDbArc
 50
90.0
 51
180.0
  0
LINE
  5
44
330
22
100
AcDbEntity
  8
255
  6
Continuous
 62
     7
100
AcDbLine
 10
1586.989347520436
 20
758.4348905863489
 30
0.0
 11
1656.982347520436
 21
758.4348905863489
 31
0.0
  0
ARC
  5
45
330
22
100
AcDbEntity
  8
255
  6
Continuous
 62
     7
100
AcDbCircle
 10
1656.982347520436
 20
751.768890586349
 30
0.0
 40
6.666
100
AcDbArc
 50
0.0
 51
90.0
  0
LINE
  5
46
330
22
100
AcDbEntity
  8
255
  6
Continuous
 62
     7
100
AcDbLine
 10
1663.648347520436
 20
751.768890586349
 30
0.0
 11
1663.648347520436
 21
718.4388905863491
 31
0.0
  0
ARC
  5
47
330
22
100
AcDbEntity
  8
255
  6
Continuous
 62
     7
100
AcDbCircle
 10
1656.982347520436
 20
718.4388905863491
 30
0.0
 40
6.666
100
AcDbArc
 50
270.0
 51
0.0
  0
LINE
  5
48
330
22
100
AcDbEntity
  8
255
  6
Continuous
 62
     7
100
AcDbLine
 10
1656.982347520436
 20
711.772890586349
 30
0.0
 11
1640.317347520436
 21
711.772890586349
 31
0.0
  0
ARC
  5
49
330
22
100
AcDbEntity
  8
255
  6
Continuous
 62
     7
100
AcDbCircle
 10
1640.317347520436
 20
705.1068905863489
 30
0.0
 40
6.666
100
AcDbArc
 50
90.0
 51
270.0
  0
LINE
  5
4A
330
22
100
AcDbEntity
  8
255
  6
Continuous
 62
     7
100
AcDbLine
 10
1640.317347520436
 20
698.440890586349
 30
0.0
 11
1693.645347520436
 21
698.440890586349
 31
0.0
  0
ARC
  5
4B
330
22
100
AcDbEntity
  8
255
  6
Continuous
 62
     7
100
AcDbCircle
 10
1693.645347520436
 20
691.7748905863491
 30
0.0
 40
6.666
100
AcDbArc
 50
0.0
 51
90.0
  0
LINE
  5
4C
330
22
100
AcDbEntity
  8
255
  6
Continuous
 62
     7
100
AcDbLine
 10
1700.311347520436
 20
691.7748905863491
 30
0.0
 11
1700.311347520436
 21
678.4428905863491
 31
0.0
  0
LINE
  5
4D
330
22
100
AcDbEntity
  8
255
  6
Continuous
 62
     7
100
AcDbLine
 10
1700.311347520436
 20
678.4428905863491
 30
0.0
 11
1665.314847520436
 21
678.4428905863491
 31
0.0
  0
ARC
  5
4E
330
22
100
AcDbEntity
  8
255
  6
Continuous
 62
     7
100
AcDbCircle
 10
1665.314847520436
 20
673.443390586349
 30
0.0
 40
4.9995
100
AcDbArc
 50
90.0
 51
270.0
  0
LINE
  5
4F
330
22
100
AcDbEntity
  8
255
  6
Continuous
 62
     7
100
AcDbLine
 10
1665.314847520436
 20
668.443890586349
 30
0.0
 11
1700.311347520436
 21
668.443890586349
 31
0.0
  0
LINE
  5
50
330
22
100
AcDbEntity
  8
255
  6
Continuous
 62
     7
100
AcDbLine
 10
1700.311347520436
 20
668.443890586349
 30
0.0
 11
1700.311347520436
 21
658.444890586349
 31
0.0
  0
ARC
  5
51
330
22
100
AcDbEntity
  8
255
  6
Continuous
 62
     7
100
AcDbCircle
 10
1693.645347520436
 20
658.444890586349
 30
0.0
 40
6.666
100
AcDbArc
 50
270.0
 51
0.0
  0
LINE
  5
52
330
22
100
AcDbEntity
  8
255
  6
Continuous
 62
     7
100
AcDbLine
 10
1693.645347520436
 20
651.7788905863491
 30
0.0
 11
1623.652347520436
 21
651.7788905863491
 31
0.0
  0
ARC
  5
53
330
22
100
AcDbEntity
  8
255
  6
Continuous
 62
     7
100
AcDbCircle
 10
1623.652347520436
 20
658.444890586349
 30
0.0
 40
6.666
100
AcDbArc
 50
180.0
 51
270.0
  0
LINE
  5
54
330
22
100
AcDbEntity
  8
255
  6
Continuous
 62
     7
100
AcDbLine
 10
1616.986347520436
 20
658.444890586349
 30
0.0
 11
1616.986347520436
 21
701.7738905863491
 31
0.0
  0
ARC
  5
55
330
22
100
AcDbEntity
  8
255
  6
Continuous
 62
     7
100
AcDbCircle
 10
1610.320347520436
 20
701.7738905863491
 30
0.0
 40
6.666
100
AcDbArc
 50
0.0
 51
90.0
  0
LINE
  5
56
330
22
100
AcDbEntity
  8
255
  6
Continuous
 62
     7
100
AcDbLine
 10
1610.320347520436
 20
708.4398905863491
 30
0.0
 11
1586.989347520436
 21
708.4398905863491
 31
0.0
  0
ARC
  5
57
330
22
100
AcDbEntity
  8
255
  6
Continuous
 62
     7
100
AcDbCircle
 10
1586.989347520436
 20
715.1058905863489
 30
0.0
 40
6.666
100
AcDbArc
 50
180.0
 51
270.0
  0
LINE
  5
58
330
22
100
AcDbEntity
  8
255
  6
Continuous
 62
     7
100
AcDbLine
 10
1580.323347520436
 20
715.1058905863489
 30
0.0
 11
1580.323347520436
 21
731.7708905863489
 31
0.0
  0
LINE
  5
59
330
22
100
AcDbEntity
  8
255
  6
Continuous
 62
     7
100
AcDbLine
 10
1376.099325795031
 20
1016.560360244201
 30
0.0
 11
1376.099325795031
 21
1024.8928602442
 31
0.0
  0
ARC
  5
5A
330
22
100
AcDbEntity
  8
255
  6
Continuous
 62
     7
100
AcDbCircle
 10
1386.098325795031
 20
1016.560360244201
 30
0.0
 40
9.999
100
AcDbArc
 50
180.0
 51
270.0
  0
LINE
  5
5B
330
22
100
AcDbEntity
  8
255
  6
Continuous
 62
     7
100
AcDbLine
 10
1544.749125795031
 20
1006.561360244201
 30
0.0
 11
1386.098325795031
 21
1006.561360244201
 31
0.0
  0
ARC
  5
5C
330
22
100
AcDbEntity
  8
255
  6
Continuous
 62
     7
100
AcDbCircle
 10
1544.769487092031
 20
1016.5742088592
 30
0.0
 40
10.012868613
100
AcDbArc
 50
269.8834820000032
 51
338.4359070000017
  0
ARC
  5
5D
330
22
100
AcDbEntity
  8
255
  6
Continuous
 62
     7
100
AcDbCircle
 10
1569.377746020031
 20
1006.528060241201
 30
0.0
 40
16.568049696
100
AcDbArc
 50
108.6462919999976
 51
157.4038400000022
  0
ARC
  5
5E
330
22
100
AcDbEntity
  8
255
  6
Continuous
 62
     7
100
AcDbCircle
 10
1561.413542520031
 20
1029.725710244201
 30
0.0
 40
7.95937065
100
AcDbArc
 50
289.577090999996
 51
70.42290900000401
  0
ARC
  5
5F
330
22
100
AcDbEntity
  8
255
  6
Continuous
 62
     7
100
AcDbCircle
 10
1569.646489143031
 20
1052.987600489201
 30
0.0
 40
16.716481518
100
AcDbArc
 50
201.3907349999989
 51
250.5513089999952
  0
ARC
  5
60
330
22
100
AcDbEntity
  8
255
  6
Continuous
 62
     7
100
AcDbCircle
 10
1544.769487092031
 20
1043.210511629201
 30
0.0
 40
10.012868613
100
AcDbArc
 50
21.56409299999832
 51
90.11651799999681
  0
LINE
  5
61
330
22
100
AcDbEntity
  8
255
  6
Continuous
 62
     7
100
AcDbLine
 10
1453.758225795031
 20
1053.223360244201
 30
0.0
 11
1544.749125795031
 21
1053.223360244201
 31
0.0
  0
ARC
  5
62
330
22
100
AcDbEntity
  8
255
  6
Continuous
 62
     7
100
AcDbCircle
 10
1453.510877199031
 20
1066.525916522201
 30
0.0
 40
13.304856048
100
AcDbArc
 50
230.747778999998
 51
271.0652359999958
  0
LINE
  5
63
330
22
100
AcDbEntity
  8
255
  6
Continuous
 62
     7
100
AcDbLine
 10
1296.440625795031
 20
1181.2105602442
 30
0.0
 11
1445.092425795031
 21
1056.223060244201
 31
0.0
  0
ARC
  5
64
330
22
100
AcDbEntity
  8
255
  6
Continuous
 62
     7
100
AcDbCircle
 10
1290.953934519031
 20
1174.8526161022
 30
0.0
 40
8.398050110999998
100
AcDbArc
 50
49.20691400000107
 51
148.7383390000007
  0
LINE
  5
65
330
22
100
AcDbEntity
  8
255
  6
Continuous
 62
     7
100
AcDbLine
 10
1280.108925795031
 20
1172.544760244201
 30
0.0
 11
1283.775225795031
 21
1179.210760244201
 31
0.0
  0
LINE
  5
66
330
22
100
AcDbEntity
  8
255
  6
Continuous
 62
     7
100
AcDbLine
 10
1295.774025795031
 20
1152.5467602442
 30
0.0
 11
1280.108925795031
 21
1172.544760244201
 31
0.0
  0
ARC
  5
67
330
22
100
AcDbEntity
  8
255
  6
Continuous
 62
     7
100
AcDbCircle
 10
1291.693307241031
 20
1149.482876663201
 30
0.0
 40
5.102906325000001
100
AcDbArc
 50
219.8350210000023
 51
36.8999499999972
  0
LINE
  5
68
330
22
100
AcDbEntity
  8
255
  6
Continuous
 62
     7
100
AcDbLine
 10
1275.442725795031
 20
1162.2124602442
 30
0.0
 11
1287.774825795031
 21
1146.214060244201
 31
0.0
  0
ARC
  5
69
330
22
100
AcDbEntity
  8
255
  6
Continuous
 62
     7
100
AcDbCircle
 10
1385.799129051031
 20
1115.6890430512
 30
0.0
 40
119.762112591
100
AcDbArc
 50
157.1409649999988
 51
175.2772999999993
  0
ARC
  5
6A
330
22
100
AcDbEntity
  8
255
  6
Continuous
 62
     7
100
AcDbCircle
 10
1274.763827025031
 20
1124.896162247201
 30
0.0
 40
8.345812002
100
AcDbArc
 50
175.5103740000003
 51
270.0844299999965
  0
LINE
  5
6B
330
22
100
AcDbEntity
  8
255
  6
Continuous
 62
     7
100
AcDbLine
 10
1344.435825795031
 20
1116.550360244201
 30
0.0
 11
1274.776125795031
 21
1116.550360244201
 31
0.0
  0
ARC
  5
6C
330
22
100
AcDbEntity
  8
255
  6
Continuous
 62
     7
100
AcDbCircle
 10
1344.362653113031
 20
1108.244930870201
 30
0.0
 40
8.305749342000002
100
AcDbArc
 50
49.3926870000023
 51
89.4952229999936
  0
LINE
  5
6D
330
22
100
AcDbEntity
  8
255
  6
Continuous
 62
     7
100
AcDbLine
 10
1408.762725795031
 20
1064.888860244201
 30
0.0
 11
1349.768625795031
 21
1114.550560244201
 31
0.0
  0
ARC
  5
6E
330
22
100
AcDbEntity
  8
255
  6
Continuous
 62
     7
100
AcDbCircle
 10
1404.420483396031
 20
1059.8642627542
 30
0.0
 40
6.640909176
100
AcDbArc
 50
270.0806039999993
 51
49.16652600000364
  0
LINE
  5
6F
330
22
100
AcDbEntity
  8
255
  6
Continuous
 62
     7
100
AcDbLine
 10
1386.098325795031
 20
1053.223360244201
 30
0.0
 11
1404.429825795031
 21
1053.223360244201
 31
0.0
  0
ARC
  5
70
330
22
100
AcDbEntity
  8
255
  6
Continuous
 62
     7
100
AcDbCircle
 10
1386.098325795031
 20
1043.224360244201
 30
0.0
 40
9.999
100
AcDbArc
 50
90.0
 51
180.0
  0
LINE
  5
71
330
22
100
AcDbEntity
  8
255
  6
Continuous
 62
     7
100
AcDbLine
 10
1376.099325795031
 20
1034.891860244201
 30
0.0
 11
1376.099325795031
 21
1043.224360244201
 31
0.0
  0
LINE
  5
72
330
22
100
AcDbEntity
  8
255
  6
Continuous
 62
     7
100
AcDbLine
 10
1451.091825795031
 20
1034.891860244201
 30
0.0
 11
1376.099325795031
 21
1034.891860244201
 31
0.0
  0
ARC
  5
73
330
22
100
AcDbEntity
  8
255
  6
Continuous
 62
     7
100
AcDbCircle
 10
1451.091825795031
 20
1029.892360244201
 30
0.0
 40
4.9995
100
AcDbArc
 50
270.0
 51
90.0
  0
LINE
  5
74
330
22
100
AcDbEntity
  8
255
  6
Continuous
 62
     7
100
AcDbLine
 10
1376.099325795031
 20
1024.8928602442
 30
0.0
 11
1451.091825795031
 21
1024.8928602442
 31
0.0
  0
LINE
  5
75
330
22
100
AcDbEntity
  8
255
  6
Continuous
 62
     7
100
AcDbLine
 10
1373.099625795031
 20
1313.530660244201
 30
0.0
 11
1339.769625795031
 21
1313.530660244201
 31
0.0
  0
LINE
  5
76
330
22
100
AcDbEntity
  8
255
  6
Continuous
 62
     7
100
AcDbLine
 10
1339.769625795031
 20
1313.530660244201
 30
0.0
 11
1339.769625795031
 21
1291.866160244201
 31
0.0
  0
LINE
  5
77
330
22
100
AcDbEntity
  8
255
  6
Continuous
 62
     7
100
AcDbLine
 10
1339.769625795031
 20
1291.866160244201
 30
0.0
 11
1373.099625795031
 21
1291.866160244201
 31
0.0
  0
ARC
  5
78
330
22
100
AcDbEntity
  8
255
  6
Continuous
 62
     7
100
AcDbCircle
 10
1372.766429118031
 20
1285.2043231612
 30
0.0
 40
6.670162917000001
100
AcDbArc
 50
269.9991059999959
 51
87.13670099999871
  0
LINE
  5
79
330
22
100
AcDbEntity
  8
255
  6
Continuous
 62
     7
100
AcDbLine
 10
1372.766325795031
 20
1278.534160244201
 30
0.0
 11
1319.438325795031
 21
1278.8674602442
 31
0.0
  0
ARC
  5
7A
330
22
100
AcDbEntity
  8
255
  6
Continuous
 62
     7
100
AcDbCircle
 10
1319.438325795031
 20
1285.533460244201
 30
0.0
 40
6.666
100
AcDbArc
 50
180.0
 51
270.0
  0
LINE
  5
7B
330
22
100
AcDbEntity
  8
255
  6
Continuous
 62
     7
100
AcDbLine
 10
1312.772325795031
 20
1285.533460244201
 30
0.0
 11
1313.105625795031
 21
1307.1979602442
 31
0.0
  0
ARC
  5
7C
330
22
100
AcDbEntity
  8
255
  6
Continuous
 62
     7
100
AcDbCircle
 10
1306.439625795031
 20
1307.1979602442
 30
0.0
 40
6.666
100
AcDbArc
 50
0.0
 51
90.0
  0
LINE
  5
7D
330
22
100
AcDbEntity
  8
255
  6
Continuous
 62
     7
100
AcDbLine
 10
1306.439625795031
 20
1313.863960244201
 30
0.0
 11
1276.442625795031
 21
1313.863960244201
 31
0.0
  0
ARC
  5
7E
330
22
100
AcDbEntity
  8
255
  6
Continuous
 62
     7
100
AcDbCircle
 10
1276.438662858031
 20
1320.534123161201
 30
0.0
 40
6.670162917000001
100
AcDbArc
 50
177.1716059999998
 51
270.0340319999963
  0
LINE
  5
7F
330
22
100
AcDbEntity
  8
255
  6
Continuous
 62
     7
100
AcDbLine
 10
1269.776625795031
 20
1320.863260244201
 30
0.0
 11
1269.776625795031
 21
1332.528760244201
 31
0.0
  0
LINE
  5
80
330
22
100
AcDbEntity
  8
255
  6
Continuous
 62
     7
100
AcDbLine
 10
1269.776625795031
 20
1332.528760244201
 30
0.0
 11
1281.442125795031
 21
1332.195460244201
 31
0.0
  0
ARC
  5
81
330
22
100
AcDbEntity
  8
255
  6
Continuous
 62
     7
100
AcDbCircle
 10
1281.442125795031
 20
1337.194960244201
 30
0.0
 40
4.9995
100
AcDbArc
 50
270.0
 51
90.0
  0
LINE
  5
82
330
22
100
AcDbEntity
  8
255
  6
Continuous
 62
     7
100
AcDbLine
 10
1281.442125795031
 20
1342.194460244201
 30
0.0
 11
1269.776625795031
 21
1342.527760244201
 31
0.0
  0
LINE
  5
83
330
22
100
AcDbEntity
  8
255
  6
Continuous
 62
     7
100
AcDbLine
 10
1269.776625795031
 20
1342.527760244201
 30
0.0
 11
1270.776525795031
 21
1499.178760244201
 31
0.0
  0
LINE
  5
84
330
22
100
AcDbEntity
  8
255
  6
Continuous
 62
     7
100
AcDbLine
 10
1270.776525795031
 20
1499.178760244201
 30
0.0
 11
1282.442025795031
 21
1498.8454602442
 31
0.0
  0
ARC
  5
85
330
22
100
AcDbEntity
  8
255
  6
Continuous
 62
     7
100
AcDbCircle
 10
1282.442025795031
 20
1503.844960244201
 30
0.0
 40
4.9995
100
AcDbArc
 50
270.0
 51
90.0
  0
LINE
  5
86
330
22
100
AcDbEntity
  8
255
  6
Continuous
 62
     7
100
AcDbLine
 10
1282.442025795031
 20
1508.844460244201
 30
0.0
 11
1270.776525795031
 21
1509.177760244201
 31
0.0
  0
LINE
  5
87
330
22
100
AcDbEntity
  8
255
  6
Continuous
 62
     7
100
AcDbLine
 10
1270.776525795031
 20
1509.177760244201
 30
0.0
 11
1270.776525795031
 21
1520.843260244201
 31
0.0
  0
ARC
  5
88
330
22
100
AcDbEntity
  8
255
  6
Continuous
 62
     7
100
AcDbCircle
 10
1277.442525795031
 20
1520.509960244201
 30
0.0
 40
6.674325834000001
100
AcDbArc
 50
87.13759500000216
 51
177.1375949999986
  0
LINE
  5
89
330
22
100
AcDbEntity
  8
255
  6
Continuous
 62
     7
100
AcDbLine
 10
1277.775825795031
 20
1527.175960244201
 30
0.0
 11
1307.772825795031
 21
1527.175960244201
 31
0.0
  0
ARC
  5
8A
330
22
100
AcDbEntity
  8
255
  6
Continuous
 62
     7
100
AcDbCircle
 10
1307.772825795031
 20
1533.841960244201
 30
0.0
 40
6.666
100
AcDbArc
 50
270.0
 51
0.0
  0
LINE
  5
8B
330
22
100
AcDbEntity
  8
255
  6
Continuous
 62
     7
100
AcDbLine
 10
1314.438825795031
 20
1533.841960244201
 30
0.0
 11
1314.438825795031
 21
1555.506460244201
 31
0.0
  0
ARC
  5
8C
330
22
100
AcDbEntity
  8
255
  6
Continuous
 62
     7
100
AcDbCircle
 10
1321.104825795031
 20
1555.506460244201
 30
0.0
 40
6.666
100
AcDbArc
 50
90.0
 51
180.0
  0
LINE
  5
8D
330
22
100
AcDbEntity
  8
255
  6
Continuous
 62
     7
100
AcDbLine
 10
1321.104825795031
 20
1562.172460244201
 30
0.0
 11
1374.432825795031
 21
1561.839160244201
 31
0.0
  0
ARC
  5
8E
330
22
100
AcDbEntity
  8
255
  6
Continuous
 62
     7
100
AcDbCircle
 10
1374.432825795031
 20
1555.173160244201
 30
0.0
 40
6.666
100
AcDbArc
 50
270.0
 51
90.0
  0
LINE
  5
8F
330
22
100
AcDbEntity
  8
255
  6
Continuous
 62
     7
100
AcDbLine
 10
1374.432825795031
 20
1548.507160244201
 30
0.0
 11
1341.102825795031
 21
1548.507160244201
 31
0.0
  0
LINE
  5
90
330
22
100
AcDbEntity
  8
255
  6
Continuous
 62
     7
100
AcDbLine
 10
1341.102825795031
 20
1548.507160244201
 30
0.0
 11
1341.102825795031
 21
1526.842660244201
 31
0.0
  0
LINE
  5
91
330
22
100
AcDbEntity
  8
255
  6
Continuous
 62
     7
100
AcDbLine
 10
1341.102825795031
 20
1526.842660244201
 30
0.0
 11
1374.432825795031
 21
1526.842660244201
 31
0.0
  0
ARC
  5
92
330
22
100
AcDbEntity
  8
255
  6
Continuous
 62
     7
100
AcDbCircle
 10
1374.095362878031
 20
1520.181039806201
 30
0.0
 40
6.670162917000001
100
AcDbArc
 50
0.0
 51
87.10000800000218
  0
LINE
  5
93
330
22
100
AcDbEntity
  8
255
  6
Continuous
 62
     7
100
AcDbLine
 10
1380.765525795031
 20
1520.176660244201
 30
0.0
 11
1380.765525795031
 21
1515.177160244201
 31
0.0
  0
ARC
  5
94
330
22
100
AcDbEntity
  8
255
  6
Continuous
 62
     7
100
AcDbCircle
 10
1374.099525795031
 20
1515.177160244201
 30
0.0
 40
6.666
100
AcDbArc
 50
270.0
 51
0.0
  0
LINE
  5
95
330
22
100
AcDbEntity
  8
255
  6
Continuous
 62
     7
100
AcDbLine
 10
1374.099525795031
 20
1508.511160244201
 30
0.0
 11
1330.770525795031
 21
1508.844460244201
 31
0.0
  0
LINE
  5
96
330
22
100
AcDbEntity
  8
255
  6
Continuous
 62
     7
100
AcDbLine
 10
1330.770525795031
 20
1508.844460244201
 30
0.0
 11
1329.770625795031
 21
1332.195460244201
 31
0.0
  0
LINE
  5
97
330
22
100
AcDbEntity
  8
255
  6
Continuous
 62
     7
100
AcDbLine
 10
1329.770625795031
 20
1332.195460244201
 30
0.0
 11
1373.099625795031
 21
1331.862160244201
 31
0.0
  0
ARC
  5
98
330
22
100
AcDbEntity
  8
255
  6
Continuous
 62
     7
100
AcDbCircle
 10
1373.099625795031
 20
1325.196160244201
 30
0.0
 40
6.666
100
AcDbArc
 50
0.0
 51
90.0
  0
LINE
  5
99
330
22
100
AcDbEntity
  8
255
  6
Continuous
 62
     7
100
AcDbLine
 10
1379.765625795031
 20
1325.196160244201
 30
0.0
 11
1379.765625795031
 21
1320.196660244201
 31
0.0
  0
ARC
  5
9A
330
22
100
AcDbEntity
  8
255
  6
Continuous
 62
     7
100
AcDbCircle
 10
1373.099625795031
 20
1320.196660244201
 30
0.0
 40
6.666
100
AcDbArc
 50
270.0
 51
0.0
  0
ARC
  5
9B
330
22
100
AcDbEntity
  8
255
  6
Continuous
 62
     7
100
AcDbCircle
 10
1403.763225795031
 20
1166.2120602442
 30
0.0
 40
9.999
100
AcDbArc
 50
180.0
 51
0.0
  0
LINE
  5
9C
330
22
100
AcDbEntity
  8
255
  6
Continuous
 62
     7
100
AcDbLine
 10
1413.762225795031
 20
1166.2120602442
 30
0.0
 11
1413.762225795031
 21
1219.873360244201
 31
0.0
  0
ARC
  5
9D
330
22
100
AcDbEntity
  8
255
  6
Continuous
 62
     7
100
AcDbCircle
 10
1447.002658086031
 20
1219.767264188201
 30
0.0
 40
33.240602274
100
AcDbArc
 50
99.65776300000236
 51
179.8171240000015
  0
ARC
  5
9E
330
22
100
AcDbEntity
  8
255
  6
Continuous
 62
     7
100
AcDbCircle
 10
1440.389079510031
 20
1259.1593412532
 30
0.0
 40
6.703286271000001
100
AcDbArc
 50
278.8998169999965
 51
0.3711100000018073
  0
LINE
  5
9F
330
22
100
AcDbEntity
  8
255
  6
Continuous
 62
     7
100
AcDbLine
 10
1447.092225795031
 20
1259.202760244201
 30
0.0
 11
1447.092225795031
 21
1273.201360244201
 31
0.0
  0
ARC
  5
A0
330
22
100
AcDbEntity
  8
255
  6
Continuous
 62
     7
100
AcDbCircle
 10
1440.651736575031
 20
1273.215425504201
 30
0.0
 40
6.440502552
100
AcDbArc
 50
359.8748849999988
 51
165.1333989999998
  0
ARC
  5
A1
330
22
100
AcDbEntity
  8
255
  6
Continuous
 62
     7
100
AcDbCircle
 10
1428.028389036031
 20
1276.464463901201
 30
0.0
 40
6.594630471
100
AcDbArc
 50
288.2530969999988
 51
345.9890950000004
  0
ARC
  5
A2
330
22
100
AcDbEntity
  8
255
  6
Continuous
 62
     7
100
AcDbCircle
 10
1446.988716147031
 20
1219.729557959201
 30
0.0
 40
53.22468366599999
100
AcDbArc
 50
108.5072090000032
 51
179.8451979999988
  0
LINE
  5
A3
330
22
100
AcDbEntity
  8
255
  6
Continuous
 62
     7
100
AcDbLine
 10
1393.764225795031
 20
1219.873360244201
 30
0.0
 11
1393.764225795031
 21
1166.2120602442
 31
0.0
  0
LINE
  5
A4
330
22
100
AcDbEntity
  8
255
  6
Continuous
 62
     7
100
AcDbLine
 10
1585.411725795031
 20
1323.196360244201
 30
0.0
 11
1585.411725795031
 21
1241.537860244201
 31
0.0
  0
ARC
  5
A5
330
22
100
AcDbEntity
  8
255
  6
Continuous
 62
     7
100
AcDbCircle
 10
1590.411225795031
 20
1241.537860244201
 30
0.0
 40
4.9995
100
AcDbArc
 50
180.0
 51
0.0
  0
LINE
  5
A6
330
22
100
AcDbEntity
  8
255
  6
Continuous
 62
     7
100
AcDbLine
 10
1595.410725795031
 20
1241.537860244201
 30
0.0
 11
1595.410725795031
 21
1323.196360244201
 31
0.0
  0
LINE
  5
A7
330
22
100
AcDbEntity
  8
255
  6
Continuous
 62
     7
100
AcDbLine
 10
1595.410725795031
 20
1323.196360244201
 30
0.0
 11
1630.407225795031
 21
1323.196360244201
 31
0.0
  0
LINE
  5
A8
330
22
100
AcDbEntity
  8
255
  6
Continuous
 62
     7
100
AcDbLine
 10
1630.407225795031
 20
1323.196360244201
 30
0.0
 11
1647.072225795031
 21
1310.530960244201
 31
0.0
  0
ARC
  5
A9
330
22
100
AcDbEntity
  8
255
  6
Continuous
 62
     7
100
AcDbCircle
 10
1641.076865391031
 20
1302.4291071772
 30
0.0
 40
10.078908675
100
AcDbArc
 50
311.3746850000012
 51
53.49861100000289
  0
LINE
  5
AA
330
22
100
AcDbEntity
  8
255
  6
Continuous
 62
     7
100
AcDbLine
 10
1647.738825795031
 20
1294.865860244201
 30
0.0
 11
1632.073725795031
 21
1281.200560244201
 31
0.0
  0
ARC
  5
AB
330
22
100
AcDbEntity
  8
255
  6
Continuous
 62
     7
100
AcDbCircle
 10
1635.384151386031
 20
1277.483921945201
 30
0.0
 40
4.977178899
100
AcDbArc
 50
131.6915870000004
 51
179.4205029999995
  0
LINE
  5
AC
330
22
100
AcDbEntity
  8
255
  6
Continuous
 62
     7
100
AcDbLine
 10
1630.407225795031
 20
1277.534260244201
 30
0.0
 11
1630.407225795031
 21
1164.878860244201
 31
0.0
  0
ARC
  5
AD
330
22
100
AcDbEntity
  8
255
  6
Continuous
 62
     7
100
AcDbCircle
 10
1638.739725795031
 20
1164.878860244201
 30
0.0
 40
8.332499999999999
100
AcDbArc
 50
180.0
 51
270.0
  0
LINE
  5
AE
330
22
100
AcDbEntity
  8
255
  6
Continuous
 62
     7
100
AcDbLine
 10
1638.739725795031
 20
1156.546360244201
 30
0.0
 11
1642.072725795031
 21
1156.546360244201
 31
0.0
  0
ARC
  5
AF
330
22
100
AcDbEntity
  8
255
  6
Continuous
 62
     7
100
AcDbCircle
 10
1642.072725795031
 20
1148.213860244201
 30
0.0
 40
8.332499999999999
100
AcDbArc
 50
0.0
 51
90.0
  0
LINE
  5
B0
330
22
100
AcDbEntity
  8
255
  6
Continuous
 62
     7
100
AcDbLine
 10
1650.405225795031
 20
1148.213860244201
 30
0.0
 11
1650.405225795031
 21
1114.550560244201
 31
0.0
  0
ARC
  5
B1
330
22
100
AcDbEntity
  8
255
  6
Continuous
 62
     7
100
AcDbCircle
 10
1642.072725795031
 20
1114.550560244201
 30
0.0
 40
8.332499999999999
100
AcDbArc
 50
270.0
 51
0.0
  0
LINE
  5
B2
330
22
100
AcDbEntity
  8
255
  6
Continuous
 62
     7
100
AcDbLine
 10
1642.072725795031
 20
1106.218060244201
 30
0.0
 11
1467.090225795031
 21
1106.218060244201
 31
0.0
  0
ARC
  5
B3
330
22
100
AcDbEntity
  8
255
  6
Continuous
 62
     7
100
AcDbCircle
 10
1467.090225795031
 20
1112.884060244201
 30
0.0
 40
6.666
100
AcDbArc
 50
180.0
 51
270.0
  0
LINE
  5
B4
330
22
100
AcDbEntity
  8
255
  6
Continuous
 62
     7
100
AcDbLine
 10
1460.424225795031
 20
1112.884060244201
 30
0.0
 11
1460.424225795031
 21
1126.216060244201
 31
0.0
  0
LINE
  5
B5
330
22
100
AcDbEntity
  8
255
  6
Continuous
 62
     7
100
AcDbLine
 10
1460.424225795031
 20
1126.216060244201
 30
0.0
 11
1545.415725795031
 21
1126.216060244201
 31
0.0
  0
ARC
  5
B6
330
22
100
AcDbEntity
  8
255
  6
Continuous
 62
     7
100
AcDbCircle
 10
1545.415725795031
 20
1131.215560244201
 30
0.0
 40
4.9995
100
AcDbArc
 50
270.0
 51
90.0
  0
LINE
  5
B7
330
22
100
AcDbEntity
  8
255
  6
Continuous
 62
     7
100
AcDbLine
 10
1545.415725795031
 20
1136.215060244201
 30
0.0
 11
1460.424225795031
 21
1136.215060244201
 31
0.0
  0
LINE
  5
B8
330
22
100
AcDbEntity
  8
255
  6
Continuous
 62
     7
100
AcDbLine
 10
1460.424225795031
 20
1136.215060244201
 30
0.0
 11
1460.424225795031
 21
1194.875860244201
 31
0.0
  0
ARC
  5
B9
330
22
100
AcDbEntity
  8
255
  6
Continuous
 62
     7
100
AcDbCircle
 10
1455.424725795031
 20
1194.875860244201
 30
0.0
 40
4.9995
100
AcDbArc
 50
0.0
 51
180.0
  0
LINE
  5
BA
330
22
100
AcDbEntity
  8
255
  6
Continuous
 62
     7
100
AcDbLine
 10
1450.425225795031
 20
1194.875860244201
 30
0.0
 11
1450.425225795031
 21
1136.215060244201
 31
0.0
  0
LINE
  5
BB
330
22
100
AcDbEntity
  8
255
  6
Continuous
 62
     7
100
AcDbLine
 10
1450.425225795031
 20
1136.215060244201
 30
0.0
 11
1383.765225795031
 21
1136.215060244201
 31
0.0
  0
ARC
  5
BC
330
22
100
AcDbEntity
  8
255
  6
Continuous
 62
     7
100
AcDbCircle
 10
1383.762539397031
 20
1146.216836633201
 30
0.0
 40
10.001776389
100
AcDbArc
 50
178.1062299999996
 51
270.0153870000034
  0
LINE
  5
BD
330
22
100
AcDbEntity
  8
255
  6
Continuous
 62
     7
100
AcDbLine
 10
1373.766225795031
 20
1146.5473602442
 30
0.0
 11
1373.766225795031
 21
1219.873360244201
 31
0.0
  0
ARC
  5
BE
330
22
100
AcDbEntity
  8
255
  6
Continuous
 62
     7
100
AcDbCircle
 10
1447.097148636031
 20
1219.8813094492
 30
0.0
 40
73.33092284100001
100
AcDbArc
 50
116.4548060000015
 51
180.0062099999988
  0
ARC
  5
BF
330
22
100
AcDbEntity
  8
255
  6
Continuous
 62
     7
100
AcDbCircle
 10
1412.377100988031
 20
1289.789877893201
 30
0.0
 40
4.725107441999999
100
AcDbArc
 50
295.7355089999962
 51
356.8843569999996
  0
ARC
  5
C0
330
22
100
AcDbEntity
  8
255
  6
Continuous
 62
     7
100
AcDbCircle
 10
1421.888646405031
 20
1288.906349588201
 30
0.0
 40
4.83421653
100
AcDbArc
 50
42.93817000000374
 51
172.5511740000007
  0
ARC
  5
C1
330
22
100
AcDbEntity
  8
255
  6
Continuous
 62
     7
100
AcDbCircle
 10
1428.658502685031
 20
1295.888664620201
 30
0.0
 40
4.903889562
100
AcDbArc
 50
228.7901429999977
 51
287.0203429999977
  0
ARC
  5
C2
330
22
100
AcDbEntity
  8
255
  6
Continuous
 62
     7
100
AcDbCircle
 10
1446.115033524031
 20
1219.876509929201
 30
0.0
 40
73.10029590600001
100
AcDbArc
 50
93.15426600000213
 51
102.660060000001
  0
ARC
  5
C3
330
22
100
AcDbEntity
  8
255
  6
Continuous
 62
     7
100
AcDbCircle
 10
1441.753879683031
 20
1297.859627504201
 30
0.0
 40
5.005049445
100
AcDbArc
 50
273.8819340000024
 51
0.0679340000002866
  0
LINE
  5
C4
330
22
100
AcDbEntity
  8
255
  6
Continuous
 62
     7
100
AcDbLine
 10
1446.758925795031
 20
1297.865560244201
 30
0.0
 11
1446.758925795031
 21
1297.1989602442
 31
0.0
  0
ARC
  5
C5
330
22
100
AcDbEntity
  8
255
  6
Continuous
 62
     7
100
AcDbCircle
 10
1455.258075795031
 20
1297.1989602442
 30
0.0
 40
8.49915
100
AcDbArc
 50
0.0
 51
180.0
  0
LINE
  5
C6
330
22
100
AcDbEntity
  8
255
  6
Continuous
 62
     7
100
AcDbLine
 10
1463.757225795031
 20
1297.1989602442
 30
0.0
 11
1463.757225795031
 21
1264.5355602442
 31
0.0
  0
ARC
  5
C7
330
22
100
AcDbEntity
  8
255
  6
Continuous
 62
     7
100
AcDbCircle
 10
1477.062958422031
 20
1264.238953241201
 30
0.0
 40
13.309038963
100
AcDbArc
 50
178.7229859999994
 51
252.6298299999997
  0
ARC
  5
C8
330
22
100
AcDbEntity
  8
255
  6
Continuous
 62
     7
100
AcDbCircle
 10
1463.758069044031
 20
1219.538947022201
 30
0.0
 40
33.33083325
100
AcDbArc
 50
0.5748680000002736
 51
73.74172500000504
  0
LINE
  5
C9
330
22
100
AcDbEntity
  8
255
  6
Continuous
 62
     7
100
AcDbLine
 10
1497.087225795031
 20
1219.873360244201
 30
0.0
 11
1497.087225795031
 21
1163.212360244201
 31
0.0
  0
ARC
  5
CA
330
22
100
AcDbEntity
  8
255
  6
Continuous
 62
     7
100
AcDbCircle
 10
1503.753225795031
 20
1163.212360244201
 30
0.0
 40
6.666
100
AcDbArc
 50
180.0
 51
270.0
  0
LINE
  5
CB
330
22
100
AcDbEntity
  8
255
  6
Continuous
 62
     7
100
AcDbLine
 10
1503.753225795031
 20
1156.546360244201
 30
0.0
 11
1543.749225795031
 21
1156.546360244201
 31
0.0
  0
ARC
  5
CC
330
22
100
AcDbEntity
  8
255
  6
Continuous
 62
     7
100
AcDbCircle
 10
1543.749225795031
 20
1163.212360244201
 30
0.0
 40
6.666
100
AcDbArc
 50
270.0
 51
0.0
  0
LINE
  5
CD
330
22
100
AcDbEntity
  8
255
  6
Continuous
 62
     7
100
AcDbLine
 10
1550.415225795031
 20
1163.212360244201
 30
0.0
 11
1550.415225795031
 21
1277.534260244201
 31
0.0
  0
ARC
  5
CE
330
22
100
AcDbEntity
  8
255
  6
Continuous
 62
     7
100
AcDbCircle
 10
1545.438300204031
 20
1277.483921945201
 30
0.0
 40
4.977178899
100
AcDbArc
 50
0.5794970000004496
 51
48.30841299999955
  0
LINE
  5
CF
330
22
100
AcDbEntity
  8
255
  6
Continuous
 62
     7
100
AcDbLine
 10
1548.748725795031
 20
1281.200560244201
 30
0.0
 11
1533.083625795031
 21
1294.865860244201
 31
0.0
  0
ARC
  5
D0
330
22
100
AcDbEntity
  8
255
  6
Continuous
 62
     7
100
AcDbCircle
 10
1539.417119049031
 20
1302.5672000332
 30
0.0
 40
9.971146119
100
AcDbArc
 50
126.9957319999948
 51
230.5665180000016
  0
LINE
  5
D1
330
22
100
AcDbEntity
  8
255
  6
Continuous
 62
     7
100
AcDbLine
 10
1533.416925795031
 20
1310.530960244201
 30
0.0
 11
1550.415225795031
 21
1323.196360244201
 31
0.0
  0
LINE
  5
D2
330
22
100
AcDbEntity
  8
255
  6
Continuous
 62
     7
100
AcDbLine
 10
1550.415225795031
 20
1323.196360244201
 30
0.0
 11
1585.411725795031
 21
1323.196360244201
 31
0.0
  0
LINE
  5
D3
330
22
100
AcDbEntity
  8
255
  6
Continuous
 62
     7
100
AcDbLine
 10
1435.739469952912
 20
1736.324932779953
 30
0.0
 11
1435.739469952912
 21
1686.329932779953
 31
0.0
  0
ARC
  5
D4
330
22
100
AcDbEntity
  8
255
  6
Continuous
 62
     7
100
AcDbCircle
 10
1440.738969952912
 20
1686.329932779953
 30
0.0
 40
4.9995
100
AcDbArc
 50
180.0
 51
0.0
  0
LINE
  5
D5
330
22
100
AcDbEntity
  8
255
  6
Continuous
 62
     7
100
AcDbLine
 10
1445.738469952912
 20
1686.329932779953
 30
0.0
 11
1445.738469952912
 21
1736.324932779953
 31
0.0
  0
ARC
  5
D6
330
22
100
AcDbEntity
  8
255
  6
Continuous
 62
     7
100
AcDbCircle
 10
1440.738969952912
 20
1689.662932779953
 30
0.0
 40
46.929066624
100
AcDbArc
 50
96.11550300000306
 51
83.88449600000422
  0
ARC
  5
D7
330
22
100
AcDbEntity
  8
255
  6
Continuous
 62
     7
100
AcDbCircle
 10
1311.751869952912
 20
1755.323032779953
 30
0.0
 40
4.9995
100
AcDbArc
 50
0.0
 51
90.0
  0
LINE
  5
D8
330
22
100
AcDbEntity
  8
255
  6
Continuous
 62
     7
100
AcDbLine
 10
1311.751869952912
 20
1760.322532779953
 30
0.0
 11
1298.419869952912
 21
1760.322532779953
 31
0.0
  0
ARC
  5
D9
330
22
100
AcDbEntity
  8
255
  6
Continuous
 62
     7
100
AcDbCircle
 10
1298.419869952912
 20
1755.323032779953
 30
0.0
 40
4.9995
100
AcDbArc
 50
90.0
 51
180.0
  0
LINE
  5
DA
330
22
100
AcDbEntity
  8
255
  6
Continuous
 62
     7
100
AcDbLine
 10
1293.420369952912
 20
1755.323032779953
 30
0.0
 11
1293.420369952912
 21
1678.664032779953
 31
0.0
  0
ARC
  5
DB
330
22
100
AcDbEntity
  8
255
  6
Continuous
 62
     7
100
AcDbCircle
 10
1298.419869952912
 20
1678.664032779953
 30
0.0
 40
4.9995
100
AcDbArc
 50
180.0
 51
270.0
  0
LINE
  5
DC
330
22
100
AcDbEntity
  8
255
  6
Continuous
 62
     7
100
AcDbLine
 10
1298.419869952912
 20
1673.664532779953
 30
0.0
 11
1311.751869952912
 21
1673.664532779953
 31
0.0
  0
ARC
  5
DD
330
22
100
AcDbEntity
  8
255
  6
Continuous
 62
     7
100
AcDbCircle
 10
1311.751869952912
 20
1678.664032779953
 30
0.0
 40
4.9995
100
AcDbArc
 50
270.0
 51
0.0
  0
LINE
  5
DE
330
22
100
AcDbEntity
  8
255
  6
Continuous
 62
     7
100
AcDbLine
 10
1316.751369952912
 20
1678.664032779953
 30
0.0
 11
1316.751369952912
 21
1755.323032779953
 31
0.0
  0
ARC
  5
DF
330
22
100
AcDbEntity
  8
255
  6
Continuous
 62
     7
100
AcDbCircle
 10
1591.729432729912
 20
1666.340775228953
 30
0.0
 40
9.993440556000001
100
AcDbArc
 50
295.6592290000015
 51
0.0
  0
LINE
  5
E0
330
22
100
AcDbEntity
  8
255
  6
Continuous
 62
     7
100
AcDbLine
 10
1601.722869952912
 20
1666.331932779953
 30
0.0
 11
1601.722869952912
 21
1691.329432779953
 31
0.0
  0
ARC
  5
E1
330
22
100
AcDbEntity
  8
255
  6
Continuous
 62
     7
100
AcDbCircle
 10
1591.710008005912
 20
1691.340001722953
 30
0.0
 40
10.012868613
100
AcDbArc
 50
359.9395280000011
 51
105.361773000003
  0
ARC
  5
E2
330
22
100
AcDbEntity
  8
255
  6
Continuous
 62
     7
100
AcDbCircle
 10
1610.273348152912
 20
1627.194526911953
 30
0.0
 40
76.78960360500001
100
AcDbArc
 50
106.0386559999969
 51
175.4132770000014
  0
ARC
  5
E3
330
22
100
AcDbEntity
  8
255
  6
Continuous
 62
     7
100
AcDbCircle
 10
1543.720864066912
 20
1632.676695306953
 30
0.0
 40
10.012875279
100
AcDbArc
 50
176.2289879999983
 51
271.9522510000043
  0
LINE
  5
E4
330
22
100
AcDbEntity
  8
255
  6
Continuous
 62
     7
100
AcDbLine
 10
1544.061969952912
 20
1622.669632779953
 30
0.0
 11
1567.726269952912
 21
1623.336232779953
 31
0.0
  0
ARC
  5
E5
330
22
100
AcDbEntity
  8
255
  6
Continuous
 62
     7
100
AcDbCircle
 10
1567.251374113912
 20
1633.205695734953
 30
0.0
 40
9.880881813000002
100
AcDbArc
 50
272.7548109999964
 51
353.0029970000006
  0
ARC
  5
E6
330
22
100
AcDbEntity
  8
255
  6
Continuous
 62
     7
100
AcDbCircle
 10
1610.075381284912
 20
1627.029186780953
 30
0.0
 40
33.389104089
100
AcDbArc
 50
114.8254849999944
 51
171.4347199999985
  0
ARC
  5
E7
330
22
100
AcDbEntity
  8
255
  6
Continuous
 62
     7
100
AcDbCircle
 10
1652.600638333912
 20
1636.093370271953
 30
0.0
 40
10.100786487
100
AcDbArc
 50
191.9505179999997
 51
272.5558700000061
  0
LINE
  5
E8
330
22
100
AcDbEntity
  8
255
  6
Continuous
 62
     7
100
AcDbLine
 10
1653.051069952912
 20
1626.002632779953
 30
0.0
 11
1676.382069952912
 21
1626.669232779953
 31
0.0
  0
ARC
  5
E9
330
22
100
AcDbEntity
  8
255
  6
Continuous
 62
     7
100
AcDbCircle
 10
1676.104717690912
 20
1636.736152653953
 30
0.0
 40
10.070739492
100
AcDbArc
 50
271.5781560000025
 51
9.133494000000567
  0
ARC
  5
EA
330
22
100
AcDbEntity
  8
255
  6
Continuous
 62
     7
100
AcDbCircle
 10
1609.949877169912
 20
1627.123250706953
 30
0.0
 40
76.91935396200001
100
AcDbArc
 50
8.381079000000477
 51
73.81793399999986
  0
ARC
  5
EB
330
22
100
AcDbEntity
  8
255
  6
Continuous
 62
     7
100
AcDbCircle
 10
1628.447507221912
 20
1691.374311624953
 30
0.0
 40
10.059737259
100
AcDbArc
 50
73.01261499999504
 51
180.2556129999997
  0
LINE
  5
EC
330
22
100
AcDbEntity
  8
255
  6
Continuous
 62
     7
100
AcDbLine
 10
1618.387869952912
 20
1691.329432779953
 30
0.0
 11
1618.387869952912
 21
1666.331932779953
 31
0.0
  0
ARC
  5
ED
330
22
100
AcDbEntity
  8
255
  6
Continuous
 62
     7
100
AcDbCircle
 10
1628.310630910912
 20
1666.447757862953
 30
0.0
 40
9.923437556999999
100
AcDbArc
 50
180.6687560000001
 51
246.7113789999948
  0
ARC
  5
EE
330
22
100
AcDbEntity
  8
255
  6
Continuous
 62
     7
100
AcDbCircle
 10
1609.956796477912
 20
1627.127443620953
 30
0.0
 40
33.475425456
100
AcDbArc
 50
11.85035899999874
 51
64.46409500000301
  0
LINE
  5
EF
330
22
100
AcDbEntity
  8
255
  6
Continuous
 62
     7
100
AcDbLine
 10
1340.082369952912
 20
1776.987532779953
 30
0.0
 11
1340.082369952912
 21
1711.994032779953
 31
0.0
  0
ARC
  5
F0
330
22
100
AcDbEntity
  8
255
  6
Continuous
 62
     7
100
AcDbCircle
 10
1345.081869952912
 20
1711.994032779953
 30
0.0
 40
4.9995
100
AcDbArc
 50
180.0
 51
0.0
  0
LINE
  5
F1
330
22
100
AcDbEntity
  8
255
  6
Continuous
 62
     7
100
AcDbLine
 10
1350.081369952912
 20
1711.994032779953
 30
0.0
 11
1350.081369952912
 21
1776.987532779953
 31
0.0
  0
LINE
  5
F2
330
22
100
AcDbEntity
  8
255
  6
Continuous
 62
     7
100
AcDbLine
 10
1350.081369952912
 20
1776.987532779953
 30
0.0
 11
1356.747369952912
 21
1776.987532779953
 31
0.0
  0
ARC
  5
F3
330
22
100
AcDbEntity
  8
255
  6
Continuous
 62
     7
100
AcDbCircle
 10
1356.747369952912
 20
1766.988532779953
 30
0.0
 40
9.999
100
AcDbArc
 50
0.0
 51
90.0
  0
LINE
  5
F4
330
22
100
AcDbEntity
  8
255
  6
Continuous
 62
     7
100
AcDbLine
 10
1366.746369952912
 20
1766.988532779953
 30
0.0
 11
1366.746369952912
 21
1637.001532779953
 31
0.0
  0
ARC
  5
F5
330
22
100
AcDbEntity
  8
255
  6
Continuous
 62
     7
100
AcDbCircle
 10
1376.745369952912
 20
1637.001532779953
 30
0.0
 40
9.999
100
AcDbArc
 50
180.0
 51
270.0
  0
LINE
  5
F6
330
22
100
AcDbEntity
  8
255
  6
Continuous
 62
     7
100
AcDbLine
 10
1376.745369952912
 20
1627.002532779953
 30
0.0
 11
1494.066969952912
 21
1627.002532779953
 31
0.0
  0
ARC
  5
F7
330
22
100
AcDbEntity
  8
255
  6
Continuous
 62
     7
100
AcDbCircle
 10
1494.078838765912
 20
1637.012625003953
 30
0.0
 40
10.01009889
100
AcDbArc
 50
269.9320659999997
 51
356.118066000001
  0
ARC
  5
F8
330
22
100
AcDbEntity
  8
255
  6
Continuous
 62
     7
100
AcDbCircle
 10
1610.183637124912
 20
1626.996900009953
 30
0.0
 40
106.527732828
100
AcDbArc
 50
0.0
 51
174.9710990000023
  0
LINE
  5
F9
330
22
100
AcDbEntity
  8
255
  6
Continuous
 62
     7
100
AcDbLine
 10
1716.711369952912
 20
1627.002532779953
 30
0.0
 11
1716.711369952912
 21
1610.337532779953
 31
0.0
  0
ARC
  5
FA
330
22
100
AcDbEntity
  8
255
  6
Continuous
 62
     7
100
AcDbCircle
 10
1706.712369952913
 20
1610.337532779953
 30
0.0
 40
9.999
100
AcDbArc
 50
270.0
 51
0.0
  0
LINE
  5
FB
330
22
100
AcDbEntity
  8
255
  6
Continuous
 62
     7
100
AcDbLine
 10
1706.712369952913
 20
1600.338532779953
 30
0.0
 11
1326.750369952912
 21
1600.338532779953
 31
0.0
  0
ARC
  5
FC
330
22
100
AcDbEntity
  8
255
  6
Continuous
 62
     7
100
AcDbCircle
 10
1326.750369952912
 20
1610.337532779953
 30
0.0
 40
9.999
100
AcDbArc
 50
180.0
 51
270.0
  0
LINE
  5
FD
330
22
100
AcDbEntity
  8
255
  6
Continuous
 62
     7
100
AcDbLine
 10
1316.751369952912
 20
1610.337532779953
 30
0.0
 11
1316.751369952912
 21
1647.000532779953
 31
0.0
  0
ARC
  5
FE
330
22
100
AcDbEntity
  8
255
  6
Continuous
 62
     7
100
AcDbCircle
 10
1306.752369952912
 20
1647.000532779953
 30
0.0
 40
9.999
100
AcDbArc
 50
0.0
 51
90.0
  0
LINE
  5
FF
330
22
100
AcDbEntity
  8
255
  6
Continuous
 62
     7
100
AcDbLine
 10
1306.752369952912
 20
1656.999532779953
 30
0.0
 11
1286.754369952912
 21
1656.999532779953
 31
0.0
  0
ARC
  5
100
330
22
100
AcDbEntity
  8
255
  6
Continuous
 62
     7
100
AcDbCircle
 10
1286.754369952912
 20
1666.998532779953
 30
0.0
 40
9.999
100
AcDbArc
 50
180.0
 51
270.0
  0
LINE
  5
101
330
22
100
AcDbEntity
  8
255
  6
Continuous
 62
     7
100
AcDbLine
 10
1276.755369952912
 20
1666.998532779953
 30
0.0
 11
1276.755369952912
 21
1766.988532779953
 31
0.0
  0
ARC
  5
102
330
22
100
AcDbEntity
  8
255
  6
Continuous
 62
     7
100
AcDbCircle
 10
1286.754369952912
 20
1766.988532779953
 30
0.0
 40
9.999
100
AcDbArc
 50
90.0
 51
180.0
  0
LINE
  5
103
330
22
100
AcDbEntity
  8
255
  6
Continuous
 62
     7
100
AcDbLine
 10
1286.754369952912
 20
1776.987532779953
 30
0.0
 11
1340.082369952912
 21
1776.987532779953
 31
0.0
  0
LINE
  5
104
330
22
100
AcDbEntity
  8
255
  6
Continuous
 62
     7
100
AcDbLine
 10
2306.074251723464
 20
1287.758165252744
 30
0.0
 11
2284.409751723464
 21
1287.758165252744
 31
0.0
  0
ARC
  5
105
330
22
100
AcDbEntity
  8
255
  6
Continuous
 62
     7
100
AcDbCircle
 10
2284.409751723464
 20
1282.758665252744
 30
0.0
 40
4.9995
100
AcDbArc
 50
90.0
 51
270.0
  0
LINE
  5
106
330
22
100
AcDbEntity
  8
255
  6
Continuous
 62
     7
100
AcDbLine
 10
2284.409751723464
 20
1277.759165252744
 30
0.0
 11
2352.736251723463
 21
1277.759165252744
 31
0.0
  0
ARC
  5
107
330
22
100
AcDbEntity
  8
255
  6
Continuous
 62
     7
100
AcDbCircle
 10
2352.736251723463
 20
1271.093165252744
 30
0.0
 40
6.666
100
AcDbArc
 50
0.0
 51
90.0
  0
LINE
  5
108
330
22
100
AcDbEntity
  8
255
  6
Continuous
 62
     7
100
AcDbLine
 10
2359.402251723464
 20
1271.093165252744
 30
0.0
 11
2359.402251723464
 21
1181.102165252744
 31
0.0
  0
LINE
  5
109
330
22
100
AcDbEntity
  8
255
  6
Continuous
 62
     7
100
AcDbLine
 10
2359.402251723464
 20
1181.102165252744
 30
0.0
 11
2344.403751723463
 21
1181.102165252744
 31
0.0
  0
ARC
  5
10A
330
22
100
AcDbEntity
  8
255
  6
Continuous
 62
     7
100
AcDbCircle
 10
2344.403751723463
 20
1176.102665252744
 30
0.0
 40
4.9995
100
AcDbArc
 50
90.0
 51
270.0
  0
LINE
  5
10B
330
22
100
AcDbEntity
  8
255
  6
Continuous
 62
     7
100
AcDbLine
 10
2344.403751723463
 20
1171.103165252744
 30
0.0
 11
2359.402251723464
 21
1171.103165252744
 31
0.0
  0
LINE
  5
10C
330
22
100
AcDbEntity
  8
255
  6
Continuous
 62
     7
100
AcDbLine
 10
2359.402251723464
 20
1171.103165252744
 30
0.0
 11
2359.402251723464
 21
1127.774165252744
 31
0.0
  0
ARC
  5
10D
330
22
100
AcDbEntity
  8
255
  6
Continuous
 62
     7
100
AcDbCircle
 10
2352.736251723463
 20
1127.774165252744
 30
0.0
 40
6.666
100
AcDbArc
 50
270.0
 51
0.0
  0
LINE
  5
10E
330
22
100
AcDbEntity
  8
255
  6
Continuous
 62
     7
100
AcDbLine
 10
2352.736251723463
 20
1121.108165252744
 30
0.0
 11
2284.409751723464
 21
1121.108165252744
 31
0.0
  0
ARC
  5
10F
330
22
100
AcDbEntity
  8
255
  6
Continuous
 62
     7
100
AcDbCircle
 10
2284.409751723464
 20
1116.108665252744
 30
0.0
 40
4.9995
100
AcDbArc
 50
90.0
 51
270.0
  0
LINE
  5
110
330
22
100
AcDbEntity
  8
255
  6
Continuous
 62
     7
100
AcDbLine
 10
2284.409751723464
 20
1111.109165252744
 30
0.0
 11
2306.074251723464
 21
1111.109165252744
 31
0.0
  0
LINE
  5
111
330
22
100
AcDbEntity
  8
255
  6
Continuous
 62
     7
100
AcDbLine
 10
2306.074251723464
 20
1111.109165252744
 30
0.0
 11
2306.074251723464
 21
1096.110665252744
 31
0.0
  0
ARC
  5
112
330
22
100
AcDbEntity
  8
255
  6
Continuous
 62
     7
100
AcDbCircle
 10
2296.075251723463
 20
1096.110665252744
 30
0.0
 40
9.999
100
AcDbArc
 50
270.0
 51
0.0
  0
LINE
  5
113
330
22
100
AcDbEntity
  8
255
  6
Continuous
 62
     7
100
AcDbLine
 10
2296.075251723463
 20
1086.111665252744
 30
0.0
 11
2261.078751723463
 21
1086.111665252744
 31
0.0
  0
ARC
  5
114
330
22
100
AcDbEntity
  8
255
  6
Continuous
 62
     7
100
AcDbCircle
 10
2261.078751723463
 20
1079.445665252744
 30
0.0
 40
6.666
100
AcDbArc
 50
90.0
 51
180.0
  0
LINE
  5
115
330
22
100
AcDbEntity
  8
255
  6
Continuous
 62
     7
100
AcDbLine
 10
2254.412751723464
 20
1079.445665252744
 30
0.0
 11
2254.412751723464
 21
1059.447665252744
 31
0.0
  0
ARC
  5
116
330
22
100
AcDbEntity
  8
255
  6
Continuous
 62
     7
100
AcDbCircle
 10
2247.746751723464
 20
1059.447665252744
 30
0.0
 40
6.666
100
AcDbArc
 50
270.0
 51
0.0
  0
LINE
  5
117
330
22
100
AcDbEntity
  8
255
  6
Continuous
 62
     7
100
AcDbLine
 10
2247.746751723464
 20
1052.781665252744
 30
0.0
 11
2197.751751723464
 21
1052.781665252744
 31
0.0
  0
ARC
  5
118
330
22
100
AcDbEntity
  8
255
  6
Continuous
 62
     7
100
AcDbCircle
 10
2197.751751723464
 20
1059.447665252744
 30
0.0
 40
6.666
100
AcDbArc
 50
90.0
 51
270.0
  0
LINE
  5
119
330
22
100
AcDbEntity
  8
255
  6
Continuous
 62
     7
100
AcDbLine
 10
2197.751751723464
 20
1066.113665252744
 30
0.0
 11
2231.081751723463
 21
1066.113665252744
 31
0.0
  0
LINE
  5
11A
330
22
100
AcDbEntity
  8
255
  6
Continuous
 62
     7
100
AcDbLine
 10
2231.081751723463
 20
1066.113665252744
 30
0.0
 11
2231.081751723463
 21
1091.111165252744
 31
0.0
  0
LINE
  5
11B
330
22
100
AcDbEntity
  8
255
  6
Continuous
 62
     7
100
AcDbLine
 10
2231.081751723463
 20
1091.111165252744
 30
0.0
 11
2197.751751723464
 21
1091.111165252744
 31
0.0
  0
ARC
  5
11C
330
22
100
AcDbEntity
  8
255
  6
Continuous
 62
     7
100
AcDbCircle
 10
2197.751751723464
 20
1097.777165252745
 30
0.0
 40
6.666
100
AcDbArc
 50
180.0
 51
270.0
  0
LINE
  5
11D
330
22
100
AcDbEntity
  8
255
  6
Continuous
 62
     7
100
AcDbLine
 10
2191.085751723464
 20
1097.777165252745
 30
0.0
 11
2191.085751723464
 21
1102.776665252744
 31
0.0
  0
ARC
  5
11E
330
22
100
AcDbEntity
  8
255
  6
Continuous
 62
     7
100
AcDbCircle
 10
2197.751751723464
 20
1102.776665252744
 30
0.0
 40
6.666
100
AcDbArc
 50
90.0
 51
180.0
  0
LINE
  5
11F
330
22
100
AcDbEntity
  8
255
  6
Continuous
 62
     7
100
AcDbLine
 10
2197.751751723464
 20
1109.442665252744
 30
0.0
 11
2226.082251723463
 21
1109.442665252744
 31
0.0
  0
LINE
  5
120
330
22
100
AcDbEntity
  8
255
  6
Continuous
 62
     7
100
AcDbLine
 10
2226.082251723463
 20
1109.442665252744
 30
0.0
 11
2226.082251723463
 21
1289.424665252744
 31
0.0
  0
LINE
  5
121
330
22
100
AcDbEntity
  8
255
  6
Continuous
 62
     7
100
AcDbLine
 10
2226.082251723463
 20
1289.424665252744
 30
0.0
 11
2197.751751723464
 21
1289.424665252744
 31
0.0
  0
ARC
  5
122
330
22
100
AcDbEntity
  8
255
  6
Continuous
 62
     7
100
AcDbCircle
 10
2197.751751723464
 20
1296.090665252744
 30
0.0
 40
6.666
100
AcDbArc
 50
180.0
 51
270.0
  0
LINE
  5
123
330
22
100
AcDbEntity
  8
255
  6
Continuous
 62
     7
100
AcDbLine
 10
2191.085751723464
 20
1296.090665252744
 30
0.0
 11
2191.085751723464
 21
1301.090165252744
 31
0.0
  0
ARC
  5
124
330
22
100
AcDbEntity
  8
255
  6
Continuous
 62
     7
100
AcDbCircle
 10
2197.751751723464
 20
1301.090165252744
 30
0.0
 40
6.666
100
AcDbArc
 50
90.0
 51
180.0
  0
LINE
  5
125
330
22
100
AcDbEntity
  8
255
  6
Continuous
 62
     7
100
AcDbLine
 10
2197.751751723464
 20
1307.756165252745
 30
0.0
 11
2231.081751723463
 21
1307.756165252745
 31
0.0
  0
LINE
  5
126
330
22
100
AcDbEntity
  8
255
  6
Continuous
 62
     7
100
AcDbLine
 10
2231.081751723463
 20
1307.756165252745
 30
0.0
 11
2231.081751723463
 21
1332.753665252744
 31
0.0
  0
LINE
  5
127
330
22
100
AcDbEntity
  8
255
  6
Continuous
 62
     7
100
AcDbLine
 10
2231.081751723463
 20
1332.753665252744
 30
0.0
 11
2197.751751723464
 21
1332.753665252744
 31
0.0
  0
ARC
  5
128
330
22
100
AcDbEntity
  8
255
  6
Continuous
 62
     7
100
AcDbCircle
 10
2197.751751723464
 20
1339.419665252745
 30
0.0
 40
6.666
100
AcDbArc
 50
90.0
 51
270.0
  0
LINE
  5
129
330
22
100
AcDbEntity
  8
255
  6
Continuous
 62
     7
100
AcDbLine
 10
2197.751751723464
 20
1346.085665252744
 30
0.0
 11
2247.746751723464
 21
1346.085665252744
 31
0.0
  0
ARC
  5
12A
330
22
100
AcDbEntity
  8
255
  6
Continuous
 62
     7
100
AcDbCircle
 10
2247.746751723464
 20
1339.419665252745
 30
0.0
 40
6.666
100
AcDbArc
 50
0.0
 51
90.0
  0
LINE
  5
12B
330
22
100
AcDbEntity
  8
255
  6
Continuous
 62
     7
100
AcDbLine
 10
2254.412751723464
 20
1339.419665252745
 30
0.0
 11
2254.412751723464
 21
1319.421665252744
 31
0.0
  0
ARC
  5
12C
330
22
100
AcDbEntity
  8
255
  6
Continuous
 62
     7
100
AcDbCircle
 10
2261.078751723463
 20
1319.421665252744
 30
0.0
 40
6.666
100
AcDbArc
 50
180.0
 51
270.0
  0
LINE
  5
12D
330
22
100
AcDbEntity
  8
255
  6
Continuous
 62
     7
100
AcDbLine
 10
2261.078751723463
 20
1312.755665252744
 30
0.0
 11
2296.075251723463
 21
1312.755665252744
 31
0.0
  0
ARC
  5
12E
330
22
100
AcDbEntity
  8
255
  6
Continuous
 62
     7
100
AcDbCircle
 10
2296.075251723463
 20
1302.756665252744
 30
0.0
 40
9.999
100
AcDbArc
 50
0.0
 51
90.0
  0
LINE
  5
12F
330
22
100
AcDbEntity
  8
255
  6
Continuous
 62
     7
100
AcDbLine
 10
2306.074251723464
 20
1302.756665252744
 30
0.0
 11
2306.074251723464
 21
1287.758165252744
 31
0.0
  0
ARC
  5
130
330
22
100
AcDbEntity
  8
255
  6
Continuous
 62
     7
100
AcDbCircle
 10
2655.12424122794
 20
957.5125876279267
 30
0.0
 40
31.54046230500001
100
AcDbArc
 50
13.30495100000347
 51
31.02774099999447
  0
LINE
  5
131
330
22
100
AcDbEntity
  8
255
  6
Continuous
 62
     7
100
AcDbLine
 10
2685.818128198939
 20
964.7711150359263
 30
0.0
 11
2709.81572819894
 21
964.7711150359263
 31
0.0
  0
ARC
  5
132
330
22
100
AcDbEntity
  8
255
  6
Continuous
 62
     7
100
AcDbCircle
 10
2709.896420128939
 20
971.5392114919264
 30
0.0
 40
6.768576408000001
100
AcDbArc
 50
269.3169330000126
 51
13.36345099999526
  0
ARC
  5
133
330
22
100
AcDbEntity
  8
255
  6
Continuous
 62
     7
100
AcDbCircle
 10
2655.17665598594
 20
957.7340854759263
 30
0.0
 40
63.20232580200001
100
AcDbArc
 50
14.07429200000181
 51
46.74787000000414
  0
ARC
  5
134
330
22
100
AcDbEntity
  8
255
  6
Continuous
 62
     7
100
AcDbCircle
 10
2693.833193278939
 20
999.1030514989267
 30
0.0
 40
6.586354632
100
AcDbArc
 50
45.08507000000181
 51
149.6196889999985
  0
LINE
  5
135
330
22
100
AcDbEntity
  8
255
  6
Continuous
 62
     7
100
AcDbLine
 10
2688.15122819894
 20
1002.434015035926
 30
0.0
 11
2676.152428198939
 21
981.4361150359264
 31
0.0
  0
ARC
  5
136
330
22
100
AcDbEntity
  8
255
  6
Continuous
 62
     7
100
AcDbCircle
 10
2654.55459819794
 20
958.3529269189261
 30
0.0
 40
31.61170518
100
AcDbArc
 50
29.19006399999753
 51
46.90402100000019
  0
ARC
  5
137
330
22
100
AcDbEntity
  8
255
  6
Continuous
 62
     7
100
AcDbCircle
 10
2654.342772715939
 20
958.1297992339269
 30
0.0
 40
31.64243544
100
AcDbArc
 50
71.30156900000686
 51
89.13361700000775
  0
LINE
  5
138
330
22
100
AcDbEntity
  8
255
  6
Continuous
 62
     7
100
AcDbLine
 10
2664.48692819894
 20
988.1021150359265
 30
0.0
 11
2676.485728198939
 21
1009.100015035927
 31
0.0
  0
ARC
  5
139
330
22
100
AcDbEntity
  8
255
  6
Continuous
 62
     7
100
AcDbCircle
 10
2670.82570759094
 20
1012.418289841926
 30
0.0
 40
6.561003833999999
100
AcDbArc
 50
329.6183619999944
 51
75.34050699999895
  0
ARC
  5
13A
330
22
100
AcDbEntity
  8
255
  6
Continuous
 62
     7
100
AcDbCircle
 10
2654.65457819894
 20
958.1049050569266
 30
0.0
 40
63.22735329900001
100
AcDbArc
 50
73.61903600000657
 51
106.3809639999934
  0
ARC
  5
13B
330
22
100
AcDbEntity
  8
255
  6
Continuous
 62
     7
100
AcDbCircle
 10
2638.838153332939
 20
1012.473174352926
 30
0.0
 40
6.607329201
100
AcDbArc
 50
107.7571659999992
 51
210.6983239999919
  0
LINE
  5
13C
330
22
100
AcDbEntity
  8
255
  6
Continuous
 62
     7
100
AcDbLine
 10
2633.156728198939
 20
1009.100015035927
 30
0.0
 11
2645.15552819894
 21
988.1021150359265
 31
0.0
  0
ARC
  5
13D
330
22
100
AcDbEntity
  8
255
  6
Continuous
 62
     7
100
AcDbCircle
 10
2655.299683681939
 20
958.1297992339269
 30
0.0
 40
31.64243544
100
AcDbArc
 50
90.86638299999224
 51
108.6984309999931
  0
ARC
  5
13E
330
22
100
AcDbEntity
  8
255
  6
Continuous
 62
     7
100
AcDbCircle
 10
2654.424011257939
 20
957.6941927989269
 30
0.0
 40
31.65296772
100
AcDbArc
 50
131.4036179999984
 51
149.4770470000025
  0
LINE
  5
13F
330
22
100
AcDbEntity
  8
255
  6
Continuous
 62
     7
100
AcDbLine
 10
2633.49002819894
 20
981.4361150359264
 30
0.0
 11
2621.491228198939
 21
1002.434015035926
 31
0.0
  0
ARC
  5
140
330
22
100
AcDbEntity
  8
255
  6
Continuous
 62
     7
100
AcDbCircle
 10
2615.80926311894
 20
999.1030514989267
 30
0.0
 40
6.586354632
100
AcDbArc
 50
30.3803110000015
 51
134.9149299999982
  0
ARC
  5
141
330
22
100
AcDbEntity
  8
255
  6
Continuous
 62
     7
100
AcDbCircle
 10
2654.465800411939
 20
957.7340854759263
 30
0.0
 40
63.20232580200001
100
AcDbArc
 50
133.2521299999958
 51
165.9257079999981
  0
ARC
  5
142
330
22
100
AcDbEntity
  8
255
  6
Continuous
 62
     7
100
AcDbCircle
 10
2599.746036268939
 20
971.5392114919264
 30
0.0
 40
6.768576408000001
100
AcDbArc
 50
166.6365490000047
 51
270.6830669999874
  0
LINE
  5
143
330
22
100
AcDbEntity
  8
255
  6
Continuous
 62
     7
100
AcDbLine
 10
2599.82672819894
 20
964.7711150359263
 30
0.0
 11
2623.824328198939
 21
964.7711150359263
 31
0.0
  0
ARC
  5
144
330
22
100
AcDbEntity
  8
255
  6
Continuous
 62
     7
100
AcDbCircle
 10
2654.81118920294
 20
958.4112710839262
 30
0.0
 40
31.63278640500001
100
AcDbArc
 50
150.9522250000026
 51
168.4015009999964
  0
ARC
  5
145
330
22
100
AcDbEntity
  8
255
  6
Continuous
 62
     7
100
AcDbCircle
 10
2655.177215929939
 20
957.3751980349266
 30
0.0
 40
31.909882026
100
AcDbArc
 50
190.7209810000039
 51
208.5866670000001
  0
LINE
  5
146
330
22
100
AcDbEntity
  8
255
  6
Continuous
 62
     7
100
AcDbLine
 10
2623.824328198939
 20
951.4391150359266
 30
0.0
 11
2599.82672819894
 21
951.4391150359266
 31
0.0
  0
ARC
  5
147
330
22
100
AcDbEntity
  8
255
  6
Continuous
 62
     7
100
AcDbCircle
 10
2599.746036268939
 20
944.6710185799265
 30
0.0
 40
6.768576408000001
100
AcDbArc
 50
89.31693299998654
 51
193.3634509999952
  0
ARC
  5
148
330
22
100
AcDbEntity
  8
255
  6
Continuous
 62
     7
100
AcDbCircle
 10
2654.78624503094
 20
958.1654390029269
 30
0.0
 40
63.43872882600001
100
AcDbArc
 50
193.7317139999974
 51
226.5510569999891
  0
ARC
  5
149
330
22
100
AcDbEntity
  8
255
  6
Continuous
 62
     7
100
AcDbCircle
 10
2615.65724832194
 20
917.0835009409262
 30
0.0
 40
6.706222644000001
100
AcDbArc
 50
227.8736169999989
 51
330.4510759999934
  0
LINE
  5
14A
330
22
100
AcDbEntity
  8
255
  6
Continuous
 62
     7
100
AcDbLine
 10
2621.491228198939
 20
913.7762150359264
 30
0.0
 11
2633.49002819894
 21
934.4408150359267
 31
0.0
  0
ARC
  5
14B
330
22
100
AcDbEntity
  8
255
  6
Continuous
 62
     7
100
AcDbCircle
 10
2654.58783487394
 20
958.3180704049263
 30
0.0
 40
31.862843397
100
AcDbArc
 50
210.5829699999979
 51
228.5363659999975
  0
ARC
  5
14C
330
22
100
AcDbEntity
  8
255
  6
Continuous
 62
     7
100
AcDbCircle
 10
2654.26180081394
 20
958.0905164959267
 30
0.0
 40
31.653847632
100
AcDbArc
 50
253.280712999991
 51
271.0126599999918
  0
LINE
  5
14D
330
22
100
AcDbEntity
  8
255
  6
Continuous
 62
     7
100
AcDbLine
 10
2645.15552819894
 20
927.7748150359267
 30
0.0
 11
2633.156728198939
 21
907.1102150359266
 31
0.0
  0
ARC
  5
14E
330
22
100
AcDbEntity
  8
255
  6
Continuous
 62
     7
100
AcDbCircle
 10
2638.838153332939
 20
903.7370557189262
 30
0.0
 40
6.607329201
100
AcDbArc
 50
149.3016760000081
 51
252.2428340000008
  0
ARC
  5
14F
330
22
100
AcDbEntity
  8
255
  6
Continuous
 62
     7
100
AcDbCircle
 10
2654.65457819894
 20
958.1053250149263
 30
0.0
 40
63.22735329900001
100
AcDbArc
 50
253.6190360000066
 51
286.3809639999934
  0
ARC
  5
150
330
22
100
AcDbEntity
  8
255
  6
Continuous
 62
     7
100
AcDbCircle
 10
2670.82570759094
 20
903.7919402299264
 30
0.0
 40
6.561003833999999
100
AcDbArc
 50
284.659493000001
 51
30.38163800000554
  0
LINE
  5
151
330
22
100
AcDbEntity
  8
255
  6
Continuous
 62
     7
100
AcDbLine
 10
2676.485728198939
 20
907.1102150359266
 30
0.0
 11
2664.48692819894
 21
927.7748150359267
 31
0.0
  0
ARC
  5
152
330
22
100
AcDbEntity
  8
255
  6
Continuous
 62
     7
100
AcDbCircle
 10
2655.38065558394
 20
958.0905164959267
 30
0.0
 40
31.653847632
100
AcDbArc
 50
268.9873400000081
 51
286.719287000009
  0
ARC
  5
153
330
22
100
AcDbEntity
  8
255
  6
Continuous
 62
     7
100
AcDbCircle
 10
2654.55459819794
 20
957.5240031529267
 30
0.0
 40
31.61170518
100
AcDbArc
 50
313.0959789999999
 51
330.8099360000025
  0
LINE
  5
154
330
22
100
AcDbEntity
  8
255
  6
Continuous
 62
     7
100
AcDbLine
 10
2676.152428198939
 20
934.4408150359267
 30
0.0
 11
2688.15122819894
 21
913.7762150359264
 31
0.0
  0
ARC
  5
155
330
22
100
AcDbEntity
  8
255
  6
Continuous
 62
     7
100
AcDbCircle
 10
2693.99363056694
 20
917.1357390499265
 30
0.0
 40
6.739442654999999
100
AcDbArc
 50
209.899938000004
 51
311.7753689999996
  0
ARC
  5
156
330
22
100
AcDbEntity
  8
255
  6
Continuous
 62
     7
100
AcDbCircle
 10
2654.85621136694
 20
958.1654390029269
 30
0.0
 40
63.43872882600001
100
AcDbArc
 50
313.4489430000109
 51
346.2682860000025
  0
ARC
  5
157
330
22
100
AcDbEntity
  8
255
  6
Continuous
 62
     7
100
AcDbCircle
 10
2709.896420128939
 20
944.6710185799265
 30
0.0
 40
6.768576408000001
100
AcDbArc
 50
346.6365490000047
 51
90.68306700001347
  0
LINE
  5
158
330
22
100
AcDbEntity
  8
255
  6
Continuous
 62
     7
100
AcDbLine
 10
2709.81572819894
 20
951.4391150359266
 30
0.0
 11
2685.818128198939
 21
951.4391150359266
 31
0.0
  0
ARC
  5
159
330
22
100
AcDbEntity
  8
255
  6
Continuous
 62
     7
100
AcDbCircle
 10
2654.86357063094
 20
958.2134675329266
 30
0.0
 40
31.687167633
100
AcDbArc
 50
329.4489910000002
 51
347.6555360000004
  0
CIRCLE
  5
15A
330
22
100
AcDbEntity
  8
255
  6
Continuous
 62
     7
100
AcDbCircle
 10
2654.82122819894
 20
958.1051150359265
 30
0.0
 40
18.3315
  0
ARC
  5
15B
330
22
100
AcDbEntity
  8
255
  6
Continuous
 62
     7
100
AcDbCircle
 10
2654.82122819894
 20
958.1051150359265
 30
0.0
 40
84.9915
100
AcDbArc
 50
270.0
 51
180.0
  0
ARC
  5
15C
330
22
100
AcDbEntity
  8
255
  6
Continuous
 62
     7
100
AcDbCircle
 10
2655.04805884694
 20
958.1495572579266
 30
0.0
 40
85.036242192
100
AcDbArc
 50
224.9131030000082
 51
269.8471660000072
  0
ARC
  5
15D
330
22
100
AcDbEntity
  8
255
  6
Continuous
 62
     7
100
AcDbCircle
 10
2654.86567042094
 20
958.3319456839264
 30
0.0
 40
85.036242192
100
AcDbArc
 50
180.1528330000009
 51
225.086895999996
  0
ARC
  5
15E
330
22
100
AcDbEntity
  8
255
  6
Continuous
 62
     7
100
AcDbCircle
 10
2406.363655195685
 20
1023.024242997321
 30
0.0
 40
31.909882026
100
AcDbArc
 50
10.72098100000392
 51
28.58666700000009
  0
LINE
  5
15F
330
22
100
AcDbEntity
  8
255
  6
Continuous
 62
     7
100
AcDbLine
 10
2437.716542926684
 20
1028.960325996321
 30
0.0
 11
2462.047442926685
 21
1028.960325996321
 31
0.0
  0
ARC
  5
160
330
22
100
AcDbEntity
  8
255
  6
Continuous
 62
     7
100
AcDbCircle
 10
2462.002280776685
 20
1035.567325230321
 30
0.0
 40
6.607152552
100
AcDbArc
 50
270.3916329999925
 51
15.13869999999816
  0
ARC
  5
161
330
22
100
AcDbEntity
  8
255
  6
Continuous
 62
     7
100
AcDbCircle
 10
2406.754626094685
 20
1022.234002029321
 30
0.0
 40
63.43872882600001
100
AcDbArc
 50
13.73171399999745
 51
46.55105699998907
  0
ARC
  5
162
330
22
100
AcDbEntity
  8
255
  6
Continuous
 62
     7
100
AcDbCircle
 10
2445.883622803684
 20
1063.315940091321
 30
0.0
 40
6.706222644000001
100
AcDbArc
 50
47.87361699999904
 51
150.4510759999934
  0
LINE
  5
163
330
22
100
AcDbEntity
  8
255
  6
Continuous
 62
     7
100
AcDbLine
 10
2440.049642926684
 20
1066.623225996321
 30
0.0
 11
2428.050842926685
 21
1045.625325996321
 31
0.0
  0
ARC
  5
164
330
22
100
AcDbEntity
  8
255
  6
Continuous
 62
     7
100
AcDbCircle
 10
2407.344977053685
 20
1021.342111227321
 30
0.0
 40
31.912495098
100
AcDbArc
 50
32.08380700000666
 51
49.54636099999499
  0
ARC
  5
165
330
22
100
AcDbEntity
  8
255
  6
Continuous
 62
     7
100
AcDbCircle
 10
2406.241187443685
 20
1022.319010194321
 30
0.0
 40
31.64243544
100
AcDbArc
 50
71.30156900000688
 51
89.13361700000775
  0
LINE
  5
166
330
22
100
AcDbEntity
  8
255
  6
Continuous
 62
     7
100
AcDbLine
 10
2416.385342926685
 20
1052.291325996321
 30
0.0
 11
2428.717442926685
 21
1073.289225996321
 31
0.0
  0
ARC
  5
167
330
22
100
AcDbEntity
  8
255
  6
Continuous
 62
     7
100
AcDbCircle
 10
2422.771970866685
 20
1076.489382615321
 30
0.0
 40
6.752011398000001
100
AcDbArc
 50
331.708588000006
 51
73.25028200001097
  0
ARC
  5
168
330
22
100
AcDbEntity
  8
255
  6
Continuous
 62
     7
100
AcDbCircle
 10
2406.886292926685
 20
1022.294116017321
 30
0.0
 40
63.22735329900001
100
AcDbArc
 50
73.6190360000066
 51
106.3809639999934
  0
ARC
  5
169
330
22
100
AcDbEntity
  8
255
  6
Continuous
 62
     7
100
AcDbCircle
 10
2390.715163534685
 20
1076.607500802321
 30
0.0
 40
6.561003833999999
100
AcDbArc
 50
104.6594930000011
 51
210.3816380000055
  0
LINE
  5
16A
330
22
100
AcDbEntity
  8
255
  6
Continuous
 62
     7
100
AcDbLine
 10
2385.055142926685
 20
1073.289225996321
 30
0.0
 11
2397.053942926685
 21
1052.291325996321
 31
0.0
  0
ARC
  5
16B
330
22
100
AcDbEntity
  8
255
  6
Continuous
 62
     7
100
AcDbCircle
 10
2407.198098409685
 20
1022.319010194321
 30
0.0
 40
31.64243544
100
AcDbArc
 50
90.86638299999224
 51
108.6984309999931
  0
ARC
  5
16C
330
22
100
AcDbEntity
  8
255
  6
Continuous
 62
     7
100
AcDbCircle
 10
2406.071787718685
 20
1021.649410494321
 30
0.0
 40
31.44787489800001
100
AcDbArc
 50
130.3236100000076
 51
148.0462220000013
  0
LINE
  5
16D
330
22
100
AcDbEntity
  8
255
  6
Continuous
 62
     7
100
AcDbLine
 10
2385.721742926685
 20
1045.625325996321
 30
0.0
 11
2373.389642926685
 21
1066.623225996321
 31
0.0
  0
ARC
  5
16E
330
22
100
AcDbEntity
  8
255
  6
Continuous
 62
     7
100
AcDbCircle
 10
2367.547240558685
 20
1063.263701982321
 30
0.0
 40
6.739442654999999
100
AcDbArc
 50
29.89993800000393
 51
131.7753689999996
  0
ARC
  5
16F
330
22
100
AcDbEntity
  8
255
  6
Continuous
 62
     7
100
AcDbCircle
 10
2407.077627124685
 20
1022.670901668321
 30
0.0
 40
63.394499916
100
AcDbArc
 50
133.9783480000086
 51
166.6646720000017
  0
ARC
  5
170
330
22
100
AcDbEntity
  8
255
  6
Continuous
 62
     7
100
AcDbCircle
 10
2351.770305076684
 20
1035.567325230321
 30
0.0
 40
6.607152552
100
AcDbArc
 50
164.8613009999997
 51
269.6083679999997
  0
LINE
  5
171
330
22
100
AcDbEntity
  8
255
  6
Continuous
 62
     7
100
AcDbLine
 10
2351.725142926685
 20
1028.960325996321
 30
0.0
 11
2375.722742926685
 21
1028.960325996321
 31
0.0
  0
ARC
  5
172
330
22
100
AcDbEntity
  8
255
  6
Continuous
 62
     7
100
AcDbCircle
 10
2406.677300494685
 20
1022.185973499321
 30
0.0
 40
31.687167633
100
AcDbArc
 50
149.4489910000058
 51
167.6555360000004
  0
ARC
  5
173
330
22
100
AcDbEntity
  8
255
  6
Continuous
 62
     7
100
AcDbCircle
 10
2406.416629897685
 20
1022.886853404322
 30
0.0
 40
31.54046230500001
100
AcDbArc
 50
193.3049510000035
 51
211.0277409999944
  0
LINE
  5
174
330
22
100
AcDbEntity
  8
255
  6
Continuous
 62
     7
100
AcDbLine
 10
2375.722742926685
 20
1015.628325996321
 30
0.0
 11
2351.725142926685
 21
1015.628325996321
 31
0.0
  0
ARC
  5
175
330
22
100
AcDbEntity
  8
255
  6
Continuous
 62
     7
100
AcDbCircle
 10
2351.770305076684
 20
1009.021326762321
 30
0.0
 40
6.607152552
100
AcDbArc
 50
90.3916329999925
 51
195.1386999999981
  0
ARC
  5
176
330
22
100
AcDbEntity
  8
255
  6
Continuous
 62
     7
100
AcDbCircle
 10
2407.077627124685
 20
1021.917750324321
 30
0.0
 40
63.394499916
100
AcDbArc
 50
193.3353279999983
 51
226.0216519999914
  0
ARC
  5
177
330
22
100
AcDbEntity
  8
255
  6
Continuous
 62
     7
100
AcDbCircle
 10
2367.555663049685
 20
981.2727119013214
 30
0.0
 40
6.706222644000001
100
AcDbArc
 50
227.8736169999989
 51
330.4510759999935
  0
LINE
  5
178
330
22
100
AcDbEntity
  8
255
  6
Continuous
 62
     7
100
AcDbLine
 10
2373.389642926685
 20
977.9654259963212
 30
0.0
 11
2385.721742926685
 21
998.9633259963216
 31
0.0
  0
ARC
  5
179
330
22
100
AcDbEntity
  8
255
  6
Continuous
 62
     7
100
AcDbCircle
 10
2406.457649128685
 20
1022.541617931322
 30
0.0
 40
31.39925976
100
AcDbArc
 50
210.4493170000084
 51
228.6700189999942
  0
ARC
  5
17A
330
22
100
AcDbEntity
  8
255
  6
Continuous
 62
     7
100
AcDbCircle
 10
2407.198098409685
 20
1022.269641798321
 30
0.0
 40
31.64243544
100
AcDbArc
 50
251.3015690000068
 51
269.1336170000077
  0
LINE
  5
17B
330
22
100
AcDbEntity
  8
255
  6
Continuous
 62
     7
100
AcDbLine
 10
2397.053942926685
 20
992.2973259963212
 30
0.0
 11
2385.055142926685
 21
971.2994259963211
 31
0.0
  0
ARC
  5
17C
330
22
100
AcDbEntity
  8
255
  6
Continuous
 62
     7
100
AcDbCircle
 10
2390.715163534685
 20
967.9811511903212
 30
0.0
 40
6.561003833999999
100
AcDbArc
 50
149.6183619999943
 51
255.3405069999989
  0
ARC
  5
17D
330
22
100
AcDbEntity
  8
255
  6
Continuous
 62
     7
100
AcDbCircle
 10
2406.886292926685
 20
1022.294535975321
 30
0.0
 40
63.22735329900001
100
AcDbArc
 50
253.6190360000066
 51
286.3809639999934
  0
ARC
  5
17E
330
22
100
AcDbEntity
  8
255
  6
Continuous
 62
     7
100
AcDbCircle
 10
2422.771970866685
 20
968.0992693773216
 30
0.0
 40
6.752011398000001
100
AcDbArc
 50
286.7497189999926
 51
28.29141300000268
  0
LINE
  5
17F
330
22
100
AcDbEntity
  8
255
  6
Continuous
 62
     7
100
AcDbLine
 10
2428.717442926685
 20
971.2994259963211
 30
0.0
 11
2416.385342926685
 21
992.2973259963212
 31
0.0
  0
ARC
  5
180
330
22
100
AcDbEntity
  8
255
  6
Continuous
 62
     7
100
AcDbCircle
 10
2406.241187443685
 20
1022.269641798321
 30
0.0
 40
31.64243544
100
AcDbArc
 50
270.8663829999923
 51
288.6984309999932
  0
ARC
  5
181
330
22
100
AcDbEntity
  8
255
  6
Continuous
 62
     7
100
AcDbCircle
 10
2407.116859867685
 20
1022.705248233321
 30
0.0
 40
31.65296772
100
AcDbArc
 50
311.4036179999985
 51
329.4770470000024
  0
LINE
  5
182
330
22
100
AcDbEntity
  8
255
  6
Continuous
 62
     7
100
AcDbLine
 10
2428.050842926685
 20
998.9633259963216
 30
0.0
 11
2440.049642926684
 21
977.9654259963212
 31
0.0
  0
ARC
  5
183
330
22
100
AcDbEntity
  8
255
  6
Continuous
 62
     7
100
AcDbCircle
 10
2445.892045294685
 20
981.3249500103212
 30
0.0
 40
6.739442654999999
100
AcDbArc
 50
209.8999380000039
 51
311.7753689999996
  0
ARC
  5
184
330
22
100
AcDbEntity
  8
255
  6
Continuous
 62
     7
100
AcDbCircle
 10
2406.754626094685
 20
1022.354649963321
 30
0.0
 40
63.43872882600001
100
AcDbArc
 50
313.4489430000109
 51
346.2682860000025
  0
ARC
  5
185
330
22
100
AcDbEntity
  8
255
  6
Continuous
 62
     7
100
AcDbCircle
 10
2462.002280776685
 20
1009.021326762321
 30
0.0
 40
6.607152552
100
AcDbArc
 50
344.8613009999997
 51
89.60836799999972
  0
LINE
  5
186
330
22
100
AcDbEntity
  8
255
  6
Continuous
 62
     7
100
AcDbLine
 10
2462.047442926685
 20
1015.628325996321
 30
0.0
 11
2437.716542926684
 21
1015.628325996321
 31
0.0
  0
ARC
  5
187
330
22
100
AcDbEntity
  8
255
  6
Continuous
 62
     7
100
AcDbCircle
 10
2406.729681922685
 20
1021.988169948321
 30
0.0
 40
31.63278640500001
100
AcDbArc
 50
330.9522250000027
 51
348.4015009999965
  0
CIRCLE
  5
188
330
22
100
AcDbEntity
  8
255
  6
Continuous
 62
     7
100
AcDbCircle
 10
2406.719642926685
 20
1022.294325996321
 30
0.0
 40
18.3315
  0
ARC
  5
189
330
22
100
AcDbEntity
  8
255
  6
Continuous
 62
     7
100
AcDbCircle
 10
2406.719642926685
 20
1022.294325996321
 30
0.0
 40
84.9915
100
AcDbArc
 50
270.0
 51
180.0
  0
ARC
  5
18A
330
22
100
AcDbEntity
  8
255
  6
Continuous
 62
     7
100
AcDbCircle
 10
2406.946473574685
 20
1022.338768218321
 30
0.0
 40
85.036242192
100
AcDbArc
 50
224.9131030000082
 51
269.8471660000072
  0
ARC
  5
18B
330
22
100
AcDbEntity
  8
255
  6
Continuous
 62
     7
100
AcDbCircle
 10
2406.764085148685
 20
1022.521156644321
 30
0.0
 40
85.036242192
100
AcDbArc
 50
180.1528330000009
 51
225.086895999996
  0
ARC
  5
18C
330
22
100
AcDbEntity
  8
255
  6
Continuous
 62
     7
100
AcDbCircle
 10
2393.998586624132
 20
1499.334063036765
 30
0.0
 40
31.909882026
100
AcDbArc
 50
10.72098100000396
 51
28.58666700000015
  0
LINE
  5
18D
330
22
100
AcDbEntity
  8
255
  6
Continuous
 62
     7
100
AcDbLine
 10
2425.351474355132
 20
1505.270146035765
 30
0.0
 11
2449.349074355132
 21
1505.270146035765
 31
0.0
  0
ARC
  5
18E
330
22
100
AcDbEntity
  8
255
  6
Continuous
 62
     7
100
AcDbCircle
 10
2449.429766285133
 20
1512.038242491765
 30
0.0
 40
6.768576408000001
100
AcDbArc
 50
269.3169330000126
 51
13.36345099999526
  0
ARC
  5
18F
330
22
100
AcDbEntity
  8
255
  6
Continuous
 62
     7
100
AcDbCircle
 10
2394.389557523133
 20
1498.543822068765
 30
0.0
 40
63.43872882600001
100
AcDbArc
 50
13.73171399999742
 51
46.55105699998909
  0
ARC
  5
190
330
22
100
AcDbEntity
  8
255
  6
Continuous
 62
     7
100
AcDbCircle
 10
2433.518554232132
 20
1539.625760130765
 30
0.0
 40
6.706222644000001
100
AcDbArc
 50
47.87361699999896
 51
150.4510759999934
  0
LINE
  5
191
330
22
100
AcDbEntity
  8
255
  6
Continuous
 62
     7
100
AcDbLine
 10
2427.684574355133
 20
1542.933046035765
 30
0.0
 11
2415.685774355133
 21
1522.268446035765
 31
0.0
  0
ARC
  5
192
330
22
100
AcDbEntity
  8
255
  6
Continuous
 62
     7
100
AcDbCircle
 10
2394.587967680132
 20
1498.391190666766
 30
0.0
 40
31.862843397
100
AcDbArc
 50
30.58296999999789
 51
48.53636599999753
  0
ARC
  5
193
330
22
100
AcDbEntity
  8
255
  6
Continuous
 62
     7
100
AcDbCircle
 10
2394.914001740132
 20
1498.618744575765
 30
0.0
 40
31.653847632
100
AcDbArc
 50
73.28071299999098
 51
91.0126599999919
  0
LINE
  5
194
330
22
100
AcDbEntity
  8
255
  6
Continuous
 62
     7
100
AcDbLine
 10
2404.020274355133
 20
1528.934446035765
 30
0.0
 11
2416.019074355133
 21
1549.599046035766
 31
0.0
  0
ARC
  5
195
330
22
100
AcDbEntity
  8
255
  6
Continuous
 62
     7
100
AcDbCircle
 10
2410.337649221133
 20
1552.972205352766
 30
0.0
 40
6.607329201
100
AcDbArc
 50
329.3016760000081
 51
72.24283400000079
  0
ARC
  5
196
330
22
100
AcDbEntity
  8
255
  6
Continuous
 62
     7
100
AcDbCircle
 10
2394.521224355132
 20
1498.603936056765
 30
0.0
 40
63.22735329900001
100
AcDbArc
 50
73.61903600000657
 51
106.3809639999934
  0
ARC
  5
197
330
22
100
AcDbEntity
  8
255
  6
Continuous
 62
     7
100
AcDbCircle
 10
2378.350094963133
 20
1552.917320841765
 30
0.0
 40
6.561003833999999
100
AcDbArc
 50
104.659493000001
 51
210.3816380000055
  0
LINE
  5
198
330
22
100
AcDbEntity
  8
255
  6
Continuous
 62
     7
100
AcDbLine
 10
2372.690074355132
 20
1549.599046035766
 30
0.0
 11
2384.688874355132
 21
1528.934446035765
 31
0.0
  0
ARC
  5
199
330
22
100
AcDbEntity
  8
255
  6
Continuous
 62
     7
100
AcDbCircle
 10
2393.795146970132
 20
1498.618744575765
 30
0.0
 40
31.653847632
100
AcDbArc
 50
88.98734000000811
 51
106.719287000009
  0
ARC
  5
19A
330
22
100
AcDbEntity
  8
255
  6
Continuous
 62
     7
100
AcDbCircle
 10
2394.621204356133
 20
1499.185257918765
 30
0.0
 40
31.61170518
100
AcDbArc
 50
133.0959789999998
 51
150.8099360000024
  0
LINE
  5
19B
330
22
100
AcDbEntity
  8
255
  6
Continuous
 62
     7
100
AcDbLine
 10
2373.023374355133
 20
1522.268446035765
 30
0.0
 11
2361.024574355133
 21
1542.933046035765
 31
0.0
  0
ARC
  5
19C
330
22
100
AcDbEntity
  8
255
  6
Continuous
 62
     7
100
AcDbCircle
 10
2355.182171987133
 20
1539.573522021765
 30
0.0
 40
6.739442654999999
100
AcDbArc
 50
29.899938000004
 51
131.7753689999996
  0
ARC
  5
19D
330
22
100
AcDbEntity
  8
255
  6
Continuous
 62
     7
100
AcDbCircle
 10
2394.319591187133
 20
1498.543822068765
 30
0.0
 40
63.43872882600001
100
AcDbArc
 50
133.4489430000109
 51
166.2682860000026
  0
ARC
  5
19E
330
22
100
AcDbEntity
  8
255
  6
Continuous
 62
     7
100
AcDbCircle
 10
2339.279382425132
 20
1512.038242491765
 30
0.0
 40
6.768576408000001
100
AcDbArc
 50
166.6365490000047
 51
270.6830669999874
  0
LINE
  5
19F
330
22
100
AcDbEntity
  8
255
  6
Continuous
 62
     7
100
AcDbLine
 10
2339.360074355132
 20
1505.270146035765
 30
0.0
 11
2363.357674355133
 21
1505.270146035765
 31
0.0
  0
ARC
  5
1A0
330
22
100
AcDbEntity
  8
255
  6
Continuous
 62
     7
100
AcDbCircle
 10
2394.312231923132
 20
1498.495793538765
 30
0.0
 40
31.687167633
100
AcDbArc
 50
149.4489910000057
 51
167.6555360000004
  0
ARC
  5
1A1
330
22
100
AcDbEntity
  8
255
  6
Continuous
 62
     7
100
AcDbCircle
 10
2394.051561326133
 20
1499.196673443765
 30
0.0
 40
31.54046230500001
100
AcDbArc
 50
193.3049510000035
 51
211.0277409999945
  0
LINE
  5
1A2
330
22
100
AcDbEntity
  8
255
  6
Continuous
 62
     7
100
AcDbLine
 10
2363.357674355133
 20
1491.938146035765
 30
0.0
 11
2339.360074355132
 21
1491.938146035765
 31
0.0
  0
ARC
  5
1A3
330
22
100
AcDbEntity
  8
255
  6
Continuous
 62
     7
100
AcDbCircle
 10
2339.279382425132
 20
1485.170049579765
 30
0.0
 40
6.768576408000001
100
AcDbArc
 50
89.31693299998654
 51
193.3634509999952
  0
ARC
  5
1A4
330
22
100
AcDbEntity
  8
255
  6
Continuous
 62
     7
100
AcDbCircle
 10
2393.999146568132
 20
1498.975175595765
 30
0.0
 40
63.20232580200001
100
AcDbArc
 50
194.0742920000018
 51
226.7478700000041
  0
ARC
  5
1A5
330
22
100
AcDbEntity
  8
255
  6
Continuous
 62
     7
100
AcDbCircle
 10
2355.342609275132
 20
1457.606209572765
 30
0.0
 40
6.586354632
100
AcDbArc
 50
225.0850700000018
 51
329.6196889999985
  0
LINE
  5
1A6
330
22
100
AcDbEntity
  8
255
  6
Continuous
 62
     7
100
AcDbLine
 10
2361.024574355133
 20
1454.275246035765
 30
0.0
 11
2373.023374355133
 21
1475.273146035765
 31
0.0
  0
ARC
  5
1A7
330
22
100
AcDbEntity
  8
255
  6
Continuous
 62
     7
100
AcDbCircle
 10
2394.621204356133
 20
1498.356334152765
 30
0.0
 40
31.61170518
100
AcDbArc
 50
209.1900639999975
 51
226.9040210000002
  0
ARC
  5
1A8
330
22
100
AcDbEntity
  8
255
  6
Continuous
 62
     7
100
AcDbCircle
 10
2394.833029838133
 20
1498.579461837766
 30
0.0
 40
31.64243544
100
AcDbArc
 50
251.3015690000068
 51
269.1336170000077
  0
LINE
  5
1A9
330
22
100
AcDbEntity
  8
255
  6
Continuous
 62
     7
100
AcDbLine
 10
2384.688874355132
 20
1468.607146035765
 30
0.0
 11
2372.690074355132
 21
1447.609246035765
 31
0.0
  0
ARC
  5
1AA
330
22
100
AcDbEntity
  8
255
  6
Continuous
 62
     7
100
AcDbCircle
 10
2378.350094963133
 20
1444.290971229765
 30
0.0
 40
6.561003833999999
100
AcDbArc
 50
149.6183619999944
 51
255.340506999999
  0
ARC
  5
1AB
330
22
100
AcDbEntity
  8
255
  6
Continuous
 62
     7
100
AcDbCircle
 10
2394.521224355132
 20
1498.604356014765
 30
0.0
 40
63.22735329900001
100
AcDbArc
 50
253.6190360000066
 51
286.3809639999934
  0
ARC
  5
1AC
330
22
100
AcDbEntity
  8
255
  6
Continuous
 62
     7
100
AcDbCircle
 10
2410.337649221133
 20
1444.236086718765
 30
0.0
 40
6.607329201
100
AcDbArc
 50
287.7571659999992
 51
30.69832399999187
  0
LINE
  5
1AD
330
22
100
AcDbEntity
  8
255
  6
Continuous
 62
     7
100
AcDbLine
 10
2416.019074355133
 20
1447.609246035765
 30
0.0
 11
2404.020274355133
 21
1468.607146035765
 31
0.0
  0
ARC
  5
1AE
330
22
100
AcDbEntity
  8
255
  6
Continuous
 62
     7
100
AcDbCircle
 10
2393.876118872132
 20
1498.579461837766
 30
0.0
 40
31.64243544
100
AcDbArc
 50
270.8663829999923
 51
288.6984309999931
  0
ARC
  5
1AF
330
22
100
AcDbEntity
  8
255
  6
Continuous
 62
     7
100
AcDbCircle
 10
2394.751791296133
 20
1499.015068272765
 30
0.0
 40
31.65296772
100
AcDbArc
 50
311.4036179999985
 51
329.4770470000025
  0
LINE
  5
1B0
330
22
100
AcDbEntity
  8
255
  6
Continuous
 62
     7
100
AcDbLine
 10
2415.685774355133
 20
1475.273146035765
 30
0.0
 11
2427.684574355133
 21
1454.275246035765
 31
0.0
  0
ARC
  5
1B1
330
22
100
AcDbEntity
  8
255
  6
Continuous
 62
     7
100
AcDbCircle
 10
2433.366539435132
 20
1457.606209572765
 30
0.0
 40
6.586354632
100
AcDbArc
 50
210.3803110000015
 51
314.9149299999982
  0
ARC
  5
1B2
330
22
100
AcDbEntity
  8
255
  6
Continuous
 62
     7
100
AcDbCircle
 10
2394.710002142133
 20
1498.975175595765
 30
0.0
 40
63.20232580200001
100
AcDbArc
 50
313.2521299999959
 51
345.9257079999982
  0
ARC
  5
1B3
330
22
100
AcDbEntity
  8
255
  6
Continuous
 62
     7
100
AcDbCircle
 10
2449.429766285133
 20
1485.170049579765
 30
0.0
 40
6.768576408000001
100
AcDbArc
 50
346.6365490000047
 51
90.68306700001347
  0
LINE
  5
1B4
330
22
100
AcDbEntity
  8
255
  6
Continuous
 62
     7
100
AcDbLine
 10
2449.349074355132
 20
1491.938146035765
 30
0.0
 11
2425.351474355132
 21
1491.938146035765
 31
0.0
  0
ARC
  5
1B5
330
22
100
AcDbEntity
  8
255
  6
Continuous
 62
     7
100
AcDbCircle
 10
2394.364613351132
 20
1498.297989987765
 30
0.0
 40
31.63278640500001
100
AcDbArc
 50
330.9522250000027
 51
348.4015009999964
  0
CIRCLE
  5
1B6
330
22
100
AcDbEntity
  8
255
  6
Continuous
 62
     7
100
AcDbCircle
 10
2394.354574355133
 20
1498.604146035765
 30
0.0
 40
18.3315
  0
ARC
  5
1B7
330
22
100
AcDbEntity
  8
255
  6
Continuous
 62
     7
100
AcDbCircle
 10
2394.354574355133
 20
1498.604146035765
 30
0.0
 40
84.9915
100
AcDbArc
 50
270.0
 51
180.0
  0
ARC
  5
1B8
330
22
100
AcDbEntity
  8
255
  6
Continuous
 62
     7
100
AcDbCircle
 10
2394.581405003133
 20
1498.648588257765
 30
0.0
 40
85.036242192
100
AcDbArc
 50
224.9131030000082
 51
269.8471660000072
  0
ARC
  5
1B9
330
22
100
AcDbEntity
  8
255
  6
Continuous
 62
     7
100
AcDbCircle
 10
2394.399016577132
 20
1498.830976683765
 30
0.0
 40
85.036242192
100
AcDbArc
 50
180.1528330000009
 51
225.086895999996
  0
ARC
  5
1BA
330
22
100
AcDbEntity
  8
255
  6
Continuous
 62
     7
100
AcDbCircle
 10
2414.068900796656
 20
630.1457628677639
 30
0.0
 40
31.909882026
100
AcDbArc
 50
10.72098099999715
 51
28.58666699999989
  0
LINE
  5
1BB
330
22
100
AcDbEntity
  8
255
  6
Continuous
 62
     7
100
AcDbLine
 10
2445.421788527656
 20
636.0818458667638
 30
0.0
 11
2479.751688527656
 21
636.0818458667638
 31
0.0
  0
ARC
  5
1BC
330
22
100
AcDbEntity
  8
255
  6
Continuous
 62
     7
100
AcDbCircle
 10
2479.806063089656
 20
642.8136326207638
 30
0.0
 40
6.732006732
100
AcDbArc
 50
269.5372050000008
 51
10.85165300000741
  0
ARC
  5
1BD
330
22
100
AcDbEntity
  8
255
  6
Continuous
 62
     7
100
AcDbCircle
 10
2414.455312151656
 20
629.3632077977638
 30
0.0
 40
73.45201406400001
100
AcDbArc
 50
11.5588029999986
 51
48.54102399999725
  0
ARC
  5
1BE
330
22
100
AcDbEntity
  8
255
  6
Continuous
 62
     7
100
AcDbCircle
 10
2458.780819157656
 20
679.415315419764
 30
0.0
 40
6.594760457999999
100
AcDbArc
 50
49.23765999999905
 51
149.686985000003
  0
LINE
  5
1BF
330
22
100
AcDbEntity
  8
255
  6
Continuous
 62
     7
100
AcDbLine
 10
2453.087688527656
 20
682.7438458667638
 30
0.0
 11
2435.756088527656
 21
653.0801458667635
 31
0.0
  0
ARC
  5
1C0
330
22
100
AcDbEntity
  8
255
  6
Continuous
 62
     7
100
AcDbCircle
 10
2414.658281852656
 20
629.2028904977639
 30
0.0
 40
31.862843397
100
AcDbArc
 50
30.5829699999977
 51
48.53636599999592
  0
ARC
  5
1C1
330
22
100
AcDbEntity
  8
255
  6
Continuous
 62
     7
100
AcDbCircle
 10
2415.293761631656
 20
629.4330408137637
 30
0.0
 40
31.65823052700001
100
AcDbArc
 50
73.23801000000971
 51
91.57270299999607
  0
LINE
  5
1C2
330
22
100
AcDbEntity
  8
255
  6
Continuous
 62
     7
100
AcDbLine
 10
2424.423888527656
 20
659.7461458667638
 30
0.0
 11
2441.422188527656
 21
689.409845866764
 31
0.0
  0
ARC
  5
1C3
330
22
100
AcDbEntity
  8
255
  6
Continuous
 62
     7
100
AcDbCircle
 10
2435.740763393656
 20
692.7830051837636
 30
0.0
 40
6.607329201
100
AcDbArc
 50
329.3016760000015
 51
72.24283400000079
  0
ARC
  5
1C4
330
22
100
AcDbEntity
  8
255
  6
Continuous
 62
     7
100
AcDbCircle
 10
2414.591538527656
 20
629.4156658847635
 30
0.0
 40
73.41039489300001
100
AcDbArc
 50
71.60622699999897
 51
108.393773999991
  0
ARC
  5
1C5
330
22
100
AcDbEntity
  8
255
  6
Continuous
 62
     7
100
AcDbCircle
 10
2393.442313661656
 20
692.7830051837636
 30
0.0
 40
6.607329201
100
AcDbArc
 50
107.7571659999992
 51
210.6983239999985
  0
LINE
  5
1C6
330
22
100
AcDbEntity
  8
255
  6
Continuous
 62
     7
100
AcDbLine
 10
2387.760888527656
 20
689.409845866764
 30
0.0
 11
2404.759188527656
 21
659.7461458667638
 31
0.0
  0
ARC
  5
1C7
330
22
100
AcDbEntity
  8
255
  6
Continuous
 62
     7
100
AcDbCircle
 10
2413.865461142656
 20
629.4304444067636
 30
0.0
 40
31.653847632
100
AcDbArc
 50
88.98734000000811
 51
106.7192870000104
  0
ARC
  5
1C8
330
22
100
AcDbEntity
  8
255
  6
Continuous
 62
     7
100
AcDbCircle
 10
2414.360971586656
 20
629.3382236297641
 30
0.0
 40
31.65296772
100
AcDbArc
 50
131.4036179999979
 51
149.4770470000095
  0
LINE
  5
1C9
330
22
100
AcDbEntity
  8
255
  6
Continuous
 62
     7
100
AcDbLine
 10
2393.426988527656
 20
653.0801458667635
 30
0.0
 11
2376.095388527656
 21
682.7438458667638
 31
0.0
  0
ARC
  5
1CA
330
22
100
AcDbEntity
  8
255
  6
Continuous
 62
     7
100
AcDbCircle
 10
2370.402257897656
 20
679.415315419764
 30
0.0
 40
6.594760457999999
100
AcDbArc
 50
30.31301600000898
 51
130.7623409999959
  0
ARC
  5
1CB
330
22
100
AcDbEntity
  8
255
  6
Continuous
 62
     7
100
AcDbCircle
 10
2414.478083207656
 20
629.5076500187642
 30
0.0
 40
73.178511417
100
AcDbArc
 50
131.3873470000003
 51
168.5128249999998
  0
ARC
  5
1CC
330
22
100
AcDbEntity
  8
255
  6
Continuous
 62
     7
100
AcDbCircle
 10
2349.176400695656
 20
642.6501356387636
 30
0.0
 40
6.568756392
100
AcDbArc
 50
167.4180619999984
 51
269.3169080000052
  0
LINE
  5
1CD
330
22
100
AcDbEntity
  8
255
  6
Continuous
 62
     7
100
AcDbLine
 10
2349.098088527656
 20
636.0818458667638
 30
0.0
 11
2383.761288527656
 21
636.0818458667638
 31
0.0
  0
ARC
  5
1CE
330
22
100
AcDbEntity
  8
255
  6
Continuous
 62
     7
100
AcDbCircle
 10
2414.713213025656
 20
630.2889652127637
 30
0.0
 40
31.489347417
100
AcDbArc
 50
151.2930400000081
 51
169.3993119999983
  0
ARC
  5
1CF
330
22
100
AcDbEntity
  8
255
  6
Continuous
 62
     7
100
AcDbCircle
 10
2414.455152167656
 20
629.0011706717635
 30
0.0
 40
31.32399062100001
100
AcDbArc
 50
191.5118090000025
 51
209.1344640000004
  0
LINE
  5
1D0
330
22
100
AcDbEntity
  8
255
  6
Continuous
 62
     7
100
AcDbLine
 10
2383.761288527656
 20
622.7498458667642
 30
0.0
 11
2349.098088527656
 21
622.7498458667642
 31
0.0
  0
ARC
  5
1D1
330
22
100
AcDbEntity
  8
255
  6
Continuous
 62
     7
100
AcDbCircle
 10
2349.176400695656
 20
616.1815560947641
 30
0.0
 40
6.568756392
100
AcDbArc
 50
90.68309100000702
 51
192.5819370000041
  0
ARC
  5
1D2
330
22
100
AcDbEntity
  8
255
  6
Continuous
 62
     7
100
AcDbCircle
 10
2414.424888527656
 20
629.7491458667637
 30
0.0
 40
73.21228803900002
100
AcDbArc
 50
191.8214879999963
 51
228.6913860000107
  0
ARC
  5
1D3
330
22
100
AcDbEntity
  8
255
  6
Continuous
 62
     7
100
AcDbCircle
 10
2370.402257897656
 20
579.7496763137632
 30
0.0
 40
6.594760457999999
100
AcDbArc
 50
229.2376599999991
 51
329.6869850000031
  0
LINE
  5
1D4
330
22
100
AcDbEntity
  8
255
  6
Continuous
 62
     7
100
AcDbLine
 10
2376.095388527656
 20
576.4211458667637
 30
0.0
 11
2393.426988527656
 21
606.0848458667638
 31
0.0
  0
ARC
  5
1D5
330
22
100
AcDbEntity
  8
255
  6
Continuous
 62
     7
100
AcDbCircle
 10
2414.162894729656
 20
629.6631378017637
 30
0.0
 40
31.39925976
100
AcDbArc
 50
210.4493170000019
 51
228.6700189999926
  0
ARC
  5
1D6
330
22
100
AcDbEntity
  8
255
  6
Continuous
 62
     7
100
AcDbCircle
 10
2414.903344010656
 20
629.3911616687635
 30
0.0
 40
31.64243544
100
AcDbArc
 50
251.3015690000066
 51
269.1336170000077
  0
LINE
  5
1D7
330
22
100
AcDbEntity
  8
255
  6
Continuous
 62
     7
100
AcDbLine
 10
2404.759188527656
 20
599.4188458667638
 30
0.0
 11
2387.760888527656
 21
569.7551458667635
 31
0.0
  0
ARC
  5
1D8
330
22
100
AcDbEntity
  8
255
  6
Continuous
 62
     7
100
AcDbCircle
 10
2393.442313661656
 20
566.3819865497637
 30
0.0
 40
6.607329201
100
AcDbArc
 50
149.3016760000014
 51
252.2428340000008
  0
ARC
  5
1D9
330
22
100
AcDbEntity
  8
255
  6
Continuous
 62
     7
100
AcDbCircle
 10
2414.591538527656
 20
629.4160258487639
 30
0.0
 40
73.094199849
100
AcDbArc
 50
251.5237870000061
 51
288.4762129999939
  0
ARC
  5
1DA
330
22
100
AcDbEntity
  8
255
  6
Continuous
 62
     7
100
AcDbCircle
 10
2435.740763393656
 20
566.3819865497637
 30
0.0
 40
6.607329201
100
AcDbArc
 50
287.7571659999992
 51
30.69832399999854
  0
LINE
  5
1DB
330
22
100
AcDbEntity
  8
255
  6
Continuous
 62
     7
100
AcDbLine
 10
2441.422188527656
 20
569.7551458667635
 30
0.0
 11
2424.423888527656
 21
599.4188458667638
 31
0.0
  0
ARC
  5
1DC
330
22
100
AcDbEntity
  8
255
  6
Continuous
 62
     7
100
AcDbCircle
 10
2414.289718712656
 20
629.3936147567635
 30
0.0
 40
31.641555528
100
AcDbArc
 50
270.2447630000078
 51
288.6798820000034
  0
ARC
  5
1DD
330
22
100
AcDbEntity
  8
255
  6
Continuous
 62
     7
100
AcDbCircle
 10
2414.822105468656
 20
629.8267681037637
 30
0.0
 40
31.65296772
100
AcDbArc
 50
311.4036179999979
 51
329.4770470000095
  0
LINE
  5
1DE
330
22
100
AcDbEntity
  8
255
  6
Continuous
 62
     7
100
AcDbLine
 10
2435.756088527656
 20
606.0848458667638
 30
0.0
 11
2453.087688527656
 21
576.4211458667637
 31
0.0
  0
ARC
  5
1DF
330
22
100
AcDbEntity
  8
255
  6
Continuous
 62
     7
100
AcDbCircle
 10
2458.780819157656
 20
579.7496763137632
 30
0.0
 40
6.594760457999999
100
AcDbArc
 50
210.313016000009
 51
310.7623409999959
  0
ARC
  5
1E0
330
22
100
AcDbEntity
  8
255
  6
Continuous
 62
     7
100
AcDbCircle
 10
2414.758188527656
 20
629.7491458667637
 30
0.0
 40
73.21228803900002
100
AcDbArc
 50
311.3086139999893
 51
348.1785120000037
  0
ARC
  5
1E1
330
22
100
AcDbEntity
  8
255
  6
Continuous
 62
     7
100
AcDbCircle
 10
2479.806063089656
 20
616.0180591127637
 30
0.0
 40
6.732006732
100
AcDbArc
 50
349.1483469999926
 51
90.46279499999926
  0
LINE
  5
1E2
330
22
100
AcDbEntity
  8
255
  6
Continuous
 62
     7
100
AcDbLine
 10
2479.751688527656
 20
622.7498458667642
 30
0.0
 11
2445.421788527656
 21
622.7498458667642
 31
0.0
  0
ARC
  5
1E3
330
22
100
AcDbEntity
  8
255
  6
Continuous
 62
     7
100
AcDbCircle
 10
2414.434927523656
 20
629.1096898187641
 30
0.0
 40
31.63278640500001
100
AcDbArc
 50
330.9522250000041
 51
348.401501000003
  0
CIRCLE
  5
1E4
330
22
100
AcDbEntity
  8
255
  6
Continuous
 62
     7
100
AcDbCircle
 10
2414.424888527656
 20
629.4158458667639
 30
0.0
 40
18.3315
  0
ARC
  5
1E5
330
22
100
AcDbEntity
  8
255
  6
Continuous
 62
     7
100
AcDbCircle
 10
2414.424888527656
 20
629.4158458667639
 30
0.0
 40
94.99050000000002
100
AcDbArc
 50
270.0
 51
180.0
  0
ARC
  5
1E6
330
22
100
AcDbEntity
  8
255
  6
Continuous
 62
     7
100
AcDbCircle
 10
2414.773010378656
 20
629.4096531527639
 30
0.0
 40
94.98494388900002
100
AcDbArc
 50
224.8488730000071
 51
269.7900089999978
  0
ARC
  5
1E7
330
22
100
AcDbEntity
  8
255
  6
Continuous
 62
     7
100
AcDbCircle
 10
2414.418695813656
 20
629.7639677177637
 30
0.0
 40
94.98494388900002
100
AcDbArc
 50
180.2099920000038
 51
225.1511280000031
  0
ARC
  5
1E8
330
22
100
AcDbEntity
  8
255
  6
Continuous
 62
     7
100
AcDbCircle
 10
2646.443553236184
 20
587.5967927374396
 30
0.0
 40
31.687167633
100
AcDbArc
 50
12.3444639999996
 51
30.55100899999985
  0
LINE
  5
1E9
330
22
100
AcDbEntity
  8
255
  6
Continuous
 62
     7
100
AcDbLine
 10
2677.398110804183
 20
594.3711452344394
 30
0.0
 11
2711.728010804183
 21
594.3711452344394
 31
0.0
  0
ARC
  5
1EA
330
22
100
AcDbEntity
  8
255
  6
Continuous
 62
     7
100
AcDbCircle
 10
2711.649698636183
 20
600.939435006439
 30
0.0
 40
6.568756392
100
AcDbArc
 50
270.683091000007
 51
12.58193700000472
  0
ARC
  5
1EB
330
22
100
AcDbEntity
  8
255
  6
Continuous
 62
     7
100
AcDbCircle
 10
2646.067910804183
 20
588.0384452344389
 30
0.0
 40
73.405495383
100
AcDbArc
 50
11.25891199999614
 51
48.12881000000286
  0
ARC
  5
1EC
330
22
100
AcDbEntity
  8
255
  6
Continuous
 62
     7
100
AcDbCircle
 10
2690.564690681183
 20
637.7258593294396
 30
0.0
 40
6.706222644000001
100
AcDbArc
 50
47.87361699999459
 51
150.4510759999934
  0
LINE
  5
1ED
330
22
100
AcDbEntity
  8
255
  6
Continuous
 62
     7
100
AcDbLine
 10
2684.730710804184
 20
641.0331452344392
 30
0.0
 11
2667.399110804183
 21
611.3694452344391
 31
0.0
  0
ARC
  5
1EE
330
22
100
AcDbEntity
  8
255
  6
Continuous
 62
     7
100
AcDbCircle
 10
2646.465127745183
 20
587.6275229974392
 30
0.0
 40
31.65296772
100
AcDbArc
 50
30.52295299999187
 51
48.59638200000154
  0
ARC
  5
1EF
330
22
100
AcDbEntity
  8
255
  6
Continuous
 62
     7
100
AcDbCircle
 10
2646.960638189183
 20
587.7197437744394
 30
0.0
 40
31.653847632
100
AcDbArc
 50
73.2807129999891
 51
91.0126599999919
  0
LINE
  5
1F0
330
22
100
AcDbEntity
  8
255
  6
Continuous
 62
     7
100
AcDbLine
 10
2656.066910804183
 20
618.035445234439
 30
0.0
 11
2673.065210804183
 21
647.6991452344391
 31
0.0
  0
ARC
  5
1F1
330
22
100
AcDbEntity
  8
255
  6
Continuous
 62
     7
100
AcDbCircle
 10
2667.383785670183
 20
651.0723045514394
 30
0.0
 40
6.607329201
100
AcDbArc
 50
329.3016760000025
 51
72.24283400000079
  0
ARC
  5
1F2
330
22
100
AcDbEntity
  8
255
  6
Continuous
 62
     7
100
AcDbCircle
 10
2646.234560804183
 20
587.7049652524392
 30
0.0
 40
73.41039489300001
100
AcDbArc
 50
71.60622699999819
 51
108.393773999991
  0
ARC
  5
1F3
330
22
100
AcDbEntity
  8
255
  6
Continuous
 62
     7
100
AcDbCircle
 10
2625.085335938183
 20
651.0723045514394
 30
0.0
 40
6.607329201
100
AcDbArc
 50
107.7571659999992
 51
210.6983239999975
  0
LINE
  5
1F4
330
22
100
AcDbEntity
  8
255
  6
Continuous
 62
     7
100
AcDbLine
 10
2619.403910804184
 20
647.6991452344391
 30
0.0
 11
2636.735510804183
 21
618.035445234439
 31
0.0
  0
ARC
  5
1F5
330
22
100
AcDbEntity
  8
255
  6
Continuous
 62
     7
100
AcDbCircle
 10
2645.841783419184
 20
587.7197437744394
 30
0.0
 40
31.653847632
100
AcDbArc
 50
88.98734000000811
 51
106.7192870000109
  0
ARC
  5
1F6
330
22
100
AcDbEntity
  8
255
  6
Continuous
 62
     7
100
AcDbCircle
 10
2646.167817479183
 20
587.4921898654393
 30
0.0
 40
31.862843397
100
AcDbArc
 50
131.4636340000025
 51
149.4170300000021
  0
LINE
  5
1F7
330
22
100
AcDbEntity
  8
255
  6
Continuous
 62
     7
100
AcDbLine
 10
2625.070010804183
 20
611.3694452344391
 30
0.0
 11
2607.738410804183
 21
641.0331452344392
 31
0.0
  0
ARC
  5
1F8
330
22
100
AcDbEntity
  8
255
  6
Continuous
 62
     7
100
AcDbCircle
 10
2602.045280174183
 20
637.7046147874393
 30
0.0
 40
6.594760457999999
100
AcDbArc
 50
30.31301600000757
 51
130.7623409999949
  0
ARC
  5
1F9
330
22
100
AcDbEntity
  8
255
  6
Continuous
 62
     7
100
AcDbCircle
 10
2646.370787180183
 20
587.6525071654393
 30
0.0
 40
73.45201406400001
100
AcDbArc
 50
131.4589760000049
 51
168.4411970000011
  0
ARC
  5
1FA
330
22
100
AcDbEntity
  8
255
  6
Continuous
 62
     7
100
AcDbCircle
 10
2581.020036242183
 20
601.1029319884394
 30
0.0
 40
6.732006732
100
AcDbArc
 50
169.148346999993
 51
270.4627949999992
  0
LINE
  5
1FB
330
22
100
AcDbEntity
  8
255
  6
Continuous
 62
     7
100
AcDbLine
 10
2581.074410804183
 20
594.3711452344394
 30
0.0
 11
2615.404310804184
 21
594.3711452344394
 31
0.0
  0
ARC
  5
1FC
330
22
100
AcDbEntity
  8
255
  6
Continuous
 62
     7
100
AcDbCircle
 10
2646.757198535184
 20
588.4350622354393
 30
0.0
 40
31.909882026
100
AcDbArc
 50
151.4133329999998
 51
169.2790190000024
  0
ARC
  5
1FD
330
22
100
AcDbEntity
  8
255
  6
Continuous
 62
     7
100
AcDbCircle
 10
2646.391171808183
 20
587.3989891864393
 30
0.0
 40
31.63278640500001
100
AcDbArc
 50
191.5984989999972
 51
209.0477749999973
  0
LINE
  5
1FE
330
22
100
AcDbEntity
  8
255
  6
Continuous
 62
     7
100
AcDbLine
 10
2615.404310804184
 20
581.0391452344393
 30
0.0
 11
2581.074410804183
 21
581.0391452344393
 31
0.0
  0
ARC
  5
1FF
330
22
100
AcDbEntity
  8
255
  6
Continuous
 62
     7
100
AcDbCircle
 10
2581.020036242183
 20
574.3073584804395
 30
0.0
 40
6.732006732
100
AcDbArc
 50
89.53720500000075
 51
190.851653000007
  0
ARC
  5
200
330
22
100
AcDbEntity
  8
255
  6
Continuous
 62
     7
100
AcDbCircle
 10
2646.370787180183
 20
587.7577833034393
 30
0.0
 40
73.45201406400001
100
AcDbArc
 50
191.5588029999988
 51
228.5410239999951
  0
ARC
  5
201
330
22
100
AcDbEntity
  8
255
  6
Continuous
 62
     7
100
AcDbCircle
 10
2602.045280174183
 20
537.705675681439
 30
0.0
 40
6.594760457999999
100
AcDbArc
 50
229.2376599999979
 51
329.6869850000029
  0
LINE
  5
202
330
22
100
AcDbEntity
  8
255
  6
Continuous
 62
     7
100
AcDbLine
 10
2607.738410804183
 20
534.3771452344392
 30
0.0
 11
2625.070010804183
 21
564.3741452344393
 31
0.0
  0
ARC
  5
203
330
22
100
AcDbEntity
  8
255
  6
Continuous
 62
     7
100
AcDbCircle
 10
2646.003993863183
 20
588.1160674714394
 30
0.0
 40
31.65296772
100
AcDbArc
 50
210.5229529999919
 51
228.5963820000016
  0
ARC
  5
204
330
22
100
AcDbEntity
  8
255
  6
Continuous
 62
     7
100
AcDbCircle
 10
2646.879666287183
 20
587.6804610364392
 30
0.0
 40
31.64243544
100
AcDbArc
 50
251.3015690000048
 51
269.1336170000077
  0
LINE
  5
205
330
22
100
AcDbEntity
  8
255
  6
Continuous
 62
     7
100
AcDbLine
 10
2636.735510804183
 20
557.7081452344391
 30
0.0
 11
2619.403910804184
 21
527.7111452344392
 31
0.0
  0
ARC
  5
206
330
22
100
AcDbEntity
  8
255
  6
Continuous
 62
     7
100
AcDbCircle
 10
2625.085335938183
 20
524.3379859174394
 30
0.0
 40
6.607329201
100
AcDbArc
 50
149.3016760000025
 51
252.2428340000008
  0
ARC
  5
207
330
22
100
AcDbEntity
  8
255
  6
Continuous
 62
     7
100
AcDbCircle
 10
2646.234560804183
 20
587.7053252164396
 30
0.0
 40
73.41039489300001
100
AcDbArc
 50
251.6062269999982
 51
288.3937739999911
  0
ARC
  5
208
330
22
100
AcDbEntity
  8
255
  6
Continuous
 62
     7
100
AcDbCircle
 10
2667.383785670183
 20
524.3379859174394
 30
0.0
 40
6.607329201
100
AcDbArc
 50
287.7571659999992
 51
30.69832399999747
  0
LINE
  5
209
330
22
100
AcDbEntity
  8
255
  6
Continuous
 62
     7
100
AcDbLine
 10
2673.065210804183
 20
527.7111452344392
 30
0.0
 11
2656.066910804183
 21
557.7081452344391
 31
0.0
  0
ARC
  5
20A
330
22
100
AcDbEntity
  8
255
  6
Continuous
 62
     7
100
AcDbCircle
 10
2645.922755321183
 20
587.6804610364392
 30
0.0
 40
31.64243544
100
AcDbArc
 50
270.8663829999923
 51
288.6984309999952
  0
ARC
  5
20B
330
22
100
AcDbEntity
  8
255
  6
Continuous
 62
     7
100
AcDbCircle
 10
2646.663204602183
 20
587.9524371694394
 30
0.0
 40
31.39925976
100
AcDbArc
 50
311.3299810000058
 51
329.5506829999971
  0
LINE
  5
20C
330
22
100
AcDbEntity
  8
255
  6
Continuous
 62
     7
100
AcDbLine
 10
2667.399110804183
 20
564.3741452344393
 30
0.0
 11
2684.730710804184
 21
534.3771452344392
 31
0.0
  0
ARC
  5
20D
330
22
100
AcDbEntity
  8
255
  6
Continuous
 62
     7
100
AcDbCircle
 10
2690.573113172183
 20
537.7366692484395
 30
0.0
 40
6.739442654999999
100
AcDbArc
 50
209.8999379999983
 51
311.7753689999996
  0
ARC
  5
20E
330
22
100
AcDbEntity
  8
255
  6
Continuous
 62
     7
100
AcDbCircle
 10
2646.067910804183
 20
587.3718452344394
 30
0.0
 40
73.405495383
100
AcDbArc
 50
311.8711899999971
 51
348.7410880000039
  0
ARC
  5
20F
330
22
100
AcDbEntity
  8
255
  6
Continuous
 62
     7
100
AcDbCircle
 10
2711.649698636183
 20
574.4708554624394
 30
0.0
 40
6.568756392
100
AcDbArc
 50
347.4180619999989
 51
89.31690800000522
  0
LINE
  5
210
330
22
100
AcDbEntity
  8
255
  6
Continuous
 62
     7
100
AcDbLine
 10
2711.728010804183
 20
581.0391452344393
 30
0.0
 11
2677.398110804183
 21
581.0391452344393
 31
0.0
  0
ARC
  5
211
330
22
100
AcDbEntity
  8
255
  6
Continuous
 62
     7
100
AcDbCircle
 10
2646.704223833183
 20
588.2976726424392
 30
0.0
 40
31.54046230500001
100
AcDbArc
 50
328.9722590000055
 51
346.6950489999965
  0
CIRCLE
  5
212
330
22
100
AcDbEntity
  8
255
  6
Continuous
 62
     7
100
AcDbCircle
 10
2646.401210804183
 20
587.7051452344391
 30
0.0
 40
18.3315
  0
CIRCLE
  5
213
330
22
100
AcDbEntity
  8
255
  6
Continuous
 62
     7
100
AcDbCircle
 10
2646.401210804183
 20
587.7051452344391
 30
0.0
 40
94.99050000000002
  0
ARC
  5
214
330
22
100
AcDbEntity
  8
255
  6
Continuous
 62
     7
100
AcDbCircle
 10
2562.294314876636
 20
780.1402190985148
 30
0.0
 40
31.687167633
100
AcDbArc
 50
12.3444639999996
 51
30.55100899999424
  0
LINE
  5
215
330
22
100
AcDbEntity
  8
255
  6
Continuous
 62
     7
100
AcDbLine
 10
2593.248872444636
 20
786.9145715955144
 30
0.0
 11
2627.578772444636
 21
786.9145715955144
 31
0.0
  0
ARC
  5
216
330
22
100
AcDbEntity
  8
255
  6
Continuous
 62
     7
100
AcDbCircle
 10
2627.633147006636
 20
793.6463583495144
 30
0.0
 40
6.732006732
100
AcDbArc
 50
269.5372050000008
 51
10.85165300000064
  0
ARC
  5
217
330
22
100
AcDbEntity
  8
255
  6
Continuous
 62
     7
100
AcDbCircle
 10
2562.282396068637
 20
780.1959335265144
 30
0.0
 40
73.45201406400001
100
AcDbArc
 50
11.5588030000052
 51
48.54102399999505
  0
ARC
  5
218
330
22
100
AcDbEntity
  8
255
  6
Continuous
 62
     7
100
AcDbCircle
 10
2606.415452321636
 20
830.2692856905146
 30
0.0
 40
6.706222644000001
100
AcDbArc
 50
47.87361699999896
 51
150.4510759999934
  0
LINE
  5
219
330
22
100
AcDbEntity
  8
255
  6
Continuous
 62
     7
100
AcDbLine
 10
2600.581472444636
 20
833.5765715955142
 30
0.0
 11
2583.583172444636
 21
803.9128715955142
 31
0.0
  0
ARC
  5
21A
330
22
100
AcDbEntity
  8
255
  6
Continuous
 62
     7
100
AcDbCircle
 10
2561.823431969636
 20
780.7029694845144
 30
0.0
 40
31.81486819500001
100
AcDbArc
 50
29.24707300000346
 51
46.84701099999974
  0
ARC
  5
21B
330
22
100
AcDbEntity
  8
255
  6
Continuous
 62
     7
100
AcDbCircle
 10
2562.811399829636
 20
780.2631701355144
 30
0.0
 40
31.653847632
100
AcDbArc
 50
73.28071299999098
 51
91.0126599999919
  0
LINE
  5
21C
330
22
100
AcDbEntity
  8
255
  6
Continuous
 62
     7
100
AcDbLine
 10
2571.917672444636
 20
810.578871595514
 30
0.0
 11
2589.249272444637
 21
840.2425715955141
 31
0.0
  0
ARC
  5
21D
330
22
100
AcDbEntity
  8
255
  6
Continuous
 62
     7
100
AcDbCircle
 10
2583.276296468636
 20
843.5051419725143
 30
0.0
 40
6.805939338
100
AcDbArc
 50
331.3556530000028
 51
70.18885599999224
  0
ARC
  5
21E
330
22
100
AcDbEntity
  8
255
  6
Continuous
 62
     7
100
AcDbCircle
 10
2562.251972444637
 20
780.2485715955143
 30
0.0
 40
73.46297963400001
100
AcDbArc
 50
71.48284800000678
 51
108.5171519999932
  0
ARC
  5
21F
330
22
100
AcDbEntity
  8
255
  6
Continuous
 62
     7
100
AcDbCircle
 10
2541.227648420636
 20
843.5051419725143
 30
0.0
 40
6.805939338
100
AcDbArc
 50
109.8111440000077
 51
208.6443469999972
  0
LINE
  5
220
330
22
100
AcDbEntity
  8
255
  6
Continuous
 62
     7
100
AcDbLine
 10
2535.254672444636
 20
840.2425715955141
 30
0.0
 11
2552.586272444637
 21
810.578871595514
 31
0.0
  0
ARC
  5
221
330
22
100
AcDbEntity
  8
255
  6
Continuous
 62
     7
100
AcDbCircle
 10
2561.692545059637
 20
780.2631701355144
 30
0.0
 40
31.653847632
100
AcDbArc
 50
88.98734000000811
 51
106.719287000009
  0
ARC
  5
222
330
22
100
AcDbEntity
  8
255
  6
Continuous
 62
     7
100
AcDbCircle
 10
2562.518602445636
 20
780.8296834785144
 30
0.0
 40
31.61170518
100
AcDbArc
 50
133.0959789999998
 51
150.8099360000024
  0
LINE
  5
223
330
22
100
AcDbEntity
  8
255
  6
Continuous
 62
     7
100
AcDbLine
 10
2540.920772444636
 20
803.9128715955142
 30
0.0
 11
2523.922472444636
 21
833.5765715955142
 31
0.0
  0
ARC
  5
224
330
22
100
AcDbEntity
  8
255
  6
Continuous
 62
     7
100
AcDbCircle
 10
2518.080070076636
 20
830.2170475815145
 30
0.0
 40
6.739442654999999
100
AcDbArc
 50
29.899938000004
 51
131.7753689999996
  0
ARC
  5
225
330
22
100
AcDbEntity
  8
255
  6
Continuous
 62
     7
100
AcDbCircle
 10
2562.221548820636
 20
780.1959335265144
 30
0.0
 40
73.45201406400001
100
AcDbArc
 50
131.4589760000049
 51
168.4411969999947
  0
ARC
  5
226
330
22
100
AcDbEntity
  8
255
  6
Continuous
 62
     7
100
AcDbCircle
 10
2496.870797882637
 20
793.6463583495144
 30
0.0
 40
6.732006732
100
AcDbArc
 50
169.1483469999993
 51
270.4627949999992
  0
LINE
  5
227
330
22
100
AcDbEntity
  8
255
  6
Continuous
 62
     7
100
AcDbLine
 10
2496.925172444636
 20
786.9145715955144
 30
0.0
 11
2531.255072444637
 21
786.9145715955144
 31
0.0
  0
ARC
  5
228
330
22
100
AcDbEntity
  8
255
  6
Continuous
 62
     7
100
AcDbCircle
 10
2562.209630012637
 20
780.1402190985148
 30
0.0
 40
31.687167633
100
AcDbArc
 50
149.4489910000057
 51
167.6555360000004
  0
ARC
  5
229
330
22
100
AcDbEntity
  8
255
  6
Continuous
 62
     7
100
AcDbCircle
 10
2561.948959415636
 20
780.8410990035143
 30
0.0
 40
31.54046230500001
100
AcDbArc
 50
193.3049510000035
 51
211.0277409999945
  0
LINE
  5
22A
330
22
100
AcDbEntity
  8
255
  6
Continuous
 62
     7
100
AcDbLine
 10
2531.255072444637
 20
773.5825715955143
 30
0.0
 11
2496.925172444636
 21
773.5825715955143
 31
0.0
  0
ARC
  5
22B
330
22
100
AcDbEntity
  8
255
  6
Continuous
 62
     7
100
AcDbCircle
 10
2496.870797882637
 20
766.8507848415145
 30
0.0
 40
6.732006732
100
AcDbArc
 50
89.53720500000075
 51
190.8516530000006
  0
ARC
  5
22C
330
22
100
AcDbEntity
  8
255
  6
Continuous
 62
     7
100
AcDbCircle
 10
2562.221548820636
 20
780.3012096645143
 30
0.0
 40
73.45201406400001
100
AcDbArc
 50
191.5588030000052
 51
228.5410239999951
  0
ARC
  5
22D
330
22
100
AcDbEntity
  8
255
  6
Continuous
 62
     7
100
AcDbCircle
 10
2518.088492567637
 20
730.2278575005143
 30
0.0
 40
6.706222644000001
100
AcDbArc
 50
227.8736169999989
 51
330.4510759999934
  0
LINE
  5
22E
330
22
100
AcDbEntity
  8
255
  6
Continuous
 62
     7
100
AcDbLine
 10
2523.922472444636
 20
726.9205715955142
 30
0.0
 11
2540.920772444636
 21
756.9175715955143
 31
0.0
  0
ARC
  5
22F
330
22
100
AcDbEntity
  8
255
  6
Continuous
 62
     7
100
AcDbCircle
 10
2562.518602445636
 20
780.0007597125143
 30
0.0
 40
31.61170518
100
AcDbArc
 50
209.1900639999975
 51
226.9040210000002
  0
ARC
  5
230
330
22
100
AcDbEntity
  8
255
  6
Continuous
 62
     7
100
AcDbCircle
 10
2562.730427927637
 20
780.2238873975142
 30
0.0
 40
31.64243544
100
AcDbArc
 50
251.3015690000068
 51
269.1336170000077
  0
LINE
  5
231
330
22
100
AcDbEntity
  8
255
  6
Continuous
 62
     7
100
AcDbLine
 10
2552.586272444637
 20
750.2515715955142
 30
0.0
 11
2535.254672444636
 21
720.2545715955143
 31
0.0
  0
ARC
  5
232
330
22
100
AcDbEntity
  8
255
  6
Continuous
 62
     7
100
AcDbCircle
 10
2541.227648420636
 20
716.9920012185141
 30
0.0
 40
6.805939338
100
AcDbArc
 50
151.3556530000028
 51
250.1888559999923
  0
ARC
  5
233
330
22
100
AcDbEntity
  8
255
  6
Continuous
 62
     7
100
AcDbCircle
 10
2562.251972444637
 20
780.2485715955143
 30
0.0
 40
73.46297963400001
100
AcDbArc
 50
251.4828480000068
 51
288.5171519999932
  0
ARC
  5
234
330
22
100
AcDbEntity
  8
255
  6
Continuous
 62
     7
100
AcDbCircle
 10
2583.276296468636
 20
716.9920012185141
 30
0.0
 40
6.805939338
100
AcDbArc
 50
289.8111440000077
 51
28.64434699999717
  0
LINE
  5
235
330
22
100
AcDbEntity
  8
255
  6
Continuous
 62
     7
100
AcDbLine
 10
2589.249272444637
 20
720.2545715955143
 30
0.0
 11
2571.917672444636
 21
750.2515715955142
 31
0.0
  0
ARC
  5
236
330
22
100
AcDbEntity
  8
255
  6
Continuous
 62
     7
100
AcDbCircle
 10
2561.773516961637
 20
780.2238873975142
 30
0.0
 40
31.64243544
100
AcDbArc
 50
270.8663829999923
 51
288.6984309999931
  0
ARC
  5
237
330
22
100
AcDbEntity
  8
255
  6
Continuous
 62
     7
100
AcDbCircle
 10
2561.985342443636
 20
780.0007597125143
 30
0.0
 40
31.61170518
100
AcDbArc
 50
313.0959789999999
 51
330.8099360000025
  0
LINE
  5
238
330
22
100
AcDbEntity
  8
255
  6
Continuous
 62
     7
100
AcDbLine
 10
2583.583172444636
 20
756.9175715955143
 30
0.0
 11
2600.581472444636
 21
726.9205715955142
 31
0.0
  0
ARC
  5
239
330
22
100
AcDbEntity
  8
255
  6
Continuous
 62
     7
100
AcDbCircle
 10
2606.423874812636
 20
730.2800956095145
 30
0.0
 40
6.739442654999999
100
AcDbArc
 50
209.899938000004
 51
311.7753689999996
  0
ARC
  5
23A
330
22
100
AcDbEntity
  8
255
  6
Continuous
 62
     7
100
AcDbCircle
 10
2562.282396068637
 20
780.3012096645143
 30
0.0
 40
73.45201406400001
100
AcDbArc
 50
311.4589760000049
 51
348.4411969999948
  0
ARC
  5
23B
330
22
100
AcDbEntity
  8
255
  6
Continuous
 62
     7
100
AcDbCircle
 10
2627.633147006636
 20
766.8507848415145
 30
0.0
 40
6.732006732
100
AcDbArc
 50
349.1483469999994
 51
90.46279499999924
  0
LINE
  5
23C
330
22
100
AcDbEntity
  8
255
  6
Continuous
 62
     7
100
AcDbLine
 10
2627.578772444636
 20
773.5825715955143
 30
0.0
 11
2593.248872444636
 21
773.5825715955143
 31
0.0
  0
ARC
  5
23D
330
22
100
AcDbEntity
  8
255
  6
Continuous
 62
     7
100
AcDbCircle
 10
2562.554985473636
 20
780.8410990035143
 30
0.0
 40
31.54046230500001
100
AcDbArc
 50
328.9722590000055
 51
346.6950489999965
  0
CIRCLE
  5
23E
330
22
100
AcDbEntity
  8
255
  6
Continuous
 62
     7
100
AcDbCircle
 10
2562.251972444637
 20
780.2485715955143
 30
0.0
 40
18.3315
  0
CIRCLE
  5
23F
330
22
100
AcDbEntity
  8
255
  6
Continuous
 62
     7
100
AcDbCircle
 10
2562.251972444637
 20
780.2485715955143
 30
0.0
 40
94.99050000000002
  0
LINE
  5
240
330
22
100
AcDbEntity
  8
255
  6
Continuous
 62
     7
100
AcDbLine
 10
2231.43919648304
 20
1624.976452507096
 30
0.0
 11
2264.769196483041
 21
1624.976452507096
 31
0.0
  0
ARC
  5
241
330
22
100
AcDbEntity
  8
255
  6
Continuous
 62
     7
100
AcDbCircle
 10
2264.769196483041
 20
1618.310452507096
 30
0.0
 40
6.666
100
AcDbArc
 50
0.0
 51
90.0
  0
LINE
  5
242
330
22
100
AcDbEntity
  8
255
  6
Continuous
 62
     7
100
AcDbLine
 10
2271.43519648304
 20
1618.310452507096
 30
0.0
 11
2271.43519648304
 21
1613.310952507096
 31
0.0
  0
ARC
  5
243
330
22
100
AcDbEntity
  8
255
  6
Continuous
 62
     7
100
AcDbCircle
 10
2264.769196483041
 20
1613.310952507096
 30
0.0
 40
6.666
100
AcDbArc
 50
270.0
 51
0.0
  0
LINE
  5
244
330
22
100
AcDbEntity
  8
255
  6
Continuous
 62
     7
100
AcDbLine
 10
2264.769196483041
 20
1606.644952507096
 30
0.0
 11
2221.44019648304
 21
1606.644952507096
 31
0.0
  0
LINE
  5
245
330
22
100
AcDbEntity
  8
255
  6
Continuous
 62
     7
100
AcDbLine
 10
2221.44019648304
 20
1606.644952507096
 30
0.0
 11
2221.44019648304
 21
1429.995952507096
 31
0.0
  0
LINE
  5
246
330
22
100
AcDbEntity
  8
255
  6
Continuous
 62
     7
100
AcDbLine
 10
2221.44019648304
 20
1429.995952507096
 30
0.0
 11
2264.769196483041
 21
1429.995952507096
 31
0.0
  0
ARC
  5
247
330
22
100
AcDbEntity
  8
255
  6
Continuous
 62
     7
100
AcDbCircle
 10
2264.769196483041
 20
1423.329952507096
 30
0.0
 40
6.666
100
AcDbArc
 50
0.0
 51
90.0
  0
LINE
  5
248
330
22
100
AcDbEntity
  8
255
  6
Continuous
 62
     7
100
AcDbLine
 10
2271.43519648304
 20
1423.329952507096
 30
0.0
 11
2271.43519648304
 21
1418.330452507096
 31
0.0
  0
ARC
  5
249
330
22
100
AcDbEntity
  8
255
  6
Continuous
 62
     7
100
AcDbCircle
 10
2264.769196483041
 20
1418.330452507096
 30
0.0
 40
6.666
100
AcDbArc
 50
270.0
 51
0.0
  0
LINE
  5
24A
330
22
100
AcDbEntity
  8
255
  6
Continuous
 62
     7
100
AcDbLine
 10
2264.769196483041
 20
1411.664452507096
 30
0.0
 11
2231.43919648304
 21
1411.664452507096
 31
0.0
  0
LINE
  5
24B
330
22
100
AcDbEntity
  8
255
  6
Continuous
 62
     7
100
AcDbLine
 10
2231.43919648304
 20
1411.664452507096
 30
0.0
 11
2231.43919648304
 21
1389.999952507096
 31
0.0
  0
LINE
  5
24C
330
22
100
AcDbEntity
  8
255
  6
Continuous
 62
     7
100
AcDbLine
 10
2231.43919648304
 20
1389.999952507096
 30
0.0
 11
2264.769196483041
 21
1389.999952507096
 31
0.0
  0
ARC
  5
24D
330
22
100
AcDbEntity
  8
255
  6
Continuous
 62
     7
100
AcDbCircle
 10
2264.769196483041
 20
1383.333952507096
 30
0.0
 40
6.666
100
AcDbArc
 50
270.0
 51
90.0
  0
LINE
  5
24E
330
22
100
AcDbEntity
  8
255
  6
Continuous
 62
     7
100
AcDbLine
 10
2264.769196483041
 20
1376.667952507096
 30
0.0
 11
2211.441196483041
 21
1376.667952507096
 31
0.0
  0
ARC
  5
24F
330
22
100
AcDbEntity
  8
255
  6
Continuous
 62
     7
100
AcDbCircle
 10
2211.441196483041
 20
1383.333952507096
 30
0.0
 40
6.666
100
AcDbArc
 50
180.0
 51
270.0
  0
LINE
  5
250
330
22
100
AcDbEntity
  8
255
  6
Continuous
 62
     7
100
AcDbLine
 10
2204.775196483041
 20
1383.333952507096
 30
0.0
 11
2204.775196483041
 21
1404.998452507096
 31
0.0
  0
ARC
  5
251
330
22
100
AcDbEntity
  8
255
  6
Continuous
 62
     7
100
AcDbCircle
 10
2198.10919648304
 20
1404.998452507096
 30
0.0
 40
6.666
100
AcDbArc
 50
0.0
 51
90.0
  0
LINE
  5
252
330
22
100
AcDbEntity
  8
255
  6
Continuous
 62
     7
100
AcDbLine
 10
2198.10919648304
 20
1411.664452507096
 30
0.0
 11
2168.11219648304
 21
1411.664452507096
 31
0.0
  0
ARC
  5
253
330
22
100
AcDbEntity
  8
255
  6
Continuous
 62
     7
100
AcDbCircle
 10
2168.11219648304
 20
1418.330452507096
 30
0.0
 40
6.666
100
AcDbArc
 50
180.0
 51
270.0
  0
LINE
  5
254
330
22
100
AcDbEntity
  8
255
  6
Continuous
 62
     7
100
AcDbLine
 10
2161.446196483041
 20
1418.330452507096
 30
0.0
 11
2161.446196483041
 21
1429.995952507096
 31
0.0
  0
LINE
  5
255
330
22
100
AcDbEntity
  8
255
  6
Continuous
 62
     7
100
AcDbLine
 10
2161.446196483041
 20
1429.995952507096
 30
0.0
 11
2173.11169648304
 21
1429.995952507096
 31
0.0
  0
ARC
  5
256
330
22
100
AcDbEntity
  8
255
  6
Continuous
 62
     7
100
AcDbCircle
 10
2173.11169648304
 20
1434.995452507096
 30
0.0
 40
4.9995
100
AcDbArc
 50
270.0
 51
90.0
  0
LINE
  5
257
330
22
100
AcDbEntity
  8
255
  6
Continuous
 62
     7
100
AcDbLine
 10
2173.11169648304
 20
1439.994952507096
 30
0.0
 11
2161.446196483041
 21
1439.994952507096
 31
0.0
  0
LINE
  5
258
330
22
100
AcDbEntity
  8
255
  6
Continuous
 62
     7
100
AcDbLine
 10
2161.446196483041
 20
1439.994952507096
 30
0.0
 11
2161.446196483041
 21
1596.645952507096
 31
0.0
  0
LINE
  5
259
330
22
100
AcDbEntity
  8
255
  6
Continuous
 62
     7
100
AcDbLine
 10
2161.446196483041
 20
1596.645952507096
 30
0.0
 11
2173.11169648304
 21
1596.645952507096
 31
0.0
  0
ARC
  5
25A
330
22
100
AcDbEntity
  8
255
  6
Continuous
 62
     7
100
AcDbCircle
 10
2173.11169648304
 20
1601.645452507096
 30
0.0
 40
4.9995
100
AcDbArc
 50
270.0
 51
90.0
  0
LINE
  5
25B
330
22
100
AcDbEntity
  8
255
  6
Continuous
 62
     7
100
AcDbLine
 10
2173.11169648304
 20
1606.644952507096
 30
0.0
 11
2161.446196483041
 21
1606.644952507096
 31
0.0
  0
LINE
  5
25C
330
22
100
AcDbEntity
  8
255
  6
Continuous
 62
     7
100
AcDbLine
 10
2161.446196483041
 20
1606.644952507096
 30
0.0
 11
2161.446196483041
 21
1618.310452507096
 31
0.0
  0
ARC
  5
25D
330
22
100
AcDbEntity
  8
255
  6
Continuous
 62
     7
100
AcDbCircle
 10
2168.11219648304
 20
1618.310452507096
 30
0.0
 40
6.666
100
AcDbArc
 50
90.0
 51
180.0
  0
LINE
  5
25E
330
22
100
AcDbEntity
  8
255
  6
Continuous
 62
     7
100
AcDbLine
 10
2168.11219648304
 20
1624.976452507096
 30
0.0
 11
2198.10919648304
 21
1624.976452507096
 31
0.0
  0
ARC
  5
25F
330
22
100
AcDbEntity
  8
255
  6
Continuous
 62
     7
100
AcDbCircle
 10
2198.10919648304
 20
1631.642452507096
 30
0.0
 40
6.666
100
AcDbArc
 50
270.0
 51
0.0
  0
LINE
  5
260
330
22
100
AcDbEntity
  8
255
  6
Continuous
 62
     7
100
AcDbLine
 10
2204.775196483041
 20
1631.642452507096
 30
0.0
 11
2204.775196483041
 21
1653.306952507096
 31
0.0
  0
ARC
  5
261
330
22
100
AcDbEntity
  8
255
  6
Continuous
 62
     7
100
AcDbCircle
 10
2211.441196483041
 20
1653.306952507096
 30
0.0
 40
6.666
100
AcDbArc
 50
90.0
 51
180.0
  0
LINE
  5
262
330
22
100
AcDbEntity
  8
255
  6
Continuous
 62
     7
100
AcDbLine
 10
2211.441196483041
 20
1659.972952507096
 30
0.0
 11
2264.769196483041
 21
1659.972952507096
 31
0.0
  0
ARC
  5
263
330
22
100
AcDbEntity
  8
255
  6
Continuous
 62
     7
100
AcDbCircle
 10
2264.769196483041
 20
1653.306952507096
 30
0.0
 40
6.666
100
AcDbArc
 50
270.0
 51
90.0
  0
LINE
  5
264
330
22
100
AcDbEntity
  8
255
  6
Continuous
 62
     7
100
AcDbLine
 10
2264.769196483041
 20
1646.640952507096
 30
0.0
 11
2231.43919648304
 21
1646.640952507096
 31
0.0
  0
LINE
  5
265
330
22
100
AcDbEntity
  8
255
  6
Continuous
 62
     7
100
AcDbLine
 10
2231.43919648304
 20
1646.640952507096
 30
0.0
 11
2231.43919648304
 21
1624.976452507096
 31
0.0
  0
LINE
  5
266
330
22
100
AcDbEntity
  8
255
  6
Continuous
 62
     7
100
AcDbLine
 10
2505.870550810324
 20
479.410753438558
 30
0.0
 11
2505.870550810324
 21
496.0757534385579
 31
0.0
  0
LINE
  5
267
330
22
100
AcDbEntity
  8
255
  6
Continuous
 62
     7
100
AcDbLine
 10
2505.870550810324
 20
496.0757534385579
 30
0.0
 11
2409.213550810325
 21
496.0757534385579
 31
0.0
  0
LINE
  5
268
330
22
100
AcDbEntity
  8
255
  6
Continuous
 62
     7
100
AcDbLine
 10
2409.213550810325
 20
496.0757534385579
 30
0.0
 11
2409.213550810325
 21
479.410753438558
 31
0.0
  0
LINE
  5
269
330
22
100
AcDbEntity
  8
255
  6
Continuous
 62
     7
100
AcDbLine
 10
2409.213550810325
 20
479.410753438558
 30
0.0
 11
2505.870550810324
 21
479.410753438558
 31
0.0
  0
LINE
  5
26A
330
22
100
AcDbEntity
  8
255
  6
Continuous
 62
     7
100
AcDbLine
 10
2545.866550810324
 20
309.4277534385576
 30
0.0
 11
2545.866550810324
 21
394.4192534385579
 31
0.0
  0
ARC
  5
26B
330
22
100
AcDbEntity
  8
255
  6
Continuous
 62
     7
100
AcDbCircle
 10
2540.867050810324
 20
394.4192534385579
 30
0.0
 40
4.9995
100
AcDbArc
 50
0.0
 51
180.0
  0
LINE
  5
26C
330
22
100
AcDbEntity
  8
255
  6
Continuous
 62
     7
100
AcDbLine
 10
2535.867550810324
 20
394.4192534385579
 30
0.0
 11
2535.867550810324
 21
309.4277534385576
 31
0.0
  0
LINE
  5
26D
330
22
100
AcDbEntity
  8
255
  6
Continuous
 62
     7
100
AcDbLine
 10
2535.867550810324
 20
309.4277534385576
 30
0.0
 11
2379.216550810324
 21
309.4277534385576
 31
0.0
  0
LINE
  5
26E
330
22
100
AcDbEntity
  8
255
  6
Continuous
 62
     7
100
AcDbLine
 10
2379.216550810324
 20
309.4277534385576
 30
0.0
 11
2379.216550810324
 21
394.4192534385579
 31
0.0
  0
ARC
  5
26F
330
22
100
AcDbEntity
  8
255
  6
Continuous
 62
     7
100
AcDbCircle
 10
2374.217050810324
 20
394.4192534385579
 30
0.0
 40
4.9995
100
AcDbArc
 50
0.0
 51
180.0
  0
LINE
  5
270
330
22
100
AcDbEntity
  8
255
  6
Continuous
 62
     7
100
AcDbLine
 10
2369.217550810324
 20
394.4192534385579
 30
0.0
 11
2369.217550810324
 21
309.4277534385576
 31
0.0
  0
LINE
  5
271
330
22
100
AcDbEntity
  8
255
  6
Continuous
 62
     7
100
AcDbLine
 10
2369.217550810324
 20
309.4277534385576
 30
0.0
 11
2314.223050810324
 21
309.4277534385576
 31
0.0
  0
ARC
  5
272
330
22
100
AcDbEntity
  8
255
  6
Continuous
 62
     7
100
AcDbCircle
 10
2314.223050810324
 20
319.4267534385578
 30
0.0
 40
9.999
100
AcDbArc
 50
180.0
 51
270.0
  0
LINE
  5
273
330
22
100
AcDbEntity
  8
255
  6
Continuous
 62
     7
100
AcDbLine
 10
2304.224050810324
 20
319.4267534385578
 30
0.0
 11
2304.224050810324
 21
436.0817534385578
 31
0.0
  0
ARC
  5
274
330
22
100
AcDbEntity
  8
255
  6
Continuous
 62
     7
100
AcDbCircle
 10
2314.223050810324
 20
436.0817534385578
 30
0.0
 40
9.999
100
AcDbArc
 50
90.0
 51
180.0
  0
LINE
  5
275
330
22
100
AcDbEntity
  8
255
  6
Continuous
 62
     7
100
AcDbLine
 10
2314.223050810324
 20
446.0807534385578
 30
0.0
 11
2322.555550810324
 21
446.0807534385578
 31
0.0
  0
LINE
  5
276
330
22
100
AcDbEntity
  8
255
  6
Continuous
 62
     7
100
AcDbLine
 10
2322.555550810324
 20
446.0807534385578
 30
0.0
 11
2322.555550810324
 21
381.0872534385578
 31
0.0
  0
ARC
  5
277
330
22
100
AcDbEntity
  8
255
  6
Continuous
 62
     7
100
AcDbCircle
 10
2327.555050810325
 20
381.0872534385578
 30
0.0
 40
4.9995
100
AcDbArc
 50
180.0
 51
0.0
  0
LINE
  5
278
330
22
100
AcDbEntity
  8
255
  6
Continuous
 62
     7
100
AcDbLine
 10
2332.554550810324
 20
381.0872534385578
 30
0.0
 11
2332.554550810324
 21
446.0807534385578
 31
0.0
  0
LINE
  5
279
330
22
100
AcDbEntity
  8
255
  6
Continuous
 62
     7
100
AcDbLine
 10
2332.554550810324
 20
446.0807534385578
 30
0.0
 11
2344.220050810324
 21
446.0807534385578
 31
0.0
  0
ARC
  5
27A
330
22
100
AcDbEntity
  8
255
  6
Continuous
 62
     7
100
AcDbCircle
 10
2344.220050810324
 20
456.0797534385576
 30
0.0
 40
9.999
100
AcDbArc
 50
270.0
 51
0.0
  0
LINE
  5
27B
330
22
100
AcDbEntity
  8
255
  6
Continuous
 62
     7
100
AcDbLine
 10
2354.219050810324
 20
456.0797534385576
 30
0.0
 11
2354.219050810324
 21
509.4077534385576
 31
0.0
  0
ARC
  5
27C
330
22
100
AcDbEntity
  8
255
  6
Continuous
 62
     7
100
AcDbCircle
 10
2364.218050810324
 20
509.4077534385576
 30
0.0
 40
9.999
100
AcDbArc
 50
90.0
 51
180.0
  0
LINE
  5
27D
330
22
100
AcDbEntity
  8
255
  6
Continuous
 62
     7
100
AcDbLine
 10
2364.218050810324
 20
519.4067534385578
 30
0.0
 11
2550.866050810324
 21
519.4067534385578
 31
0.0
  0
ARC
  5
27E
330
22
100
AcDbEntity
  8
255
  6
Continuous
 62
     7
100
AcDbCircle
 10
2550.866050810324
 20
509.4077534385576
 30
0.0
 40
9.999
100
AcDbArc
 50
0.0
 51
90.0
  0
LINE
  5
27F
330
22
100
AcDbEntity
  8
255
  6
Continuous
 62
     7
100
AcDbLine
 10
2560.865050810325
 20
509.4077534385576
 30
0.0
 11
2560.865050810325
 21
456.0797534385576
 31
0.0
  0
ARC
  5
280
330
22
100
AcDbEntity
  8
255
  6
Continuous
 62
     7
100
AcDbCircle
 10
2570.864050810325
 20
456.0797534385576
 30
0.0
 40
9.999
100
AcDbArc
 50
180.0
 51
270.0
  0
LINE
  5
281
330
22
100
AcDbEntity
  8
255
  6
Continuous
 62
     7
100
AcDbLine
 10
2570.864050810325
 20
446.0807534385578
 30
0.0
 11
2582.529550810324
 21
446.0807534385578
 31
0.0
  0
LINE
  5
282
330
22
100
AcDbEntity
  8
255
  6
Continuous
 62
     7
100
AcDbLine
 10
2582.529550810324
 20
446.0807534385578
 30
0.0
 11
2582.529550810324
 21
381.0872534385578
 31
0.0
  0
ARC
  5
283
330
22
100
AcDbEntity
  8
255
  6
Continuous
 62
     7
100
AcDbCircle
 10
2587.529050810325
 20
381.0872534385578
 30
0.0
 40
4.9995
100
AcDbArc
 50
180.0
 51
0.0
  0
LINE
  5
284
330
22
100
AcDbEntity
  8
255
  6
Continuous
 62
     7
100
AcDbLine
 10
2592.528550810325
 20
381.0872534385578
 30
0.0
 11
2592.528550810325
 21
446.0807534385578
 31
0.0
  0
LINE
  5
285
330
22
100
AcDbEntity
  8
255
  6
Continuous
 62
     7
100
AcDbLine
 10
2592.528550810325
 20
446.0807534385578
 30
0.0
 11
2600.861050810324
 21
446.0807534385578
 31
0.0
  0
ARC
  5
286
330
22
100
AcDbEntity
  8
255
  6
Continuous
 62
     7
100
AcDbCircle
 10
2600.861050810324
 20
436.0817534385578
 30
0.0
 40
9.999
100
AcDbArc
 50
0.0
 51
90.0
  0
LINE
  5
287
330
22
100
AcDbEntity
  8
255
  6
Continuous
 62
     7
100
AcDbLine
 10
2610.860050810324
 20
436.0817534385578
 30
0.0
 11
2610.860050810324
 21
319.4267534385578
 31
0.0
  0
ARC
  5
288
330
22
100
AcDbEntity
  8
255
  6
Continuous
 62
     7
100
AcDbCircle
 10
2600.861050810324
 20
319.4267534385578
 30
0.0
 40
9.999
100
AcDbArc
 50
270.0
 51
0.0
  0
LINE
  5
289
330
22
100
AcDbEntity
  8
255
  6
Continuous
 62
     7
100
AcDbLine
 10
2600.861050810324
 20
309.4277534385576
 30
0.0
 11
2545.866550810324
 21
309.4277534385576
 31
0.0
  0
ARC
  5
28A
330
22
100
AcDbEntity
  8
255
  6
Continuous
 62
     7
100
AcDbCircle
 10
1390.431225795031
 20
1393.522660244201
 30
0.0
 40
4.9995
100
AcDbArc
 50
270.0
 51
0.0
  0
LINE
  5
28B
330
22
100
AcDbEntity
  8
255
  6
Continuous
 62
     7
100
AcDbLine
 10
1377.099225795031
 20
1388.523160244201
 30
0.0
 11
1390.431225795031
 21
1388.523160244201
 31
0.0
  0
ARC
  5
28C
330
22
100
AcDbEntity
  8
255
  6
Continuous
 62
     7
100
AcDbCircle
 10
1377.099225795031
 20
1393.522660244201
 30
0.0
 40
4.9995
100
AcDbArc
 50
180.0
 51
270.0
  0
LINE
  5
28D
330
22
100
AcDbEntity
  8
255
  6
Continuous
 62
     7
100
AcDbLine
 10
1372.099725795031
 20
1470.181660244201
 30
0.0
 11
1372.099725795031
 21
1393.522660244201
 31
0.0
  0
ARC
  5
28E
330
22
100
AcDbEntity
  8
255
  6
Continuous
 62
     7
100
AcDbCircle
 10
1377.099225795031
 20
1470.181660244201
 30
0.0
 40
4.9995
100
AcDbArc
 50
90.0
 51
180.0
  0
LINE
  5
28F
330
22
100
AcDbEntity
  8
255
  6
Continuous
 62
     7
100
AcDbLine
 10
1390.431225795031
 20
1475.181160244201
 30
0.0
 11
1377.099225795031
 21
1475.181160244201
 31
0.0
  0
ARC
  5
290
330
22
100
AcDbEntity
  8
255
  6
Continuous
 62
     7
100
AcDbCircle
 10
1390.431225795031
 20
1470.181660244201
 30
0.0
 40
4.9995
100
AcDbArc
 50
0.0
 51
90.0
  0
LINE
  5
291
330
22
100
AcDbEntity
  8
255
  6
Continuous
 62
     7
100
AcDbLine
 10
1395.430725795031
 20
1393.522660244201
 30
0.0
 11
1395.430725795031
 21
1470.181660244201
 31
0.0
  0
ARC
  5
292
330
22
100
AcDbEntity
  8
255
  6
Continuous
 62
     7
100
AcDbCircle
 10
1670.479464837031
 20
1482.731235161201
 30
0.0
 40
9.923437556999999
100
AcDbArc
 50
0.6687560000000992
 51
66.71137899999481
  0
LINE
  5
293
330
22
100
AcDbEntity
  8
255
  6
Continuous
 62
     7
100
AcDbLine
 10
1680.402225795031
 20
1457.8495602442
 30
0.0
 11
1680.402225795031
 21
1482.8470602442
 31
0.0
  0
ARC
  5
294
330
22
100
AcDbEntity
  8
255
  6
Continuous
 62
     7
100
AcDbCircle
 10
1670.342588526031
 20
1457.804681399201
 30
0.0
 40
10.059737259
100
AcDbArc
 50
253.012614999995
 51
0.2556129999997528
  0
ARC
  5
295
330
22
100
AcDbEntity
  8
255
  6
Continuous
 62
     7
100
AcDbCircle
 10
1688.619403995031
 20
1521.984466112201
 30
0.0
 40
76.78960360500001
100
AcDbArc
 50
184.5867229999985
 51
253.9613440000031
  0
ARC
  5
296
330
22
100
AcDbEntity
  8
255
  6
Continuous
 62
     7
100
AcDbCircle
 10
1622.066919909031
 20
1516.502297717201
 30
0.0
 40
10.012875279
100
AcDbArc
 50
88.04774899999571
 51
183.7710120000017
  0
LINE
  5
297
330
22
100
AcDbEntity
  8
255
  6
Continuous
 62
     7
100
AcDbLine
 10
1646.072325795031
 20
1525.842760244201
 30
0.0
 11
1622.408025795031
 21
1526.509360244201
 31
0.0
  0
ARC
  5
298
330
22
100
AcDbEntity
  8
255
  6
Continuous
 62
     7
100
AcDbCircle
 10
1645.786707693031
 20
1515.800801207201
 30
0.0
 40
10.046021964
100
AcDbArc
 50
7.873452000001622
 51
88.37080899999644
  0
ARC
  5
299
330
22
100
AcDbEntity
  8
255
  6
Continuous
 62
     7
100
AcDbCircle
 10
1688.684537481031
 20
1521.911433416201
 30
0.0
 40
33.284951172
100
AcDbArc
 50
188.1775229999998
 51
244.5911819999982
  0
ARC
  5
29A
330
22
100
AcDbEntity
  8
255
  6
Continuous
 62
     7
100
AcDbCircle
 10
1731.145377639031
 20
1513.242067106201
 30
0.0
 40
9.937479486
100
AcDbArc
 50
88.54836700000136
 51
168.7712490000013
  0
LINE
  5
29B
330
22
100
AcDbEntity
  8
255
  6
Continuous
 62
     7
100
AcDbLine
 10
1754.728125795031
 20
1522.509760244201
 30
0.0
 11
1731.397125795031
 21
1523.176360244201
 31
0.0
  0
ARC
  5
29C
330
22
100
AcDbEntity
  8
255
  6
Continuous
 62
     7
100
AcDbCircle
 10
1754.648203788031
 20
1512.6064273432
 30
0.0
 40
9.903656202
100
AcDbArc
 50
349.750734999999
 51
89.5376149999995
  0
ARC
  5
29D
330
22
100
AcDbEntity
  8
255
  6
Continuous
 62
     7
100
AcDbCircle
 10
1688.650347567031
 20
1521.746569904201
 30
0.0
 40
76.52408016000002
100
AcDbArc
 50
285.9917309999957
 51
351.8092569999986
  0
ARC
  5
29E
330
22
100
AcDbEntity
  8
255
  6
Continuous
 62
     7
100
AcDbCircle
 10
1707.080087742031
 20
1457.838991301201
 30
0.0
 40
10.012868613
100
AcDbArc
 50
179.9395280000011
 51
285.361773000003
  0
LINE
  5
29F
330
22
100
AcDbEntity
  8
255
  6
Continuous
 62
     7
100
AcDbLine
 10
1697.067225795031
 20
1482.8470602442
 30
0.0
 11
1697.067225795031
 21
1457.8495602442
 31
0.0
  0
ARC
  5
2A0
330
22
100
AcDbEntity
  8
255
  6
Continuous
 62
     7
100
AcDbCircle
 10
1707.060663018031
 20
1482.838217795201
 30
0.0
 40
9.993440556000001
100
AcDbArc
 50
115.6592290000014
 51
179.9493030000013
  0
ARC
  5
2A1
330
22
100
AcDbEntity
  8
255
  6
Continuous
 62
     7
100
AcDbCircle
 10
1688.734725795031
 20
1522.1764602442
 30
0.0
 40
33.404909175
100
AcDbArc
 50
294.7751410000039
 51
347.9052429999987
  0
LINE
  5
2A2
330
22
100
AcDbEntity
  8
255
  6
Continuous
 62
     7
100
AcDbLine
 10
1405.429725795031
 20
1548.507160244201
 30
0.0
 11
1785.391725795031
 21
1548.507160244201
 31
0.0
  0
ARC
  5
2A3
330
22
100
AcDbEntity
  8
255
  6
Continuous
 62
     7
100
AcDbCircle
 10
1405.429725795031
 20
1538.508160244201
 30
0.0
 40
9.999
100
AcDbArc
 50
90.0
 51
180.0
  0
LINE
  5
2A4
330
22
100
AcDbEntity
  8
255
  6
Continuous
 62
     7
100
AcDbLine
 10
1395.430725795031
 20
1501.845160244201
 30
0.0
 11
1395.430725795031
 21
1538.508160244201
 31
0.0
  0
ARC
  5
2A5
330
22
100
AcDbEntity
  8
255
  6
Continuous
 62
     7
100
AcDbCircle
 10
1385.431725795031
 20
1501.845160244201
 30
0.0
 40
9.999
100
AcDbArc
 50
270.0
 51
0.0
  0
LINE
  5
2A6
330
22
100
AcDbEntity
  8
255
  6
Continuous
 62
     7
100
AcDbLine
 10
1365.433725795031
 20
1491.846160244201
 30
0.0
 11
1385.431725795031
 21
1491.846160244201
 31
0.0
  0
ARC
  5
2A7
330
22
100
AcDbEntity
  8
255
  6
Continuous
 62
     7
100
AcDbCircle
 10
1365.433725795031
 20
1481.847160244201
 30
0.0
 40
9.999
100
AcDbArc
 50
90.0
 51
180.0
  0
LINE
  5
2A8
330
22
100
AcDbEntity
  8
255
  6
Continuous
 62
     7
100
AcDbLine
 10
1355.434725795031
 20
1381.857160244201
 30
0.0
 11
1355.434725795031
 21
1481.847160244201
 31
0.0
  0
ARC
  5
2A9
330
22
100
AcDbEntity
  8
255
  6
Continuous
 62
     7
100
AcDbCircle
 10
1365.433725795031
 20
1381.857160244201
 30
0.0
 40
9.999
100
AcDbArc
 50
180.0
 51
270.0
  0
LINE
  5
2AA
330
22
100
AcDbEntity
  8
255
  6
Continuous
 62
     7
100
AcDbLine
 10
1418.761725795031
 20
1371.858160244201
 30
0.0
 11
1365.433725795031
 21
1371.858160244201
 31
0.0
  0
LINE
  5
2AB
330
22
100
AcDbEntity
  8
255
  6
Continuous
 62
     7
100
AcDbLine
 10
1418.761725795031
 20
1436.851660244201
 30
0.0
 11
1418.761725795031
 21
1371.858160244201
 31
0.0
  0
ARC
  5
2AC
330
22
100
AcDbEntity
  8
255
  6
Continuous
 62
     7
100
AcDbCircle
 10
1423.761225795031
 20
1436.851660244201
 30
0.0
 40
4.9995
100
AcDbArc
 50
0.0
 51
180.0
  0
LINE
  5
2AD
330
22
100
AcDbEntity
  8
255
  6
Continuous
 62
     7
100
AcDbLine
 10
1428.760725795031
 20
1371.858160244201
 30
0.0
 11
1428.760725795031
 21
1436.851660244201
 31
0.0
  0
LINE
  5
2AE
330
22
100
AcDbEntity
  8
255
  6
Continuous
 62
     7
100
AcDbLine
 10
1435.426725795031
 20
1371.858160244201
 30
0.0
 11
1428.760725795031
 21
1371.858160244201
 31
0.0
  0
ARC
  5
2AF
330
22
100
AcDbEntity
  8
255
  6
Continuous
 62
     7
100
AcDbCircle
 10
1435.426725795031
 20
1381.857160244201
 30
0.0
 40
9.999
100
AcDbArc
 50
270.0
 51
0.0
  0
LINE
  5
2B0
330
22
100
AcDbEntity
  8
255
  6
Continuous
 62
     7
100
AcDbLine
 10
1445.425725795031
 20
1511.844160244201
 30
0.0
 11
1445.425725795031
 21
1381.857160244201
 31
0.0
  0
ARC
  5
2B1
330
22
100
AcDbEntity
  8
255
  6
Continuous
 62
     7
100
AcDbCircle
 10
1455.424725795031
 20
1511.844160244201
 30
0.0
 40
9.999
100
AcDbArc
 50
90.0
 51
180.0
  0
LINE
  5
2B2
330
22
100
AcDbEntity
  8
255
  6
Continuous
 62
     7
100
AcDbLine
 10
1572.413025795031
 20
1521.843160244201
 30
0.0
 11
1455.424725795031
 21
1521.843160244201
 31
0.0
  0
ARC
  5
2B3
330
22
100
AcDbEntity
  8
255
  6
Continuous
 62
     7
100
AcDbCircle
 10
1572.440613036031
 20
1511.819262734201
 30
0.0
 40
10.023934173
100
AcDbArc
 50
5.867888000001948
 51
90.15768699999432
  0
ARC
  5
2B4
330
22
100
AcDbEntity
  8
255
  6
Continuous
 62
     7
100
AcDbCircle
 10
1688.711294805031
 20
1521.842170343201
 30
0.0
 40
106.67943099
100
AcDbArc
 50
184.8384870000001
 51
0.0
  0
LINE
  5
2B5
330
22
100
AcDbEntity
  8
255
  6
Continuous
 62
     7
100
AcDbLine
 10
1795.390725795031
 20
1538.508160244201
 30
0.0
 11
1795.390725795031
 21
1521.843160244201
 31
0.0
  0
ARC
  5
2B6
330
22
100
AcDbEntity
  8
255
  6
Continuous
 62
     7
100
AcDbCircle
 10
1785.391725795031
 20
1538.508160244201
 30
0.0
 40
9.999
100
AcDbArc
 50
0.0
 51
90.0
  0
LINE
  5
2B7
330
22
100
AcDbEntity
  8
255
  6
Continuous
 62
     7
100
AcDbLine
 10
1820.054925795031
 20
1406.1880602442
 30
0.0
 11
1841.719425795031
 21
1406.1880602442
 31
0.0
  0
ARC
  5
2B8
330
22
100
AcDbEntity
  8
255
  6
Continuous
 62
     7
100
AcDbCircle
 10
1841.719425795031
 20
1411.187560244201
 30
0.0
 40
4.9995
100
AcDbArc
 50
270.0
 51
90.0
  0
LINE
  5
2B9
330
22
100
AcDbEntity
  8
255
  6
Continuous
 62
     7
100
AcDbLine
 10
1841.719425795031
 20
1416.187060244201
 30
0.0
 11
1820.054925795031
 21
1416.187060244201
 31
0.0
  0
LINE
  5
2BA
330
22
100
AcDbEntity
  8
255
  6
Continuous
 62
     7
100
AcDbLine
 10
1820.054925795031
 20
1416.187060244201
 30
0.0
 11
1820.054925795031
 21
1471.181560244201
 31
0.0
  0
ARC
  5
2BB
330
22
100
AcDbEntity
  8
255
  6
Continuous
 62
     7
100
AcDbCircle
 10
1828.387425795031
 20
1471.181560244201
 30
0.0
 40
8.332499999999999
100
AcDbArc
 50
90.0
 51
180.0
  0
LINE
  5
2BC
330
22
100
AcDbEntity
  8
255
  6
Continuous
 62
     7
100
AcDbLine
 10
1828.387425795031
 20
1479.5140602442
 30
0.0
 11
1845.052425795031
 21
1479.5140602442
 31
0.0
  0
ARC
  5
2BD
330
22
100
AcDbEntity
  8
255
  6
Continuous
 62
     7
100
AcDbCircle
 10
1845.052425795031
 20
1487.8465602442
 30
0.0
 40
8.332499999999999
100
AcDbArc
 50
270.0
 51
0.0
  0
LINE
  5
2BE
330
22
100
AcDbEntity
  8
255
  6
Continuous
 62
     7
100
AcDbLine
 10
1853.384925795031
 20
1487.8465602442
 30
0.0
 11
1853.384925795031
 21
1564.505560244201
 31
0.0
  0
ARC
  5
2BF
330
22
100
AcDbEntity
  8
255
  6
Continuous
 62
     7
100
AcDbCircle
 10
1861.717425795031
 20
1564.505560244201
 30
0.0
 40
8.332499999999999
100
AcDbArc
 50
90.0
 51
180.0
  0
LINE
  5
2C0
330
22
100
AcDbEntity
  8
255
  6
Continuous
 62
     7
100
AcDbLine
 10
1861.717425795031
 20
1572.8380602442
 30
0.0
 11
1876.715925795031
 21
1572.8380602442
 31
0.0
  0
ARC
  5
2C1
330
22
100
AcDbEntity
  8
255
  6
Continuous
 62
     7
100
AcDbCircle
 10
1876.741633224031
 20
1559.464551062201
 30
0.0
 40
13.373532513
100
AcDbArc
 50
333.5447500000017
 51
90.11014299999976
  0
LINE
  5
2C2
330
22
100
AcDbEntity
  8
255
  6
Continuous
 62
     7
100
AcDbLine
 10
1888.714725795031
 20
1553.506660244201
 30
0.0
 11
1880.382225795031
 21
1536.508360244201
 31
0.0
  0
ARC
  5
2C3
330
22
100
AcDbEntity
  8
255
  6
Continuous
 62
     7
100
AcDbCircle
 10
1898.387408430031
 20
1527.831441356201
 30
0.0
 40
19.986884445
100
AcDbArc
 50
154.2700159999997
 51
269.9799809999958
  0
ARC
  5
2C4
330
22
100
AcDbEntity
  8
255
  6
Continuous
 62
     7
100
AcDbCircle
 10
1898.280485790031
 20
1527.6813063712
 30
0.0
 40
19.836996102
100
AcDbArc
 50
270.2886639999992
 51
26.42201699999833
  0
LINE
  5
2C5
330
22
100
AcDbEntity
  8
255
  6
Continuous
 62
     7
100
AcDbLine
 10
1916.045325795031
 20
1536.508360244201
 30
0.0
 11
1907.712825795031
 21
1553.506660244201
 31
0.0
  0
ARC
  5
2C6
330
22
100
AcDbEntity
  8
255
  6
Continuous
 62
     7
100
AcDbCircle
 10
1919.685918366031
 20
1559.464551062201
 30
0.0
 40
13.373532513
100
AcDbArc
 50
89.88985700000025
 51
206.4552499999983
  0
LINE
  5
2C7
330
22
100
AcDbEntity
  8
255
  6
Continuous
 62
     7
100
AcDbLine
 10
1919.711625795031
 20
1572.8380602442
 30
0.0
 11
1935.043425795031
 21
1572.8380602442
 31
0.0
  0
ARC
  5
2C8
330
22
100
AcDbEntity
  8
255
  6
Continuous
 62
     7
100
AcDbCircle
 10
1935.043425795031
 20
1564.505560244201
 30
0.0
 40
8.332499999999999
100
AcDbArc
 50
0.0
 51
90.0
  0
LINE
  5
2C9
330
22
100
AcDbEntity
  8
255
  6
Continuous
 62
     7
100
AcDbLine
 10
1943.375925795031
 20
1564.505560244201
 30
0.0
 11
1943.375925795031
 21
1487.8465602442
 31
0.0
  0
ARC
  5
2CA
330
22
100
AcDbEntity
  8
255
  6
Continuous
 62
     7
100
AcDbCircle
 10
1951.708425795031
 20
1487.8465602442
 30
0.0
 40
8.332499999999999
100
AcDbArc
 50
180.0
 51
270.0
  0
LINE
  5
2CB
330
22
100
AcDbEntity
  8
255
  6
Continuous
 62
     7
100
AcDbLine
 10
1951.708425795031
 20
1479.5140602442
 30
0.0
 11
1968.373425795031
 21
1479.5140602442
 31
0.0
  0
ARC
  5
2CC
330
22
100
AcDbEntity
  8
255
  6
Continuous
 62
     7
100
AcDbCircle
 10
1968.373425795031
 20
1471.181560244201
 30
0.0
 40
8.332499999999999
100
AcDbArc
 50
0.0
 51
90.0
  0
LINE
  5
2CD
330
22
100
AcDbEntity
  8
255
  6
Continuous
 62
     7
100
AcDbLine
 10
1976.705925795031
 20
1471.181560244201
 30
0.0
 11
1976.705925795031
 21
1416.187060244201
 31
0.0
  0
LINE
  5
2CE
330
22
100
AcDbEntity
  8
255
  6
Continuous
 62
     7
100
AcDbLine
 10
1976.705925795031
 20
1416.187060244201
 30
0.0
 11
1955.041425795031
 21
1416.187060244201
 31
0.0
  0
ARC
  5
2CF
330
22
100
AcDbEntity
  8
255
  6
Continuous
 62
     7
100
AcDbCircle
 10
1955.041425795031
 20
1411.187560244201
 30
0.0
 40
4.9995
100
AcDbArc
 50
90.0
 51
270.0
  0
LINE
  5
2D0
330
22
100
AcDbEntity
  8
255
  6
Continuous
 62
     7
100
AcDbLine
 10
1955.041425795031
 20
1406.1880602442
 30
0.0
 11
1976.705925795031
 21
1406.1880602442
 31
0.0
  0
LINE
  5
2D1
330
22
100
AcDbEntity
  8
255
  6
Continuous
 62
     7
100
AcDbLine
 10
1976.705925795031
 20
1406.1880602442
 30
0.0
 11
1976.705925795031
 21
1224.539560244201
 31
0.0
  0
ARC
  5
2D2
330
22
100
AcDbEntity
  8
255
  6
Continuous
 62
     7
100
AcDbCircle
 10
1968.373425795031
 20
1224.539560244201
 30
0.0
 40
8.332499999999999
100
AcDbArc
 50
270.0
 51
0.0
  0
LINE
  5
2D3
330
22
100
AcDbEntity
  8
255
  6
Continuous
 62
     7
100
AcDbLine
 10
1968.373425795031
 20
1216.207060244201
 30
0.0
 11
1828.387425795031
 21
1216.207060244201
 31
0.0
  0
ARC
  5
2D4
330
22
100
AcDbEntity
  8
255
  6
Continuous
 62
     7
100
AcDbCircle
 10
1828.387425795031
 20
1224.539560244201
 30
0.0
 40
8.332499999999999
100
AcDbArc
 50
180.0
 51
270.0
  0
LINE
  5
2D5
330
22
100
AcDbEntity
  8
255
  6
Continuous
 62
     7
100
AcDbLine
 10
1820.054925795031
 20
1224.539560244201
 30
0.0
 11
1820.054925795031
 21
1406.1880602442
 31
0.0
  0
LINE
  5
2D6
330
22
100
AcDbEntity
  8
255
  6
Continuous
 62
     7
100
AcDbLine
 10
1722.398025795031
 20
1324.196260244201
 30
0.0
 11
1722.398025795031
 21
1265.868760244201
 31
0.0
  0
ARC
  5
2D7
330
22
100
AcDbEntity
  8
255
  6
Continuous
 62
     7
100
AcDbCircle
 10
1727.397525795031
 20
1265.868760244201
 30
0.0
 40
4.9995
100
AcDbArc
 50
180.0
 51
0.0
  0
LINE
  5
2D8
330
22
100
AcDbEntity
  8
255
  6
Continuous
 62
     7
100
AcDbLine
 10
1732.397025795031
 20
1265.868760244201
 30
0.0
 11
1732.397025795031
 21
1324.196260244201
 31
0.0
  0
LINE
  5
2D9
330
22
100
AcDbEntity
  8
255
  6
Continuous
 62
     7
100
AcDbLine
 10
1732.397025795031
 20
1324.196260244201
 30
0.0
 11
1749.062025795031
 21
1324.196260244201
 31
0.0
  0
ARC
  5
2DA
330
22
100
AcDbEntity
  8
255
  6
Continuous
 62
     7
100
AcDbCircle
 10
1749.062025795031
 20
1304.198260244201
 30
0.0
 40
19.998
100
AcDbArc
 50
0.0
 51
90.0
  0
LINE
  5
2DB
330
22
100
AcDbEntity
  8
255
  6
Continuous
 62
     7
100
AcDbLine
 10
1769.060025795031
 20
1304.198260244201
 30
0.0
 11
1769.060025795031
 21
1230.872260244201
 31
0.0
  0
ARC
  5
2DC
330
22
100
AcDbEntity
  8
255
  6
Continuous
 62
     7
100
AcDbCircle
 10
1775.726025795031
 20
1230.872260244201
 30
0.0
 40
6.666
100
AcDbArc
 50
180.0
 51
270.0
  0
LINE
  5
2DD
330
22
100
AcDbEntity
  8
255
  6
Continuous
 62
     7
100
AcDbLine
 10
1775.726025795031
 20
1224.206260244201
 30
0.0
 11
1785.725025795031
 21
1224.206260244201
 31
0.0
  0
ARC
  5
2DE
330
22
100
AcDbEntity
  8
255
  6
Continuous
 62
     7
100
AcDbCircle
 10
1785.725025795031
 20
1215.873760244201
 30
0.0
 40
8.332499999999999
100
AcDbArc
 50
270.0
 51
90.0
  0
LINE
  5
2DF
330
22
100
AcDbEntity
  8
255
  6
Continuous
 62
     7
100
AcDbLine
 10
1785.725025795031
 20
1207.541260244201
 30
0.0
 11
1669.070025795031
 21
1207.541260244201
 31
0.0
  0
ARC
  5
2E0
330
22
100
AcDbEntity
  8
255
  6
Continuous
 62
     7
100
AcDbCircle
 10
1669.070025795031
 20
1215.873760244201
 30
0.0
 40
8.332499999999999
100
AcDbArc
 50
90.0
 51
270.0
  0
LINE
  5
2E1
330
22
100
AcDbEntity
  8
255
  6
Continuous
 62
     7
100
AcDbLine
 10
1669.070025795031
 20
1224.206260244201
 30
0.0
 11
1679.069025795031
 21
1224.206260244201
 31
0.0
  0
ARC
  5
2E2
330
22
100
AcDbEntity
  8
255
  6
Continuous
 62
     7
100
AcDbCircle
 10
1679.069025795031
 20
1230.872260244201
 30
0.0
 40
6.666
100
AcDbArc
 50
270.0
 51
0.0
  0
LINE
  5
2E3
330
22
100
AcDbEntity
  8
255
  6
Continuous
 62
     7
100
AcDbLine
 10
1685.735025795031
 20
1230.872260244201
 30
0.0
 11
1685.735025795031
 21
1304.198260244201
 31
0.0
  0
ARC
  5
2E4
330
22
100
AcDbEntity
  8
255
  6
Continuous
 62
     7
100
AcDbCircle
 10
1705.733025795031
 20
1304.198260244201
 30
0.0
 40
19.998
100
AcDbArc
 50
90.0
 51
180.0
  0
LINE
  5
2E5
330
22
100
AcDbEntity
  8
255
  6
Continuous
 62
     7
100
AcDbLine
 10
1705.733025795031
 20
1324.196260244201
 30
0.0
 11
1722.398025795031
 21
1324.196260244201
 31
0.0
  0
LINE
  5
2E6
330
22
100
AcDbEntity
  8
255
  6
Continuous
 62
     7
100
AcDbLine
 10
1741.062825795031
 20
1160.212660244201
 30
0.0
 11
1816.055325795031
 21
1160.212660244201
 31
0.0
  0
ARC
  5
2E7
330
22
100
AcDbEntity
  8
255
  6
Continuous
 62
     7
100
AcDbCircle
 10
1816.055325795031
 20
1165.212160244201
 30
0.0
 40
4.9995
100
AcDbArc
 50
270.0
 51
90.0
  0
LINE
  5
2E8
330
22
100
AcDbEntity
  8
255
  6
Continuous
 62
     7
100
AcDbLine
 10
1816.055325795031
 20
1170.211660244201
 30
0.0
 11
1741.062825795031
 21
1170.211660244201
 31
0.0
  0
LINE
  5
2E9
330
22
100
AcDbEntity
  8
255
  6
Continuous
 62
     7
100
AcDbLine
 10
1741.062825795031
 20
1170.211660244201
 30
0.0
 11
1741.062825795031
 21
1178.544160244201
 31
0.0
  0
ARC
  5
2EA
330
22
100
AcDbEntity
  8
255
  6
Continuous
 62
     7
100
AcDbCircle
 10
1751.061825795031
 20
1178.544160244201
 30
0.0
 40
9.999
100
AcDbArc
 50
90.0
 51
180.0
  0
LINE
  5
2EB
330
22
100
AcDbEntity
  8
255
  6
Continuous
 62
     7
100
AcDbLine
 10
1751.061825795031
 20
1188.543160244201
 30
0.0
 11
1909.712625795031
 21
1188.543160244201
 31
0.0
  0
ARC
  5
2EC
330
22
100
AcDbEntity
  8
255
  6
Continuous
 62
     7
100
AcDbCircle
 10
1909.732987092031
 20
1178.5303116292
 30
0.0
 40
10.012868613
100
AcDbArc
 50
21.56409299999832
 51
90.11651799999681
  0
ARC
  5
2ED
330
22
100
AcDbEntity
  8
255
  6
Continuous
 62
     7
100
AcDbCircle
 10
1934.341246020031
 20
1188.576460247201
 30
0.0
 40
16.568049696
100
AcDbArc
 50
202.5961599999978
 51
251.3537080000024
  0
ARC
  5
2EE
330
22
100
AcDbEntity
  8
255
  6
Continuous
 62
     7
100
AcDbCircle
 10
1926.377625795031
 20
1165.212160244201
 30
0.0
 40
8.116384947
100
AcDbArc
 50
289.1790079999954
 51
70.82099200000462
  0
ARC
  5
2EF
330
22
100
AcDbEntity
  8
255
  6
Continuous
 62
     7
100
AcDbCircle
 10
1934.341246020031
 20
1141.8478602412
 30
0.0
 40
16.568049696
100
AcDbArc
 50
108.6462919999976
 51
157.4038400000022
  0
ARC
  5
2F0
330
22
100
AcDbEntity
  8
255
  6
Continuous
 62
     7
100
AcDbCircle
 10
1909.732987092031
 20
1151.8940088592
 30
0.0
 40
10.012868613
100
AcDbArc
 50
269.8834820000032
 51
338.4359070000017
  0
LINE
  5
2F1
330
22
100
AcDbEntity
  8
255
  6
Continuous
 62
     7
100
AcDbLine
 10
1909.712625795031
 20
1141.881160244201
 30
0.0
 11
1818.721725795031
 21
1141.881160244201
 31
0.0
  0
ARC
  5
2F2
330
22
100
AcDbEntity
  8
255
  6
Continuous
 62
     7
100
AcDbCircle
 10
1818.474377199031
 20
1128.5786039662
 30
0.0
 40
13.304856048
100
AcDbArc
 50
88.93476400000425
 51
129.2522210000019
  0
LINE
  5
2F3
330
22
100
AcDbEntity
  8
255
  6
Continuous
 62
     7
100
AcDbLine
 10
1810.055925795031
 20
1138.881460244201
 30
0.0
 11
1661.404125795031
 21
1013.8939602442
 31
0.0
  0
ARC
  5
2F4
330
22
100
AcDbEntity
  8
255
  6
Continuous
 62
     7
100
AcDbCircle
 10
1655.917434519031
 20
1020.251904386201
 30
0.0
 40
8.398050110999998
100
AcDbArc
 50
211.2616609999993
 51
310.7930859999989
  0
LINE
  5
2F5
330
22
100
AcDbEntity
  8
255
  6
Continuous
 62
     7
100
AcDbLine
 10
1648.738725795031
 20
1015.893760244201
 30
0.0
 11
1645.072425795031
 21
1022.559760244201
 31
0.0
  0
LINE
  5
2F6
330
22
100
AcDbEntity
  8
255
  6
Continuous
 62
     7
100
AcDbLine
 10
1645.072425795031
 20
1022.559760244201
 30
0.0
 11
1660.737525795031
 21
1042.557760244201
 31
0.0
  0
ARC
  5
2F7
330
22
100
AcDbEntity
  8
255
  6
Continuous
 62
     7
100
AcDbCircle
 10
1656.656807241031
 20
1045.621643825201
 30
0.0
 40
5.102906325000001
100
AcDbArc
 50
323.1000500000028
 51
140.1649789999977
  0
LINE
  5
2F8
330
22
100
AcDbEntity
  8
255
  6
Continuous
 62
     7
100
AcDbLine
 10
1652.738325795031
 20
1048.890460244201
 30
0.0
 11
1640.406225795031
 21
1032.892060244201
 31
0.0
  0
ARC
  5
2F9
330
22
100
AcDbEntity
  8
255
  6
Continuous
 62
     7
100
AcDbCircle
 10
1750.762629051031
 20
1079.415477437201
 30
0.0
 40
119.762112591
100
AcDbArc
 50
184.7227000000006
 51
202.8590350000011
  0
ARC
  5
2FA
330
22
100
AcDbEntity
  8
255
  6
Continuous
 62
     7
100
AcDbCircle
 10
1639.727327025031
 20
1070.2083582412
 30
0.0
 40
8.345812002
100
AcDbArc
 50
89.91557000000351
 51
184.4896259999996
  0
LINE
  5
2FB
330
22
100
AcDbEntity
  8
255
  6
Continuous
 62
     7
100
AcDbLine
 10
1639.739625795031
 20
1078.554160244201
 30
0.0
 11
1709.399325795031
 21
1078.554160244201
 31
0.0
  0
ARC
  5
2FC
330
22
100
AcDbEntity
  8
255
  6
Continuous
 62
     7
100
AcDbCircle
 10
1709.326153113031
 20
1086.8595896182
 30
0.0
 40
8.305749342000002
100
AcDbArc
 50
270.5047769999934
 51
310.6073129999977
  0
LINE
  5
2FD
330
22
100
AcDbEntity
  8
255
  6
Continuous
 62
     7
100
AcDbLine
 10
1714.732125795031
 20
1080.5539602442
 30
0.0
 11
1773.726225795031
 21
1130.215660244201
 31
0.0
  0
ARC
  5
2FE
330
22
100
AcDbEntity
  8
255
  6
Continuous
 62
     7
100
AcDbCircle
 10
1769.383983396031
 20
1135.2402577342
 30
0.0
 40
6.640909176
100
AcDbArc
 50
310.8334739999963
 51
89.91939600000073
  0
LINE
  5
2FF
330
22
100
AcDbEntity
  8
255
  6
Continuous
 62
     7
100
AcDbLine
 10
1769.393325795031
 20
1141.881160244201
 30
0.0
 11
1751.061825795031
 21
1141.881160244201
 31
0.0
  0
ARC
  5
300
330
22
100
AcDbEntity
  8
255
  6
Continuous
 62
     7
100
AcDbCircle
 10
1751.061825795031
 20
1151.880160244201
 30
0.0
 40
9.999
100
AcDbArc
 50
180.0
 51
270.0
  0
LINE
  5
301
330
22
100
AcDbEntity
  8
255
  6
Continuous
 62
     7
100
AcDbLine
 10
1741.062825795031
 20
1151.880160244201
 30
0.0
 11
1741.062825795031
 21
1160.212660244201
 31
0.0
  0
LINE
  5
302
330
22
100
AcDbEntity
  8
255
  6
Continuous
 62
     7
100
AcDbLine
 10
1663.648347520436
 20
524.458290586349
 30
0.0
 11
1617.319647520436
 21
524.458290586349
 31
0.0
  0
ARC
  5
303
330
22
100
AcDbEntity
  8
255
  6
Continuous
 62
     7
100
AcDbCircle
 10
1617.319647520436
 20
519.4587905863491
 30
0.0
 40
4.9995
100
AcDbArc
 50
90.0
 51
270.0
  0
LINE
  5
304
330
22
100
AcDbEntity
  8
255
  6
Continuous
 62
     7
100
AcDbLine
 10
1617.319647520436
 20
514.4592905863491
 30
0.0
 11
1662.315147520436
 21
514.4592905863491
 31
0.0
  0
LINE
  5
305
330
22
100
AcDbEntity
  8
255
  6
Continuous
 62
     7
100
AcDbLine
 10
1662.315147520436
 20
514.4592905863491
 30
0.0
 11
1659.982047520436
 21
498.794190586349
 31
0.0
  0
ARC
  5
306
330
22
100
AcDbEntity
  8
255
  6
Continuous
 62
     7
100
AcDbCircle
 10
1655.007871654436
 20
499.482848380349
 30
0.0
 40
5.021621121000001
100
AcDbArc
 50
269.7110700000004
 51
352.1176969999997
  0
LINE
  5
307
330
22
100
AcDbEntity
  8
255
  6
Continuous
 62
     7
100
AcDbLine
 10
1654.982547520436
 20
494.461290586349
 30
0.0
 11
1574.323947520436
 21
494.461290586349
 31
0.0
  0
ARC
  5
308
330
22
100
AcDbEntity
  8
255
  6
Continuous
 62
     7
100
AcDbCircle
 10
1574.323947520436
 20
499.460790586349
 30
0.0
 40
4.9995
100
AcDbArc
 50
180.0
 51
270.0
  0
LINE
  5
309
330
22
100
AcDbEntity
  8
255
  6
Continuous
 62
     7
100
AcDbLine
 10
1569.324447520436
 20
499.460790586349
 30
0.0
 11
1569.324447520436
 21
536.123790586349
 31
0.0
  0
ARC
  5
30A
330
22
100
AcDbEntity
  8
255
  6
Continuous
 62
     7
100
AcDbCircle
 10
1574.323947520436
 20
536.123790586349
 30
0.0
 40
4.9995
100
AcDbArc
 50
90.0
 51
180.0
  0
LINE
  5
30B
330
22
100
AcDbEntity
  8
255
  6
Continuous
 62
     7
100
AcDbLine
 10
1574.323947520436
 20
541.123290586349
 30
0.0
 11
1617.652947520436
 21
541.123290586349
 31
0.0
  0
ARC
  5
30C
330
22
100
AcDbEntity
  8
255
  6
Continuous
 62
     7
100
AcDbCircle
 10
1617.652947520436
 20
546.122790586349
 30
0.0
 40
4.9995
100
AcDbArc
 50
270.0
 51
0.0
  0
LINE
  5
30D
330
22
100
AcDbEntity
  8
255
  6
Continuous
 62
     7
100
AcDbLine
 10
1622.652447520436
 20
546.122790586349
 30
0.0
 11
1622.652447520436
 21
552.788790586349
 31
0.0
  0
ARC
  5
30E
330
22
100
AcDbEntity
  8
255
  6
Continuous
 62
     7
100
AcDbCircle
 10
1617.652947520436
 20
552.788790586349
 30
0.0
 40
4.9995
100
AcDbArc
 50
0.0
 51
90.0
  0
LINE
  5
30F
330
22
100
AcDbEntity
  8
255
  6
Continuous
 62
     7
100
AcDbLine
 10
1617.652947520436
 20
557.788290586349
 30
0.0
 11
1599.321447520436
 21
557.788290586349
 31
0.0
  0
ARC
  5
310
330
22
100
AcDbEntity
  8
255
  6
Continuous
 62
     7
100
AcDbCircle
 10
1599.321447520436
 20
564.4542905863491
 30
0.0
 40
6.666
100
AcDbArc
 50
180.0
 51
270.0
  0
LINE
  5
311
330
22
100
AcDbEntity
  8
255
  6
Continuous
 62
     7
100
AcDbLine
 10
1592.655447520436
 20
564.4542905863491
 30
0.0
 11
1592.655447520436
 21
569.4537905863491
 31
0.0
  0
ARC
  5
312
330
22
100
AcDbEntity
  8
255
  6
Continuous
 62
     7
100
AcDbCircle
 10
1599.296130052436
 20
569.398946071349
 30
0.0
 40
6.640909176
100
AcDbArc
 50
130.4394029999961
 51
179.5268109999996
  0
LINE
  5
313
330
22
100
AcDbEntity
  8
255
  6
Continuous
 62
     7
100
AcDbLine
 10
1594.988547520436
 20
574.4532905863491
 30
0.0
 11
1601.654547520436
 21
580.452690586349
 31
0.0
  0
ARC
  5
314
330
22
100
AcDbEntity
  8
255
  6
Continuous
 62
     7
100
AcDbCircle
 10
1597.354634221436
 20
585.5190239023491
 30
0.0
 40
6.645072092999999
100
AcDbArc
 50
310.3220420000012
 51
356.5478560000012
  0
LINE
  5
315
330
22
100
AcDbEntity
  8
255
  6
Continuous
 62
     7
100
AcDbLine
 10
1603.987647520436
 20
585.1188905863491
 30
0.0
 11
1604.654247520436
 21
604.783590586349
 31
0.0
  0
ARC
  5
316
330
22
100
AcDbEntity
  8
255
  6
Continuous
 62
     7
100
AcDbCircle
 10
1611.360026875436
 20
604.5048851263491
 30
0.0
 40
6.711568776000001
100
AcDbArc
 50
110.7046449999995
 51
177.6200499999986
  0
LINE
  5
317
330
22
100
AcDbEntity
  8
255
  6
Continuous
 62
     7
100
AcDbLine
 10
1608.987147520436
 20
610.7829905863491
 30
0.0
 11
1614.653247520436
 21
612.782790586349
 31
0.0
  0
ARC
  5
318
330
22
100
AcDbEntity
  8
255
  6
Continuous
 62
     7
100
AcDbCircle
 10
1612.446021598436
 20
619.220876713349
 30
0.0
 40
6.805939338
100
AcDbArc
 50
288.9236999999961
 51
329.6551130000019
  0
ARC
  5
319
330
22
100
AcDbEntity
  8
255
  6
Continuous
 62
     7
100
AcDbCircle
 10
1629.692246803436
 20
609.1480674283491
 30
0.0
 40
13.166389896
100
AcDbArc
 50
106.3518340000063
 51
149.7422500000002
  0
LINE
  5
31A
330
22
100
AcDbEntity
  8
255
  6
Continuous
 62
     7
100
AcDbLine
 10
1625.985447520436
 20
621.781890586349
 30
0.0
 11
1629.651747520436
 21
623.1150905863489
 31
0.0
  0
ARC
  5
31B
330
22
100
AcDbEntity
  8
255
  6
Continuous
 62
     7
100
AcDbCircle
 10
1632.651447520436
 20
613.449390586349
 30
0.0
 40
10.120471185
100
AcDbArc
 50
72.75854000000133
 51
107.2414589999997
  0
LINE
  5
31C
330
22
100
AcDbEntity
  8
255
  6
Continuous
 62
     7
100
AcDbLine
 10
1635.651147520436
 20
623.1150905863489
 30
0.0
 11
1639.317447520436
 21
621.781890586349
 31
0.0
  0
ARC
  5
31D
330
22
100
AcDbEntity
  8
255
  6
Continuous
 62
     7
100
AcDbCircle
 10
1635.483147655436
 20
608.9851503883489
 30
0.0
 40
13.35883065
100
AcDbArc
 50
30.5857549999966
 51
73.32016100000034
  0
ARC
  5
31E
330
22
100
AcDbEntity
  8
255
  6
Continuous
 62
     7
100
AcDbCircle
 10
1652.856873442436
 20
619.220876713349
 30
0.0
 40
6.805939338
100
AcDbArc
 50
210.3448869999981
 51
251.076300000004
  0
LINE
  5
31F
330
22
100
AcDbEntity
  8
255
  6
Continuous
 62
     7
100
AcDbLine
 10
1650.649647520436
 20
612.782790586349
 30
0.0
 11
1656.315747520436
 21
610.7829905863491
 31
0.0
  0
ARC
  5
320
330
22
100
AcDbEntity
  8
255
  6
Continuous
 62
     7
100
AcDbCircle
 10
1653.942868165436
 20
604.5048851263491
 30
0.0
 40
6.711568776000001
100
AcDbArc
 50
2.379949999998093
 51
69.29535500000048
  0
LINE
  5
321
330
22
100
AcDbEntity
  8
255
  6
Continuous
 62
     7
100
AcDbLine
 10
1660.648647520436
 20
604.783590586349
 30
0.0
 11
1661.315247520436
 21
585.1188905863491
 31
0.0
  0
ARC
  5
322
330
22
100
AcDbEntity
  8
255
  6
Continuous
 62
     7
100
AcDbCircle
 10
1667.948260819436
 20
585.5190239023491
 30
0.0
 40
6.645072092999999
100
AcDbArc
 50
183.4521439999988
 51
229.6779579999988
  0
LINE
  5
323
330
22
100
AcDbEntity
  8
255
  6
Continuous
 62
     7
100
AcDbLine
 10
1663.648347520436
 20
580.452690586349
 30
0.0
 11
1670.314347520436
 21
574.4532905863491
 31
0.0
  0
ARC
  5
324
330
22
100
AcDbEntity
  8
255
  6
Continuous
 62
     7
100
AcDbCircle
 10
1666.006764988436
 20
569.398946071349
 30
0.0
 40
6.640909176
100
AcDbArc
 50
0.4731900000000788
 51
49.56059799999746
  0
LINE
  5
325
330
22
100
AcDbEntity
  8
255
  6
Continuous
 62
     7
100
AcDbLine
 10
1672.647447520436
 20
569.4537905863491
 30
0.0
 11
1672.647447520436
 21
564.4542905863491
 31
0.0
  0
ARC
  5
326
330
22
100
AcDbEntity
  8
255
  6
Continuous
 62
     7
100
AcDbCircle
 10
1665.981447520436
 20
564.4542905863491
 30
0.0
 40
6.666
100
AcDbArc
 50
270.0
 51
0.0
  0
LINE
  5
327
330
22
100
AcDbEntity
  8
255
  6
Continuous
 62
     7
100
AcDbLine
 10
1665.981447520436
 20
557.788290586349
 30
0.0
 11
1647.649947520436
 21
557.788290586349
 31
0.0
  0
ARC
  5
328
330
22
100
AcDbEntity
  8
255
  6
Continuous
 62
     7
100
AcDbCircle
 10
1647.649947520436
 20
552.788790586349
 30
0.0
 40
4.9995
100
AcDbArc
 50
90.0
 51
180.0
  0
LINE
  5
329
330
22
100
AcDbEntity
  8
255
  6
Continuous
 62
     7
100
AcDbLine
 10
1642.650447520436
 20
552.788790586349
 30
0.0
 11
1642.650447520436
 21
546.122790586349
 31
0.0
  0
ARC
  5
32A
330
22
100
AcDbEntity
  8
255
  6
Continuous
 62
     7
100
AcDbCircle
 10
1647.649947520436
 20
546.122790586349
 30
0.0
 40
4.9995
100
AcDbArc
 50
180.0
 51
270.0
  0
LINE
  5
32B
330
22
100
AcDbEntity
  8
255
  6
Continuous
 62
     7
100
AcDbLine
 10
1647.649947520436
 20
541.123290586349
 30
0.0
 11
1660.315347520436
 21
541.123290586349
 31
0.0
  0
ARC
  5
32C
330
22
100
AcDbEntity
  8
255
  6
Continuous
 62
     7
100
AcDbCircle
 10
1660.334758912436
 20
536.101706128349
 30
0.0
 40
5.021621121000001
100
AcDbArc
 50
352.6258570000011
 51
90.2214740000033
  0
LINE
  5
32D
330
22
100
AcDbEntity
  8
255
  6
Continuous
 62
     7
100
AcDbLine
 10
1665.314847520436
 20
535.457190586349
 30
0.0
 11
1663.648347520436
 21
524.458290586349
 31
0.0
  0
ARC
  5
32E
330
22
100
AcDbEntity
  8
255
  6
Continuous
 62
     7
100
AcDbCircle
 10
1857.962247520436
 20
501.460590586349
 30
0.0
 40
33.33
100
AcDbArc
 50
270.0
 51
0.0
  0
LINE
  5
32F
330
22
100
AcDbEntity
  8
255
  6
Continuous
 62
     7
100
AcDbLine
 10
1891.292247520436
 20
501.460590586349
 30
0.0
 11
1891.292247520436
 21
541.456590586349
 31
0.0
  0
ARC
  5
330
330
22
100
AcDbEntity
  8
255
  6
Continuous
 62
     7
100
AcDbCircle
 10
1857.962247520436
 20
541.456590586349
 30
0.0
 40
33.33
100
AcDbArc
 50
0.0
 51
90.0
  0
LINE
  5
331
330
22
100
AcDbEntity
  8
255
  6
Continuous
 62
     7
100
AcDbLine
 10
1857.962247520436
 20
574.7865905863489
 30
0.0
 11
1791.302247520436
 21
574.7865905863489
 31
0.0
  0
ARC
  5
332
330
22
100
AcDbEntity
  8
255
  6
Continuous
 62
     7
100
AcDbCircle
 10
1791.302247520436
 20
564.787590586349
 30
0.0
 40
9.999
100
AcDbArc
 50
90.0
 51
180.0
  0
LINE
  5
333
330
22
100
AcDbEntity
  8
255
  6
Continuous
 62
     7
100
AcDbLine
 10
1781.303247520436
 20
564.787590586349
 30
0.0
 11
1781.303247520436
 21
478.129590586349
 31
0.0
  0
ARC
  5
334
330
22
100
AcDbEntity
  8
255
  6
Continuous
 62
     7
100
AcDbCircle
 10
1791.302247520436
 20
478.129590586349
 30
0.0
 40
9.999
100
AcDbArc
 50
180.0
 51
270.0
  0
LINE
  5
335
330
22
100
AcDbEntity
  8
255
  6
Continuous
 62
     7
100
AcDbLine
 10
1791.302247520436
 20
468.130590586349
 30
0.0
 11
1857.962247520436
 21
468.130590586349
 31
0.0
  0
LINE
  5
336
330
22
100
AcDbEntity
  8
255
  6
Continuous
 62
     7
100
AcDbLine
 10
1987.949247520436
 20
601.4505905863491
 30
0.0
 11
1859.628747520436
 21
601.4505905863491
 31
0.0
  0
ARC
  5
337
330
22
100
AcDbEntity
  8
255
  6
Continuous
 62
     7
100
AcDbCircle
 10
1859.628747520436
 20
596.4510905863489
 30
0.0
 40
4.9995
100
AcDbArc
 50
90.0
 51
270.0
  0
LINE
  5
338
330
22
100
AcDbEntity
  8
255
  6
Continuous
 62
     7
100
AcDbLine
 10
1859.628747520436
 20
591.451590586349
 30
0.0
 11
1987.949247520436
 21
591.451590586349
 31
0.0
  0
LINE
  5
339
330
22
100
AcDbEntity
  8
255
  6
Continuous
 62
     7
100
AcDbLine
 10
1987.949247520436
 20
591.451590586349
 30
0.0
 11
1987.949247520436
 21
581.452590586349
 31
0.0
  0
ARC
  5
33A
330
22
100
AcDbEntity
  8
255
  6
Continuous
 62
     7
100
AcDbCircle
 10
1977.950247520436
 20
581.452590586349
 30
0.0
 40
9.999
100
AcDbArc
 50
270.0
 51
0.0
  0
LINE
  5
33B
330
22
100
AcDbEntity
  8
255
  6
Continuous
 62
     7
100
AcDbLine
 10
1977.950247520436
 20
571.453590586349
 30
0.0
 11
1956.285747520436
 21
571.453590586349
 31
0.0
  0
ARC
  5
33C
330
22
100
AcDbEntity
  8
255
  6
Continuous
 62
     7
100
AcDbCircle
 10
1956.356400454436
 20
551.5114216693491
 30
0.0
 40
19.942295571
100
AcDbArc
 50
90.20298900000113
 51
166.6331219999994
  0
LINE
  5
33D
330
22
100
AcDbEntity
  8
255
  6
Continuous
 62
     7
100
AcDbLine
 10
1936.954347520436
 20
556.121790586349
 30
0.0
 11
1930.954947520436
 21
530.457690586349
 31
0.0
  0
ARC
  5
33E
330
22
100
AcDbEntity
  8
255
  6
Continuous
 62
     7
100
AcDbCircle
 10
1940.642545330436
 20
528.096713374349
 30
0.0
 40
9.971146119
100
AcDbArc
 50
166.3033800000004
 51
269.8741659999949
  0
LINE
  5
33F
330
22
100
AcDbEntity
  8
255
  6
Continuous
 62
     7
100
AcDbLine
 10
1940.620647520436
 20
518.1255905863491
 30
0.0
 11
1977.950247520436
 21
518.1255905863491
 31
0.0
  0
ARC
  5
340
330
22
100
AcDbEntity
  8
255
  6
Continuous
 62
     7
100
AcDbCircle
 10
1977.950247520436
 20
508.126590586349
 30
0.0
 40
9.999
100
AcDbArc
 50
0.0
 51
90.0
  0
LINE
  5
341
330
22
100
AcDbEntity
  8
255
  6
Continuous
 62
     7
100
AcDbLine
 10
1987.949247520436
 20
508.126590586349
 30
0.0
 11
1987.949247520436
 21
311.479590586349
 31
0.0
  0
ARC
  5
342
330
22
100
AcDbEntity
  8
255
  6
Continuous
 62
     7
100
AcDbCircle
 10
1977.950247520436
 20
311.479590586349
 30
0.0
 40
9.999
100
AcDbArc
 50
270.0
 51
0.0
  0
LINE
  5
343
330
22
100
AcDbEntity
  8
255
  6
Continuous
 62
     7
100
AcDbLine
 10
1977.950247520436
 20
301.480590586349
 30
0.0
 11
1966.284747520436
 21
301.480590586349
 31
0.0
  0
LINE
  5
344
330
22
100
AcDbEntity
  8
255
  6
Continuous
 62
     7
100
AcDbLine
 10
1966.284747520436
 20
301.480590586349
 30
0.0
 11
1966.284747520436
 21
409.803090586349
 31
0.0
  0
ARC
  5
345
330
22
100
AcDbEntity
  8
255
  6
Continuous
 62
     7
100
AcDbCircle
 10
1961.285247520436
 20
409.803090586349
 30
0.0
 40
4.9995
100
AcDbArc
 50
0.0
 51
180.0
  0
LINE
  5
346
330
22
100
AcDbEntity
  8
255
  6
Continuous
 62
     7
100
AcDbLine
 10
1956.285747520436
 20
409.803090586349
 30
0.0
 11
1956.285747520436
 21
301.480590586349
 31
0.0
  0
LINE
  5
347
330
22
100
AcDbEntity
  8
255
  6
Continuous
 62
     7
100
AcDbLine
 10
1956.285747520436
 20
301.480590586349
 30
0.0
 11
1891.292247520436
 21
301.480590586349
 31
0.0
  0
LINE
  5
348
330
22
100
AcDbEntity
  8
255
  6
Continuous
 62
     7
100
AcDbLine
 10
1891.292247520436
 20
301.480590586349
 30
0.0
 11
1891.292247520436
 21
323.1450905863491
 31
0.0
  0
ARC
  5
349
330
22
100
AcDbEntity
  8
255
  6
Continuous
 62
     7
100
AcDbCircle
 10
1886.292747520436
 20
323.1450905863491
 30
0.0
 40
4.9995
100
AcDbArc
 50
0.0
 51
180.0
  0
LINE
  5
34A
330
22
100
AcDbEntity
  8
255
  6
Continuous
 62
     7
100
AcDbLine
 10
1881.293247520436
 20
323.1450905863491
 30
0.0
 11
1881.293247520436
 21
301.480590586349
 31
0.0
  0
LINE
  5
34B
330
22
100
AcDbEntity
  8
255
  6
Continuous
 62
     7
100
AcDbLine
 10
1881.293247520436
 20
301.480590586349
 30
0.0
 11
1691.312247520436
 21
301.480590586349
 31
0.0
  0
LINE
  5
34C
330
22
100
AcDbEntity
  8
255
  6
Continuous
 62
     7
100
AcDbLine
 10
1691.312247520436
 20
301.480590586349
 30
0.0
 11
1691.312247520436
 21
323.1450905863491
 31
0.0
  0
ARC
  5
34D
330
22
100
AcDbEntity
  8
255
  6
Continuous
 62
     7
100
AcDbCircle
 10
1686.312747520436
 20
323.1450905863491
 30
0.0
 40
4.9995
100
AcDbArc
 50
0.0
 51
180.0
  0
LINE
  5
34E
330
22
100
AcDbEntity
  8
255
  6
Continuous
 62
     7
100
AcDbLine
 10
1681.313247520436
 20
323.1450905863491
 30
0.0
 11
1681.313247520436
 21
301.480590586349
 31
0.0
  0
LINE
  5
34F
330
22
100
AcDbEntity
  8
255
  6
Continuous
 62
     7
100
AcDbLine
 10
1681.313247520436
 20
301.480590586349
 30
0.0
 11
1501.331247520436
 21
301.480590586349
 31
0.0
  0
LINE
  5
350
330
22
100
AcDbEntity
  8
255
  6
Continuous
 62
     7
100
AcDbLine
 10
1501.331247520436
 20
301.480590586349
 30
0.0
 11
1501.331247520436
 21
323.1450905863491
 31
0.0
  0
ARC
  5
351
330
22
100
AcDbEntity
  8
255
  6
Continuous
 62
     7
100
AcDbCircle
 10
1496.331747520436
 20
323.1450905863491
 30
0.0
 40
4.9995
100
AcDbArc
 50
0.0
 51
180.0
  0
LINE
  5
352
330
22
100
AcDbEntity
  8
255
  6
Continuous
 62
     7
100
AcDbLine
 10
1491.332247520436
 20
323.1450905863491
 30
0.0
 11
1491.332247520436
 21
301.480590586349
 31
0.0
  0
LINE
  5
353
330
22
100
AcDbEntity
  8
255
  6
Continuous
 62
     7
100
AcDbLine
 10
1491.332247520436
 20
301.480590586349
 30
0.0
 11
1308.017247520436
 21
301.480590586349
 31
0.0
  0
LINE
  5
354
330
22
100
AcDbEntity
  8
255
  6
Continuous
 62
     7
100
AcDbLine
 10
1308.017247520436
 20
301.480590586349
 30
0.0
 11
1308.017247520436
 21
323.1450905863491
 31
0.0
  0
ARC
  5
355
330
22
100
AcDbEntity
  8
255
  6
Continuous
 62
     7
100
AcDbCircle
 10
1303.017747520436
 20
323.1450905863491
 30
0.0
 40
4.9995
100
AcDbArc
 50
0.0
 51
180.0
  0
LINE
  5
356
330
22
100
AcDbEntity
  8
255
  6
Continuous
 62
     7
100
AcDbLine
 10
1298.018247520436
 20
323.1450905863491
 30
0.0
 11
1298.018247520436
 21
301.480590586349
 31
0.0
  0
LINE
  5
357
330
22
100
AcDbEntity
  8
255
  6
Continuous
 62
     7
100
AcDbLine
 10
1298.018247520436
 20
301.480590586349
 30
0.0
 11
1264.688247520436
 21
301.480590586349
 31
0.0
  0
ARC
  5
358
330
22
100
AcDbEntity
  8
255
  6
Continuous
 62
     7
100
AcDbCircle
 10
1264.688247520436
 20
311.479590586349
 30
0.0
 40
9.999
100
AcDbArc
 50
180.0
 51
270.0
  0
LINE
  5
359
330
22
100
AcDbEntity
  8
255
  6
Continuous
 62
     7
100
AcDbLine
 10
1254.689247520436
 20
311.479590586349
 30
0.0
 11
1254.689247520436
 21
428.134590586349
 31
0.0
  0
ARC
  5
35A
330
22
100
AcDbEntity
  8
255
  6
Continuous
 62
     7
100
AcDbCircle
 10
1264.688247520436
 20
428.134590586349
 30
0.0
 40
9.999
100
AcDbArc
 50
90.0
 51
180.0
  0
LINE
  5
35B
330
22
100
AcDbEntity
  8
255
  6
Continuous
 62
     7
100
AcDbLine
 10
1264.688247520436
 20
438.133590586349
 30
0.0
 11
1278.020247520436
 21
438.133590586349
 31
0.0
  0
LINE
  5
35C
330
22
100
AcDbEntity
  8
255
  6
Continuous
 62
     7
100
AcDbLine
 10
1278.020247520436
 20
438.133590586349
 30
0.0
 11
1278.020247520436
 21
413.136090586349
 31
0.0
  0
ARC
  5
35D
330
22
100
AcDbEntity
  8
255
  6
Continuous
 62
     7
100
AcDbCircle
 10
1283.019747520436
 20
413.136090586349
 30
0.0
 40
4.9995
100
AcDbArc
 50
180.0
 51
0.0
  0
LINE
  5
35E
330
22
100
AcDbEntity
  8
255
  6
Continuous
 62
     7
100
AcDbLine
 10
1288.019247520436
 20
413.136090586349
 30
0.0
 11
1288.019247520436
 21
438.133590586349
 31
0.0
  0
LINE
  5
35F
330
22
100
AcDbEntity
  8
255
  6
Continuous
 62
     7
100
AcDbLine
 10
1288.019247520436
 20
438.133590586349
 30
0.0
 11
1359.678747520436
 21
438.133590586349
 31
0.0
  0
ARC
  5
360
330
22
100
AcDbEntity
  8
255
  6
Continuous
 62
     7
100
AcDbCircle
 10
1359.678747520436
 20
443.133090586349
 30
0.0
 40
4.9995
100
AcDbArc
 50
270.0
 51
90.0
  0
LINE
  5
361
330
22
100
AcDbEntity
  8
255
  6
Continuous
 62
     7
100
AcDbLine
 10
1359.678747520436
 20
448.132590586349
 30
0.0
 11
1288.019247520436
 21
448.132590586349
 31
0.0
  0
LINE
  5
362
330
22
100
AcDbEntity
  8
255
  6
Continuous
 62
     7
100
AcDbLine
 10
1288.019247520436
 20
448.132590586349
 30
0.0
 11
1288.019247520436
 21
458.131590586349
 31
0.0
  0
ARC
  5
363
330
22
100
AcDbEntity
  8
255
  6
Continuous
 62
     7
100
AcDbCircle
 10
1298.018247520436
 20
458.131590586349
 30
0.0
 40
9.999
100
AcDbArc
 50
90.0
 51
180.0
  0
LINE
  5
364
330
22
100
AcDbEntity
  8
255
  6
Continuous
 62
     7
100
AcDbLine
 10
1298.018247520436
 20
468.130590586349
 30
0.0
 11
1737.974247520436
 21
468.130590586349
 31
0.0
  0
ARC
  5
365
330
22
100
AcDbEntity
  8
255
  6
Continuous
 62
     7
100
AcDbCircle
 10
1737.974247520436
 20
478.129590586349
 30
0.0
 40
9.999
100
AcDbArc
 50
270.0
 51
0.0
  0
LINE
  5
366
330
22
100
AcDbEntity
  8
255
  6
Continuous
 62
     7
100
AcDbLine
 10
1747.973247520436
 20
478.129590586349
 30
0.0
 11
1747.973247520436
 21
561.454590586349
 31
0.0
  0
ARC
  5
367
330
22
100
AcDbEntity
  8
255
  6
Continuous
 62
     7
100
AcDbCircle
 10
1737.974247520436
 20
561.454590586349
 30
0.0
 40
9.999
100
AcDbArc
 50
0.0
 51
90.0
  0
LINE
  5
368
330
22
100
AcDbEntity
  8
255
  6
Continuous
 62
     7
100
AcDbLine
 10
1737.974247520436
 20
571.453590586349
 30
0.0
 11
1731.308247520436
 21
571.453590586349
 31
0.0
  0
ARC
  5
369
330
22
100
AcDbEntity
  8
255
  6
Continuous
 62
     7
100
AcDbCircle
 10
1731.308247520436
 20
581.452590586349
 30
0.0
 40
9.999
100
AcDbArc
 50
180.0
 51
270.0
  0
LINE
  5
36A
330
22
100
AcDbEntity
  8
255
  6
Continuous
 62
     7
100
AcDbLine
 10
1721.309247520436
 20
581.452590586349
 30
0.0
 11
1721.309247520436
 21
611.449590586349
 31
0.0
  0
ARC
  5
36B
330
22
100
AcDbEntity
  8
255
  6
Continuous
 62
     7
100
AcDbCircle
 10
1731.308247520436
 20
611.449590586349
 30
0.0
 40
9.999
100
AcDbArc
 50
90.0
 51
180.0
  0
LINE
  5
36C
330
22
100
AcDbEntity
  8
255
  6
Continuous
 62
     7
100
AcDbLine
 10
1731.308247520436
 20
621.448590586349
 30
0.0
 11
1977.950247520436
 21
621.448590586349
 31
0.0
  0
ARC
  5
36D
330
22
100
AcDbEntity
  8
255
  6
Continuous
 62
     7
100
AcDbCircle
 10
1977.950247520436
 20
611.449590586349
 30
0.0
 40
9.999
100
AcDbArc
 50
0.0
 51
90.0
  0
LINE
  5
36E
330
22
100
AcDbEntity
  8
255
  6
Continuous
 62
     7
100
AcDbLine
 10
1987.949247520436
 20
611.449590586349
 30
0.0
 11
1987.949247520436
 21
601.4505905863491
 31
0.0
  0
LINE
  5
36F
330
22
100
AcDbEntity
  8
255
  6
Continuous
 62
     7
100
AcDbLine
 10
2108.937147520436
 20
724.771590586349
 30
0.0
 11
2143.933647520436
 21
724.771590586349
 31
0.0
  0
LINE
  5
370
330
22
100
AcDbEntity
  8
255
  6
Continuous
 62
     7
100
AcDbLine
 10
2143.933647520436
 20
724.771590586349
 30
0.0
 11
2143.933647520436
 21
686.4420905863489
 31
0.0
  0
ARC
  5
371
330
22
100
AcDbEntity
  8
255
  6
Continuous
 62
     7
100
AcDbCircle
 10
2148.933147520436
 20
686.4420905863489
 30
0.0
 40
4.9995
100
AcDbArc
 50
180.0
 51
0.0
  0
LINE
  5
372
330
22
100
AcDbEntity
  8
255
  6
Continuous
 62
     7
100
AcDbLine
 10
2153.932647520436
 20
686.4420905863489
 30
0.0
 11
2153.932647520436
 21
724.771590586349
 31
0.0
  0
LINE
  5
373
330
22
100
AcDbEntity
  8
255
  6
Continuous
 62
     7
100
AcDbLine
 10
2153.932647520436
 20
724.771590586349
 30
0.0
 11
2188.929147520436
 21
724.771590586349
 31
0.0
  0
ARC
  5
374
330
22
100
AcDbEntity
  8
255
  6
Continuous
 62
     7
100
AcDbCircle
 10
2188.929147520436
 20
738.103590586349
 30
0.0
 40
13.332
100
AcDbArc
 50
270.0
 51
0.0
  0
LINE
  5
375
330
22
100
AcDbEntity
  8
255
  6
Continuous
 62
     7
100
AcDbLine
 10
2202.261147520436
 20
738.103590586349
 30
0.0
 11
2202.261147520436
 21
776.4330905863489
 31
0.0
  0
ARC
  5
376
330
22
100
AcDbEntity
  8
255
  6
Continuous
 62
     7
100
AcDbCircle
 10
2210.593647520436
 20
776.4330905863489
 30
0.0
 40
8.332499999999999
100
AcDbArc
 50
90.0
 51
180.0
  0
LINE
  5
377
330
22
100
AcDbEntity
  8
255
  6
Continuous
 62
     7
100
AcDbLine
 10
2210.593647520436
 20
784.7655905863489
 30
0.0
 11
2218.926147520436
 21
784.7655905863489
 31
0.0
  0
ARC
  5
378
330
22
100
AcDbEntity
  8
255
  6
Continuous
 62
     7
100
AcDbCircle
 10
2218.926147520436
 20
776.4330905863489
 30
0.0
 40
8.332499999999999
100
AcDbArc
 50
0.0
 51
90.0
  0
LINE
  5
379
330
22
100
AcDbEntity
  8
255
  6
Continuous
 62
     7
100
AcDbLine
 10
2227.258647520436
 20
776.4330905863489
 30
0.0
 11
2227.258647520436
 21
379.806090586349
 31
0.0
  0
ARC
  5
37A
330
22
100
AcDbEntity
  8
255
  6
Continuous
 62
     7
100
AcDbCircle
 10
2232.258147520436
 20
379.806090586349
 30
0.0
 40
4.9995
100
AcDbArc
 50
180.0
 51
270.0
  0
LINE
  5
37B
330
22
100
AcDbEntity
  8
255
  6
Continuous
 62
     7
100
AcDbLine
 10
2232.258147520436
 20
374.806590586349
 30
0.0
 11
2242.257147520437
 21
374.806590586349
 31
0.0
  0
ARC
  5
37C
330
22
100
AcDbEntity
  8
255
  6
Continuous
 62
     7
100
AcDbCircle
 10
2242.257147520437
 20
379.806090586349
 30
0.0
 40
4.9995
100
AcDbArc
 50
270.0
 51
0.0
  0
LINE
  5
37D
330
22
100
AcDbEntity
  8
255
  6
Continuous
 62
     7
100
AcDbLine
 10
2247.256647520436
 20
379.806090586349
 30
0.0
 11
2247.256647520436
 21
451.132290586349
 31
0.0
  0
ARC
  5
37E
330
22
100
AcDbEntity
  8
255
  6
Continuous
 62
     7
100
AcDbCircle
 10
2250.603296155436
 20
433.122745054349
 30
0.0
 40
18.317854698
100
AcDbArc
 50
0.0
 51
100.5269919999955
  0
LINE
  5
37F
330
22
100
AcDbEntity
  8
255
  6
Continuous
 62
     7
100
AcDbLine
 10
2268.921147520437
 20
433.134090586349
 30
0.0
 11
2268.921147520437
 21
316.479090586349
 31
0.0
  0
ARC
  5
380
330
22
100
AcDbEntity
  8
255
  6
Continuous
 62
     7
100
AcDbCircle
 10
2260.588647520436
 20
316.479090586349
 30
0.0
 40
8.332499999999999
100
AcDbArc
 50
270.0
 51
0.0
  0
LINE
  5
381
330
22
100
AcDbEntity
  8
255
  6
Continuous
 62
     7
100
AcDbLine
 10
2260.588647520436
 20
308.146590586349
 30
0.0
 11
2153.932647520436
 21
308.146590586349
 31
0.0
  0
LINE
  5
382
330
22
100
AcDbEntity
  8
255
  6
Continuous
 62
     7
100
AcDbLine
 10
2153.932647520436
 20
308.146590586349
 30
0.0
 11
2153.932647520436
 21
426.468090586349
 31
0.0
  0
ARC
  5
383
330
22
100
AcDbEntity
  8
255
  6
Continuous
 62
     7
100
AcDbCircle
 10
2148.933147520436
 20
426.468090586349
 30
0.0
 40
4.9995
100
AcDbArc
 50
0.0
 51
180.0
  0
LINE
  5
384
330
22
100
AcDbEntity
  8
255
  6
Continuous
 62
     7
100
AcDbLine
 10
2143.933647520436
 20
426.468090586349
 30
0.0
 11
2143.933647520436
 21
308.146590586349
 31
0.0
  0
LINE
  5
385
330
22
100
AcDbEntity
  8
255
  6
Continuous
 62
     7
100
AcDbLine
 10
2143.933647520436
 20
308.146590586349
 30
0.0
 11
2037.277647520436
 21
308.146590586349
 31
0.0
  0
ARC
  5
386
330
22
100
AcDbEntity
  8
255
  6
Continuous
 62
     7
100
AcDbCircle
 10
2037.277647520436
 20
316.479090586349
 30
0.0
 40
8.332499999999999
100
AcDbArc
 50
180.0
 51
270.0
  0
LINE
  5
387
330
22
100
AcDbEntity
  8
255
  6
Continuous
 62
     7
100
AcDbLine
 10
2028.945147520436
 20
316.479090586349
 30
0.0
 11
2028.945147520436
 21
433.134090586349
 31
0.0
  0
ARC
  5
388
330
22
100
AcDbEntity
  8
255
  6
Continuous
 62
     7
100
AcDbCircle
 10
2047.262998885436
 20
433.122745054349
 30
0.0
 40
18.317854698
100
AcDbArc
 50
79.47300800000451
 51
179.9645109999999
  0
LINE
  5
389
330
22
100
AcDbEntity
  8
255
  6
Continuous
 62
     7
100
AcDbLine
 10
2050.609647520436
 20
451.132290586349
 30
0.0
 11
2050.609647520436
 21
379.806090586349
 31
0.0
  0
ARC
  5
38A
330
22
100
AcDbEntity
  8
255
  6
Continuous
 62
     7
100
AcDbCircle
 10
2055.609147520437
 20
379.806090586349
 30
0.0
 40
4.9995
100
AcDbArc
 50
180.0
 51
270.0
  0
LINE
  5
38B
330
22
100
AcDbEntity
  8
255
  6
Continuous
 62
     7
100
AcDbLine
 10
2055.609147520437
 20
374.806590586349
 30
0.0
 11
2065.608147520436
 21
374.806590586349
 31
0.0
  0
ARC
  5
38C
330
22
100
AcDbEntity
  8
255
  6
Continuous
 62
     7
100
AcDbCircle
 10
2065.608147520436
 20
379.806090586349
 30
0.0
 40
4.9995
100
AcDbArc
 50
270.0
 51
0.0
  0
LINE
  5
38D
330
22
100
AcDbEntity
  8
255
  6
Continuous
 62
     7
100
AcDbLine
 10
2070.607647520436
 20
379.806090586349
 30
0.0
 11
2070.607647520436
 21
776.4330905863489
 31
0.0
  0
ARC
  5
38E
330
22
100
AcDbEntity
  8
255
  6
Continuous
 62
     7
100
AcDbCircle
 10
2078.940147520436
 20
776.4330905863489
 30
0.0
 40
8.332499999999999
100
AcDbArc
 50
90.0
 51
180.0
  0
LINE
  5
38F
330
22
100
AcDbEntity
  8
255
  6
Continuous
 62
     7
100
AcDbLine
 10
2078.940147520436
 20
784.7655905863489
 30
0.0
 11
2087.272647520436
 21
784.7655905863489
 31
0.0
  0
ARC
  5
390
330
22
100
AcDbEntity
  8
255
  6
Continuous
 62
     7
100
AcDbCircle
 10
2087.272647520436
 20
776.4330905863489
 30
0.0
 40
8.332499999999999
100
AcDbArc
 50
0.0
 51
90.0
  0
LINE
  5
391
330
22
100
AcDbEntity
  8
255
  6
Continuous
 62
     7
100
AcDbLine
 10
2095.605147520436
 20
776.4330905863489
 30
0.0
 11
2095.605147520436
 21
738.103590586349
 31
0.0
  0
ARC
  5
392
330
22
100
AcDbEntity
  8
255
  6
Continuous
 62
     7
100
AcDbCircle
 10
2108.937147520436
 20
738.103590586349
 30
0.0
 40
13.332
100
AcDbArc
 50
180.0
 51
270.0
  0
LINE
  5
393
330
22
100
AcDbEntity
  8
255
  6
Continuous
 62
     7
100
AcDbLine
 10
2226.925347520436
 20
899.7540905863488
 30
0.0
 11
2226.925347520436
 21
938.083590586349
 31
0.0
  0
ARC
  5
394
330
22
100
AcDbEntity
  8
255
  6
Continuous
 62
     7
100
AcDbCircle
 10
2221.925847520437
 20
938.083590586349
 30
0.0
 40
4.9995
100
AcDbArc
 50
0.0
 51
180.0
  0
LINE
  5
395
330
22
100
AcDbEntity
  8
255
  6
Continuous
 62
     7
100
AcDbLine
 10
2216.926347520437
 20
938.083590586349
 30
0.0
 11
2216.926347520437
 21
848.7591905863492
 31
0.0
  0
ARC
  5
396
330
22
100
AcDbEntity
  8
255
  6
Continuous
 62
     7
100
AcDbCircle
 10
2183.645789242437
 20
848.8767821593491
 30
0.0
 40
33.28076492400001
100
AcDbArc
 50
314.3909070000043
 51
359.7975529999994
  0
ARC
  5
397
330
22
100
AcDbEntity
  8
255
  6
Continuous
 62
     7
100
AcDbCircle
 10
2136.845156440436
 20
896.3837209903489
 30
0.0
 40
99.96804886200001
100
AcDbArc
 50
271.0063100000055
 51
314.5109769999984
  0
ARC
  5
398
330
22
100
AcDbEntity
  8
255
  6
Continuous
 62
     7
100
AcDbCircle
 10
2140.356538600437
 20
896.3837209903489
 30
0.0
 40
99.96804886200001
100
AcDbArc
 50
225.4890230000016
 51
268.9936899999945
  0
ARC
  5
399
330
22
100
AcDbEntity
  8
255
  6
Continuous
 62
     7
100
AcDbCircle
 10
2093.555905798436
 20
848.8767821593491
 30
0.0
 40
33.28076492400001
100
AcDbArc
 50
180.2024470000006
 51
225.6090929999956
  0
LINE
  5
39A
330
22
100
AcDbEntity
  8
255
  6
Continuous
 62
     7
100
AcDbLine
 10
2060.275347520436
 20
848.7591905863492
 30
0.0
 11
2060.275347520436
 21
938.083590586349
 31
0.0
  0
ARC
  5
39B
330
22
100
AcDbEntity
  8
255
  6
Continuous
 62
     7
100
AcDbCircle
 10
2055.275847520436
 20
938.083590586349
 30
0.0
 40
4.9995
100
AcDbArc
 50
0.0
 51
180.0
  0
LINE
  5
39C
330
22
100
AcDbEntity
  8
255
  6
Continuous
 62
     7
100
AcDbLine
 10
2050.276347520437
 20
938.083590586349
 30
0.0
 11
2050.276347520437
 21
899.7540905863488
 31
0.0
  0
LINE
  5
39D
330
22
100
AcDbEntity
  8
255
  6
Continuous
 62
     7
100
AcDbLine
 10
2050.276347520437
 20
899.7540905863488
 30
0.0
 11
2035.277847520436
 21
899.7540905863488
 31
0.0
  0
ARC
  5
39E
330
22
100
AcDbEntity
  8
255
  6
Continuous
 62
     7
100
AcDbCircle
 10
2035.277847520436
 20
908.086590586349
 30
0.0
 40
8.332499999999999
100
AcDbArc
 50
180.0
 51
270.0
  0
LINE
  5
39F
330
22
100
AcDbEntity
  8
255
  6
Continuous
 62
     7
100
AcDbLine
 10
2026.945347520436
 20
908.086590586349
 30
0.0
 11
2026.945347520436
 21
966.4140905863488
 31
0.0
  0
ARC
  5
3A0
330
22
100
AcDbEntity
  8
255
  6
Continuous
 62
     7
100
AcDbCircle
 10
2023.612347520437
 20
966.4140905863488
 30
0.0
 40
3.333
100
AcDbArc
 50
0.0
 51
90.0
  0
LINE
  5
3A1
330
22
100
AcDbEntity
  8
255
  6
Continuous
 62
     7
100
AcDbLine
 10
2023.612347520437
 20
969.747090586349
 30
0.0
 11
2021.945847520437
 21
969.747090586349
 31
0.0
  0
ARC
  5
3A2
330
22
100
AcDbEntity
  8
255
  6
Continuous
 62
     7
100
AcDbCircle
 10
2021.945847520437
 20
978.079590586349
 30
0.0
 40
8.332499999999999
100
AcDbArc
 50
180.0
 51
270.0
  0
LINE
  5
3A3
330
22
100
AcDbEntity
  8
255
  6
Continuous
 62
     7
100
AcDbLine
 10
2013.613347520436
 20
978.079590586349
 30
0.0
 11
2013.613347520436
 21
994.7445905863489
 31
0.0
  0
ARC
  5
3A4
330
22
100
AcDbEntity
  8
255
  6
Continuous
 62
     7
100
AcDbCircle
 10
2021.945847520437
 20
994.7445905863489
 30
0.0
 40
8.332499999999999
100
AcDbArc
 50
90.0
 51
180.0
  0
LINE
  5
3A5
330
22
100
AcDbEntity
  8
255
  6
Continuous
 62
     7
100
AcDbLine
 10
2021.945847520437
 20
1003.077090586349
 30
0.0
 11
2055.275847520436
 21
1003.077090586349
 31
0.0
  0
ARC
  5
3A6
330
22
100
AcDbEntity
  8
255
  6
Continuous
 62
     7
100
AcDbCircle
 10
2055.406491121436
 20
1029.787559272349
 30
0.0
 40
26.71078865400001
100
AcDbArc
 50
269.7197629999946
 51
309.1603060000032
  0
ARC
  5
3A7
330
22
100
AcDbEntity
  8
255
  6
Continuous
 62
     7
100
AcDbCircle
 10
2139.701304130436
 20
927.123983323349
 30
0.0
 40
106.125563049
100
AcDbArc
 50
93.29510099999538
 51
129.4461439999992
  0
LINE
  5
3A8
330
22
100
AcDbEntity
  8
255
  6
Continuous
 62
     7
100
AcDbLine
 10
2133.601347520436
 20
1033.074090586349
 30
0.0
 11
2133.601347520436
 21
1001.410590586349
 31
0.0
  0
ARC
  5
3A9
330
22
100
AcDbEntity
  8
255
  6
Continuous
 62
     7
100
AcDbCircle
 10
2138.600847520437
 20
1001.410590586349
 30
0.0
 40
4.9995
100
AcDbArc
 50
180.0
 51
0.0
  0
LINE
  5
3AA
330
22
100
AcDbEntity
  8
255
  6
Continuous
 62
     7
100
AcDbLine
 10
2143.600347520437
 20
1001.410590586349
 30
0.0
 11
2143.600347520437
 21
1032.740790586349
 31
0.0
  0
ARC
  5
3AB
330
22
100
AcDbEntity
  8
255
  6
Continuous
 62
     7
100
AcDbCircle
 10
2138.402560684437
 20
927.032772445349
 30
0.0
 40
105.835732035
100
AcDbArc
 50
50.82304800000459
 51
87.18496800000322
  0
ARC
  5
3AC
330
22
100
AcDbEntity
  8
255
  6
Continuous
 62
     7
100
AcDbCircle
 10
2222.128503919436
 20
1029.787559272349
 30
0.0
 40
26.71078865400001
100
AcDbArc
 50
230.8396939999969
 51
270.2802369999925
  0
LINE
  5
3AD
330
22
100
AcDbEntity
  8
255
  6
Continuous
 62
     7
100
AcDbLine
 10
2222.259147520436
 20
1003.077090586349
 30
0.0
 11
2255.255847520436
 21
1003.077090586349
 31
0.0
  0
ARC
  5
3AE
330
22
100
AcDbEntity
  8
255
  6
Continuous
 62
     7
100
AcDbCircle
 10
2255.255847520436
 20
994.7445905863489
 30
0.0
 40
8.332499999999999
100
AcDbArc
 50
0.0
 51
90.0
  0
LINE
  5
3AF
330
22
100
AcDbEntity
  8
255
  6
Continuous
 62
     7
100
AcDbLine
 10
2263.588347520436
 20
994.7445905863489
 30
0.0
 11
2263.588347520436
 21
978.079590586349
 31
0.0
  0
ARC
  5
3B0
330
22
100
AcDbEntity
  8
255
  6
Continuous
 62
     7
100
AcDbCircle
 10
2255.255847520436
 20
978.079590586349
 30
0.0
 40
8.332499999999999
100
AcDbArc
 50
270.0
 51
0.0
  0
LINE
  5
3B1
330
22
100
AcDbEntity
  8
255
  6
Continuous
 62
     7
100
AcDbLine
 10
2255.255847520436
 20
969.747090586349
 30
0.0
 11
2253.589347520437
 21
969.747090586349
 31
0.0
  0
ARC
  5
3B2
330
22
100
AcDbEntity
  8
255
  6
Continuous
 62
     7
100
AcDbCircle
 10
2253.589347520437
 20
966.4140905863488
 30
0.0
 40
3.333
100
AcDbArc
 50
90.0
 51
180.0
  0
LINE
  5
3B3
330
22
100
AcDbEntity
  8
255
  6
Continuous
 62
     7
100
AcDbLine
 10
2250.256347520437
 20
966.4140905863488
 30
0.0
 11
2250.256347520437
 21
908.086590586349
 31
0.0
  0
ARC
  5
3B4
330
22
100
AcDbEntity
  8
255
  6
Continuous
 62
     7
100
AcDbCircle
 10
2241.923847520437
 20
908.086590586349
 30
0.0
 40
8.332499999999999
100
AcDbArc
 50
270.0
 51
0.0
  0
LINE
  5
3B5
330
22
100
AcDbEntity
  8
255
  6
Continuous
 62
     7
100
AcDbLine
 10
2241.923847520437
 20
899.7540905863488
 30
0.0
 11
2226.925347520436
 21
899.7540905863488
 31
0.0
  0
ARC
  5
3B6
330
22
100
AcDbEntity
  8
255
  6
Continuous
 62
     7
100
AcDbCircle
 10
1862.295147520436
 20
773.7666905863491
 30
0.0
 40
33.33
100
AcDbArc
 50
0.0
 51
90.0
  0
LINE
  5
3B7
330
22
100
AcDbEntity
  8
255
  6
Continuous
 62
     7
100
AcDbLine
 10
1895.625147520436
 20
733.7706905863491
 30
0.0
 11
1895.625147520436
 21
773.7666905863491
 31
0.0
  0
ARC
  5
3B8
330
22
100
AcDbEntity
  8
255
  6
Continuous
 62
     7
100
AcDbCircle
 10
1862.295147520436
 20
733.7706905863491
 30
0.0
 40
33.33
100
AcDbArc
 50
270.0
 51
0.0
  0
LINE
  5
3B9
330
22
100
AcDbEntity
  8
255
  6
Continuous
 62
     7
100
AcDbLine
 10
1795.635147520436
 20
700.4406905863491
 30
0.0
 11
1862.295147520436
 21
700.4406905863491
 31
0.0
  0
ARC
  5
3BA
330
22
100
AcDbEntity
  8
255
  6
Continuous
 62
     7
100
AcDbCircle
 10
1795.635147520436
 20
710.4396905863491
 30
0.0
 40
9.999
100
AcDbArc
 50
180.0
 51
270.0
  0
LINE
  5
3BB
330
22
100
AcDbEntity
  8
255
  6
Continuous
 62
     7
100
AcDbLine
 10
1785.636147520436
 20
797.0976905863491
 30
0.0
 11
1785.636147520436
 21
710.4396905863491
 31
0.0
  0
ARC
  5
3BC
330
22
100
AcDbEntity
  8
255
  6
Continuous
 62
     7
100
AcDbCircle
 10
1795.635147520436
 20
797.0976905863491
 30
0.0
 40
9.999
100
AcDbArc
 50
90.0
 51
180.0
  0
LINE
  5
3BD
330
22
100
AcDbEntity
  8
255
  6
Continuous
 62
     7
100
AcDbLine
 10
1862.295147520436
 20
807.0966905863491
 30
0.0
 11
1795.635147520436
 21
807.0966905863491
 31
0.0
  0
LINE
  5
3BE
330
22
100
AcDbEntity
  8
255
  6
Continuous
 62
     7
100
AcDbLine
 10
1960.618647520436
 20
973.7466905863492
 30
0.0
 11
1960.618647520436
 21
865.4241905863491
 31
0.0
  0
ARC
  5
3BF
330
22
100
AcDbEntity
  8
255
  6
Continuous
 62
     7
100
AcDbCircle
 10
1965.618147520436
 20
865.4241905863491
 30
0.0
 40
4.9995
100
AcDbArc
 50
180.0
 51
0.0
  0
LINE
  5
3C0
330
22
100
AcDbEntity
  8
255
  6
Continuous
 62
     7
100
AcDbLine
 10
1970.617647520436
 20
865.4241905863491
 30
0.0
 11
1970.617647520436
 21
973.7466905863492
 31
0.0
  0
LINE
  5
3C1
330
22
100
AcDbEntity
  8
255
  6
Continuous
 62
     7
100
AcDbLine
 10
1970.617647520436
 20
973.7466905863492
 30
0.0
 11
1982.283147520436
 21
973.7466905863492
 31
0.0
  0
ARC
  5
3C2
330
22
100
AcDbEntity
  8
255
  6
Continuous
 62
     7
100
AcDbCircle
 10
1982.283147520436
 20
963.7476905863492
 30
0.0
 40
9.999
100
AcDbArc
 50
0.0
 51
90.0
  0
LINE
  5
3C3
330
22
100
AcDbEntity
  8
255
  6
Continuous
 62
     7
100
AcDbLine
 10
1992.282147520436
 20
963.7476905863492
 30
0.0
 11
1992.282147520436
 21
767.1006905863491
 31
0.0
  0
ARC
  5
3C4
330
22
100
AcDbEntity
  8
255
  6
Continuous
 62
     7
100
AcDbCircle
 10
1982.283147520436
 20
767.1006905863491
 30
0.0
 40
9.999
100
AcDbArc
 50
270.0
 51
0.0
  0
LINE
  5
3C5
330
22
100
AcDbEntity
  8
255
  6
Continuous
 62
     7
100
AcDbLine
 10
1982.283147520436
 20
757.1016905863491
 30
0.0
 11
1944.953547520436
 21
757.1016905863491
 31
0.0
  0
ARC
  5
3C6
330
22
100
AcDbEntity
  8
255
  6
Continuous
 62
     7
100
AcDbCircle
 10
1944.975445330436
 20
747.130567798349
 30
0.0
 40
9.971146119
100
AcDbArc
 50
90.12583400000513
 51
193.6966199999995
  0
LINE
  5
3C7
330
22
100
AcDbEntity
  8
255
  6
Continuous
 62
     7
100
AcDbLine
 10
1935.287847520436
 20
744.769590586349
 30
0.0
 11
1941.287247520436
 21
719.4387905863491
 31
0.0
  0
ARC
  5
3C8
330
22
100
AcDbEntity
  8
255
  6
Continuous
 62
     7
100
AcDbCircle
 10
1960.735125871437
 20
723.6778666363491
 30
0.0
 40
19.904516016
100
AcDbArc
 50
192.2964909999983
 51
269.6647079999961
  0
LINE
  5
3C9
330
22
100
AcDbEntity
  8
255
  6
Continuous
 62
     7
100
AcDbLine
 10
1960.618647520436
 20
703.7736905863489
 30
0.0
 11
1982.283147520436
 21
703.7736905863489
 31
0.0
  0
ARC
  5
3CA
330
22
100
AcDbEntity
  8
255
  6
Continuous
 62
     7
100
AcDbCircle
 10
1982.283147520436
 20
693.774690586349
 30
0.0
 40
9.999
100
AcDbArc
 50
0.0
 51
90.0
  0
LINE
  5
3CB
330
22
100
AcDbEntity
  8
255
  6
Continuous
 62
     7
100
AcDbLine
 10
1992.282147520436
 20
693.774690586349
 30
0.0
 11
1992.282147520436
 21
683.7756905863491
 31
0.0
  0
LINE
  5
3CC
330
22
100
AcDbEntity
  8
255
  6
Continuous
 62
     7
100
AcDbLine
 10
1992.282147520436
 20
683.7756905863491
 30
0.0
 11
1863.961647520436
 21
683.7756905863491
 31
0.0
  0
ARC
  5
3CD
330
22
100
AcDbEntity
  8
255
  6
Continuous
 62
     7
100
AcDbCircle
 10
1863.961647520436
 20
678.776190586349
 30
0.0
 40
4.9995
100
AcDbArc
 50
90.0
 51
270.0
  0
LINE
  5
3CE
330
22
100
AcDbEntity
  8
255
  6
Continuous
 62
     7
100
AcDbLine
 10
1863.961647520436
 20
673.7766905863491
 30
0.0
 11
1992.282147520436
 21
673.7766905863491
 31
0.0
  0
LINE
  5
3CF
330
22
100
AcDbEntity
  8
255
  6
Continuous
 62
     7
100
AcDbLine
 10
1992.282147520436
 20
673.7766905863491
 30
0.0
 11
1992.282147520436
 21
663.777690586349
 31
0.0
  0
ARC
  5
3D0
330
22
100
AcDbEntity
  8
255
  6
Continuous
 62
     7
100
AcDbCircle
 10
1982.283147520436
 20
663.777690586349
 30
0.0
 40
9.999
100
AcDbArc
 50
270.0
 51
0.0
  0
LINE
  5
3D1
330
22
100
AcDbEntity
  8
255
  6
Continuous
 62
     7
100
AcDbLine
 10
1982.283147520436
 20
653.778690586349
 30
0.0
 11
1735.641147520436
 21
653.778690586349
 31
0.0
  0
ARC
  5
3D2
330
22
100
AcDbEntity
  8
255
  6
Continuous
 62
     7
100
AcDbCircle
 10
1735.641147520436
 20
663.777690586349
 30
0.0
 40
9.999
100
AcDbArc
 50
180.0
 51
270.0
  0
LINE
  5
3D3
330
22
100
AcDbEntity
  8
255
  6
Continuous
 62
     7
100
AcDbLine
 10
1725.642147520436
 20
663.777690586349
 30
0.0
 11
1725.642147520436
 21
693.774690586349
 31
0.0
  0
ARC
  5
3D4
330
22
100
AcDbEntity
  8
255
  6
Continuous
 62
     7
100
AcDbCircle
 10
1735.641147520436
 20
693.774690586349
 30
0.0
 40
9.999
100
AcDbArc
 50
90.0
 51
180.0
  0
LINE
  5
3D5
330
22
100
AcDbEntity
  8
255
  6
Continuous
 62
     7
100
AcDbLine
 10
1735.641147520436
 20
703.7736905863489
 30
0.0
 11
1742.307147520437
 21
703.7736905863489
 31
0.0
  0
ARC
  5
3D6
330
22
100
AcDbEntity
  8
255
  6
Continuous
 62
     7
100
AcDbCircle
 10
1742.307147520437
 20
713.772690586349
 30
0.0
 40
9.999
100
AcDbArc
 50
270.0
 51
0.0
  0
LINE
  5
3D7
330
22
100
AcDbEntity
  8
255
  6
Continuous
 62
     7
100
AcDbLine
 10
1752.306147520436
 20
713.772690586349
 30
0.0
 11
1752.306147520436
 21
797.0976905863491
 31
0.0
  0
ARC
  5
3D8
330
22
100
AcDbEntity
  8
255
  6
Continuous
 62
     7
100
AcDbCircle
 10
1742.307147520437
 20
797.0976905863491
 30
0.0
 40
9.999
100
AcDbArc
 50
0.0
 51
90.0
  0
LINE
  5
3D9
330
22
100
AcDbEntity
  8
255
  6
Continuous
 62
     7
100
AcDbLine
 10
1742.307147520437
 20
807.0966905863491
 30
0.0
 11
1302.351147520436
 21
807.0966905863491
 31
0.0
  0
ARC
  5
3DA
330
22
100
AcDbEntity
  8
255
  6
Continuous
 62
     7
100
AcDbCircle
 10
1302.351147520436
 20
817.0956905863491
 30
0.0
 40
9.999
100
AcDbArc
 50
180.0
 51
270.0
  0
LINE
  5
3DB
330
22
100
AcDbEntity
  8
255
  6
Continuous
 62
     7
100
AcDbLine
 10
1292.352147520436
 20
817.0956905863491
 30
0.0
 11
1292.352147520436
 21
827.0946905863491
 31
0.0
  0
LINE
  5
3DC
330
22
100
AcDbEntity
  8
255
  6
Continuous
 62
     7
100
AcDbLine
 10
1292.352147520436
 20
827.0946905863491
 30
0.0
 11
1364.011647520436
 21
827.0946905863491
 31
0.0
  0
ARC
  5
3DD
330
22
100
AcDbEntity
  8
255
  6
Continuous
 62
     7
100
AcDbCircle
 10
1364.011647520436
 20
832.0941905863492
 30
0.0
 40
4.9995
100
AcDbArc
 50
270.0
 51
90.0
  0
LINE
  5
3DE
330
22
100
AcDbEntity
  8
255
  6
Continuous
 62
     7
100
AcDbLine
 10
1364.011647520436
 20
837.0936905863491
 30
0.0
 11
1292.352147520436
 21
837.0936905863491
 31
0.0
  0
LINE
  5
3DF
330
22
100
AcDbEntity
  8
255
  6
Continuous
 62
     7
100
AcDbLine
 10
1292.352147520436
 20
837.0936905863491
 30
0.0
 11
1292.352147520436
 21
862.0911905863492
 31
0.0
  0
ARC
  5
3E0
330
22
100
AcDbEntity
  8
255
  6
Continuous
 62
     7
100
AcDbCircle
 10
1287.352647520436
 20
862.0911905863492
 30
0.0
 40
4.9995
100
AcDbArc
 50
0.0
 51
180.0
  0
LINE
  5
3E1
330
22
100
AcDbEntity
  8
255
  6
Continuous
 62
     7
100
AcDbLine
 10
1282.353147520436
 20
862.0911905863492
 30
0.0
 11
1282.353147520436
 21
837.0936905863491
 31
0.0
  0
LINE
  5
3E2
330
22
100
AcDbEntity
  8
255
  6
Continuous
 62
     7
100
AcDbLine
 10
1282.353147520436
 20
837.0936905863491
 30
0.0
 11
1269.021147520436
 21
837.0936905863491
 31
0.0
  0
ARC
  5
3E3
330
22
100
AcDbEntity
  8
255
  6
Continuous
 62
     7
100
AcDbCircle
 10
1269.021147520436
 20
847.0926905863491
 30
0.0
 40
9.999
100
AcDbArc
 50
180.0
 51
270.0
  0
LINE
  5
3E4
330
22
100
AcDbEntity
  8
255
  6
Continuous
 62
     7
100
AcDbLine
 10
1259.022147520436
 20
847.0926905863491
 30
0.0
 11
1259.022147520436
 21
963.7476905863492
 31
0.0
  0
ARC
  5
3E5
330
22
100
AcDbEntity
  8
255
  6
Continuous
 62
     7
100
AcDbCircle
 10
1269.021147520436
 20
963.7476905863492
 30
0.0
 40
9.999
100
AcDbArc
 50
90.0
 51
180.0
  0
LINE
  5
3E6
330
22
100
AcDbEntity
  8
255
  6
Continuous
 62
     7
100
AcDbLine
 10
1269.021147520436
 20
973.7466905863492
 30
0.0
 11
1302.351147520436
 21
973.7466905863492
 31
0.0
  0
LINE
  5
3E7
330
22
100
AcDbEntity
  8
255
  6
Continuous
 62
     7
100
AcDbLine
 10
1302.351147520436
 20
973.7466905863492
 30
0.0
 11
1302.351147520436
 21
952.082190586349
 31
0.0
  0
ARC
  5
3E8
330
22
100
AcDbEntity
  8
255
  6
Continuous
 62
     7
100
AcDbCircle
 10
1307.350647520436
 20
952.082190586349
 30
0.0
 40
4.9995
100
AcDbArc
 50
180.0
 51
0.0
  0
LINE
  5
3E9
330
22
100
AcDbEntity
  8
255
  6
Continuous
 62
     7
100
AcDbLine
 10
1312.350147520436
 20
952.082190586349
 30
0.0
 11
1312.350147520436
 21
973.7466905863492
 31
0.0
  0
LINE
  5
3EA
330
22
100
AcDbEntity
  8
255
  6
Continuous
 62
     7
100
AcDbLine
 10
1312.350147520436
 20
973.7466905863492
 30
0.0
 11
1495.665147520436
 21
973.7466905863492
 31
0.0
  0
LINE
  5
3EB
330
22
100
AcDbEntity
  8
255
  6
Continuous
 62
     7
100
AcDbLine
 10
1495.665147520436
 20
973.7466905863492
 30
0.0
 11
1495.665147520436
 21
952.082190586349
 31
0.0
  0
ARC
  5
3EC
330
22
100
AcDbEntity
  8
255
  6
Continuous
 62
     7
100
AcDbCircle
 10
1500.664647520436
 20
952.082190586349
 30
0.0
 40
4.9995
100
AcDbArc
 50
180.0
 51
0.0
  0
LINE
  5
3ED
330
22
100
AcDbEntity
  8
255
  6
Continuous
 62
     7
100
AcDbLine
 10
1505.664147520436
 20
952.082190586349
 30
0.0
 11
1505.664147520436
 21
973.7466905863492
 31
0.0
  0
LINE
  5
3EE
330
22
100
AcDbEntity
  8
255
  6
Continuous
 62
     7
100
AcDbLine
 10
1505.664147520436
 20
973.7466905863492
 30
0.0
 11
1685.646147520436
 21
973.7466905863492
 31
0.0
  0
LINE
  5
3EF
330
22
100
AcDbEntity
  8
255
  6
Continuous
 62
     7
100
AcDbLine
 10
1685.646147520436
 20
973.7466905863492
 30
0.0
 11
1685.646147520436
 21
952.082190586349
 31
0.0
  0
ARC
  5
3F0
330
22
100
AcDbEntity
  8
255
  6
Continuous
 62
     7
100
AcDbCircle
 10
1690.645647520436
 20
952.082190586349
 30
0.0
 40
4.9995
100
AcDbArc
 50
180.0
 51
0.0
  0
LINE
  5
3F1
330
22
100
AcDbEntity
  8
255
  6
Continuous
 62
     7
100
AcDbLine
 10
1695.645147520436
 20
952.082190586349
 30
0.0
 11
1695.645147520436
 21
973.7466905863492
 31
0.0
  0
LINE
  5
3F2
330
22
100
AcDbEntity
  8
255
  6
Continuous
 62
     7
100
AcDbLine
 10
1695.645147520436
 20
973.7466905863492
 30
0.0
 11
1885.626147520437
 21
973.7466905863492
 31
0.0
  0
LINE
  5
3F3
330
22
100
AcDbEntity
  8
255
  6
Continuous
 62
     7
100
AcDbLine
 10
1885.626147520437
 20
973.7466905863492
 30
0.0
 11
1885.626147520437
 21
952.082190586349
 31
0.0
  0
ARC
  5
3F4
330
22
100
AcDbEntity
  8
255
  6
Continuous
 62
     7
100
AcDbCircle
 10
1890.625647520436
 20
952.082190586349
 30
0.0
 40
4.9995
100
AcDbArc
 50
180.0
 51
0.0
  0
LINE
  5
3F5
330
22
100
AcDbEntity
  8
255
  6
Continuous
 62
     7
100
AcDbLine
 10
1895.625147520436
 20
952.082190586349
 30
0.0
 11
1895.625147520436
 21
973.7466905863492
 31
0.0
  0
LINE
  5
3F6
330
22
100
AcDbEntity
  8
255
  6
Continuous
 62
     7
100
AcDbLine
 10
1895.625147520436
 20
973.7466905863492
 30
0.0
 11
1960.618647520436
 21
973.7466905863492
 31
0.0
  0
LINE
  5
3F7
330
22
100
AcDbEntity
  8
255
  6
Continuous
 62
     7
100
AcDbLine
 10
1946.375625795031
 20
1047.890560244201
 30
0.0
 11
1931.377125795031
 21
1047.890560244201
 31
0.0
  0
ARC
  5
3F8
330
22
100
AcDbEntity
  8
255
  6
Continuous
 62
     7
100
AcDbCircle
 10
1931.377125795031
 20
1042.891060244201
 30
0.0
 40
4.9995
100
AcDbArc
 50
90.0
 51
270.0
  0
LINE
  5
3F9
330
22
100
AcDbEntity
  8
255
  6
Continuous
 62
     7
100
AcDbLine
 10
1931.377125795031
 20
1037.891560244201
 30
0.0
 11
1946.375625795031
 21
1037.891560244201
 31
0.0
  0
LINE
  5
3FA
330
22
100
AcDbEntity
  8
255
  6
Continuous
 62
     7
100
AcDbLine
 10
1946.375625795031
 20
1037.891560244201
 30
0.0
 11
1946.375625795031
 21
1024.559560244201
 31
0.0
  0
ARC
  5
3FB
330
22
100
AcDbEntity
  8
255
  6
Continuous
 62
     7
100
AcDbCircle
 10
1936.376625795031
 20
1024.559560244201
 30
0.0
 40
9.999
100
AcDbArc
 50
270.0
 51
0.0
  0
LINE
  5
3FC
330
22
100
AcDbEntity
  8
255
  6
Continuous
 62
     7
100
AcDbLine
 10
1936.376625795031
 20
1014.560560244201
 30
0.0
 11
1917.045225795031
 21
1014.560560244201
 31
0.0
  0
ARC
  5
3FD
330
22
100
AcDbEntity
  8
255
  6
Continuous
 62
     7
100
AcDbCircle
 10
1917.112359081031
 20
1007.919991034201
 30
0.0
 40
6.640909176
100
AcDbArc
 50
90.57922300000363
 51
131.4957990000018
  0
LINE
  5
3FE
330
22
100
AcDbEntity
  8
255
  6
Continuous
 62
     7
100
AcDbLine
 10
1912.712325795031
 20
1012.894060244201
 30
0.0
 11
1899.380325795031
 21
1000.561960244201
 31
0.0
  0
ARC
  5
3FF
330
22
100
AcDbEntity
  8
255
  6
Continuous
 62
     7
100
AcDbCircle
 10
1892.596250937031
 20
1007.8503713302
 30
0.0
 40
9.957137520000003
100
AcDbArc
 50
268.7614369999974
 51
312.947479
  0
LINE
  5
400
330
22
100
AcDbEntity
  8
255
  6
Continuous
 62
     7
100
AcDbLine
 10
1892.381025795031
 20
997.8955602442008
 30
0.0
 11
1803.056625795031
 21
997.8955602442008
 31
0.0
  0
ARC
  5
401
330
22
100
AcDbEntity
  8
255
  6
Continuous
 62
     7
100
AcDbCircle
 10
1803.056625795031
 20
1014.560560244201
 30
0.0
 40
16.665
100
AcDbArc
 50
180.0
 51
270.0
  0
LINE
  5
402
330
22
100
AcDbEntity
  8
255
  6
Continuous
 62
     7
100
AcDbLine
 10
1786.391625795031
 20
1014.560560244201
 30
0.0
 11
1786.391625795031
 21
1091.2195602442
 31
0.0
  0
ARC
  5
403
330
22
100
AcDbEntity
  8
255
  6
Continuous
 62
     7
100
AcDbCircle
 10
1796.390625795031
 20
1091.2195602442
 30
0.0
 40
9.999
100
AcDbArc
 50
0.0
 51
180.0
  0
LINE
  5
404
330
22
100
AcDbEntity
  8
255
  6
Continuous
 62
     7
100
AcDbLine
 10
1806.389625795031
 20
1091.2195602442
 30
0.0
 11
1806.389625795031
 21
1024.559560244201
 31
0.0
  0
ARC
  5
405
330
22
100
AcDbEntity
  8
255
  6
Continuous
 62
     7
100
AcDbCircle
 10
1813.055625795031
 20
1024.559560244201
 30
0.0
 40
6.666
100
AcDbArc
 50
180.0
 51
270.0
  0
LINE
  5
406
330
22
100
AcDbEntity
  8
255
  6
Continuous
 62
     7
100
AcDbLine
 10
1813.055625795031
 20
1017.893560244201
 30
0.0
 11
1879.715625795031
 21
1017.893560244201
 31
0.0
  0
ARC
  5
407
330
22
100
AcDbEntity
  8
255
  6
Continuous
 62
     7
100
AcDbCircle
 10
1879.715625795031
 20
1024.559560244201
 30
0.0
 40
6.666
100
AcDbArc
 50
270.0
 51
0.0
  0
LINE
  5
408
330
22
100
AcDbEntity
  8
255
  6
Continuous
 62
     7
100
AcDbLine
 10
1886.381625795031
 20
1024.559560244201
 30
0.0
 11
1886.381625795031
 21
1057.889560244201
 31
0.0
  0
ARC
  5
409
330
22
100
AcDbEntity
  8
255
  6
Continuous
 62
     7
100
AcDbCircle
 10
1893.047625795031
 20
1057.889560244201
 30
0.0
 40
6.666
100
AcDbArc
 50
90.0
 51
180.0
  0
LINE
  5
40A
330
22
100
AcDbEntity
  8
255
  6
Continuous
 62
     7
100
AcDbLine
 10
1893.047625795031
 20
1064.555560244201
 30
0.0
 11
1936.376625795031
 21
1064.555560244201
 31
0.0
  0
ARC
  5
40B
330
22
100
AcDbEntity
  8
255
  6
Continuous
 62
     7
100
AcDbCircle
 10
1936.376625795031
 20
1054.556560244201
 30
0.0
 40
9.999
100
AcDbArc
 50
0.0
 51
90.0
  0
LINE
  5
40C
330
22
100
AcDbEntity
  8
255
  6
Continuous
 62
     7
100
AcDbLine
 10
1946.375625795031
 20
1054.556560244201
 30
0.0
 11
1946.375625795031
 21
1047.890560244201
 31
0.0
  0
ARC
  5
40D
330
22
100
AcDbEntity
  8
255
  6
Continuous
 62
     7
100
AcDbCircle
 10
2131.023825795031
 20
1150.546960244201
 30
0.0
 40
8.332499999999999
100
AcDbArc
 50
270.0
 51
90.0
  0
LINE
  5
40E
330
22
100
AcDbEntity
  8
255
  6
Continuous
 62
     7
100
AcDbLine
 10
2131.023825795031
 20
1158.8794602442
 30
0.0
 11
2042.032725795031
 21
1158.8794602442
 31
0.0
  0
ARC
  5
40F
330
22
100
AcDbEntity
  8
255
  6
Continuous
 62
     7
100
AcDbCircle
 10
2042.032725795031
 20
1150.546960244201
 30
0.0
 40
8.332499999999999
100
AcDbArc
 50
90.0
 51
270.0
  0
LINE
  5
410
330
22
100
AcDbEntity
  8
255
  6
Continuous
 62
     7
100
AcDbLine
 10
2042.032725795031
 20
1142.214460244201
 30
0.0
 11
2131.023825795031
 21
1142.214460244201
 31
0.0
  0
ARC
  5
411
330
22
100
AcDbEntity
  8
255
  6
Continuous
 62
     7
100
AcDbCircle
 10
2141.022825795031
 20
1177.2109602442
 30
0.0
 40
8.332499999999999
100
AcDbArc
 50
270.0
 51
90.0
  0
LINE
  5
412
330
22
100
AcDbEntity
  8
255
  6
Continuous
 62
     7
100
AcDbLine
 10
2141.022825795031
 20
1185.5434602442
 30
0.0
 11
2027.367525795031
 21
1185.5434602442
 31
0.0
  0
ARC
  5
413
330
22
100
AcDbEntity
  8
255
  6
Continuous
 62
     7
100
AcDbCircle
 10
2027.367525795031
 20
1177.2109602442
 30
0.0
 40
8.332499999999999
100
AcDbArc
 50
90.0
 51
270.0
  0
LINE
  5
414
330
22
100
AcDbEntity
  8
255
  6
Continuous
 62
     7
100
AcDbLine
 10
2027.367525795031
 20
1168.8784602442
 30
0.0
 11
2141.022825795031
 21
1168.8784602442
 31
0.0
  0
ARC
  5
415
330
22
100
AcDbEntity
  8
255
  6
Continuous
 62
     7
100
AcDbCircle
 10
2141.022825795031
 20
1203.874960244201
 30
0.0
 40
8.332499999999999
100
AcDbArc
 50
270.0
 51
90.0
  0
LINE
  5
416
330
22
100
AcDbEntity
  8
255
  6
Continuous
 62
     7
100
AcDbLine
 10
2141.022825795031
 20
1212.207460244201
 30
0.0
 11
2024.367825795032
 21
1212.207460244201
 31
0.0
  0
ARC
  5
417
330
22
100
AcDbEntity
  8
255
  6
Continuous
 62
     7
100
AcDbCircle
 10
2024.367825795032
 20
1203.874960244201
 30
0.0
 40
8.332499999999999
100
AcDbArc
 50
90.0
 51
270.0
  0
LINE
  5
418
330
22
100
AcDbEntity
  8
255
  6
Continuous
 62
     7
100
AcDbLine
 10
2024.367825795032
 20
1195.542460244201
 30
0.0
 11
2141.022825795031
 21
1195.542460244201
 31
0.0
  0
ARC
  5
419
330
22
100
AcDbEntity
  8
255
  6
Continuous
 62
     7
100
AcDbCircle
 10
2141.022825795031
 20
1230.5389602442
 30
0.0
 40
8.332499999999999
100
AcDbArc
 50
270.0
 51
90.0
  0
LINE
  5
41A
330
22
100
AcDbEntity
  8
255
  6
Continuous
 62
     7
100
AcDbLine
 10
2141.022825795031
 20
1238.8714602442
 30
0.0
 11
2027.367525795031
 21
1238.8714602442
 31
0.0
  0
ARC
  5
41B
330
22
100
AcDbEntity
  8
255
  6
Continuous
 62
     7
100
AcDbCircle
 10
2027.367525795031
 20
1230.5389602442
 30
0.0
 40
8.332499999999999
100
AcDbArc
 50
90.0
 51
270.0
  0
LINE
  5
41C
330
22
100
AcDbEntity
  8
255
  6
Continuous
 62
     7
100
AcDbLine
 10
2027.367525795031
 20
1222.2064602442
 30
0.0
 11
2141.022825795031
 21
1222.2064602442
 31
0.0
  0
ARC
  5
41D
330
22
100
AcDbEntity
  8
255
  6
Continuous
 62
     7
100
AcDbCircle
 10
2131.023825795031
 20
1257.202960244201
 30
0.0
 40
8.332499999999999
100
AcDbArc
 50
270.0
 51
90.0
  0
LINE
  5
41E
330
22
100
AcDbEntity
  8
255
  6
Continuous
 62
     7
100
AcDbLine
 10
2131.023825795031
 20
1265.535460244201
 30
0.0
 11
2042.032725795031
 21
1265.535460244201
 31
0.0
  0
ARC
  5
41F
330
22
100
AcDbEntity
  8
255
  6
Continuous
 62
     7
100
AcDbCircle
 10
2042.032725795031
 20
1257.202960244201
 30
0.0
 40
8.332499999999999
100
AcDbArc
 50
90.0
 51
270.0
  0
LINE
  5
420
330
22
100
AcDbEntity
  8
255
  6
Continuous
 62
     7
100
AcDbLine
 10
2042.032725795031
 20
1248.870460244201
 30
0.0
 11
2131.023825795031
 21
1248.870460244201
 31
0.0
  0
ARC
  5
421
330
22
100
AcDbEntity
  8
255
  6
Continuous
 62
     7
100
AcDbCircle
 10
2082.627735888031
 20
1312.959890660201
 30
0.0
 40
20.06581988400001
100
AcDbArc
 50
359.7263699999983
 51
70.39248500000342
  0
LINE
  5
422
330
22
100
AcDbEntity
  8
255
  6
Continuous
 62
     7
100
AcDbLine
 10
2089.361325795032
 20
1331.862160244201
 30
0.0
 11
2088.361425795032
 21
1332.195460244201
 31
0.0
  0
ARC
  5
423
330
22
100
AcDbEntity
  8
255
  6
Continuous
 62
     7
100
AcDbCircle
 10
2082.661849143031
 20
1316.517708176201
 30
0.0
 40
16.681641669
100
AcDbArc
 50
70.02149200000101
 51
151.296327999999
  0
LINE
  5
424
330
22
100
AcDbEntity
  8
255
  6
Continuous
 62
     7
100
AcDbLine
 10
2068.030125795031
 20
1324.5295602442
 30
0.0
 11
2052.698325795032
 21
1296.865660244201
 31
0.0
  0
ARC
  5
425
330
22
100
AcDbEntity
  8
255
  6
Continuous
 62
     7
100
AcDbCircle
 10
2061.655360002031
 20
1292.268333356201
 30
0.0
 40
10.067963103
100
AcDbArc
 50
152.8301870000009
 51
270.2393969999992
  0
LINE
  5
426
330
22
100
AcDbEntity
  8
255
  6
Continuous
 62
     7
100
AcDbLine
 10
2061.697425795031
 20
1282.2004602442
 30
0.0
 11
2082.695325795032
 21
1282.2004602442
 31
0.0
  0
ARC
  5
427
330
22
100
AcDbEntity
  8
255
  6
Continuous
 62
     7
100
AcDbCircle
 10
2082.695325795032
 20
1302.1984602442
 30
0.0
 40
19.998
100
AcDbArc
 50
270.0
 51
0.0
  0
LINE
  5
428
330
22
100
AcDbEntity
  8
255
  6
Continuous
 62
     7
100
AcDbLine
 10
2102.693325795032
 20
1302.1984602442
 30
0.0
 11
2102.693325795032
 21
1312.864060244201
 31
0.0
  0
ARC
  5
429
330
22
100
AcDbEntity
  8
255
  6
Continuous
 62
     7
100
AcDbCircle
 10
2082.695325795032
 20
1105.551460244201
 30
0.0
 40
19.998
100
AcDbArc
 50
0.0
 51
90.0
  0
LINE
  5
42A
330
22
100
AcDbEntity
  8
255
  6
Continuous
 62
     7
100
AcDbLine
 10
2082.695325795032
 20
1125.549460244201
 30
0.0
 11
2061.697425795031
 21
1125.549460244201
 31
0.0
  0
ARC
  5
42B
330
22
100
AcDbEntity
  8
255
  6
Continuous
 62
     7
100
AcDbCircle
 10
2061.609827889031
 20
1115.403038321201
 30
0.0
 40
10.146801885
100
AcDbArc
 50
89.5053650000035
 51
208.5671219999982
  0
LINE
  5
42C
330
22
100
AcDbEntity
  8
255
  6
Continuous
 62
     7
100
AcDbLine
 10
2052.698325795032
 20
1110.5509602442
 30
0.0
 11
2068.030125795031
 21
1082.887060244201
 31
0.0
  0
ARC
  5
42D
330
22
100
AcDbEntity
  8
255
  6
Continuous
 62
     7
100
AcDbCircle
 10
2082.771921468031
 20
1091.1908431162
 30
0.0
 40
16.919614536
100
AcDbArc
 50
209.3917610000003
 51
289.2904180000007
  0
LINE
  5
42E
330
22
100
AcDbEntity
  8
255
  6
Continuous
 62
     7
100
AcDbLine
 10
2088.361425795032
 20
1075.221160244201
 30
0.0
 11
2089.361325795032
 21
1075.8877602442
 31
0.0
  0
ARC
  5
42F
330
22
100
AcDbEntity
  8
255
  6
Continuous
 62
     7
100
AcDbCircle
 10
2082.785006826032
 20
1094.678960936201
 30
0.0
 40
19.908722262
100
AcDbArc
 50
289.2884170000012
 51
359.6362280000004
  0
LINE
  5
430
330
22
100
AcDbEntity
  8
255
  6
Continuous
 62
     7
100
AcDbLine
 10
2102.693325795032
 20
1094.552560244201
 30
0.0
 11
2102.693325795032
 21
1105.551460244201
 31
0.0
  0
LINE
  5
431
330
22
100
AcDbEntity
  8
255
  6
Continuous
 62
     7
100
AcDbLine
 10
2152.688325795031
 20
1302.1984602442
 30
0.0
 11
2137.689825795032
 21
1302.1984602442
 31
0.0
  0
ARC
  5
432
330
22
100
AcDbEntity
  8
255
  6
Continuous
 62
     7
100
AcDbCircle
 10
2137.689825795032
 20
1297.1989602442
 30
0.0
 40
4.9995
100
AcDbArc
 50
90.0
 51
270.0
  0
LINE
  5
433
330
22
100
AcDbEntity
  8
255
  6
Continuous
 62
     7
100
AcDbLine
 10
2137.689825795032
 20
1292.199460244201
 30
0.0
 11
2152.688325795031
 21
1292.199460244201
 31
0.0
  0
LINE
  5
434
330
22
100
AcDbEntity
  8
255
  6
Continuous
 62
     7
100
AcDbLine
 10
2152.688325795031
 20
1292.199460244201
 30
0.0
 11
2152.688325795031
 21
1289.199760244201
 31
0.0
  0
ARC
  5
435
330
22
100
AcDbEntity
  8
255
  6
Continuous
 62
     7
100
AcDbCircle
 10
2161.354125795031
 20
1289.199760244201
 30
0.0
 40
8.665800000000002
100
AcDbArc
 50
180.0
 51
270.0
  0
LINE
  5
436
330
22
100
AcDbEntity
  8
255
  6
Continuous
 62
     7
100
AcDbLine
 10
2161.354125795031
 20
1280.5339602442
 30
0.0
 11
2162.687325795031
 21
1280.5339602442
 31
0.0
  0
ARC
  5
437
330
22
100
AcDbEntity
  8
255
  6
Continuous
 62
     7
100
AcDbCircle
 10
2162.687325795031
 20
1270.534960244201
 30
0.0
 40
9.999
100
AcDbArc
 50
0.0
 51
90.0
  0
LINE
  5
438
330
22
100
AcDbEntity
  8
255
  6
Continuous
 62
     7
100
AcDbLine
 10
2172.686325795031
 20
1270.534960244201
 30
0.0
 11
2172.686325795031
 21
1137.2149602442
 31
0.0
  0
ARC
  5
439
330
22
100
AcDbEntity
  8
255
  6
Continuous
 62
     7
100
AcDbCircle
 10
2162.687325795031
 20
1137.2149602442
 30
0.0
 40
9.999
100
AcDbArc
 50
270.0
 51
0.0
  0
LINE
  5
43A
330
22
100
AcDbEntity
  8
255
  6
Continuous
 62
     7
100
AcDbLine
 10
2162.687325795031
 20
1127.215960244201
 30
0.0
 11
2161.354125795031
 21
1127.215960244201
 31
0.0
  0
ARC
  5
43B
330
22
100
AcDbEntity
  8
255
  6
Continuous
 62
     7
100
AcDbCircle
 10
2161.354125795031
 20
1118.550160244201
 30
0.0
 40
8.665800000000002
100
AcDbArc
 50
90.0
 51
180.0
  0
LINE
  5
43C
330
22
100
AcDbEntity
  8
255
  6
Continuous
 62
     7
100
AcDbLine
 10
2152.688325795031
 20
1118.550160244201
 30
0.0
 11
2152.688325795031
 21
1115.5504602442
 31
0.0
  0
LINE
  5
43D
330
22
100
AcDbEntity
  8
255
  6
Continuous
 62
     7
100
AcDbLine
 10
2152.688325795031
 20
1115.5504602442
 30
0.0
 11
2137.689825795032
 21
1115.5504602442
 31
0.0
  0
ARC
  5
43E
330
22
100
AcDbEntity
  8
255
  6
Continuous
 62
     7
100
AcDbCircle
 10
2137.689825795032
 20
1110.5509602442
 30
0.0
 40
4.9995
100
AcDbArc
 50
90.0
 51
270.0
  0
LINE
  5
43F
330
22
100
AcDbEntity
  8
255
  6
Continuous
 62
     7
100
AcDbLine
 10
2137.689825795032
 20
1105.551460244201
 30
0.0
 11
2152.688325795031
 21
1105.551460244201
 31
0.0
  0
LINE
  5
440
330
22
100
AcDbEntity
  8
255
  6
Continuous
 62
     7
100
AcDbLine
 10
2152.688325795031
 20
1105.551460244201
 30
0.0
 11
2152.688325795031
 21
1084.220260244201
 31
0.0
  0
ARC
  5
441
330
22
100
AcDbEntity
  8
255
  6
Continuous
 62
     7
100
AcDbCircle
 10
2142.734164644032
 20
1084.2834605902
 30
0.0
 40
9.954361131
100
AcDbArc
 50
289.2884170000012
 51
359.6362280000004
  0
LINE
  5
442
330
22
100
AcDbEntity
  8
255
  6
Continuous
 62
     7
100
AcDbLine
 10
2146.022325795032
 20
1074.8878602442
 30
0.0
 11
2075.362725795031
 21
1049.557060244201
 31
0.0
  0
ARC
  5
443
330
22
100
AcDbEntity
  8
255
  6
Continuous
 62
     7
100
AcDbCircle
 10
2068.427719365031
 20
1068.198175946201
 30
0.0
 40
19.889330868
100
AcDbArc
 50
208.998274999996
 51
290.4065849999975
  0
LINE
  5
444
330
22
100
AcDbEntity
  8
255
  6
Continuous
 62
     7
100
AcDbLine
 10
2051.031825795031
 20
1058.556160244201
 30
0.0
 11
2018.035125795031
 21
1118.216860244201
 31
0.0
  0
ARC
  5
445
330
22
100
AcDbEntity
  8
255
  6
Continuous
 62
     7
100
AcDbCircle
 10
2172.675550206031
 20
1203.583636046201
 30
0.0
 40
176.638464387
100
AcDbArc
 50
179.9055040000001
 51
208.9001919999965
  0
ARC
  5
446
330
22
100
AcDbEntity
  8
255
  6
Continuous
 62
     7
100
AcDbCircle
 10
2172.675550206031
 20
1204.166284442201
 30
0.0
 40
176.638464387
100
AcDbArc
 50
151.0998080000035
 51
180.0944959999999
  0
LINE
  5
447
330
22
100
AcDbEntity
  8
255
  6
Continuous
 62
     7
100
AcDbLine
 10
2018.035125795031
 20
1289.533060244201
 30
0.0
 11
2051.031825795031
 21
1348.860460244201
 31
0.0
  0
ARC
  5
448
330
22
100
AcDbEntity
  8
255
  6
Continuous
 62
     7
100
AcDbCircle
 10
2068.694735994032
 20
1339.193996987201
 30
0.0
 40
20.135016297
100
AcDbArc
 50
70.66056699999869
 51
151.3092280000034
  0
LINE
  5
449
330
22
100
AcDbEntity
  8
255
  6
Continuous
 62
     7
100
AcDbLine
 10
2075.362725795031
 20
1358.192860244201
 30
0.0
 11
2146.022325795032
 21
1332.8620602442
 31
0.0
  0
ARC
  5
44A
330
22
100
AcDbEntity
  8
255
  6
Continuous
 62
     7
100
AcDbCircle
 10
2142.734164644032
 20
1323.466459898201
 30
0.0
 40
9.954361131
100
AcDbArc
 50
0.3637719999995647
 51
70.71158299999881
  0
LINE
  5
44B
330
22
100
AcDbEntity
  8
255
  6
Continuous
 62
     7
100
AcDbLine
 10
2152.688325795031
 20
1323.529660244201
 30
0.0
 11
2152.688325795031
 21
1302.1984602442
 31
0.0
  0
LINE
  5
44C
330
22
100
AcDbEntity
  8
255
  6
Continuous
 62
     7
100
AcDbLine
 10
2076.029325795031
 20
1392.189460244201
 30
0.0
 11
2076.029325795031
 21
1495.845760244201
 31
0.0
  0
ARC
  5
44D
330
22
100
AcDbEntity
  8
255
  6
Continuous
 62
     7
100
AcDbCircle
 10
2071.029825795031
 20
1495.845760244201
 30
0.0
 40
4.9995
100
AcDbArc
 50
0.0
 51
180.0
  0
LINE
  5
44E
330
22
100
AcDbEntity
  8
255
  6
Continuous
 62
     7
100
AcDbLine
 10
2066.030325795031
 20
1495.845760244201
 30
0.0
 11
2066.030325795031
 21
1392.189460244201
 31
0.0
  0
LINE
  5
44F
330
22
100
AcDbEntity
  8
255
  6
Continuous
 62
     7
100
AcDbLine
 10
2066.030325795031
 20
1392.189460244201
 30
0.0
 11
2015.702025795031
 21
1392.189460244201
 31
0.0
  0
ARC
  5
450
330
22
100
AcDbEntity
  8
255
  6
Continuous
 62
     7
100
AcDbCircle
 10
2015.714034594031
 20
1403.442681476201
 30
0.0
 40
11.253224565
100
AcDbArc
 50
107.2924449999941
 51
269.9388510000018
  0
LINE
  5
451
330
22
100
AcDbEntity
  8
255
  6
Continuous
 62
     7
100
AcDbLine
 10
2012.369025795031
 20
1414.187260244201
 30
0.0
 11
2020.701525795031
 21
1416.520360244201
 31
0.0
  0
ARC
  5
452
330
22
100
AcDbEntity
  8
255
  6
Continuous
 62
     7
100
AcDbCircle
 10
2017.641428502031
 20
1426.103371847201
 30
0.0
 40
10.059737259
100
AcDbArc
 50
287.7095889999984
 51
0.4709649999984784
  0
LINE
  5
453
330
22
100
AcDbEntity
  8
255
  6
Continuous
 62
     7
100
AcDbLine
 10
2027.700825795031
 20
1426.186060244201
 30
0.0
 11
2027.700825795031
 21
1542.841060244201
 31
0.0
  0
ARC
  5
454
330
22
100
AcDbEntity
  8
255
  6
Continuous
 62
     7
100
AcDbCircle
 10
2020.934035875031
 20
1542.996681347201
 30
0.0
 40
6.768576408000001
100
AcDbArc
 50
358.6825630000003
 51
65.86872599999608
  0
LINE
  5
455
330
22
100
AcDbEntity
  8
255
  6
Continuous
 62
     7
100
AcDbLine
 10
2023.701225795031
 20
1549.173760244201
 30
0.0
 11
2014.035525795031
 21
1552.8400602442
 31
0.0
  0
ARC
  5
456
330
22
100
AcDbEntity
  8
255
  6
Continuous
 62
     7
100
AcDbCircle
 10
2017.689117066031
 20
1562.236577165201
 30
0.0
 40
10.081831716
100
AcDbArc
 50
133.8671439999992
 51
248.752720000001
  0
LINE
  5
457
330
22
100
AcDbEntity
  8
255
  6
Continuous
 62
     7
100
AcDbLine
 10
2010.702525795031
 20
1569.505060244201
 30
0.0
 11
2024.701125795031
 21
1582.8370602442
 31
0.0
  0
ARC
  5
458
330
22
100
AcDbEntity
  8
255
  6
Continuous
 62
     7
100
AcDbCircle
 10
2031.485200653031
 20
1575.548649158201
 30
0.0
 40
9.957137520000003
100
AcDbArc
 50
88.76143699999742
 51
132.9474790000022
  0
LINE
  5
459
330
22
100
AcDbEntity
  8
255
  6
Continuous
 62
     7
100
AcDbLine
 10
2031.700425795031
 20
1585.503460244201
 30
0.0
 11
2110.359225795031
 21
1585.503460244201
 31
0.0
  0
ARC
  5
45A
330
22
100
AcDbEntity
  8
255
  6
Continuous
 62
     7
100
AcDbCircle
 10
2110.574450937031
 20
1575.548649158201
 30
0.0
 40
9.957137520000003
100
AcDbArc
 50
47.05252099999778
 51
91.23856300000261
  0
LINE
  5
45B
330
22
100
AcDbEntity
  8
255
  6
Continuous
 62
     7
100
AcDbLine
 10
2117.358525795031
 20
1582.8370602442
 30
0.0
 11
2131.357125795031
 21
1569.505060244201
 31
0.0
  0
ARC
  5
45C
330
22
100
AcDbEntity
  8
255
  6
Continuous
 62
     7
100
AcDbCircle
 10
2124.370534524032
 20
1562.236577165201
 30
0.0
 40
10.081831716
100
AcDbArc
 50
291.2472799999989
 51
46.13285600000074
  0
LINE
  5
45D
330
22
100
AcDbEntity
  8
255
  6
Continuous
 62
     7
100
AcDbLine
 10
2128.024125795031
 20
1552.8400602442
 30
0.0
 11
2118.358425795031
 21
1549.173760244201
 31
0.0
  0
ARC
  5
45E
330
22
100
AcDbEntity
  8
255
  6
Continuous
 62
     7
100
AcDbCircle
 10
2120.973834228031
 20
1543.092541760201
 30
0.0
 40
6.619787954999999
100
AcDbArc
 50
113.2715629999996
 51
182.1771479999986
  0
LINE
  5
45F
330
22
100
AcDbEntity
  8
255
  6
Continuous
 62
     7
100
AcDbLine
 10
2114.358825795031
 20
1542.841060244201
 30
0.0
 11
2114.358825795031
 21
1426.186060244201
 31
0.0
  0
ARC
  5
460
330
22
100
AcDbEntity
  8
255
  6
Continuous
 62
     7
100
AcDbCircle
 10
2124.418223088031
 20
1426.103371847201
 30
0.0
 40
10.059737259
100
AcDbArc
 50
179.5290350000015
 51
252.2904110000016
  0
LINE
  5
461
330
22
100
AcDbEntity
  8
255
  6
Continuous
 62
     7
100
AcDbLine
 10
2121.358125795032
 20
1416.520360244201
 30
0.0
 11
2129.690625795031
 21
1414.187260244201
 31
0.0
  0
ARC
  5
462
330
22
100
AcDbEntity
  8
255
  6
Continuous
 62
     7
100
AcDbCircle
 10
2126.345616996031
 20
1403.442681476201
 30
0.0
 40
11.253224565
100
AcDbArc
 50
270.0611489999982
 51
72.70755500000589
  0
LINE
  5
463
330
22
100
AcDbEntity
  8
255
  6
Continuous
 62
     7
100
AcDbLine
 10
2126.357625795031
 20
1392.189460244201
 30
0.0
 11
2076.029325795031
 21
1392.189460244201
 31
0.0
  0
ARC
  5
464
330
22
100
AcDbEntity
  8
255
  6
Continuous
 62
     7
100
AcDbCircle
 10
1976.352069952912
 20
1631.335432779953
 30
0.0
 40
4.9995
100
AcDbArc
 50
0.0
 51
180.0
  0
LINE
  5
465
330
22
100
AcDbEntity
  8
255
  6
Continuous
 62
     7
100
AcDbLine
 10
1971.352569952912
 20
1631.335432779953
 30
0.0
 11
1971.352569952912
 21
1609.670932779953
 31
0.0
  0
LINE
  5
466
330
22
100
AcDbEntity
  8
255
  6
Continuous
 62
     7
100
AcDbLine
 10
1971.352569952912
 20
1609.670932779953
 30
0.0
 11
1963.020069952912
 21
1609.670932779953
 31
0.0
  0
ARC
  5
467
330
22
100
AcDbEntity
  8
255
  6
Continuous
 62
     7
100
AcDbCircle
 10
1963.020069952912
 20
1619.669932779953
 30
0.0
 40
9.999
100
AcDbArc
 50
180.0
 51
270.0
  0
LINE
  5
468
330
22
100
AcDbEntity
  8
255
  6
Continuous
 62
     7
100
AcDbLine
 10
1953.021069952912
 20
1619.669932779953
 30
0.0
 11
1953.021069952912
 21
1656.332932779953
 31
0.0
  0
LINE
  5
469
330
22
100
AcDbEntity
  8
255
  6
Continuous
 62
     7
100
AcDbLine
 10
1953.021069952912
 20
1656.332932779953
 30
0.0
 11
1833.033069952912
 21
1656.332932779953
 31
0.0
  0
LINE
  5
46A
330
22
100
AcDbEntity
  8
255
  6
Continuous
 62
     7
100
AcDbLine
 10
1833.033069952912
 20
1656.332932779953
 30
0.0
 11
1833.033069952912
 21
1619.669932779953
 31
0.0
  0
ARC
  5
46B
330
22
100
AcDbEntity
  8
255
  6
Continuous
 62
     7
100
AcDbCircle
 10
1823.034069952912
 20
1619.669932779953
 30
0.0
 40
9.999
100
AcDbArc
 50
270.0
 51
0.0
  0
LINE
  5
46C
330
22
100
AcDbEntity
  8
255
  6
Continuous
 62
     7
100
AcDbLine
 10
1823.034069952912
 20
1609.670932779953
 30
0.0
 11
1814.701569952912
 21
1609.670932779953
 31
0.0
  0
LINE
  5
46D
330
22
100
AcDbEntity
  8
255
  6
Continuous
 62
     7
100
AcDbLine
 10
1814.701569952912
 20
1609.670932779953
 30
0.0
 11
1814.701569952912
 21
1631.335432779953
 31
0.0
  0
ARC
  5
46E
330
22
100
AcDbEntity
  8
255
  6
Continuous
 62
     7
100
AcDbCircle
 10
1809.702069952912
 20
1631.335432779953
 30
0.0
 40
4.9995
100
AcDbArc
 50
0.0
 51
180.0
  0
LINE
  5
46F
330
22
100
AcDbEntity
  8
255
  6
Continuous
 62
     7
100
AcDbLine
 10
1804.702569952912
 20
1631.335432779953
 30
0.0
 11
1804.702569952912
 21
1609.670932779953
 31
0.0
  0
LINE
  5
470
330
22
100
AcDbEntity
  8
255
  6
Continuous
 62
     7
100
AcDbLine
 10
1804.702569952912
 20
1609.670932779953
 30
0.0
 11
1789.704069952912
 21
1609.670932779953
 31
0.0
  0
ARC
  5
471
330
22
100
AcDbEntity
  8
255
  6
Continuous
 62
     7
100
AcDbCircle
 10
1789.704069952912
 20
1619.669932779953
 30
0.0
 40
9.999
100
AcDbArc
 50
180.0
 51
270.0
  0
LINE
  5
472
330
22
100
AcDbEntity
  8
255
  6
Continuous
 62
     7
100
AcDbLine
 10
1779.705069952912
 20
1619.669932779953
 30
0.0
 11
1779.705069952912
 21
1654.333132779953
 31
0.0
  0
ARC
  5
473
330
22
100
AcDbEntity
  8
255
  6
Continuous
 62
     7
100
AcDbCircle
 10
1773.039069952912
 20
1654.333132779953
 30
0.0
 40
6.666
100
AcDbArc
 50
0.0
 51
90.0
  0
LINE
  5
474
330
22
100
AcDbEntity
  8
255
  6
Continuous
 62
     7
100
AcDbLine
 10
1773.039069952912
 20
1660.999132779953
 30
0.0
 11
1753.041069952912
 21
1660.999132779953
 31
0.0
  0
ARC
  5
475
330
22
100
AcDbEntity
  8
255
  6
Continuous
 62
     7
100
AcDbCircle
 10
1753.041069952912
 20
1667.665132779953
 30
0.0
 40
6.666
100
AcDbArc
 50
180.0
 51
270.0
  0
LINE
  5
476
330
22
100
AcDbEntity
  8
255
  6
Continuous
 62
     7
100
AcDbLine
 10
1746.375069952912
 20
1667.665132779953
 30
0.0
 11
1746.375069952912
 21
1717.660132779953
 31
0.0
  0
ARC
  5
477
330
22
100
AcDbEntity
  8
255
  6
Continuous
 62
     7
100
AcDbCircle
 10
1753.041069952912
 20
1717.660132779953
 30
0.0
 40
6.666
100
AcDbArc
 50
0.0
 51
180.0
  0
LINE
  5
478
330
22
100
AcDbEntity
  8
255
  6
Continuous
 62
     7
100
AcDbLine
 10
1759.707069952912
 20
1717.660132779953
 30
0.0
 11
1759.707069952912
 21
1684.330132779953
 31
0.0
  0
LINE
  5
479
330
22
100
AcDbEntity
  8
255
  6
Continuous
 62
     7
100
AcDbLine
 10
1759.707069952912
 20
1684.330132779953
 30
0.0
 11
1784.704569952912
 21
1684.330132779953
 31
0.0
  0
LINE
  5
47A
330
22
100
AcDbEntity
  8
255
  6
Continuous
 62
     7
100
AcDbLine
 10
1784.704569952912
 20
1684.330132779953
 30
0.0
 11
1784.704569952912
 21
1717.660132779953
 31
0.0
  0
ARC
  5
47B
330
22
100
AcDbEntity
  8
255
  6
Continuous
 62
     7
100
AcDbCircle
 10
1791.370569952912
 20
1717.660132779953
 30
0.0
 40
6.666
100
AcDbArc
 50
90.0
 51
180.0
  0
LINE
  5
47C
330
22
100
AcDbEntity
  8
255
  6
Continuous
 62
     7
100
AcDbLine
 10
1791.370569952912
 20
1724.326132779953
 30
0.0
 11
1796.370069952912
 21
1724.326132779953
 31
0.0
  0
ARC
  5
47D
330
22
100
AcDbEntity
  8
255
  6
Continuous
 62
     7
100
AcDbCircle
 10
1796.370069952912
 20
1717.660132779953
 30
0.0
 40
6.666
100
AcDbArc
 50
0.0
 51
90.0
  0
LINE
  5
47E
330
22
100
AcDbEntity
  8
255
  6
Continuous
 62
     7
100
AcDbLine
 10
1803.036069952912
 20
1717.660132779953
 30
0.0
 11
1803.036069952912
 21
1689.662932779953
 31
0.0
  0
LINE
  5
47F
330
22
100
AcDbEntity
  8
255
  6
Continuous
 62
     7
100
AcDbLine
 10
1803.036069952912
 20
1689.662932779953
 30
0.0
 11
1983.018069952912
 21
1689.662932779953
 31
0.0
  0
LINE
  5
480
330
22
100
AcDbEntity
  8
255
  6
Continuous
 62
     7
100
AcDbLine
 10
1983.018069952912
 20
1689.662932779953
 30
0.0
 11
1983.018069952912
 21
1717.660132779953
 31
0.0
  0
ARC
  5
481
330
22
100
AcDbEntity
  8
255
  6
Continuous
 62
     7
100
AcDbCircle
 10
1989.684069952912
 20
1717.660132779953
 30
0.0
 40
6.666
100
AcDbArc
 50
90.0
 51
180.0
  0
LINE
  5
482
330
22
100
AcDbEntity
  8
255
  6
Continuous
 62
     7
100
AcDbLine
 10
1989.684069952912
 20
1724.326132779953
 30
0.0
 11
1994.683569952912
 21
1724.326132779953
 31
0.0
  0
ARC
  5
483
330
22
100
AcDbEntity
  8
255
  6
Continuous
 62
     7
100
AcDbCircle
 10
1994.683569952912
 20
1717.660132779953
 30
0.0
 40
6.666
100
AcDbArc
 50
0.0
 51
90.0
  0
LINE
  5
484
330
22
100
AcDbEntity
  8
255
  6
Continuous
 62
     7
100
AcDbLine
 10
2001.349569952912
 20
1717.660132779953
 30
0.0
 11
2001.349569952912
 21
1684.330132779953
 31
0.0
  0
LINE
  5
485
330
22
100
AcDbEntity
  8
255
  6
Continuous
 62
     7
100
AcDbLine
 10
2001.349569952912
 20
1684.330132779953
 30
0.0
 11
2026.347069952913
 21
1684.330132779953
 31
0.0
  0
LINE
  5
486
330
22
100
AcDbEntity
  8
255
  6
Continuous
 62
     7
100
AcDbLine
 10
2026.347069952913
 20
1684.330132779953
 30
0.0
 11
2026.347069952913
 21
1717.660132779953
 31
0.0
  0
ARC
  5
487
330
22
100
AcDbEntity
  8
255
  6
Continuous
 62
     7
100
AcDbCircle
 10
2033.013069952913
 20
1717.660132779953
 30
0.0
 40
6.666
100
AcDbArc
 50
0.0
 51
180.0
  0
LINE
  5
488
330
22
100
AcDbEntity
  8
255
  6
Continuous
 62
     7
100
AcDbLine
 10
2039.679069952912
 20
1717.660132779953
 30
0.0
 11
2039.679069952912
 21
1667.665132779953
 31
0.0
  0
ARC
  5
489
330
22
100
AcDbEntity
  8
255
  6
Continuous
 62
     7
100
AcDbCircle
 10
2033.013069952913
 20
1667.665132779953
 30
0.0
 40
6.666
100
AcDbArc
 50
270.0
 51
0.0
  0
LINE
  5
48A
330
22
100
AcDbEntity
  8
255
  6
Continuous
 62
     7
100
AcDbLine
 10
2033.013069952913
 20
1660.999132779953
 30
0.0
 11
2013.015069952913
 21
1660.999132779953
 31
0.0
  0
ARC
  5
48B
330
22
100
AcDbEntity
  8
255
  6
Continuous
 62
     7
100
AcDbCircle
 10
2013.015069952913
 20
1654.333132779953
 30
0.0
 40
6.666
100
AcDbArc
 50
90.0
 51
180.0
  0
LINE
  5
48C
330
22
100
AcDbEntity
  8
255
  6
Continuous
 62
     7
100
AcDbLine
 10
2006.349069952912
 20
1654.333132779953
 30
0.0
 11
2006.349069952912
 21
1619.669932779953
 31
0.0
  0
ARC
  5
48D
330
22
100
AcDbEntity
  8
255
  6
Continuous
 62
     7
100
AcDbCircle
 10
1996.350069952912
 20
1619.669932779953
 30
0.0
 40
9.999
100
AcDbArc
 50
270.0
 51
0.0
  0
LINE
  5
48E
330
22
100
AcDbEntity
  8
255
  6
Continuous
 62
     7
100
AcDbLine
 10
1996.350069952912
 20
1609.670932779953
 30
0.0
 11
1981.351569952913
 21
1609.670932779953
 31
0.0
  0
LINE
  5
48F
330
22
100
AcDbEntity
  8
255
  6
Continuous
 62
     7
100
AcDbLine
 10
1981.351569952913
 20
1609.670932779953
 30
0.0
 11
1981.351569952913
 21
1631.335432779953
 31
0.0
  0
LINE
  5
490
330
22
100
AcDbEntity
  8
255
  6
Continuous
 62
     7
100
AcDbLine
 10
2514.204999705997
 20
1049.685674345451
 30
0.0
 11
2548.868199705997
 21
1049.685674345451
 31
0.0
  0
ARC
  5
491
330
22
100
AcDbEntity
  8
255
  6
Continuous
 62
     7
100
AcDbCircle
 10
2548.868199705997
 20
1054.685174345451
 30
0.0
 40
4.9995
100
AcDbArc
 50
270.0
 51
90.0
  0
LINE
  5
492
330
22
100
AcDbEntity
  8
255
  6
Continuous
 62
     7
100
AcDbLine
 10
2548.868199705997
 20
1059.684674345451
 30
0.0
 11
2514.204999705997
 21
1059.684674345451
 31
0.0
  0
LINE
  5
493
330
22
100
AcDbEntity
  8
255
  6
Continuous
 62
     7
100
AcDbLine
 10
2514.204999705997
 20
1059.684674345451
 30
0.0
 11
2514.871599705998
 21
1062.351074345452
 31
0.0
  0
LINE
  5
494
330
22
100
AcDbEntity
  8
255
  6
Continuous
 62
     7
100
AcDbLine
 10
2514.871599705998
 20
1062.351074345452
 30
0.0
 11
2546.868399705997
 21
1207.669874345452
 31
0.0
  0
ARC
  5
495
330
22
100
AcDbEntity
  8
255
  6
Continuous
 62
     7
100
AcDbCircle
 10
2542.111378788997
 20
1208.784302891452
 30
0.0
 40
4.885814703000001
100
AcDbArc
 50
346.8150660000022
 51
88.93490199999563
  0
ARC
  5
496
330
22
100
AcDbEntity
  8
255
  6
Continuous
 62
     7
100
AcDbCircle
 10
2542.187541171997
 20
1248.678463076452
 30
0.0
 40
35.00919206400001
100
AcDbArc
 50
188.2311960000008
 51
270.0239879999988
  0
LINE
  5
497
330
22
100
AcDbEntity
  8
255
  6
Continuous
 62
     7
100
AcDbLine
 10
2507.538999705997
 20
1243.666274345452
 30
0.0
 11
2542.202199705997
 21
1243.666274345452
 31
0.0
  0
ARC
  5
498
330
22
100
AcDbEntity
  8
255
  6
Continuous
 62
     7
100
AcDbCircle
 10
2542.202199705997
 20
1248.665774345452
 30
0.0
 40
4.9995
100
AcDbArc
 50
270.0
 51
90.0
  0
LINE
  5
499
330
22
100
AcDbEntity
  8
255
  6
Continuous
 62
     7
100
AcDbLine
 10
2542.202199705997
 20
1253.665274345452
 30
0.0
 11
2506.205799705997
 21
1253.665274345452
 31
0.0
  0
LINE
  5
49A
330
22
100
AcDbEntity
  8
255
  6
Continuous
 62
     7
100
AcDbLine
 10
2506.205799705997
 20
1253.665274345452
 30
0.0
 11
2547.201699705997
 21
1396.984274345452
 31
0.0
  0
ARC
  5
49B
330
22
100
AcDbEntity
  8
255
  6
Continuous
 62
     7
100
AcDbCircle
 10
2542.229766948997
 20
1398.273488744452
 30
0.0
 40
5.136359646
100
AcDbArc
 50
345.4634419999955
 51
79.08784699998844
  0
ARC
  5
49C
330
22
100
AcDbEntity
  8
255
  6
Continuous
 62
     7
100
AcDbCircle
 10
2548.928163708997
 20
1437.918953801452
 30
0.0
 40
35.07256239300001
100
AcDbArc
 50
188.0942430000011
 51
260.6036370000095
  0
LINE
  5
49D
330
22
100
AcDbEntity
  8
255
  6
Continuous
 62
     7
100
AcDbLine
 10
2514.204999705997
 20
1432.980674345451
 30
0.0
 11
2548.868199705997
 21
1432.980674345451
 31
0.0
  0
ARC
  5
49E
330
22
100
AcDbEntity
  8
255
  6
Continuous
 62
     7
100
AcDbCircle
 10
2548.868199705997
 20
1437.980174345451
 30
0.0
 40
4.9995
100
AcDbArc
 50
270.0
 51
90.0
  0
LINE
  5
49F
330
22
100
AcDbEntity
  8
255
  6
Continuous
 62
     7
100
AcDbLine
 10
2548.868199705997
 20
1442.979674345451
 30
0.0
 11
2514.204999705997
 21
1442.979674345451
 31
0.0
  0
ARC
  5
4A0
330
22
100
AcDbEntity
  8
255
  6
Continuous
 62
     7
100
AcDbCircle
 10
2548.886154576997
 20
1437.669942038452
 30
0.0
 40
35.08526445600001
100
AcDbArc
 50
112.954503000003
 51
171.2955290000031
  0
ARC
  5
4A1
330
22
100
AcDbEntity
  8
255
  6
Continuous
 62
     7
100
AcDbCircle
 10
2533.173462669997
 20
1474.594295900452
 30
0.0
 40
5.043635585999999
100
AcDbArc
 50
293.7267660000085
 51
4.345722000000764
  0
LINE
  5
4A2
330
22
100
AcDbEntity
  8
255
  6
Continuous
 62
     7
100
AcDbLine
 10
2538.202599705997
 20
1474.976474345452
 30
0.0
 11
2533.536399705997
 21
1599.963974345452
 31
0.0
  0
ARC
  5
4A3
330
22
100
AcDbEntity
  8
255
  6
Continuous
 62
     7
100
AcDbCircle
 10
2528.567703291997
 20
1599.590275052452
 30
0.0
 40
4.982728344
100
AcDbArc
 50
4.301174999998848
 51
70.83600799999243
  0
ARC
  5
4A4
330
22
100
AcDbEntity
  8
255
  6
Continuous
 62
     7
100
AcDbCircle
 10
2540.651671440997
 20
1637.824144616452
 30
0.0
 40
35.117574558
100
AcDbArc
 50
187.9605370000018
 51
252.6911349999887
  0
LINE
  5
4A5
330
22
100
AcDbEntity
  8
255
  6
Continuous
 62
     7
100
AcDbLine
 10
2505.872499705997
 20
1632.960674345451
 30
0.0
 11
2540.535699705997
 21
1632.960674345451
 31
0.0
  0
ARC
  5
4A6
330
22
100
AcDbEntity
  8
255
  6
Continuous
 62
     7
100
AcDbCircle
 10
2540.535699705997
 20
1637.960174345452
 30
0.0
 40
4.9995
100
AcDbArc
 50
270.0
 51
90.0
  0
LINE
  5
4A7
330
22
100
AcDbEntity
  8
255
  6
Continuous
 62
     7
100
AcDbLine
 10
2540.535699705997
 20
1642.959674345451
 30
0.0
 11
2505.872499705997
 21
1642.959674345451
 31
0.0
  0
ARC
  5
4A8
330
22
100
AcDbEntity
  8
255
  6
Continuous
 62
     7
100
AcDbCircle
 10
2540.538602748997
 20
1637.958077888451
 30
0.0
 40
35.025057144
100
AcDbArc
 50
296.5623369999907
 51
171.7900690000013
  0
ARC
  5
4A9
330
22
100
AcDbEntity
  8
255
  6
Continuous
 62
     7
100
AcDbCircle
 10
2558.493380424997
 20
1602.224998220451
 30
0.0
 40
4.965856698
100
AcDbArc
 50
117.4948450000065
 51
183.0153929999986
  0
LINE
  5
4AA
330
22
100
AcDbEntity
  8
255
  6
Continuous
 62
     7
100
AcDbLine
 10
2553.534399705997
 20
1601.963774345452
 30
0.0
 11
2558.200599705997
 21
1474.976474345452
 31
0.0
  0
ARC
  5
4AB
330
22
100
AcDbEntity
  8
255
  6
Continuous
 62
     7
100
AcDbCircle
 10
2563.236372744997
 20
1475.257972859452
 30
0.0
 40
5.043635585999999
100
AcDbArc
 50
183.1994800000005
 51
246.1908270000056
  0
ARC
  5
4AC
330
22
100
AcDbEntity
  8
255
  6
Continuous
 62
     7
100
AcDbCircle
 10
2548.896523539997
 20
1437.827279636451
 30
0.0
 40
35.04699828300001
100
AcDbArc
 50
311.6744920000019
 51
69.44752999999152
  0
LINE
  5
4AD
330
22
100
AcDbEntity
  8
255
  6
Continuous
 62
     7
100
AcDbLine
 10
2572.199199705997
 20
1411.649474345452
 30
0.0
 11
2537.202699705997
 21
1289.994974345451
 31
0.0
  0
ARC
  5
4AE
330
22
100
AcDbEntity
  8
255
  6
Continuous
 62
     7
100
AcDbCircle
 10
2542.134516474997
 20
1288.748678987452
 30
0.0
 40
5.086854597
100
AcDbArc
 50
165.8179640000018
 51
270.7623619999907
  0
ARC
  5
4AF
330
22
100
AcDbEntity
  8
255
  6
Continuous
 62
     7
100
AcDbCircle
 10
2542.173392586997
 20
1248.714262829452
 30
0.0
 40
34.948024848
100
AcDbArc
 50
331.4295890000042
 51
89.9527729999929
  0
LINE
  5
4B0
330
22
100
AcDbEntity
  8
255
  6
Continuous
 62
     7
100
AcDbLine
 10
2572.865799705998
 20
1232.000774345452
 30
0.0
 11
2542.535499705997
 21
1095.681074345451
 31
0.0
  0
ARC
  5
4B1
330
22
100
AcDbEntity
  8
255
  6
Continuous
 62
     7
100
AcDbCircle
 10
2547.494217117997
 20
1094.730516077452
 30
0.0
 40
5.049005048999999
100
AcDbArc
 50
169.1483469999993
 51
270.4627949999992
  0
ARC
  5
4B2
330
22
100
AcDbEntity
  8
255
  6
Continuous
 62
     7
100
AcDbCircle
 10
2548.868199705997
 20
1054.685174345451
 30
0.0
 40
35.02188412800001
100
AcDbArc
 50
188.2072159999986
 51
92.18164099999826
  0
ARC
  5
4B3
330
22
100
AcDbEntity
  8
255
  6
Continuous
 62
     7
100
AcDbCircle
 10
2657.723789724997
 20
1134.914763917451
 30
0.0
 40
34.876162035
100
AcDbArc
 50
188.0829009999985
 51
63.06421000000693
  0
ARC
  5
4B4
330
22
100
AcDbEntity
  8
255
  6
Continuous
 62
     7
100
AcDbCircle
 10
2675.814980424997
 20
1170.412350470452
 30
0.0
 40
4.965856698
100
AcDbArc
 50
176.9846070000014
 51
242.5051549999934
  0
LINE
  5
4B5
330
22
100
AcDbEntity
  8
255
  6
Continuous
 62
     7
100
AcDbLine
 10
2675.522199705997
 20
1297.660874345452
 30
0.0
 11
2670.855999705997
 21
1170.673574345451
 31
0.0
  0
ARC
  5
4B6
330
22
100
AcDbEntity
  8
255
  6
Continuous
 62
     7
100
AcDbCircle
 10
2680.499278614997
 20
1297.629274172451
 30
0.0
 40
4.977178899
100
AcDbArc
 50
109.2884170000012
 51
179.6362280000004
  0
ARC
  5
4B7
330
22
100
AcDbEntity
  8
255
  6
Continuous
 62
     7
100
AcDbCircle
 10
2666.205074844997
 20
1335.075275864452
 30
0.0
 40
35.10655566
100
AcDbArc
 50
291.1207780000117
 51
48.38349399999865
  0
LINE
  5
4B8
330
22
100
AcDbEntity
  8
255
  6
Continuous
 62
     7
100
AcDbLine
 10
2654.857599705997
 20
1482.642374345451
 30
0.0
 11
2689.520799705997
 21
1361.321174345452
 31
0.0
  0
ARC
  5
4B9
330
22
100
AcDbEntity
  8
255
  6
Continuous
 62
     7
100
AcDbCircle
 10
2659.578667551997
 20
1484.049170318452
 30
0.0
 40
4.926210662999999
100
AcDbArc
 50
90.63816699999554
 51
196.5931289999999
  0
ARC
  5
4BA
330
22
100
AcDbEntity
  8
255
  6
Continuous
 62
     7
100
AcDbCircle
 10
2659.542487836997
 20
1524.003284507451
 30
0.0
 40
35.028213495
100
AcDbArc
 50
269.9694310000016
 51
28.97115800000518
  0
LINE
  5
4BB
330
22
100
AcDbEntity
  8
255
  6
Continuous
 62
     7
100
AcDbLine
 10
2659.857099705997
 20
1677.289574345452
 30
0.0
 11
2690.187399705997
 21
1540.969874345451
 31
0.0
  0
ARC
  5
4BC
330
22
100
AcDbEntity
  8
255
  6
Continuous
 62
     7
100
AcDbCircle
 10
2664.819960036997
 20
1678.247975162452
 30
0.0
 40
5.054554494
100
AcDbArc
 50
85.80279799999816
 51
190.9301229999962
  0
ARC
  5
4BD
330
22
100
AcDbEntity
  8
255
  6
Continuous
 62
     7
100
AcDbCircle
 10
2666.185010184997
 20
1718.291163776452
 30
0.0
 40
35.016334683
100
AcDbArc
 50
268.3715219999933
 51
171.800880999999
  0
LINE
  5
4BE
330
22
100
AcDbEntity
  8
255
  6
Continuous
 62
     7
100
AcDbLine
 10
2666.189799705997
 20
1723.284974345452
 30
0.0
 11
2631.526599705997
 21
1723.284974345452
 31
0.0
  0
ARC
  5
4BF
330
22
100
AcDbEntity
  8
255
  6
Continuous
 62
     7
100
AcDbCircle
 10
2666.189799705997
 20
1718.285474345452
 30
0.0
 40
4.9995
100
AcDbArc
 50
270.0
 51
90.0
  0
LINE
  5
4C0
330
22
100
AcDbEntity
  8
255
  6
Continuous
 62
     7
100
AcDbLine
 10
2631.526599705997
 20
1713.285974345451
 30
0.0
 11
2666.189799705997
 21
1713.285974345451
 31
0.0
  0
LINE
  5
4C1
330
22
100
AcDbEntity
  8
255
  6
Continuous
 62
     7
100
AcDbLine
 10
2632.193199705997
 20
1710.619574345451
 30
0.0
 11
2631.526599705997
 21
1713.285974345451
 31
0.0
  0
LINE
  5
4C2
330
22
100
AcDbEntity
  8
255
  6
Continuous
 62
     7
100
AcDbLine
 10
2664.523299705997
 20
1565.300774345452
 30
0.0
 11
2632.193199705997
 21
1710.619574345451
 31
0.0
  0
ARC
  5
4C3
330
22
100
AcDbEntity
  8
255
  6
Continuous
 62
     7
100
AcDbCircle
 10
2659.591482936997
 20
1564.054478987452
 30
0.0
 40
5.086854597
100
AcDbArc
 50
269.2376380000093
 51
14.18203599999814
  0
ARC
  5
4C4
330
22
100
AcDbEntity
  8
255
  6
Continuous
 62
     7
100
AcDbCircle
 10
2659.509141171997
 20
1523.958885614452
 30
0.0
 40
35.00919206400001
100
AcDbArc
 50
89.97601200000119
 51
171.7688039999991
  0
LINE
  5
4C5
330
22
100
AcDbEntity
  8
255
  6
Continuous
 62
     7
100
AcDbLine
 10
2659.523799705997
 20
1528.971074345452
 30
0.0
 11
2624.860599705997
 21
1528.971074345452
 31
0.0
  0
ARC
  5
4C6
330
22
100
AcDbEntity
  8
255
  6
Continuous
 62
     7
100
AcDbCircle
 10
2659.523799705997
 20
1523.971574345452
 30
0.0
 40
4.9995
100
AcDbArc
 50
270.0
 51
90.0
  0
LINE
  5
4C7
330
22
100
AcDbEntity
  8
255
  6
Continuous
 62
     7
100
AcDbLine
 10
2623.527399705997
 20
1518.972074345452
 30
0.0
 11
2659.523799705997
 21
1518.972074345452
 31
0.0
  0
LINE
  5
4C8
330
22
100
AcDbEntity
  8
255
  6
Continuous
 62
     7
100
AcDbLine
 10
2664.523299705997
 20
1375.653074345452
 30
0.0
 11
2623.527399705997
 21
1518.972074345452
 31
0.0
  0
ARC
  5
4C9
330
22
100
AcDbEntity
  8
255
  6
Continuous
 62
     7
100
AcDbCircle
 10
2659.551366948997
 20
1374.363859946451
 30
0.0
 40
5.136359646
100
AcDbArc
 50
280.912152999986
 51
14.53655800000451
  0
ARC
  5
4CA
330
22
100
AcDbEntity
  8
255
  6
Continuous
 62
     7
100
AcDbCircle
 10
2666.054709882997
 20
1334.853221405452
 30
0.0
 40
34.908115506
100
AcDbArc
 50
99.116639999989
 51
171.5381619999994
  0
LINE
  5
4CB
330
22
100
AcDbEntity
  8
255
  6
Continuous
 62
     7
100
AcDbLine
 10
2666.189799705997
 20
1339.989974345452
 30
0.0
 11
2631.526599705997
 21
1339.989974345452
 31
0.0
  0
ARC
  5
4CC
330
22
100
AcDbEntity
  8
255
  6
Continuous
 62
     7
100
AcDbCircle
 10
2666.189799705997
 20
1334.990474345452
 30
0.0
 40
4.9995
100
AcDbArc
 50
270.0
 51
90.0
  0
LINE
  5
4CD
330
22
100
AcDbEntity
  8
255
  6
Continuous
 62
     7
100
AcDbLine
 10
2631.526599705997
 20
1329.990974345452
 30
0.0
 11
2666.189799705997
 21
1329.990974345452
 31
0.0
  0
ARC
  5
4CE
330
22
100
AcDbEntity
  8
255
  6
Continuous
 62
     7
100
AcDbCircle
 10
2666.237971554997
 20
1334.927900603452
 30
0.0
 40
35.060700246
100
AcDbArc
 50
188.094769000001
 51
246.9748490000071
  0
ARC
  5
4CF
330
22
100
AcDbEntity
  8
255
  6
Continuous
 62
     7
100
AcDbCircle
 10
2650.486453530997
 20
1298.052911804452
 30
0.0
 40
5.038086140999999
100
AcDbArc
 50
359.3319730000012
 51
66.13848000000089
  0
LINE
  5
4D0
330
22
100
AcDbEntity
  8
255
  6
Continuous
 62
     7
100
AcDbLine
 10
2650.857999705997
 20
1173.006674345451
 30
0.0
 11
2655.524199705997
 21
1297.994174345452
 31
0.0
  0
ARC
  5
4D1
330
22
100
AcDbEntity
  8
255
  6
Continuous
 62
     7
100
AcDbCircle
 10
2645.880920796997
 20
1173.038274518451
 30
0.0
 40
4.977178899
100
AcDbArc
 50
289.2884170000012
 51
359.6362280000004
  0
ARC
  5
4D2
330
22
100
AcDbEntity
  8
255
  6
Continuous
 62
     7
100
AcDbCircle
 10
2657.779904112997
 20
1134.920096717451
 30
0.0
 40
34.958330484
100
AcDbArc
 50
107.0584159999976
 51
171.6280630000023
  0
LINE
  5
4D3
330
22
100
AcDbEntity
  8
255
  6
Continuous
 62
     7
100
AcDbLine
 10
2657.857299705997
 20
1140.009974345452
 30
0.0
 11
2623.194099705997
 21
1140.009974345452
 31
0.0
  0
ARC
  5
4D4
330
22
100
AcDbEntity
  8
255
  6
Continuous
 62
     7
100
AcDbCircle
 10
2657.857299705997
 20
1135.010474345452
 30
0.0
 40
4.9995
100
AcDbArc
 50
270.0
 51
90.0
  0
LINE
  5
4D5
330
22
100
AcDbEntity
  8
255
  6
Continuous
 62
     7
100
AcDbLine
 10
2623.194099705997
 20
1130.010974345451
 30
0.0
 11
2657.857299705997
 21
1130.010974345451
 31
0.0
  0
ARC
  5
4D6
330
22
100
AcDbEntity
  8
255
  6
Continuous
 62
     7
100
AcDbCircle
 10
2349.563261441617
 20
825.0684717453548
 30
0.0
 40
31.687167633
100
AcDbArc
 50
12.34446399999958
 51
30.55100899999987
  0
ARC
  5
4D7
330
22
100
AcDbEntity
  8
255
  6
Continuous
 62
     7
100
AcDbCircle
 10
2349.092378534617
 20
825.6312221313546
 30
0.0
 40
31.81486819500001
100
AcDbArc
 50
29.24707300000913
 51
46.84701099999974
  0
LINE
  5
4D8
330
22
100
AcDbEntity
  8
255
  6
Continuous
 62
     7
100
AcDbLine
 10
2387.850419009617
 20
878.5048242423549
 30
0.0
 11
2370.852119009617
 21
848.8411242423547
 31
0.0
  0
ARC
  5
4D9
330
22
100
AcDbEntity
  8
255
  6
Continuous
 62
     7
100
AcDbCircle
 10
2393.684398886617
 20
875.1975383373549
 30
0.0
 40
6.706222644000001
100
AcDbArc
 50
47.87361699999458
 51
150.4510759999934
  0
ARC
  5
4DA
330
22
100
AcDbEntity
  8
255
  6
Continuous
 62
     7
100
AcDbCircle
 10
2349.187619009617
 20
825.5101242423547
 30
0.0
 40
73.405495383
100
AcDbArc
 50
11.25891199999609
 51
48.12881000000289
  0
ARC
  5
4DB
330
22
100
AcDbEntity
  8
255
  6
Continuous
 62
     7
100
AcDbCircle
 10
2414.769406841617
 20
838.4111140143547
 30
0.0
 40
6.568756392
100
AcDbArc
 50
270.683091000007
 51
12.5819370000047
  0
LINE
  5
4DC
330
22
100
AcDbEntity
  8
255
  6
Continuous
 62
     7
100
AcDbLine
 10
2380.517819009617
 20
831.8428242423548
 30
0.0
 11
2414.847719009618
 21
831.8428242423548
 31
0.0
  0
ARC
  5
4DD
330
22
100
AcDbEntity
  8
255
  6
Continuous
 62
     7
100
AcDbCircle
 10
2350.080346394618
 20
825.1914227823547
 30
0.0
 40
31.653847632
100
AcDbArc
 50
73.28071299998909
 51
91.0126599999919
  0
LINE
  5
4DE
330
22
100
AcDbEntity
  8
255
  6
Continuous
 62
     7
100
AcDbLine
 10
2359.186619009617
 20
855.5071242423549
 30
0.0
 11
2376.518219009617
 21
885.1708242423551
 31
0.0
  0
ARC
  5
4DF
330
22
100
AcDbEntity
  8
255
  6
Continuous
 62
     7
100
AcDbCircle
 10
2370.545243033618
 20
888.4333946193551
 30
0.0
 40
6.805939338
100
AcDbArc
 50
331.3556530000028
 51
70.18885599998999
  0
ARC
  5
4E0
330
22
100
AcDbEntity
  8
255
  6
Continuous
 62
     7
100
AcDbCircle
 10
2349.520919009617
 20
825.1768242423549
 30
0.0
 40
73.46297963400001
100
AcDbArc
 50
71.48284800000474
 51
108.5171519999952
  0
ARC
  5
4E1
330
22
100
AcDbEntity
  8
255
  6
Continuous
 62
     7
100
AcDbCircle
 10
2328.205044143617
 20
888.5439835593547
 30
0.0
 40
6.607329201
100
AcDbArc
 50
107.7571659999991
 51
210.6983239999974
  0
LINE
  5
4E2
330
22
100
AcDbEntity
  8
255
  6
Continuous
 62
     7
100
AcDbLine
 10
2322.523619009617
 20
885.1708242423551
 30
0.0
 11
2339.855219009617
 21
855.5071242423549
 31
0.0
  0
ARC
  5
4E3
330
22
100
AcDbEntity
  8
255
  6
Continuous
 62
     7
100
AcDbCircle
 10
2348.961491624617
 20
825.1914227823547
 30
0.0
 40
31.653847632
100
AcDbArc
 50
88.98734000000811
 51
106.7192870000109
  0
ARC
  5
4E4
330
22
100
AcDbEntity
  8
255
  6
Continuous
 62
     7
100
AcDbCircle
 10
2349.787549010617
 20
825.7579361253547
 30
0.0
 40
31.61170518
100
AcDbArc
 50
133.0959789999953
 51
150.8099360000024
  0
LINE
  5
4E5
330
22
100
AcDbEntity
  8
255
  6
Continuous
 62
     7
100
AcDbLine
 10
2328.189719009617
 20
848.8411242423547
 30
0.0
 11
2311.191419009617
 21
878.5048242423549
 31
0.0
  0
ARC
  5
4E6
330
22
100
AcDbEntity
  8
255
  6
Continuous
 62
     7
100
AcDbCircle
 10
2305.349016641617
 20
875.1453002283547
 30
0.0
 40
6.739442654999999
100
AcDbArc
 50
29.89993799999828
 51
131.7753689999996
  0
ARC
  5
4E7
330
22
100
AcDbEntity
  8
255
  6
Continuous
 62
     7
100
AcDbCircle
 10
2349.490495385617
 20
825.1241861733548
 30
0.0
 40
73.45201406400001
100
AcDbArc
 50
131.4589760000049
 51
168.4411970000012
  0
ARC
  5
4E8
330
22
100
AcDbEntity
  8
255
  6
Continuous
 62
     7
100
AcDbCircle
 10
2284.139744447617
 20
838.574610996355
 30
0.0
 40
6.732006732
100
AcDbArc
 50
169.1483469999928
 51
270.4627949999992
  0
LINE
  5
4E9
330
22
100
AcDbEntity
  8
255
  6
Continuous
 62
     7
100
AcDbLine
 10
2284.194119009617
 20
831.8428242423548
 30
0.0
 11
2318.524019009617
 21
831.8428242423548
 31
0.0
  0
ARC
  5
4EA
330
22
100
AcDbEntity
  8
255
  6
Continuous
 62
     7
100
AcDbCircle
 10
2349.478576577618
 20
825.0684717453548
 30
0.0
 40
31.687167633
100
AcDbArc
 50
149.4489910000001
 51
167.6555360000004
  0
ARC
  5
4EB
330
22
100
AcDbEntity
  8
255
  6
Continuous
 62
     7
100
AcDbCircle
 10
2349.217905980617
 20
825.7693516503547
 30
0.0
 40
31.54046230500001
100
AcDbArc
 50
193.3049510000035
 51
211.0277409999944
  0
LINE
  5
4EC
330
22
100
AcDbEntity
  8
255
  6
Continuous
 62
     7
100
AcDbLine
 10
2318.524019009617
 20
818.5108242423549
 30
0.0
 11
2284.194119009617
 21
818.5108242423549
 31
0.0
  0
ARC
  5
4ED
330
22
100
AcDbEntity
  8
255
  6
Continuous
 62
     7
100
AcDbCircle
 10
2284.139744447617
 20
811.7790374883547
 30
0.0
 40
6.732006732
100
AcDbArc
 50
89.53720500000073
 51
190.8516530000069
  0
ARC
  5
4EE
330
22
100
AcDbEntity
  8
255
  6
Continuous
 62
     7
100
AcDbCircle
 10
2349.490495385617
 20
825.2294623113549
 30
0.0
 40
73.45201406400001
100
AcDbArc
 50
191.5588029999988
 51
228.5410239999951
  0
ARC
  5
4EF
330
22
100
AcDbEntity
  8
255
  6
Continuous
 62
     7
100
AcDbCircle
 10
2305.357439132618
 20
775.1561101473546
 30
0.0
 40
6.706222644000001
100
AcDbArc
 50
227.8736169999945
 51
330.4510759999935
  0
LINE
  5
4F0
330
22
100
AcDbEntity
  8
255
  6
Continuous
 62
     7
100
AcDbLine
 10
2311.191419009617
 20
771.848824242355
 30
0.0
 11
2328.189719009617
 21
801.8458242423548
 31
0.0
  0
ARC
  5
4F1
330
22
100
AcDbEntity
  8
255
  6
Continuous
 62
     7
100
AcDbCircle
 10
2349.787549010617
 20
824.9290123593549
 30
0.0
 40
31.61170518
100
AcDbArc
 50
209.1900639999975
 51
226.9040210000047
  0
ARC
  5
4F2
330
22
100
AcDbEntity
  8
255
  6
Continuous
 62
     7
100
AcDbCircle
 10
2349.999374492617
 20
825.1521400443547
 30
0.0
 40
31.64243544
100
AcDbArc
 50
251.3015690000048
 51
269.1336170000077
  0
LINE
  5
4F3
330
22
100
AcDbEntity
  8
255
  6
Continuous
 62
     7
100
AcDbLine
 10
2339.855219009617
 20
795.1798242423549
 30
0.0
 11
2322.523619009617
 21
765.182824242355
 31
0.0
  0
ARC
  5
4F4
330
22
100
AcDbEntity
  8
255
  6
Continuous
 62
     7
100
AcDbCircle
 10
2328.205044143617
 20
761.8096649253548
 30
0.0
 40
6.607329201
100
AcDbArc
 50
149.3016760000025
 51
252.2428340000009
  0
ARC
  5
4F5
330
22
100
AcDbEntity
  8
255
  6
Continuous
 62
     7
100
AcDbCircle
 10
2349.520919009617
 20
825.1768242423549
 30
0.0
 40
73.46297963400001
100
AcDbArc
 50
251.4828480000047
 51
288.5171519999953
  0
ARC
  5
4F6
330
22
100
AcDbEntity
  8
255
  6
Continuous
 62
     7
100
AcDbCircle
 10
2370.545243033618
 20
761.9202538653548
 30
0.0
 40
6.805939338
100
AcDbArc
 50
289.81114400001
 51
28.64434699999719
  0
LINE
  5
4F7
330
22
100
AcDbEntity
  8
255
  6
Continuous
 62
     7
100
AcDbLine
 10
2376.518219009617
 20
765.182824242355
 30
0.0
 11
2359.186619009617
 21
795.1798242423549
 31
0.0
  0
ARC
  5
4F8
330
22
100
AcDbEntity
  8
255
  6
Continuous
 62
     7
100
AcDbCircle
 10
2349.042463526617
 20
825.1521400443547
 30
0.0
 40
31.64243544
100
AcDbArc
 50
270.8663829999923
 51
288.6984309999952
  0
ARC
  5
4F9
330
22
100
AcDbEntity
  8
255
  6
Continuous
 62
     7
100
AcDbCircle
 10
2349.254289008617
 20
824.9290123593549
 30
0.0
 40
31.61170518
100
AcDbArc
 50
313.0959789999953
 51
330.8099360000024
  0
LINE
  5
4FA
330
22
100
AcDbEntity
  8
255
  6
Continuous
 62
     7
100
AcDbLine
 10
2370.852119009617
 20
801.8458242423548
 30
0.0
 11
2387.850419009617
 21
771.848824242355
 31
0.0
  0
ARC
  5
4FB
330
22
100
AcDbEntity
  8
255
  6
Continuous
 62
     7
100
AcDbCircle
 10
2393.692821377618
 20
775.2083482563546
 30
0.0
 40
6.739442654999999
100
AcDbArc
 50
209.8999379999983
 51
311.7753689999996
  0
ARC
  5
4FC
330
22
100
AcDbEntity
  8
255
  6
Continuous
 62
     7
100
AcDbCircle
 10
2349.187619009617
 20
824.8435242423552
 30
0.0
 40
73.405495383
100
AcDbArc
 50
311.8711899999971
 51
348.7410880000039
  0
ARC
  5
4FD
330
22
100
AcDbEntity
  8
255
  6
Continuous
 62
     7
100
AcDbCircle
 10
2414.769406841617
 20
811.9425344703552
 30
0.0
 40
6.568756392
100
AcDbArc
 50
347.4180619999988
 51
89.31690800000522
  0
LINE
  5
4FE
330
22
100
AcDbEntity
  8
255
  6
Continuous
 62
     7
100
AcDbLine
 10
2414.847719009618
 20
818.5108242423549
 30
0.0
 11
2380.517819009617
 21
818.5108242423549
 31
0.0
  0
ARC
  5
4FF
330
22
100
AcDbEntity
  8
255
  6
Continuous
 62
     7
100
AcDbCircle
 10
2349.823932038617
 20
825.7693516503547
 30
0.0
 40
31.54046230500001
100
AcDbArc
 50
328.9722590000056
 51
346.6950489999967
  0
CIRCLE
  5
500
330
22
100
AcDbEntity
  8
255
  6
Continuous
 62
     7
100
AcDbCircle
 10
2349.520919009617
 20
825.1768242423549
 30
0.0
 40
18.3315
  0
CIRCLE
  5
501
330
22
100
AcDbEntity
  8
255
  6
Continuous
 62
     7
100
AcDbCircle
 10
2349.520919009617
 20
825.1768242423549
 30
0.0
 40
94.99050000000002
  0
ARC
  5
502
330
22
100
AcDbEntity
  8
255
  6
Continuous
 62
     7
100
AcDbCircle
 10
2390.469792164404
 20
1693.355486504929
 30
0.0
 40
31.687167633
100
AcDbArc
 50
12.34446400000277
 51
30.55100899999704
  0
LINE
  5
503
330
22
100
AcDbEntity
  8
255
  6
Continuous
 62
     7
100
AcDbLine
 10
2421.424349732405
 20
1700.129839001928
 30
0.0
 11
2445.421949732404
 21
1700.129839001928
 31
0.0
  0
ARC
  5
504
330
22
100
AcDbEntity
  8
255
  6
Continuous
 62
     7
100
AcDbCircle
 10
2445.502641662404
 20
1706.897935457929
 30
0.0
 40
6.768576408000001
100
AcDbArc
 50
269.3169330000126
 51
13.36345099999843
  0
ARC
  5
505
330
22
100
AcDbEntity
  8
255
  6
Continuous
 62
     7
100
AcDbCircle
 10
2390.462432900404
 20
1693.403515034929
 30
0.0
 40
63.43872882600001
100
AcDbArc
 50
13.73171400000058
 51
46.55105699999134
  0
ARC
  5
506
330
22
100
AcDbEntity
  8
255
  6
Continuous
 62
     7
100
AcDbCircle
 10
2429.591429609404
 20
1734.485453096929
 30
0.0
 40
6.706222644000001
100
AcDbArc
 50
47.87361699999896
 51
150.4510759999963
  0
LINE
  5
507
330
22
100
AcDbEntity
  8
255
  6
Continuous
 62
     7
100
AcDbLine
 10
2423.757449732404
 20
1737.792739001929
 30
0.0
 11
2411.758649732405
 21
1717.128139001928
 31
0.0
  0
ARC
  5
508
330
22
100
AcDbEntity
  8
255
  6
Continuous
 62
     7
100
AcDbCircle
 10
2389.998909257404
 20
1693.918236890928
 30
0.0
 40
31.81486819500001
100
AcDbArc
 50
29.24707300000346
 51
46.84701099999752
  0
ARC
  5
509
330
22
100
AcDbEntity
  8
255
  6
Continuous
 62
     7
100
AcDbCircle
 10
2390.986877117404
 20
1693.478437541928
 30
0.0
 40
31.653847632
100
AcDbArc
 50
73.28071299999098
 51
91.0126599999919
  0
LINE
  5
50A
330
22
100
AcDbEntity
  8
255
  6
Continuous
 62
     7
100
AcDbLine
 10
2400.093149732405
 20
1723.794139001929
 30
0.0
 11
2412.091949732405
 21
1744.458739001929
 31
0.0
  0
ARC
  5
50B
330
22
100
AcDbEntity
  8
255
  6
Continuous
 62
     7
100
AcDbCircle
 10
2406.431929124404
 20
1747.777013807928
 30
0.0
 40
6.561003833999999
100
AcDbArc
 50
329.6183619999944
 51
75.34050699999977
  0
ARC
  5
50C
330
22
100
AcDbEntity
  8
255
  6
Continuous
 62
     7
100
AcDbCircle
 10
2390.260799732404
 20
1693.463629022928
 30
0.0
 40
63.22735329900001
100
AcDbArc
 50
73.61903600000657
 51
106.3809639999934
  0
ARC
  5
50D
330
22
100
AcDbEntity
  8
255
  6
Continuous
 62
     7
100
AcDbCircle
 10
2374.444374866405
 20
1747.831898318929
 30
0.0
 40
6.607329201
100
AcDbArc
 50
107.7571659999992
 51
210.6983239999947
  0
LINE
  5
50E
330
22
100
AcDbEntity
  8
255
  6
Continuous
 62
     7
100
AcDbLine
 10
2368.762949732404
 20
1744.458739001929
 30
0.0
 11
2380.761749732405
 21
1723.794139001929
 31
0.0
  0
ARC
  5
50F
330
22
100
AcDbEntity
  8
255
  6
Continuous
 62
     7
100
AcDbCircle
 10
2389.868022347405
 20
1693.478437541928
 30
0.0
 40
31.653847632
100
AcDbArc
 50
88.98734000000811
 51
106.719287000009
  0
ARC
  5
510
330
22
100
AcDbEntity
  8
255
  6
Continuous
 62
     7
100
AcDbCircle
 10
2390.694079733404
 20
1694.044950884929
 30
0.0
 40
31.61170518
100
AcDbArc
 50
133.0959789999998
 51
150.8099360000024
  0
LINE
  5
511
330
22
100
AcDbEntity
  8
255
  6
Continuous
 62
     7
100
AcDbLine
 10
2369.096249732404
 20
1717.128139001928
 30
0.0
 11
2357.097449732404
 21
1737.792739001929
 31
0.0
  0
ARC
  5
512
330
22
100
AcDbEntity
  8
255
  6
Continuous
 62
     7
100
AcDbCircle
 10
2351.255047364404
 20
1734.433214987929
 30
0.0
 40
6.739442654999999
100
AcDbArc
 50
29.899938000004
 51
131.7753690000017
  0
ARC
  5
513
330
22
100
AcDbEntity
  8
255
  6
Continuous
 62
     7
100
AcDbCircle
 10
2390.392466564405
 20
1693.403515034929
 30
0.0
 40
63.43872882600001
100
AcDbArc
 50
133.4489430000086
 51
166.2682859999994
  0
ARC
  5
514
330
22
100
AcDbEntity
  8
255
  6
Continuous
 62
     7
100
AcDbCircle
 10
2335.352257802405
 20
1706.897935457929
 30
0.0
 40
6.768576408000001
100
AcDbArc
 50
166.6365490000015
 51
270.6830669999874
  0
LINE
  5
515
330
22
100
AcDbEntity
  8
255
  6
Continuous
 62
     7
100
AcDbLine
 10
2335.432949732404
 20
1700.129839001928
 30
0.0
 11
2359.430549732405
 21
1700.129839001928
 31
0.0
  0
ARC
  5
516
330
22
100
AcDbEntity
  8
255
  6
Continuous
 62
     7
100
AcDbCircle
 10
2390.385107300405
 20
1693.355486504929
 30
0.0
 40
31.687167633
100
AcDbArc
 50
149.4489910000029
 51
167.6555359999972
  0
ARC
  5
517
330
22
100
AcDbEntity
  8
255
  6
Continuous
 62
     7
100
AcDbCircle
 10
2390.124436703404
 20
1694.056366409929
 30
0.0
 40
31.54046230500001
100
AcDbArc
 50
193.3049510000003
 51
211.0277409999973
  0
LINE
  5
518
330
22
100
AcDbEntity
  8
255
  6
Continuous
 62
     7
100
AcDbLine
 10
2359.430549732405
 20
1686.797839001928
 30
0.0
 11
2335.432949732404
 21
1686.797839001928
 31
0.0
  0
ARC
  5
519
330
22
100
AcDbEntity
  8
255
  6
Continuous
 62
     7
100
AcDbCircle
 10
2335.352257802405
 20
1680.029742545929
 30
0.0
 40
6.768576408000001
100
AcDbArc
 50
89.31693299998654
 51
193.3634509999984
  0
ARC
  5
51A
330
22
100
AcDbEntity
  8
255
  6
Continuous
 62
     7
100
AcDbCircle
 10
2390.072021945405
 20
1693.834868561929
 30
0.0
 40
63.20232580200001
100
AcDbArc
 50
194.0742919999986
 51
226.7478700000041
  0
ARC
  5
51B
330
22
100
AcDbEntity
  8
255
  6
Continuous
 62
     7
100
AcDbCircle
 10
2351.415484652404
 20
1652.465902538929
 30
0.0
 40
6.586354632
100
AcDbArc
 50
225.0850700000041
 51
329.6196889999985
  0
LINE
  5
51C
330
22
100
AcDbEntity
  8
255
  6
Continuous
 62
     7
100
AcDbLine
 10
2357.097449732404
 20
1649.134939001929
 30
0.0
 11
2369.096249732404
 21
1670.132839001928
 31
0.0
  0
ARC
  5
51D
330
22
100
AcDbEntity
  8
255
  6
Continuous
 62
     7
100
AcDbCircle
 10
2390.694079733404
 20
1693.216027118929
 30
0.0
 40
31.61170518
100
AcDbArc
 50
209.1900639999975
 51
226.9040210000002
  0
ARC
  5
51E
330
22
100
AcDbEntity
  8
255
  6
Continuous
 62
     7
100
AcDbCircle
 10
2390.905905215404
 20
1693.439154803929
 30
0.0
 40
31.64243544
100
AcDbArc
 50
251.3015690000058
 51
269.1336170000077
  0
LINE
  5
51F
330
22
100
AcDbEntity
  8
255
  6
Continuous
 62
     7
100
AcDbLine
 10
2380.761749732405
 20
1663.466839001929
 30
0.0
 11
2368.762949732404
 21
1642.468939001929
 31
0.0
  0
ARC
  5
520
330
22
100
AcDbEntity
  8
255
  6
Continuous
 62
     7
100
AcDbCircle
 10
2374.444374866405
 20
1639.095779684929
 30
0.0
 40
6.607329201
100
AcDbArc
 50
149.3016760000053
 51
252.2428340000008
  0
ARC
  5
521
330
22
100
AcDbEntity
  8
255
  6
Continuous
 62
     7
100
AcDbCircle
 10
2390.260799732404
 20
1693.464048980929
 30
0.0
 40
63.22735329900001
100
AcDbArc
 50
253.6190360000066
 51
286.3809639999934
  0
ARC
  5
522
330
22
100
AcDbEntity
  8
255
  6
Continuous
 62
     7
100
AcDbCircle
 10
2406.431929124404
 20
1639.150664195929
 30
0.0
 40
6.561003833999999
100
AcDbArc
 50
284.6594930000002
 51
30.38163800000554
  0
LINE
  5
523
330
22
100
AcDbEntity
  8
255
  6
Continuous
 62
     7
100
AcDbLine
 10
2412.091949732405
 20
1642.468939001929
 30
0.0
 11
2400.093149732405
 21
1663.466839001929
 31
0.0
  0
ARC
  5
524
330
22
100
AcDbEntity
  8
255
  6
Continuous
 62
     7
100
AcDbCircle
 10
2389.948994249404
 20
1693.439154803929
 30
0.0
 40
31.64243544
100
AcDbArc
 50
270.8663829999923
 51
288.6984309999942
  0
ARC
  5
525
330
22
100
AcDbEntity
  8
255
  6
Continuous
 62
     7
100
AcDbCircle
 10
2390.160819731404
 20
1693.216027118929
 30
0.0
 40
31.61170518
100
AcDbArc
 50
313.0959789999999
 51
330.8099360000025
  0
LINE
  5
526
330
22
100
AcDbEntity
  8
255
  6
Continuous
 62
     7
100
AcDbLine
 10
2411.758649732405
 20
1670.132839001928
 30
0.0
 11
2423.757449732404
 21
1649.134939001929
 31
0.0
  0
ARC
  5
527
330
22
100
AcDbEntity
  8
255
  6
Continuous
 62
     7
100
AcDbCircle
 10
2429.439414812404
 20
1652.465902538929
 30
0.0
 40
6.586354632
100
AcDbArc
 50
210.3803110000015
 51
314.9149299999959
  0
ARC
  5
528
330
22
100
AcDbEntity
  8
255
  6
Continuous
 62
     7
100
AcDbCircle
 10
2390.782877519404
 20
1693.834868561929
 30
0.0
 40
63.20232580200001
100
AcDbArc
 50
313.2521299999959
 51
345.9257080000014
  0
ARC
  5
529
330
22
100
AcDbEntity
  8
255
  6
Continuous
 62
     7
100
AcDbCircle
 10
2445.502641662404
 20
1680.029742545929
 30
0.0
 40
6.768576408000001
100
AcDbArc
 50
346.6365490000015
 51
90.68306700001347
  0
LINE
  5
52A
330
22
100
AcDbEntity
  8
255
  6
Continuous
 62
     7
100
AcDbLine
 10
2445.421949732404
 20
1686.797839001928
 30
0.0
 11
2421.424349732405
 21
1686.797839001928
 31
0.0
  0
ARC
  5
52B
330
22
100
AcDbEntity
  8
255
  6
Continuous
 62
     7
100
AcDbCircle
 10
2390.730462761405
 20
1694.056366409929
 30
0.0
 40
31.54046230500001
100
AcDbArc
 50
328.9722590000027
 51
346.6950489999997
  0
CIRCLE
  5
52C
330
22
100
AcDbEntity
  8
255
  6
Continuous
 62
     7
100
AcDbCircle
 10
2390.427449732404
 20
1693.463839001929
 30
0.0
 40
18.3315
  0
ARC
  5
52D
330
22
100
AcDbEntity
  8
255
  6
Continuous
 62
     7
100
AcDbCircle
 10
2390.427449732404
 20
1693.463839001929
 30
0.0
 40
84.9915
100
AcDbArc
 50
270.0
 51
180.0
  0
ARC
  5
52E
330
22
100
AcDbEntity
  8
255
  6
Continuous
 62
     7
100
AcDbCircle
 10
2390.654280380404
 20
1693.508281223929
 30
0.0
 40
85.036242192
100
AcDbArc
 50
224.9131030000059
 51
269.8471660000072
  0
ARC
  5
52F
330
22
100
AcDbEntity
  8
255
  6
Continuous
 62
     7
100
AcDbCircle
 10
2390.471891954405
 20
1693.690669649928
 30
0.0
 40
85.036242192
100
AcDbArc
 50
180.1528330000009
 51
225.0868959999937
  0
LINE
  5
5AD
330
22
100
AcDbEntity
  8
0
  6
Continuous
100
AcDbLine
 10
1234.451018600681
 20
281.6764205935215
 30
0.0
 11
1234.451018600681
 21
1806.676420593521
 31
0.0
  0
LINE
  5
5AE
330
22
100
AcDbEntity
  8
0
  6
Continuous
100
AcDbLine
 10
1234.451018600681
 20
1806.676420593521
 30
0.0
 11
2759.451018600681
 21
1806.676420593521
 31
0.0
  0
LINE
  5
5AF
330
22
100
AcDbEntity
  8
0
  6
Continuous
100
AcDbLine
 10
2759.451018600681
 20
1806.676420593521
 30
0.0
 11
2759.451018600681
 21
281.6764205935215
 31
0.0
  0
LINE
  5
5B0
330
22
100
AcDbEntity
  8
0
  6
Continuous
100
AcDbLine
 10
2759.451018600681
 20
281.6764205935215
 30
0.0
 11
1234.451018600681
 21
281.6764205935215
 31
0.0
  0
MTEXT
  5
5F8
330
22
100
AcDbEntity
  8
0
  6
Continuous
100
AcDbMText
 10
1386.455482087287
 20
1784.541142565442
 30
0.0
 40
20.0
 41
407.7927696303667
 71
     1
 72
     5
  1
www.cncrouter.ru
 73
     1
 44
1.0
1001
ACAD
1000
MTEXTBEGIN
1070
    73
1070
     1
1070
    44
1040
1.0
1070
    74
1070
     0
1000
MTEXTEND
  0
ENDSEC
  0
SECTION
  2
OBJECTS
  0
DICTIONARY
  5
C
330
0
100
AcDbDictionary
281
     1
  3
ACAD_COLOR
350
1B
  3
ACAD_GROUP
350
D
  3
ACAD_LAYOUT
350
19
  3
ACAD_MATERIAL
350
1A
  3
ACAD_MLINESTYLE
350
16
  3
ACAD_PLOTSETTINGS
350
18
  3
ACAD_PLOTSTYLENAME
350
E
  3
ACAD_TABLESTYLE
350
1C
  3
ACDBHEADERROUNDTRIPXREC
350
5FB
  3
AcDbVariableDictionary
350
5F1
  0
DICTIONARY
  5
1B
102
{ACAD_REACTORS
330
C
102
}
330
C
100
AcDbDictionary
281
     1
  0
DICTIONARY
  5
D
102
{ACAD_REACTORS
330
C
102
}
330
C
100
AcDbDictionary
281
     1
  0
DICTIONARY
  5
19
102
{ACAD_REACTORS
330
C
102
}
330
C
100
AcDbDictionary
281
     1
  3
Model
350
25
  3
����1
350
21
  0
DICTIONARY
  5
1A
102
{ACAD_REACTORS
330
C
102
}
330
C
100
AcDbDictionary
281
     1
  0
DICTIONARY
  5
16
102
{ACAD_REACTORS
330
C
102
}
330
C
100
AcDbDictionary
281
     1
  3
Standard
350
17
  0
DICTIONARY
  5
18
102
{ACAD_REACTORS
330
C
102
}
330
C
100
AcDbDictionary
281
     1
  0
ACDBDICTIONARYWDFLT
  5
E
102
{ACAD_REACTORS
330
C
102
}
330
C
100
AcDbDictionary
281
     1
  3
Normal
350
F
100
AcDbDictionaryWithDefault
340
F
  0
DICTIONARY
  5
1C
102
{ACAD_REACTORS
330
C
102
}
330
C
100
AcDbDictionary
281
     1
  3
Standard
350
1D
  0
DICTIONARY
  5
5FB
102
{ACAD_REACTORS
330
C
102
}
330
C
100
AcDbDictionary
281
     1
  0
DICTIONARY
  5
5F1
102
{ACAD_REACTORS
330
C
102
}
330
C
100
AcDbDictionary
281
     1
  3
CTABLESTYLE
350
5F2
  3
DIMASSOC
350
5F3
  3
PROJECTNAME
350
5F4
  0
LAYOUT
  5
25
102
{ACAD_XDICTIONARY
360
5FE
102
}
102
{ACAD_REACTORS
330
19
102
}
330
19
100
AcDbPlotSettings
  1

  2
\\\\192.168.1.100\\EPSON Stylus Photo R200 Series
  4

  6

 40
0.0
 41
0.0
 42
0.0
 43
0.0
 44
0.0
 45
0.0
 46
0.0
 47
0.0
 48
0.0
 49
0.0
140
0.0
141
0.0
142
1.0
143
1.0
 70
  1712
 72
     0
 73
     0
 74
     0
  7

 75
     0
147
1.0
148
0.0
149
0.0
100
AcDbLayout
  1
Model
 70
     1
 71
     0
 10
0.0
 20
0.0
 11
12.0
 21
9.0
 12
0.0
 22
0.0
 32
0.0
 14
0.0
 24
0.0
 34
0.0
 15
0.0
 25
0.0
 35
0.0
146
0.0
 13
0.0
 23
0.0
 33
0.0
 16
1.0
 26
0.0
 36
0.0
 17
0.0
 27
1.0
 37
0.0
 76
     0
330
22
  0
LAYOUT
  5
21
102
{ACAD_XDICTIONARY
360
5FC
102
}
102
{ACAD_REACTORS
330
19
102
}
330
19
100
AcDbPlotSettings
  1

  2
\\\\192.168.1.100\\EPSON Stylus Photo R200 Series
  4

  6

 40
0.0
 41
0.0
 42
0.0
 43
0.0
 44
0.0
 45
0.0
 46
0.0
 47
0.0
 48
0.0
 49
0.0
140
0.0
141
0.0
142
1.0
143
1.0
 70
   688
 72
     0
 73
     0
 74
     5
  7

 75
    16
147
1.0
148
0.0
149
0.0
100
AcDbLayout
  1
����1
 70
     1
 71
     1
 10
0.0
 20
0.0
 11
12.0
 21
9.0
 12
0.0
 22
0.0
 32
0.0
 14
1.000000000000000E+20
 24
1.000000000000000E+20
 34
1.000000000000000E+20
 15
-1.000000000000000E+20
 25
-1.000000000000000E+20
 35
-1.000000000000000E+20
146
0.0
 13
0.0
 23
0.0
 33
0.0
 16
1.0
 26
0.0
 36
0.0
 17
0.0
 27
1.0
 37
0.0
 76
     0
330
1E
  0
MLINESTYLE
  5
17
102
{ACAD_REACTORS
330
16
102
}
330
16
100
AcDbMlineStyle
  2
STANDARD
 70
     0
  3

 62
   256
 51
90.0
 52
90.0
 71
     2
 49
0.5
 62
   256
  6
BYLAYER
 49
-0.5
 62
   256
  6
BYLAYER
  0
ACDBPLACEHOLDER
  5
F
102
{ACAD_REACTORS
330
E
102
}
330
E
  0
TABLESTYLE
  5
1D
102
{ACAD_REACTORS
330
1C
102
}
330
1C
100
AcDbTableStyle
  3
Standard
 70
     0
 71
     0
 40
0.06
 41
0.06
280
     0
281
     0
  7
Standard
140
0.18
170
     2
 62
     0
 63
     7
283
     0
274
    -2
284
     1
 64
     0
275
    -2
285
     1
 65
     0
276
    -2
286
     1
 66
     0
277
    -2
287
     1
 67
     0
278
    -2
288
     1
 68
     0
279
    -2
289
     1
 69
     0
  7
Standard
140
0.25
170
     5
 62
     0
 63
     7
283
     0
274
    -2
284
     1
 64
     0
275
    -2
285
     1
 65
     0
276
    -2
286
     1
 66
     0
277
    -2
287
     1
 67
     0
278
    -2
288
     1
 68
     0
279
    -2
289
     1
 69
     0
  7
Standard
140
0.18
170
     5
 62
     0
 63
     7
283
     0
274
    -2
284
     1
 64
     0
275
    -2
285
     1
 65
     0
276
    -2
286
     1
 66
     0
277
    -2
287
     1
 67
     0
278
    -2
288
     1
 68
     0
279
    -2
289
     1
 69
     0
  0
DICTIONARYVAR
  5
5F2
102
{ACAD_REACTORS
330
5F1
102
}
330
5F1
100
DictionaryVariables
280
     0
  1
STANDARD
  0
DICTIONARYVAR
  5
5F3
102
{ACAD_REACTORS
330
5F1
102
}
330
5F1
100
DictionaryVariables
280
     0
  1
1
  0
DICTIONARYVAR
  5
5F4
102
{ACAD_REACTORS
330
5F1
102
}
330
5F1
100
DictionaryVariables
280
     0
  1

  0
DICTIONARY
  5
5FE
330
25
100
AcDbDictionary
280
     1
281
     1
  3
ACAD_XREC_ROUNDTRIP
360
5FF
  0
DICTIONARY
  5
5FC
330
21
100
AcDbDictionary
280
     1
281
     1
  3
ACAD_XREC_ROUNDTRIP
360
5FD
  0
XRECORD
  5
5FF
102
{ACAD_REACTORS
330
5FE
102
}
330
5FE
100
AcDbXrecord
280
     1
102
SHADEPLOT
 70
     0
102
SHADEPLOTRESLEVEL
 70
     2
102
SHADEPLOTCUSTOMDPI
 70
   300
  0
XRECORD
  5
5FD
102
{ACAD_REACTORS
330
5FC
102
}
330
5FC
100
AcDbXrecord
280
     1
102
SHADEPLOT
 70
     0
102
SHADEPLOTRESLEVEL
 70
     2
102
SHADEPLOTCUSTOMDPI
 70
   300
  0
ENDSEC
  0
EOF
