  0
SECTION
  2
HEADER
  9
$ACADVER
  1
AC1006
  0
ENDSEC
  0
SECTION
  2
TABLES
  0
TABLE
  2
LTYPE
 70
    25
  0
LTYPE
  2
CONTINUOUS
 70
    64
  3
Solid line
 72
    64
 73
     0
 40
0.000000
  0
LTYPE
  2
DASHDOT
 70
    64
  3
__ . __ . __ . __ . __ . __ . __ . __ . __ . __
 72
    65
 73
     4
 40
1.000000
 49
0.500000
 49
-0.250000
 49
0.000000
 49
-0.250000
  0
LTYPE
  2
DASHED
 70
    64
  3
__ __ __ __ __ __ __ __ __ __ __ __ __ __ __ __
 72
    65
 73
     2
 40
0.750000
 49
0.500000
 49
-0.250000
  0
LTYPE
  2
DIVIDE
 70
    64
  3
____ . . ____ . . ____ . . ____ . . ____ . . __
 72
    65
 73
     6
 40
1.250000
 49
0.500000
 49
-0.250000
 49
0.000000
 49
-0.250000
 49
0.000000
 49
-0.250000
  0
LTYPE
  2
DOT
 70
    64
  3
. . . . . . . . . . . . . . . . . . . . . . . . 
 72
    65
 73
     2
 40
0.250000
 49
0.000000
 49
-0.250000
  0
ENDTAB
  0
ENDSEC
  0
SECTION
  2
ENTITIES
  0
ARC
  8
Default
 62
     5
  6
CONTINUOUS
 10
20.963428
 20
9.636749
 30
0.000000
 40
0.006447
 50
357.239928
 51
634.558476
  0
LINE
  8
Default
 62
     5
  6
CONTINUOUS
 10
20.969867
 20
9.636439
 30
0.000000
 11
20.980724
 21
9.649848
 31
0.000000
  0
LINE
  8
Default
 62
     5
  6
CONTINUOUS
 10
20.980724
 20
9.649848
 30
0.000000
 11
20.989572
 21
9.643111
 31
0.000000
  0
LINE
  8
Default
 62
     5
  6
CONTINUOUS
 10
20.989572
 20
9.643111
 30
0.000000
 11
20.976642
 21
9.640712
 31
0.000000
  0
LINE
  8
Default
 62
     5
  6
CONTINUOUS
 10
20.976642
 20
9.640712
 30
0.000000
 11
20.963940
 21
9.630323
 31
0.000000
  0
LINE
  8
Default
 62
     5
  6
CONTINUOUS
 10
2.874005
 20
11.737390
 30
0.000000
 11
2.861015
 21
11.756491
 31
0.000000
  0
LINE
  8
Default
 62
     5
  6
CONTINUOUS
 10
2.861015
 20
11.756491
 30
0.000000
 11
2.867160
 21
11.744741
 31
0.000000
  0
LINE
  8
Default
 62
     5
  6
CONTINUOUS
 10
2.867160
 20
11.744741
 30
0.000000
 11
2.874005
 21
11.737390
 31
0.000000
  0
LINE
  8
Default
 62
     5
  6
CONTINUOUS
 10
8.612675
 20
9.772103
 30
0.000000
 11
8.670510
 21
9.698203
 31
0.000000
  0
ARC
  8
Default
 62
     5
  6
CONTINUOUS
 10
8.518392
 20
9.556245
 30
0.000000
 40
0.208067
 50
1.504611
 51
43.021414
  0
ARC
  8
Default
 62
     5
  6
CONTINUOUS
 10
8.778491
 20
9.449670
 30
0.000000
 40
0.123560
 50
55.744726
 51
114.940853
  0
ARC
  8
Default
 62
     5
  6
CONTINUOUS
 10
8.822711
 20
9.514603
 30
0.000000
 40
0.045000
 50
52.068514
 51
55.744726
  0
LINE
  8
Default
 62
     5
  6
CONTINUOUS
 10
8.850373
 20
9.550097
 30
0.000000
 11
8.924385
 21
9.492415
 31
0.000000
  0
ARC
  8
Default
 62
     5
  6
CONTINUOUS
 10
8.896722
 20
9.456922
 30
0.000000
 40
0.045000
 50
42.815599
 51
52.068514
  0
LINE
  8
Default
 62
     5
  6
CONTINUOUS
 10
8.929732
 20
9.487506
 30
0.000000
 11
8.938390
 21
9.478161
 31
0.000000
  0
LINE
  8
Default
 62
     5
  6
CONTINUOUS
 10
8.938390
 20
9.478161
 30
0.000000
 11
8.957517
 21
9.485940
 31
0.000000
  0
ARC
  8
Default
 62
     5
  6
CONTINUOUS
 10
8.974471
 20
9.444256
 30
0.000000
 40
0.045000
 50
100.247049
 51
112.132950
  0
ARC
  8
Default
 62
     5
  6
CONTINUOUS
 10
9.008339
 20
9.256912
 30
0.000000
 40
0.235381
 50
33.636463
 51
100.247049
  0
LINE
  8
Default
 62
     5
  6
CONTINUOUS
 10
9.204310
 20
9.387294
 30
0.000000
 11
9.316576
 21
9.247242
 31
0.000000
  0
ARC
  8
Default
 62
     5
  6
CONTINUOUS
 10
9.281465
 20
9.219096
 30
0.000000
 40
0.045000
 50
35.012676
 51
38.715751
  0
ARC
  8
Default
 62
     5
  6
CONTINUOUS
 10
9.318100
 20
9.199916
 30
0.000000
 40
0.045000
 50
82.525130
 51
89.719601
  0
LINE
  8
Default
 62
     5
  6
CONTINUOUS
 10
9.323955
 20
9.244533
 30
0.000000
 11
9.372915
 21
9.238109
 31
0.000000
  0
ARC
  8
Default
 62
     5
  6
CONTINUOUS
 10
9.367061
 20
9.193492
 30
0.000000
 40
0.045000
 50
70.587819
 51
82.525130
  0
LINE
  8
Default
 62
     5
  6
CONTINUOUS
 10
9.382018
 20
9.235934
 30
0.000000
 11
9.474078
 21
9.203492
 31
0.000000
  0
ARC
  8
Default
 62
     5
  6
CONTINUOUS
 10
9.459122
 20
9.161050
 30
0.000000
 40
0.045000
 50
61.114007
 51
70.587819
  0
ARC
  8
Default
 62
     5
  6
CONTINUOUS
 10
8.837098
 20
8.033604
 30
0.000000
 40
1.332653
 50
44.517197
 51
61.114007
  0
ARC
  8
Default
 62
     5
  6
CONTINUOUS
 10
9.728415
 20
8.423712
 30
0.000000
 40
0.547425
 50
38.942515
 51
83.821487
  0
LINE
  8
Default
 62
     5
  6
CONTINUOUS
 10
10.154190
 20
8.767791
 30
0.000000
 11
10.236883
 21
8.690716
 31
0.000000
  0
LINE
  8
Default
 62
     5
  6
CONTINUOUS
 10
10.236883
 20
8.690716
 30
0.000000
 11
10.322330
 21
8.641468
 31
0.000000
  0
ARC
  8
Default
 62
     5
  6
CONTINUOUS
 10
10.299858
 20
8.602480
 30
0.000000
 40
0.045000
 50
46.492006
 51
60.042485
  0
ARC
  8
Default
 62
     5
  6
CONTINUOUS
 10
10.338235
 20
8.642909
 30
0.000000
 40
0.010743
 50
226.492006
 51
291.041631
  0
ARC
  8
Default
 62
     5
  6
CONTINUOUS
 10
10.358249
 20
8.590883
 30
0.000000
 40
0.045000
 50
105.681977
 51
111.041631
  0
LINE
  8
Default
 62
     5
  6
CONTINUOUS
 10
10.346085
 20
8.634208
 30
0.000000
 11
10.408884
 21
8.651839
 31
0.000000
  0
ARC
  8
Default
 62
     5
  6
CONTINUOUS
 10
10.452264
 20
8.519161
 30
0.000000
 40
0.139590
 50
44.256608
 51
108.105445
  0
ARC
  8
Default
 62
     5
  6
CONTINUOUS
 10
10.985804
 20
9.146492
 30
0.000000
 40
0.684680
 50
230.710871
 51
244.266093
  0
LINE
  8
Default
 62
     5
  6
CONTINUOUS
 10
10.688521
 20
8.529718
 30
0.000000
 11
10.733702
 21
8.576068
 31
0.000000
  0
ARC
  8
Default
 62
     5
  6
CONTINUOUS
 10
10.765926
 20
8.544658
 30
0.000000
 40
0.045000
 50
132.498278
 51
135.732210
  0
LINE
  8
Default
 62
     5
  6
CONTINUOUS
 10
10.735525
 20
8.577836
 30
0.000000
 11
10.736307
 21
8.578553
 31
0.000000
  0
ARC
  8
Default
 62
     5
  6
CONTINUOUS
 10
10.791793
 20
8.561969
 30
0.000000
 40
0.057911
 50
85.438938
 51
163.360040
  0
LINE
  8
Default
 62
     5
  6
CONTINUOUS
 10
10.796398
 20
8.619697
 30
0.000000
 11
10.845588
 21
8.621849
 31
0.000000
  0
ARC
  8
Default
 62
     5
  6
CONTINUOUS
 10
10.847555
 20
8.576892
 30
0.000000
 40
0.045000
 50
62.165075
 51
92.504814
  0
ARC
  8
Default
 62
     5
  6
CONTINUOUS
 10
10.666371
 20
8.233753
 30
0.000000
 40
0.433036
 50
44.464809
 51
62.165075
  0
LINE
  8
Default
 62
     5
  6
CONTINUOUS
 10
10.975420
 20
8.537082
 30
0.000000
 11
11.023533
 21
8.515558
 31
0.000000
  0
ARC
  8
Default
 62
     5
  6
CONTINUOUS
 10
11.005157
 20
8.474481
 30
0.000000
 40
0.045000
 50
64.626903
 51
65.897583
  0
LINE
  8
Default
 62
     5
  6
CONTINUOUS
 10
11.024440
 20
8.515140
 30
0.000000
 11
11.071172
 21
8.492977
 31
0.000000
  0
ARC
  8
Default
 62
     5
  6
CONTINUOUS
 10
11.051889
 20
8.452318
 30
0.000000
 40
0.045000
 50
52.664072
 51
64.626903
  0
LINE
  8
Default
 62
     5
  6
CONTINUOUS
 10
11.079181
 20
8.488097
 30
0.000000
 11
11.277899
 21
8.336517
 31
0.000000
  0
ARC
  8
Default
 62
     5
  6
CONTINUOUS
 10
11.250607
 20
8.300738
 30
0.000000
 40
0.045000
 50
45.468856
 51
52.664072
  0
LINE
  8
Default
 62
     5
  6
CONTINUOUS
 10
11.282165
 20
8.332817
 30
0.000000
 11
11.370700
 21
8.245719
 31
0.000000
  0
ARC
  8
Default
 62
     5
  6
CONTINUOUS
 10
11.386383
 20
8.265881
 30
0.000000
 40
0.025543
 50
232.122386
 51
285.100663
  0
ARC
  8
Default
 62
     5
  6
CONTINUOUS
 10
11.404761
 20
8.197774
 30
0.000000
 40
0.045000
 50
90.000000
 51
105.100663
  0
LINE
  8
Default
 62
     5
  6
CONTINUOUS
 10
11.404761
 20
8.242774
 30
0.000000
 11
11.494341
 21
8.242774
 31
0.000000
  0
ARC
  8
Default
 62
     5
  6
CONTINUOUS
 10
11.494341
 20
8.197774
 30
0.000000
 40
0.045000
 50
73.619221
 51
90.000000
  0
ARC
  8
Default
 62
     5
  6
CONTINUOUS
 10
11.377207
 20
7.799292
 30
0.000000
 40
0.460341
 50
39.590141
 51
73.619221
  0
LINE
  8
Default
 62
     5
  6
CONTINUOUS
 10
11.731956
 20
8.092664
 30
0.000000
 11
11.809591
 21
8.009068
 31
0.000000
  0
ARC
  8
Default
 62
     5
  6
CONTINUOUS
 10
11.825356
 20
7.966919
 30
0.000000
 40
0.045000
 50
100.133119
 51
110.507526
  0
LINE
  8
Default
 62
     5
  6
CONTINUOUS
 10
11.817438
 20
8.011217
 30
0.000000
 11
11.887038
 21
8.023657
 31
0.000000
  0
ARC
  8
Default
 62
     5
  6
CONTINUOUS
 10
11.894955
 20
7.979358
 30
0.000000
 40
0.045000
 50
93.047431
 51
100.133119
  0
ARC
  8
Default
 62
     5
  6
CONTINUOUS
 10
11.907396
 20
7.745674
 30
0.000000
 40
0.279015
 50
59.399976
 51
93.047431
  0
ARC
  8
Default
 62
     5
  6
CONTINUOUS
 10
12.026520
 20
7.947101
 30
0.000000
 40
0.045000
 50
49.936431
 51
59.399976
  0
LINE
  8
Default
 62
     5
  6
CONTINUOUS
 10
12.055483
 20
7.981541
 30
0.000000
 11
12.154965
 21
7.897877
 31
0.000000
  0
ARC
  8
Default
 62
     5
  6
CONTINUOUS
 10
12.126002
 20
7.863437
 30
0.000000
 40
0.045000
 50
45.495092
 51
49.936431
  0
LINE
  8
Default
 62
     5
  6
CONTINUOUS
 10
12.157545
 20
7.895531
 30
0.000000
 11
12.229281
 21
7.825024
 31
0.000000
  0
ARC
  8
Default
 62
     5
  6
CONTINUOUS
 10
12.197738
 20
7.792930
 30
0.000000
 40
0.045000
 50
40.954995
 51
45.495092
  0
LINE
  8
Default
 62
     5
  6
CONTINUOUS
 10
12.231723
 20
7.822426
 30
0.000000
 11
12.261483
 21
7.788137
 31
0.000000
  0
ARC
  8
Default
 62
     5
  6
CONTINUOUS
 10
12.227498
 20
7.758641
 30
0.000000
 40
0.045000
 50
39.248531
 51
40.954995
  0
ARC
  8
Default
 62
     5
  6
CONTINUOUS
 10
12.355085
 20
7.597558
 30
0.000000
 40
0.211024
 50
46.624501
 51
116.070206
  0
LINE
  8
Default
 62
     5
  6
CONTINUOUS
 10
12.500012
 20
7.750945
 30
0.000000
 11
12.599417
 21
7.681441
 31
0.000000
  0
LINE
  8
Default
 62
     5
  6
CONTINUOUS
 10
12.599417
 20
7.681441
 30
0.000000
 11
12.627365
 21
7.663832
 31
0.000000
  0
LINE
  8
Default
 62
     5
  6
CONTINUOUS
 10
12.627365
 20
7.663832
 30
0.000000
 11
12.664592
 21
7.679701
 31
0.000000
  0
ARC
  8
Default
 62
     5
  6
CONTINUOUS
 10
12.786666
 20
7.410675
 30
0.000000
 40
0.295428
 50
81.768640
 51
114.406812
  0
ARC
  8
Default
 62
     5
  6
CONTINUOUS
 10
12.845414
 20
7.485663
 30
0.000000
 40
0.218018
 50
55.118771
 51
94.327663
  0
ARC
  8
Default
 62
     5
  6
CONTINUOUS
 10
11.375002
 20
4.616194
 30
0.000000
 40
3.440429
 50
54.721736
 51
62.378313
  0
ARC
  8
Default
 62
     5
  6
CONTINUOUS
 10
13.336026
 20
7.388076
 30
0.000000
 40
0.045000
 50
48.731308
 51
54.721736
  0
ARC
  8
Default
 62
     5
  6
CONTINUOUS
 10
13.456305
 20
7.525138
 30
0.000000
 40
0.137354
 50
228.731308
 51
259.692538
  0
LINE
  8
Default
 62
     5
  6
CONTINUOUS
 10
13.431728
 20
7.390000
 30
0.000000
 11
13.508712
 21
7.428785
 31
0.000000
  0
ARC
  8
Default
 62
     5
  6
CONTINUOUS
 10
13.528959
 20
7.388597
 30
0.000000
 40
0.045000
 50
116.314276
 51
116.739497
  0
LINE
  8
Default
 62
     5
  6
CONTINUOUS
 10
13.509010
 20
7.428934
 30
0.000000
 11
13.729372
 21
7.537912
 31
0.000000
  0
ARC
  8
Default
 62
     5
  6
CONTINUOUS
 10
13.749321
 20
7.497576
 30
0.000000
 40
0.045000
 50
115.793897
 51
116.314276
  0
LINE
  8
Default
 62
     5
  6
CONTINUOUS
 10
13.729740
 20
7.538092
 30
0.000000
 11
14.129854
 21
7.731462
 31
0.000000
  0
ARC
  8
Default
 62
     5
  6
CONTINUOUS
 10
16.219943
 20
3.406730
 30
0.000000
 40
4.803310
 50
106.065204
 51
115.793897
  0
ARC
  8
Default
 62
     5
  6
CONTINUOUS
 10
11.923318
 20
18.326737
 30
0.000000
 40
10.723042
 50
286.065204
 51
293.759389
  0
ARC
  8
Default
 62
     5
  6
CONTINUOUS
 10
16.908859
 20
7.752786
 30
0.000000
 40
1.009838
 50
90.427066
 51
131.207026
  0
ARC
  8
Default
 62
     5
  6
CONTINUOUS
 10
16.856339
 20
9.116340
 30
0.000000
 40
0.356594
 50
277.248498
 51
308.348822
  0
ARC
  8
Default
 62
     5
  6
CONTINUOUS
 10
17.105508
 20
8.801390
 30
0.000000
 40
0.045000
 50
124.026905
 51
128.348822
  0
LINE
  8
Default
 62
     5
  6
CONTINUOUS
 10
17.080326
 20
8.838685
 30
0.000000
 11
17.124811
 21
8.868721
 31
0.000000
  0
ARC
  8
Default
 62
     5
  6
CONTINUOUS
 10
17.216284
 20
8.768650
 30
0.000000
 40
0.135578
 50
93.439219
 51
132.429775
  0
LINE
  8
Default
 62
     5
  6
CONTINUOUS
 10
17.208151
 20
8.903984
 30
0.000000
 11
17.255566
 21
8.925629
 31
0.000000
  0
ARC
  8
Default
 62
     5
  6
CONTINUOUS
 10
17.274253
 20
8.884692
 30
0.000000
 40
0.045000
 50
113.715361
 51
114.536186
  0
LINE
  8
Default
 62
     5
  6
CONTINUOUS
 10
17.256154
 20
8.925892
 30
0.000000
 11
17.300559
 21
8.945399
 31
0.000000
  0
LINE
  8
Default
 62
     5
  6
CONTINUOUS
 10
17.300559
 20
8.945399
 30
0.000000
 11
17.335737
 21
8.967873
 31
0.000000
  0
ARC
  8
Default
 62
     5
  6
CONTINUOUS
 10
17.359964
 20
8.929951
 30
0.000000
 40
0.045000
 50
108.421381
 51
122.573099
  0
LINE
  8
Default
 62
     5
  6
CONTINUOUS
 10
17.345744
 20
8.972645
 30
0.000000
 11
17.397280
 21
8.989811
 31
0.000000
  0
LINE
  8
Default
 62
     5
  6
CONTINUOUS
 10
17.397280
 20
8.989811
 30
0.000000
 11
17.431489
 21
9.012385
 31
0.000000
  0
ARC
  8
Default
 62
     5
  6
CONTINUOUS
 10
17.456274
 20
8.974825
 30
0.000000
 40
0.045000
 50
110.241431
 51
123.420431
  0
LINE
  8
Default
 62
     5
  6
CONTINUOUS
 10
17.440705
 20
9.017046
 30
0.000000
 11
17.490414
 21
9.035376
 31
0.000000
  0
LINE
  8
Default
 62
     5
  6
CONTINUOUS
 10
17.490414
 20
9.035376
 30
0.000000
 11
17.652530
 21
9.123171
 31
0.000000
  0
LINE
  8
Default
 62
     5
  6
CONTINUOUS
 10
17.652530
 20
9.123171
 30
0.000000
 11
17.964922
 21
9.307143
 31
0.000000
  0
LINE
  8
Default
 62
     5
  6
CONTINUOUS
 10
17.964922
 20
9.307143
 30
0.000000
 11
18.219802
 21
9.486607
 31
0.000000
  0
ARC
  8
Default
 62
     5
  6
CONTINUOUS
 10
23.513613
 20
2.609265
 30
0.000000
 40
8.678841
 50
122.699249
 51
127.587155
  0
ARC
  8
Default
 62
     5
  6
CONTINUOUS
 10
17.568112
 20
11.583984
 30
0.000000
 40
2.091219
 50
306.945438
 51
317.059157
  0
ARC
  8
Default
 62
     5
  6
CONTINUOUS
 10
16.397294
 20
12.394207
 30
0.000000
 40
3.506252
 50
320.402495
 51
326.823794
  0
ARC
  8
Default
 62
     5
  6
CONTINUOUS
 10
18.608953
 20
10.833690
 30
0.000000
 40
0.806891
 50
333.648532
 51
367.103696
  0
ARC
  8
Default
 62
     5
  6
CONTINUOUS
 10
19.454304
 20
10.939040
 30
0.000000
 40
0.045000
 50
183.021839
 51
187.103696
  0
ARC
  8
Default
 62
     5
  6
CONTINUOUS
 10
16.676124
 20
10.792380
 30
0.000000
 40
2.737049
 50
3.021839
 51
15.234830
  0
ARC
  8
Default
 62
     5
  6
CONTINUOUS
 10
22.878810
 20
12.793018
 30
0.000000
 40
3.785315
 50
193.530963
 51
199.786779
  0
ARC
  8
Default
 62
     5
  6
CONTINUOUS
 10
19.242313
 20
11.917893
 30
0.000000
 40
0.045000
 50
188.061680
 51
193.530963
  0
LINE
  8
Default
 62
     5
  6
CONTINUOUS
 10
19.197758
 20
11.911583
 30
0.000000
 11
19.166095
 21
12.135130
 31
0.000000
  0
ARC
  8
Default
 62
     5
  6
CONTINUOUS
 10
19.465292
 20
12.221107
 30
0.000000
 40
0.311305
 50
139.931561
 51
196.032488
  0
ARC
  8
Default
 62
     5
  6
CONTINUOUS
 10
19.261495
 20
12.392528
 30
0.000000
 40
0.045000
 50
124.297420
 51
139.931561
  0
ARC
  8
Default
 62
     5
  6
CONTINUOUS
 10
19.351537
 20
12.260518
 30
0.000000
 40
0.204795
 50
36.988706
 51
124.297420
  0
ARC
  8
Default
 62
     5
  6
CONTINUOUS
 10
18.660697
 20
11.677913
 30
0.000000
 40
1.108251
 50
29.136442
 51
39.559499
  0
ARC
  8
Default
 62
     5
  6
CONTINUOUS
 10
19.589407
 20
12.195600
 30
0.000000
 40
0.045000
 50
26.662673
 51
29.136442
  0
ARC
  8
Default
 62
     5
  6
CONTINUOUS
 10
18.034388
 20
11.414775
 30
0.000000
 40
1.785049
 50
10.912325
 51
26.662673
  0
ARC
  8
Default
 62
     5
  6
CONTINUOUS
 10
18.029572
 20
11.274917
 30
0.000000
 40
1.821371
 50
6.427776
 51
15.207708
  0
ARC
  8
Default
 62
     5
  6
CONTINUOUS
 10
19.794775
 20
11.473783
 30
0.000000
 40
0.045000
 50
2.339761
 51
6.427776
  0
LINE
  8
Default
 62
     5
  6
CONTINUOUS
 10
19.839738
 20
11.475620
 30
0.000000
 11
19.840400
 21
11.459414
 31
0.000000
  0
LINE
  8
Default
 62
     5
  6
CONTINUOUS
 10
19.840400
 20
11.459414
 30
0.000000
 11
19.951394
 21
11.775790
 31
0.000000
  0
LINE
  8
Default
 62
     5
  6
CONTINUOUS
 10
19.951394
 20
11.775790
 30
0.000000
 11
20.117822
 21
12.263267
 31
0.000000
  0
LINE
  8
Default
 62
     5
  6
CONTINUOUS
 10
20.117822
 20
12.263267
 30
0.000000
 11
20.258600
 21
12.802141
 31
0.000000
  0
ARC
  8
Default
 62
     5
  6
CONTINUOUS
 10
20.302139
 20
12.790767
 30
0.000000
 40
0.045000
 50
150.613616
 51
165.358993
  0
LINE
  8
Default
 62
     5
  6
CONTINUOUS
 10
20.262929
 20
12.812848
 30
0.000000
 11
20.299115
 21
12.877104
 31
0.000000
  0
ARC
  8
Default
 62
     5
  6
CONTINUOUS
 10
20.338325
 20
12.855023
 30
0.000000
 40
0.045000
 50
144.756445
 51
150.613616
  0
LINE
  8
Default
 62
     5
  6
CONTINUOUS
 10
20.301573
 20
12.880990
 30
0.000000
 11
20.342142
 21
12.938407
 31
0.000000
  0
ARC
  8
Default
 62
     5
  6
CONTINUOUS
 10
20.410052
 20
12.890424
 30
0.000000
 40
0.083152
 50
14.780727
 51
144.756445
  0
ARC
  8
Default
 62
     5
  6
CONTINUOUS
 10
20.446941
 20
12.900158
 30
0.000000
 40
0.045000
 50
10.498729
 51
14.780727
  0
LINE
  8
Default
 62
     5
  6
CONTINUOUS
 10
20.491188
 20
12.908357
 30
0.000000
 11
20.507116
 21
12.822406
 31
0.000000
  0
ARC
  8
Default
 62
     5
  6
CONTINUOUS
 10
20.462870
 20
12.814206
 30
0.000000
 40
0.045000
 50
355.785379
 51
370.498729
  0
ARC
  8
Default
 62
     5
  6
CONTINUOUS
 10
19.144134
 20
12.911386
 30
0.000000
 40
1.367311
 50
342.002150
 51
355.785379
  0
LINE
  8
Default
 62
     5
  6
CONTINUOUS
 10
20.444540
 20
12.488913
 30
0.000000
 11
20.345699
 21
12.134448
 31
0.000000
  0
LINE
  8
Default
 62
     5
  6
CONTINUOUS
 10
20.345699
 20
12.134448
 30
0.000000
 11
20.300809
 21
11.964543
 31
0.000000
  0
ARC
  8
Default
 62
     5
  6
CONTINUOUS
 10
20.257302
 20
11.976038
 30
0.000000
 40
0.045000
 50
336.828047
 51
345.200421
  0
ARC
  8
Default
 62
     5
  6
CONTINUOUS
 10
20.407909
 20
11.911575
 30
0.000000
 40
0.118823
 50
156.828047
 51
195.189316
  0
ARC
  8
Default
 62
     5
  6
CONTINUOUS
 10
20.052259
 20
11.774806
 30
0.000000
 40
0.263115
 50
6.063723
 51
23.670975
  0
LINE
  8
Default
 62
     5
  6
CONTINUOUS
 10
20.313902
 20
11.802600
 30
0.000000
 11
20.345863
 21
11.860999
 31
0.000000
  0
LINE
  8
Default
 62
     5
  6
CONTINUOUS
 10
20.345863
 20
11.860999
 30
0.000000
 11
20.491543
 21
12.141095
 31
0.000000
  0
LINE
  8
Default
 62
     5
  6
CONTINUOUS
 10
20.491543
 20
12.141095
 30
0.000000
 11
20.587487
 21
12.388507
 31
0.000000
  0
LINE
  8
Default
 62
     5
  6
CONTINUOUS
 10
20.587487
 20
12.388507
 30
0.000000
 11
20.669650
 21
12.699283
 31
0.000000
  0
ARC
  8
Default
 62
     5
  6
CONTINUOUS
 10
20.713156
 20
12.687781
 30
0.000000
 40
0.045000
 50
163.515383
 51
165.190878
  0
LINE
  8
Default
 62
     5
  6
CONTINUOUS
 10
20.670005
 20
12.700550
 30
0.000000
 11
20.779462
 21
13.070435
 31
0.000000
  0
ARC
  8
Default
 62
     5
  6
CONTINUOUS
 10
20.822613
 20
13.057666
 30
0.000000
 40
0.045000
 50
159.661777
 51
163.515383
  0
LINE
  8
Default
 62
     5
  6
CONTINUOUS
 10
20.780418
 20
13.073306
 30
0.000000
 11
20.838471
 21
13.229924
 31
0.000000
  0
ARC
  8
Default
 62
     5
  6
CONTINUOUS
 10
20.919945
 20
13.199724
 30
0.000000
 40
0.086891
 50
41.725727
 51
159.661777
  0
ARC
  8
Default
 62
     5
  6
CONTINUOUS
 10
20.951210
 20
13.227605
 30
0.000000
 40
0.045000
 50
40.164789
 51
41.725727
  0
ARC
  8
Default
 62
     5
  6
CONTINUOUS
 10
20.825859
 20
13.121807
 30
0.000000
 40
0.209030
 50
3.646247
 51
40.164789
  0
ARC
  8
Default
 62
     5
  6
CONTINUOUS
 10
18.913396
 20
12.999935
 30
0.000000
 40
2.125373
 50
343.981761
 51
363.646247
  0
ARC
  8
Default
 62
     5
  6
CONTINUOUS
 10
20.912996
 20
12.425870
 30
0.000000
 40
0.045000
 50
340.348964
 51
343.981761
  0
ARC
  8
Default
 62
     5
  6
CONTINUOUS
 10
25.666192
 20
10.728561
 30
0.000000
 40
5.002151
 50
160.348964
 51
166.434725
  0
LINE
  8
Default
 62
     5
  6
CONTINUOUS
 10
20.803584
 20
11.901831
 30
0.000000
 11
20.857838
 21
11.965720
 31
0.000000
  0
LINE
  8
Default
 62
     5
  6
CONTINUOUS
 10
20.857838
 20
11.965720
 30
0.000000
 11
20.932716
 21
12.073331
 31
0.000000
  0
LINE
  8
Default
 62
     5
  6
CONTINUOUS
 10
20.932716
 20
12.073331
 30
0.000000
 11
21.136563
 21
12.389351
 31
0.000000
  0
LINE
  8
Default
 62
     5
  6
CONTINUOUS
 10
21.136563
 20
12.389351
 30
0.000000
 11
21.282189
 21
12.725183
 31
0.000000
  0
LINE
  8
Default
 62
     5
  6
CONTINUOUS
 10
21.282189
 20
12.725183
 30
0.000000
 11
21.351288
 21
12.895286
 31
0.000000
  0
LINE
  8
Default
 62
     5
  6
CONTINUOUS
 10
21.351288
 20
12.895286
 30
0.000000
 11
21.395675
 21
13.051315
 31
0.000000
  0
LINE
  8
Default
 62
     5
  6
CONTINUOUS
 10
21.395675
 20
13.051315
 30
0.000000
 11
21.414565
 21
13.136110
 31
0.000000
  0
ARC
  8
Default
 62
     5
  6
CONTINUOUS
 10
21.458488
 20
13.126325
 30
0.000000
 40
0.045000
 50
148.799906
 51
167.441431
  0
ARC
  8
Default
 62
     5
  6
CONTINUOUS
 10
21.525469
 20
13.085760
 30
0.000000
 40
0.123306
 50
83.194812
 51
148.799906
  0
ARC
  8
Default
 62
     5
  6
CONTINUOUS
 10
21.534747
 20
13.163515
 30
0.000000
 40
0.045000
 50
62.952581
 51
83.194812
  0
ARC
  8
Default
 62
     5
  6
CONTINUOUS
 10
21.442792
 20
12.983410
 30
0.000000
 40
0.247222
 50
14.646221
 51
62.952581
  0
ARC
  8
Default
 62
     5
  6
CONTINUOUS
 10
21.638442
 20
13.034542
 30
0.000000
 40
0.045000
 50
12.640501
 51
14.646221
  0
ARC
  8
Default
 62
     5
  6
CONTINUOUS
 10
21.051534
 20
12.902917
 30
0.000000
 40
0.646487
 50
358.549474
 51
372.640501
  0
ARC
  8
Default
 62
     5
  6
CONTINUOUS
 10
20.916343
 20
12.906340
 30
0.000000
 40
0.781721
 50
342.557028
 51
358.549474
  0
ARC
  8
Default
 62
     5
  6
CONTINUOUS
 10
21.619187
 20
12.685503
 30
0.000000
 40
0.045000
 50
339.916256
 51
342.557028
  0
LINE
  8
Default
 62
     5
  6
CONTINUOUS
 10
21.661450
 20
12.670050
 30
0.000000
 11
21.532997
 21
12.318727
 31
0.000000
  0
ARC
  8
Default
 62
     5
  6
CONTINUOUS
 10
21.490733
 20
12.334180
 30
0.000000
 40
0.045000
 50
335.820092
 51
339.916256
  0
LINE
  8
Default
 62
     5
  6
CONTINUOUS
 10
21.531785
 20
12.315748
 30
0.000000
 11
21.345661
 21
11.901213
 31
0.000000
  0
LINE
  8
Default
 62
     5
  6
CONTINUOUS
 10
21.345661
 20
11.901213
 30
0.000000
 11
21.367113
 21
11.922923
 31
0.000000
  0
ARC
  8
Default
 62
     5
  6
CONTINUOUS
 10
21.399123
 20
11.891295
 30
0.000000
 40
0.045000
 50
134.177582
 51
135.343147
  0
LINE
  8
Default
 62
     5
  6
CONTINUOUS
 10
21.367763
 20
11.923568
 30
0.000000
 11
21.568731
 21
12.118848
 31
0.000000
  0
ARC
  8
Default
 62
     5
  6
CONTINUOUS
 10
21.600091
 20
12.086575
 30
0.000000
 40
0.045000
 50
131.649534
 51
134.177582
  0
ARC
  8
Default
 62
     5
  6
CONTINUOUS
 10
19.155119
 20
14.835622
 30
0.000000
 40
3.634015
 50
311.649534
 51
320.337700
  0
LINE
  8
Default
 62
     5
  6
CONTINUOUS
 10
21.952655
 20
12.516171
 30
0.000000
 11
22.041447
 21
12.645015
 31
0.000000
  0
ARC
  8
Default
 62
     5
  6
CONTINUOUS
 10
22.271315
 20
12.551318
 30
0.000000
 40
0.248231
 50
132.967197
 51
157.823620
  0
ARC
  8
Default
 62
     5
  6
CONTINUOUS
 10
22.132797
 20
12.700031
 30
0.000000
 40
0.045000
 50
112.977167
 51
132.967197
  0
ARC
  8
Default
 62
     5
  6
CONTINUOUS
 10
22.169683
 20
12.613037
 30
0.000000
 40
0.139491
 50
50.399489
 51
112.977167
  0
ARC
  8
Default
 62
     5
  6
CONTINUOUS
 10
22.229915
 20
12.685843
 30
0.000000
 40
0.045000
 50
24.539531
 51
50.399489
  0
ARC
  8
Default
 62
     5
  6
CONTINUOUS
 10
22.036320
 20
12.597455
 30
0.000000
 40
0.257818
 50
335.322824
 51
384.539531
  0
ARC
  8
Default
 62
     5
  6
CONTINUOUS
 10
22.229702
 20
12.508602
 30
0.000000
 40
0.045000
 50
331.854673
 51
335.322824
  0
LINE
  8
Default
 62
     5
  6
CONTINUOUS
 10
22.269381
 20
12.487376
 30
0.000000
 11
22.201319
 21
12.360149
 31
0.000000
  0
ARC
  8
Default
 62
     5
  6
CONTINUOUS
 10
20.973180
 20
13.017163
 30
0.000000
 40
1.392836
 50
316.611352
 51
331.854673
  0
LINE
  8
Default
 62
     5
  6
CONTINUOUS
 10
21.985369
 20
12.060363
 30
0.000000
 11
21.894737
 21
11.953653
 31
0.000000
  0
LINE
  8
Default
 62
     5
  6
CONTINUOUS
 10
21.894737
 20
11.953653
 30
0.000000
 11
21.848288
 21
11.890822
 31
0.000000
  0
ARC
  8
Default
 62
     5
  6
CONTINUOUS
 10
21.812103
 20
11.917572
 30
0.000000
 40
0.045000
 50
322.009208
 51
323.526154
  0
LINE
  8
Default
 62
     5
  6
CONTINUOUS
 10
21.847568
 20
11.889873
 30
0.000000
 11
21.833885
 21
11.872355
 31
0.000000
  0
LINE
  8
Default
 62
     5
  6
CONTINUOUS
 10
21.833885
 20
11.872355
 30
0.000000
 11
21.823751
 21
11.855361
 31
0.000000
  0
ARC
  8
Default
 62
     5
  6
CONTINUOUS
 10
21.785102
 20
11.878409
 30
0.000000
 40
0.045000
 50
322.918869
 51
329.190439
  0
ARC
  8
Default
 62
     5
  6
CONTINUOUS
 10
21.779786
 20
11.833214
 30
0.000000
 40
0.045000
 50
5.859509
 51
23.665098
  0
ARC
  8
Default
 62
     5
  6
CONTINUOUS
 10
21.468195
 20
11.801237
 30
0.000000
 40
0.358228
 50
359.745876
 51
365.859509
  0
LINE
  8
Default
 62
     5
  6
CONTINUOUS
 10
21.826419
 20
11.799648
 30
0.000000
 11
21.973117
 21
11.918774
 31
0.000000
  0
LINE
  8
Default
 62
     5
  6
CONTINUOUS
 10
21.973117
 20
11.918774
 30
0.000000
 11
22.115730
 21
12.049287
 31
0.000000
  0
LINE
  8
Default
 62
     5
  6
CONTINUOUS
 10
22.115730
 20
12.049287
 30
0.000000
 11
22.253841
 21
12.175593
 31
0.000000
  0
ARC
  8
Default
 62
     5
  6
CONTINUOUS
 10
22.319718
 20
12.103559
 30
0.000000
 40
0.097615
 50
32.187574
 51
132.443866
  0
ARC
  8
Default
 62
     5
  6
CONTINUOUS
 10
22.286748
 20
12.056925
 30
0.000000
 40
0.151947
 50
345.592068
 51
400.476124
  0
ARC
  8
Default
 62
     5
  6
CONTINUOUS
 10
22.390331
 20
12.030314
 30
0.000000
 40
0.045000
 50
341.672172
 51
345.592068
  0
ARC
  8
Default
 62
     5
  6
CONTINUOUS
 10
21.943152
 20
12.178446
 30
0.000000
 40
0.516076
 50
320.625100
 51
341.672172
  0
ARC
  8
Default
 62
     5
  6
CONTINUOUS
 10
20.410055
 20
13.229047
 30
0.000000
 40
2.373101
 50
315.689967
 51
324.502099
  0
ARC
  8
Default
 62
     5
  6
CONTINUOUS
 10
22.075975
 20
11.602774
 30
0.000000
 40
0.045000
 50
314.417227
 51
315.689967
  0
ARC
  8
Default
 62
     5
  6
CONTINUOUS
 10
22.707841
 20
10.957922
 30
0.000000
 40
0.857823
 50
134.417227
 51
150.229363
  0
LINE
  8
Default
 62
     5
  6
CONTINUOUS
 10
21.963234
 20
11.383856
 30
0.000000
 11
21.988404
 21
11.400250
 31
0.000000
  0
ARC
  8
Default
 62
     5
  6
CONTINUOUS
 10
22.202990
 20
11.200469
 30
0.000000
 40
0.293189
 50
93.030992
 51
137.046355
  0
ARC
  8
Default
 62
     5
  6
CONTINUOUS
 10
22.189867
 20
11.448311
 30
0.000000
 40
0.045000
 50
91.516512
 51
93.030992
  0
ARC
  8
Default
 62
     5
  6
CONTINUOUS
 10
22.191706
 20
11.378859
 30
0.000000
 40
0.114476
 50
24.029495
 51
91.516512
  0
ARC
  8
Default
 62
     5
  6
CONTINUOUS
 10
22.255161
 20
11.407150
 30
0.000000
 40
0.045000
 50
353.466892
 51
384.029495
  0
ARC
  8
Default
 62
     5
  6
CONTINUOUS
 10
22.142946
 20
11.420001
 30
0.000000
 40
0.157948
 50
305.285788
 51
353.466892
  0
LINE
  8
Default
 62
     5
  6
CONTINUOUS
 10
22.234186
 20
11.291071
 30
0.000000
 11
22.015710
 21
11.093796
 31
0.000000
  0
LINE
  8
Default
 62
     5
  6
CONTINUOUS
 10
22.015710
 20
11.093796
 30
0.000000
 11
21.901107
 21
10.985613
 31
0.000000
  0
LINE
  8
Default
 62
     5
  6
CONTINUOUS
 10
21.901107
 20
10.985613
 30
0.000000
 11
21.811535
 21
10.897733
 31
0.000000
  0
LINE
  8
Default
 62
     5
  6
CONTINUOUS
 10
21.811535
 20
10.897733
 30
0.000000
 11
21.875314
 21
10.913041
 31
0.000000
  0
ARC
  8
Default
 62
     5
  6
CONTINUOUS
 10
21.906803
 20
10.833013
 30
0.000000
 40
0.086001
 50
332.045420
 51
471.477836
  0
ARC
  8
Default
 62
     5
  6
CONTINUOUS
 10
21.769527
 20
10.843516
 30
0.000000
 40
0.219214
 50
321.101578
 51
346.595870
  0
ARC
  8
Default
 62
     5
  6
CONTINUOUS
 10
21.615692
 20
10.859172
 30
0.000000
 40
0.358839
 50
316.183837
 51
334.707501
  0
ARC
  8
Default
 62
     5
  6
CONTINUOUS
 10
21.790088
 20
10.655334
 30
0.000000
 40
0.095575
 50
317.968168
 51
332.181331
  0
LINE
  8
Default
 62
     5
  6
CONTINUOUS
 10
21.861079
 20
10.591342
 30
0.000000
 11
21.850762
 21
10.572241
 31
0.000000
  0
ARC
  8
Default
 62
     5
  6
CONTINUOUS
 10
21.811168
 20
10.593627
 30
0.000000
 40
0.045000
 50
315.403055
 51
331.625547
  0
LINE
  8
Default
 62
     5
  6
CONTINUOUS
 10
21.843211
 20
10.562031
 30
0.000000
 11
21.812434
 21
10.530819
 31
0.000000
  0
ARC
  8
Default
 62
     5
  6
CONTINUOUS
 10
20.877945
 20
11.386562
 30
0.000000
 40
1.267110
 50
303.178411
 51
317.518609
  0
LINE
  8
Default
 62
     5
  6
CONTINUOUS
 10
21.571368
 20
10.326028
 30
0.000000
 11
21.513737
 21
10.288347
 31
0.000000
  0
ARC
  8
Default
 62
     5
  6
CONTINUOUS
 10
21.358234
 20
10.196414
 30
0.000000
 40
0.180646
 50
12.416941
 51
30.591378
  0
ARC
  8
Default
 62
     5
  6
CONTINUOUS
 10
21.490707
 20
10.225581
 30
0.000000
 40
0.045000
 50
6.519219
 51
12.416941
  0
LINE
  8
Default
 62
     5
  6
CONTINUOUS
 10
21.535416
 20
10.230690
 30
0.000000
 11
21.539174
 21
10.197807
 31
0.000000
  0
ARC
  8
Default
 62
     5
  6
CONTINUOUS
 10
21.487938
 20
10.135686
 30
0.000000
 40
0.080524
 50
350.871258
 51
410.484693
  0
ARC
  8
Default
 62
     5
  6
CONTINUOUS
 10
21.235338
 20
10.157091
 30
0.000000
 40
0.333858
 50
332.196597
 51
354.123790
  0
ARC
  8
Default
 62
     5
  6
CONTINUOUS
 10
21.490848
 20
10.022357
 30
0.000000
 40
0.045000
 50
317.289669
 51
332.196597
  0
LINE
  8
Default
 62
     5
  6
CONTINUOUS
 10
21.523914
 20
9.991834
 30
0.000000
 11
21.446580
 21
9.908058
 31
0.000000
  0
ARC
  8
Default
 62
     5
  6
CONTINUOUS
 10
21.413515
 20
9.938582
 30
0.000000
 40
0.045000
 50
304.185363
 51
317.289669
  0
LINE
  8
Default
 62
     5
  6
CONTINUOUS
 10
21.438799
 20
9.901356
 30
0.000000
 11
21.336429
 21
9.831824
 31
0.000000
  0
ARC
  8
Default
 62
     5
  6
CONTINUOUS
 10
21.311144
 20
9.869049
 30
0.000000
 40
0.045000
 50
303.783527
 51
304.185363
  0
LINE
  8
Default
 62
     5
  6
CONTINUOUS
 10
21.336167
 20
9.831648
 30
0.000000
 11
21.168591
 21
9.719535
 31
0.000000
  0
ARC
  8
Default
 62
     5
  6
CONTINUOUS
 10
21.143569
 20
9.756937
 30
0.000000
 40
0.045000
 50
302.665948
 51
303.783527
  0
LINE
  8
Default
 62
     5
  6
CONTINUOUS
 10
21.167857
 20
9.719054
 30
0.000000
 11
21.160785
 21
9.714520
 31
0.000000
  0
ARC
  8
Default
 62
     5
  6
CONTINUOUS
 10
21.099263
 20
9.614441
 30
0.000000
 40
0.117477
 50
27.484990
 51
58.419384
  0
ARC
  8
Default
 62
     5
  6
CONTINUOUS
 10
21.163559
 20
9.647890
 30
0.000000
 40
0.045000
 50
19.994947
 51
27.484990
  0
ARC
  8
Default
 62
     5
  6
CONTINUOUS
 10
21.008733
 20
9.591554
 30
0.000000
 40
0.209757
 50
293.352696
 51
379.994947
  0
ARC
  8
Default
 62
     5
  6
CONTINUOUS
 10
20.749069
 20
9.807786
 30
0.000000
 40
0.533519
 50
287.336750
 51
309.981973
  0
ARC
  8
Default
 62
     5
  6
CONTINUOUS
 10
21.423769
 20
7.822421
 30
0.000000
 40
1.563583
 50
109.258556
 51
120.621831
  0
ARC
  8
Default
 62
     5
  6
CONTINUOUS
 10
20.604407
 20
9.206684
 30
0.000000
 40
0.045000
 50
293.820197
 51
300.621831
  0
LINE
  8
Default
 62
     5
  6
CONTINUOUS
 10
20.622581
 20
9.165517
 30
0.000000
 11
20.584204
 21
9.148575
 31
0.000000
  0
LINE
  8
Default
 62
     5
  6
CONTINUOUS
 10
20.584204
 20
9.148575
 30
0.000000
 11
20.554622
 21
9.125776
 31
0.000000
  0
ARC
  8
Default
 62
     5
  6
CONTINUOUS
 10
20.527152
 20
9.161418
 30
0.000000
 40
0.045000
 50
294.778287
 51
307.622519
  0
LINE
  8
Default
 62
     5
  6
CONTINUOUS
 10
20.546012
 20
9.120561
 30
0.000000
 11
20.532683
 21
9.114408
 31
0.000000
  0
LINE
  8
Default
 62
     5
  6
CONTINUOUS
 10
20.532683
 20
9.114408
 30
0.000000
 11
20.533122
 21
9.108920
 31
0.000000
  0
ARC
  8
Default
 62
     5
  6
CONTINUOUS
 10
20.212539
 20
9.030419
 30
0.000000
 40
0.330055
 50
332.486574
 51
373.759216
  0
ARC
  8
Default
 62
     5
  6
CONTINUOUS
 10
20.268312
 20
8.993180
 30
0.000000
 40
0.263486
 50
291.767665
 51
334.066021
  0
LINE
  8
Default
 62
     5
  6
CONTINUOUS
 10
20.366025
 20
8.748482
 30
0.000000
 11
20.313875
 21
8.721985
 31
0.000000
  0
ARC
  8
Default
 62
     5
  6
CONTINUOUS
 10
20.270161
 20
8.711305
 30
0.000000
 40
0.045000
 50
344.942129
 51
373.729258
  0
LINE
  8
Default
 62
     5
  6
CONTINUOUS
 10
20.313615
 20
8.699614
 30
0.000000
 11
20.301947
 21
8.656242
 31
0.000000
  0
LINE
  8
Default
 62
     5
  6
CONTINUOUS
 10
20.301947
 20
8.656242
 30
0.000000
 11
20.281806
 21
8.566759
 31
0.000000
  0
ARC
  8
Default
 62
     5
  6
CONTINUOUS
 10
20.237904
 20
8.576640
 30
0.000000
 40
0.045000
 50
345.996124
 51
347.315269
  0
LINE
  8
Default
 62
     5
  6
CONTINUOUS
 10
20.281567
 20
8.565751
 30
0.000000
 11
20.262887
 21
8.490851
 31
0.000000
  0
ARC
  8
Default
 62
     5
  6
CONTINUOUS
 10
20.219224
 20
8.501741
 30
0.000000
 40
0.045000
 50
321.806975
 51
345.996124
  0
LINE
  8
Default
 62
     5
  6
CONTINUOUS
 10
20.254591
 20
8.473917
 30
0.000000
 11
20.177177
 21
8.375516
 31
0.000000
  0
ARC
  8
Default
 62
     5
  6
CONTINUOUS
 10
20.141810
 20
8.403340
 30
0.000000
 40
0.045000
 50
316.004552
 51
321.806975
  0
ARC
  8
Default
 62
     5
  6
CONTINUOUS
 10
20.070581
 20
8.472114
 30
0.000000
 40
0.144012
 50
272.331741
 51
316.004552
  0
LINE
  8
Default
 62
     5
  6
CONTINUOUS
 10
20.076441
 20
8.328221
 30
0.000000
 11
20.036803
 21
8.319977
 31
0.000000
  0
LINE
  8
Default
 62
     5
  6
CONTINUOUS
 10
20.036803
 20
8.319977
 30
0.000000
 11
20.037717
 21
8.315311
 31
0.000000
  0
ARC
  8
Default
 62
     5
  6
CONTINUOUS
 10
19.837025
 20
8.259217
 30
0.000000
 40
0.208384
 50
345.939824
 51
375.615853
  0
ARC
  8
Default
 62
     5
  6
CONTINUOUS
 10
19.834631
 20
8.203790
 30
0.000000
 40
0.204591
 50
306.665355
 51
361.344792
  0
ARC
  8
Default
 62
     5
  6
CONTINUOUS
 10
19.865286
 20
8.156924
 30
0.000000
 40
0.148732
 50
265.121440
 51
307.973973
  0
LINE
  8
Default
 62
     5
  6
CONTINUOUS
 10
19.852637
 20
8.008731
 30
0.000000
 11
19.852647
 21
7.985204
 31
0.000000
  0
ARC
  8
Default
 62
     5
  6
CONTINUOUS
 10
19.807647
 20
7.985185
 30
0.000000
 40
0.045000
 50
336.824217
 51
360.024196
  0
LINE
  8
Default
 62
     5
  6
CONTINUOUS
 10
19.849015
 20
7.967475
 30
0.000000
 11
19.816790
 21
7.892200
 31
0.000000
  0
ARC
  8
Default
 62
     5
  6
CONTINUOUS
 10
19.775421
 20
7.909910
 30
0.000000
 40
0.045000
 50
330.433340
 51
336.824217
  0
ARC
  8
Default
 62
     5
  6
CONTINUOUS
 10
19.686197
 20
7.960527
 30
0.000000
 40
0.147582
 50
280.561803
 51
330.433340
  0
ARC
  8
Default
 62
     5
  6
CONTINUOUS
 10
19.705000
 20
7.859683
 30
0.000000
 40
0.045000
 50
278.617772
 51
280.561803
  0
ARC
  8
Default
 62
     5
  6
CONTINUOUS
 10
19.661764
 20
8.144973
 30
0.000000
 40
0.333547
 50
244.498450
 51
278.617772
  0
ARC
  8
Default
 62
     5
  6
CONTINUOUS
 10
19.537534
 20
7.884538
 30
0.000000
 40
0.045000
 50
233.671504
 51
244.498450
  0
ARC
  8
Default
 62
     5
  6
CONTINUOUS
 10
19.284538
 20
7.540484
 30
0.000000
 40
0.382059
 50
53.671504
 51
62.929572
  0
ARC
  8
Default
 62
     5
  6
CONTINUOUS
 10
19.034288
 20
7.929183
 30
0.000000
 40
0.426882
 50
339.069512
 51
353.476977
  0
ARC
  8
Default
 62
     5
  6
CONTINUOUS
 10
19.354587
 20
7.795640
 30
0.000000
 40
0.080674
 50
281.122458
 51
346.411471
  0
ARC
  8
Default
 62
     5
  6
CONTINUOUS
 10
19.320577
 20
7.784438
 30
0.000000
 40
0.084116
 50
257.358262
 51
306.109615
  0
LINE
  8
Default
 62
     5
  6
CONTINUOUS
 10
19.302168
 20
7.702361
 30
0.000000
 11
19.275558
 21
7.699346
 31
0.000000
  0
ARC
  8
Default
 62
     5
  6
CONTINUOUS
 10
19.080392
 20
7.671921
 30
0.000000
 40
0.197084
 50
310.059850
 51
367.999063
  0
ARC
  8
Default
 62
     5
  6
CONTINUOUS
 10
19.178271
 20
7.555520
 30
0.000000
 40
0.045000
 50
286.957339
 51
310.059850
  0
LINE
  8
Default
 62
     5
  6
CONTINUOUS
 10
19.191396
 20
7.512477
 30
0.000000
 11
19.107909
 21
7.487020
 31
0.000000
  0
ARC
  8
Default
 62
     5
  6
CONTINUOUS
 10
19.094784
 20
7.530064
 30
0.000000
 40
0.045000
 50
273.792219
 51
286.957339
  0
LINE
  8
Default
 62
     5
  6
CONTINUOUS
 10
19.097760
 20
7.485162
 30
0.000000
 11
18.991655
 21
7.478129
 31
0.000000
  0
LINE
  8
Default
 62
     5
  6
CONTINUOUS
 10
18.991655
 20
7.478129
 30
0.000000
 11
18.991748
 21
7.477490
 31
0.000000
  0
ARC
  8
Default
 62
     5
  6
CONTINUOUS
 10
18.947218
 20
7.471004
 30
0.000000
 40
0.045000
 50
356.042133
 51
368.287108
  0
LINE
  8
Default
 62
     5
  6
CONTINUOUS
 10
18.992111
 20
7.467898
 30
0.000000
 11
18.985528
 21
7.372758
 31
0.000000
  0
ARC
  8
Default
 62
     5
  6
CONTINUOUS
 10
18.940636
 20
7.375864
 30
0.000000
 40
0.045000
 50
351.432363
 51
356.042133
  0
ARC
  8
Default
 62
     5
  6
CONTINUOUS
 10
18.753348
 20
7.404080
 30
0.000000
 40
0.234401
 50
254.998188
 51
351.432363
  0
LINE
  8
Default
 62
     5
  6
CONTINUOUS
 10
18.692674
 20
7.177669
 30
0.000000
 11
18.671607
 21
7.181359
 31
0.000000
  0
LINE
  8
Default
 62
     5
  6
CONTINUOUS
 10
18.671607
 20
7.181359
 30
0.000000
 11
18.670590
 21
7.159985
 31
0.000000
  0
ARC
  8
Default
 62
     5
  6
CONTINUOUS
 10
18.337515
 20
7.166623
 30
0.000000
 40
0.333141
 50
330.186733
 51
358.858239
  0
ARC
  8
Default
 62
     5
  6
CONTINUOUS
 10
18.587521
 20
7.023366
 30
0.000000
 40
0.045000
 50
304.785661
 51
330.186733
  0
ARC
  8
Default
 62
     5
  6
CONTINUOUS
 10
18.468837
 20
7.194221
 30
0.000000
 40
0.253032
 50
257.399374
 51
304.785661
  0
ARC
  8
Default
 62
     5
  6
CONTINUOUS
 10
18.368651
 20
6.948414
 30
0.000000
 40
0.045000
 50
338.252682
 51
358.560851
  0
LINE
  8
Default
 62
     5
  6
CONTINUOUS
 10
18.410448
 20
6.931741
 30
0.000000
 11
18.378594
 21
6.851887
 31
0.000000
  0
ARC
  8
Default
 62
     5
  6
CONTINUOUS
 10
18.336797
 20
6.868560
 30
0.000000
 40
0.045000
 50
287.456748
 51
338.252682
  0
LINE
  8
Default
 62
     5
  6
CONTINUOUS
 10
18.350296
 20
6.825633
 30
0.000000
 11
18.266990
 21
6.799435
 31
0.000000
  0
LINE
  8
Default
 62
     5
  6
CONTINUOUS
 10
18.266990
 20
6.799435
 30
0.000000
 11
18.246503
 21
6.792382
 31
0.000000
  0
ARC
  8
Default
 62
     5
  6
CONTINUOUS
 10
18.050365
 20
6.800947
 30
0.000000
 40
0.196325
 50
286.610298
 51
357.499645
  0
ARC
  8
Default
 62
     5
  6
CONTINUOUS
 10
18.093623
 20
6.655937
 30
0.000000
 40
0.045000
 50
285.129124
 51
286.610298
  0
ARC
  8
Default
 62
     5
  6
CONTINUOUS
 10
17.900354
 20
7.370780
 30
0.000000
 40
0.785509
 50
269.327896
 51
285.129124
  0
ARC
  8
Default
 62
     5
  6
CONTINUOUS
 10
17.891668
 20
6.630322
 30
0.000000
 40
0.045000
 50
253.721563
 51
269.327896
  0
ARC
  8
Default
 62
     5
  6
CONTINUOUS
 10
17.656499
 20
5.824983
 30
0.000000
 40
0.793972
 50
73.721563
 51
86.395855
  0
LINE
  8
Default
 62
     5
  6
CONTINUOUS
 10
17.706410
 20
6.617385
 30
0.000000
 11
17.237238
 21
6.598207
 31
0.000000
  0
ARC
  8
Default
 62
     5
  6
CONTINUOUS
 10
17.235400
 20
6.643169
 30
0.000000
 40
0.045000
 50
264.242392
 51
272.340713
  0
LINE
  8
Default
 62
     5
  6
CONTINUOUS
 10
17.230885
 20
6.598397
 30
0.000000
 11
17.223498
 21
6.572422
 31
0.000000
  0
ARC
  8
Default
 62
     5
  6
CONTINUOUS
 10
17.180214
 20
6.584733
 30
0.000000
 40
0.045000
 50
340.209591
 51
344.122479
  0
LINE
  8
Default
 62
     5
  6
CONTINUOUS
 10
17.222557
 20
6.569497
 30
0.000000
 11
17.190290
 21
6.479825
 31
0.000000
  0
ARC
  8
Default
 62
     5
  6
CONTINUOUS
 10
17.005726
 20
6.542400
 30
0.000000
 40
0.194883
 50
313.192309
 51
341.271216
  0
ARC
  8
Default
 62
     5
  6
CONTINUOUS
 10
16.987538
 20
6.484917
 30
0.000000
 40
0.173585
 50
297.340904
 51
330.832822
  0
ARC
  8
Default
 62
     5
  6
CONTINUOUS
 10
16.719472
 20
6.638791
 30
0.000000
 40
0.464612
 50
269.645385
 51
318.465989
  0
ARC
  8
Default
 62
     5
  6
CONTINUOUS
 10
16.716875
 20
6.219186
 30
0.000000
 40
0.045000
 50
232.669016
 51
269.645385
  0
ARC
  8
Default
 62
     5
  6
CONTINUOUS
 10
16.593352
 20
6.057222
 30
0.000000
 40
0.158692
 50
52.669016
 51
142.795493
  0
ARC
  8
Default
 62
     5
  6
CONTINUOUS
 10
16.431115
 20
6.180386
 30
0.000000
 40
0.045000
 50
307.225187
 51
322.795493
  0
ARC
  8
Default
 62
     5
  6
CONTINUOUS
 10
16.325761
 20
6.319059
 30
0.000000
 40
0.219154
 50
258.301420
 51
307.225187
  0
ARC
  8
Default
 62
     5
  6
CONTINUOUS
 10
16.290449
 20
6.148523
 30
0.000000
 40
0.045000
 50
255.542178
 51
258.301420
  0
LINE
  8
Default
 62
     5
  6
CONTINUOUS
 10
16.279214
 20
6.104948
 30
0.000000
 11
16.121215
 21
6.145685
 31
0.000000
  0
ARC
  8
Default
 62
     5
  6
CONTINUOUS
 10
15.798093
 20
6.804177
 30
0.000000
 40
0.733498
 50
261.919641
 51
296.137150
  0
LINE
  8
Default
 62
     5
  6
CONTINUOUS
 10
15.694992
 20
6.077961
 30
0.000000
 11
15.243030
 21
6.096949
 31
0.000000
  0
LINE
  8
Default
 62
     5
  6
CONTINUOUS
 10
15.243030
 20
6.096949
 30
0.000000
 11
14.812442
 21
6.028640
 31
0.000000
  0
ARC
  8
Default
 62
     5
  6
CONTINUOUS
 10
14.697139
 20
5.893505
 30
0.000000
 40
0.177641
 50
34.545447
 51
49.527747
  0
LINE
  8
Default
 62
     5
  6
CONTINUOUS
 10
14.843457
 20
5.994238
 30
0.000000
 11
14.989971
 21
5.871309
 31
0.000000
  0
ARC
  8
Default
 62
     5
  6
CONTINUOUS
 10
12.147829
 20
2.483870
 30
0.000000
 40
4.421822
 50
41.618519
 51
50.002547
  0
LINE
  8
Default
 62
     5
  6
CONTINUOUS
 10
15.453510
 20
5.420703
 30
0.000000
 11
15.645952
 21
5.216784
 31
0.000000
  0
ARC
  8
Default
 62
     5
  6
CONTINUOUS
 10
16.562236
 20
6.225116
 30
0.000000
 40
1.362464
 50
227.738180
 51
240.283544
  0
ARC
  8
Default
 62
     5
  6
CONTINUOUS
 10
15.790114
 20
4.706270
 30
0.000000
 40
0.349226
 50
43.504026
 51
73.918451
  0
ARC
  8
Default
 62
     5
  6
CONTINUOUS
 10
16.010777
 20
4.915701
 30
0.000000
 40
0.045000
 50
37.298081
 51
43.504026
  0
LINE
  8
Default
 62
     5
  6
CONTINUOUS
 10
16.046575
 20
4.942970
 30
0.000000
 11
16.142798
 21
4.816650
 31
0.000000
  0
ARC
  8
Default
 62
     5
  6
CONTINUOUS
 10
16.107000
 20
4.789382
 30
0.000000
 40
0.045000
 50
28.844483
 51
37.298081
  0
LINE
  8
Default
 62
     5
  6
CONTINUOUS
 10
16.146417
 20
4.811091
 30
0.000000
 11
16.299898
 21
4.532424
 31
0.000000
  0
ARC
  8
Default
 62
     5
  6
CONTINUOUS
 10
16.260481
 20
4.510715
 30
0.000000
 40
0.045000
 50
22.507733
 51
28.844483
  0
ARC
  8
Default
 62
     5
  6
CONTINUOUS
 10
16.678534
 20
4.683945
 30
0.000000
 40
0.407523
 50
202.507733
 51
239.340515
  0
ARC
  8
Default
 62
     5
  6
CONTINUOUS
 10
16.447777
 20
4.294678
 30
0.000000
 40
0.045000
 50
50.258357
 51
59.340515
  0
LINE
  8
Default
 62
     5
  6
CONTINUOUS
 10
16.476547
 20
4.329280
 30
0.000000
 11
16.566847
 21
4.254200
 31
0.000000
  0
ARC
  8
Default
 62
     5
  6
CONTINUOUS
 10
16.538077
 20
4.219598
 30
0.000000
 40
0.045000
 50
25.934748
 51
50.258357
  0
ARC
  8
Default
 62
     5
  6
CONTINUOUS
 10
16.761789
 20
4.328395
 30
0.000000
 40
0.203765
 50
205.934748
 51
234.686930
  0
ARC
  8
Default
 62
     5
  6
CONTINUOUS
 10
16.424963
 20
3.835537
 30
0.000000
 40
0.393238
 50
28.503597
 51
56.150095
  0
ARC
  8
Default
 62
     5
  6
CONTINUOUS
 10
16.730991
 20
4.001722
 30
0.000000
 40
0.045000
 50
19.426815
 51
28.503597
  0
ARC
  8
Default
 62
     5
  6
CONTINUOUS
 10
17.013705
 20
4.101430
 30
0.000000
 40
0.254782
 50
199.426815
 51
237.027657
  0
ARC
  8
Default
 62
     5
  6
CONTINUOUS
 10
18.715197
 20
7.161148
 30
0.000000
 40
3.755226
 50
240.657808
 51
246.267269
  0
LINE
  8
Default
 62
     5
  6
CONTINUOUS
 10
17.203828
 20
3.723491
 30
0.000000
 11
17.849131
 21
3.439783
 31
0.000000
  0
ARC
  8
Default
 62
     5
  6
CONTINUOUS
 10
17.831020
 20
3.398588
 30
0.000000
 40
0.045000
 50
65.307341
 51
66.267269
  0
LINE
  8
Default
 62
     5
  6
CONTINUOUS
 10
17.849819
 20
3.439473
 30
0.000000
 11
18.024905
 21
3.358970
 31
0.000000
  0
ARC
  8
Default
 62
     5
  6
CONTINUOUS
 10
17.899190
 20
2.969194
 30
0.000000
 40
0.409548
 50
41.177138
 51
72.123849
  0
ARC
  8
Default
 62
     5
  6
CONTINUOUS
 10
18.150558
 20
3.175027
 30
0.000000
 40
0.085487
 50
347.766518
 51
408.280507
  0
ARC
  8
Default
 62
     5
  6
CONTINUOUS
 10
18.160941
 20
3.157407
 30
0.000000
 40
0.073165
 50
268.697704
 51
359.613459
  0
ARC
  8
Default
 62
     5
  6
CONTINUOUS
 10
18.160300
 20
3.129249
 30
0.000000
 40
0.045000
 50
264.137920
 51
268.697704
  0
LINE
  8
Default
 62
     5
  6
CONTINUOUS
 10
18.155704
 20
3.084485
 30
0.000000
 11
18.099602
 21
3.090245
 31
0.000000
  0
ARC
  8
Default
 62
     5
  6
CONTINUOUS
 10
18.027626
 20
3.099380
 30
0.000000
 40
0.072554
 50
341.741706
 51
352.766581
  0
ARC
  8
Default
 62
     5
  6
CONTINUOUS
 10
18.022304
 20
3.097401
 30
0.000000
 40
0.077069
 50
276.059973
 51
344.379762
  0
LINE
  8
Default
 62
     5
  6
CONTINUOUS
 10
18.030440
 20
3.020762
 30
0.000000
 11
18.012246
 21
3.015183
 31
0.000000
  0
ARC
  8
Default
 62
     5
  6
CONTINUOUS
 10
17.999053
 20
3.058205
 30
0.000000
 40
0.045000
 50
254.462201
 51
287.048296
  0
LINE
  8
Default
 62
     5
  6
CONTINUOUS
 10
17.986998
 20
3.014850
 30
0.000000
 11
17.963038
 21
3.021512
 31
0.000000
  0
ARC
  8
Default
 62
     5
  6
CONTINUOUS
 10
17.975092
 20
3.064867
 30
0.000000
 40
0.045000
 50
248.481620
 51
254.462201
  0
LINE
  8
Default
 62
     5
  6
CONTINUOUS
 10
17.958586
 20
3.023004
 30
0.000000
 11
17.892720
 21
3.048973
 31
0.000000
  0
ARC
  8
Default
 62
     5
  6
CONTINUOUS
 10
17.847855
 20
3.045494
 30
0.000000
 40
0.045000
 50
345.909902
 51
364.433869
  0
ARC
  8
Default
 62
     5
  6
CONTINUOUS
 10
17.814556
 20
3.053852
 30
0.000000
 40
0.079332
 50
260.002429
 51
345.909902
  0
ARC
  8
Default
 62
     5
  6
CONTINUOUS
 10
17.808595
 20
3.020042
 30
0.000000
 40
0.045000
 50
258.101106
 51
260.002429
  0
LINE
  8
Default
 62
     5
  6
CONTINUOUS
 10
17.799317
 20
2.976009
 30
0.000000
 11
17.738343
 21
2.988857
 31
0.000000
  0
ARC
  8
Default
 62
     5
  6
CONTINUOUS
 10
17.747622
 20
3.032890
 30
0.000000
 40
0.045000
 50
245.194826
 51
258.101106
  0
ARC
  8
Default
 62
     5
  6
CONTINUOUS
 10
19.010350
 20
5.765036
 30
0.000000
 40
3.054835
 50
239.264925
 51
245.194826
  0
LINE
  8
Default
 62
     5
  6
CONTINUOUS
 10
17.449118
 20
3.139284
 30
0.000000
 11
17.076494
 21
3.360841
 31
0.000000
  0
ARC
  8
Default
 62
     5
  6
CONTINUOUS
 10
16.812249
 20
2.916422
 30
0.000000
 40
0.517043
 50
59.264925
 51
84.216567
  0
LINE
  8
Default
 62
     5
  6
CONTINUOUS
 10
16.864351
 20
3.430833
 30
0.000000
 11
16.736397
 21
3.412336
 31
0.000000
  0
ARC
  8
Default
 62
     5
  6
CONTINUOUS
 10
16.729959
 20
3.456873
 30
0.000000
 40
0.045000
 50
260.428243
 51
278.225991
  0
LINE
  8
Default
 62
     5
  6
CONTINUOUS
 10
16.722476
 20
3.412499
 30
0.000000
 11
16.617824
 21
3.430147
 31
0.000000
  0
LINE
  8
Default
 62
     5
  6
CONTINUOUS
 10
16.617824
 20
3.430147
 30
0.000000
 11
16.450661
 21
3.363719
 31
0.000000
  0
ARC
  8
Default
 62
     5
  6
CONTINUOUS
 10
16.434043
 20
3.405539
 30
0.000000
 40
0.045000
 50
290.817424
 51
291.671825
  0
LINE
  8
Default
 62
     5
  6
CONTINUOUS
 10
16.450036
 20
3.363476
 30
0.000000
 11
16.347509
 21
3.324494
 31
0.000000
  0
ARC
  8
Default
 62
     5
  6
CONTINUOUS
 10
16.331516
 20
3.366557
 30
0.000000
 40
0.045000
 50
273.028568
 51
290.817424
  0
LINE
  8
Default
 62
     5
  6
CONTINUOUS
 10
16.333894
 20
3.321619
 30
0.000000
 11
16.220313
 21
3.315610
 31
0.000000
  0
LINE
  8
Default
 62
     5
  6
CONTINUOUS
 10
16.220313
 20
3.315610
 30
0.000000
 11
15.987073
 21
3.296505
 31
0.000000
  0
LINE
  8
Default
 62
     5
  6
CONTINUOUS
 10
15.987073
 20
3.296505
 30
0.000000
 11
15.909043
 21
3.285223
 31
0.000000
  0
LINE
  8
Default
 62
     5
  6
CONTINUOUS
 10
15.909043
 20
3.285223
 30
0.000000
 11
15.840288
 21
3.245129
 31
0.000000
  0
LINE
  8
Default
 62
     5
  6
CONTINUOUS
 10
15.840288
 20
3.245129
 30
0.000000
 11
15.756959
 21
3.188409
 31
0.000000
  0
ARC
  8
Default
 62
     5
  6
CONTINUOUS
 10
15.731638
 20
3.225609
 30
0.000000
 40
0.045000
 50
282.327632
 51
304.241989
  0
LINE
  8
Default
 62
     5
  6
CONTINUOUS
 10
15.741246
 20
3.181647
 30
0.000000
 11
15.736941
 21
3.180706
 31
0.000000
  0
LINE
  8
Default
 62
     5
  6
CONTINUOUS
 10
15.736941
 20
3.180706
 30
0.000000
 11
15.736116
 21
3.178372
 31
0.000000
  0
ARC
  8
Default
 62
     5
  6
CONTINUOUS
 10
15.693688
 20
3.193367
 30
0.000000
 40
0.045000
 50
336.488444
 51
340.536346
  0
ARC
  8
Default
 62
     5
  6
CONTINUOUS
 10
15.548541
 20
3.256513
 30
0.000000
 40
0.203288
 50
319.106514
 51
336.488444
  0
LINE
  8
Default
 62
     5
  6
CONTINUOUS
 10
15.702212
 20
3.123430
 30
0.000000
 11
15.622042
 21
2.957187
 31
0.000000
  0
LINE
  8
Default
 62
     5
  6
CONTINUOUS
 10
15.622042
 20
2.957187
 30
0.000000
 11
15.484484
 21
2.604638
 31
0.000000
  0
LINE
  8
Default
 62
     5
  6
CONTINUOUS
 10
15.484484
 20
2.604638
 30
0.000000
 11
15.478108
 21
2.550772
 31
0.000000
  0
LINE
  8
Default
 62
     5
  6
CONTINUOUS
 10
15.478108
 20
2.550772
 30
0.000000
 11
15.484085
 21
2.491952
 31
0.000000
  0
ARC
  8
Default
 62
     5
  6
CONTINUOUS
 10
15.439315
 20
2.487403
 30
0.000000
 40
0.045000
 50
353.105344
 51
365.801290
  0
LINE
  8
Default
 62
     5
  6
CONTINUOUS
 10
15.483990
 20
2.482001
 30
0.000000
 11
15.468377
 21
2.352881
 31
0.000000
  0
ARC
  8
Default
 62
     5
  6
CONTINUOUS
 10
15.423702
 20
2.358283
 30
0.000000
 40
0.045000
 50
336.926343
 51
353.105344
  0
ARC
  8
Default
 62
     5
  6
CONTINUOUS
 10
15.770193
 20
2.210680
 30
0.000000
 40
0.331620
 50
156.926343
 51
198.777853
  0
ARC
  8
Default
 62
     5
  6
CONTINUOUS
 10
15.413619
 20
2.089446
 30
0.000000
 40
0.045000
 50
352.291952
 51
378.777853
  0
LINE
  8
Default
 62
     5
  6
CONTINUOUS
 10
15.458212
 20
2.083410
 30
0.000000
 11
15.449377
 21
2.018133
 31
0.000000
  0
ARC
  8
Default
 62
     5
  6
CONTINUOUS
 10
15.404784
 20
2.024169
 30
0.000000
 40
0.045000
 50
305.459372
 51
352.291952
  0
LINE
  8
Default
 62
     5
  6
CONTINUOUS
 10
15.430890
 20
1.987515
 30
0.000000
 11
15.409918
 21
1.972579
 31
0.000000
  0
LINE
  8
Default
 62
     5
  6
CONTINUOUS
 10
15.409918
 20
1.972579
 30
0.000000
 11
15.406127
 21
1.967690
 31
0.000000
  0
ARC
  8
Default
 62
     5
  6
CONTINUOUS
 10
15.499953
 20
1.954850
 30
0.000000
 40
0.094700
 50
172.207662
 51
212.321272
  0
ARC
  8
Default
 62
     5
  6
CONTINUOUS
 10
15.381897
 20
1.880157
 30
0.000000
 40
0.045000
 50
21.149036
 51
32.321272
  0
ARC
  8
Default
 62
     5
  6
CONTINUOUS
 10
14.753218
 20
1.636952
 30
0.000000
 40
0.719082
 50
2.848980
 51
21.149036
  0
ARC
  8
Default
 62
     5
  6
CONTINUOUS
 10
15.426467
 20
1.670456
 30
0.000000
 40
0.045000
 50
355.862768
 51
362.848980
  0
ARC
  8
Default
 62
     5
  6
CONTINUOUS
 10
16.589742
 20
1.586312
 30
0.000000
 40
1.121314
 50
175.862768
 51
193.126388
  0
ARC
  8
Default
 62
     5
  6
CONTINUOUS
 10
14.560424
 20
1.113089
 30
0.000000
 40
0.962449
 50
0.446415
 51
13.126388
  0
LINE
  8
Default
 62
     5
  6
CONTINUOUS
 10
15.522844
 20
1.120588
 30
0.000000
 11
15.541885
 21
0.925175
 31
0.000000
  0
LINE
  8
Default
 62
     5
  6
CONTINUOUS
 10
15.541885
 20
0.925175
 30
0.000000
 11
15.560377
 21
0.761517
 31
0.000000
  0
ARC
  8
Default
 62
     5
  6
CONTINUOUS
 10
15.327858
 20
0.699673
 30
0.000000
 40
0.240603
 50
335.980666
 51
374.894438
  0
LINE
  8
Default
 62
     5
  6
CONTINUOUS
 10
15.547627
 20
0.601737
 30
0.000000
 11
15.527151
 21
0.535236
 31
0.000000
  0
ARC
  8
Default
 62
     5
  6
CONTINUOUS
 10
15.484144
 20
0.548479
 30
0.000000
 40
0.045000
 50
339.626834
 51
342.886036
  0
LINE
  8
Default
 62
     5
  6
CONTINUOUS
 10
15.526329
 20
0.532813
 30
0.000000
 11
15.513838
 21
0.499177
 31
0.000000
  0
ARC
  8
Default
 62
     5
  6
CONTINUOUS
 10
15.471653
 20
0.514843
 30
0.000000
 40
0.045000
 50
293.357376
 51
339.626834
  0
ARC
  8
Default
 62
     5
  6
CONTINUOUS
 10
15.464927
 20
0.530416
 30
0.000000
 40
0.061964
 50
210.062722
 51
293.357376
  0
ARC
  8
Default
 62
     5
  6
CONTINUOUS
 10
15.561594
 20
0.676302
 30
0.000000
 40
0.232146
 50
196.496850
 51
229.652710
  0
LINE
  8
Default
 62
     5
  6
CONTINUOUS
 10
15.339005
 20
0.610381
 30
0.000000
 11
15.338901
 21
0.610639
 31
0.000000
  0
ARC
  8
Default
 62
     5
  6
CONTINUOUS
 10
14.818189
 20
0.637583
 30
0.000000
 40
0.521408
 50
342.445481
 51
357.037798
  0
ARC
  8
Default
 62
     5
  6
CONTINUOUS
 10
15.272411
 20
0.493893
 30
0.000000
 40
0.045000
 50
318.640265
 51
342.445481
  0
ARC
  8
Default
 62
     5
  6
CONTINUOUS
 10
15.509374
 20
0.285277
 30
0.000000
 40
0.270709
 50
138.640265
 51
174.512908
  0
ARC
  8
Default
 62
     5
  6
CONTINUOUS
 10
15.195112
 20
0.315466
 30
0.000000
 40
0.045000
 50
310.155551
 51
354.512908
  0
LINE
  8
Default
 62
     5
  6
CONTINUOUS
 10
15.224131
 20
0.281072
 30
0.000000
 11
15.192062
 21
0.254014
 31
0.000000
  0
LINE
  8
Default
 62
     5
  6
CONTINUOUS
 10
15.192062
 20
0.254014
 30
0.000000
 11
15.163616
 21
0.229350
 31
0.000000
  0
ARC
  8
Default
 62
     5
  6
CONTINUOUS
 10
15.134136
 20
0.263349
 30
0.000000
 40
0.045000
 50
206.917567
 51
310.927458
  0
LINE
  8
Default
 62
     5
  6
CONTINUOUS
 10
15.094012
 20
0.242977
 30
0.000000
 11
15.052134
 21
0.325459
 31
0.000000
  0
ARC
  8
Default
 62
     5
  6
CONTINUOUS
 10
15.092259
 20
0.345831
 30
0.000000
 40
0.045000
 50
200.445484
 51
206.917567
  0
ARC
  8
Default
 62
     5
  6
CONTINUOUS
 10
14.414613
 20
0.093204
 30
0.000000
 40
0.678204
 50
20.445484
 51
27.953747
  0
ARC
  8
Default
 62
     5
  6
CONTINUOUS
 10
15.053438
 20
0.432212
 30
0.000000
 40
0.045000
 50
186.808512
 51
207.953747
  0
LINE
  8
Default
 62
     5
  6
CONTINUOUS
 10
15.008756
 20
0.426878
 30
0.000000
 11
14.996345
 21
0.530822
 31
0.000000
  0
ARC
  8
Default
 62
     5
  6
CONTINUOUS
 10
15.041028
 20
0.536157
 30
0.000000
 40
0.045000
 50
180.115200
 51
186.808512
  0
LINE
  8
Default
 62
     5
  6
CONTINUOUS
 10
14.996028
 20
0.536067
 30
0.000000
 11
14.995579
 21
0.759321
 31
0.000000
  0
ARC
  8
Default
 62
     5
  6
CONTINUOUS
 10
16.380748
 20
1.138911
 30
0.000000
 40
1.436239
 50
179.226290
 51
195.325062
  0
ARC
  8
Default
 62
     5
  6
CONTINUOUS
 10
14.989636
 20
1.157698
 30
0.000000
 40
0.045000
 50
170.154886
 51
179.226290
  0
ARC
  8
Default
 62
     5
  6
CONTINUOUS
 10
14.827755
 20
1.185791
 30
0.000000
 40
0.119301
 50
350.154886
 51
404.813511
  0
ARC
  8
Default
 62
     5
  6
CONTINUOUS
 10
14.944311
 20
1.301590
 30
0.000000
 40
0.045000
 50
184.172179
 51
224.813511
  0
LINE
  8
Default
 62
     5
  6
CONTINUOUS
 10
14.899430
 20
1.298316
 30
0.000000
 11
14.886940
 21
1.469541
 31
0.000000
  0
ARC
  8
Default
 62
     5
  6
CONTINUOUS
 10
14.931820
 20
1.472815
 30
0.000000
 40
0.045000
 50
183.096861
 51
184.172179
  0
LINE
  8
Default
 62
     5
  6
CONTINUOUS
 10
14.886886
 20
1.470384
 30
0.000000
 11
14.867867
 21
1.821925
 31
0.000000
  0
ARC
  8
Default
 62
     5
  6
CONTINUOUS
 10
15.629356
 20
2.022858
 30
0.000000
 40
0.787553
 50
180.870279
 51
194.781653
  0
ARC
  8
Default
 62
     5
  6
CONTINUOUS
 10
15.219036
 20
2.060920
 30
0.000000
 40
0.380445
 50
157.140747
 51
187.555483
  0
ARC
  8
Default
 62
     5
  6
CONTINUOUS
 10
14.909936
 20
2.191230
 30
0.000000
 40
0.045000
 50
154.630093
 51
157.140747
  0
LINE
  8
Default
 62
     5
  6
CONTINUOUS
 10
14.869275
 20
2.210511
 30
0.000000
 11
15.000174
 21
2.486557
 31
0.000000
  0
ARC
  8
Default
 62
     5
  6
CONTINUOUS
 10
15.040834
 20
2.467276
 30
0.000000
 40
0.045000
 50
152.260303
 51
154.630093
  0
LINE
  8
Default
 62
     5
  6
CONTINUOUS
 10
15.001006
 20
2.488222
 30
0.000000
 11
15.142197
 21
2.756697
 31
0.000000
  0
LINE
  8
Default
 62
     5
  6
CONTINUOUS
 10
15.142197
 20
2.756697
 30
0.000000
 11
15.197726
 21
2.892662
 31
0.000000
  0
LINE
  8
Default
 62
     5
  6
CONTINUOUS
 10
15.197726
 20
2.892662
 30
0.000000
 11
15.221300
 21
2.970124
 31
0.000000
  0
LINE
  8
Default
 62
     5
  6
CONTINUOUS
 10
15.221300
 20
2.970124
 30
0.000000
 11
15.225621
 21
3.037187
 31
0.000000
  0
LINE
  8
Default
 62
     5
  6
CONTINUOUS
 10
15.225621
 20
3.037187
 30
0.000000
 11
15.209272
 21
3.032467
 31
0.000000
  0
LINE
  8
Default
 62
     5
  6
CONTINUOUS
 10
15.209272
 20
3.032467
 30
0.000000
 11
15.092557
 21
2.988591
 31
0.000000
  0
LINE
  8
Default
 62
     5
  6
CONTINUOUS
 10
15.092557
 20
2.988591
 30
0.000000
 11
14.980013
 21
2.923226
 31
0.000000
  0
ARC
  8
Default
 62
     5
  6
CONTINUOUS
 10
14.957413
 20
2.962139
 30
0.000000
 40
0.045000
 50
297.640160
 51
300.148175
  0
ARC
  8
Default
 62
     5
  6
CONTINUOUS
 10
15.020024
 20
2.842578
 30
0.000000
 40
0.089963
 50
117.640160
 51
171.511827
  0
ARC
  8
Default
 62
     5
  6
CONTINUOUS
 10
14.419639
 20
2.602657
 30
0.000000
 40
0.570656
 50
9.499748
 51
26.340237
  0
ARC
  8
Default
 62
     5
  6
CONTINUOUS
 10
14.846470
 20
2.668500
 30
0.000000
 40
0.138921
 50
282.446048
 51
371.770756
  0
ARC
  8
Default
 62
     5
  6
CONTINUOUS
 10
14.866712
 20
2.576787
 30
0.000000
 40
0.045000
 50
269.817025
 51
282.446048
  0
ARC
  8
Default
 62
     5
  6
CONTINUOUS
 10
14.867731
 20
2.896055
 30
0.000000
 40
0.364270
 50
256.219141
 51
269.817025
  0
LINE
  8
Default
 62
     5
  6
CONTINUOUS
 10
14.780959
 20
2.542271
 30
0.000000
 11
14.792386
 21
2.518868
 31
0.000000
  0
ARC
  8
Default
 62
     5
  6
CONTINUOUS
 10
14.751949
 20
2.499124
 30
0.000000
 40
0.045000
 50
14.962349
 51
26.025151
  0
ARC
  8
Default
 62
     5
  6
CONTINUOUS
 10
14.716027
 20
2.489524
 30
0.000000
 40
0.082183
 50
230.553955
 51
374.962349
  0
LINE
  8
Default
 62
     5
  6
CONTINUOUS
 10
14.663812
 20
2.426061
 30
0.000000
 11
14.653916
 21
2.434203
 31
0.000000
  0
ARC
  8
Default
 62
     5
  6
CONTINUOUS
 10
14.569199
 20
2.451323
 30
0.000000
 40
0.086430
 50
240.121034
 51
348.574866
  0
ARC
  8
Default
 62
     5
  6
CONTINUOUS
 10
14.615016
 20
2.563172
 30
0.000000
 40
0.206856
 50
215.147934
 51
244.555126
  0
LINE
  8
Default
 62
     5
  6
CONTINUOUS
 10
14.445877
 20
2.444087
 30
0.000000
 11
14.345732
 21
2.567387
 31
0.000000
  0
ARC
  8
Default
 62
     5
  6
CONTINUOUS
 10
14.380662
 20
2.595757
 30
0.000000
 40
0.045000
 50
215.090333
 51
219.083825
  0
LINE
  8
Default
 62
     5
  6
CONTINUOUS
 10
14.343841
 20
2.569888
 30
0.000000
 11
14.298699
 21
2.634142
 31
0.000000
  0
LINE
  8
Default
 62
     5
  6
CONTINUOUS
 10
14.298699
 20
2.634142
 30
0.000000
 11
14.274292
 21
2.663505
 31
0.000000
  0
ARC
  8
Default
 62
     5
  6
CONTINUOUS
 10
14.308898
 20
2.692270
 30
0.000000
 40
0.045000
 50
205.632937
 51
219.733138
  0
ARC
  8
Default
 62
     5
  6
CONTINUOUS
 10
14.283413
 20
2.522412
 30
0.000000
 40
0.151145
 50
95.728213
 51
126.980930
  0
ARC
  8
Default
 62
     5
  6
CONTINUOUS
 10
14.165422
 20
2.679100
 30
0.000000
 40
0.045000
 50
300.105379
 51
306.980930
  0
ARC
  8
Default
 62
     5
  6
CONTINUOUS
 10
14.084108
 20
2.819342
 30
0.000000
 40
0.207110
 50
260.719907
 51
300.105379
  0
ARC
  8
Default
 62
     5
  6
CONTINUOUS
 10
13.736183
 20
6.195644
 30
0.000000
 40
3.594489
 50
268.502259
 51
275.019939
  0
ARC
  8
Default
 62
     5
  6
CONTINUOUS
 10
13.526849
 20
3.644848
 30
0.000000
 40
1.048831
 50
263.540218
 51
276.315963
  0
ARC
  8
Default
 62
     5
  6
CONTINUOUS
 10
13.433451
 20
2.875356
 30
0.000000
 40
0.273787
 50
222.819367
 51
264.844651
  0
ARC
  8
Default
 62
     5
  6
CONTINUOUS
 10
13.146247
 20
2.546448
 30
0.000000
 40
0.166910
 50
58.832816
 51
97.312985
  0
ARC
  8
Default
 62
     5
  6
CONTINUOUS
 10
13.835338
 20
2.703932
 30
0.000000
 40
0.710384
 50
179.349267
 51
191.285652
  0
ARC
  8
Default
 62
     5
  6
CONTINUOUS
 10
13.094561
 20
2.556103
 30
0.000000
 40
0.045000
 50
10.166194
 51
11.285652
  0
ARC
  8
Default
 62
     5
  6
CONTINUOUS
 10
13.305793
 20
2.593981
 30
0.000000
 40
0.169601
 50
190.166194
 51
239.740814
  0
ARC
  8
Default
 62
     5
  6
CONTINUOUS
 10
13.197653
 20
2.408618
 30
0.000000
 40
0.045000
 50
42.614275
 51
59.740814
  0
LINE
  8
Default
 62
     5
  6
CONTINUOUS
 10
13.230770
 20
2.439086
 30
0.000000
 11
13.279877
 21
2.385708
 31
0.000000
  0
LINE
  8
Default
 62
     5
  6
CONTINUOUS
 10
13.279877
 20
2.385708
 30
0.000000
 11
13.293527
 21
2.376151
 31
0.000000
  0
ARC
  8
Default
 62
     5
  6
CONTINUOUS
 10
13.267715
 20
2.339289
 30
0.000000
 40
0.045000
 50
18.501416
 51
54.998978
  0
LINE
  8
Default
 62
     5
  6
CONTINUOUS
 10
13.310389
 20
2.353569
 30
0.000000
 11
13.317050
 21
2.333662
 31
0.000000
  0
LINE
  8
Default
 62
     5
  6
CONTINUOUS
 10
13.317050
 20
2.333662
 30
0.000000
 11
13.328725
 21
2.299354
 31
0.000000
  0
LINE
  8
Default
 62
     5
  6
CONTINUOUS
 10
13.328725
 20
2.299354
 30
0.000000
 11
13.363285
 21
2.235915
 31
0.000000
  0
ARC
  8
Default
 62
     5
  6
CONTINUOUS
 10
13.261423
 20
2.155171
 30
0.000000
 40
0.129982
 50
333.945977
 51
398.403248
  0
ARC
  8
Default
 62
     5
  6
CONTINUOUS
 10
13.295381
 20
2.138568
 30
0.000000
 40
0.092183
 50
284.435476
 51
333.945977
  0
LINE
  8
Default
 62
     5
  6
CONTINUOUS
 10
13.318362
 20
2.049296
 30
0.000000
 11
13.451966
 21
1.691153
 31
0.000000
  0
ARC
  8
Default
 62
     5
  6
CONTINUOUS
 10
13.409804
 20
1.675424
 30
0.000000
 40
0.045000
 50
16.739093
 51
20.457906
  0
LINE
  8
Default
 62
     5
  6
CONTINUOUS
 10
13.452897
 20
1.688385
 30
0.000000
 11
13.554720
 21
1.349832
 31
0.000000
  0
LINE
  8
Default
 62
     5
  6
CONTINUOUS
 10
13.554720
 20
1.349832
 30
0.000000
 11
13.622731
 21
1.173572
 31
0.000000
  0
ARC
  8
Default
 62
     5
  6
CONTINUOUS
 10
13.408554
 20
1.040263
 30
0.000000
 40
0.252276
 50
336.089265
 51
391.899350
  0
LINE
  8
Default
 62
     5
  6
CONTINUOUS
 10
13.639180
 20
0.938012
 30
0.000000
 11
13.634526
 21
0.891591
 31
0.000000
  0
ARC
  8
Default
 62
     5
  6
CONTINUOUS
 10
13.577071
 20
0.887202
 30
0.000000
 40
0.057622
 50
201.881638
 51
364.368688
  0
ARC
  8
Default
 62
     5
  6
CONTINUOUS
 10
13.511509
 20
0.851231
 30
0.000000
 40
0.018876
 50
50.167823
 51
119.332491
  0
ARC
  8
Default
 62
     5
  6
CONTINUOUS
 10
13.480218
 20
0.906918
 30
0.000000
 40
0.045000
 50
291.592991
 51
299.332491
  0
ARC
  8
Default
 62
     5
  6
CONTINUOUS
 10
13.559194
 20
0.707375
 30
0.000000
 40
0.169603
 50
111.592991
 51
150.403215
  0
LINE
  8
Default
 62
     5
  6
CONTINUOUS
 10
13.411720
 20
0.791141
 30
0.000000
 11
13.381238
 21
0.714316
 31
0.000000
  0
ARC
  8
Default
 62
     5
  6
CONTINUOUS
 10
13.454305
 20
0.689720
 30
0.000000
 40
0.077096
 50
161.395470
 51
198.726373
  0
ARC
  8
Default
 62
     5
  6
CONTINUOUS
 10
13.338673
 20
0.650521
 30
0.000000
 40
0.045000
 50
5.833366
 51
18.726373
  0
LINE
  8
Default
 62
     5
  6
CONTINUOUS
 10
13.383440
 20
0.655095
 30
0.000000
 11
13.402320
 21
0.470287
 31
0.000000
  0
LINE
  8
Default
 62
     5
  6
CONTINUOUS
 10
13.402320
 20
0.470287
 30
0.000000
 11
13.440552
 21
0.285772
 31
0.000000
  0
ARC
  8
Default
 62
     5
  6
CONTINUOUS
 10
13.396488
 20
0.276642
 30
0.000000
 40
0.045000
 50
351.723808
 51
371.706242
  0
ARC
  8
Default
 62
     5
  6
CONTINUOUS
 10
13.237657
 20
0.299746
 30
0.000000
 40
0.205503
 50
322.634980
 51
351.723808
  0
LINE
  8
Default
 62
     5
  6
CONTINUOUS
 10
13.400988
 20
0.175028
 30
0.000000
 11
13.389794
 21
0.079066
 31
0.000000
  0
ARC
  8
Default
 62
     5
  6
CONTINUOUS
 10
13.345097
 20
0.084280
 30
0.000000
 40
0.045000
 50
238.203923
 51
353.346346
  0
ARC
  8
Default
 62
     5
  6
CONTINUOUS
 10
13.631604
 20
0.546440
 30
0.000000
 40
0.588763
 50
217.001051
 51
238.203923
  0
ARC
  8
Default
 62
     5
  6
CONTINUOUS
 10
13.197342
 20
0.219187
 30
0.000000
 40
0.045000
 50
205.661556
 51
217.001051
  0
LINE
  8
Default
 62
     5
  6
CONTINUOUS
 10
13.156780
 20
0.199700
 30
0.000000
 11
13.073535
 21
0.372967
 31
0.000000
  0
ARC
  8
Default
 62
     5
  6
CONTINUOUS
 10
13.114097
 20
0.392454
 30
0.000000
 40
0.045000
 50
202.968878
 51
205.661556
  0
LINE
  8
Default
 62
     5
  6
CONTINUOUS
 10
13.072665
 20
0.374894
 30
0.000000
 11
12.989157
 21
0.571924
 31
0.000000
  0
ARC
  8
Default
 62
     5
  6
CONTINUOUS
 10
13.443836
 20
0.787307
 30
0.000000
 40
0.503113
 50
180.321035
 51
205.347049
  0
ARC
  8
Default
 62
     5
  6
CONTINUOUS
 10
10.791197
 20
0.466279
 30
0.000000
 40
2.172959
 50
8.420689
 51
19.473863
  0
ARC
  8
Default
 62
     5
  6
CONTINUOUS
 10
12.882275
 20
1.205695
 30
0.000000
 40
0.045000
 50
198.165930
 51
199.473863
  0
LINE
  8
Default
 62
     5
  6
CONTINUOUS
 10
12.839518
 20
1.191666
 30
0.000000
 11
12.717404
 21
1.563824
 31
0.000000
  0
ARC
  8
Default
 62
     5
  6
CONTINUOUS
 10
12.760161
 20
1.577853
 30
0.000000
 40
0.045000
 50
197.531594
 51
198.165930
  0
LINE
  8
Default
 62
     5
  6
CONTINUOUS
 10
12.717251
 20
1.564298
 30
0.000000
 11
12.598545
 21
1.940062
 31
0.000000
  0
ARC
  8
Default
 62
     5
  6
CONTINUOUS
 10
12.641455
 20
1.953617
 30
0.000000
 40
0.045000
 50
194.845844
 51
197.531594
  0
ARC
  8
Default
 62
     5
  6
CONTINUOUS
 10
13.669529
 20
2.226126
 30
0.000000
 40
1.108578
 50
181.546174
 51
194.845844
  0
ARC
  8
Default
 62
     5
  6
CONTINUOUS
 10
12.606339
 20
2.197428
 30
0.000000
 40
0.045000
 50
174.732551
 51
181.546174
  0
LINE
  8
Default
 62
     5
  6
CONTINUOUS
 10
12.561529
 20
2.201559
 30
0.000000
 11
12.588829
 21
2.497682
 31
0.000000
  0
ARC
  8
Default
 62
     5
  6
CONTINUOUS
 10
12.633639
 20
2.493551
 30
0.000000
 40
0.045000
 50
169.751704
 51
174.732551
  0
LINE
  8
Default
 62
     5
  6
CONTINUOUS
 10
12.589357
 20
2.501557
 30
0.000000
 11
12.607024
 21
2.599274
 31
0.000000
  0
ARC
  8
Default
 62
     5
  6
CONTINUOUS
 10
12.651306
 20
2.591267
 30
0.000000
 40
0.045000
 50
162.437942
 51
169.751704
  0
LINE
  8
Default
 62
     5
  6
CONTINUOUS
 10
12.608404
 20
2.604846
 30
0.000000
 11
12.640344
 21
2.705767
 31
0.000000
  0
ARC
  8
Default
 62
     5
  6
CONTINUOUS
 10
12.683247
 20
2.692188
 30
0.000000
 40
0.045000
 50
150.625982
 51
162.437942
  0
LINE
  8
Default
 62
     5
  6
CONTINUOUS
 10
12.644032
 20
2.714261
 30
0.000000
 11
12.585395
 21
2.744782
 31
0.000000
  0
ARC
  8
Default
 62
     5
  6
CONTINUOUS
 10
12.606172
 20
2.784699
 30
0.000000
 40
0.045000
 50
235.452288
 51
242.502884
  0
ARC
  8
Default
 62
     5
  6
CONTINUOUS
 10
12.220690
 20
2.224818
 30
0.000000
 40
0.634752
 50
55.452288
 51
91.243454
  0
ARC
  8
Default
 62
     5
  6
CONTINUOUS
 10
12.205939
 20
2.904410
 30
0.000000
 40
0.045000
 50
259.436982
 51
271.243454
  0
ARC
  8
Default
 62
     5
  6
CONTINUOUS
 10
13.017519
 20
7.256585
 30
0.000000
 40
4.472199
 50
242.505980
 51
259.436982
  0
LINE
  8
Default
 62
     5
  6
CONTINUOUS
 10
10.952901
 20
3.289481
 30
0.000000
 11
10.364782
 21
3.595558
 31
0.000000
  0
LINE
  8
Default
 62
     5
  6
CONTINUOUS
 10
10.364782
 20
3.595558
 30
0.000000
 11
10.007275
 21
3.729270
 31
0.000000
  0
ARC
  8
Default
 62
     5
  6
CONTINUOUS
 10
10.491588
 20
5.147613
 30
0.000000
 40
1.498751
 50
239.077622
 51
251.146792
  0
ARC
  8
Default
 62
     5
  6
CONTINUOUS
 10
9.744540
 20
3.900492
 30
0.000000
 40
0.045000
 50
236.822188
 51
239.077622
  0
ARC
  8
Default
 62
     5
  6
CONTINUOUS
 10
13.237144
 20
9.242263
 30
0.000000
 40
6.427226
 50
223.799575
 51
236.822188
  0
ARC
  8
Default
 62
     5
  6
CONTINUOUS
 10
8.630674
 20
4.824883
 30
0.000000
 40
0.045000
 50
213.569804
 51
223.799575
  0
LINE
  8
Default
 62
     5
  6
CONTINUOUS
 10
8.593180
 20
4.800001
 30
0.000000
 11
8.373598
 21
5.130876
 31
0.000000
  0
ARC
  8
Default
 62
     5
  6
CONTINUOUS
 10
8.411093
 20
5.155759
 30
0.000000
 40
0.045000
 50
210.156068
 51
213.569804
  0
LINE
  8
Default
 62
     5
  6
CONTINUOUS
 10
8.372183
 20
5.133152
 30
0.000000
 11
8.179761
 21
5.464351
 31
0.000000
  0
ARC
  8
Default
 62
     5
  6
CONTINUOUS
 10
8.218671
 20
5.486957
 30
0.000000
 40
0.045000
 50
206.978181
 51
210.156068
  0
LINE
  8
Default
 62
     5
  6
CONTINUOUS
 10
8.178567
 20
5.466542
 30
0.000000
 11
8.078512
 21
5.663098
 31
0.000000
  0
ARC
  8
Default
 62
     5
  6
CONTINUOUS
 10
8.421587
 20
5.886565
 30
0.000000
 40
0.409437
 50
168.694025
 51
213.078777
  0
LINE
  8
Default
 62
     5
  6
CONTINUOUS
 10
8.020096
 20
5.966834
 30
0.000000
 11
8.038467
 21
6.192432
 31
0.000000
  0
ARC
  8
Default
 62
     5
  6
CONTINUOUS
 10
7.742529
 20
6.067901
 30
0.000000
 40
0.321072
 50
22.821449
 51
51.975644
  0
ARC
  8
Default
 62
     5
  6
CONTINUOUS
 10
7.968029
 20
6.356274
 30
0.000000
 40
0.045000
 50
229.582485
 51
231.975644
  0
ARC
  8
Default
 62
     5
  6
CONTINUOUS
 10
5.314086
 20
3.239833
 30
0.000000
 40
4.048362
 50
49.582485
 51
55.472364
  0
ARC
  8
Default
 62
     5
  6
CONTINUOUS
 10
7.160008
 20
5.896145
 30
0.000000
 40
0.813818
 50
56.539831
 51
85.194276
  0
ARC
  8
Default
 62
     5
  6
CONTINUOUS
 10
7.231958
 20
6.751944
 30
0.000000
 40
0.045000
 50
260.552865
 51
265.194276
  0
ARC
  8
Default
 62
     5
  6
CONTINUOUS
 10
6.272120
 20
0.983488
 30
0.000000
 40
5.802766
 50
80.552865
 51
85.945300
  0
ARC
  8
Default
 62
     5
  6
CONTINUOUS
 10
6.685609
 20
6.816617
 30
0.000000
 40
0.045000
 50
263.295299
 51
265.945300
  0
ARC
  8
Default
 62
     5
  6
CONTINUOUS
 10
6.354759
 20
4.002224
 30
0.000000
 40
2.788774
 50
83.295299
 51
96.545929
  0
ARC
  8
Default
 62
     5
  6
CONTINUOUS
 10
5.831510
 20
7.197874
 30
0.000000
 40
0.472053
 50
267.016022
 51
295.783561
  0
ARC
  8
Default
 62
     5
  6
CONTINUOUS
 10
5.854136
 20
6.421310
 30
0.000000
 40
0.308779
 50
98.792680
 51
118.013916
  0
ARC
  8
Default
 62
     5
  6
CONTINUOUS
 10
5.687971
 20
6.733638
 30
0.000000
 40
0.045000
 50
292.995172
 51
298.013916
  0
LINE
  8
Default
 62
     5
  6
CONTINUOUS
 10
5.705551
 20
6.692214
 30
0.000000
 11
5.596880
 21
6.646097
 31
0.000000
  0
ARC
  8
Default
 62
     5
  6
CONTINUOUS
 10
5.354407
 20
7.143321
 30
0.000000
 40
0.553195
 50
274.575627
 51
295.996362
  0
ARC
  8
Default
 62
     5
  6
CONTINUOUS
 10
5.394948
 20
6.636746
 30
0.000000
 40
0.045000
 50
264.411028
 51
274.575627
  0
ARC
  8
Default
 62
     5
  6
CONTINUOUS
 10
5.296416
 20
5.629839
 30
0.000000
 40
0.966716
 50
84.411028
 51
98.492179
  0
ARC
  8
Default
 62
     5
  6
CONTINUOUS
 10
4.658083
 20
7.774183
 30
0.000000
 40
1.287430
 50
273.574209
 51
292.639526
  0
ARC
  8
Default
 62
     5
  6
CONTINUOUS
 10
4.652686
 20
6.889975
 30
0.000000
 40
0.409770
 50
225.387772
 51
282.065938
  0
ARC
  8
Default
 62
     5
  6
CONTINUOUS
 10
4.396506
 20
6.630303
 30
0.000000
 40
0.045000
 50
222.552765
 51
225.387772
  0
LINE
  8
Default
 62
     5
  6
CONTINUOUS
 10
4.363357
 20
6.599871
 30
0.000000
 11
4.286265
 21
6.683847
 31
0.000000
  0
ARC
  8
Default
 62
     5
  6
CONTINUOUS
 10
4.319414
 20
6.714279
 30
0.000000
 40
0.045000
 50
189.672698
 51
222.552765
  0
ARC
  8
Default
 62
     5
  6
CONTINUOUS
 10
4.440443
 20
6.734907
 30
0.000000
 40
0.167774
 50
126.565502
 51
189.672698
  0
ARC
  8
Default
 62
     5
  6
CONTINUOUS
 10
4.621222
 20
6.600105
 30
0.000000
 40
0.389189
 50
117.505579
 51
136.163348
  0
LINE
  8
Default
 62
     5
  6
CONTINUOUS
 10
4.441481
 20
6.945303
 30
0.000000
 11
4.530836
 21
7.001576
 31
0.000000
  0
ARC
  8
Default
 62
     5
  6
CONTINUOUS
 10
5.454629
 20
5.678492
 30
0.000000
 40
1.613674
 50
109.045121
 51
124.923228
  0
ARC
  8
Default
 62
     5
  6
CONTINUOUS
 10
4.603904
 20
8.142870
 30
0.000000
 40
0.993411
 50
289.045121
 51
317.237122
  0
ARC
  8
Default
 62
     5
  6
CONTINUOUS
 10
5.366274
 20
7.437825
 30
0.000000
 40
0.045000
 50
129.481979
 51
137.237122
  0
ARC
  8
Default
 62
     5
  6
CONTINUOUS
 10
4.748903
 20
8.187236
 30
0.000000
 40
0.925960
 50
309.481979
 51
323.210846
  0
LINE
  8
Default
 62
     5
  6
CONTINUOUS
 10
5.490453
 20
7.632704
 30
0.000000
 11
5.525880
 21
7.680078
 31
0.000000
  0
LINE
  8
Default
 62
     5
  6
CONTINUOUS
 10
5.525880
 20
7.680078
 30
0.000000
 11
5.473083
 21
7.690865
 31
0.000000
  0
LINE
  8
Default
 62
     5
  6
CONTINUOUS
 10
5.473083
 20
7.690865
 30
0.000000
 11
5.153434
 21
7.709565
 31
0.000000
  0
ARC
  8
Default
 62
     5
  6
CONTINUOUS
 10
5.197423
 20
8.950832
 30
0.000000
 40
1.242046
 50
252.279053
 51
267.970379
  0
ARC
  8
Default
 62
     5
  6
CONTINUOUS
 10
5.041761
 20
8.463694
 30
0.000000
 40
0.730642
 50
225.732663
 51
252.279053
  0
LINE
  8
Default
 62
     5
  6
CONTINUOUS
 10
4.531767
 20
7.940488
 30
0.000000
 11
4.346078
 21
8.106740
 31
0.000000
  0
ARC
  8
Default
 62
     5
  6
CONTINUOUS
 10
4.376095
 20
8.140267
 30
0.000000
 40
0.045000
 50
228.052861
 51
228.161080
  0
LINE
  8
Default
 62
     5
  6
CONTINUOUS
 10
4.346015
 20
8.106797
 30
0.000000
 11
4.038558
 21
8.383120
 31
0.000000
  0
ARC
  8
Default
 62
     5
  6
CONTINUOUS
 10
4.068638
 20
8.416589
 30
0.000000
 40
0.045000
 50
216.269680
 51
228.052861
  0
ARC
  8
Default
 62
     5
  6
CONTINUOUS
 10
3.852873
 20
8.258270
 30
0.000000
 40
0.222618
 50
36.269680
 51
86.530005
  0
ARC
  8
Default
 62
     5
  6
CONTINUOUS
 10
3.869071
 20
8.525397
 30
0.000000
 40
0.045000
 50
256.998039
 51
266.530005
  0
ARC
  8
Default
 62
     5
  6
CONTINUOUS
 10
4.228614
 20
10.082507
 30
0.000000
 40
1.643081
 50
246.075768
 51
256.998039
  0
ARC
  8
Default
 62
     5
  6
CONTINUOUS
 10
6.595118
 20
15.416734
 30
0.000000
 40
7.478689
 50
217.022926
 51
246.075768
  0
ARC
  8
Default
 62
     5
  6
CONTINUOUS
 10
0.660101
 20
10.940654
 30
0.000000
 40
0.045000
 50
214.676820
 51
217.022926
  0
ARC
  8
Default
 62
     5
  6
CONTINUOUS
 10
3.688519
 20
13.035818
 30
0.000000
 40
3.727531
 50
203.251649
 51
214.676820
  0
ARC
  8
Default
 62
     5
  6
CONTINUOUS
 10
1.107858
 20
12.003434
 30
0.000000
 40
0.951513
 50
178.799293
 51
207.484733
  0
ARC
  8
Default
 62
     5
  6
CONTINUOUS
 10
0.412849
 20
12.057950
 30
0.000000
 40
0.258617
 50
51.574101
 51
187.683464
  0
ARC
  8
Default
 62
     5
  6
CONTINUOUS
 10
0.545612
 20
12.225300
 30
0.000000
 40
0.045000
 50
50.497638
 51
51.574101
  0
LINE
  8
Default
 62
     5
  6
CONTINUOUS
 10
0.574237
 20
12.260022
 30
0.000000
 11
0.651232
 21
12.196547
 31
0.000000
  0
LINE
  8
Default
 62
     5
  6
CONTINUOUS
 10
0.651232
 20
12.196547
 30
0.000000
 11
0.644796
 21
12.268926
 31
0.000000
  0
ARC
  8
Default
 62
     5
  6
CONTINUOUS
 10
0.689619
 20
12.272911
 30
0.000000
 40
0.045000
 50
155.229962
 51
185.081261
  0
ARC
  8
Default
 62
     5
  6
CONTINUOUS
 10
0.855712
 20
12.196271
 30
0.000000
 40
0.227922
 50
74.917598
 51
155.229962
  0
ARC
  8
Default
 62
     5
  6
CONTINUOUS
 10
0.903310
 20
12.372892
 30
0.000000
 40
0.045000
 50
71.170805
 51
74.917598
  0
ARC
  8
Default
 62
     5
  6
CONTINUOUS
 10
0.702593
 20
11.784272
 30
0.000000
 40
0.666901
 50
51.873518
 51
71.170805
  0
ARC
  8
Default
 62
     5
  6
CONTINUOUS
 10
-0.096376
 20
10.766278
 30
0.000000
 40
1.960989
 50
37.878003
 51
51.873518
  0
ARC
  8
Default
 62
     5
  6
CONTINUOUS
 10
1.415951
 20
11.942661
 30
0.000000
 40
0.045000
 50
35.485387
 51
37.878003
  0
ARC
  8
Default
 62
     5
  6
CONTINUOUS
 10
2.202403
 20
12.503329
 30
0.000000
 40
0.920844
 50
215.485387
 51
232.557993
  0
ARC
  8
Default
 62
     5
  6
CONTINUOUS
 10
1.615210
 20
11.736479
 30
0.000000
 40
0.045000
 50
48.325183
 51
52.557993
  0
LINE
  8
Default
 62
     5
  6
CONTINUOUS
 10
1.645131
 20
11.770091
 30
0.000000
 11
1.763416
 21
11.664796
 31
0.000000
  0
ARC
  8
Default
 62
     5
  6
CONTINUOUS
 10
2.792864
 20
12.105145
 30
0.000000
 40
1.119674
 50
195.346976
 51
203.158951
  0
ARC
  8
Default
 62
     5
  6
CONTINUOUS
 10
1.756512
 20
11.820717
 30
0.000000
 40
0.045000
 50
193.877421
 51
195.346976
  0
LINE
  8
Default
 62
     5
  6
CONTINUOUS
 10
1.712825
 20
11.809924
 30
0.000000
 11
1.655965
 21
12.040075
 31
0.000000
  0
LINE
  8
Default
 62
     5
  6
CONTINUOUS
 10
1.655965
 20
12.040075
 30
0.000000
 11
1.562345
 21
12.224266
 31
0.000000
  0
ARC
  8
Default
 62
     5
  6
CONTINUOUS
 10
1.602461
 20
12.244655
 30
0.000000
 40
0.045000
 50
199.203400
 51
206.943167
  0
LINE
  8
Default
 62
     5
  6
CONTINUOUS
 10
1.559965
 20
12.229854
 30
0.000000
 11
1.496226
 21
12.412852
 31
0.000000
  0
ARC
  8
Default
 62
     5
  6
CONTINUOUS
 10
1.711407
 20
12.517160
 30
0.000000
 40
0.239129
 50
139.434404
 51
205.861696
  0
ARC
  8
Default
 62
     5
  6
CONTINUOUS
 10
1.563934
 20
12.643406
 30
0.000000
 40
0.045000
 50
119.399380
 51
139.434404
  0
ARC
  8
Default
 62
     5
  6
CONTINUOUS
 10
1.662924
 20
12.467723
 30
0.000000
 40
0.246652
 50
85.934467
 51
119.399380
  0
ARC
  8
Default
 62
     5
  6
CONTINUOUS
 10
1.677220
 20
12.668868
 30
0.000000
 40
0.045000
 50
83.763331
 51
85.934467
  0
LINE
  8
Default
 62
     5
  6
CONTINUOUS
 10
1.682109
 20
12.713602
 30
0.000000
 11
1.781675
 21
12.702721
 31
0.000000
  0
ARC
  8
Default
 62
     5
  6
CONTINUOUS
 10
1.672590
 20
11.704534
 30
0.000000
 40
1.004130
 50
71.050925
 51
83.763331
  0
ARC
  8
Default
 62
     5
  6
CONTINUOUS
 10
1.593294
 20
11.340457
 30
0.000000
 40
1.374906
 50
56.057151
 51
72.852581
  0
ARC
  8
Default
 62
     5
  6
CONTINUOUS
 10
2.335868
 20
12.443740
 30
0.000000
 40
0.045000
 50
54.817312
 51
56.057151
  0
ARC
  8
Default
 62
     5
  6
CONTINUOUS
 10
1.843608
 20
11.745470
 30
0.000000
 40
0.899342
 50
29.248796
 51
54.817312
  0
LINE
  8
Default
 62
     5
  6
CONTINUOUS
 10
2.628290
 20
12.184891
 30
0.000000
 11
2.668755
 21
12.122491
 31
0.000000
  0
ARC
  8
Default
 62
     5
  6
CONTINUOUS
 10
3.766785
 20
12.405233
 30
0.000000
 40
1.133849
 50
184.609525
 51
194.439929
  0
ARC
  8
Default
 62
     5
  6
CONTINUOUS
 10
2.854442
 20
12.331675
 30
0.000000
 40
0.218545
 50
132.027610
 51
184.609525
  0
ARC
  8
Default
 62
     5
  6
CONTINUOUS
 10
2.864990
 20
12.375615
 30
0.000000
 40
0.196531
 50
75.000816
 51
142.954340
  0
ARC
  8
Default
 62
     5
  6
CONTINUOUS
 10
2.857033
 20
12.045148
 30
0.000000
 40
0.523616
 50
62.541068
 51
83.550073
  0
LINE
  8
Default
 62
     5
  6
CONTINUOUS
 10
3.098479
 20
12.509775
 30
0.000000
 11
3.270997
 21
12.420125
 31
0.000000
  0
ARC
  8
Default
 62
     5
  6
CONTINUOUS
 10
3.250247
 20
12.380194
 30
0.000000
 40
0.045000
 50
56.718259
 51
62.541068
  0
ARC
  8
Default
 62
     5
  6
CONTINUOUS
 10
2.056104
 20
10.561021
 30
0.000000
 40
2.221090
 50
47.222601
 51
56.718259
  0
ARC
  8
Default
 62
     5
  6
CONTINUOUS
 10
2.738900
 20
11.298958
 30
0.000000
 40
1.215724
 50
35.196394
 51
47.222601
  0
LINE
  8
Default
 62
     5
  6
CONTINUOUS
 10
3.732367
 20
11.999678
 30
0.000000
 11
3.898749
 21
11.763785
 31
0.000000
  0
LINE
  8
Default
 62
     5
  6
CONTINUOUS
 10
3.898749
 20
11.763785
 30
0.000000
 11
3.896022
 21
11.806721
 31
0.000000
  0
ARC
  8
Default
 62
     5
  6
CONTINUOUS
 10
4.234010
 20
11.859990
 30
0.000000
 40
0.342160
 50
157.385027
 51
188.956370
  0
ARC
  8
Default
 62
     5
  6
CONTINUOUS
 10
3.959699
 20
11.974258
 30
0.000000
 40
0.045000
 50
156.359565
 51
157.385027
  0
ARC
  8
Default
 62
     5
  6
CONTINUOUS
 10
4.158598
 20
11.887195
 30
0.000000
 40
0.262119
 50
114.325821
 51
156.359565
  0
ARC
  8
Default
 62
     5
  6
CONTINUOUS
 10
4.069161
 20
12.085038
 30
0.000000
 40
0.045000
 50
110.125970
 51
114.325821
  0
ARC
  8
Default
 62
     5
  6
CONTINUOUS
 10
4.276826
 20
11.518362
 30
0.000000
 40
0.648528
 50
30.143128
 51
110.125970
  0
LINE
  8
Default
 62
     5
  6
CONTINUOUS
 10
5.005803
 20
11.566204
 30
0.000000
 11
4.837655
 21
11.844028
 31
0.000000
  0
ARC
  8
Default
 62
     5
  6
CONTINUOUS
 10
4.847066
 20
11.717870
 30
0.000000
 40
0.219545
 50
316.304903
 51
336.713815
  0
ARC
  8
Default
 62
     5
  6
CONTINUOUS
 10
5.090062
 20
11.613289
 30
0.000000
 40
0.045000
 50
149.055245
 51
156.713815
  0
ARC
  8
Default
 62
     5
  6
CONTINUOUS
 10
5.291366
 20
11.492598
 30
0.000000
 40
0.279712
 50
104.678824
 51
149.055245
  0
ARC
  8
Default
 62
     5
  6
CONTINUOUS
 10
5.231889
 20
11.719649
 30
0.000000
 40
0.045000
 50
82.686613
 51
104.678824
  0
ARC
  8
Default
 62
     5
  6
CONTINUOUS
 10
5.052178
 20
10.319379
 30
0.000000
 40
1.456755
 50
46.229195
 51
82.686613
  0
ARC
  8
Default
 62
     5
  6
CONTINUOUS
 10
6.028796
 20
11.338825
 30
0.000000
 40
0.045000
 50
44.232969
 51
46.229195
  0
LINE
  8
Default
 62
     5
  6
CONTINUOUS
 10
6.061039
 20
11.370216
 30
0.000000
 11
6.295965
 21
11.128914
 31
0.000000
  0
LINE
  8
Default
 62
     5
  6
CONTINUOUS
 10
6.295965
 20
11.128914
 30
0.000000
 11
6.322279
 21
11.145918
 31
0.000000
  0
ARC
  8
Default
 62
     5
  6
CONTINUOUS
 10
6.473138
 20
10.973153
 30
0.000000
 40
0.229360
 50
104.277954
 51
131.127431
  0
ARC
  8
Default
 62
     5
  6
CONTINUOUS
 10
6.478361
 20
11.077715
 30
0.000000
 40
0.132945
 50
61.489440
 51
117.695510
  0
LINE
  8
Default
 62
     5
  6
CONTINUOUS
 10
6.541818
 20
11.194537
 30
0.000000
 11
6.619431
 21
11.164084
 31
0.000000
  0
ARC
  8
Default
 62
     5
  6
CONTINUOUS
 10
6.321297
 20
10.404259
 30
0.000000
 40
0.816222
 50
41.235564
 51
68.576373
  0
LINE
  8
Default
 62
     5
  6
CONTINUOUS
 10
6.935101
 20
10.942277
 30
0.000000
 11
7.156392
 21
10.709423
 31
0.000000
  0
LINE
  8
Default
 62
     5
  6
CONTINUOUS
 10
7.156392
 20
10.709423
 30
0.000000
 11
7.241398
 21
10.628251
 31
0.000000
  0
ARC
  8
Default
 62
     5
  6
CONTINUOUS
 10
7.322546
 20
10.325402
 30
0.000000
 40
0.313532
 50
66.301847
 51
104.999911
  0
ARC
  8
Default
 62
     5
  6
CONTINUOUS
 10
7.281532
 20
10.231962
 30
0.000000
 40
0.415578
 50
35.587881
 51
66.301847
  0
ARC
  8
Default
 62
     5
  6
CONTINUOUS
 10
7.582895
 20
10.447620
 30
0.000000
 40
0.045000
 50
30.626931
 51
35.587881
  0
ARC
  8
Default
 62
     5
  6
CONTINUOUS
 10
8.001340
 20
10.695353
 30
0.000000
 40
0.441280
 50
210.626931
 51
233.345738
  0
ARC
  8
Default
 62
     5
  6
CONTINUOUS
 10
7.711038
 20
10.305234
 30
0.000000
 40
0.045000
 50
46.824527
 51
53.345738
  0
LINE
  8
Default
 62
     5
  6
CONTINUOUS
 10
7.741829
 20
10.338051
 30
0.000000
 11
7.986032
 21
10.108925
 31
0.000000
  0
ARC
  8
Default
 62
     5
  6
CONTINUOUS
 10
7.955242
 20
10.076108
 30
0.000000
 40
0.045000
 50
31.448524
 51
46.824527
  0
ARC
  8
Default
 62
     5
  6
CONTINUOUS
 10
8.000610
 20
10.103854
 30
0.000000
 40
0.008180
 50
211.448524
 51
274.678907
  0
ARC
  8
Default
 62
     5
  6
CONTINUOUS
 10
8.095502
 20
9.928986
 30
0.000000
 40
0.191499
 50
80.743544
 51
119.474363
  0
ARC
  8
Default
 62
     5
  6
CONTINUOUS
 10
8.119067
 20
10.073578
 30
0.000000
 40
0.045000
 50
79.707288
 51
80.743544
  0
ARC
  8
Default
 62
     5
  6
CONTINUOUS
 10
8.030574
 20
9.586281
 30
0.000000
 40
0.540266
 50
57.838877
 51
79.707288
  0
ARC
  8
Default
 62
     5
  6
CONTINUOUS
 10
7.948243
 20
9.346947
 30
0.000000
 40
0.788814
 50
32.614253
 51
62.033685
  0
ENDSEC
  0
EOF
