  0
SECTION
  2
HEADER
  9
$ACADVER
  1
AC1009
  9
$INSBASE
 10
0.0
 20
0.0
 30
0.0
  9
$EXTMIN
 10
735.37807064105073
 20
28.077821815011252
 30
-0.0015258207003583
  9
$EXTMAX
 10
2937.7204485297202
 20
1342.5894648223059
 30
0.0000000349246037
  9
$LIMMIN
 10
0.0
 20
0.0
  9
$LIMMAX
 10
1189.0
 20
841.0
  9
$ORTHOMODE
 70
     0
  9
$REGENMODE
 70
     1
  9
$FILLMODE
 70
     1
  9
$QTEXTMODE
 70
     0
  9
$MIRRTEXT
 70
     1
  9
$DRAGMODE
 70
     2
  9
$LTSCALE
 40
1.0
  9
$OSMODE
 70
  3071
  9
$ATTMODE
 70
     1
  9
$TEXTSIZE
 40
3.5
  9
$TRACEWID
 40
1.0
  9
$TEXTSTYLE
  7
STANDARD
  9
$CLAYER
  8
0
  9
$CELTYPE
  6
BYLAYER
  9
$CECOLOR
 62
   256
  9
$DIMSCALE
 40
1.0
  9
$DIMASZ
 40
3.3019999999999992
  9
$DIMEXO
 40
1.0
  9
$DIMDLI
 40
3.75
  9
$DIMRND
 40
0.0
  9
$DIMDLE
 40
0.0
  9
$DIMEXE
 40
1.0
  9
$DIMTP
 40
0.0
  9
$DIMTM
 40
0.0
  9
$DIMTXT
 40
3.5
  9
$DIMCEN
 40
2.5
  9
$DIMTSZ
 40
0.0
  9
$DIMTOL
 70
     0
  9
$DIMLIM
 70
     0
  9
$DIMTIH
 70
     1
  9
$DIMTOH
 70
     1
  9
$DIMSE1
 70
     0
  9
$DIMSE2
 70
     0
  9
$DIMTAD
 70
     1
  9
$DIMZIN
 70
     0
  9
$DIMBLK
  1

  9
$DIMASO
 70
     1
  9
$DIMSHO
 70
     1
  9
$DIMPOST
  1

  9
$DIMAPOST
  1

  9
$DIMALT
 70
     0
  9
$DIMALTD
 70
     3
  9
$DIMALTF
 40
0.0393700787401575
  9
$DIMLFAC
 40
5.0
  9
$DIMTOFL
 70
     1
  9
$DIMTVP
 40
0.0
  9
$DIMTIX
 70
     0
  9
$DIMSOXD
 70
     0
  9
$DIMSAH
 70
     0
  9
$DIMBLK1
  1

  9
$DIMBLK2
  1

  9
$DIMSTYLE
  2
ISO-25
  9
$DIMCLRD
 70
     0
  9
$DIMCLRE
 70
     0
  9
$DIMCLRT
 70
     0
  9
$DIMTFAC
 40
1.0
  9
$DIMGAP
 40
1.524
  9
$LUNITS
 70
     2
  9
$LUPREC
 70
     2
  9
$SKETCHINC
 40
1.0
  9
$FILLETRAD
 40
10.0
  9
$AUNITS
 70
     0
  9
$AUPREC
 70
     2
  9
$MENU
  1
.
  9
$ELEVATION
 40
0.0
  9
$PELEVATION
 40
0.0
  9
$THICKNESS
 40
0.0
  9
$LIMCHECK
 70
     0
  9
$BLIPMODE
 70
     0
  9
$CHAMFERA
 40
10.0
  9
$CHAMFERB
 40
10.0
  9
$SKPOLY
 70
     0
  9
$TDCREATE
 40
2456664.6145019908
  9
$TDUPDATE
 40
2456664.6155876159
  9
$TDINDWG
 40
0.0008777662
  9
$TDUSRTIMER
 40
0.0008777662
  9
$USRTIMER
 70
     1
  9
$ANGBASE
 50
0.0
  9
$ANGDIR
 70
     0
  9
$PDMODE
 70
     0
  9
$PDSIZE
 40
-1.0
  9
$PLINEWID
 40
0.0
  9
$COORDS
 70
     1
  9
$SPLFRAME
 70
     0
  9
$SPLINETYPE
 70
     6
  9
$SPLINESEGS
 70
     8
  9
$ATTDIA
 70
     0
  9
$ATTREQ
 70
     1
  9
$HANDLING
 70
     1
  9
$HANDSEED
  5
52F
  9
$SURFTAB1
 70
     6
  9
$SURFTAB2
 70
     6
  9
$SURFTYPE
 70
     6
  9
$SURFU
 70
     6
  9
$SURFV
 70
     6
  9
$UCSNAME
  2

  9
$UCSORG
 10
0.0
 20
0.0
 30
0.0
  9
$UCSXDIR
 10
1.0
 20
0.0
 30
0.0
  9
$UCSYDIR
 10
0.0
 20
1.0
 30
0.0
  9
$PUCSNAME
  2

  9
$PUCSORG
 10
0.0
 20
0.0
 30
0.0
  9
$PUCSXDIR
 10
1.0
 20
0.0
 30
0.0
  9
$PUCSYDIR
 10
0.0
 20
1.0
 30
0.0
  9
$USERI1
 70
     0
  9
$USERI2
 70
     0
  9
$USERI3
 70
     0
  9
$USERI4
 70
     0
  9
$USERI5
 70
     0
  9
$USERR1
 40
0.0
  9
$USERR2
 40
0.0
  9
$USERR3
 40
0.0
  9
$USERR4
 40
0.0
  9
$USERR5
 40
0.0
  9
$WORLDVIEW
 70
     1
  9
$SHADEDGE
 70
     3
  9
$SHADEDIF
 70
    70
  9
$TILEMODE
 70
     1
  9
$MAXACTVP
 70
    64
  9
$PLIMCHECK
 70
     0
  9
$PEXTMIN
 10
1.0000000000000000E 020
 20
1.0000000000000000E 020
 30
1.0000000000000000E 020
  9
$PEXTMAX
 10
-1.0000000000000000E 020
 20
-1.0000000000000000E 020
 30
-1.0000000000000000E 020
  9
$PLIMMIN
 10
0.0
 20
0.0
  9
$PLIMMAX
 10
420.0
 20
297.0
  9
$UNITMODE
 70
     0
  9
$VISRETAIN
 70
     1
  9
$PLINEGEN
 70
     0
  9
$PSLTSCALE
 70
     1
  0
ENDSEC
  0
SECTION
  2
TABLES
  0
TABLE
  2
VPORT
 70
     1
  0
VPORT
  2
*ACTIVE
 70
     0
 10
0.0
 20
0.0
 11
1.0
 21
1.0
 12
1836.5492595853859
 22
685.33364331865857
 13
0.0
 23
0.0
 14
10.0
 24
10.0
 15
10.0
 25
10.0
 16
0.0
 26
0.0
 36
1.0
 17
0.0
 27
0.0
 37
0.0
 40
1375.539289795825
 41
2.2690166975881261
 42
50.0
 43
0.0
 44
0.0
 50
0.0
 51
0.0
 71
     0
 72
  2000
 73
     1
 74
     3
 75
     0
 76
     0
 77
     0
 78
     0
  0
ENDTAB
  0
TABLE
  2
LTYPE
 70
     6
  0
LTYPE
  2
CONTINUOUS
 70
     0
  3
Solid line
 72
    65
 73
     0
 40
0.0
  0
LTYPE
  2
HIDDEN
 70
     0
  3
Hidden __ __ __ __ __ __ __ __ __ __ __ __ __ __
 72
    65
 73
     2
 40
1.905
 49
1.27
 49
-0.635
  0
LTYPE
  2
PHANTOM
 70
     0
  3
Phantom ______  __  __  ______  __  __  ______
 72
    65
 73
     6
 40
12.699999999999999
 49
6.3499999999999988
 49
-1.27
 49
1.27
 49
-1.27
 49
1.27
 49
-1.27
  0
LTYPE
  2
CENTER
 70
     0
  3
Center ____ _ ____ _ ____ _ ____ _ ____ _ ____
 72
    65
 73
     4
 40
10.16
 49
6.3499999999999988
 49
-1.27
 49
1.27
 49
-1.27
  0
LTYPE
  2
CENTERX2
 70
     0
  3
Center (2x) ________  __  ________  __  _____
 72
    65
 73
     4
 40
20.32
 49
12.699999999999999
 49
-2.54
 49
2.54
 49
-2.54
  0
LTYPE
  2
DOT2
 70
     0
  3
Dot (.5x) ........................................
 72
    65
 73
     2
 40
0.635
 49
0.0
 49
-0.635
  0
ENDTAB
  0
TABLE
  2
LAYER
 70
     2
  0
LAYER
  2
0
 70
     0
 62
     7
  6
CONTINUOUS
  0
LAYER
  2
FORMAT
 70
     0
 62
     7
  6
CONTINUOUS
  0
ENDTAB
  0
TABLE
  2
STYLE
 70
     3
  0
STYLE
  2
STANDARD
 70
     0
 40
0.0
 41
1.0
 50
0.0
 71
     0
 42
3.5
  3
txt
  4

  0
STYLE
  2
SLDTEXTSTYLE0
 70
     0
 40
0.0
 41
0.75
 50
0.0
 71
     0
 42
0.2
  3
TXT
  4

  0
STYLE
  2
SLDTEXTSTYLE1
 70
     0
 40
0.0
 41
0.6875
 50
0.0
 71
     0
 42
0.2
  3
TXT
  4

  0
ENDTAB
  0
TABLE
  2
VIEW
 70
     0
  0
ENDTAB
  0
TABLE
  2
UCS
 70
     0
  0
ENDTAB
  0
TABLE
  2
APPID
 70
     1
  0
APPID
  2
ACAD
 70
     0
  0
ENDTAB
  0
TABLE
  2
DIMSTYLE
 70
     1
  0
DIMSTYLE
  2
ISO-25
 70
     0
  3

  4

  5

  6

  7

 40
1.0
 41
2.5
 42
0.625
 43
3.75
 44
1.25
 45
0.0
 46
0.0
 47
0.0
 48
0.0
140
2.5
141
2.5
142
0.0
143
0.03937007874016
144
1.0
145
0.0
146
1.0
147
0.625
 71
     0
 72
     0
 73
     0
 74
     0
 75
     0
 76
     0
 77
     1
 78
     8
170
     0
171
     3
172
     1
173
     0
174
     0
175
     0
176
     0
177
     0
178
     0
  0
ENDTAB
  0
ENDSEC
  0
SECTION
  2
BLOCKS
  0
BLOCK
  8
0
  2
$MODEL_SPACE
 70
     0
 10
0.0
 20
0.0
 30
0.0
  3
$MODEL_SPACE
  1

  0
ENDBLK
  5
21
  8
0
  0
BLOCK
 67
     1
  8
0
  2
$PAPER_SPACE
 70
     0
 10
0.0
 20
0.0
 30
0.0
  3
$PAPER_SPACE
  1

  0
ENDBLK
  5
1D
 67
     1
  8
0
  0
BLOCK
  8
0
  2
SW_NOTE_0
 70
     0
 10
0.0
 20
0.0
 30
0.0
  3
SW_NOTE_0
  1

  0
INSERT
  5
7A
  8
0
  2
*U3
 10
0.0
 20
0.0
 30
0.0
  0
INSERT
  5
7B
  8
0
  2
*U4
 10
0.0
 20
0.0
 30
0.0
  0
INSERT
  5
7C
  8
0
  2
*U5
 10
0.0
 20
0.0
 30
0.0
  0
ENDBLK
  5
79
  8
0
  0
BLOCK
  8
0
  2
SW_NOTE_1
 70
     0
 10
0.0
 20
0.0
 30
0.0
  3
SW_NOTE_1
  1

  0
INSERT
  5
82
  8
0
  2
*U6
 10
0.0
 20
0.0
 30
0.0
  0
INSERT
  5
83
  8
0
  2
*U7
 10
0.0
 20
0.0
 30
0.0
  0
INSERT
  5
84
  8
0
  2
*U8
 10
0.0
 20
0.0
 30
0.0
  0
INSERT
  5
85
  8
0
  2
*U9
 10
0.0
 20
0.0
 30
0.0
  0
INSERT
  5
86
  8
0
  2
*U10
 10
0.0
 20
0.0
 30
0.0
  0
INSERT
  5
87
  8
0
  2
*U11
 10
0.0
 20
0.0
 30
0.0
  0
ENDBLK
  5
81
  8
0
  0
BLOCK
  8
0
  2
*U3
 70
     1
 10
0.0
 20
0.0
 30
0.0
  3
*U3
  1

  0
TEXT
  5
F4
  8
0
 62
     0
 10
0.0
 20
0.4336016096579423
 30
0.0
 40
1.5
  1
DEBUR AND
 41
0.75
  7
SLDTEXTSTYLE0
  0
ENDBLK
  5
F6
  8
0
  0
BLOCK
  8
0
  2
*U4
 70
     1
 10
0.0
 20
0.0
 30
0.0
  3
*U4
  1

  0
TEXT
  5
F8
  8
0
 62
     0
 10
0.0
 20
-2.0663983344626962
 30
0.0
 40
1.5
  1
BREAK SHARP
 41
0.75
  7
SLDTEXTSTYLE0
  0
ENDBLK
  5
FA
  8
0
  0
BLOCK
  8
0
  2
*U5
 70
     1
 10
0.0
 20
0.0
 30
0.0
  3
*U5
  1

  0
TEXT
  5
FC
  8
0
 62
     0
 10
0.0
 20
-4.5663982785833408
 30
0.0
 40
1.5
  1
EDGES
 41
0.75
  7
SLDTEXTSTYLE0
  0
ENDBLK
  5
FE
  8
0
  0
BLOCK
  8
0
  2
*U6
 70
     1
 10
0.0
 20
0.0
 30
0.0
  3
*U6
  1

  0
TEXT
  5
100
  8
0
 62
     0
 10
0.0
 20
0.4336016096579423
 30
0.0
 40
1.5
  1
UNLESS OTHERWISE SPECIFIED:
 41
0.75
  7
SLDTEXTSTYLE0
  0
ENDBLK
  5
102
  8
0
  0
BLOCK
  8
0
  2
*U7
 70
     1
 10
0.0
 20
0.0
 30
0.0
  3
*U7
  1

  0
TEXT
  5
104
  8
0
 62
     0
 10
0.0
 20
-2.0663983344626962
 30
0.0
 40
1.5
  1
DIMENSIONS ARE IN MILLIMETERS
 41
0.75
  7
SLDTEXTSTYLE0
  0
ENDBLK
  5
106
  8
0
  0
BLOCK
  8
0
  2
*U8
 70
     1
 10
0.0
 20
0.0
 30
0.0
  3
*U8
  1

  0
TEXT
  5
108
  8
0
 62
     0
 10
0.0
 20
-4.5663982785833408
 30
0.0
 40
1.5
  1
SURFACE FINISH:
 41
0.75
  7
SLDTEXTSTYLE0
  0
ENDBLK
  5
10A
  8
0
  0
BLOCK
  8
0
  2
*U9
 70
     1
 10
0.0
 20
0.0
 30
0.0
  3
*U9
  1

  0
TEXT
  5
10C
  8
0
 62
     0
 10
0.0
 20
-7.0663982227039872
 30
0.0
 40
1.5
  1
TOLERANCES:
 41
0.75
  7
SLDTEXTSTYLE0
  0
ENDBLK
  5
10E
  8
0
  0
BLOCK
  8
0
  2
*U10
 70
     1
 10
0.0
 20
0.0
 30
0.0
  3
*U10
  1

  0
TEXT
  5
110
  8
0
 62
     0
 10
1.687499999999952
 20
-9.5663981668246336
 30
0.0
 40
1.5
  1
LINEAR:
 41
0.75
  7
SLDTEXTSTYLE0
  0
ENDBLK
  5
112
  8
0
  0
BLOCK
  8
0
  2
*U11
 70
     1
 10
0.0
 20
0.0
 30
0.0
  3
*U11
  1

  0
TEXT
  5
114
  8
0
 62
     0
 10
1.687499999999952
 20
-12.066398110945279
 30
0.0
 40
1.5
  1
ANGULAR:
 41
0.75
  7
SLDTEXTSTYLE0
  0
ENDBLK
  5
116
  8
0
  0
ENDSEC
  0
SECTION
  2
ENTITIES
  0
LINE
  5
8E
  8
0
  6
CONTINUOUS
 62
     5
 10
2570.64348830887
 20
28.089453633646471
 30
0.0
 11
2610.6434883088709
 21
28.089453633647029
 31
0.0
  0
POLYLINE
  8
0
  5
11F
  62
5
  66
     1
 10
0.000000
 20
0.000000
 30
0.000000
  70
     8
  0
VERTEX
  8
0
  5
120
 10
2570.64
 20
928.089
 30
0.000000
  70
    32
  0
VERTEX
  8
0
  5
121
 10
2564.60
 20
917.579
 30
0.000000
  70
    32
  0
VERTEX
  8
0
  5
122
 10
2558.80
 20
907.218
 30
0.000000
  70
    32
  0
VERTEX
  8
0
  5
123
 10
2553.24
 20
897.005
 30
0.000000
  70
    32
  0
VERTEX
  8
0
  5
124
 10
2547.91
 20
886.936
 30
0.000000
  70
    32
  0
VERTEX
  8
0
  5
125
 10
2542.82
 20
877.010
 30
0.000000
  70
    32
  0
VERTEX
  8
0
  5
126
 10
2537.95
 20
867.224
 30
0.000000
  70
    32
  0
VERTEX
  8
0
  5
127
 10
2533.31
 20
857.577
 30
0.000000
  70
    32
  0
VERTEX
  8
0
  5
128
 10
2528.89
 20
848.065
 30
0.000000
  70
    32
  0
VERTEX
  8
0
  5
129
 10
2524.68
 20
838.687
 30
0.000000
  70
    32
  0
VERTEX
  8
0
  5
12A
 10
2520.69
 20
829.440
 30
0.000000
  70
    32
  0
VERTEX
  8
0
  5
12B
 10
2516.91
 20
820.322
 30
0.000000
  70
    32
  0
VERTEX
  8
0
  5
12C
 10
2513.34
 20
811.331
 30
0.000000
  70
    32
  0
VERTEX
  8
0
  5
12D
 10
2509.96
 20
802.464
 30
0.000000
  70
    32
  0
VERTEX
  8
0
  5
12E
 10
2506.79
 20
793.720
 30
0.000000
  70
    32
  0
VERTEX
  8
0
  5
12F
 10
2503.82
 20
785.095
 30
0.000000
  70
    32
  0
VERTEX
  8
0
  5
130
 10
2501.04
 20
776.587
 30
0.000000
  70
    32
  0
VERTEX
  8
0
  5
131
 10
2498.44
 20
768.195
 30
0.000000
  70
    32
  0
VERTEX
  8
0
  5
132
 10
2496.04
 20
759.916
 30
0.000000
  70
    32
  0
VERTEX
  8
0
  5
133
 10
2493.81
 20
751.748
 30
0.000000
  70
    32
  0
VERTEX
  8
0
  5
134
 10
2491.77
 20
743.688
 30
0.000000
  70
    32
  0
VERTEX
  8
0
  5
135
 10
2489.90
 20
735.734
 30
0.000000
  70
    32
  0
VERTEX
  8
0
  5
136
 10
2488.20
 20
727.884
 30
0.000000
  70
    32
  0
VERTEX
  8
0
  5
137
 10
2486.67
 20
720.135
 30
0.000000
  70
    32
  0
VERTEX
  8
0
  5
138
 10
2485.30
 20
712.486
 30
0.000000
  70
    32
  0
VERTEX
  8
0
  5
139
 10
2484.10
 20
704.934
 30
0.000000
  70
    32
  0
VERTEX
  8
0
  5
13A
 10
2483.05
 20
697.477
 30
0.000000
  70
    32
  0
VERTEX
  8
0
  5
13B
 10
2482.16
 20
690.111
 30
0.000000
  70
    32
  0
VERTEX
  8
0
  5
13C
 10
2481.42
 20
682.837
 30
0.000000
  70
    32
  0
VERTEX
  8
0
  5
13D
 10
2480.82
 20
675.649
 30
0.000000
  70
    32
  0
VERTEX
  8
0
  5
13E
 10
2480.37
 20
668.548
 30
0.000000
  70
    32
  0
VERTEX
  8
0
  5
13F
 10
2480.06
 20
661.530
 30
0.000000
  70
    32
  0
VERTEX
  8
0
  5
140
 10
2479.89
 20
654.592
 30
0.000000
  70
    32
  0
VERTEX
  8
0
  5
141
 10
2479.85
 20
647.734
 30
0.000000
  70
    32
  0
VERTEX
  8
0
  5
142
 10
2479.94
 20
640.952
 30
0.000000
  70
    32
  0
VERTEX
  8
0
  5
143
 10
2480.15
 20
634.244
 30
0.000000
  70
    32
  0
VERTEX
  8
0
  5
144
 10
2480.49
 20
627.608
 30
0.000000
  70
    32
  0
VERTEX
  8
0
  5
145
 10
2480.95
 20
621.041
 30
0.000000
  70
    32
  0
VERTEX
  8
0
  5
146
 10
2481.52
 20
614.542
 30
0.000000
  70
    32
  0
VERTEX
  8
0
  5
147
 10
2482.21
 20
608.108
 30
0.000000
  70
    32
  0
VERTEX
  8
0
  5
148
 10
2483.00
 20
601.736
 30
0.000000
  70
    32
  0
VERTEX
  8
0
  5
149
 10
2483.90
 20
595.425
 30
0.000000
  70
    32
  0
VERTEX
  8
0
  5
14A
 10
2484.90
 20
589.172
 30
0.000000
  70
    32
  0
VERTEX
  8
0
  5
14B
 10
2486.00
 20
582.975
 30
0.000000
  70
    32
  0
VERTEX
  8
0
  5
14C
 10
2487.20
 20
576.832
 30
0.000000
  70
    32
  0
VERTEX
  8
0
  5
14D
 10
2488.48
 20
570.739
 30
0.000000
  70
    32
  0
VERTEX
  8
0
  5
14E
 10
2489.86
 20
564.696
 30
0.000000
  70
    32
  0
VERTEX
  8
0
  5
14F
 10
2491.31
 20
558.700
 30
0.000000
  70
    32
  0
VERTEX
  8
0
  5
150
 10
2492.85
 20
552.748
 30
0.000000
  70
    32
  0
VERTEX
  8
0
  5
151
 10
2494.47
 20
546.838
 30
0.000000
  70
    32
  0
VERTEX
  8
0
  5
152
 10
2496.16
 20
540.968
 30
0.000000
  70
    32
  0
VERTEX
  8
0
  5
153
 10
2497.91
 20
535.136
 30
0.000000
  70
    32
  0
VERTEX
  8
0
  5
154
 10
2499.74
 20
529.339
 30
0.000000
  70
    32
  0
VERTEX
  8
0
  5
155
 10
2501.63
 20
523.575
 30
0.000000
  70
    32
  0
VERTEX
  8
0
  5
156
 10
2503.58
 20
517.842
 30
0.000000
  70
    32
  0
VERTEX
  8
0
  5
157
 10
2505.58
 20
512.137
 30
0.000000
  70
    32
  0
VERTEX
  8
0
  5
158
 10
2507.64
 20
506.458
 30
0.000000
  70
    32
  0
VERTEX
  8
0
  5
159
 10
2509.75
 20
500.803
 30
0.000000
  70
    32
  0
VERTEX
  8
0
  5
15A
 10
2511.90
 20
495.170
 30
0.000000
  70
    32
  0
VERTEX
  8
0
  5
15B
 10
2514.10
 20
489.556
 30
0.000000
  70
    32
  0
VERTEX
  8
0
  5
15C
 10
2516.33
 20
483.960
 30
0.000000
  70
    32
  0
VERTEX
  8
0
  5
15D
 10
2518.60
 20
478.377
 30
0.000000
  70
    32
  0
VERTEX
  8
0
  5
15E
 10
2520.90
 20
472.808
 30
0.000000
  70
    32
  0
VERTEX
  8
0
  5
15F
 10
2523.23
 20
467.249
 30
0.000000
  70
    32
  0
VERTEX
  8
0
  5
160
 10
2525.58
 20
461.697
 30
0.000000
  70
    32
  0
VERTEX
  8
0
  5
161
 10
2527.96
 20
456.151
 30
0.000000
  70
    32
  0
VERTEX
  8
0
  5
162
 10
2530.35
 20
450.609
 30
0.000000
  70
    32
  0
VERTEX
  8
0
  5
163
 10
2532.76
 20
445.067
 30
0.000000
  70
    32
  0
VERTEX
  8
0
  5
164
 10
2535.17
 20
439.524
 30
0.000000
  70
    32
  0
VERTEX
  8
0
  5
165
 10
2537.60
 20
433.978
 30
0.000000
  70
    32
  0
VERTEX
  8
0
  5
166
 10
2540.03
 20
428.426
 30
0.000000
  70
    32
  0
VERTEX
  8
0
  5
167
 10
2542.45
 20
422.866
 30
0.000000
  70
    32
  0
VERTEX
  8
0
  5
168
 10
2544.88
 20
417.295
 30
0.000000
  70
    32
  0
VERTEX
  8
0
  5
169
 10
2547.30
 20
411.712
 30
0.000000
  70
    32
  0
VERTEX
  8
0
  5
16A
 10
2549.70
 20
406.114
 30
0.000000
  70
    32
  0
VERTEX
  8
0
  5
16B
 10
2552.10
 20
400.498
 30
0.000000
  70
    32
  0
VERTEX
  8
0
  5
16C
 10
2554.47
 20
394.863
 30
0.000000
  70
    32
  0
VERTEX
  8
0
  5
16D
 10
2556.83
 20
389.207
 30
0.000000
  70
    32
  0
VERTEX
  8
0
  5
16E
 10
2559.16
 20
383.526
 30
0.000000
  70
    32
  0
VERTEX
  8
0
  5
16F
 10
2561.46
 20
377.819
 30
0.000000
  70
    32
  0
VERTEX
  8
0
  5
170
 10
2563.74
 20
372.083
 30
0.000000
  70
    32
  0
VERTEX
  8
0
  5
171
 10
2565.97
 20
366.316
 30
0.000000
  70
    32
  0
VERTEX
  8
0
  5
172
 10
2568.17
 20
360.516
 30
0.000000
  70
    32
  0
VERTEX
  8
0
  5
173
 10
2570.33
 20
354.680
 30
0.000000
  70
    32
  0
VERTEX
  8
0
  5
174
 10
2572.44
 20
348.807
 30
0.000000
  70
    32
  0
VERTEX
  8
0
  5
175
 10
2574.50
 20
342.894
 30
0.000000
  70
    32
  0
VERTEX
  8
0
  5
176
 10
2576.52
 20
336.938
 30
0.000000
  70
    32
  0
VERTEX
  8
0
  5
177
 10
2578.47
 20
330.938
 30
0.000000
  70
    32
  0
VERTEX
  8
0
  5
178
 10
2580.36
 20
324.890
 30
0.000000
  70
    32
  0
VERTEX
  8
0
  5
179
 10
2582.20
 20
318.794
 30
0.000000
  70
    32
  0
VERTEX
  8
0
  5
17A
 10
2583.96
 20
312.646
 30
0.000000
  70
    32
  0
VERTEX
  8
0
  5
17B
 10
2585.66
 20
306.444
 30
0.000000
  70
    32
  0
VERTEX
  8
0
  5
17C
 10
2587.28
 20
300.186
 30
0.000000
  70
    32
  0
VERTEX
  8
0
  5
17D
 10
2588.83
 20
293.870
 30
0.000000
  70
    32
  0
VERTEX
  8
0
  5
17E
 10
2590.29
 20
287.493
 30
0.000000
  70
    32
  0
VERTEX
  8
0
  5
17F
 10
2591.68
 20
281.053
 30
0.000000
  70
    32
  0
VERTEX
  8
0
  5
180
 10
2592.97
 20
274.548
 30
0.000000
  70
    32
  0
VERTEX
  8
0
  5
181
 10
2594.17
 20
267.976
 30
0.000000
  70
    32
  0
VERTEX
  8
0
  5
182
 10
2595.28
 20
261.334
 30
0.000000
  70
    32
  0
VERTEX
  8
0
  5
183
 10
2596.29
 20
254.619
 30
0.000000
  70
    32
  0
VERTEX
  8
0
  5
184
 10
2597.20
 20
247.831
 30
0.000000
  70
    32
  0
VERTEX
  8
0
  5
185
 10
2598.01
 20
240.966
 30
0.000000
  70
    32
  0
VERTEX
  8
0
  5
186
 10
2598.70
 20
234.021
 30
0.000000
  70
    32
  0
VERTEX
  8
0
  5
187
 10
2599.29
 20
226.996
 30
0.000000
  70
    32
  0
VERTEX
  8
0
  5
188
 10
2599.76
 20
219.887
 30
0.000000
  70
    32
  0
VERTEX
  8
0
  5
189
 10
2600.11
 20
212.693
 30
0.000000
  70
    32
  0
VERTEX
  8
0
  5
18A
 10
2600.34
 20
205.410
 30
0.000000
  70
    32
  0
VERTEX
  8
0
  5
18B
 10
2600.44
 20
198.037
 30
0.000000
  70
    32
  0
VERTEX
  8
0
  5
18C
 10
2600.41
 20
190.571
 30
0.000000
  70
    32
  0
VERTEX
  8
0
  5
18D
 10
2600.25
 20
183.011
 30
0.000000
  70
    32
  0
VERTEX
  8
0
  5
18E
 10
2599.95
 20
175.353
 30
0.000000
  70
    32
  0
VERTEX
  8
0
  5
18F
 10
2599.52
 20
167.596
 30
0.000000
  70
    32
  0
VERTEX
  8
0
  5
190
 10
2598.94
 20
159.737
 30
0.000000
  70
    32
  0
VERTEX
  8
0
  5
191
 10
2598.21
 20
151.774
 30
0.000000
  70
    32
  0
VERTEX
  8
0
  5
192
 10
2597.33
 20
143.705
 30
0.000000
  70
    32
  0
VERTEX
  8
0
  5
193
 10
2596.30
 20
135.527
 30
0.000000
  70
    32
  0
VERTEX
  8
0
  5
194
 10
2595.11
 20
127.238
 30
0.000000
  70
    32
  0
VERTEX
  8
0
  5
195
 10
2593.76
 20
118.836
 30
0.000000
  70
    32
  0
VERTEX
  8
0
  5
196
 10
2592.25
 20
110.319
 30
0.000000
  70
    32
  0
VERTEX
  8
0
  5
197
 10
2590.57
 20
101.684
 30
0.000000
  70
    32
  0
VERTEX
  8
0
  5
198
 10
2588.71
 20
92.9284
 30
0.000000
  70
    32
  0
VERTEX
  8
0
  5
199
 10
2586.68
 20
84.0509
 30
0.000000
  70
    32
  0
VERTEX
  8
0
  5
19A
 10
2584.48
 20
75.0489
 30
0.000000
  70
    32
  0
VERTEX
  8
0
  5
19B
 10
2582.09
 20
65.9199
 30
0.000000
  70
    32
  0
VERTEX
  8
0
  5
19C
 10
2579.51
 20
56.6617
 30
0.000000
  70
    32
  0
VERTEX
  8
0
  5
19D
 10
2576.75
 20
47.2721
 30
0.000000
  70
    32
  0
VERTEX
  8
0
  5
19E
 10
2573.80
 20
37.7488
 30
0.000000
  70
    32
  0
VERTEX
  8
0
  5
19F
 10
2570.64
 20
28.0895
 30
0.000000
  70
    32
  0
SEQEND
  8
0
  5
1A0
  0
LINE
  5
90
  8
0
  6
CONTINUOUS
 62
     5
 10
2630.6434883088709
 20
928.08945363364705
 30
0.0
 11
2570.6434883088709
 21
928.08945363364705
 31
0.0
  0
POLYLINE
  8
0
  5
1A1
  62
5
  66
     1
 10
0.000000
 20
0.000000
 30
0.000000
  70
     8
  0
VERTEX
  8
0
  5
1A2
 10
2610.64
 20
28.0895
 30
0.000000
  70
    32
  0
VERTEX
  8
0
  5
1A3
 10
2613.37
 20
37.2970
 30
0.000000
  70
    32
  0
VERTEX
  8
0
  5
1A4
 10
2615.94
 20
46.3922
 30
0.000000
  70
    32
  0
VERTEX
  8
0
  5
1A5
 10
2618.34
 20
55.3770
 30
0.000000
  70
    32
  0
VERTEX
  8
0
  5
1A6
 10
2620.58
 20
64.2533
 30
0.000000
  70
    32
  0
VERTEX
  8
0
  5
1A7
 10
2622.67
 20
73.0229
 30
0.000000
  70
    32
  0
VERTEX
  8
0
  5
1A8
 10
2624.61
 20
81.6878
 30
0.000000
  70
    32
  0
VERTEX
  8
0
  5
1A9
 10
2626.39
 20
90.2497
 30
0.000000
  70
    32
  0
VERTEX
  8
0
  5
1AA
 10
2628.03
 20
98.7107
 30
0.000000
  70
    32
  0
VERTEX
  8
0
  5
1AB
 10
2629.53
 20
107.073
 30
0.000000
  70
    32
  0
VERTEX
  8
0
  5
1AC
 10
2630.89
 20
115.337
 30
0.000000
  70
    32
  0
VERTEX
  8
0
  5
1AD
 10
2632.10
 20
123.507
 30
0.000000
  70
    32
  0
VERTEX
  8
0
  5
1AE
 10
2633.19
 20
131.583
 30
0.000000
  70
    32
  0
VERTEX
  8
0
  5
1AF
 10
2634.14
 20
139.567
 30
0.000000
  70
    32
  0
VERTEX
  8
0
  5
1B0
 10
2634.96
 20
147.462
 30
0.000000
  70
    32
  0
VERTEX
  8
0
  5
1B1
 10
2635.66
 20
155.269
 30
0.000000
  70
    32
  0
VERTEX
  8
0
  5
1B2
 10
2636.23
 20
162.990
 30
0.000000
  70
    32
  0
VERTEX
  8
0
  5
1B3
 10
2636.69
 20
170.627
 30
0.000000
  70
    32
  0
VERTEX
  8
0
  5
1B4
 10
2637.02
 20
178.182
 30
0.000000
  70
    32
  0
VERTEX
  8
0
  5
1B5
 10
2637.25
 20
185.656
 30
0.000000
  70
    32
  0
VERTEX
  8
0
  5
1B6
 10
2637.36
 20
193.053
 30
0.000000
  70
    32
  0
VERTEX
  8
0
  5
1B7
 10
2637.36
 20
200.373
 30
0.000000
  70
    32
  0
VERTEX
  8
0
  5
1B8
 10
2637.26
 20
207.618
 30
0.000000
  70
    32
  0
VERTEX
  8
0
  5
1B9
 10
2637.06
 20
214.791
 30
0.000000
  70
    32
  0
VERTEX
  8
0
  5
1BA
 10
2636.75
 20
221.893
 30
0.000000
  70
    32
  0
VERTEX
  8
0
  5
1BB
 10
2636.36
 20
228.926
 30
0.000000
  70
    32
  0
VERTEX
  8
0
  5
1BC
 10
2635.86
 20
235.892
 30
0.000000
  70
    32
  0
VERTEX
  8
0
  5
1BD
 10
2635.28
 20
242.792
 30
0.000000
  70
    32
  0
VERTEX
  8
0
  5
1BE
 10
2634.61
 20
249.630
 30
0.000000
  70
    32
  0
VERTEX
  8
0
  5
1BF
 10
2633.86
 20
256.406
 30
0.000000
  70
    32
  0
VERTEX
  8
0
  5
1C0
 10
2633.02
 20
263.123
 30
0.000000
  70
    32
  0
VERTEX
  8
0
  5
1C1
 10
2632.11
 20
269.782
 30
0.000000
  70
    32
  0
VERTEX
  8
0
  5
1C2
 10
2631.12
 20
276.386
 30
0.000000
  70
    32
  0
VERTEX
  8
0
  5
1C3
 10
2630.06
 20
282.936
 30
0.000000
  70
    32
  0
VERTEX
  8
0
  5
1C4
 10
2628.93
 20
289.433
 30
0.000000
  70
    32
  0
VERTEX
  8
0
  5
1C5
 10
2627.73
 20
295.881
 30
0.000000
  70
    32
  0
VERTEX
  8
0
  5
1C6
 10
2626.47
 20
302.281
 30
0.000000
  70
    32
  0
VERTEX
  8
0
  5
1C7
 10
2625.15
 20
308.634
 30
0.000000
  70
    32
  0
VERTEX
  8
0
  5
1C8
 10
2623.77
 20
314.943
 30
0.000000
  70
    32
  0
VERTEX
  8
0
  5
1C9
 10
2622.34
 20
321.210
 30
0.000000
  70
    32
  0
VERTEX
  8
0
  5
1CA
 10
2620.85
 20
327.436
 30
0.000000
  70
    32
  0
VERTEX
  8
0
  5
1CB
 10
2619.32
 20
333.623
 30
0.000000
  70
    32
  0
VERTEX
  8
0
  5
1CC
 10
2617.74
 20
339.774
 30
0.000000
  70
    32
  0
VERTEX
  8
0
  5
1CD
 10
2616.12
 20
345.889
 30
0.000000
  70
    32
  0
VERTEX
  8
0
  5
1CE
 10
2614.45
 20
351.972
 30
0.000000
  70
    32
  0
VERTEX
  8
0
  5
1CF
 10
2612.76
 20
358.023
 30
0.000000
  70
    32
  0
VERTEX
  8
0
  5
1D0
 10
2611.02
 20
364.046
 30
0.000000
  70
    32
  0
VERTEX
  8
0
  5
1D1
 10
2609.26
 20
370.040
 30
0.000000
  70
    32
  0
VERTEX
  8
0
  5
1D2
 10
2607.47
 20
376.010
 30
0.000000
  70
    32
  0
VERTEX
  8
0
  5
1D3
 10
2605.65
 20
381.955
 30
0.000000
  70
    32
  0
VERTEX
  8
0
  5
1D4
 10
2603.81
 20
387.879
 30
0.000000
  70
    32
  0
VERTEX
  8
0
  5
1D5
 10
2601.95
 20
393.783
 30
0.000000
  70
    32
  0
VERTEX
  8
0
  5
1D6
 10
2600.08
 20
399.670
 30
0.000000
  70
    32
  0
VERTEX
  8
0
  5
1D7
 10
2598.19
 20
405.540
 30
0.000000
  70
    32
  0
VERTEX
  8
0
  5
1D8
 10
2596.29
 20
411.396
 30
0.000000
  70
    32
  0
VERTEX
  8
0
  5
1D9
 10
2594.39
 20
417.239
 30
0.000000
  70
    32
  0
VERTEX
  8
0
  5
1DA
 10
2592.48
 20
423.073
 30
0.000000
  70
    32
  0
VERTEX
  8
0
  5
1DB
 10
2590.57
 20
428.898
 30
0.000000
  70
    32
  0
VERTEX
  8
0
  5
1DC
 10
2588.66
 20
434.716
 30
0.000000
  70
    32
  0
VERTEX
  8
0
  5
1DD
 10
2586.76
 20
440.529
 30
0.000000
  70
    32
  0
VERTEX
  8
0
  5
1DE
 10
2584.86
 20
446.340
 30
0.000000
  70
    32
  0
VERTEX
  8
0
  5
1DF
 10
2582.98
 20
452.150
 30
0.000000
  70
    32
  0
VERTEX
  8
0
  5
1E0
 10
2581.10
 20
457.960
 30
0.000000
  70
    32
  0
VERTEX
  8
0
  5
1E1
 10
2579.25
 20
463.774
 30
0.000000
  70
    32
  0
VERTEX
  8
0
  5
1E2
 10
2577.41
 20
469.592
 30
0.000000
  70
    32
  0
VERTEX
  8
0
  5
1E3
 10
2575.60
 20
475.417
 30
0.000000
  70
    32
  0
VERTEX
  8
0
  5
1E4
 10
2573.81
 20
481.250
 30
0.000000
  70
    32
  0
VERTEX
  8
0
  5
1E5
 10
2572.05
 20
487.094
 30
0.000000
  70
    32
  0
VERTEX
  8
0
  5
1E6
 10
2570.32
 20
492.950
 30
0.000000
  70
    32
  0
VERTEX
  8
0
  5
1E7
 10
2568.63
 20
498.820
 30
0.000000
  70
    32
  0
VERTEX
  8
0
  5
1E8
 10
2566.97
 20
504.706
 30
0.000000
  70
    32
  0
VERTEX
  8
0
  5
1E9
 10
2565.36
 20
510.610
 30
0.000000
  70
    32
  0
VERTEX
  8
0
  5
1EA
 10
2563.78
 20
516.534
 30
0.000000
  70
    32
  0
VERTEX
  8
0
  5
1EB
 10
2562.26
 20
522.479
 30
0.000000
  70
    32
  0
VERTEX
  8
0
  5
1EC
 10
2560.78
 20
528.449
 30
0.000000
  70
    32
  0
VERTEX
  8
0
  5
1ED
 10
2559.35
 20
534.443
 30
0.000000
  70
    32
  0
VERTEX
  8
0
  5
1EE
 10
2557.98
 20
540.465
 30
0.000000
  70
    32
  0
VERTEX
  8
0
  5
1EF
 10
2556.67
 20
546.516
 30
0.000000
  70
    32
  0
VERTEX
  8
0
  5
1F0
 10
2555.42
 20
552.599
 30
0.000000
  70
    32
  0
VERTEX
  8
0
  5
1F1
 10
2554.23
 20
558.714
 30
0.000000
  70
    32
  0
VERTEX
  8
0
  5
1F2
 10
2553.11
 20
564.865
 30
0.000000
  70
    32
  0
VERTEX
  8
0
  5
1F3
 10
2552.06
 20
571.052
 30
0.000000
  70
    32
  0
VERTEX
  8
0
  5
1F4
 10
2551.08
 20
577.277
 30
0.000000
  70
    32
  0
VERTEX
  8
0
  5
1F5
 10
2550.18
 20
583.544
 30
0.000000
  70
    32
  0
VERTEX
  8
0
  5
1F6
 10
2549.36
 20
589.853
 30
0.000000
  70
    32
  0
VERTEX
  8
0
  5
1F7
 10
2548.62
 20
596.206
 30
0.000000
  70
    32
  0
VERTEX
  8
0
  5
1F8
 10
2547.96
 20
602.605
 30
0.000000
  70
    32
  0
VERTEX
  8
0
  5
1F9
 10
2547.39
 20
609.053
 30
0.000000
  70
    32
  0
VERTEX
  8
0
  5
1FA
 10
2546.92
 20
615.551
 30
0.000000
  70
    32
  0
VERTEX
  8
0
  5
1FB
 10
2546.53
 20
622.100
 30
0.000000
  70
    32
  0
VERTEX
  8
0
  5
1FC
 10
2546.24
 20
628.703
 30
0.000000
  70
    32
  0
VERTEX
  8
0
  5
1FD
 10
2546.06
 20
635.362
 30
0.000000
  70
    32
  0
VERTEX
  8
0
  5
1FE
 10
2545.97
 20
642.079
 30
0.000000
  70
    32
  0
VERTEX
  8
0
  5
1FF
 10
2545.99
 20
648.855
 30
0.000000
  70
    32
  0
VERTEX
  8
0
  5
200
 10
2546.12
 20
655.692
 30
0.000000
  70
    32
  0
VERTEX
  8
0
  5
201
 10
2546.36
 20
662.593
 30
0.000000
  70
    32
  0
VERTEX
  8
0
  5
202
 10
2546.71
 20
669.558
 30
0.000000
  70
    32
  0
VERTEX
  8
0
  5
203
 10
2547.19
 20
676.591
 30
0.000000
  70
    32
  0
VERTEX
  8
0
  5
204
 10
2547.78
 20
683.693
 30
0.000000
  70
    32
  0
VERTEX
  8
0
  5
205
 10
2548.49
 20
690.865
 30
0.000000
  70
    32
  0
VERTEX
  8
0
  5
206
 10
2549.34
 20
698.110
 30
0.000000
  70
    32
  0
VERTEX
  8
0
  5
207
 10
2550.31
 20
705.429
 30
0.000000
  70
    32
  0
VERTEX
  8
0
  5
208
 10
2551.41
 20
712.825
 30
0.000000
  70
    32
  0
VERTEX
  8
0
  5
209
 10
2552.65
 20
720.300
 30
0.000000
  70
    32
  0
VERTEX
  8
0
  5
20A
 10
2554.03
 20
727.854
 30
0.000000
  70
    32
  0
VERTEX
  8
0
  5
20B
 10
2555.54
 20
735.491
 30
0.000000
  70
    32
  0
VERTEX
  8
0
  5
20C
 10
2557.21
 20
743.212
 30
0.000000
  70
    32
  0
VERTEX
  8
0
  5
20D
 10
2559.01
 20
751.018
 30
0.000000
  70
    32
  0
VERTEX
  8
0
  5
20E
 10
2560.97
 20
758.912
 30
0.000000
  70
    32
  0
VERTEX
  8
0
  5
20F
 10
2563.09
 20
766.896
 30
0.000000
  70
    32
  0
VERTEX
  8
0
  5
210
 10
2565.35
 20
774.972
 30
0.000000
  70
    32
  0
VERTEX
  8
0
  5
211
 10
2567.78
 20
783.141
 30
0.000000
  70
    32
  0
VERTEX
  8
0
  5
212
 10
2570.37
 20
791.405
 30
0.000000
  70
    32
  0
VERTEX
  8
0
  5
213
 10
2573.12
 20
799.766
 30
0.000000
  70
    32
  0
VERTEX
  8
0
  5
214
 10
2576.04
 20
808.227
 30
0.000000
  70
    32
  0
VERTEX
  8
0
  5
215
 10
2579.14
 20
816.788
 30
0.000000
  70
    32
  0
VERTEX
  8
0
  5
216
 10
2582.40
 20
825.453
 30
0.000000
  70
    32
  0
VERTEX
  8
0
  5
217
 10
2585.84
 20
834.222
 30
0.000000
  70
    32
  0
VERTEX
  8
0
  5
218
 10
2589.47
 20
843.097
 30
0.000000
  70
    32
  0
VERTEX
  8
0
  5
219
 10
2593.27
 20
852.082
 30
0.000000
  70
    32
  0
VERTEX
  8
0
  5
21A
 10
2597.26
 20
861.176
 30
0.000000
  70
    32
  0
VERTEX
  8
0
  5
21B
 10
2601.44
 20
870.383
 30
0.000000
  70
    32
  0
VERTEX
  8
0
  5
21C
 10
2605.81
 20
879.705
 30
0.000000
  70
    32
  0
VERTEX
  8
0
  5
21D
 10
2610.38
 20
889.142
 30
0.000000
  70
    32
  0
VERTEX
  8
0
  5
21E
 10
2615.14
 20
898.697
 30
0.000000
  70
    32
  0
VERTEX
  8
0
  5
21F
 10
2620.10
 20
908.372
 30
0.000000
  70
    32
  0
VERTEX
  8
0
  5
220
 10
2625.27
 20
918.169
 30
0.000000
  70
    32
  0
VERTEX
  8
0
  5
221
 10
2630.64
 20
928.089
 30
0.000000
  70
    32
  0
SEQEND
  8
0
  5
222
  0
LINE
  5
92
  8
0
  6
CONTINUOUS
 62
     5
 10
1616.0224853955351
 20
1317.572172058799
 30
0.0
 11
1635.436992263418
 21
1330.5151766373881
 31
0.0
  0
LINE
  5
93
  8
0
  6
CONTINUOUS
 62
     5
 10
1635.436992263418
 20
754.55218514048147
 30
0.0
 11
1616.022485395536
 21
767.49518971906957
 31
0.0
  0
LINE
  5
94
  8
0
  6
CONTINUOUS
 62
     5
 10
1616.022485395536
 20
767.49518971906957
 30
0.0
 11
1604.9284814710311
 21
750.85418383231286
 31
0.0
  0
LINE
  5
95
  8
0
  6
CONTINUOUS
 62
     5
 10
1604.9284814710311
 20
750.85418383231286
 30
0.0
 11
1617.4092358860989
 21
742.53368088893399
 31
0.0
  0
LINE
  5
96
  8
0
  6
CONTINUOUS
 62
     5
 10
753.46474864073855
 20
742.53368088893399
 30
0.0
 11
765.94550305580617
 21
750.85418383231229
 31
0.0
  0
LINE
  5
97
  8
0
  6
CONTINUOUS
 62
     5
 10
765.94550305580617
 20
750.85418383231229
 30
0.0
 11
754.85149913130147
 21
767.49518971906923
 31
0.0
  0
LINE
  5
98
  8
0
  6
CONTINUOUS
 62
     5
 10
754.85149913130147
 20
767.49518971906923
 30
0.0
 11
735.43699226341835
 21
754.55218514048056
 31
0.0
  0
LINE
  5
99
  8
0
  6
CONTINUOUS
 62
     5
 10
735.43699226341835
 20
1330.515176637387
 30
0.0
 11
754.85149913130135
 21
1317.5721720587981
 31
0.0
  0
LINE
  5
9A
  8
0
  6
CONTINUOUS
 62
     5
 10
754.85149913130135
 20
1317.5721720587981
 30
0.0
 11
765.94550305580594
 21
1334.2131779455549
 31
0.0
  0
LINE
  5
9B
  8
0
  6
CONTINUOUS
 62
     5
 10
765.94550305580594
 20
1334.2131779455549
 30
0.0
 11
753.46474864073855
 21
1342.533680888934
 31
0.0
  0
LINE
  5
9C
  8
0
  6
CONTINUOUS
 62
     5
 10
1617.4092358860969
 20
1342.533680888934
 30
0.0
 11
1604.9284814710311
 21
1334.213177945556
 31
0.0
  0
LINE
  5
9D
  8
0
  6
CONTINUOUS
 62
     5
 10
1604.9284814710311
 20
1334.213177945556
 30
0.0
 11
1616.0224853955351
 21
1317.572172058799
 31
0.0
  0
LINE
  5
9E
  8
0
  6
CONTINUOUS
 62
     5
 10
753.46474864073855
 20
742.53368088893399
 30
0.0
 11
1617.4092358860989
 21
742.53368088893399
 31
0.0
  0
LINE
  5
9F
  8
0
  6
CONTINUOUS
 62
     5
 10
735.43699226341835
 20
1330.515176637387
 30
0.0
 11
735.43699226341835
 21
754.55218514048056
 31
0.0
  0
LINE
  5
A0
  8
0
  6
CONTINUOUS
 62
     5
 10
1617.4092358860969
 20
1342.533680888934
 30
0.0
 11
753.46474864073855
 21
1342.533680888934
 31
0.0
  0
LINE
  5
A1
  8
0
  6
CONTINUOUS
 62
     5
 10
1635.436992263418
 20
754.55218514048147
 30
0.0
 11
1635.436992263418
 21
1330.5151766373881
 31
0.0
  0
LINE
  5
A2
  8
0
  6
CONTINUOUS
 62
     5
 10
1669.355553312002
 20
1254.5424469943889
 30
0.0
 11
1647.115576489276
 21
1269.36909820954
 31
0.0
  0
LINE
  5
A3
  8
0
  6
CONTINUOUS
 62
     5
 10
1680.449557236507
 20
1271.183452881146
 30
0.0
 11
1669.355553312002
 21
1254.5424469943889
 31
0.0
  0
LINE
  5
A4
  8
0
  6
CONTINUOUS
 62
     5
 10
1658.20958041378
 20
1286.010104096297
 30
0.0
 11
1680.449557236507
 21
1271.183452881146
 31
0.0
  0
LINE
  5
A5
  8
0
  6
CONTINUOUS
 62
     5
 10
2433.8164762720671
 20
1286.0101963451041
 30
0.0
 11
1658.20958041378
 21
1286.010104096297
 31
0.0
  0
LINE
  5
A6
  8
0
  6
CONTINUOUS
 62
     5
 10
2411.5764994493411
 20
1271.183545129953
 30
0.0
 11
2433.8164762720671
 21
1286.0101963451041
 31
0.0
  0
LINE
  5
A7
  8
0
  6
CONTINUOUS
 62
     5
 10
2422.670504135081
 20
1254.5425381013431
 30
0.0
 11
2411.5764994493411
 21
1271.183545129953
 31
0.0
  0
LINE
  5
A8
  8
0
  6
CONTINUOUS
 62
     5
 10
2444.9104801965709
 20
1269.3691888090029
 30
0.0
 11
2422.670504135081
 21
1254.5425381013431
 31
0.0
  0
LINE
  5
A9
  8
0
  6
CONTINUOUS
 62
     5
 10
2444.9105405962141
 20
761.54279730800772
 30
0.0
 11
2444.9104801965709
 21
1269.3691888090029
 31
0.0
  0
LINE
  5
AA
  8
0
  6
CONTINUOUS
 62
     5
 10
2422.6703957517038
 20
776.36956053767585
 30
0.0
 11
2444.9105405962141
 21
761.54279730800772
 31
0.0
  0
LINE
  5
AB
  8
0
  6
CONTINUOUS
 62
     5
 10
2411.5764390497002
 20
759.72862548466992
 30
0.0
 11
2422.6703957517038
 21
776.36956053767585
 31
0.0
  0
LINE
  5
AC
  8
0
  6
CONTINUOUS
 62
     5
 10
2433.8164158724262
 20
744.90197426951909
 30
0.0
 11
2411.5764390497002
 21
759.72862548466992
 31
0.0
  0
LINE
  5
AD
  8
0
  6
CONTINUOUS
 62
     5
 10
1658.20952001414
 20
744.90188202071158
 30
0.0
 11
2433.8164158724262
 21
744.90197426951909
 31
0.0
  0
LINE
  5
AE
  8
0
  6
CONTINUOUS
 62
     5
 10
1680.449496836866
 20
759.72853323586241
 30
0.0
 11
1658.20952001414
 21
744.90188202071158
 31
0.0
  0
LINE
  5
AF
  8
0
  6
CONTINUOUS
 62
     5
 10
1669.3556137116441
 20
776.36935792369559
 30
0.0
 11
1680.449496836866
 21
759.72853323586241
 31
0.0
  0
LINE
  5
B0
  8
0
  6
CONTINUOUS
 62
     5
 10
1647.1156368889181
 20
761.54270670854453
 30
0.0
 11
1669.3556137116441
 21
776.36935792369559
 31
0.0
  0
LINE
  5
B1
  8
0
  6
CONTINUOUS
 62
     5
 10
1647.115576489276
 20
1269.36909820954
 30
0.0
 11
1647.1156368889181
 21
761.54270670854453
 31
0.0
  0
ARC
  5
B2
  8
0
  6
CONTINUOUS
 62
     5
 10
1456.4624991311489
 20
39.866460200663873
 30
0.0
 40
10.0
 50
180.0
 51
270.0000000000008
  0
ARC
  5
B3
  8
0
  6
CONTINUOUS
 62
     5
 10
1456.4624991311489
 20
719.86646020066382
 30
0.0
 40
10.0
 50
90.0
 51
180.0
  0
ARC
  5
B4
  8
0
  6
CONTINUOUS
 62
     5
 10
2436.4624991311498
 20
719.86646020066382
 30
0.0
 40
10.0
 50
0.0
 51
90.0
  0
ARC
  5
B5
  8
0
  6
CONTINUOUS
 62
     5
 10
2436.4624991311489
 20
39.866460200663873
 30
0.0
 40
10.000000000000449
 50
270.00000000000341
 51
0.0
  0
LINE
  5
B6
  8
0
  6
CONTINUOUS
 62
     5
 10
1456.4624991311489
 20
29.866460200663859
 30
0.0
 11
2436.4624991311498
 21
29.866460200663859
 31
0.0
  0
LINE
  5
B7
  8
0
  6
CONTINUOUS
 62
     5
 10
1446.4624991311489
 20
719.86646020066382
 30
0.0
 11
1446.4624991311489
 21
39.866460200663873
 31
0.0
  0
LINE
  5
B8
  8
0
  6
CONTINUOUS
 62
     5
 10
2436.4624991311498
 20
729.86646020066382
 30
0.0
 11
1456.4624991311489
 21
729.86646020066382
 31
0.0
  0
LINE
  5
B9
  8
0
  6
CONTINUOUS
 62
     5
 10
2446.4624991311498
 20
39.866460200663873
 30
0.0
 11
2446.4624991311498
 21
719.86646020066382
 31
0.0
  0
LINE
  5
D5
  8
0
  6
CONTINUOUS
 62
     5
 10
2674.761186844371
 20
32.089630594714762
 30
0.0
 11
2714.761186844371
 21
32.089630594715317
 31
0.0
  0
POLYLINE
  8
0
  5
223
  62
5
  66
     1
 10
0.000000
 20
0.000000
 30
0.000000
  70
     8
  0
VERTEX
  8
0
  5
224
 10
2674.76
 20
932.090
 30
0.000000
  70
    32
  0
VERTEX
  8
0
  5
225
 10
2668.72
 20
921.579
 30
0.000000
  70
    32
  0
VERTEX
  8
0
  5
226
 10
2662.92
 20
911.218
 30
0.000000
  70
    32
  0
VERTEX
  8
0
  5
227
 10
2657.36
 20
901.005
 30
0.000000
  70
    32
  0
VERTEX
  8
0
  5
228
 10
2652.03
 20
890.936
 30
0.000000
  70
    32
  0
VERTEX
  8
0
  5
229
 10
2646.94
 20
881.010
 30
0.000000
  70
    32
  0
VERTEX
  8
0
  5
22A
 10
2642.07
 20
871.225
 30
0.000000
  70
    32
  0
VERTEX
  8
0
  5
22B
 10
2637.43
 20
861.577
 30
0.000000
  70
    32
  0
VERTEX
  8
0
  5
22C
 10
2633.00
 20
852.065
 30
0.000000
  70
    32
  0
VERTEX
  8
0
  5
22D
 10
2628.80
 20
842.687
 30
0.000000
  70
    32
  0
VERTEX
  8
0
  5
22E
 10
2624.81
 20
833.440
 30
0.000000
  70
    32
  0
VERTEX
  8
0
  5
22F
 10
2621.03
 20
824.322
 30
0.000000
  70
    32
  0
VERTEX
  8
0
  5
230
 10
2617.45
 20
815.331
 30
0.000000
  70
    32
  0
VERTEX
  8
0
  5
231
 10
2614.08
 20
806.464
 30
0.000000
  70
    32
  0
VERTEX
  8
0
  5
232
 10
2610.91
 20
797.720
 30
0.000000
  70
    32
  0
VERTEX
  8
0
  5
233
 10
2607.94
 20
789.095
 30
0.000000
  70
    32
  0
VERTEX
  8
0
  5
234
 10
2605.15
 20
780.587
 30
0.000000
  70
    32
  0
VERTEX
  8
0
  5
235
 10
2602.56
 20
772.195
 30
0.000000
  70
    32
  0
VERTEX
  8
0
  5
236
 10
2600.16
 20
763.916
 30
0.000000
  70
    32
  0
VERTEX
  8
0
  5
237
 10
2597.93
 20
755.748
 30
0.000000
  70
    32
  0
VERTEX
  8
0
  5
238
 10
2595.88
 20
747.688
 30
0.000000
  70
    32
  0
VERTEX
  8
0
  5
239
 10
2594.01
 20
739.734
 30
0.000000
  70
    32
  0
VERTEX
  8
0
  5
23A
 10
2592.32
 20
731.884
 30
0.000000
  70
    32
  0
VERTEX
  8
0
  5
23B
 10
2590.79
 20
724.136
 30
0.000000
  70
    32
  0
VERTEX
  8
0
  5
23C
 10
2589.42
 20
716.486
 30
0.000000
  70
    32
  0
VERTEX
  8
0
  5
23D
 10
2588.21
 20
708.934
 30
0.000000
  70
    32
  0
VERTEX
  8
0
  5
23E
 10
2587.17
 20
701.477
 30
0.000000
  70
    32
  0
VERTEX
  8
0
  5
23F
 10
2586.28
 20
694.112
 30
0.000000
  70
    32
  0
VERTEX
  8
0
  5
240
 10
2585.53
 20
686.837
 30
0.000000
  70
    32
  0
VERTEX
  8
0
  5
241
 10
2584.94
 20
679.650
 30
0.000000
  70
    32
  0
VERTEX
  8
0
  5
242
 10
2584.49
 20
672.548
 30
0.000000
  70
    32
  0
VERTEX
  8
0
  5
243
 10
2584.18
 20
665.530
 30
0.000000
  70
    32
  0
VERTEX
  8
0
  5
244
 10
2584.01
 20
658.593
 30
0.000000
  70
    32
  0
VERTEX
  8
0
  5
245
 10
2583.97
 20
651.734
 30
0.000000
  70
    32
  0
VERTEX
  8
0
  5
246
 10
2584.05
 20
644.952
 30
0.000000
  70
    32
  0
VERTEX
  8
0
  5
247
 10
2584.27
 20
638.244
 30
0.000000
  70
    32
  0
VERTEX
  8
0
  5
248
 10
2584.61
 20
631.608
 30
0.000000
  70
    32
  0
VERTEX
  8
0
  5
249
 10
2585.07
 20
625.041
 30
0.000000
  70
    32
  0
VERTEX
  8
0
  5
24A
 10
2585.64
 20
618.542
 30
0.000000
  70
    32
  0
VERTEX
  8
0
  5
24B
 10
2586.33
 20
612.108
 30
0.000000
  70
    32
  0
VERTEX
  8
0
  5
24C
 10
2587.12
 20
605.736
 30
0.000000
  70
    32
  0
VERTEX
  8
0
  5
24D
 10
2588.02
 20
599.425
 30
0.000000
  70
    32
  0
VERTEX
  8
0
  5
24E
 10
2589.02
 20
593.172
 30
0.000000
  70
    32
  0
VERTEX
  8
0
  5
24F
 10
2590.12
 20
586.975
 30
0.000000
  70
    32
  0
VERTEX
  8
0
  5
250
 10
2591.31
 20
580.832
 30
0.000000
  70
    32
  0
VERTEX
  8
0
  5
251
 10
2592.60
 20
574.740
 30
0.000000
  70
    32
  0
VERTEX
  8
0
  5
252
 10
2593.97
 20
568.697
 30
0.000000
  70
    32
  0
VERTEX
  8
0
  5
253
 10
2595.43
 20
562.700
 30
0.000000
  70
    32
  0
VERTEX
  8
0
  5
254
 10
2596.97
 20
556.748
 30
0.000000
  70
    32
  0
VERTEX
  8
0
  5
255
 10
2598.58
 20
550.838
 30
0.000000
  70
    32
  0
VERTEX
  8
0
  5
256
 10
2600.27
 20
544.968
 30
0.000000
  70
    32
  0
VERTEX
  8
0
  5
257
 10
2602.03
 20
539.136
 30
0.000000
  70
    32
  0
VERTEX
  8
0
  5
258
 10
2603.86
 20
533.339
 30
0.000000
  70
    32
  0
VERTEX
  8
0
  5
259
 10
2605.75
 20
527.575
 30
0.000000
  70
    32
  0
VERTEX
  8
0
  5
25A
 10
2607.70
 20
521.842
 30
0.000000
  70
    32
  0
VERTEX
  8
0
  5
25B
 10
2609.70
 20
516.137
 30
0.000000
  70
    32
  0
VERTEX
  8
0
  5
25C
 10
2611.76
 20
510.458
 30
0.000000
  70
    32
  0
VERTEX
  8
0
  5
25D
 10
2613.87
 20
504.804
 30
0.000000
  70
    32
  0
VERTEX
  8
0
  5
25E
 10
2616.02
 20
499.170
 30
0.000000
  70
    32
  0
VERTEX
  8
0
  5
25F
 10
2618.21
 20
493.557
 30
0.000000
  70
    32
  0
VERTEX
  8
0
  5
260
 10
2620.45
 20
487.960
 30
0.000000
  70
    32
  0
VERTEX
  8
0
  5
261
 10
2622.72
 20
482.378
 30
0.000000
  70
    32
  0
VERTEX
  8
0
  5
262
 10
2625.02
 20
476.808
 30
0.000000
  70
    32
  0
VERTEX
  8
0
  5
263
 10
2627.35
 20
471.249
 30
0.000000
  70
    32
  0
VERTEX
  8
0
  5
264
 10
2629.70
 20
465.697
 30
0.000000
  70
    32
  0
VERTEX
  8
0
  5
265
 10
2632.07
 20
460.151
 30
0.000000
  70
    32
  0
VERTEX
  8
0
  5
266
 10
2634.47
 20
454.609
 30
0.000000
  70
    32
  0
VERTEX
  8
0
  5
267
 10
2636.87
 20
449.067
 30
0.000000
  70
    32
  0
VERTEX
  8
0
  5
268
 10
2639.29
 20
443.524
 30
0.000000
  70
    32
  0
VERTEX
  8
0
  5
269
 10
2641.71
 20
437.978
 30
0.000000
  70
    32
  0
VERTEX
  8
0
  5
26A
 10
2644.14
 20
432.426
 30
0.000000
  70
    32
  0
VERTEX
  8
0
  5
26B
 10
2646.57
 20
426.866
 30
0.000000
  70
    32
  0
VERTEX
  8
0
  5
26C
 10
2649.00
 20
421.295
 30
0.000000
  70
    32
  0
VERTEX
  8
0
  5
26D
 10
2651.41
 20
415.712
 30
0.000000
  70
    32
  0
VERTEX
  8
0
  5
26E
 10
2653.82
 20
410.114
 30
0.000000
  70
    32
  0
VERTEX
  8
0
  5
26F
 10
2656.22
 20
404.498
 30
0.000000
  70
    32
  0
VERTEX
  8
0
  5
270
 10
2658.59
 20
398.864
 30
0.000000
  70
    32
  0
VERTEX
  8
0
  5
271
 10
2660.95
 20
393.207
 30
0.000000
  70
    32
  0
VERTEX
  8
0
  5
272
 10
2663.28
 20
387.526
 30
0.000000
  70
    32
  0
VERTEX
  8
0
  5
273
 10
2665.58
 20
381.819
 30
0.000000
  70
    32
  0
VERTEX
  8
0
  5
274
 10
2667.85
 20
376.083
 30
0.000000
  70
    32
  0
VERTEX
  8
0
  5
275
 10
2670.09
 20
370.316
 30
0.000000
  70
    32
  0
VERTEX
  8
0
  5
276
 10
2672.29
 20
364.516
 30
0.000000
  70
    32
  0
VERTEX
  8
0
  5
277
 10
2674.45
 20
358.681
 30
0.000000
  70
    32
  0
VERTEX
  8
0
  5
278
 10
2676.56
 20
352.807
 30
0.000000
  70
    32
  0
VERTEX
  8
0
  5
279
 10
2678.62
 20
346.894
 30
0.000000
  70
    32
  0
VERTEX
  8
0
  5
27A
 10
2680.63
 20
340.938
 30
0.000000
  70
    32
  0
VERTEX
  8
0
  5
27B
 10
2682.59
 20
334.938
 30
0.000000
  70
    32
  0
VERTEX
  8
0
  5
27C
 10
2684.48
 20
328.891
 30
0.000000
  70
    32
  0
VERTEX
  8
0
  5
27D
 10
2686.32
 20
322.794
 30
0.000000
  70
    32
  0
VERTEX
  8
0
  5
27E
 10
2688.08
 20
316.646
 30
0.000000
  70
    32
  0
VERTEX
  8
0
  5
27F
 10
2689.78
 20
310.444
 30
0.000000
  70
    32
  0
VERTEX
  8
0
  5
280
 10
2691.40
 20
304.186
 30
0.000000
  70
    32
  0
VERTEX
  8
0
  5
281
 10
2692.95
 20
297.870
 30
0.000000
  70
    32
  0
VERTEX
  8
0
  5
282
 10
2694.41
 20
291.493
 30
0.000000
  70
    32
  0
VERTEX
  8
0
  5
283
 10
2695.79
 20
285.054
 30
0.000000
  70
    32
  0
VERTEX
  8
0
  5
284
 10
2697.09
 20
278.549
 30
0.000000
  70
    32
  0
VERTEX
  8
0
  5
285
 10
2698.29
 20
271.976
 30
0.000000
  70
    32
  0
VERTEX
  8
0
  5
286
 10
2699.40
 20
265.334
 30
0.000000
  70
    32
  0
VERTEX
  8
0
  5
287
 10
2700.41
 20
258.620
 30
0.000000
  70
    32
  0
VERTEX
  8
0
  5
288
 10
2701.32
 20
251.831
 30
0.000000
  70
    32
  0
VERTEX
  8
0
  5
289
 10
2702.13
 20
244.966
 30
0.000000
  70
    32
  0
VERTEX
  8
0
  5
28A
 10
2702.82
 20
238.022
 30
0.000000
  70
    32
  0
VERTEX
  8
0
  5
28B
 10
2703.41
 20
230.996
 30
0.000000
  70
    32
  0
VERTEX
  8
0
  5
28C
 10
2703.88
 20
223.887
 30
0.000000
  70
    32
  0
VERTEX
  8
0
  5
28D
 10
2704.23
 20
216.693
 30
0.000000
  70
    32
  0
VERTEX
  8
0
  5
28E
 10
2704.45
 20
209.410
 30
0.000000
  70
    32
  0
VERTEX
  8
0
  5
28F
 10
2704.56
 20
202.037
 30
0.000000
  70
    32
  0
VERTEX
  8
0
  5
290
 10
2704.53
 20
194.571
 30
0.000000
  70
    32
  0
VERTEX
  8
0
  5
291
 10
2704.37
 20
187.011
 30
0.000000
  70
    32
  0
VERTEX
  8
0
  5
292
 10
2704.07
 20
179.353
 30
0.000000
  70
    32
  0
VERTEX
  8
0
  5
293
 10
2703.63
 20
171.596
 30
0.000000
  70
    32
  0
VERTEX
  8
0
  5
294
 10
2703.05
 20
163.737
 30
0.000000
  70
    32
  0
VERTEX
  8
0
  5
295
 10
2702.33
 20
155.774
 30
0.000000
  70
    32
  0
VERTEX
  8
0
  5
296
 10
2701.45
 20
147.705
 30
0.000000
  70
    32
  0
VERTEX
  8
0
  5
297
 10
2700.42
 20
139.527
 30
0.000000
  70
    32
  0
VERTEX
  8
0
  5
298
 10
2699.23
 20
131.238
 30
0.000000
  70
    32
  0
VERTEX
  8
0
  5
299
 10
2697.88
 20
122.836
 30
0.000000
  70
    32
  0
VERTEX
  8
0
  5
29A
 10
2696.37
 20
114.319
 30
0.000000
  70
    32
  0
VERTEX
  8
0
  5
29B
 10
2694.68
 20
105.684
 30
0.000000
  70
    32
  0
VERTEX
  8
0
  5
29C
 10
2692.83
 20
96.9286
 30
0.000000
  70
    32
  0
VERTEX
  8
0
  5
29D
 10
2690.80
 20
88.0511
 30
0.000000
  70
    32
  0
VERTEX
  8
0
  5
29E
 10
2688.59
 20
79.0490
 30
0.000000
  70
    32
  0
VERTEX
  8
0
  5
29F
 10
2686.21
 20
69.9201
 30
0.000000
  70
    32
  0
VERTEX
  8
0
  5
2A0
 10
2683.63
 20
60.6619
 30
0.000000
  70
    32
  0
VERTEX
  8
0
  5
2A1
 10
2680.87
 20
51.2723
 30
0.000000
  70
    32
  0
VERTEX
  8
0
  5
2A2
 10
2677.91
 20
41.7490
 30
0.000000
  70
    32
  0
VERTEX
  8
0
  5
2A3
 10
2674.76
 20
32.0896
 30
0.000000
  70
    32
  0
SEQEND
  8
0
  5
2A4
  0
LINE
  5
D7
  8
0
  6
CONTINUOUS
 62
     5
 10
2734.761186844371
 20
932.08963059471535
 30
0.0
 11
2674.761186844371
 21
932.08963059471535
 31
0.0
  0
POLYLINE
  8
0
  5
2A5
  62
5
  66
     1
 10
0.000000
 20
0.000000
 30
0.000000
  70
     8
  0
VERTEX
  8
0
  5
2A6
 10
2714.76
 20
32.0896
 30
0.000000
  70
    32
  0
VERTEX
  8
0
  5
2A7
 10
2717.49
 20
41.2972
 30
0.000000
  70
    32
  0
VERTEX
  8
0
  5
2A8
 10
2720.05
 20
50.3924
 30
0.000000
  70
    32
  0
VERTEX
  8
0
  5
2A9
 10
2722.46
 20
59.3772
 30
0.000000
  70
    32
  0
VERTEX
  8
0
  5
2AA
 10
2724.70
 20
68.2535
 30
0.000000
  70
    32
  0
VERTEX
  8
0
  5
2AB
 10
2726.79
 20
77.0231
 30
0.000000
  70
    32
  0
VERTEX
  8
0
  5
2AC
 10
2728.73
 20
85.6879
 30
0.000000
  70
    32
  0
VERTEX
  8
0
  5
2AD
 10
2730.51
 20
94.2499
 30
0.000000
  70
    32
  0
VERTEX
  8
0
  5
2AE
 10
2732.15
 20
102.711
 30
0.000000
  70
    32
  0
VERTEX
  8
0
  5
2AF
 10
2733.65
 20
111.073
 30
0.000000
  70
    32
  0
VERTEX
  8
0
  5
2B0
 10
2735.00
 20
119.337
 30
0.000000
  70
    32
  0
VERTEX
  8
0
  5
2B1
 10
2736.22
 20
127.507
 30
0.000000
  70
    32
  0
VERTEX
  8
0
  5
2B2
 10
2737.30
 20
135.583
 30
0.000000
  70
    32
  0
VERTEX
  8
0
  5
2B3
 10
2738.26
 20
143.567
 30
0.000000
  70
    32
  0
VERTEX
  8
0
  5
2B4
 10
2739.08
 20
151.462
 30
0.000000
  70
    32
  0
VERTEX
  8
0
  5
2B5
 10
2739.78
 20
159.269
 30
0.000000
  70
    32
  0
VERTEX
  8
0
  5
2B6
 10
2740.35
 20
166.990
 30
0.000000
  70
    32
  0
VERTEX
  8
0
  5
2B7
 10
2740.80
 20
174.627
 30
0.000000
  70
    32
  0
VERTEX
  8
0
  5
2B8
 10
2741.14
 20
182.182
 30
0.000000
  70
    32
  0
VERTEX
  8
0
  5
2B9
 10
2741.36
 20
189.656
 30
0.000000
  70
    32
  0
VERTEX
  8
0
  5
2BA
 10
2741.47
 20
197.053
 30
0.000000
  70
    32
  0
VERTEX
  8
0
  5
2BB
 10
2741.48
 20
204.373
 30
0.000000
  70
    32
  0
VERTEX
  8
0
  5
2BC
 10
2741.38
 20
211.618
 30
0.000000
  70
    32
  0
VERTEX
  8
0
  5
2BD
 10
2741.17
 20
218.791
 30
0.000000
  70
    32
  0
VERTEX
  8
0
  5
2BE
 10
2740.87
 20
225.893
 30
0.000000
  70
    32
  0
VERTEX
  8
0
  5
2BF
 10
2740.47
 20
232.926
 30
0.000000
  70
    32
  0
VERTEX
  8
0
  5
2C0
 10
2739.98
 20
239.892
 30
0.000000
  70
    32
  0
VERTEX
  8
0
  5
2C1
 10
2739.40
 20
246.793
 30
0.000000
  70
    32
  0
VERTEX
  8
0
  5
2C2
 10
2738.73
 20
253.630
 30
0.000000
  70
    32
  0
VERTEX
  8
0
  5
2C3
 10
2737.98
 20
260.406
 30
0.000000
  70
    32
  0
VERTEX
  8
0
  5
2C4
 10
2737.14
 20
267.123
 30
0.000000
  70
    32
  0
VERTEX
  8
0
  5
2C5
 10
2736.23
 20
273.783
 30
0.000000
  70
    32
  0
VERTEX
  8
0
  5
2C6
 10
2735.24
 20
280.386
 30
0.000000
  70
    32
  0
VERTEX
  8
0
  5
2C7
 10
2734.18
 20
286.936
 30
0.000000
  70
    32
  0
VERTEX
  8
0
  5
2C8
 10
2733.05
 20
293.434
 30
0.000000
  70
    32
  0
VERTEX
  8
0
  5
2C9
 10
2731.85
 20
299.881
 30
0.000000
  70
    32
  0
VERTEX
  8
0
  5
2CA
 10
2730.59
 20
306.281
 30
0.000000
  70
    32
  0
VERTEX
  8
0
  5
2CB
 10
2729.27
 20
312.635
 30
0.000000
  70
    32
  0
VERTEX
  8
0
  5
2CC
 10
2727.89
 20
318.944
 30
0.000000
  70
    32
  0
VERTEX
  8
0
  5
2CD
 10
2726.46
 20
325.210
 30
0.000000
  70
    32
  0
VERTEX
  8
0
  5
2CE
 10
2724.97
 20
331.436
 30
0.000000
  70
    32
  0
VERTEX
  8
0
  5
2CF
 10
2723.44
 20
337.624
 30
0.000000
  70
    32
  0
VERTEX
  8
0
  5
2D0
 10
2721.86
 20
343.774
 30
0.000000
  70
    32
  0
VERTEX
  8
0
  5
2D1
 10
2720.23
 20
349.890
 30
0.000000
  70
    32
  0
VERTEX
  8
0
  5
2D2
 10
2718.57
 20
355.972
 30
0.000000
  70
    32
  0
VERTEX
  8
0
  5
2D3
 10
2716.87
 20
362.024
 30
0.000000
  70
    32
  0
VERTEX
  8
0
  5
2D4
 10
2715.14
 20
368.046
 30
0.000000
  70
    32
  0
VERTEX
  8
0
  5
2D5
 10
2713.38
 20
374.040
 30
0.000000
  70
    32
  0
VERTEX
  8
0
  5
2D6
 10
2711.58
 20
380.010
 30
0.000000
  70
    32
  0
VERTEX
  8
0
  5
2D7
 10
2709.77
 20
385.955
 30
0.000000
  70
    32
  0
VERTEX
  8
0
  5
2D8
 10
2707.93
 20
391.879
 30
0.000000
  70
    32
  0
VERTEX
  8
0
  5
2D9
 10
2706.07
 20
397.784
 30
0.000000
  70
    32
  0
VERTEX
  8
0
  5
2DA
 10
2704.20
 20
403.670
 30
0.000000
  70
    32
  0
VERTEX
  8
0
  5
2DB
 10
2702.31
 20
409.540
 30
0.000000
  70
    32
  0
VERTEX
  8
0
  5
2DC
 10
2700.41
 20
415.396
 30
0.000000
  70
    32
  0
VERTEX
  8
0
  5
2DD
 10
2698.51
 20
421.240
 30
0.000000
  70
    32
  0
VERTEX
  8
0
  5
2DE
 10
2696.60
 20
427.073
 30
0.000000
  70
    32
  0
VERTEX
  8
0
  5
2DF
 10
2694.69
 20
432.898
 30
0.000000
  70
    32
  0
VERTEX
  8
0
  5
2E0
 10
2692.78
 20
438.716
 30
0.000000
  70
    32
  0
VERTEX
  8
0
  5
2E1
 10
2690.87
 20
444.529
 30
0.000000
  70
    32
  0
VERTEX
  8
0
  5
2E2
 10
2688.98
 20
450.340
 30
0.000000
  70
    32
  0
VERTEX
  8
0
  5
2E3
 10
2687.09
 20
456.150
 30
0.000000
  70
    32
  0
VERTEX
  8
0
  5
2E4
 10
2685.22
 20
461.961
 30
0.000000
  70
    32
  0
VERTEX
  8
0
  5
2E5
 10
2683.37
 20
467.774
 30
0.000000
  70
    32
  0
VERTEX
  8
0
  5
2E6
 10
2681.53
 20
473.592
 30
0.000000
  70
    32
  0
VERTEX
  8
0
  5
2E7
 10
2679.72
 20
479.417
 30
0.000000
  70
    32
  0
VERTEX
  8
0
  5
2E8
 10
2677.93
 20
485.250
 30
0.000000
  70
    32
  0
VERTEX
  8
0
  5
2E9
 10
2676.17
 20
491.094
 30
0.000000
  70
    32
  0
VERTEX
  8
0
  5
2EA
 10
2674.44
 20
496.950
 30
0.000000
  70
    32
  0
VERTEX
  8
0
  5
2EB
 10
2672.75
 20
502.820
 30
0.000000
  70
    32
  0
VERTEX
  8
0
  5
2EC
 10
2671.09
 20
508.706
 30
0.000000
  70
    32
  0
VERTEX
  8
0
  5
2ED
 10
2669.47
 20
514.610
 30
0.000000
  70
    32
  0
VERTEX
  8
0
  5
2EE
 10
2667.90
 20
520.534
 30
0.000000
  70
    32
  0
VERTEX
  8
0
  5
2EF
 10
2666.37
 20
526.480
 30
0.000000
  70
    32
  0
VERTEX
  8
0
  5
2F0
 10
2664.90
 20
532.449
 30
0.000000
  70
    32
  0
VERTEX
  8
0
  5
2F1
 10
2663.47
 20
538.443
 30
0.000000
  70
    32
  0
VERTEX
  8
0
  5
2F2
 10
2662.10
 20
544.465
 30
0.000000
  70
    32
  0
VERTEX
  8
0
  5
2F3
 10
2660.79
 20
550.517
 30
0.000000
  70
    32
  0
VERTEX
  8
0
  5
2F4
 10
2659.54
 20
556.599
 30
0.000000
  70
    32
  0
VERTEX
  8
0
  5
2F5
 10
2658.35
 20
562.714
 30
0.000000
  70
    32
  0
VERTEX
  8
0
  5
2F6
 10
2657.23
 20
568.865
 30
0.000000
  70
    32
  0
VERTEX
  8
0
  5
2F7
 10
2656.18
 20
575.052
 30
0.000000
  70
    32
  0
VERTEX
  8
0
  5
2F8
 10
2655.20
 20
581.278
 30
0.000000
  70
    32
  0
VERTEX
  8
0
  5
2F9
 10
2654.30
 20
587.544
 30
0.000000
  70
    32
  0
VERTEX
  8
0
  5
2FA
 10
2653.48
 20
593.853
 30
0.000000
  70
    32
  0
VERTEX
  8
0
  5
2FB
 10
2652.74
 20
600.206
 30
0.000000
  70
    32
  0
VERTEX
  8
0
  5
2FC
 10
2652.08
 20
606.606
 30
0.000000
  70
    32
  0
VERTEX
  8
0
  5
2FD
 10
2651.51
 20
613.053
 30
0.000000
  70
    32
  0
VERTEX
  8
0
  5
2FE
 10
2651.03
 20
619.551
 30
0.000000
  70
    32
  0
VERTEX
  8
0
  5
2FF
 10
2650.65
 20
626.100
 30
0.000000
  70
    32
  0
VERTEX
  8
0
  5
300
 10
2650.36
 20
632.704
 30
0.000000
  70
    32
  0
VERTEX
  8
0
  5
301
 10
2650.17
 20
639.362
 30
0.000000
  70
    32
  0
VERTEX
  8
0
  5
302
 10
2650.09
 20
646.079
 30
0.000000
  70
    32
  0
VERTEX
  8
0
  5
303
 10
2650.11
 20
652.855
 30
0.000000
  70
    32
  0
VERTEX
  8
0
  5
304
 10
2650.24
 20
659.692
 30
0.000000
  70
    32
  0
VERTEX
  8
0
  5
305
 10
2650.48
 20
666.593
 30
0.000000
  70
    32
  0
VERTEX
  8
0
  5
306
 10
2650.83
 20
673.559
 30
0.000000
  70
    32
  0
VERTEX
  8
0
  5
307
 10
2651.30
 20
680.591
 30
0.000000
  70
    32
  0
VERTEX
  8
0
  5
308
 10
2651.90
 20
687.693
 30
0.000000
  70
    32
  0
VERTEX
  8
0
  5
309
 10
2652.61
 20
694.865
 30
0.000000
  70
    32
  0
VERTEX
  8
0
  5
30A
 10
2653.45
 20
702.110
 30
0.000000
  70
    32
  0
VERTEX
  8
0
  5
30B
 10
2654.42
 20
709.430
 30
0.000000
  70
    32
  0
VERTEX
  8
0
  5
30C
 10
2655.53
 20
716.826
 30
0.000000
  70
    32
  0
VERTEX
  8
0
  5
30D
 10
2656.77
 20
724.300
 30
0.000000
  70
    32
  0
VERTEX
  8
0
  5
30E
 10
2658.14
 20
731.855
 30
0.000000
  70
    32
  0
VERTEX
  8
0
  5
30F
 10
2659.66
 20
739.491
 30
0.000000
  70
    32
  0
VERTEX
  8
0
  5
310
 10
2661.32
 20
747.212
 30
0.000000
  70
    32
  0
VERTEX
  8
0
  5
311
 10
2663.13
 20
755.018
 30
0.000000
  70
    32
  0
VERTEX
  8
0
  5
312
 10
2665.09
 20
762.913
 30
0.000000
  70
    32
  0
VERTEX
  8
0
  5
313
 10
2667.20
 20
770.896
 30
0.000000
  70
    32
  0
VERTEX
  8
0
  5
314
 10
2669.47
 20
778.972
 30
0.000000
  70
    32
  0
VERTEX
  8
0
  5
315
 10
2671.90
 20
787.141
 30
0.000000
  70
    32
  0
VERTEX
  8
0
  5
316
 10
2674.49
 20
795.405
 30
0.000000
  70
    32
  0
VERTEX
  8
0
  5
317
 10
2677.24
 20
803.766
 30
0.000000
  70
    32
  0
VERTEX
  8
0
  5
318
 10
2680.16
 20
812.227
 30
0.000000
  70
    32
  0
VERTEX
  8
0
  5
319
 10
2683.25
 20
820.788
 30
0.000000
  70
    32
  0
VERTEX
  8
0
  5
31A
 10
2686.52
 20
829.453
 30
0.000000
  70
    32
  0
VERTEX
  8
0
  5
31B
 10
2689.96
 20
838.222
 30
0.000000
  70
    32
  0
VERTEX
  8
0
  5
31C
 10
2693.58
 20
847.098
 30
0.000000
  70
    32
  0
VERTEX
  8
0
  5
31D
 10
2697.39
 20
856.082
 30
0.000000
  70
    32
  0
VERTEX
  8
0
  5
31E
 10
2701.38
 20
865.177
 30
0.000000
  70
    32
  0
VERTEX
  8
0
  5
31F
 10
2705.56
 20
874.384
 30
0.000000
  70
    32
  0
VERTEX
  8
0
  5
320
 10
2709.93
 20
883.705
 30
0.000000
  70
    32
  0
VERTEX
  8
0
  5
321
 10
2714.50
 20
893.142
 30
0.000000
  70
    32
  0
VERTEX
  8
0
  5
322
 10
2719.26
 20
902.697
 30
0.000000
  70
    32
  0
VERTEX
  8
0
  5
323
 10
2724.22
 20
912.372
 30
0.000000
  70
    32
  0
VERTEX
  8
0
  5
324
 10
2729.39
 20
922.169
 30
0.000000
  70
    32
  0
VERTEX
  8
0
  5
325
 10
2734.76
 20
932.090
 30
0.000000
  70
    32
  0
SEQEND
  8
0
  5
326
  0
LINE
  5
D9
  8
0
  6
CONTINUOUS
 62
     5
 10
2774.874358860915
 20
40.089986474957058
 30
0.0
 11
2814.874358860915
 21
40.089986474957612
 31
0.0
  0
POLYLINE
  8
0
  5
327
  62
5
  66
     1
 10
0.000000
 20
0.000000
 30
0.000000
  70
     8
  0
VERTEX
  8
0
  5
328
 10
2774.87
 20
940.090
 30
0.000000
  70
    32
  0
VERTEX
  8
0
  5
329
 10
2768.83
 20
929.580
 30
0.000000
  70
    32
  0
VERTEX
  8
0
  5
32A
 10
2763.03
 20
919.219
 30
0.000000
  70
    32
  0
VERTEX
  8
0
  5
32B
 10
2757.47
 20
909.005
 30
0.000000
  70
    32
  0
VERTEX
  8
0
  5
32C
 10
2752.15
 20
898.936
 30
0.000000
  70
    32
  0
VERTEX
  8
0
  5
32D
 10
2747.05
 20
889.010
 30
0.000000
  70
    32
  0
VERTEX
  8
0
  5
32E
 10
2742.18
 20
879.225
 30
0.000000
  70
    32
  0
VERTEX
  8
0
  5
32F
 10
2737.54
 20
869.577
 30
0.000000
  70
    32
  0
VERTEX
  8
0
  5
330
 10
2733.12
 20
860.066
 30
0.000000
  70
    32
  0
VERTEX
  8
0
  5
331
 10
2728.91
 20
850.688
 30
0.000000
  70
    32
  0
VERTEX
  8
0
  5
332
 10
2724.92
 20
841.441
 30
0.000000
  70
    32
  0
VERTEX
  8
0
  5
333
 10
2721.14
 20
832.323
 30
0.000000
  70
    32
  0
VERTEX
  8
0
  5
334
 10
2717.57
 20
823.332
 30
0.000000
  70
    32
  0
VERTEX
  8
0
  5
335
 10
2714.20
 20
814.465
 30
0.000000
  70
    32
  0
VERTEX
  8
0
  5
336
 10
2711.02
 20
805.720
 30
0.000000
  70
    32
  0
VERTEX
  8
0
  5
337
 10
2708.05
 20
797.095
 30
0.000000
  70
    32
  0
VERTEX
  8
0
  5
338
 10
2705.27
 20
788.588
 30
0.000000
  70
    32
  0
VERTEX
  8
0
  5
339
 10
2702.68
 20
780.196
 30
0.000000
  70
    32
  0
VERTEX
  8
0
  5
33A
 10
2700.27
 20
771.917
 30
0.000000
  70
    32
  0
VERTEX
  8
0
  5
33B
 10
2698.04
 20
763.748
 30
0.000000
  70
    32
  0
VERTEX
  8
0
  5
33C
 10
2696.00
 20
755.688
 30
0.000000
  70
    32
  0
VERTEX
  8
0
  5
33D
 10
2694.13
 20
747.734
 30
0.000000
  70
    32
  0
VERTEX
  8
0
  5
33E
 10
2692.43
 20
739.884
 30
0.000000
  70
    32
  0
VERTEX
  8
0
  5
33F
 10
2690.90
 20
732.136
 30
0.000000
  70
    32
  0
VERTEX
  8
0
  5
340
 10
2689.53
 20
724.487
 30
0.000000
  70
    32
  0
VERTEX
  8
0
  5
341
 10
2688.33
 20
716.935
 30
0.000000
  70
    32
  0
VERTEX
  8
0
  5
342
 10
2687.28
 20
709.477
 30
0.000000
  70
    32
  0
VERTEX
  8
0
  5
343
 10
2686.39
 20
702.112
 30
0.000000
  70
    32
  0
VERTEX
  8
0
  5
344
 10
2685.65
 20
694.837
 30
0.000000
  70
    32
  0
VERTEX
  8
0
  5
345
 10
2685.05
 20
687.650
 30
0.000000
  70
    32
  0
VERTEX
  8
0
  5
346
 10
2684.60
 20
680.548
 30
0.000000
  70
    32
  0
VERTEX
  8
0
  5
347
 10
2684.29
 20
673.530
 30
0.000000
  70
    32
  0
VERTEX
  8
0
  5
348
 10
2684.12
 20
666.593
 30
0.000000
  70
    32
  0
VERTEX
  8
0
  5
349
 10
2684.08
 20
659.734
 30
0.000000
  70
    32
  0
VERTEX
  8
0
  5
34A
 10
2684.17
 20
652.952
 30
0.000000
  70
    32
  0
VERTEX
  8
0
  5
34B
 10
2684.38
 20
646.244
 30
0.000000
  70
    32
  0
VERTEX
  8
0
  5
34C
 10
2684.72
 20
639.608
 30
0.000000
  70
    32
  0
VERTEX
  8
0
  5
34D
 10
2685.18
 20
633.042
 30
0.000000
  70
    32
  0
VERTEX
  8
0
  5
34E
 10
2685.75
 20
626.542
 30
0.000000
  70
    32
  0
VERTEX
  8
0
  5
34F
 10
2686.44
 20
620.108
 30
0.000000
  70
    32
  0
VERTEX
  8
0
  5
350
 10
2687.23
 20
613.737
 30
0.000000
  70
    32
  0
VERTEX
  8
0
  5
351
 10
2688.13
 20
607.426
 30
0.000000
  70
    32
  0
VERTEX
  8
0
  5
352
 10
2689.13
 20
601.173
 30
0.000000
  70
    32
  0
VERTEX
  8
0
  5
353
 10
2690.23
 20
594.976
 30
0.000000
  70
    32
  0
VERTEX
  8
0
  5
354
 10
2691.43
 20
588.832
 30
0.000000
  70
    32
  0
VERTEX
  8
0
  5
355
 10
2692.71
 20
582.740
 30
0.000000
  70
    32
  0
VERTEX
  8
0
  5
356
 10
2694.09
 20
576.697
 30
0.000000
  70
    32
  0
VERTEX
  8
0
  5
357
 10
2695.54
 20
570.700
 30
0.000000
  70
    32
  0
VERTEX
  8
0
  5
358
 10
2697.08
 20
564.748
 30
0.000000
  70
    32
  0
VERTEX
  8
0
  5
359
 10
2698.70
 20
558.839
 30
0.000000
  70
    32
  0
VERTEX
  8
0
  5
35A
 10
2700.39
 20
552.969
 30
0.000000
  70
    32
  0
VERTEX
  8
0
  5
35B
 10
2702.15
 20
547.136
 30
0.000000
  70
    32
  0
VERTEX
  8
0
  5
35C
 10
2703.97
 20
541.339
 30
0.000000
  70
    32
  0
VERTEX
  8
0
  5
35D
 10
2705.86
 20
535.575
 30
0.000000
  70
    32
  0
VERTEX
  8
0
  5
35E
 10
2707.81
 20
529.842
 30
0.000000
  70
    32
  0
VERTEX
  8
0
  5
35F
 10
2709.82
 20
524.137
 30
0.000000
  70
    32
  0
VERTEX
  8
0
  5
360
 10
2711.87
 20
518.459
 30
0.000000
  70
    32
  0
VERTEX
  8
0
  5
361
 10
2713.98
 20
512.804
 30
0.000000
  70
    32
  0
VERTEX
  8
0
  5
362
 10
2716.13
 20
507.171
 30
0.000000
  70
    32
  0
VERTEX
  8
0
  5
363
 10
2718.33
 20
501.557
 30
0.000000
  70
    32
  0
VERTEX
  8
0
  5
364
 10
2720.56
 20
495.960
 30
0.000000
  70
    32
  0
VERTEX
  8
0
  5
365
 10
2722.83
 20
490.378
 30
0.000000
  70
    32
  0
VERTEX
  8
0
  5
366
 10
2725.13
 20
484.808
 30
0.000000
  70
    32
  0
VERTEX
  8
0
  5
367
 10
2727.46
 20
479.249
 30
0.000000
  70
    32
  0
VERTEX
  8
0
  5
368
 10
2729.81
 20
473.698
 30
0.000000
  70
    32
  0
VERTEX
  8
0
  5
369
 10
2732.19
 20
468.152
 30
0.000000
  70
    32
  0
VERTEX
  8
0
  5
36A
 10
2734.58
 20
462.609
 30
0.000000
  70
    32
  0
VERTEX
  8
0
  5
36B
 10
2736.99
 20
457.068
 30
0.000000
  70
    32
  0
VERTEX
  8
0
  5
36C
 10
2739.40
 20
451.525
 30
0.000000
  70
    32
  0
VERTEX
  8
0
  5
36D
 10
2741.83
 20
445.979
 30
0.000000
  70
    32
  0
VERTEX
  8
0
  5
36E
 10
2744.26
 20
440.426
 30
0.000000
  70
    32
  0
VERTEX
  8
0
  5
36F
 10
2746.68
 20
434.866
 30
0.000000
  70
    32
  0
VERTEX
  8
0
  5
370
 10
2749.11
 20
429.296
 30
0.000000
  70
    32
  0
VERTEX
  8
0
  5
371
 10
2751.53
 20
423.712
 30
0.000000
  70
    32
  0
VERTEX
  8
0
  5
372
 10
2753.93
 20
418.114
 30
0.000000
  70
    32
  0
VERTEX
  8
0
  5
373
 10
2756.33
 20
412.499
 30
0.000000
  70
    32
  0
VERTEX
  8
0
  5
374
 10
2758.71
 20
406.864
 30
0.000000
  70
    32
  0
VERTEX
  8
0
  5
375
 10
2761.06
 20
401.207
 30
0.000000
  70
    32
  0
VERTEX
  8
0
  5
376
 10
2763.39
 20
395.526
 30
0.000000
  70
    32
  0
VERTEX
  8
0
  5
377
 10
2765.70
 20
389.819
 30
0.000000
  70
    32
  0
VERTEX
  8
0
  5
378
 10
2767.97
 20
384.083
 30
0.000000
  70
    32
  0
VERTEX
  8
0
  5
379
 10
2770.20
 20
378.317
 30
0.000000
  70
    32
  0
VERTEX
  8
0
  5
37A
 10
2772.40
 20
372.517
 30
0.000000
  70
    32
  0
VERTEX
  8
0
  5
37B
 10
2774.56
 20
366.681
 30
0.000000
  70
    32
  0
VERTEX
  8
0
  5
37C
 10
2776.67
 20
360.808
 30
0.000000
  70
    32
  0
VERTEX
  8
0
  5
37D
 10
2778.74
 20
354.894
 30
0.000000
  70
    32
  0
VERTEX
  8
0
  5
37E
 10
2780.75
 20
348.939
 30
0.000000
  70
    32
  0
VERTEX
  8
0
  5
37F
 10
2782.70
 20
342.938
 30
0.000000
  70
    32
  0
VERTEX
  8
0
  5
380
 10
2784.60
 20
336.891
 30
0.000000
  70
    32
  0
VERTEX
  8
0
  5
381
 10
2786.43
 20
330.794
 30
0.000000
  70
    32
  0
VERTEX
  8
0
  5
382
 10
2788.19
 20
324.646
 30
0.000000
  70
    32
  0
VERTEX
  8
0
  5
383
 10
2789.89
 20
318.445
 30
0.000000
  70
    32
  0
VERTEX
  8
0
  5
384
 10
2791.51
 20
312.187
 30
0.000000
  70
    32
  0
VERTEX
  8
0
  5
385
 10
2793.06
 20
305.871
 30
0.000000
  70
    32
  0
VERTEX
  8
0
  5
386
 10
2794.52
 20
299.494
 30
0.000000
  70
    32
  0
VERTEX
  8
0
  5
387
 10
2795.91
 20
293.054
 30
0.000000
  70
    32
  0
VERTEX
  8
0
  5
388
 10
2797.20
 20
286.549
 30
0.000000
  70
    32
  0
VERTEX
  8
0
  5
389
 10
2798.40
 20
279.976
 30
0.000000
  70
    32
  0
VERTEX
  8
0
  5
38A
 10
2799.51
 20
273.334
 30
0.000000
  70
    32
  0
VERTEX
  8
0
  5
38B
 10
2800.52
 20
266.620
 30
0.000000
  70
    32
  0
VERTEX
  8
0
  5
38C
 10
2801.43
 20
259.831
 30
0.000000
  70
    32
  0
VERTEX
  8
0
  5
38D
 10
2802.24
 20
252.966
 30
0.000000
  70
    32
  0
VERTEX
  8
0
  5
38E
 10
2802.94
 20
246.022
 30
0.000000
  70
    32
  0
VERTEX
  8
0
  5
38F
 10
2803.52
 20
238.997
 30
0.000000
  70
    32
  0
VERTEX
  8
0
  5
390
 10
2803.99
 20
231.888
 30
0.000000
  70
    32
  0
VERTEX
  8
0
  5
391
 10
2804.34
 20
224.693
 30
0.000000
  70
    32
  0
VERTEX
  8
0
  5
392
 10
2804.57
 20
217.410
 30
0.000000
  70
    32
  0
VERTEX
  8
0
  5
393
 10
2804.67
 20
210.037
 30
0.000000
  70
    32
  0
VERTEX
  8
0
  5
394
 10
2804.64
 20
202.572
 30
0.000000
  70
    32
  0
VERTEX
  8
0
  5
395
 10
2804.48
 20
195.011
 30
0.000000
  70
    32
  0
VERTEX
  8
0
  5
396
 10
2804.18
 20
187.354
 30
0.000000
  70
    32
  0
VERTEX
  8
0
  5
397
 10
2803.75
 20
179.596
 30
0.000000
  70
    32
  0
VERTEX
  8
0
  5
398
 10
2803.17
 20
171.738
 30
0.000000
  70
    32
  0
VERTEX
  8
0
  5
399
 10
2802.44
 20
163.775
 30
0.000000
  70
    32
  0
VERTEX
  8
0
  5
39A
 10
2801.56
 20
155.705
 30
0.000000
  70
    32
  0
VERTEX
  8
0
  5
39B
 10
2800.53
 20
147.527
 30
0.000000
  70
    32
  0
VERTEX
  8
0
  5
39C
 10
2799.34
 20
139.239
 30
0.000000
  70
    32
  0
VERTEX
  8
0
  5
39D
 10
2797.99
 20
130.837
 30
0.000000
  70
    32
  0
VERTEX
  8
0
  5
39E
 10
2796.48
 20
122.319
 30
0.000000
  70
    32
  0
VERTEX
  8
0
  5
39F
 10
2794.80
 20
113.684
 30
0.000000
  70
    32
  0
VERTEX
  8
0
  5
3A0
 10
2792.94
 20
104.929
 30
0.000000
  70
    32
  0
VERTEX
  8
0
  5
3A1
 10
2790.91
 20
96.0515
 30
0.000000
  70
    32
  0
VERTEX
  8
0
  5
3A2
 10
2788.71
 20
87.0494
 30
0.000000
  70
    32
  0
VERTEX
  8
0
  5
3A3
 10
2786.32
 20
77.9204
 30
0.000000
  70
    32
  0
VERTEX
  8
0
  5
3A4
 10
2783.74
 20
68.6623
 30
0.000000
  70
    32
  0
VERTEX
  8
0
  5
3A5
 10
2780.98
 20
59.2727
 30
0.000000
  70
    32
  0
VERTEX
  8
0
  5
3A6
 10
2778.03
 20
49.7493
 30
0.000000
  70
    32
  0
VERTEX
  8
0
  5
3A7
 10
2774.87
 20
40.0900
 30
0.000000
  70
    32
  0
SEQEND
  8
0
  5
3A8
  0
LINE
  5
DB
  8
0
  6
CONTINUOUS
 62
     5
 10
2834.874358860915
 20
940.08998647495753
 30
0.0
 11
2774.874358860915
 21
940.08998647495753
 31
0.0
  0
POLYLINE
  8
0
  5
3A9
  62
5
  66
     1
 10
0.000000
 20
0.000000
 30
0.000000
  70
     8
  0
VERTEX
  8
0
  5
3AA
 10
2814.87
 20
40.0900
 30
0.000000
  70
    32
  0
VERTEX
  8
0
  5
3AB
 10
2817.60
 20
49.2975
 30
0.000000
  70
    32
  0
VERTEX
  8
0
  5
3AC
 10
2820.17
 20
58.3928
 30
0.000000
  70
    32
  0
VERTEX
  8
0
  5
3AD
 10
2822.57
 20
67.3776
 30
0.000000
  70
    32
  0
VERTEX
  8
0
  5
3AE
 10
2824.81
 20
76.2538
 30
0.000000
  70
    32
  0
VERTEX
  8
0
  5
3AF
 10
2826.90
 20
85.0234
 30
0.000000
  70
    32
  0
VERTEX
  8
0
  5
3B0
 10
2828.84
 20
93.6883
 30
0.000000
  70
    32
  0
VERTEX
  8
0
  5
3B1
 10
2830.62
 20
102.250
 30
0.000000
  70
    32
  0
VERTEX
  8
0
  5
3B2
 10
2832.26
 20
110.711
 30
0.000000
  70
    32
  0
VERTEX
  8
0
  5
3B3
 10
2833.76
 20
119.073
 30
0.000000
  70
    32
  0
VERTEX
  8
0
  5
3B4
 10
2835.12
 20
127.338
 30
0.000000
  70
    32
  0
VERTEX
  8
0
  5
3B5
 10
2836.33
 20
135.507
 30
0.000000
  70
    32
  0
VERTEX
  8
0
  5
3B6
 10
2837.42
 20
143.583
 30
0.000000
  70
    32
  0
VERTEX
  8
0
  5
3B7
 10
2838.37
 20
151.567
 30
0.000000
  70
    32
  0
VERTEX
  8
0
  5
3B8
 10
2839.19
 20
159.462
 30
0.000000
  70
    32
  0
VERTEX
  8
0
  5
3B9
 10
2839.89
 20
167.269
 30
0.000000
  70
    32
  0
VERTEX
  8
0
  5
3BA
 10
2840.46
 20
174.990
 30
0.000000
  70
    32
  0
VERTEX
  8
0
  5
3BB
 10
2840.92
 20
182.627
 30
0.000000
  70
    32
  0
VERTEX
  8
0
  5
3BC
 10
2841.25
 20
190.182
 30
0.000000
  70
    32
  0
VERTEX
  8
0
  5
3BD
 10
2841.48
 20
197.657
 30
0.000000
  70
    32
  0
VERTEX
  8
0
  5
3BE
 10
2841.59
 20
205.053
 30
0.000000
  70
    32
  0
VERTEX
  8
0
  5
3BF
 10
2841.59
 20
212.373
 30
0.000000
  70
    32
  0
VERTEX
  8
0
  5
3C0
 10
2841.49
 20
219.618
 30
0.000000
  70
    32
  0
VERTEX
  8
0
  5
3C1
 10
2841.29
 20
226.791
 30
0.000000
  70
    32
  0
VERTEX
  8
0
  5
3C2
 10
2840.99
 20
233.893
 30
0.000000
  70
    32
  0
VERTEX
  8
0
  5
3C3
 10
2840.59
 20
240.926
 30
0.000000
  70
    32
  0
VERTEX
  8
0
  5
3C4
 10
2840.10
 20
247.892
 30
0.000000
  70
    32
  0
VERTEX
  8
0
  5
3C5
 10
2839.51
 20
254.793
 30
0.000000
  70
    32
  0
VERTEX
  8
0
  5
3C6
 10
2838.84
 20
261.631
 30
0.000000
  70
    32
  0
VERTEX
  8
0
  5
3C7
 10
2838.09
 20
268.407
 30
0.000000
  70
    32
  0
VERTEX
  8
0
  5
3C8
 10
2837.26
 20
275.124
 30
0.000000
  70
    32
  0
VERTEX
  8
0
  5
3C9
 10
2836.34
 20
281.783
 30
0.000000
  70
    32
  0
VERTEX
  8
0
  5
3CA
 10
2835.35
 20
288.386
 30
0.000000
  70
    32
  0
VERTEX
  8
0
  5
3CB
 10
2834.29
 20
294.936
 30
0.000000
  70
    32
  0
VERTEX
  8
0
  5
3CC
 10
2833.16
 20
301.434
 30
0.000000
  70
    32
  0
VERTEX
  8
0
  5
3CD
 10
2831.96
 20
307.882
 30
0.000000
  70
    32
  0
VERTEX
  8
0
  5
3CE
 10
2830.70
 20
314.282
 30
0.000000
  70
    32
  0
VERTEX
  8
0
  5
3CF
 10
2829.38
 20
320.635
 30
0.000000
  70
    32
  0
VERTEX
  8
0
  5
3D0
 10
2828.00
 20
326.944
 30
0.000000
  70
    32
  0
VERTEX
  8
0
  5
3D1
 10
2826.57
 20
333.211
 30
0.000000
  70
    32
  0
VERTEX
  8
0
  5
3D2
 10
2825.08
 20
339.437
 30
0.000000
  70
    32
  0
VERTEX
  8
0
  5
3D3
 10
2823.55
 20
345.624
 30
0.000000
  70
    32
  0
VERTEX
  8
0
  5
3D4
 10
2821.97
 20
351.774
 30
0.000000
  70
    32
  0
VERTEX
  8
0
  5
3D5
 10
2820.35
 20
357.890
 30
0.000000
  70
    32
  0
VERTEX
  8
0
  5
3D6
 10
2818.69
 20
363.973
 30
0.000000
  70
    32
  0
VERTEX
  8
0
  5
3D7
 10
2816.99
 20
370.024
 30
0.000000
  70
    32
  0
VERTEX
  8
0
  5
3D8
 10
2815.25
 20
376.046
 30
0.000000
  70
    32
  0
VERTEX
  8
0
  5
3D9
 10
2813.49
 20
382.041
 30
0.000000
  70
    32
  0
VERTEX
  8
0
  5
3DA
 10
2811.70
 20
388.010
 30
0.000000
  70
    32
  0
VERTEX
  8
0
  5
3DB
 10
2809.88
 20
393.956
 30
0.000000
  70
    32
  0
VERTEX
  8
0
  5
3DC
 10
2808.04
 20
399.880
 30
0.000000
  70
    32
  0
VERTEX
  8
0
  5
3DD
 10
2806.18
 20
405.784
 30
0.000000
  70
    32
  0
VERTEX
  8
0
  5
3DE
 10
2804.31
 20
411.670
 30
0.000000
  70
    32
  0
VERTEX
  8
0
  5
3DF
 10
2802.42
 20
417.540
 30
0.000000
  70
    32
  0
VERTEX
  8
0
  5
3E0
 10
2800.52
 20
423.396
 30
0.000000
  70
    32
  0
VERTEX
  8
0
  5
3E1
 10
2798.62
 20
429.240
 30
0.000000
  70
    32
  0
VERTEX
  8
0
  5
3E2
 10
2796.71
 20
435.073
 30
0.000000
  70
    32
  0
VERTEX
  8
0
  5
3E3
 10
2794.80
 20
440.898
 30
0.000000
  70
    32
  0
VERTEX
  8
0
  5
3E4
 10
2792.89
 20
446.716
 30
0.000000
  70
    32
  0
VERTEX
  8
0
  5
3E5
 10
2790.99
 20
452.530
 30
0.000000
  70
    32
  0
VERTEX
  8
0
  5
3E6
 10
2789.09
 20
458.341
 30
0.000000
  70
    32
  0
VERTEX
  8
0
  5
3E7
 10
2787.21
 20
464.150
 30
0.000000
  70
    32
  0
VERTEX
  8
0
  5
3E8
 10
2785.33
 20
469.961
 30
0.000000
  70
    32
  0
VERTEX
  8
0
  5
3E9
 10
2783.48
 20
475.774
 30
0.000000
  70
    32
  0
VERTEX
  8
0
  5
3EA
 10
2781.64
 20
481.593
 30
0.000000
  70
    32
  0
VERTEX
  8
0
  5
3EB
 10
2779.83
 20
487.417
 30
0.000000
  70
    32
  0
VERTEX
  8
0
  5
3EC
 10
2778.04
 20
493.251
 30
0.000000
  70
    32
  0
VERTEX
  8
0
  5
3ED
 10
2776.28
 20
499.094
 30
0.000000
  70
    32
  0
VERTEX
  8
0
  5
3EE
 10
2774.55
 20
504.950
 30
0.000000
  70
    32
  0
VERTEX
  8
0
  5
3EF
 10
2772.86
 20
510.820
 30
0.000000
  70
    32
  0
VERTEX
  8
0
  5
3F0
 10
2771.20
 20
516.706
 30
0.000000
  70
    32
  0
VERTEX
  8
0
  5
3F1
 10
2769.59
 20
522.610
 30
0.000000
  70
    32
  0
VERTEX
  8
0
  5
3F2
 10
2768.01
 20
528.534
 30
0.000000
  70
    32
  0
VERTEX
  8
0
  5
3F3
 10
2766.49
 20
534.480
 30
0.000000
  70
    32
  0
VERTEX
  8
0
  5
3F4
 10
2765.01
 20
540.449
 30
0.000000
  70
    32
  0
VERTEX
  8
0
  5
3F5
 10
2763.58
 20
546.444
 30
0.000000
  70
    32
  0
VERTEX
  8
0
  5
3F6
 10
2762.21
 20
552.466
 30
0.000000
  70
    32
  0
VERTEX
  8
0
  5
3F7
 10
2760.90
 20
558.517
 30
0.000000
  70
    32
  0
VERTEX
  8
0
  5
3F8
 10
2759.65
 20
564.599
 30
0.000000
  70
    32
  0
VERTEX
  8
0
  5
3F9
 10
2758.46
 20
570.715
 30
0.000000
  70
    32
  0
VERTEX
  8
0
  5
3FA
 10
2757.34
 20
576.865
 30
0.000000
  70
    32
  0
VERTEX
  8
0
  5
3FB
 10
2756.29
 20
583.052
 30
0.000000
  70
    32
  0
VERTEX
  8
0
  5
3FC
 10
2755.31
 20
589.278
 30
0.000000
  70
    32
  0
VERTEX
  8
0
  5
3FD
 10
2754.41
 20
595.544
 30
0.000000
  70
    32
  0
VERTEX
  8
0
  5
3FE
 10
2753.59
 20
601.853
 30
0.000000
  70
    32
  0
VERTEX
  8
0
  5
3FF
 10
2752.85
 20
608.206
 30
0.000000
  70
    32
  0
VERTEX
  8
0
  5
400
 10
2752.19
 20
614.606
 30
0.000000
  70
    32
  0
VERTEX
  8
0
  5
401
 10
2751.62
 20
621.054
 30
0.000000
  70
    32
  0
VERTEX
  8
0
  5
402
 10
2751.15
 20
627.551
 30
0.000000
  70
    32
  0
VERTEX
  8
0
  5
403
 10
2750.76
 20
634.101
 30
0.000000
  70
    32
  0
VERTEX
  8
0
  5
404
 10
2750.47
 20
640.704
 30
0.000000
  70
    32
  0
VERTEX
  8
0
  5
405
 10
2750.29
 20
647.363
 30
0.000000
  70
    32
  0
VERTEX
  8
0
  5
406
 10
2750.20
 20
654.079
 30
0.000000
  70
    32
  0
VERTEX
  8
0
  5
407
 10
2750.22
 20
660.855
 30
0.000000
  70
    32
  0
VERTEX
  8
0
  5
408
 10
2750.35
 20
667.693
 30
0.000000
  70
    32
  0
VERTEX
  8
0
  5
409
 10
2750.59
 20
674.593
 30
0.000000
  70
    32
  0
VERTEX
  8
0
  5
40A
 10
2750.94
 20
681.559
 30
0.000000
  70
    32
  0
VERTEX
  8
0
  5
40B
 10
2751.42
 20
688.592
 30
0.000000
  70
    32
  0
VERTEX
  8
0
  5
40C
 10
2752.01
 20
695.693
 30
0.000000
  70
    32
  0
VERTEX
  8
0
  5
40D
 10
2752.72
 20
702.865
 30
0.000000
  70
    32
  0
VERTEX
  8
0
  5
40E
 10
2753.57
 20
710.110
 30
0.000000
  70
    32
  0
VERTEX
  8
0
  5
40F
 10
2754.54
 20
717.430
 30
0.000000
  70
    32
  0
VERTEX
  8
0
  5
410
 10
2755.64
 20
724.826
 30
0.000000
  70
    32
  0
VERTEX
  8
0
  5
411
 10
2756.88
 20
732.300
 30
0.000000
  70
    32
  0
VERTEX
  8
0
  5
412
 10
2758.26
 20
739.855
 30
0.000000
  70
    32
  0
VERTEX
  8
0
  5
413
 10
2759.77
 20
747.492
 30
0.000000
  70
    32
  0
VERTEX
  8
0
  5
414
 10
2761.44
 20
755.212
 30
0.000000
  70
    32
  0
VERTEX
  8
0
  5
415
 10
2763.24
 20
763.019
 30
0.000000
  70
    32
  0
VERTEX
  8
0
  5
416
 10
2765.20
 20
770.913
 30
0.000000
  70
    32
  0
VERTEX
  8
0
  5
417
 10
2767.32
 20
778.897
 30
0.000000
  70
    32
  0
VERTEX
  8
0
  5
418
 10
2769.58
 20
786.972
 30
0.000000
  70
    32
  0
VERTEX
  8
0
  5
419
 10
2772.01
 20
795.141
 30
0.000000
  70
    32
  0
VERTEX
  8
0
  5
41A
 10
2774.60
 20
803.405
 30
0.000000
  70
    32
  0
VERTEX
  8
0
  5
41B
 10
2777.35
 20
811.767
 30
0.000000
  70
    32
  0
VERTEX
  8
0
  5
41C
 10
2780.27
 20
820.227
 30
0.000000
  70
    32
  0
VERTEX
  8
0
  5
41D
 10
2783.37
 20
828.789
 30
0.000000
  70
    32
  0
VERTEX
  8
0
  5
41E
 10
2786.63
 20
837.453
 30
0.000000
  70
    32
  0
VERTEX
  8
0
  5
41F
 10
2790.08
 20
846.222
 30
0.000000
  70
    32
  0
VERTEX
  8
0
  5
420
 10
2793.70
 20
855.098
 30
0.000000
  70
    32
  0
VERTEX
  8
0
  5
421
 10
2797.50
 20
864.082
 30
0.000000
  70
    32
  0
VERTEX
  8
0
  5
422
 10
2801.49
 20
873.177
 30
0.000000
  70
    32
  0
VERTEX
  8
0
  5
423
 10
2805.67
 20
882.384
 30
0.000000
  70
    32
  0
VERTEX
  8
0
  5
424
 10
2810.04
 20
891.705
 30
0.000000
  70
    32
  0
VERTEX
  8
0
  5
425
 10
2814.61
 20
901.142
 30
0.000000
  70
    32
  0
VERTEX
  8
0
  5
426
 10
2819.37
 20
910.698
 30
0.000000
  70
    32
  0
VERTEX
  8
0
  5
427
 10
2824.33
 20
920.373
 30
0.000000
  70
    32
  0
VERTEX
  8
0
  5
428
 10
2829.50
 20
930.170
 30
0.000000
  70
    32
  0
VERTEX
  8
0
  5
429
 10
2834.87
 20
940.090
 30
0.000000
  70
    32
  0
SEQEND
  8
0
  5
42A
  0
LINE
  5
DD
  8
0
  6
CONTINUOUS
 62
     5
 10
2870.9830043585011
 20
32.089630594714762
 30
0.0
 11
2910.9830043585021
 21
32.089630594715317
 31
0.0
  0
POLYLINE
  8
0
  5
42B
  62
5
  66
     1
 10
0.000000
 20
0.000000
 30
0.000000
  70
     8
  0
VERTEX
  8
0
  5
42C
 10
2870.98
 20
932.090
 30
0.000000
  70
    32
  0
VERTEX
  8
0
  5
42D
 10
2864.94
 20
921.579
 30
0.000000
  70
    32
  0
VERTEX
  8
0
  5
42E
 10
2859.14
 20
911.218
 30
0.000000
  70
    32
  0
VERTEX
  8
0
  5
42F
 10
2853.58
 20
901.005
 30
0.000000
  70
    32
  0
VERTEX
  8
0
  5
430
 10
2848.25
 20
890.936
 30
0.000000
  70
    32
  0
VERTEX
  8
0
  5
431
 10
2843.16
 20
881.010
 30
0.000000
  70
    32
  0
VERTEX
  8
0
  5
432
 10
2838.29
 20
871.225
 30
0.000000
  70
    32
  0
VERTEX
  8
0
  5
433
 10
2833.65
 20
861.577
 30
0.000000
  70
    32
  0
VERTEX
  8
0
  5
434
 10
2829.23
 20
852.065
 30
0.000000
  70
    32
  0
VERTEX
  8
0
  5
435
 10
2825.02
 20
842.687
 30
0.000000
  70
    32
  0
VERTEX
  8
0
  5
436
 10
2821.03
 20
833.440
 30
0.000000
  70
    32
  0
VERTEX
  8
0
  5
437
 10
2817.25
 20
824.322
 30
0.000000
  70
    32
  0
VERTEX
  8
0
  5
438
 10
2813.67
 20
815.331
 30
0.000000
  70
    32
  0
VERTEX
  8
0
  5
439
 10
2810.30
 20
806.464
 30
0.000000
  70
    32
  0
VERTEX
  8
0
  5
43A
 10
2807.13
 20
797.720
 30
0.000000
  70
    32
  0
VERTEX
  8
0
  5
43B
 10
2804.16
 20
789.095
 30
0.000000
  70
    32
  0
VERTEX
  8
0
  5
43C
 10
2801.38
 20
780.587
 30
0.000000
  70
    32
  0
VERTEX
  8
0
  5
43D
 10
2798.78
 20
772.195
 30
0.000000
  70
    32
  0
VERTEX
  8
0
  5
43E
 10
2796.38
 20
763.916
 30
0.000000
  70
    32
  0
VERTEX
  8
0
  5
43F
 10
2794.15
 20
755.748
 30
0.000000
  70
    32
  0
VERTEX
  8
0
  5
440
 10
2792.11
 20
747.688
 30
0.000000
  70
    32
  0
VERTEX
  8
0
  5
441
 10
2790.24
 20
739.734
 30
0.000000
  70
    32
  0
VERTEX
  8
0
  5
442
 10
2788.54
 20
731.884
 30
0.000000
  70
    32
  0
VERTEX
  8
0
  5
443
 10
2787.01
 20
724.136
 30
0.000000
  70
    32
  0
VERTEX
  8
0
  5
444
 10
2785.64
 20
716.486
 30
0.000000
  70
    32
  0
VERTEX
  8
0
  5
445
 10
2784.44
 20
708.934
 30
0.000000
  70
    32
  0
VERTEX
  8
0
  5
446
 10
2783.39
 20
701.477
 30
0.000000
  70
    32
  0
VERTEX
  8
0
  5
447
 10
2782.50
 20
694.112
 30
0.000000
  70
    32
  0
VERTEX
  8
0
  5
448
 10
2781.76
 20
686.837
 30
0.000000
  70
    32
  0
VERTEX
  8
0
  5
449
 10
2781.16
 20
679.650
 30
0.000000
  70
    32
  0
VERTEX
  8
0
  5
44A
 10
2780.71
 20
672.548
 30
0.000000
  70
    32
  0
VERTEX
  8
0
  5
44B
 10
2780.40
 20
665.530
 30
0.000000
  70
    32
  0
VERTEX
  8
0
  5
44C
 10
2780.23
 20
658.593
 30
0.000000
  70
    32
  0
VERTEX
  8
0
  5
44D
 10
2780.19
 20
651.734
 30
0.000000
  70
    32
  0
VERTEX
  8
0
  5
44E
 10
2780.28
 20
644.952
 30
0.000000
  70
    32
  0
VERTEX
  8
0
  5
44F
 10
2780.49
 20
638.244
 30
0.000000
  70
    32
  0
VERTEX
  8
0
  5
450
 10
2780.83
 20
631.608
 30
0.000000
  70
    32
  0
VERTEX
  8
0
  5
451
 10
2781.29
 20
625.041
 30
0.000000
  70
    32
  0
VERTEX
  8
0
  5
452
 10
2781.86
 20
618.542
 30
0.000000
  70
    32
  0
VERTEX
  8
0
  5
453
 10
2782.55
 20
612.108
 30
0.000000
  70
    32
  0
VERTEX
  8
0
  5
454
 10
2783.34
 20
605.736
 30
0.000000
  70
    32
  0
VERTEX
  8
0
  5
455
 10
2784.24
 20
599.425
 30
0.000000
  70
    32
  0
VERTEX
  8
0
  5
456
 10
2785.24
 20
593.172
 30
0.000000
  70
    32
  0
VERTEX
  8
0
  5
457
 10
2786.34
 20
586.975
 30
0.000000
  70
    32
  0
VERTEX
  8
0
  5
458
 10
2787.54
 20
580.832
 30
0.000000
  70
    32
  0
VERTEX
  8
0
  5
459
 10
2788.82
 20
574.740
 30
0.000000
  70
    32
  0
VERTEX
  8
0
  5
45A
 10
2790.19
 20
568.697
 30
0.000000
  70
    32
  0
VERTEX
  8
0
  5
45B
 10
2791.65
 20
562.700
 30
0.000000
  70
    32
  0
VERTEX
  8
0
  5
45C
 10
2793.19
 20
556.748
 30
0.000000
  70
    32
  0
VERTEX
  8
0
  5
45D
 10
2794.81
 20
550.838
 30
0.000000
  70
    32
  0
VERTEX
  8
0
  5
45E
 10
2796.50
 20
544.968
 30
0.000000
  70
    32
  0
VERTEX
  8
0
  5
45F
 10
2798.25
 20
539.136
 30
0.000000
  70
    32
  0
VERTEX
  8
0
  5
460
 10
2800.08
 20
533.339
 30
0.000000
  70
    32
  0
VERTEX
  8
0
  5
461
 10
2801.97
 20
527.575
 30
0.000000
  70
    32
  0
VERTEX
  8
0
  5
462
 10
2803.92
 20
521.842
 30
0.000000
  70
    32
  0
VERTEX
  8
0
  5
463
 10
2805.92
 20
516.137
 30
0.000000
  70
    32
  0
VERTEX
  8
0
  5
464
 10
2807.98
 20
510.458
 30
0.000000
  70
    32
  0
VERTEX
  8
0
  5
465
 10
2810.09
 20
504.804
 30
0.000000
  70
    32
  0
VERTEX
  8
0
  5
466
 10
2812.24
 20
499.170
 30
0.000000
  70
    32
  0
VERTEX
  8
0
  5
467
 10
2814.44
 20
493.557
 30
0.000000
  70
    32
  0
VERTEX
  8
0
  5
468
 10
2816.67
 20
487.960
 30
0.000000
  70
    32
  0
VERTEX
  8
0
  5
469
 10
2818.94
 20
482.378
 30
0.000000
  70
    32
  0
VERTEX
  8
0
  5
46A
 10
2821.24
 20
476.808
 30
0.000000
  70
    32
  0
VERTEX
  8
0
  5
46B
 10
2823.57
 20
471.249
 30
0.000000
  70
    32
  0
VERTEX
  8
0
  5
46C
 10
2825.92
 20
465.697
 30
0.000000
  70
    32
  0
VERTEX
  8
0
  5
46D
 10
2828.30
 20
460.151
 30
0.000000
  70
    32
  0
VERTEX
  8
0
  5
46E
 10
2830.69
 20
454.609
 30
0.000000
  70
    32
  0
VERTEX
  8
0
  5
46F
 10
2833.10
 20
449.067
 30
0.000000
  70
    32
  0
VERTEX
  8
0
  5
470
 10
2835.51
 20
443.524
 30
0.000000
  70
    32
  0
VERTEX
  8
0
  5
471
 10
2837.94
 20
437.978
 30
0.000000
  70
    32
  0
VERTEX
  8
0
  5
472
 10
2840.36
 20
432.426
 30
0.000000
  70
    32
  0
VERTEX
  8
0
  5
473
 10
2842.79
 20
426.866
 30
0.000000
  70
    32
  0
VERTEX
  8
0
  5
474
 10
2845.22
 20
421.295
 30
0.000000
  70
    32
  0
VERTEX
  8
0
  5
475
 10
2847.64
 20
415.712
 30
0.000000
  70
    32
  0
VERTEX
  8
0
  5
476
 10
2850.04
 20
410.114
 30
0.000000
  70
    32
  0
VERTEX
  8
0
  5
477
 10
2852.44
 20
404.498
 30
0.000000
  70
    32
  0
VERTEX
  8
0
  5
478
 10
2854.81
 20
398.864
 30
0.000000
  70
    32
  0
VERTEX
  8
0
  5
479
 10
2857.17
 20
393.207
 30
0.000000
  70
    32
  0
VERTEX
  8
0
  5
47A
 10
2859.50
 20
387.526
 30
0.000000
  70
    32
  0
VERTEX
  8
0
  5
47B
 10
2861.80
 20
381.819
 30
0.000000
  70
    32
  0
VERTEX
  8
0
  5
47C
 10
2864.08
 20
376.083
 30
0.000000
  70
    32
  0
VERTEX
  8
0
  5
47D
 10
2866.31
 20
370.316
 30
0.000000
  70
    32
  0
VERTEX
  8
0
  5
47E
 10
2868.51
 20
364.516
 30
0.000000
  70
    32
  0
VERTEX
  8
0
  5
47F
 10
2870.67
 20
358.681
 30
0.000000
  70
    32
  0
VERTEX
  8
0
  5
480
 10
2872.78
 20
352.807
 30
0.000000
  70
    32
  0
VERTEX
  8
0
  5
481
 10
2874.84
 20
346.894
 30
0.000000
  70
    32
  0
VERTEX
  8
0
  5
482
 10
2876.85
 20
340.938
 30
0.000000
  70
    32
  0
VERTEX
  8
0
  5
483
 10
2878.81
 20
334.938
 30
0.000000
  70
    32
  0
VERTEX
  8
0
  5
484
 10
2880.70
 20
328.891
 30
0.000000
  70
    32
  0
VERTEX
  8
0
  5
485
 10
2882.54
 20
322.794
 30
0.000000
  70
    32
  0
VERTEX
  8
0
  5
486
 10
2884.30
 20
316.646
 30
0.000000
  70
    32
  0
VERTEX
  8
0
  5
487
 10
2886.00
 20
310.444
 30
0.000000
  70
    32
  0
VERTEX
  8
0
  5
488
 10
2887.62
 20
304.186
 30
0.000000
  70
    32
  0
VERTEX
  8
0
  5
489
 10
2889.17
 20
297.870
 30
0.000000
  70
    32
  0
VERTEX
  8
0
  5
48A
 10
2890.63
 20
291.493
 30
0.000000
  70
    32
  0
VERTEX
  8
0
  5
48B
 10
2892.01
 20
285.054
 30
0.000000
  70
    32
  0
VERTEX
  8
0
  5
48C
 10
2893.31
 20
278.549
 30
0.000000
  70
    32
  0
VERTEX
  8
0
  5
48D
 10
2894.51
 20
271.976
 30
0.000000
  70
    32
  0
VERTEX
  8
0
  5
48E
 10
2895.62
 20
265.334
 30
0.000000
  70
    32
  0
VERTEX
  8
0
  5
48F
 10
2896.63
 20
258.620
 30
0.000000
  70
    32
  0
VERTEX
  8
0
  5
490
 10
2897.54
 20
251.831
 30
0.000000
  70
    32
  0
VERTEX
  8
0
  5
491
 10
2898.35
 20
244.966
 30
0.000000
  70
    32
  0
VERTEX
  8
0
  5
492
 10
2899.04
 20
238.022
 30
0.000000
  70
    32
  0
VERTEX
  8
0
  5
493
 10
2899.63
 20
230.996
 30
0.000000
  70
    32
  0
VERTEX
  8
0
  5
494
 10
2900.10
 20
223.887
 30
0.000000
  70
    32
  0
VERTEX
  8
0
  5
495
 10
2900.45
 20
216.693
 30
0.000000
  70
    32
  0
VERTEX
  8
0
  5
496
 10
2900.68
 20
209.410
 30
0.000000
  70
    32
  0
VERTEX
  8
0
  5
497
 10
2900.78
 20
202.037
 30
0.000000
  70
    32
  0
VERTEX
  8
0
  5
498
 10
2900.75
 20
194.571
 30
0.000000
  70
    32
  0
VERTEX
  8
0
  5
499
 10
2900.59
 20
187.011
 30
0.000000
  70
    32
  0
VERTEX
  8
0
  5
49A
 10
2900.29
 20
179.353
 30
0.000000
  70
    32
  0
VERTEX
  8
0
  5
49B
 10
2899.86
 20
171.596
 30
0.000000
  70
    32
  0
VERTEX
  8
0
  5
49C
 10
2899.28
 20
163.737
 30
0.000000
  70
    32
  0
VERTEX
  8
0
  5
49D
 10
2898.55
 20
155.774
 30
0.000000
  70
    32
  0
VERTEX
  8
0
  5
49E
 10
2897.67
 20
147.705
 30
0.000000
  70
    32
  0
VERTEX
  8
0
  5
49F
 10
2896.64
 20
139.527
 30
0.000000
  70
    32
  0
VERTEX
  8
0
  5
4A0
 10
2895.45
 20
131.238
 30
0.000000
  70
    32
  0
VERTEX
  8
0
  5
4A1
 10
2894.10
 20
122.836
 30
0.000000
  70
    32
  0
VERTEX
  8
0
  5
4A2
 10
2892.59
 20
114.319
 30
0.000000
  70
    32
  0
VERTEX
  8
0
  5
4A3
 10
2890.91
 20
105.684
 30
0.000000
  70
    32
  0
VERTEX
  8
0
  5
4A4
 10
2889.05
 20
96.9286
 30
0.000000
  70
    32
  0
VERTEX
  8
0
  5
4A5
 10
2887.02
 20
88.0511
 30
0.000000
  70
    32
  0
VERTEX
  8
0
  5
4A6
 10
2884.82
 20
79.0490
 30
0.000000
  70
    32
  0
VERTEX
  8
0
  5
4A7
 10
2882.43
 20
69.9201
 30
0.000000
  70
    32
  0
VERTEX
  8
0
  5
4A8
 10
2879.85
 20
60.6619
 30
0.000000
  70
    32
  0
VERTEX
  8
0
  5
4A9
 10
2877.09
 20
51.2723
 30
0.000000
  70
    32
  0
VERTEX
  8
0
  5
4AA
 10
2874.13
 20
41.7490
 30
0.000000
  70
    32
  0
VERTEX
  8
0
  5
4AB
 10
2870.98
 20
32.0896
 30
0.000000
  70
    32
  0
SEQEND
  8
0
  5
4AC
  0
LINE
  5
DF
  8
0
  6
CONTINUOUS
 62
     5
 10
2930.9830043585021
 20
932.08963059471535
 30
0.0
 11
2870.9830043585021
 21
932.08963059471535
 31
0.0
  0
POLYLINE
  8
0
  5
4AD
  62
5
  66
     1
 10
0.000000
 20
0.000000
 30
0.000000
  70
     8
  0
VERTEX
  8
0
  5
4AE
 10
2910.98
 20
32.0896
 30
0.000000
  70
    32
  0
VERTEX
  8
0
  5
4AF
 10
2913.71
 20
41.2972
 30
0.000000
  70
    32
  0
VERTEX
  8
0
  5
4B0
 10
2916.28
 20
50.3924
 30
0.000000
  70
    32
  0
VERTEX
  8
0
  5
4B1
 10
2918.68
 20
59.3772
 30
0.000000
  70
    32
  0
VERTEX
  8
0
  5
4B2
 10
2920.92
 20
68.2535
 30
0.000000
  70
    32
  0
VERTEX
  8
0
  5
4B3
 10
2923.01
 20
77.0231
 30
0.000000
  70
    32
  0
VERTEX
  8
0
  5
4B4
 10
2924.95
 20
85.6879
 30
0.000000
  70
    32
  0
VERTEX
  8
0
  5
4B5
 10
2926.73
 20
94.2499
 30
0.000000
  70
    32
  0
VERTEX
  8
0
  5
4B6
 10
2928.37
 20
102.711
 30
0.000000
  70
    32
  0
VERTEX
  8
0
  5
4B7
 10
2929.87
 20
111.073
 30
0.000000
  70
    32
  0
VERTEX
  8
0
  5
4B8
 10
2931.23
 20
119.337
 30
0.000000
  70
    32
  0
VERTEX
  8
0
  5
4B9
 10
2932.44
 20
127.507
 30
0.000000
  70
    32
  0
VERTEX
  8
0
  5
4BA
 10
2933.53
 20
135.583
 30
0.000000
  70
    32
  0
VERTEX
  8
0
  5
4BB
 10
2934.48
 20
143.567
 30
0.000000
  70
    32
  0
VERTEX
  8
0
  5
4BC
 10
2935.30
 20
151.462
 30
0.000000
  70
    32
  0
VERTEX
  8
0
  5
4BD
 10
2936.00
 20
159.269
 30
0.000000
  70
    32
  0
VERTEX
  8
0
  5
4BE
 10
2936.57
 20
166.990
 30
0.000000
  70
    32
  0
VERTEX
  8
0
  5
4BF
 10
2937.02
 20
174.627
 30
0.000000
  70
    32
  0
VERTEX
  8
0
  5
4C0
 10
2937.36
 20
182.182
 30
0.000000
  70
    32
  0
VERTEX
  8
0
  5
4C1
 10
2937.58
 20
189.656
 30
0.000000
  70
    32
  0
VERTEX
  8
0
  5
4C2
 10
2937.70
 20
197.053
 30
0.000000
  70
    32
  0
VERTEX
  8
0
  5
4C3
 10
2937.70
 20
204.373
 30
0.000000
  70
    32
  0
VERTEX
  8
0
  5
4C4
 10
2937.60
 20
211.618
 30
0.000000
  70
    32
  0
VERTEX
  8
0
  5
4C5
 10
2937.40
 20
218.791
 30
0.000000
  70
    32
  0
VERTEX
  8
0
  5
4C6
 10
2937.09
 20
225.893
 30
0.000000
  70
    32
  0
VERTEX
  8
0
  5
4C7
 10
2936.70
 20
232.926
 30
0.000000
  70
    32
  0
VERTEX
  8
0
  5
4C8
 10
2936.20
 20
239.892
 30
0.000000
  70
    32
  0
VERTEX
  8
0
  5
4C9
 10
2935.62
 20
246.793
 30
0.000000
  70
    32
  0
VERTEX
  8
0
  5
4CA
 10
2934.95
 20
253.630
 30
0.000000
  70
    32
  0
VERTEX
  8
0
  5
4CB
 10
2934.20
 20
260.406
 30
0.000000
  70
    32
  0
VERTEX
  8
0
  5
4CC
 10
2933.36
 20
267.123
 30
0.000000
  70
    32
  0
VERTEX
  8
0
  5
4CD
 10
2932.45
 20
273.783
 30
0.000000
  70
    32
  0
VERTEX
  8
0
  5
4CE
 10
2931.46
 20
280.386
 30
0.000000
  70
    32
  0
VERTEX
  8
0
  5
4CF
 10
2930.40
 20
286.936
 30
0.000000
  70
    32
  0
VERTEX
  8
0
  5
4D0
 10
2929.27
 20
293.434
 30
0.000000
  70
    32
  0
VERTEX
  8
0
  5
4D1
 10
2928.07
 20
299.881
 30
0.000000
  70
    32
  0
VERTEX
  8
0
  5
4D2
 10
2926.81
 20
306.281
 30
0.000000
  70
    32
  0
VERTEX
  8
0
  5
4D3
 10
2925.49
 20
312.635
 30
0.000000
  70
    32
  0
VERTEX
  8
0
  5
4D4
 10
2924.11
 20
318.944
 30
0.000000
  70
    32
  0
VERTEX
  8
0
  5
4D5
 10
2922.68
 20
325.210
 30
0.000000
  70
    32
  0
VERTEX
  8
0
  5
4D6
 10
2921.19
 20
331.436
 30
0.000000
  70
    32
  0
VERTEX
  8
0
  5
4D7
 10
2919.66
 20
337.624
 30
0.000000
  70
    32
  0
VERTEX
  8
0
  5
4D8
 10
2918.08
 20
343.774
 30
0.000000
  70
    32
  0
VERTEX
  8
0
  5
4D9
 10
2916.46
 20
349.890
 30
0.000000
  70
    32
  0
VERTEX
  8
0
  5
4DA
 10
2914.79
 20
355.972
 30
0.000000
  70
    32
  0
VERTEX
  8
0
  5
4DB
 10
2913.09
 20
362.024
 30
0.000000
  70
    32
  0
VERTEX
  8
0
  5
4DC
 10
2911.36
 20
368.046
 30
0.000000
  70
    32
  0
VERTEX
  8
0
  5
4DD
 10
2909.60
 20
374.040
 30
0.000000
  70
    32
  0
VERTEX
  8
0
  5
4DE
 10
2907.81
 20
380.010
 30
0.000000
  70
    32
  0
VERTEX
  8
0
  5
4DF
 10
2905.99
 20
385.955
 30
0.000000
  70
    32
  0
VERTEX
  8
0
  5
4E0
 10
2904.15
 20
391.879
 30
0.000000
  70
    32
  0
VERTEX
  8
0
  5
4E1
 10
2902.29
 20
397.784
 30
0.000000
  70
    32
  0
VERTEX
  8
0
  5
4E2
 10
2900.42
 20
403.670
 30
0.000000
  70
    32
  0
VERTEX
  8
0
  5
4E3
 10
2898.53
 20
409.540
 30
0.000000
  70
    32
  0
VERTEX
  8
0
  5
4E4
 10
2896.63
 20
415.396
 30
0.000000
  70
    32
  0
VERTEX
  8
0
  5
4E5
 10
2894.73
 20
421.240
 30
0.000000
  70
    32
  0
VERTEX
  8
0
  5
4E6
 10
2892.82
 20
427.073
 30
0.000000
  70
    32
  0
VERTEX
  8
0
  5
4E7
 10
2890.91
 20
432.898
 30
0.000000
  70
    32
  0
VERTEX
  8
0
  5
4E8
 10
2889.00
 20
438.716
 30
0.000000
  70
    32
  0
VERTEX
  8
0
  5
4E9
 10
2887.10
 20
444.529
 30
0.000000
  70
    32
  0
VERTEX
  8
0
  5
4EA
 10
2885.20
 20
450.340
 30
0.000000
  70
    32
  0
VERTEX
  8
0
  5
4EB
 10
2883.32
 20
456.150
 30
0.000000
  70
    32
  0
VERTEX
  8
0
  5
4EC
 10
2881.44
 20
461.961
 30
0.000000
  70
    32
  0
VERTEX
  8
0
  5
4ED
 10
2879.59
 20
467.774
 30
0.000000
  70
    32
  0
VERTEX
  8
0
  5
4EE
 10
2877.75
 20
473.592
 30
0.000000
  70
    32
  0
VERTEX
  8
0
  5
4EF
 10
2875.94
 20
479.417
 30
0.000000
  70
    32
  0
VERTEX
  8
0
  5
4F0
 10
2874.15
 20
485.250
 30
0.000000
  70
    32
  0
VERTEX
  8
0
  5
4F1
 10
2872.39
 20
491.094
 30
0.000000
  70
    32
  0
VERTEX
  8
0
  5
4F2
 10
2870.66
 20
496.950
 30
0.000000
  70
    32
  0
VERTEX
  8
0
  5
4F3
 10
2868.97
 20
502.820
 30
0.000000
  70
    32
  0
VERTEX
  8
0
  5
4F4
 10
2867.31
 20
508.706
 30
0.000000
  70
    32
  0
VERTEX
  8
0
  5
4F5
 10
2865.70
 20
514.610
 30
0.000000
  70
    32
  0
VERTEX
  8
0
  5
4F6
 10
2864.12
 20
520.534
 30
0.000000
  70
    32
  0
VERTEX
  8
0
  5
4F7
 10
2862.60
 20
526.480
 30
0.000000
  70
    32
  0
VERTEX
  8
0
  5
4F8
 10
2861.12
 20
532.449
 30
0.000000
  70
    32
  0
VERTEX
  8
0
  5
4F9
 10
2859.69
 20
538.443
 30
0.000000
  70
    32
  0
VERTEX
  8
0
  5
4FA
 10
2858.32
 20
544.465
 30
0.000000
  70
    32
  0
VERTEX
  8
0
  5
4FB
 10
2857.01
 20
550.517
 30
0.000000
  70
    32
  0
VERTEX
  8
0
  5
4FC
 10
2855.76
 20
556.599
 30
0.000000
  70
    32
  0
VERTEX
  8
0
  5
4FD
 10
2854.57
 20
562.714
 30
0.000000
  70
    32
  0
VERTEX
  8
0
  5
4FE
 10
2853.45
 20
568.865
 30
0.000000
  70
    32
  0
VERTEX
  8
0
  5
4FF
 10
2852.40
 20
575.052
 30
0.000000
  70
    32
  0
VERTEX
  8
0
  5
500
 10
2851.42
 20
581.278
 30
0.000000
  70
    32
  0
VERTEX
  8
0
  5
501
 10
2850.52
 20
587.544
 30
0.000000
  70
    32
  0
VERTEX
  8
0
  5
502
 10
2849.70
 20
593.853
 30
0.000000
  70
    32
  0
VERTEX
  8
0
  5
503
 10
2848.96
 20
600.206
 30
0.000000
  70
    32
  0
VERTEX
  8
0
  5
504
 10
2848.30
 20
606.606
 30
0.000000
  70
    32
  0
VERTEX
  8
0
  5
505
 10
2847.73
 20
613.053
 30
0.000000
  70
    32
  0
VERTEX
  8
0
  5
506
 10
2847.26
 20
619.551
 30
0.000000
  70
    32
  0
VERTEX
  8
0
  5
507
 10
2846.87
 20
626.100
 30
0.000000
  70
    32
  0
VERTEX
  8
0
  5
508
 10
2846.58
 20
632.704
 30
0.000000
  70
    32
  0
VERTEX
  8
0
  5
509
 10
2846.40
 20
639.362
 30
0.000000
  70
    32
  0
VERTEX
  8
0
  5
50A
 10
2846.31
 20
646.079
 30
0.000000
  70
    32
  0
VERTEX
  8
0
  5
50B
 10
2846.33
 20
652.855
 30
0.000000
  70
    32
  0
VERTEX
  8
0
  5
50C
 10
2846.46
 20
659.692
 30
0.000000
  70
    32
  0
VERTEX
  8
0
  5
50D
 10
2846.70
 20
666.593
 30
0.000000
  70
    32
  0
VERTEX
  8
0
  5
50E
 10
2847.05
 20
673.559
 30
0.000000
  70
    32
  0
VERTEX
  8
0
  5
50F
 10
2847.53
 20
680.591
 30
0.000000
  70
    32
  0
VERTEX
  8
0
  5
510
 10
2848.12
 20
687.693
 30
0.000000
  70
    32
  0
VERTEX
  8
0
  5
511
 10
2848.83
 20
694.865
 30
0.000000
  70
    32
  0
VERTEX
  8
0
  5
512
 10
2849.68
 20
702.110
 30
0.000000
  70
    32
  0
VERTEX
  8
0
  5
513
 10
2850.65
 20
709.430
 30
0.000000
  70
    32
  0
VERTEX
  8
0
  5
514
 10
2851.75
 20
716.826
 30
0.000000
  70
    32
  0
VERTEX
  8
0
  5
515
 10
2852.99
 20
724.300
 30
0.000000
  70
    32
  0
VERTEX
  8
0
  5
516
 10
2854.36
 20
731.855
 30
0.000000
  70
    32
  0
VERTEX
  8
0
  5
517
 10
2855.88
 20
739.491
 30
0.000000
  70
    32
  0
VERTEX
  8
0
  5
518
 10
2857.54
 20
747.212
 30
0.000000
  70
    32
  0
VERTEX
  8
0
  5
519
 10
2859.35
 20
755.018
 30
0.000000
  70
    32
  0
VERTEX
  8
0
  5
51A
 10
2861.31
 20
762.913
 30
0.000000
  70
    32
  0
VERTEX
  8
0
  5
51B
 10
2863.42
 20
770.896
 30
0.000000
  70
    32
  0
VERTEX
  8
0
  5
51C
 10
2865.69
 20
778.972
 30
0.000000
  70
    32
  0
VERTEX
  8
0
  5
51D
 10
2868.12
 20
787.141
 30
0.000000
  70
    32
  0
VERTEX
  8
0
  5
51E
 10
2870.71
 20
795.405
 30
0.000000
  70
    32
  0
VERTEX
  8
0
  5
51F
 10
2873.46
 20
803.766
 30
0.000000
  70
    32
  0
VERTEX
  8
0
  5
520
 10
2876.38
 20
812.227
 30
0.000000
  70
    32
  0
VERTEX
  8
0
  5
521
 10
2879.48
 20
820.788
 30
0.000000
  70
    32
  0
VERTEX
  8
0
  5
522
 10
2882.74
 20
829.453
 30
0.000000
  70
    32
  0
VERTEX
  8
0
  5
523
 10
2886.18
 20
838.222
 30
0.000000
  70
    32
  0
VERTEX
  8
0
  5
524
 10
2889.81
 20
847.098
 30
0.000000
  70
    32
  0
VERTEX
  8
0
  5
525
 10
2893.61
 20
856.082
 30
0.000000
  70
    32
  0
VERTEX
  8
0
  5
526
 10
2897.60
 20
865.177
 30
0.000000
  70
    32
  0
VERTEX
  8
0
  5
527
 10
2901.78
 20
874.384
 30
0.000000
  70
    32
  0
VERTEX
  8
0
  5
528
 10
2906.15
 20
883.705
 30
0.000000
  70
    32
  0
VERTEX
  8
0
  5
529
 10
2910.72
 20
893.142
 30
0.000000
  70
    32
  0
VERTEX
  8
0
  5
52A
 10
2915.48
 20
902.697
 30
0.000000
  70
    32
  0
VERTEX
  8
0
  5
52B
 10
2920.44
 20
912.372
 30
0.000000
  70
    32
  0
VERTEX
  8
0
  5
52C
 10
2925.61
 20
922.169
 30
0.000000
  70
    32
  0
VERTEX
  8
0
  5
52D
 10
2930.98
 20
932.090
 30
0.000000
  70
    32
  0
SEQEND
  8
0
  5
52E
  0
ENDSEC
  0
EOF
