  0
SECTION
  2
HEADER
  9
$ACADVER
  1
AC1015
  9
$ACADMAINTVER
 70
     6
  9
$DWGCODEPAGE
  3
ANSI_1252
  9
$INSBASE
 10
0.0
 20
0.0
 30
0.0
  9
$EXTMIN
 10
7.132874521348753
 20
-146.4975804238826
 30
-0.0015258207003583
  9
$EXTMAX
 10
888.7124649024482
 20
534.4105692051939
 30
0.0000000349246037
  9
$LIMMIN
 10
0.0
 20
0.0
  9
$LIMMAX
 10
420.0
 20
297.0
  9
$ORTHOMODE
 70
     0
  9
$REGENMODE
 70
     1
  9
$FILLMODE
 70
     1
  9
$QTEXTMODE
 70
     0
  9
$MIRRTEXT
 70
     1
  9
$LTSCALE
 40
1.0
  9
$ATTMODE
 70
     1
  9
$TEXTSIZE
 40
1.0
  9
$TRACEWID
 40
1.0
  9
$TEXTSTYLE
  7
Standard
  9
$CLAYER
  8
Internal Cut
  9
$CELTYPE
  6
ByLayer
  9
$CECOLOR
 62
   256
  9
$CELTSCALE
 40
1.0
  9
$DISPSILH
 70
     0
  9
$DIMSCALE
 40
1.0
  9
$DIMASZ
 40
2.5
  9
$DIMEXO
 40
0.625
  9
$DIMDLI
 40
3.75
  9
$DIMRND
 40
0.0
  9
$DIMDLE
 40
0.0
  9
$DIMEXE
 40
1.25
  9
$DIMTP
 40
0.0
  9
$DIMTM
 40
0.0
  9
$DIMTXT
 40
2.5
  9
$DIMCEN
 40
2.5
  9
$DIMTSZ
 40
0.0
  9
$DIMTOL
 70
     0
  9
$DIMLIM
 70
     0
  9
$DIMTIH
 70
     0
  9
$DIMTOH
 70
     0
  9
$DIMSE1
 70
     0
  9
$DIMSE2
 70
     0
  9
$DIMTAD
 70
     1
  9
$DIMZIN
 70
     8
  9
$DIMBLK
  1

  9
$DIMASO
 70
     1
  9
$DIMSHO
 70
     1
  9
$DIMPOST
  1

  9
$DIMAPOST
  1

  9
$DIMALT
 70
     0
  9
$DIMALTD
 70
     3
  9
$DIMALTF
 40
0.03937
  9
$DIMLFAC
 40
1.0
  9
$DIMTOFL
 70
     1
  9
$DIMTVP
 40
0.0
  9
$DIMTIX
 70
     0
  9
$DIMSOXD
 70
     0
  9
$DIMSAH
 70
     0
  9
$DIMBLK1
  1

  9
$DIMBLK2
  1

  9
$DIMSTYLE
  2
ISO-25
  9
$DIMCLRD
 70
     0
  9
$DIMCLRE
 70
     0
  9
$DIMCLRT
 70
     0
  9
$DIMTFAC
 40
1.0
  9
$DIMGAP
 40
0.625
  9
$DIMJUST
 70
     0
  9
$DIMSD1
 70
     0
  9
$DIMSD2
 70
     0
  9
$DIMTOLJ
 70
     0
  9
$DIMTZIN
 70
     8
  9
$DIMALTZ
 70
     0
  9
$DIMALTTZ
 70
     0
  9
$DIMUPT
 70
     0
  9
$DIMDEC
 70
     2
  9
$DIMTDEC
 70
     2
  9
$DIMALTU
 70
     2
  9
$DIMALTTD
 70
     3
  9
$DIMTXSTY
  7
Standard
  9
$DIMAUNIT
 70
     0
  9
$DIMADEC
 70
     0
  9
$DIMALTRND
 40
0.0
  9
$DIMAZIN
 70
     0
  9
$DIMDSEP
 70
    44
  9
$DIMATFIT
 70
     3
  9
$DIMFRAC
 70
     0
  9
$DIMLDRBLK
  1

  9
$DIMLUNIT
 70
     2
  9
$DIMLWD
 70
    -2
  9
$DIMLWE
 70
    -2
  9
$DIMTMOVE
 70
     0
  9
$LUNITS
 70
     2
  9
$LUPREC
 70
     4
  9
$SKETCHINC
 40
1.0
  9
$FILLETRAD
 40
10.0
  9
$AUNITS
 70
     0
  9
$AUPREC
 70
     0
  9
$MENU
  1
.
  9
$ELEVATION
 40
0.0
  9
$PELEVATION
 40
0.0
  9
$THICKNESS
 40
0.0
  9
$LIMCHECK
 70
     0
  9
$CHAMFERA
 40
10.0
  9
$CHAMFERB
 40
10.0
  9
$CHAMFERC
 40
20.0
  9
$CHAMFERD
 40
0.0
  9
$SKPOLY
 70
     0
  9
$TDCREATE
 40
2455416.729372465
  9
$TDUCREATE
 40
2455416.229372465
  9
$TDUPDATE
 40
2455416.748220486
  9
$TDUUPDATE
 40
2455416.248220486
  9
$TDINDWG
 40
0.0146392245
  9
$TDUSRTIMER
 40
0.0146390394
  9
$USRTIMER
 70
     1
  9
$ANGBASE
 50
0.0
  9
$ANGDIR
 70
     0
  9
$PDMODE
 70
     3
  9
$PDSIZE
 40
-0.7
  9
$PLINEWID
 40
0.0
  9
$SPLFRAME
 70
     0
  9
$SPLINETYPE
 70
     6
  9
$SPLINESEGS
 70
     8
  9
$HANDSEED
  5
104
  9
$SURFTAB1
 70
     6
  9
$SURFTAB2
 70
     6
  9
$SURFTYPE
 70
     6
  9
$SURFU
 70
     6
  9
$SURFV
 70
     6
  9
$UCSBASE
  2

  9
$UCSNAME
  2

  9
$UCSORG
 10
0.0
 20
0.0
 30
0.0
  9
$UCSXDIR
 10
1.0
 20
0.0
 30
0.0
  9
$UCSYDIR
 10
0.0
 20
1.0
 30
0.0
  9
$UCSORTHOREF
  2

  9
$UCSORTHOVIEW
 70
     0
  9
$UCSORGTOP
 10
0.0
 20
0.0
 30
0.0
  9
$UCSORGBOTTOM
 10
0.0
 20
0.0
 30
0.0
  9
$UCSORGLEFT
 10
0.0
 20
0.0
 30
0.0
  9
$UCSORGRIGHT
 10
0.0
 20
0.0
 30
0.0
  9
$UCSORGFRONT
 10
0.0
 20
0.0
 30
0.0
  9
$UCSORGBACK
 10
0.0
 20
0.0
 30
0.0
  9
$PUCSBASE
  2

  9
$PUCSNAME
  2

  9
$PUCSORG
 10
0.0
 20
0.0
 30
0.0
  9
$PUCSXDIR
 10
1.0
 20
0.0
 30
0.0
  9
$PUCSYDIR
 10
0.0
 20
1.0
 30
0.0
  9
$PUCSORTHOREF
  2

  9
$PUCSORTHOVIEW
 70
     0
  9
$PUCSORGTOP
 10
0.0
 20
0.0
 30
0.0
  9
$PUCSORGBOTTOM
 10
0.0
 20
0.0
 30
0.0
  9
$PUCSORGLEFT
 10
0.0
 20
0.0
 30
0.0
  9
$PUCSORGRIGHT
 10
0.0
 20
0.0
 30
0.0
  9
$PUCSORGFRONT
 10
0.0
 20
0.0
 30
0.0
  9
$PUCSORGBACK
 10
0.0
 20
0.0
 30
0.0
  9
$USERI1
 70
     0
  9
$USERI2
 70
     0
  9
$USERI3
 70
     0
  9
$USERI4
 70
     0
  9
$USERI5
 70
     0
  9
$USERR1
 40
0.0
  9
$USERR2
 40
0.0
  9
$USERR3
 40
0.0
  9
$USERR4
 40
0.0
  9
$USERR5
 40
0.0
  9
$WORLDVIEW
 70
     1
  9
$SHADEDGE
 70
     3
  9
$SHADEDIF
 70
    70
  9
$TILEMODE
 70
     1
  9
$MAXACTVP
 70
    64
  9
$PINSBASE
 10
0.0
 20
0.0
 30
0.0
  9
$PLIMCHECK
 70
     0
  9
$PEXTMIN
 10
1.000000000000000E+20
 20
1.000000000000000E+20
 30
1.000000000000000E+20
  9
$PEXTMAX
 10
-1.000000000000000E+20
 20
-1.000000000000000E+20
 30
-1.000000000000000E+20
  9
$PLIMMIN
 10
0.0
 20
0.0
  9
$PLIMMAX
 10
420.0
 20
297.0
  9
$UNITMODE
 70
     0
  9
$VISRETAIN
 70
     1
  9
$PLINEGEN
 70
     0
  9
$PSLTSCALE
 70
     1
  9
$TREEDEPTH
 70
  3020
  9
$CMLSTYLE
  2
Standard
  9
$CMLJUST
 70
     1
  9
$CMLSCALE
 40
1.0
  9
$PROXYGRAPHICS
 70
     1
  9
$MEASUREMENT
 70
     1
  9
$CELWEIGHT
370
    -1
  9
$ENDCAPS
280
     0
  9
$JOINSTYLE
280
     0
  9
$LWDISPLAY
290
     0
  9
$INSUNITS
 70
     4
  9
$HYPERLINKBASE
  1

  9
$STYLESHEET
  1

  9
$XEDIT
290
     1
  9
$CEPSNTYPE
380
     0
  9
$PSTYLEMODE
290
     1
  9
$FINGERPRINTGUID
  2
{FAEB1C30-E019-11D5-929B-00C0DF256EC4}
  9
$VERSIONGUID
  2
{A047858D-E374-4270-A672-BF224915D90C}
  9
$EXTNAMES
290
     1
  9
$PSVPSCALE
 40
0.0
  9
$OLESTARTUP
290
     0
  0
ENDSEC
  0
SECTION
  2
CLASSES
  0
CLASS
  1
ACDBDICTIONARYWDFLT
  2
AcDbDictionaryWithDefault
  3
AutoCAD 2000
 90
        0
280
     0
281
     0
  0
CLASS
  1
ACDBPLACEHOLDER
  2
AcDbPlaceHolder
  3
AutoCAD 2000
 90
        0
280
     0
281
     0
  0
CLASS
  1
LAYOUT
  2
AcDbLayout
  3
AutoCAD 2000
 90
        0
280
     0
281
     0
  0
ENDSEC
  0
SECTION
  2
TABLES
  0
TABLE
  2
VPORT
  5
8
330
0
100
AcDbSymbolTable
 70
     6
  0
VPORT
  5
103
330
8
100
AcDbSymbolTableRecord
100
AcDbViewportTableRecord
  2
*Active
 70
     0
 10
0.0
 20
0.0
 11
1.0
 21
1.0
 12
627.3340110506374
 22
54.83592951507512
 13
0.0
 23
0.0
 14
10.0
 24
10.0
 15
10.0
 25
10.0
 16
0.0
 26
0.0
 36
1.0
 17
0.0
 27
0.0
 37
0.0
 40
1195.114297715499
 41
1.183118741058655
 42
50.0
 43
0.0
 44
0.0
 50
0.0
 51
0.0
 71
     0
 72
   100
 73
     1
 74
     3
 75
     0
 76
     0
 77
     0
 78
     0
281
     0
 65
     1
110
0.0
120
0.0
130
0.0
111
1.0
121
0.0
131
0.0
112
0.0
122
1.0
132
0.0
 79
     0
146
0.0
  0
ENDTAB
  0
TABLE
  2
LTYPE
  5
5
330
0
100
AcDbSymbolTable
 70
     1
  0
LTYPE
  5
14
330
5
100
AcDbSymbolTableRecord
100
AcDbLinetypeTableRecord
  2
ByBlock
 70
     0
  3

 72
    65
 73
     0
 40
0.0
  0
LTYPE
  5
15
330
5
100
AcDbSymbolTableRecord
100
AcDbLinetypeTableRecord
  2
ByLayer
 70
     0
  3

 72
    65
 73
     0
 40
0.0
  0
LTYPE
  5
16
330
5
100
AcDbSymbolTableRecord
100
AcDbLinetypeTableRecord
  2
Continuous
 70
     0
  3

 72
    65
 73
     0
 40
0.0
  0
ENDTAB
  0
TABLE
  2
LAYER
  5
2
330
0
100
AcDbSymbolTable
 70
     4
  0
LAYER
  5
10
330
2
100
AcDbSymbolTableRecord
100
AcDbLayerTableRecord
  2
0
 70
     0
 62
     7
  6
Continuous
370
    -3
390
F
  0
LAYER
  5
FA
330
2
100
AcDbSymbolTableRecord
100
AcDbLayerTableRecord
  2
Internal Cut
 70
     0
 62
     5
  6
Continuous
370
    -3
390
F
  0
LAYER
  5
FB
330
2
100
AcDbSymbolTableRecord
100
AcDbLayerTableRecord
  2
Pocket Cut
 70
     0
 62
     3
  6
Continuous
370
    -3
390
F
  0
LAYER
  5
FC
330
2
100
AcDbSymbolTableRecord
100
AcDbLayerTableRecord
  2
External Cut
 70
     0
 62
     1
  6
Continuous
370
    -3
390
F
  0
ENDTAB
  0
TABLE
  2
STYLE
  5
3
330
0
100
AcDbSymbolTable
 70
     1
  0
STYLE
  5
11
330
3
100
AcDbSymbolTableRecord
100
AcDbTextStyleTableRecord
  2
Standard
 70
     0
 40
1.0
 41
1.0
 50
0.0
 71
     0
 42
1.0
  3
RomanS
  4

  0
ENDTAB
  0
TABLE
  2
VIEW
  5
6
330
0
100
AcDbSymbolTable
 70
     0
  0
ENDTAB
  0
TABLE
  2
UCS
  5
7
330
0
100
AcDbSymbolTable
 70
     0
  0
ENDTAB
  0
TABLE
  2
APPID
  5
9
330
0
100
AcDbSymbolTable
 70
     1
  0
APPID
  5
12
330
9
100
AcDbSymbolTableRecord
100
AcDbRegAppTableRecord
  2
ACAD
 70
     0
  0
ENDTAB
  0
TABLE
  2
DIMSTYLE
  5
A
330
0
100
AcDbSymbolTable
 70
     1
100
AcDbDimStyleTable
 71
     0
  0
DIMSTYLE
105
27
330
A
100
AcDbSymbolTableRecord
100
AcDbDimStyleTableRecord
  2
ISO-25
 70
     0
 41
2.5
 42
0.625
 44
1.25
 73
     0
 74
     0
 77
     1
 78
     8
 79
     2
140
2.5
141
2.5
146
0.0
147
0.625
271
     2
272
     0
273
     0
274
     0
278
    44
283
     0
289
     0
340
11
  0
ENDTAB
  0
TABLE
  2
BLOCK_RECORD
  5
1
330
0
100
AcDbSymbolTable
 70
     1
  0
BLOCK_RECORD
  5
1F
330
1
100
AcDbSymbolTableRecord
100
AcDbBlockTableRecord
  2
*Model_Space
340
22
  0
BLOCK_RECORD
  5
1B
330
1
100
AcDbSymbolTableRecord
100
AcDbBlockTableRecord
  2
*Paper_Space
340
1E
  0
BLOCK_RECORD
  5
23
330
1
100
AcDbSymbolTableRecord
100
AcDbBlockTableRecord
  2
*Paper_Space0
340
26
  0
ENDTAB
  0
ENDSEC
  0
SECTION
  2
BLOCKS
  0
BLOCK
  5
20
330
1F
100
AcDbEntity
  8
0
100
AcDbBlockBegin
  2
*Model_Space
 70
     0
 10
0.0
 20
0.0
 30
0.0
  3
*Model_Space
  1

  0
ENDBLK
  5
21
330
1F
100
AcDbEntity
  8
0
100
AcDbBlockEnd
  0
BLOCK
  5
1C
330
1B
100
AcDbEntity
 67
     1
  8
0
100
AcDbBlockBegin
  2
*Paper_Space
 70
     0
 10
0.0
 20
0.0
 30
0.0
  3
*Paper_Space
  1

  0
ENDBLK
  5
1D
330
1B
100
AcDbEntity
 67
     1
  8
0
100
AcDbBlockEnd
  0
BLOCK
  5
24
330
23
100
AcDbEntity
  8
0
100
AcDbBlockBegin
  2
*Paper_Space0
 70
     0
 10
0.0
 20
0.0
 30
0.0
  3
*Paper_Space0
  1

  0
ENDBLK
  5
25
330
23
100
AcDbEntity
  8
0
100
AcDbBlockEnd
  0
ENDSEC
  0
SECTION
  2
ENTITIES
  0
LWPOLYLINE
  5
2A
330
1F
100
AcDbEntity
  8
Internal Cut
100
AcDbPolyline
 90
        5
 70
   128
 43
0.0
 10
247.5618
 20
401.3130249999999
 42
-0.4142140000000001
 10
244.096639
 20
397.847864
 42
-0.4142140000000001
 10
240.6314769999999
 20
401.3130249999999
 42
-0.4142140000000001
 10
244.096639
 20
404.7781869999999
 42
-0.4142140000000001
 10
247.5618
 20
401.3130249999999
  0
LWPOLYLINE
  5
2B
330
1F
100
AcDbEntity
  8
Internal Cut
100
AcDbPolyline
 90
        5
 70
   128
 43
0.0
 10
231.658936
 20
278.180971
 42
-0.4142140000000001
 10
224.0328319999999
 20
270.554867
 42
-0.4142140000000001
 10
216.406729
 20
278.180971
 42
-0.4142140000000001
 10
224.0328319999999
 20
285.8070749999999
 42
-0.4142140000000001
 10
231.658936
 20
278.180971
  0
LWPOLYLINE
  5
2C
330
1F
100
AcDbEntity
  8
Internal Cut
100
AcDbPolyline
 90
        5
 70
   128
 43
0.0
 10
132.4875679999999
 20
53.755642
 42
-0.4142140000000001
 10
124.8614639999999
 20
46.129538
 42
-0.4142140000000001
 10
117.23536
 20
53.755642
 42
-0.4142140000000001
 10
124.8614639999999
 20
61.381746
 42
-0.4142140000000001
 10
132.4875679999999
 20
53.755642
  0
LWPOLYLINE
  5
2D
330
1F
100
AcDbEntity
  8
Internal Cut
100
AcDbPolyline
 90
        5
 70
   128
 43
0.0
 10
553.32072
 20
289.185078
 42
-0.4142140000000001
 10
532.687125
 20
268.5514839999999
 42
-0.4142140000000001
 10
512.0535309999999
 20
289.185078
 42
-0.4142140000000001
 10
532.687125
 20
309.818672
 42
-0.4142140000000001
 10
553.32072
 20
289.185078
  0
LWPOLYLINE
  5
2E
330
1F
100
AcDbEntity
  8
External Cut
100
AcDbPolyline
 90
        5
 70
   128
 43
0.0
 10
266.4710129999999
 20
202.9862759999999
 42
-0.4142140000000001
 10
245.8374189999999
 20
182.352682
 42
-0.4142140000000001
 10
225.203825
 20
202.9862759999999
 42
-0.4142140000000001
 10
245.8374189999999
 20
223.61987
 42
-0.4142140000000001
 10
266.4710129999999
 20
202.9862759999999
  0
LWPOLYLINE
  5
2F
330
1F
100
AcDbEntity
  8
Internal Cut
100
AcDbPolyline
 90
        5
 70
   128
 43
0.0
 10
227.127872
 20
294.683944
 42
-0.4142140000000001
 10
224.0328319999999
 20
291.5889049999999
 42
-0.4142140000000001
 10
220.937793
 20
294.683944
 42
-0.4142140000000001
 10
224.0328319999999
 20
297.7789829999999
 42
-0.4142140000000001
 10
227.127872
 20
294.683944
  0
LWPOLYLINE
  5
30
330
1F
100
AcDbEntity
  8
Internal Cut
100
AcDbPolyline
 90
        5
 70
   128
 43
0.0
 10
215.4585069999999
 20
289.850335
 42
-0.4142140000000001
 10
212.363468
 20
286.7552959999999
 42
-0.4142140000000001
 10
209.268429
 20
289.850335
 42
-0.4142140000000001
 10
212.363468
 20
292.9453739999999
 42
-0.4142140000000001
 10
215.4585069999999
 20
289.850335
  0
LWPOLYLINE
  5
31
330
1F
100
AcDbEntity
  8
Internal Cut
100
AcDbPolyline
 90
        5
 70
   128
 43
0.0
 10
210.624898
 20
278.180971
 42
-0.4142140000000001
 10
207.529859
 20
275.0859319999999
 42
-0.4142140000000001
 10
204.4348199999999
 20
278.180971
 42
-0.4142140000000001
 10
207.529859
 20
281.2760099999999
 42
-0.4142140000000001
 10
210.624898
 20
278.180971
  0
LWPOLYLINE
  5
32
330
1F
100
AcDbEntity
  8
Internal Cut
100
AcDbPolyline
 90
        5
 70
   128
 43
0.0
 10
215.4585069999999
 20
266.5116069999999
 42
-0.4142140000000001
 10
212.363468
 20
263.4165669999999
 42
-0.4142140000000001
 10
209.268429
 20
266.5116069999999
 42
-0.4142140000000001
 10
212.363468
 20
269.606646
 42
-0.4142140000000001
 10
215.4585069999999
 20
266.5116069999999
  0
LWPOLYLINE
  5
33
330
1F
100
AcDbEntity
  8
Internal Cut
100
AcDbPolyline
 90
        5
 70
   128
 43
0.0
 10
227.127872
 20
261.677998
 42
-0.4142140000000001
 10
224.0328319999999
 20
258.582958
 42
-0.4142140000000001
 10
220.937793
 20
261.677998
 42
-0.4142140000000001
 10
224.0328319999999
 20
264.773037
 42
-0.4142140000000001
 10
227.127872
 20
261.677998
  0
LWPOLYLINE
  5
34
330
1F
100
AcDbEntity
  8
Internal Cut
100
AcDbPolyline
 90
        5
 70
   128
 43
0.0
 10
238.797236
 20
266.5116069999999
 42
-0.4142140000000001
 10
235.702197
 20
263.4165669999999
 42
-0.4142140000000001
 10
232.6071569999999
 20
266.5116069999999
 42
-0.4142140000000001
 10
235.702197
 20
269.606646
 42
-0.4142140000000001
 10
238.797236
 20
266.5116069999999
  0
LWPOLYLINE
  5
35
330
1F
100
AcDbEntity
  8
Internal Cut
100
AcDbPolyline
 90
        5
 70
   128
 43
0.0
 10
243.630845
 20
278.180971
 42
-0.4142140000000001
 10
240.5358049999999
 20
275.0859319999999
 42
-0.4142140000000001
 10
237.440766
 20
278.180971
 42
-0.4142140000000001
 10
240.5358049999999
 20
281.2760099999999
 42
-0.4142140000000001
 10
243.630845
 20
278.180971
  0
LWPOLYLINE
  5
36
330
1F
100
AcDbEntity
  8
Internal Cut
100
AcDbPolyline
 90
        5
 70
   128
 43
0.0
 10
238.797236
 20
289.850335
 42
-0.4142140000000001
 10
235.702197
 20
286.7552959999999
 42
-0.4142140000000001
 10
232.6071569999999
 20
289.850335
 42
-0.4142140000000001
 10
235.702197
 20
292.9453739999999
 42
-0.4142140000000001
 10
238.797236
 20
289.850335
  0
LWPOLYLINE
  5
37
330
1F
100
AcDbEntity
  8
Internal Cut
100
AcDbPolyline
 90
        5
 70
   128
 43
0.0
 10
144.026822
 20
131.856362
 42
-0.4142140000000001
 10
136.4007179999999
 20
124.230258
 42
-0.4142140000000001
 10
128.7746139999999
 20
131.856362
 42
-0.4142140000000001
 10
136.4007179999999
 20
139.4824659999999
 42
-0.4142140000000001
 10
144.026822
 20
131.856362
  0
LWPOLYLINE
  5
38
330
1F
100
AcDbEntity
  8
Internal Cut
100
AcDbPolyline
 90
        5
 70
   128
 43
0.0
 10
548.5322469999999
 20
374.964881
 42
-0.4142140000000001
 10
545.067086
 20
371.4997189999999
 42
-0.4142140000000001
 10
541.601924
 20
374.964881
 42
-0.4142140000000001
 10
545.067086
 20
378.430043
 42
-0.4142140000000001
 10
548.5322469999999
 20
374.964881
  0
LWPOLYLINE
  5
39
330
1F
100
AcDbEntity
  8
Internal Cut
100
AcDbPolyline
 90
        5
 70
   128
 43
0.0
 10
539.653185
 20
193.986907
 42
-0.4142140000000001
 10
536.188024
 20
190.5217449999999
 42
-0.4142140000000001
 10
532.7228619999999
 20
193.986907
 42
-0.4142140000000001
 10
536.188024
 20
197.452069
 42
-0.4142140000000001
 10
539.653185
 20
193.986907
  0
LWPOLYLINE
  5
3A
330
1F
100
AcDbEntity
  8
Internal Cut
100
AcDbPolyline
 90
        5
 70
   128
 43
0.0
 10
680.367741
 20
142.166304
 42
-0.4142140000000001
 10
676.902579
 20
138.701142
 42
-0.4142140000000001
 10
673.4374169999999
 20
142.166304
 42
-0.4142140000000001
 10
676.902579
 20
145.6314659999999
 42
-0.4142140000000001
 10
680.367741
 20
142.166304
  0
LWPOLYLINE
  5
3B
330
1F
100
AcDbEntity
  8
Internal Cut
100
AcDbPolyline
 90
        5
 70
   128
 43
0.0
 10
490.295465
 20
132.6204909999999
 42
-0.4142140000000001
 10
493.7606269999999
 20
129.1553289999999
 42
-0.4142140000000001
 10
490.295465
 20
125.6901669999999
 42
-0.4142140000000001
 10
486.8303029999999
 20
129.1553289999999
 42
-0.4142140000000001
 10
490.295465
 20
132.6204909999999
  0
LWPOLYLINE
  5
3C
330
1F
100
AcDbEntity
  8
Internal Cut
100
AcDbPolyline
 90
        5
 70
   128
 43
0.0
 10
505.456985
 20
150.399685
 42
-0.4142140000000001
 10
508.922147
 20
146.934524
 42
-0.4142140000000001
 10
505.456985
 20
143.469362
 42
-0.4142140000000001
 10
501.9918239999999
 20
146.934524
 42
-0.4142140000000001
 10
505.456985
 20
150.399685
  0
LWPOLYLINE
  5
3D
330
1F
100
AcDbEntity
  8
Internal Cut
100
AcDbPolyline
 90
        5
 70
   128
 43
0.0
 10
789.834815
 20
201.470231
 42
-0.4142140000000001
 10
790.228308
 20
196.585576
 42
-0.4142140000000001
 10
785.343653
 20
196.192084
 42
-0.4142140000000001
 10
784.9501599999999
 20
201.076739
 42
-0.4142140000000001
 10
789.834815
 20
201.470231
  0
LWPOLYLINE
  5
3E
330
1F
100
AcDbEntity
  8
Internal Cut
100
AcDbPolyline
 90
        5
 70
   128
 43
0.0
 10
772.288933
 20
186.039305
 42
-0.4142140000000001
 10
772.6824249999999
 20
181.154651
 42
-0.4142140000000001
 10
767.79777
 20
180.7611579999999
 42
-0.4142140000000001
 10
767.4042779999999
 20
185.6458129999999
 42
-0.4142140000000001
 10
772.288933
 20
186.039305
  0
LWPOLYLINE
  5
3F
330
1F
100
AcDbEntity
  8
Internal Cut
100
AcDbPolyline
 90
        5
 70
   128
 43
0.0
 10
789.8421959999999
 20
217.017309
 42
-0.4142140000000001
 10
790.235688
 20
212.132654
 42
-0.4142140000000001
 10
785.351033
 20
211.739162
 42
-0.4142140000000001
 10
784.9575409999999
 20
216.623817
 42
-0.4142140000000001
 10
789.8421959999999
 20
217.017309
  0
LWPOLYLINE
  5
40
330
1F
100
AcDbEntity
  8
Internal Cut
100
AcDbPolyline
 90
        5
 70
   128
 43
0.0
 10
772.310972
 20
232.464887
 42
-0.4142140000000001
 10
772.704465
 20
227.5802319999999
 42
-0.4142140000000001
 10
767.8198099999999
 20
227.18674
 42
-0.4142140000000001
 10
767.426317
 20
232.071395
 42
-0.4142140000000001
 10
772.310972
 20
232.464887
  0
LWPOLYLINE
  5
41
330
1F
100
AcDbEntity
  8
Internal Cut
100
AcDbPolyline
 90
        5
 70
   128
 43
0.0
 10
123.8271949999999
 20
236.852583
 42
-0.4142140000000001
 10
120.362034
 20
233.3874209999999
 42
-0.4142140000000001
 10
116.896872
 20
236.852583
 42
-0.4142140000000001
 10
120.362034
 20
240.317745
 42
-0.4142140000000001
 10
123.8271949999999
 20
236.852583
  0
LWPOLYLINE
  5
42
330
1F
100
AcDbEntity
  8
Internal Cut
100
AcDbPolyline
 90
        5
 70
   128
 43
0.0
 10
106.048001
 20
252.014103
 42
-0.4142140000000001
 10
102.582839
 20
248.548941
 42
-0.4142140000000001
 10
99.117677
 20
252.014103
 42
-0.4142140000000001
 10
102.582839
 20
255.4792649999999
 42
-0.4142140000000001
 10
106.048001
 20
252.014103
  0
LWPOLYLINE
  5
43
330
1F
100
AcDbEntity
  8
Internal Cut
100
AcDbPolyline
 90
        5
 70
   128
 43
0.0
 10
338.143057
 20
332.9418589999999
 42
-0.4142140000000001
 10
334.677895
 20
329.4766969999999
 42
-0.4142140000000001
 10
331.212733
 20
332.9418589999999
 42
-0.4142140000000001
 10
334.677895
 20
336.40702
 42
-0.4142140000000001
 10
338.143057
 20
332.9418589999999
  0
LWPOLYLINE
  5
44
330
1F
100
AcDbEntity
  8
Internal Cut
100
AcDbPolyline
 90
        5
 70
   128
 43
0.0
 10
188.18986
 20
332.9418589999999
 42
-0.4142140000000001
 10
184.724699
 20
329.4766969999999
 42
-0.4142140000000001
 10
181.259537
 20
332.9418589999999
 42
-0.4142140000000001
 10
184.724699
 20
336.40702
 42
-0.4142140000000001
 10
188.18986
 20
332.9418589999999
  0
LWPOLYLINE
  5
45
330
1F
100
AcDbEntity
  8
Internal Cut
100
AcDbPolyline
 90
        5
 70
   128
 43
0.0
 10
79.77820600000001
 20
438.650655
 42
-0.4142140000000001
 10
67.398049
 20
426.270499
 42
-0.4142140000000001
 10
55.01789300000001
 20
438.650655
 42
-0.4142140000000001
 10
67.398049
 20
451.030812
 42
-0.4142140000000001
 10
79.77820600000001
 20
438.650655
  0
LWPOLYLINE
  5
46
330
1F
100
AcDbEntity
  8
Internal Cut
100
AcDbPolyline
 90
        9
 70
   128
 43
0.0
 10
141.5348739999999
 20
294.242112
 42
1.0
 10
146.4353519999999
 20
294.242112
 10
151.077911
 20
294.242112
 42
1.0
 10
155.97839
 20
294.242112
 10
155.97839
 20
299.142591
 42
1.0
 10
151.077911
 20
299.142591
 10
146.4353519999999
 20
299.142591
 42
1.0
 10
141.5348739999999
 20
299.142591
 10
141.5348739999999
 20
294.242112
  0
LWPOLYLINE
  5
47
330
1F
100
AcDbEntity
  8
Internal Cut
100
AcDbPolyline
 90
        5
 70
   128
 43
0.0
 10
14.762165
 20
83.380828
 10
64.28279100000001
 20
83.380828
 10
64.28279100000001
 20
93.697625
 10
14.762165
 20
93.697625
 10
14.762165
 20
83.380828
  0
LWPOLYLINE
  5
48
330
1F
100
AcDbEntity
  8
Internal Cut
100
AcDbPolyline
 90
        5
 70
   128
 43
0.0
 10
14.762165
 20
99.88770399999999
 10
64.28279100000001
 20
99.88770399999999
 10
64.28279100000001
 20
110.204501
 10
14.762165
 20
110.204501
 10
14.762165
 20
99.88770399999999
  0
LWPOLYLINE
  5
49
330
1F
100
AcDbEntity
  8
Internal Cut
100
AcDbPolyline
 90
        7
 70
   128
 43
0.0
 10
19.884591
 20
146.067205
 10
19.884591
 20
183.4655939999999
 10
37.165226
 20
183.4655939999999
 10
37.165226
 20
137.8137669999999
 10
30.97514799999999
 20
137.8137669999999
 10
30.97514799999999
 20
146.067205
 10
19.884591
 20
146.067205
  0
LWPOLYLINE
  5
4A
330
1F
100
AcDbEntity
  8
Internal Cut
100
AcDbPolyline
 90
        5
 70
   128
 43
0.0
 10
43.35530399999999
 20
137.8137669999999
 10
58.31465999999999
 20
137.8137669999999
 10
58.31465999999999
 20
177.2755159999999
 10
43.35530399999999
 20
177.2755159999999
 10
43.35530399999999
 20
137.8137669999999
  0
LWPOLYLINE
  5
4B
330
1F
100
AcDbEntity
  8
Internal Cut
100
AcDbPolyline
 90
        5
 70
   128
 43
0.0
 10
64.50473800000001
 20
139.877127
 10
69.40521700000001
 20
139.877127
 10
69.40521700000001
 20
175.2121559999999
 10
64.50473800000001
 20
175.2121559999999
 10
64.50473800000001
 20
139.877127
  0
LWPOLYLINE
  5
4C
330
1F
100
AcDbEntity
  8
Internal Cut
100
AcDbPolyline
 90
       13
 70
   128
 43
0.0
 10
188.3895639999999
 20
458.266572
 10
199.141007
 20
458.266572
 42
0.171606
 10
200.438113
 20
458.725261
 10
205.6975809999999
 20
462.9766559999999
 42
-0.171606
 10
206.9946869999999
 20
463.435345
 10
240.687919
 20
463.435345
 42
0.4142140000000001
 10
242.7512779999999
 20
465.498704
 10
242.7512779999999
 20
503.670853
 42
0.4142140000000001
 10
240.687919
 20
505.734213
 10
205.457537
 20
505.734213
 42
0.263458
 10
203.6881779999999
 20
504.732372
 42
0.0828
 10
186.371506
 20
460.7599239999999
 42
0.4771270000000001
 10
188.3895639999999
 20
458.266572
  0
LWPOLYLINE
  5
4D
330
1F
100
AcDbEntity
  8
Internal Cut
100
AcDbPolyline
 90
        9
 70
   128
 43
0.0
 10
251.004716
 20
463.435345
 10
262.5442269999999
 20
463.435345
 42
0.4142140000000001
 10
264.607587
 20
465.498704
 10
264.607587
 20
503.670853
 42
0.4142140000000001
 10
262.5442269999999
 20
505.734213
 10
251.004716
 20
505.734213
 42
0.4142140000000001
 10
248.941356
 20
503.670853
 10
248.941356
 20
465.498704
 42
0.4142140000000001
 10
251.004716
 20
463.435345
  0
LWPOLYLINE
  5
4E
330
1F
100
AcDbEntity
  8
Internal Cut
100
AcDbPolyline
 90
        5
 70
   128
 43
0.0
 10
427.437339
 20
372.298562
 10
427.437339
 20
383.647039
 10
503.7816379999999
 20
383.647039
 10
503.7816379999999
 20
372.298562
 10
427.437339
 20
372.298562
  0
LWPOLYLINE
  5
4F
330
1F
100
AcDbEntity
  8
External Cut
100
AcDbPolyline
 90
        9
 70
   128
 43
0.0
 10
432.074154
 20
430.4956699999999
 10
504.2917339999999
 20
430.4956699999999
 42
0.4142140000000001
 10
509.450132
 20
435.654069
 10
509.450132
 20
458.3510219999999
 42
0.4142140000000001
 10
504.2917339999999
 20
463.509421
 10
432.074154
 20
463.509421
 42
0.4142140000000001
 10
426.9157559999999
 20
458.3510219999999
 10
426.9157559999999
 20
435.654069
 42
0.4142140000000001
 10
432.074154
 20
430.4956699999999
  0
LWPOLYLINE
  5
50
330
1F
100
AcDbEntity
  8
Internal Cut
100
AcDbPolyline
 90
        5
 70
   128
 43
0.0
 10
450.6443889999999
 20
500.9078099999999
 10
485.721499
 20
500.9078099999999
 10
485.721499
 20
505.8082889999999
 10
450.6443889999999
 20
505.8082889999999
 10
450.6443889999999
 20
500.9078099999999
  0
LWPOLYLINE
  5
51
330
1F
100
AcDbEntity
  8
Internal Cut
100
AcDbPolyline
 90
        5
 70
   128
 43
0.0
 10
233.9093039999999
 20
330.491619
 10
285.49329
 20
330.491619
 10
285.49329
 20
335.3920979999999
 10
233.9093039999999
 20
335.3920979999999
 10
233.9093039999999
 20
330.491619
  0
LWPOLYLINE
  5
52
330
1F
100
AcDbEntity
  8
Internal Cut
100
AcDbPolyline
 90
        5
 70
   128
 43
0.0
 10
20.61440099999999
 20
509.6447389999999
 10
113.465574
 20
509.6447389999999
 10
113.465574
 20
514.5452169999999
 10
20.61440099999999
 20
514.5452169999999
 10
20.61440099999999
 20
509.6447389999999
  0
LWPOLYLINE
  5
53
330
1F
100
AcDbEntity
  8
Internal Cut
100
AcDbPolyline
 90
        9
 70
   128
 43
0.0
 10
315.763268
 20
464.637934
 10
304.2237569999999
 20
464.637934
 42
-0.4142140000000001
 10
302.160398
 20
466.7012929999999
 10
302.160398
 20
504.873442
 42
-0.4142140000000001
 10
304.2237569999999
 20
506.9368019999999
 10
315.763268
 20
506.9368019999999
 42
-0.4142140000000001
 10
317.8266279999999
 20
504.873442
 10
317.8266279999999
 20
466.7012929999999
 42
-0.4142140000000001
 10
315.763268
 20
464.637934
  0
LWPOLYLINE
  5
54
330
1F
100
AcDbEntity
  8
Internal Cut
100
AcDbPolyline
 90
       13
 70
   128
 43
0.0
 10
378.3784199999999
 20
459.4691599999999
 10
367.626977
 20
459.4691599999999
 42
-0.171606
 10
366.3298709999999
 20
459.927849
 10
361.0704029999999
 20
464.179245
 42
0.171606
 10
359.773297
 20
464.637934
 10
326.080065
 20
464.637934
 42
-0.4142140000000001
 10
324.016706
 20
466.7012929999999
 10
324.016706
 20
504.873442
 42
-0.4142140000000001
 10
326.080065
 20
506.9368019999999
 10
361.310448
 20
506.9368019999999
 42
-0.263458
 10
363.079806
 20
505.934961
 42
-0.0828
 10
380.396478
 20
461.962513
 42
-0.4771270000000001
 10
378.3784199999999
 20
459.4691599999999
  0
LWPOLYLINE
  5
55
330
1F
100
AcDbEntity
  8
Internal Cut
100
AcDbPolyline
 90
        5
 70
   128
 43
0.0
 10
338.143057
 20
361.646474
 42
-0.4142140000000001
 10
334.677895
 20
358.181312
 42
-0.4142140000000001
 10
331.212733
 20
361.646474
 42
-0.4142140000000001
 10
334.677895
 20
365.111635
 42
-0.4142140000000001
 10
338.143057
 20
361.646474
  0
LWPOLYLINE
  5
56
330
1F
100
AcDbEntity
  8
Internal Cut
100
AcDbPolyline
 90
        5
 70
   128
 43
0.0
 10
188.18986
 20
361.646474
 42
-0.4142140000000001
 10
184.724699
 20
358.181312
 42
-0.4142140000000001
 10
181.259537
 20
361.646474
 42
-0.4142140000000001
 10
184.724699
 20
365.111635
 42
-0.4142140000000001
 10
188.18986
 20
361.646474
  0
LWPOLYLINE
  5
57
330
1F
100
AcDbEntity
  8
Internal Cut
100
AcDbPolyline
 90
        5
 70
   128
 43
0.0
 10
233.9093039999999
 20
359.196234
 10
285.49329
 20
359.196234
 10
285.49329
 20
364.0967129999999
 10
233.9093039999999
 20
364.0967129999999
 10
233.9093039999999
 20
359.196234
  0
LWPOLYLINE
  5
58
330
1F
100
AcDbEntity
  8
Internal Cut
100
AcDbPolyline
 90
        5
 70
   128
 43
0.0
 10
428.7028849999999
 20
132.6204909999999
 42
-0.4142140000000001
 10
432.168047
 20
129.1553289999999
 42
-0.4142140000000001
 10
428.7028849999999
 20
125.6901669999999
 42
-0.4142140000000001
 10
425.237724
 20
129.1553289999999
 42
-0.4142140000000001
 10
428.7028849999999
 20
132.6204909999999
  0
LWPOLYLINE
  5
59
330
1F
100
AcDbEntity
  8
Internal Cut
100
AcDbPolyline
 90
        5
 70
   128
 43
0.0
 10
443.8644059999999
 20
150.399685
 42
-0.4142140000000001
 10
447.3295669999999
 20
146.934524
 42
-0.4142140000000001
 10
443.8644059999999
 20
143.469362
 42
-0.4142140000000001
 10
440.399244
 20
146.934524
 42
-0.4142140000000001
 10
443.8644059999999
 20
150.399685
  0
LWPOLYLINE
  5
5A
330
1F
100
AcDbEntity
  8
Internal Cut
100
AcDbPolyline
 90
        9
 70
   128
 43
0.0
 10
141.5348739999999
 20
326.067477
 42
1.0
 10
146.4353519999999
 20
326.067477
 10
151.077911
 20
326.067477
 42
1.0
 10
155.97839
 20
326.067477
 10
155.97839
 20
330.9679549999999
 42
1.0
 10
151.077911
 20
330.9679549999999
 10
146.4353519999999
 20
330.9679549999999
 42
1.0
 10
141.5348739999999
 20
330.9679549999999
 10
141.5348739999999
 20
326.067477
  0
LWPOLYLINE
  5
5B
330
1F
100
AcDbEntity
  8
Internal Cut
100
AcDbPolyline
 90
        9
 70
   128
 43
0.0
 10
141.5348739999999
 20
357.892841
 42
1.0
 10
146.4353519999999
 20
357.892841
 10
151.077911
 20
357.892841
 42
1.0
 10
155.97839
 20
357.892841
 10
155.97839
 20
362.79332
 42
1.0
 10
151.077911
 20
362.79332
 10
146.4353519999999
 20
362.79332
 42
1.0
 10
141.5348739999999
 20
362.79332
 10
141.5348739999999
 20
357.892841
  0
LWPOLYLINE
  5
5C
330
1F
100
AcDbEntity
  8
Internal Cut
100
AcDbPolyline
 90
        9
 70
   128
 43
0.0
 10
141.5348739999999
 20
389.718206
 42
1.0
 10
146.4353519999999
 20
389.718206
 10
151.077911
 20
389.718206
 42
1.0
 10
155.97839
 20
389.718206
 10
155.97839
 20
394.6186839999999
 42
1.0
 10
151.077911
 20
394.6186839999999
 10
146.4353519999999
 20
394.6186839999999
 42
1.0
 10
141.5348739999999
 20
394.6186839999999
 10
141.5348739999999
 20
389.718206
  0
LWPOLYLINE
  5
5D
330
1F
100
AcDbEntity
  8
Internal Cut
100
AcDbPolyline
 90
        5
 70
   128
 43
0.0
 10
308.886012
 20
278.180971
 42
-0.4142140000000001
 10
301.259908
 20
270.554867
 42
-0.4142140000000001
 10
293.6338039999999
 20
278.180971
 42
-0.4142140000000001
 10
301.259908
 20
285.8070749999999
 42
-0.4142140000000001
 10
308.886012
 20
278.180971
  0
LWPOLYLINE
  5
5E
330
1F
100
AcDbEntity
  8
Internal Cut
100
AcDbPolyline
 90
        5
 70
   128
 43
0.0
 10
304.354947
 20
294.683944
 42
-0.4142140000000001
 10
301.259908
 20
291.5889049999999
 42
-0.4142140000000001
 10
298.164869
 20
294.683944
 42
-0.4142140000000001
 10
301.259908
 20
297.7789829999999
 42
-0.4142140000000001
 10
304.354947
 20
294.683944
  0
LWPOLYLINE
  5
5F
330
1F
100
AcDbEntity
  8
Internal Cut
100
AcDbPolyline
 90
        5
 70
   128
 43
0.0
 10
292.685583
 20
289.850335
 42
-0.4142140000000001
 10
289.590544
 20
286.7552959999999
 42
-0.4142140000000001
 10
286.4955049999999
 20
289.850335
 42
-0.4142140000000001
 10
289.590544
 20
292.9453739999999
 42
-0.4142140000000001
 10
292.685583
 20
289.850335
  0
LWPOLYLINE
  5
60
330
1F
100
AcDbEntity
  8
Internal Cut
100
AcDbPolyline
 90
        5
 70
   128
 43
0.0
 10
287.851974
 20
278.180971
 42
-0.4142140000000001
 10
284.756935
 20
275.0859319999999
 42
-0.4142140000000001
 10
281.6618959999999
 20
278.180971
 42
-0.4142140000000001
 10
284.756935
 20
281.2760099999999
 42
-0.4142140000000001
 10
287.851974
 20
278.180971
  0
LWPOLYLINE
  5
61
330
1F
100
AcDbEntity
  8
Internal Cut
100
AcDbPolyline
 90
        5
 70
   128
 43
0.0
 10
292.685583
 20
266.5116069999999
 42
-0.4142140000000001
 10
289.590544
 20
263.4165669999999
 42
-0.4142140000000001
 10
286.4955049999999
 20
266.5116069999999
 42
-0.4142140000000001
 10
289.590544
 20
269.606646
 42
-0.4142140000000001
 10
292.685583
 20
266.5116069999999
  0
LWPOLYLINE
  5
62
330
1F
100
AcDbEntity
  8
Internal Cut
100
AcDbPolyline
 90
        5
 70
   128
 43
0.0
 10
304.354947
 20
261.677998
 42
-0.4142140000000001
 10
301.259908
 20
258.582958
 42
-0.4142140000000001
 10
298.164869
 20
261.677998
 42
-0.4142140000000001
 10
301.259908
 20
264.773037
 42
-0.4142140000000001
 10
304.354947
 20
261.677998
  0
LWPOLYLINE
  5
63
330
1F
100
AcDbEntity
  8
Internal Cut
100
AcDbPolyline
 90
        5
 70
   128
 43
0.0
 10
316.024312
 20
266.5116069999999
 42
-0.4142140000000001
 10
312.929272
 20
263.4165669999999
 42
-0.4142140000000001
 10
309.8342329999999
 20
266.5116069999999
 42
-0.4142140000000001
 10
312.929272
 20
269.606646
 42
-0.4142140000000001
 10
316.024312
 20
266.5116069999999
  0
LWPOLYLINE
  5
64
330
1F
100
AcDbEntity
  8
Internal Cut
100
AcDbPolyline
 90
        5
 70
   128
 43
0.0
 10
320.85792
 20
278.180971
 42
-0.4142140000000001
 10
317.7628809999999
 20
275.0859319999999
 42
-0.4142140000000001
 10
314.667842
 20
278.180971
 42
-0.4142140000000001
 10
317.7628809999999
 20
281.2760099999999
 42
-0.4142140000000001
 10
320.85792
 20
278.180971
  0
LWPOLYLINE
  5
65
330
1F
100
AcDbEntity
  8
Internal Cut
100
AcDbPolyline
 90
        5
 70
   128
 43
0.0
 10
316.024312
 20
289.850335
 42
-0.4142140000000001
 10
312.929272
 20
286.7552959999999
 42
-0.4142140000000001
 10
309.8342329999999
 20
289.850335
 42
-0.4142140000000001
 10
312.929272
 20
292.9453739999999
 42
-0.4142140000000001
 10
316.024312
 20
289.850335
  0
LWPOLYLINE
  5
66
330
1F
100
AcDbEntity
  8
Internal Cut
100
AcDbPolyline
 90
        5
 70
   128
 43
0.0
 10
386.113088
 20
278.180971
 42
-0.4142140000000001
 10
378.486984
 20
270.554867
 42
-0.4142140000000001
 10
370.86088
 20
278.180971
 42
-0.4142140000000001
 10
378.486984
 20
285.8070749999999
 42
-0.4142140000000001
 10
386.113088
 20
278.180971
  0
LWPOLYLINE
  5
67
330
1F
100
AcDbEntity
  8
Internal Cut
100
AcDbPolyline
 90
        5
 70
   128
 43
0.0
 10
381.5820229999999
 20
294.683944
 42
-0.4142140000000001
 10
378.486984
 20
291.5889049999999
 42
-0.4142140000000001
 10
375.391945
 20
294.683944
 42
-0.4142140000000001
 10
378.486984
 20
297.7789829999999
 42
-0.4142140000000001
 10
381.5820229999999
 20
294.683944
  0
LWPOLYLINE
  5
68
330
1F
100
AcDbEntity
  8
Internal Cut
100
AcDbPolyline
 90
        5
 70
   128
 43
0.0
 10
369.9126589999999
 20
289.850335
 42
-0.4142140000000001
 10
366.81762
 20
286.7552959999999
 42
-0.4142140000000001
 10
363.7225809999999
 20
289.850335
 42
-0.4142140000000001
 10
366.81762
 20
292.9453739999999
 42
-0.4142140000000001
 10
369.9126589999999
 20
289.850335
  0
LWPOLYLINE
  5
69
330
1F
100
AcDbEntity
  8
Internal Cut
100
AcDbPolyline
 90
        5
 70
   128
 43
0.0
 10
365.0790499999999
 20
278.180971
 42
-0.4142140000000001
 10
361.984011
 20
275.0859319999999
 42
-0.4142140000000001
 10
358.888972
 20
278.180971
 42
-0.4142140000000001
 10
361.984011
 20
281.2760099999999
 42
-0.4142140000000001
 10
365.0790499999999
 20
278.180971
  0
LWPOLYLINE
  5
6A
330
1F
100
AcDbEntity
  8
Internal Cut
100
AcDbPolyline
 90
        5
 70
   128
 43
0.0
 10
369.9126589999999
 20
266.5116069999999
 42
-0.4142140000000001
 10
366.81762
 20
263.4165669999999
 42
-0.4142140000000001
 10
363.7225809999999
 20
266.5116069999999
 42
-0.4142140000000001
 10
366.81762
 20
269.606646
 42
-0.4142140000000001
 10
369.9126589999999
 20
266.5116069999999
  0
LWPOLYLINE
  5
6B
330
1F
100
AcDbEntity
  8
Internal Cut
100
AcDbPolyline
 90
        5
 70
   128
 43
0.0
 10
381.5820229999999
 20
261.677998
 42
-0.4142140000000001
 10
378.486984
 20
258.582958
 42
-0.4142140000000001
 10
375.391945
 20
261.677998
 42
-0.4142140000000001
 10
378.486984
 20
264.773037
 42
-0.4142140000000001
 10
381.5820229999999
 20
261.677998
  0
LWPOLYLINE
  5
6C
330
1F
100
AcDbEntity
  8
Internal Cut
100
AcDbPolyline
 90
        5
 70
   128
 43
0.0
 10
393.251387
 20
266.5116069999999
 42
-0.4142140000000001
 10
390.156348
 20
263.4165669999999
 42
-0.4142140000000001
 10
387.0613089999999
 20
266.5116069999999
 42
-0.4142140000000001
 10
390.156348
 20
269.606646
 42
-0.4142140000000001
 10
393.251387
 20
266.5116069999999
  0
LWPOLYLINE
  5
6D
330
1F
100
AcDbEntity
  8
Internal Cut
100
AcDbPolyline
 90
        5
 70
   128
 43
0.0
 10
398.084996
 20
278.180971
 42
-0.4142140000000001
 10
394.9899569999999
 20
275.0859319999999
 42
-0.4142140000000001
 10
391.894918
 20
278.180971
 42
-0.4142140000000001
 10
394.9899569999999
 20
281.2760099999999
 42
-0.4142140000000001
 10
398.084996
 20
278.180971
  0
LWPOLYLINE
  5
6E
330
1F
100
AcDbEntity
  8
Internal Cut
100
AcDbPolyline
 90
        5
 70
   128
 43
0.0
 10
393.251387
 20
289.850335
 42
-0.4142140000000001
 10
390.156348
 20
286.7552959999999
 42
-0.4142140000000001
 10
387.0613089999999
 20
289.850335
 42
-0.4142140000000001
 10
390.156348
 20
292.9453739999999
 42
-0.4142140000000001
 10
393.251387
 20
289.850335
  0
LWPOLYLINE
  5
6F
330
1F
100
AcDbEntity
  8
Internal Cut
100
AcDbPolyline
 90
        5
 70
   128
 43
0.0
 10
463.3401639999999
 20
278.180971
 42
-0.4142140000000001
 10
455.7140599999999
 20
270.554867
 42
-0.4142140000000001
 10
448.0879559999999
 20
278.180971
 42
-0.4142140000000001
 10
455.7140599999999
 20
285.8070749999999
 42
-0.4142140000000001
 10
463.3401639999999
 20
278.180971
  0
LWPOLYLINE
  5
70
330
1F
100
AcDbEntity
  8
Internal Cut
100
AcDbPolyline
 90
        5
 70
   128
 43
0.0
 10
458.809099
 20
294.683944
 42
-0.4142140000000001
 10
455.7140599999999
 20
291.5889049999999
 42
-0.4142140000000001
 10
452.619021
 20
294.683944
 42
-0.4142140000000001
 10
455.7140599999999
 20
297.7789829999999
 42
-0.4142140000000001
 10
458.809099
 20
294.683944
  0
LWPOLYLINE
  5
71
330
1F
100
AcDbEntity
  8
Internal Cut
100
AcDbPolyline
 90
        5
 70
   128
 43
0.0
 10
447.139735
 20
289.850335
 42
-0.4142140000000001
 10
444.044696
 20
286.7552959999999
 42
-0.4142140000000001
 10
440.9496569999999
 20
289.850335
 42
-0.4142140000000001
 10
444.044696
 20
292.9453739999999
 42
-0.4142140000000001
 10
447.139735
 20
289.850335
  0
LWPOLYLINE
  5
72
330
1F
100
AcDbEntity
  8
Internal Cut
100
AcDbPolyline
 90
        5
 70
   128
 43
0.0
 10
442.3061259999999
 20
278.180971
 42
-0.4142140000000001
 10
439.211087
 20
275.0859319999999
 42
-0.4142140000000001
 10
436.116048
 20
278.180971
 42
-0.4142140000000001
 10
439.211087
 20
281.2760099999999
 42
-0.4142140000000001
 10
442.3061259999999
 20
278.180971
  0
LWPOLYLINE
  5
73
330
1F
100
AcDbEntity
  8
Internal Cut
100
AcDbPolyline
 90
        5
 70
   128
 43
0.0
 10
447.139735
 20
266.5116069999999
 42
-0.4142140000000001
 10
444.044696
 20
263.4165669999999
 42
-0.4142140000000001
 10
440.9496569999999
 20
266.5116069999999
 42
-0.4142140000000001
 10
444.044696
 20
269.606646
 42
-0.4142140000000001
 10
447.139735
 20
266.5116069999999
  0
LWPOLYLINE
  5
74
330
1F
100
AcDbEntity
  8
Internal Cut
100
AcDbPolyline
 90
        5
 70
   128
 43
0.0
 10
458.809099
 20
261.677998
 42
-0.4142140000000001
 10
455.7140599999999
 20
258.582958
 42
-0.4142140000000001
 10
452.619021
 20
261.677998
 42
-0.4142140000000001
 10
455.7140599999999
 20
264.773037
 42
-0.4142140000000001
 10
458.809099
 20
261.677998
  0
LWPOLYLINE
  5
75
330
1F
100
AcDbEntity
  8
Internal Cut
100
AcDbPolyline
 90
        5
 70
   128
 43
0.0
 10
470.4784629999999
 20
266.5116069999999
 42
-0.4142140000000001
 10
467.383424
 20
263.4165669999999
 42
-0.4142140000000001
 10
464.2883849999999
 20
266.5116069999999
 42
-0.4142140000000001
 10
467.383424
 20
269.606646
 42
-0.4142140000000001
 10
470.4784629999999
 20
266.5116069999999
  0
LWPOLYLINE
  5
76
330
1F
100
AcDbEntity
  8
Internal Cut
100
AcDbPolyline
 90
        5
 70
   128
 43
0.0
 10
475.312072
 20
278.180971
 42
-0.4142140000000001
 10
472.2170329999999
 20
275.0859319999999
 42
-0.4142140000000001
 10
469.121994
 20
278.180971
 42
-0.4142140000000001
 10
472.2170329999999
 20
281.2760099999999
 42
-0.4142140000000001
 10
475.312072
 20
278.180971
  0
LWPOLYLINE
  5
77
330
1F
100
AcDbEntity
  8
Internal Cut
100
AcDbPolyline
 90
        5
 70
   128
 43
0.0
 10
470.4784629999999
 20
289.850335
 42
-0.4142140000000001
 10
467.383424
 20
286.7552959999999
 42
-0.4142140000000001
 10
464.2883849999999
 20
289.850335
 42
-0.4142140000000001
 10
467.383424
 20
292.9453739999999
 42
-0.4142140000000001
 10
470.4784629999999
 20
289.850335
  0
LWPOLYLINE
  5
78
330
1F
100
AcDbEntity
  8
External Cut
100
AcDbPolyline
 90
        5
 70
   128
 43
0.0
 10
341.634729
 20
202.9862759999999
 42
-0.4142140000000001
 10
321.001135
 20
182.352682
 42
-0.4142140000000001
 10
300.367541
 20
202.9862759999999
 42
-0.4142140000000001
 10
321.001135
 20
223.61987
 42
-0.4142140000000001
 10
341.634729
 20
202.9862759999999
  0
LWPOLYLINE
  5
79
330
1F
100
AcDbEntity
  8
External Cut
100
AcDbPolyline
 90
        5
 70
   128
 43
0.0
 10
416.798446
 20
202.9862759999999
 42
-0.4142140000000001
 10
396.164852
 20
182.352682
 42
-0.4142140000000001
 10
375.531257
 20
202.9862759999999
 42
-0.4142140000000001
 10
396.164852
 20
223.61987
 42
-0.4142140000000001
 10
416.798446
 20
202.9862759999999
  0
LWPOLYLINE
  5
7A
330
1F
100
AcDbEntity
  8
External Cut
100
AcDbPolyline
 90
        5
 70
   128
 43
0.0
 10
491.962162
 20
202.9862759999999
 42
-0.4142140000000001
 10
471.3285679999999
 20
182.352682
 42
-0.4142140000000001
 10
450.694974
 20
202.9862759999999
 42
-0.4142140000000001
 10
471.3285679999999
 20
223.61987
 42
-0.4142140000000001
 10
491.962162
 20
202.9862759999999
  0
LWPOLYLINE
  5
7B
330
1F
100
AcDbEntity
  8
Internal Cut
100
AcDbPolyline
 90
        5
 70
   128
 43
0.0
 10
219.1905379999999
 20
131.856362
 42
-0.4142140000000001
 10
211.5644339999999
 20
124.230258
 42
-0.4142140000000001
 10
203.9383299999999
 20
131.856362
 42
-0.4142140000000001
 10
211.5644339999999
 20
139.4824659999999
 42
-0.4142140000000001
 10
219.1905379999999
 20
131.856362
  0
LWPOLYLINE
  5
7C
330
1F
100
AcDbEntity
  8
Internal Cut
100
AcDbPolyline
 90
        5
 70
   128
 43
0.0
 10
294.354254
 20
131.856362
 42
-0.4142140000000001
 10
286.7281509999999
 20
124.230258
 42
-0.4142140000000001
 10
279.102047
 20
131.856362
 42
-0.4142140000000001
 10
286.7281509999999
 20
139.4824659999999
 42
-0.4142140000000001
 10
294.354254
 20
131.856362
  0
LWPOLYLINE
  5
7D
330
1F
100
AcDbEntity
  8
Internal Cut
100
AcDbPolyline
 90
        5
 70
   128
 43
0.0
 10
369.517971
 20
131.856362
 42
-0.4142140000000001
 10
361.8918669999999
 20
124.230258
 42
-0.4142140000000001
 10
354.2657629999999
 20
131.856362
 42
-0.4142140000000001
 10
361.8918669999999
 20
139.4824659999999
 42
-0.4142140000000001
 10
369.517971
 20
131.856362
  0
LWPOLYLINE
  5
7E
330
1F
100
AcDbEntity
  8
Internal Cut
100
AcDbPolyline
 90
        5
 70
   128
 43
0.0
 10
622.088022
 20
289.185078
 42
-0.4142140000000001
 10
601.4544279999999
 20
268.5514839999999
 42
-0.4142140000000001
 10
580.820834
 20
289.185078
 42
-0.4142140000000001
 10
601.4544279999999
 20
309.818672
 42
-0.4142140000000001
 10
622.088022
 20
289.185078
  0
LWPOLYLINE
  5
7F
330
1F
100
AcDbEntity
  8
Internal Cut
100
AcDbPolyline
 90
        5
 70
   128
 43
0.0
 10
690.8553239999999
 20
289.185078
 42
-0.4142140000000001
 10
670.22173
 20
268.5514839999999
 42
-0.4142140000000001
 10
649.5881360000001
 20
289.185078
 42
-0.4142140000000001
 10
670.22173
 20
309.818672
 42
-0.4142140000000001
 10
690.8553239999999
 20
289.185078
  0
LWPOLYLINE
  5
80
330
1F
100
AcDbEntity
  8
Internal Cut
100
AcDbPolyline
 90
        5
 70
   128
 43
0.0
 10
759.6226259999999
 20
289.185078
 42
-0.4142140000000001
 10
738.9890320000001
 20
268.5514839999999
 42
-0.4142140000000001
 10
718.3554379999999
 20
289.185078
 42
-0.4142140000000001
 10
738.9890320000001
 20
309.818672
 42
-0.4142140000000001
 10
759.6226259999999
 20
289.185078
  0
LWPOLYLINE
  5
81
330
1F
100
AcDbEntity
  8
Internal Cut
100
AcDbPolyline
 90
        5
 70
   128
 43
0.0
 10
201.461206
 20
53.755642
 42
-0.4142140000000001
 10
193.8351019999999
 20
46.129538
 42
-0.4142140000000001
 10
186.208998
 20
53.755642
 42
-0.4142140000000001
 10
193.8351019999999
 20
61.381746
 42
-0.4142140000000001
 10
201.461206
 20
53.755642
  0
LWPOLYLINE
  5
82
330
1F
100
AcDbEntity
  8
Internal Cut
100
AcDbPolyline
 90
        5
 70
   128
 43
0.0
 10
270.4348439999999
 20
53.755642
 42
-0.4142140000000001
 10
262.80874
 20
46.129538
 42
-0.4142140000000001
 10
255.1826359999999
 20
53.755642
 42
-0.4142140000000001
 10
262.80874
 20
61.381746
 42
-0.4142140000000001
 10
270.4348439999999
 20
53.755642
  0
LWPOLYLINE
  5
83
330
1F
100
AcDbEntity
  8
Internal Cut
100
AcDbPolyline
 90
        5
 70
   128
 43
0.0
 10
339.4084819999999
 20
53.755642
 42
-0.4142140000000001
 10
331.7823779999999
 20
46.129538
 42
-0.4142140000000001
 10
324.1562739999999
 20
53.755642
 42
-0.4142140000000001
 10
331.7823779999999
 20
61.381746
 42
-0.4142140000000001
 10
339.4084819999999
 20
53.755642
  0
LWPOLYLINE
  5
84
330
1F
100
AcDbEntity
  8
Internal Cut
100
AcDbPolyline
 90
        5
 70
   128
 43
0.0
 10
680.3823480000001
 20
175.571161
 42
-0.4142140000000001
 10
683.907148
 20
178.9756399999999
 42
-0.4142140000000001
 10
687.3116269999999
 20
175.4508399999999
 42
-0.4142140000000001
 10
683.7868269999999
 20
172.046361
 42
-0.4142140000000001
 10
680.3823480000001
 20
175.571161
  0
LWPOLYLINE
  5
85
330
1F
100
AcDbEntity
  8
Internal Cut
100
AcDbPolyline
 90
        5
 70
   128
 43
0.0
 10
540.5886849999999
 20
229.826969
 42
-0.4142140000000001
 10
544.113485
 20
233.2314479999999
 42
-0.4142140000000001
 10
547.517964
 20
229.706648
 42
-0.4142140000000001
 10
543.993164
 20
226.3021689999999
 42
-0.4142140000000001
 10
540.5886849999999
 20
229.826969
  0
LWPOLYLINE
  5
86
330
1F
100
AcDbEntity
  8
Internal Cut
100
AcDbPolyline
 90
        5
 70
   128
 43
0.0
 10
719.088742
 20
212.0347759999999
 42
-0.4142140000000001
 10
718.695249
 20
216.9194309999999
 42
-0.4142140000000001
 10
723.579904
 20
217.312924
 42
-0.4142140000000001
 10
723.9733969999999
 20
212.428269
 42
-0.4142140000000001
 10
719.088742
 20
212.0347759999999
  0
LWPOLYLINE
  5
87
330
1F
100
AcDbEntity
  8
Internal Cut
100
AcDbPolyline
 90
        5
 70
   128
 43
0.0
 10
736.634624
 20
227.4657019999999
 42
-0.4142140000000001
 10
736.2411319999999
 20
232.3503569999999
 42
-0.4142140000000001
 10
741.125787
 20
232.7438499999999
 42
-0.4142140000000001
 10
741.5192789999999
 20
227.859195
 42
-0.4142140000000001
 10
736.634624
 20
227.4657019999999
  0
LWPOLYLINE
  5
88
330
1F
100
AcDbEntity
  8
Internal Cut
100
AcDbPolyline
 90
        5
 70
   128
 43
0.0
 10
719.081361
 20
196.487699
 42
-0.4142140000000001
 10
718.6878690000001
 20
201.3723539999999
 42
-0.4142140000000001
 10
723.572524
 20
201.765846
 42
-0.4142140000000001
 10
723.9660159999999
 20
196.881191
 42
-0.4142140000000001
 10
719.081361
 20
196.487699
  0
LWPOLYLINE
  5
89
330
1F
100
AcDbEntity
  8
Internal Cut
100
AcDbPolyline
 90
        5
 70
   128
 43
0.0
 10
736.6125849999999
 20
181.040121
 42
-0.4142140000000001
 10
736.219092
 20
185.924776
 42
-0.4142140000000001
 10
741.103747
 20
186.3182679999999
 42
-0.4142140000000001
 10
741.49724
 20
181.4336129999999
 42
-0.4142140000000001
 10
736.6125849999999
 20
181.040121
  0
LWPOLYLINE
  5
8A
330
1F
100
AcDbEntity
  8
Internal Cut
100
AcDbPolyline
 90
        5
 70
   128
 43
0.0
 10
172.1672389999999
 20
236.852583
 42
-0.4142140000000001
 10
168.702078
 20
233.3874209999999
 42
-0.4142140000000001
 10
165.2369159999999
 20
236.852583
 42
-0.4142140000000001
 10
168.702078
 20
240.317745
 42
-0.4142140000000001
 10
172.1672389999999
 20
236.852583
  0
LWPOLYLINE
  5
8B
330
1F
100
AcDbEntity
  8
Internal Cut
100
AcDbPolyline
 90
        5
 70
   128
 43
0.0
 10
154.388045
 20
252.014103
 42
-0.4142140000000001
 10
150.922883
 20
248.548941
 42
-0.4142140000000001
 10
147.4577209999999
 20
252.014103
 42
-0.4142140000000001
 10
150.922883
 20
255.4792649999999
 42
-0.4142140000000001
 10
154.388045
 20
252.014103
  0
LWPOLYLINE
  5
8C
330
1F
100
AcDbEntity
  8
Internal Cut
100
AcDbPolyline
 90
        6
 70
   128
 43
0.0
 10
264.607587
 20
514.3745299999999
 10
264.607587
 20
511.924291
 10
215.0869609999999
 20
511.924291
 10
215.0869609999999
 20
516.8247700000001
 10
264.607587
 20
516.8247700000001
 10
264.607587
 20
514.3745299999999
  0
LWPOLYLINE
  5
8D
330
1F
100
AcDbEntity
  8
Internal Cut
100
AcDbPolyline
 90
        6
 70
   128
 43
0.0
 10
302.160398
 20
515.577119
 10
302.160398
 20
513.1268799999999
 10
351.6810229999999
 20
513.1268799999999
 10
351.6810229999999
 20
518.027358
 10
302.160398
 20
518.027358
 10
302.160398
 20
515.577119
  0
LWPOLYLINE
  5
8E
330
1F
100
AcDbEntity
  8
Internal Cut
100
AcDbPolyline
 90
        9
 70
   128
 43
0.0
 10
141.5348739999999
 20
421.54357
 42
1.0
 10
146.4353519999999
 20
421.54357
 10
151.077911
 20
421.54357
 42
1.0
 10
155.97839
 20
421.54357
 10
155.97839
 20
426.444049
 42
1.0
 10
151.077911
 20
426.444049
 10
146.4353519999999
 20
426.444049
 42
1.0
 10
141.5348739999999
 20
426.444049
 10
141.5348739999999
 20
421.54357
  0
LWPOLYLINE
  5
8F
330
1F
100
AcDbEntity
  8
Internal Cut
100
AcDbPolyline
 90
        9
 70
   128
 43
0.0
 10
141.5348739999999
 20
453.3689339999999
 42
1.0
 10
146.4353519999999
 20
453.3689339999999
 10
151.077911
 20
453.3689339999999
 42
1.0
 10
155.97839
 20
453.3689339999999
 10
155.97839
 20
458.269413
 42
1.0
 10
151.077911
 20
458.269413
 10
146.4353519999999
 20
458.269413
 42
1.0
 10
141.5348739999999
 20
458.269413
 10
141.5348739999999
 20
453.3689339999999
  0
LWPOLYLINE
  5
90
330
1F
100
AcDbEntity
  8
Internal Cut
100
AcDbPolyline
 90
        9
 70
   128
 43
0.0
 10
141.5348739999999
 20
485.194299
 42
1.0
 10
146.4353519999999
 20
485.194299
 10
151.077911
 20
485.194299
 42
1.0
 10
155.97839
 20
485.194299
 10
155.97839
 20
490.094777
 42
1.0
 10
151.077911
 20
490.094777
 10
146.4353519999999
 20
490.094777
 42
1.0
 10
141.5348739999999
 20
490.094777
 10
141.5348739999999
 20
485.194299
  0
LWPOLYLINE
  5
91
330
1F
100
AcDbEntity
  8
Internal Cut
100
AcDbPolyline
 90
        9
 70
   128
 43
0.0
 10
141.5348739999999
 20
517.019663
 42
1.0
 10
146.4353519999999
 20
517.019663
 10
151.077911
 20
517.019663
 42
1.0
 10
155.97839
 20
517.019663
 10
155.97839
 20
521.9201419999999
 42
1.0
 10
151.077911
 20
521.9201419999999
 10
146.4353519999999
 20
521.9201419999999
 42
1.0
 10
141.5348739999999
 20
521.9201419999999
 10
141.5348739999999
 20
517.019663
  0
LWPOLYLINE
  5
92
330
1F
100
AcDbEntity
  8
Internal Cut
100
AcDbPolyline
 90
        5
 70
   128
 43
0.0
 10
70.48339799999999
 20
23.99928999999999
 42
-0.4142140000000001
 10
73.948559
 20
20.53412799999999
 42
-0.4142140000000001
 10
70.48339799999999
 20
17.068966
 42
-0.4142140000000001
 10
67.018236
 20
20.53412799999999
 42
-0.4142140000000001
 10
70.48339799999999
 20
23.99928999999999
  0
LWPOLYLINE
  5
93
330
1F
100
AcDbEntity
  8
Internal Cut
100
AcDbPolyline
 90
        5
 70
   128
 43
0.0
 10
41.522825
 20
233.069774
 10
41.522825
 20
272.531522
 10
56.48218100000001
 20
272.531522
 10
56.48218100000001
 20
233.069774
 10
41.522825
 20
233.069774
  0
LWPOLYLINE
  5
94
330
1F
100
AcDbEntity
  8
Internal Cut
100
AcDbPolyline
 90
        5
 70
   128
 43
0.0
 10
18.052112
 20
226.879695
 10
18.052112
 20
261.9568049999999
 10
35.33274699999999
 20
261.9568049999999
 10
35.33274699999999
 20
226.879695
 10
18.052112
 20
226.879695
  0
LWPOLYLINE
  5
95
330
1F
100
AcDbEntity
  8
Internal Cut
100
AcDbPolyline
 90
        5
 70
   128
 43
0.0
 10
62.67225899999999
 20
235.133133
 10
62.67225899999999
 20
270.468163
 10
67.572737
 20
270.468163
 10
67.572737
 20
235.133133
 10
62.67225899999999
 20
235.133133
  0
LWPOLYLINE
  5
96
330
1F
100
AcDbEntity
  8
External Cut
100
AcDbPolyline
 90
       13
 70
   128
 43
0.0
 10
114.236775
 20
229.0086609999999
 42
0.624784
 10
130.314214
 20
236.852583
 10
130.314214
 20
264.913296
 10
108.3910209999999
 20
264.913296
 42
-1.0
 10
103.490542
 20
264.913296
 10
103.490542
 20
269.813774
 42
-1.0
 10
108.3910209999999
 20
269.813774
 10
130.314214
 20
269.813774
 10
130.314214
 20
276.003852
 10
89.047026
 20
276.003852
 10
89.047026
 20
253.7125419999999
 42
0.230933
 10
93.014155
 20
245.581243
 10
114.236775
 20
229.0086609999999
  0
LWPOLYLINE
  5
97
330
1F
100
AcDbEntity
  8
External Cut
100
AcDbPolyline
 90
       13
 70
   128
 43
0.0
 10
762.071456
 20
377.619973
 42
0.075803
 10
875.5562240000001
 20
377.619973
 10
875.5562240000001
 20
393.694378
 10
861.1127080000001
 20
393.694378
 10
861.1127080000001
 20
398.594856
 10
875.5562240000001
 20
398.594856
 10
875.5562240000001
 20
403.495335
 10
762.071456
 20
403.495335
 10
762.071456
 20
398.594856
 10
776.5149719999999
 20
398.594856
 10
776.5149719999999
 20
393.694378
 10
762.071456
 20
393.694378
 10
762.071456
 20
377.619973
  0
LWPOLYLINE
  5
98
330
1F
100
AcDbEntity
  8
External Cut
100
AcDbPolyline
 90
       21
 70
   128
 43
0.0
 10
90.737772
 20
187.755761
 10
90.737772
 20
177.438964
 42
0.4142140000000001
 10
92.80113100000001
 20
175.3756049999999
 10
202.1591799999999
 20
175.3756049999999
 42
0.4142140000000001
 10
204.222539
 20
177.438964
 10
204.222539
 20
187.755761
 10
195.307544
 20
187.755761
 42
-1.0
 10
191.842383
 20
191.220923
 10
191.842383
 20
203.2270169999999
 10
168.8875089999999
 20
215.353193
 10
168.8875089999999
 20
198.846318
 10
163.987031
 20
198.846318
 10
163.987031
 20
215.353193
 10
130.97328
 20
215.353193
 10
130.97328
 20
198.846318
 10
126.072801
 20
198.846318
 10
126.072801
 20
215.353193
 10
103.117928
 20
203.2270169999999
 10
103.117928
 20
191.220923
 42
-1.0
 10
99.65276600000001
 20
187.755761
 10
90.737772
 20
187.755761
  0
LWPOLYLINE
  5
99
330
1F
100
AcDbEntity
  8
External Cut
100
AcDbPolyline
 90
       34
 70
   128
 43
0.0
 10
784.7595980000001
 20
502.492623
 10
784.7595980000001
 20
490.112466
 10
779.859119
 20
490.112466
 10
779.859119
 20
502.492623
 10
705.8361009999999
 20
502.492623
 42
-0.4142140000000001
 10
703.385861
 20
500.0423839999999
 42
-0.4142140000000001
 10
700.9356219999999
 20
502.492623
 10
700.9356219999999
 20
513.5900759999999
 42
0.294002
 10
699.7268169999999
 20
515.468157
 42
0.216813
 10
681.5108330000001
 20
515.468157
 42
0.294002
 10
680.3020280000001
 20
513.5900759999999
 10
680.3020280000001
 20
504.555982
 42
0.4142140000000001
 10
682.3653870000001
 20
502.492623
 10
688.555466
 20
502.492623
 10
688.555466
 20
419.958247
 10
724.922175
 20
419.958247
 10
724.922175
 20
448.845278
 10
729.822654
 20
448.845278
 10
729.822654
 20
415.057768
 10
760.773045
 20
415.057768
 10
760.773045
 20
448.845278
 10
765.673523
 20
448.845278
 10
765.673523
 20
419.958247
 10
802.0402330000001
 20
419.958247
 10
802.0402330000001
 20
502.492623
 10
808.2303109999999
 20
502.492623
 42
0.4142140000000001
 10
810.2936709999999
 20
504.555982
 10
810.2936709999999
 20
513.5900759999999
 42
0.294002
 10
809.0848649999999
 20
515.468157
 42
0.216813
 10
790.868882
 20
515.468157
 42
0.294002
 10
789.660077
 20
513.5900759999999
 10
789.660077
 20
502.492623
 42
-0.4142140000000001
 10
787.2098369999999
 20
500.0423839999999
 42
-0.4142140000000001
 10
784.7595980000001
 20
502.492623
  0
LWPOLYLINE
  5
9A
330
1F
100
AcDbEntity
  8
External Cut
100
AcDbPolyline
 90
       17
 70
   128
 43
0.0
 10
830.591562
 20
423.6063829999999
 10
825.979038
 20
512.3634959999999
 42
-0.428715
 10
827.9917450000001
 20
514.4891809999998
 10
869.817463
 20
514.600666
 42
-0.4297680000000001
 10
871.841125
 20
512.4785639999999
 10
867.385366
 20
423.697128
 42
-0.398829
 10
865.3301
 20
421.7372019999999
 10
862.22604
 20
421.7289280000001
 10
862.0885449999999
 20
473.3127299999999
 10
857.188084
 20
473.299668
 10
857.325578
 20
421.7158659999999
 10
840.8187619999999
 20
421.6718679999999
 10
840.681267
 20
473.2556699999999
 10
835.7808059999999
 20
473.242608
 10
835.9183009999998
 20
421.6588059999999
 10
832.6576409999999
 20
421.650115
 42
-0.399859
 10
830.591562
 20
423.6063829999999
  0
LWPOLYLINE
  5
9B
330
1F
100
AcDbEntity
  8
External Cut
100
AcDbPolyline
 90
       17
 70
   128
 43
0.0
 10
599.4969549999999
 20
403.81732
 10
608.008313
 20
403.81732
 42
-1.0
 10
612.908791
 20
403.81732
 10
612.908791
 20
398.916841
 10
658.302698
 20
398.916841
 10
658.302698
 20
403.81732
 42
-1.0
 10
663.203177
 20
403.81732
 10
666.556136
 20
403.81732
 10
666.556136
 20
517.302088
 10
663.203177
 20
517.302088
 42
-1.0
 10
658.302698
 20
517.302088
 10
658.302698
 20
522.202566
 10
612.908791
 20
522.202566
 10
612.908791
 20
517.302088
 42
-1.0
 10
608.008313
 20
517.302088
 10
599.4969549999999
 20
517.302088
 42
0.075803
 10
599.4969549999999
 20
403.81732
  0
LWPOLYLINE
  5
9C
330
1F
100
AcDbEntity
  8
External Cut
100
AcDbPolyline
 90
       27
 70
   128
 43
0.0
 10
411.44056
 20
422.242232
 10
411.44056
 20
487.2380539999999
 10
406.5400819999999
 20
487.2380539999999
 10
406.5400819999999
 20
470.731179
 10
403.4450429999999
 20
470.731179
 42
-0.4142140000000001
 10
400.350004
 20
473.8262179999999
 10
400.350004
 20
505.8082889999999
 10
432.074154
 20
505.8082889999999
 10
432.074154
 20
525.1522829999999
 10
446.77559
 20
525.1522829999999
 10
446.77559
 20
511.9983669999999
 10
451.676069
 20
511.9983669999999
 10
451.676069
 20
525.1522829999999
 10
484.689819
 20
525.1522829999999
 10
484.689819
 20
511.9983669999999
 10
489.590298
 20
511.9983669999999
 10
489.590298
 20
525.1522829999999
 10
504.2917339999999
 20
525.1522829999999
 10
504.2917339999999
 20
505.8082889999999
 10
536.0158849999999
 20
505.8082889999999
 10
536.0158849999999
 20
473.8262179999999
 42
-0.4142140000000001
 10
532.920846
 20
470.731179
 10
529.8258070000001
 20
470.731179
 10
529.8258070000001
 20
487.2380539999999
 10
524.925328
 20
487.2380539999999
 10
524.925328
 20
422.242232
 10
411.44056
 20
422.242232
  0
LWPOLYLINE
  5
9D
330
1F
100
AcDbEntity
  8
External Cut
100
AcDbPolyline
 90
       13
 70
   128
 43
0.0
 10
559.2050949999999
 20
397.899535
 10
581.902048
 20
397.899535
 10
581.902048
 20
438.135043
 10
567.458532
 20
438.135043
 10
567.458532
 20
443.035522
 10
581.902048
 20
443.035522
 10
581.902048
 20
476.049272
 10
567.458532
 20
476.049272
 10
567.458532
 20
480.9497509999999
 10
581.902048
 20
480.9497509999999
 10
581.902048
 20
521.1852589999999
 10
559.2050949999999
 20
521.1852589999999
 42
0.082436
 10
559.2050949999999
 20
397.899535
  0
LWPOLYLINE
  5
9E
330
1F
100
AcDbEntity
  8
External Cut
100
AcDbPolyline
 90
       17
 70
   128
 43
0.0
 10
430.1644399999999
 20
58.25202700000001
 10
442.028757
 20
58.25202700000001
 10
442.028757
 20
53.351548
 10
446.9292349999999
 20
53.351548
 10
446.9292349999999
 20
58.25202700000001
 10
458.793552
 20
58.25202700000001
 42
0.4142140000000001
 10
460.856911
 20
60.315386
 10
460.856911
 20
61.089146
 42
0.4142140000000001
 10
458.793552
 20
63.15250500000001
 10
446.9292349999999
 20
63.15250500000001
 10
446.9292349999999
 20
68.05298399999999
 10
442.028757
 20
68.05298399999999
 10
442.028757
 20
63.15250500000001
 10
430.1644399999999
 20
63.15250500000001
 42
0.4142140000000001
 10
428.1010809999999
 20
61.089146
 10
428.1010809999999
 20
60.315386
 42
0.4142140000000001
 10
430.1644399999999
 20
58.25202700000001
  0
LWPOLYLINE
  5
9F
330
1F
100
AcDbEntity
  8
External Cut
100
AcDbPolyline
 90
       11
 70
   128
 43
0.0
 10
537.2005719999999
 20
374.964881
 10
537.2005719999999
 20
378.9626399999999
 10
548.8068799999999
 20
378.9626399999999
 10
548.8068799999999
 20
383.863118
 10
537.442536
 20
383.863118
 10
537.442536
 20
386.2011109999999
 42
-0.4142140000000001
 10
539.505895
 20
388.26447
 10
550.87024
 20
388.26447
 42
-0.4142140000000001
 10
552.933599
 20
386.2011109999999
 10
552.933599
 20
374.964881
 42
-1.0
 10
537.2005719999999
 20
374.964881
  0
LWPOLYLINE
  5
A0
330
1F
100
AcDbEntity
  8
External Cut
100
AcDbPolyline
 90
       21
 70
   128
 43
0.0
 10
408.867105
 20
336.622243
 10
408.867105
 20
362.4976049999999
 10
423.3106209999999
 20
362.4976049999999
 10
423.3106209999999
 20
367.398083
 10
408.867105
 20
367.398083
 10
408.867105
 20
408.451155
 10
444.2021349999999
 20
408.451155
 10
444.2021349999999
 20
394.0076399999999
 10
449.1026129999999
 20
394.0076399999999
 10
449.1026129999999
 20
408.451155
 10
482.1163639999999
 20
408.451155
 10
482.1163639999999
 20
394.0076399999999
 10
487.0168419999999
 20
394.0076399999999
 10
487.0168419999999
 20
408.451155
 10
522.3518719999999
 20
408.451155
 10
522.3518719999999
 20
367.398083
 10
507.9083559999999
 20
367.398083
 10
507.9083559999999
 20
362.4976049999999
 10
522.3518719999999
 20
362.4976049999999
 10
522.3518719999999
 20
336.622243
 42
-0.075803
 10
408.867105
 20
336.622243
  0
LWPOLYLINE
  5
A1
330
1F
100
AcDbEntity
  8
External Cut
100
AcDbPolyline
 90
       27
 70
   128
 43
0.0
 10
826.8032729999999
 20
179.1257789999999
 10
888.704056
 20
179.1257789999999
 10
888.704056
 20
185.3158569999999
 10
854.916545
 20
185.3158569999999
 10
854.916545
 20
190.216336
 10
888.704056
 20
190.216336
 10
888.704056
 20
252.632958
 10
854.916545
 20
252.632958
 10
854.916545
 20
257.5334359999999
 10
888.704056
 20
257.5334359999999
 10
888.704056
 20
263.7235149999999
 10
826.8032729999999
 20
263.7235149999999
 10
826.8032729999999
 20
230.709764
 10
856.979905
 20
230.709764
 42
-0.4142140000000001
 10
859.4301439999998
 20
233.160003
 42
-0.4142140000000001
 10
861.880383
 20
230.709764
 10
861.880383
 20
229.274447
 42
-1.0
 10
858.4152220000001
 20
225.809286
 10
826.8032729999999
 20
225.809286
 10
826.8032729999999
 20
219.1033669999999
 10
858.4152220000001
 20
219.1033669999999
 42
-1.0
 10
861.880383
 20
215.6382059999999
 10
861.880383
 20
214.202889
 42
-0.4142140000000001
 10
859.4301439999998
 20
211.7526499999999
 42
-0.4142140000000001
 10
856.979905
 20
214.202889
 10
826.8032729999999
 20
214.202889
 10
826.8032729999999
 20
179.1257789999999
  0
LWPOLYLINE
  5
A2
330
1F
100
AcDbEntity
  8
External Cut
100
AcDbPolyline
 90
       10
 70
   128
 43
0.0
 10
680.986122
 20
220.145398
 10
680.986122
 20
237.890069
 10
685.8866009999999
 20
237.890069
 10
685.8866009999999
 20
218.4833629999999
 42
0.079669
 10
690.7870789999999
 20
218.4833629999999
 10
690.7870789999999
 20
237.890069
 10
695.687558
 20
237.890069
 10
695.687558
 20
220.145398
 42
0.778764
 10
688.3368400000001
 20
249.2385459999999
 42
0.778764
 10
680.986122
 20
220.145398
  0
LWPOLYLINE
  5
A3
330
1F
100
AcDbEntity
  8
External Cut
100
AcDbPolyline
 90
       17
 70
   128
 43
0.0
 10
184.724699
 20
324.576218
 10
230.170908
 20
324.576218
 10
230.170908
 20
324.1893379999999
 42
0.4142140000000001
 10
232.234268
 20
322.125979
 10
287.1683259999999
 20
322.125979
 42
0.4142140000000001
 10
289.2316859999999
 20
324.1893379999999
 10
289.2316859999999
 20
324.576218
 10
334.677895
 20
324.576218
 42
1.0
 10
334.677895
 20
341.307499
 10
289.2316859999999
 20
341.307499
 10
289.2316859999999
 20
341.694379
 42
0.4142140000000001
 10
287.1683259999999
 20
343.7577379999999
 10
232.234268
 20
343.7577379999999
 42
0.4142140000000001
 10
230.170908
 20
341.694379
 10
230.170908
 20
341.307499
 10
184.724699
 20
341.307499
 42
1.0
 10
184.724699
 20
324.576218
  0
LWPOLYLINE
  5
A4
330
1F
100
AcDbEntity
  8
External Cut
100
AcDbPolyline
 90
       25
 70
   128
 43
0.0
 10
541.4709349999999
 20
344.353006
 10
572.0231669999999
 20
344.353006
 10
572.0231669999999
 20
328.87781
 10
593.4305209999999
 20
328.87781
 10
593.4305209999999
 20
384.0563009999999
 10
587.2404429999999
 20
385.2421939999999
 10
587.2404429999999
 20
353.6381229999999
 10
582.3399639999999
 20
353.6381229999999
 10
582.3399639999999
 20
386.181026
 10
572.754368
 20
388.01743
 42
0.5253449999999999
 10
567.9140519999999
 20
383.2467859999999
 10
568.864004
 20
377.867362
 10
573.689816
 20
378.719552
 42
-0.4142140000000001
 10
576.5288169999999
 20
376.732741
 42
-0.4142140000000001
 10
574.5420059999999
 20
373.8937399999999
 10
575.528753
 20
368.305958
 42
-1.0
 10
576.380942
 20
363.4801449999999
 10
566.599559
 20
360.199774
 10
568.157735
 20
355.5536169999999
 42
-1.0
 10
563.5115779999999
 20
353.9954399999999
 10
558.1318169999999
 20
352.1912359999999
 42
-1.0
 10
553.4856599999999
 20
350.63306
 10
551.9274839999999
 20
355.279217
 10
540.322805
 20
351.387369
 42
0.8500149999999999
 10
541.4709349999999
 20
344.353006
  0
LWPOLYLINE
  5
A5
330
1F
100
AcDbEntity
  8
External Cut
100
AcDbPolyline
 90
       13
 70
   128
 43
0.0
 10
13.694513
 20
131.6236889999999
 10
13.694513
 20
198.68287
 10
75.595295
 20
198.68287
 10
75.595295
 20
188.366073
 10
43.35530399999999
 20
188.366073
 10
43.35530399999999
 20
183.4655939999999
 10
75.595295
 20
183.4655939999999
 10
75.595295
 20
131.6236889999999
 10
24.785069
 20
131.6236889999999
 10
24.785069
 20
139.877127
 10
19.884591
 20
139.877127
 10
19.884591
 20
131.6236889999999
 10
13.694513
 20
131.6236889999999
  0
LWPOLYLINE
  5
A6
330
1F
100
AcDbEntity
  8
External Cut
100
AcDbPolyline
 90
       15
 70
   128
 43
0.0
 10
9.861686
 20
72.290272
 10
9.861686
 20
77.19075
 10
8.572086999999999
 20
77.19075
 10
8.572086999999999
 20
116.394579
 10
9.861686
 20
116.394579
 10
9.861686
 20
121.295058
 10
14.762165
 20
121.295058
 10
14.762165
 20
116.394579
 10
70.47286899999999
 20
116.394579
 10
70.47286899999999
 20
89.570907
 10
75.889188
 20
89.570907
 10
75.889188
 20
77.19075
 10
14.762165
 20
77.19075
 10
14.762165
 20
72.290272
 10
9.861686
 20
72.290272
  0
LWPOLYLINE
  5
A7
330
1F
100
AcDbEntity
  8
External Cut
100
AcDbPolyline
 90
        9
 70
   128
 43
0.0
 10
776.8565639999999
 20
175.653204
 10
794.4024459999999
 20
191.08413
 42
0.215488
 10
797.90603
 20
198.82626
 10
797.91341
 20
214.373338
 42
0.215488
 10
794.417179
 20
222.118791
 10
776.885955
 20
237.5663689999999
 42
0.6454300000000001
 10
759.748595
 20
229.8307109999999
 10
759.7265559999999
 20
183.405129
 42
0.6454300000000001
 10
776.8565639999999
 20
175.653204
  0
LWPOLYLINE
  5
A8
330
1F
100
AcDbEntity
  8
External Cut
100
AcDbPolyline
 90
       16
 70
   128
 43
0.0
 10
333.329326
 20
390.893454
 10
327.139248
 20
390.893454
 10
327.139248
 20
401.210251
 10
322.238769
 20
401.210251
 10
322.238769
 20
390.893454
 10
296.8222779999999
 20
390.893454
 10
293.935641
 20
395.062119
 10
289.6947499999999
 20
392.125468
 42
-0.4142140000000001
 10
288.2592419999999
 20
392.386316
 10
286.6440839999999
 20
394.718806
 42
-0.4142140000000001
 10
286.9049319999999
 20
396.154314
 10
291.145823
 20
399.0909649999999
 10
288.259186
 20
403.2596299999999
 10
297.218622
 20
409.463689
 10
333.329326
 20
409.463689
 10
333.329326
 20
390.893454
  0
LWPOLYLINE
  5
A9
330
1F
100
AcDbEntity
  8
External Cut
100
AcDbPolyline
 90
       17
 70
   128
 43
0.0
 10
678.019496
 20
352.388512
 10
682.997645
 20
399.845779
 10
690.6531519999999
 20
399.845779
 10
690.6531519999999
 20
393.6557
 10
733.46786
 20
393.6557
 10
733.46786
 20
399.845779
 10
741.123367
 20
399.845779
 10
746.101515
 20
352.388512
 10
733.46786
 20
352.388512
 10
733.46786
 20
366.8320279999999
 10
728.5673809999999
 20
366.8320279999999
 10
728.5673809999999
 20
352.388512
 10
695.553631
 20
352.388512
 10
695.553631
 20
366.8320279999999
 10
690.6531519999999
 20
366.8320279999999
 10
690.6531519999999
 20
352.388512
 10
678.019496
 20
352.388512
  0
LWPOLYLINE
  5
AA
330
1F
100
AcDbEntity
  8
External Cut
100
AcDbPolyline
 90
       13
 70
   128
 43
0.0
 10
783.6378070000001
 20
279.0338859999999
 10
886.2898599999999
 20
279.160066
 10
886.2619609999999
 20
301.8570029999999
 42
0.4
 10
855.3115939999999
 20
301.818958
 10
855.3230070000001
 20
292.5338479999999
 10
850.4225319999999
 20
292.527824
 10
850.4111189999999
 20
301.8129349999999
 42
0.4
 10
819.4607509999999
 20
301.7748899999999
 10
819.472164
 20
292.48978
 10
814.5716889999999
 20
292.483756
 10
814.5602759999999
 20
301.768867
 42
0.4
 10
783.609908
 20
301.7308229999999
 10
783.6378070000001
 20
279.0338859999999
  0
LWPOLYLINE
  5
AB
330
1F
100
AcDbEntity
  8
External Cut
100
AcDbPolyline
 90
       55
 70
   128
 43
0.0
 10
394.711616
 20
28.690993
 42
-0.161832
 10
394.0958279999999
 20
30.54371599999999
 10
394.0958279999999
 20
43.241512
 10
404.4126249999999
 20
43.241512
 10
404.4126249999999
 20
34.988074
 10
409.313104
 20
34.988074
 10
409.313104
 20
43.241512
 10
588.051612
 20
43.241512
 10
588.051612
 20
48.14199
 10
563.942146
 20
48.14199
 10
563.942146
 20
55.786768
 42
-0.18705
 10
564.481295
 20
57.17753599999999
 10
575.93609
 20
69.731397
 42
-0.6848489999999999
 10
579.523659
 20
68.34062900000001
 10
579.523659
 20
58.458787
 10
584.4241379999999
 20
58.458787
 10
584.4241379999999
 20
68.32181099999999
 42
-0.685368
 10
588.0136719999999
 20
69.71042299999999
 10
593.882454
 20
63.26025300000001
 42
0.211198
 10
595.408628
 20
62.585506
 10
626.481681
 20
62.585506
 10
626.481681
 20
52.268709
 10
631.3821599999999
 20
52.268709
 10
631.3821599999999
 20
56.395428
 10
684.461082
 20
56.395428
 10
692.333479
 20
46.336551
 10
713.916536
 20
46.336551
 10
713.916536
 20
31.849231
 10
718.8170150000001
 20
31.849231
 10
718.8170150000001
 20
46.336551
 10
726.854064
 20
44.684239
 10
723.737742
 20
29.52606599999999
 10
728.5378299999999
 20
28.539231
 10
731.6541519999999
 20
43.697404
 10
737.7066099999999
 20
42.453098
 42
-0.327864
 10
739.1748309999999
 20
40.50007100000001
 10
739.258028
 20
32.930888
 42
-0.221736
 10
732.2865349999999
 20
17.68417799999999
 42
-0.178233
 10
730.9485889999999
 20
17.191599
 10
659.3176909999999
 20
17.191599
 10
659.3176909999999
 20
26.734637
 42
1.0
 10
659.3176909999999
 20
31.635115
 10
654.417212
 20
31.635115
 42
0.4142140000000001
 10
651.966973
 20
29.184876
 42
0.4142140000000001
 10
654.417212
 20
26.734637
 10
654.417212
 20
17.191599
 10
459.4785289999999
 20
17.191599
 10
459.4785289999999
 20
26.734637
 42
1.0
 10
459.4785289999999
 20
31.635115
 10
454.5780509999999
 20
31.635115
 42
0.4142140000000001
 10
452.1278109999999
 20
29.184876
 42
0.4142140000000001
 10
454.5780509999999
 20
26.734637
 10
454.5780509999999
 20
17.191599
 10
419.189564
 20
17.191599
 42
-0.249941
 10
394.711616
 20
28.690993
  0
LWPOLYLINE
  5
AC
330
1F
100
AcDbEntity
  8
External Cut
100
AcDbPolyline
 90
       11
 70
   128
 43
0.0
 10
566.560833
 20
140.74572
 42
-0.4142140000000001
 10
558.8886099999999
 20
149.542053
 10
559.0291239999999
 20
151.6006229999999
 10
604.3176509999999
 20
148.5093179999999
 10
604.651371
 20
153.3984209999999
 10
554.4449639999998
 20
156.82541
 10
528.0808879999999
 20
186.873812
 42
-0.782613
 10
540.040007
 20
204.0608329999999
 10
680.0924909999999
 20
150.5087429999999
 42
-0.861499
 10
676.294348
 20
133.2555299999999
 10
566.560833
 20
140.74572
  0
LWPOLYLINE
  5
AD
330
1F
100
AcDbEntity
  8
External Cut
100
AcDbPolyline
 90
       29
 70
   128
 43
0.0
 10
10.297604
 20
294.53952
 42
0.4142140000000001
 10
12.360963
 20
292.476161
 10
45.632634
 20
292.476161
 10
45.632634
 20
335.032949
 10
50.533112
 20
335.032949
 10
50.533112
 20
292.476161
 10
83.546863
 20
292.476161
 10
83.546863
 20
335.032949
 10
88.44734200000001
 20
335.032949
 10
88.44734200000001
 20
292.476161
 10
121.719012
 20
292.476161
 42
0.4142140000000001
 10
123.782371
 20
294.53952
 10
123.782371
 20
427.884122
 42
0.4142140000000001
 10
121.719012
 20
429.947482
 10
103.148777
 20
429.947482
 10
103.148777
 20
493.911623
 10
121.719012
 20
493.911623
 42
0.4142140000000001
 10
123.782371
 20
495.9749829999999
 10
123.782371
 20
522.7986549999999
 42
0.4142140000000001
 10
121.719012
 20
524.862015
 10
12.360963
 20
524.862015
 42
0.4142140000000001
 10
10.297604
 20
522.7986549999999
 10
10.297604
 20
495.9749829999999
 42
0.4142140000000001
 10
12.360963
 20
493.911623
 10
30.931198
 20
493.911623
 10
30.931198
 20
429.947482
 10
12.360963
 20
429.947482
 42
0.4142140000000001
 10
10.297604
 20
427.884122
 10
10.297604
 20
294.53952
  0
LWPOLYLINE
  5
AE
330
1F
100
AcDbEntity
  8
External Cut
100
AcDbPolyline
 90
       17
 70
   128
 43
0.0
 10
534.863053
 20
128.083234
 10
534.863053
 20
148.006619
 10
528.2087190000001
 20
148.006619
 10
528.2087190000001
 20
138.044926
 10
523.30824
 20
138.044926
 10
523.30824
 20
148.006619
 10
518.3561779999999
 20
148.006619
 42
-1.0
 10
518.3561779999999
 20
152.907098
 10
518.3561779999999
 20
160.470336
 10
507.155424
 20
160.470336
 42
0.230933
 10
499.024125
 20
156.5032079999999
 10
482.4515429999999
 20
135.280588
 42
0.624784
 10
490.295465
 20
119.203148
 10
518.3561779999999
 20
119.203148
 10
518.3561779999999
 20
123.1827549999999
 42
-1.0
 10
518.3561779999999
 20
128.083234
 10
534.863053
 20
128.083234
  0
LWPOLYLINE
  5
AF
330
1F
100
AcDbEntity
  8
External Cut
100
AcDbPolyline
 90
       17
 70
   128
 43
0.0
 10
360.285
 20
321.5022629999999
 10
393.2987499999999
 20
321.5022629999999
 42
0.4142140000000001
 10
395.36211
 20
323.565622
 10
395.36211
 20
366.89617
 42
0.4142140000000001
 10
393.2987499999999
 20
368.959529
 10
389.945791
 20
368.959529
 10
389.945791
 20
342.1358569999999
 10
385.0453129999999
 20
342.1358569999999
 10
385.0453129999999
 20
368.959529
 10
368.5384369999999
 20
368.959529
 10
368.5384369999999
 20
342.1358569999999
 10
363.6379589999999
 20
342.1358569999999
 10
363.6379589999999
 20
368.959529
 10
360.285
 20
368.959529
 42
0.4142140000000001
 10
358.22164
 20
366.89617
 10
358.22164
 20
323.565622
 42
0.4142140000000001
 10
360.285
 20
321.5022629999999
  0
LWPOLYLINE
  5
B1
330
1F
100
AcDbEntity
  8
0
100
AcDbPolyline
 90
        2
 70
   128
 43
0.0
 10
103.148777
 20
429.947482
 10
113.465574
 20
429.947482
  0
LWPOLYLINE
  5
B2
330
1F
100
AcDbEntity
  8
External Cut
100
AcDbPolyline
 90
        5
 70
   128
 43
0.0
 10
161.132886
 20
296.6923509999999
 42
-0.4142140000000001
 10
148.7566319999999
 20
284.3160969999999
 42
-0.4142140000000001
 10
136.380378
 20
296.6923509999999
 42
-0.4142140000000001
 10
148.7566319999999
 20
309.0686059999999
 42
-0.4142140000000001
 10
161.132886
 20
296.6923509999999
  0
LWPOLYLINE
  5
B3
330
1F
100
AcDbEntity
  8
External Cut
100
AcDbPolyline
 90
        5
 70
   128
 43
0.0
 10
155.811855
 20
53.755642
 42
-0.4142140000000001
 10
124.8614639999999
 20
22.805251
 42
-0.4142140000000001
 10
93.91107299999999
 20
53.755642
 42
-0.4142140000000001
 10
124.8614639999999
 20
84.70603299999998
 42
-0.4142140000000001
 10
155.811855
 20
53.755642
  0
LWPOLYLINE
  5
B4
330
1F
100
AcDbEntity
  8
External Cut
100
AcDbPolyline
 90
        5
 70
   128
 43
0.0
 10
563.534349
 20
289.185078
 42
-0.4142140000000001
 10
532.687125
 20
258.3378549999999
 42
-0.4142140000000001
 10
501.8399019999999
 20
289.185078
 42
-0.4142140000000001
 10
532.687125
 20
320.0323009999999
 42
-0.4142140000000001
 10
563.534349
 20
289.185078
  0
LWPOLYLINE
  5
B5
330
1F
100
AcDbEntity
  8
External Cut
100
AcDbPolyline
 90
        5
 70
   128
 43
0.0
 10
258.5401549999999
 20
401.3130249999999
 42
-0.4142140000000001
 10
244.096639
 20
386.869509
 42
-0.4142140000000001
 10
229.6531229999999
 20
401.3130249999999
 42
-0.4142140000000001
 10
244.096639
 20
415.756541
 42
-0.4142140000000001
 10
258.5401549999999
 20
401.3130249999999
  0
LWPOLYLINE
  5
B6
330
1F
100
AcDbEntity
  8
External Cut
100
AcDbPolyline
 90
        5
 70
   128
 43
0.0
 10
170.4461479999999
 20
131.856362
 42
-0.4142140000000001
 10
136.4007179999999
 20
97.810932
 42
-0.4142140000000001
 10
102.355287
 20
131.856362
 42
-0.4142140000000001
 10
136.4007179999999
 20
165.901792
 42
-0.4142140000000001
 10
170.4461479999999
 20
131.856362
  0
LWPOLYLINE
  5
B7
330
1F
100
AcDbEntity
  8
External Cut
100
AcDbPolyline
 90
        5
 70
   128
 43
0.0
 10
258.0782629999999
 20
278.180971
 42
-0.4142140000000001
 10
224.0328319999999
 20
244.1355399999999
 42
-0.4142140000000001
 10
189.987402
 20
278.180971
 42
-0.4142140000000001
 10
224.0328319999999
 20
312.2264009999999
 42
-0.4142140000000001
 10
258.0782629999999
 20
278.180971
  0
LWPOLYLINE
  5
B8
330
1F
100
AcDbEntity
  8
External Cut
100
AcDbPolyline
 90
        5
 70
   128
 43
0.0
 10
279.882849
 20
202.9862759999999
 42
-0.4142140000000001
 10
245.8374189999999
 20
168.9408459999999
 42
-0.4142140000000001
 10
211.7919879999999
 20
202.9862759999999
 42
-0.4142140000000001
 10
245.8374189999999
 20
237.031706
 42
-0.4142140000000001
 10
279.882849
 20
202.9862759999999
  0
LWPOLYLINE
  5
B9
330
1F
100
AcDbEntity
  8
External Cut
100
AcDbPolyline
 90
       31
 70
   128
 43
0.0
 10
753.1618959999999
 20
123.0605159999999
 10
753.1618959999999
 20
118.1600379999999
 10
865.200863
 20
118.1600379999999
 10
865.200863
 20
123.0605159999999
 10
881.707738
 20
123.0605159999999
 10
881.707738
 20
116.096678
 42
0.4142140000000001
 10
883.771098
 20
114.0333189999999
 10
884.5448579999999
 20
114.0333189999999
 42
0.4142140000000001
 10
886.608217
 20
116.096678
 10
886.608217
 20
125.5107549999999
 10
886.608217
 20
134.9248329999999
 42
0.4142140000000001
 10
884.5448579999999
 20
136.988192
 10
883.771098
 20
136.988192
 42
0.4142140000000001
 10
881.707738
 20
134.9248329999999
 10
881.707738
 20
127.9609949999999
 10
865.200863
 20
127.9609949999999
 10
865.200863
 20
132.8614729999999
 10
753.1618959999999
 20
132.8614729999999
 10
753.1618959999999
 20
127.9609949999999
 10
736.655021
 20
127.9609949999999
 10
736.655021
 20
134.9248329999999
 42
0.4142140000000001
 10
734.591661
 20
136.988192
 10
733.817902
 20
136.988192
 42
0.4142140000000001
 10
731.754542
 20
134.9248329999999
 10
731.754542
 20
125.5107549999999
 10
731.754542
 20
116.096678
 42
0.4142140000000001
 10
733.817902
 20
114.0333189999999
 10
734.591661
 20
114.0333189999999
 42
0.4142140000000001
 10
736.655021
 20
116.096678
 10
736.655021
 20
123.0605159999999
 10
753.1618959999999
 20
123.0605159999999
  0
LWPOLYLINE
  5
BA
330
1F
100
AcDbEntity
  8
External Cut
100
AcDbPolyline
 90
       21
 70
   128
 43
0.0
 10
780.626048
 20
319.15689
 10
811.5719809999999
 20
319.682161
 10
811.361873
 20
332.0605339999999
 10
816.261646
 20
332.143702
 10
816.4717539999999
 20
319.765329
 10
847.4176880000001
 20
320.290599
 10
847.2075789999999
 20
332.668973
 10
852.1073519999999
 20
332.75214
 10
852.31746
 20
320.3737669999999
 10
883.2633939999999
 20
320.8990379999999
 10
882.6680869999998
 20
355.9710959999999
 42
0.4
 10
851.7221539999999
 20
355.445825
 10
851.9147529999999
 20
344.098983
 10
847.0149799999999
 20
344.0158149999999
 10
846.8223810000001
 20
355.3626569999999
 42
0.4
 10
815.8764469999999
 20
354.837387
 10
816.069047
 20
343.490544
 10
811.169274
 20
343.4073759999999
 10
810.976675
 20
354.7542189999999
 42
0.4
 10
780.030741
 20
354.2289479999999
 10
780.626048
 20
319.15689
  0
LWPOLYLINE
  5
BB
330
1F
100
AcDbEntity
  8
External Cut
100
AcDbPolyline
 90
       26
 70
   128
 43
0.0
 10
250.2345109999999
 20
428.3582349999999
 10
265.8971859999999
 20
428.3582349999999
 10
265.8971859999999
 20
451.055188
 10
270.7976649999999
 20
451.055188
 10
270.7976649999999
 20
428.3582349999999
 10
273.8927039999999
 20
428.3582349999999
 42
0.4142140000000001
 10
276.987743
 20
431.453274
 10
276.987743
 20
455.527453
 42
0.180526
 10
276.4832129999999
 20
456.879305
 10
271.302195
 20
462.8535679999999
 42
-0.180526
 10
270.7976649999999
 20
464.20542
 10
270.7976649999999
 20
519.919809
 42
0.4142140000000001
 10
267.7026259999999
 20
523.014848
 10
207.676989
 20
523.014848
 42
0.236504
 10
205.1978919999999
 20
521.772738
 42
0.157738
 10
174.983351
 20
433.2587139999999
 10
185.4261689999999
 20
433.2587139999999
 10
185.4261689999999
 20
428.3582349999999
 10
174.983721
 20
428.3582349999999
 42
0.0648
 10
180.673977
 20
389.559629
 42
0.335766
 10
183.652685
 20
387.3051629999999
 10
197.835897
 20
387.3051629999999
 42
0.4142140000000001
 10
200.930936
 20
390.400202
 10
200.930936
 20
394.7173339999999
 42
-0.4142140000000001
 10
234.571837
 20
428.3582349999999
 10
250.2345109999999
 20
428.3582349999999
  0
LWPOLYLINE
  5
BC
330
1F
100
AcDbEntity
  8
External Cut
100
AcDbPolyline
 90
       34
 70
   128
 43
0.0
 10
758.4670089999999
 20
30.28787499999999
 10
784.259002
 20
30.28787499999999
 42
-1.0
 10
784.259002
 20
25.387397
 10
784.259002
 20
18.681479
 10
804.892596
 20
18.681479
 10
804.892596
 20
30.28787499999999
 10
837.906347
 20
30.28787499999999
 10
837.906347
 20
18.681479
 10
858.539941
 20
18.681479
 10
858.539941
 20
25.387397
 42
-1.0
 10
858.539941
 20
30.28787499999999
 10
884.3319329999999
 20
30.28787499999999
 10
884.3319329999999
 20
44.731391
 10
858.539941
 20
44.731391
 42
-1.0
 10
858.539941
 20
49.63187
 10
858.539941
 20
56.337788
 10
842.806825
 20
56.337788
 10
842.806825
 20
49.63187
 42
-1.0
 10
842.806825
 20
44.731391
 10
837.906347
 20
44.731391
 42
-0.4142140000000001
 10
835.4561069999999
 20
47.181631
 42
-0.4142140000000001
 10
837.906347
 20
49.63187
 10
837.906347
 20
56.337788
 10
804.892596
 20
56.337788
 10
804.892596
 20
49.63187
 42
-1.0
 10
804.892596
 20
44.731391
 10
799.992117
 20
44.731391
 42
-1.0
 10
799.992117
 20
49.63187
 10
799.992117
 20
56.337788
 10
784.259002
 20
56.337788
 10
784.259002
 20
49.63187
 42
-1.0
 10
784.259002
 20
44.731391
 10
758.4670089999999
 20
44.731391
 10
758.4670089999999
 20
30.28787499999999
  0
LWPOLYLINE
  5
BD
330
1F
100
AcDbEntity
  8
External Cut
100
AcDbPolyline
 90
       26
 70
   128
 43
0.0
 10
316.533473
 20
429.5608239999999
 10
300.870798
 20
429.5608239999999
 10
300.870798
 20
452.2577769999999
 10
295.970319
 20
452.2577769999999
 10
295.970319
 20
429.5608239999999
 10
292.8752799999999
 20
429.5608239999999
 42
-0.4142140000000001
 10
289.780241
 20
432.655863
 10
289.780241
 20
456.7300419999999
 42
-0.180526
 10
290.284772
 20
458.081894
 10
295.465789
 20
464.056157
 42
0.180526
 10
295.970319
 20
465.4080089999999
 10
295.970319
 20
521.122398
 42
-0.4142140000000001
 10
299.065358
 20
524.2174369999999
 10
359.090995
 20
524.2174369999999
 42
-0.236504
 10
361.570092
 20
522.9753269999999
 42
-0.157738
 10
391.784633
 20
434.4613019999999
 10
381.341815
 20
434.4613019999999
 10
381.341815
 20
429.5608239999999
 10
391.7842629999999
 20
429.5608239999999
 42
-0.0648
 10
386.0940069999999
 20
390.762218
 42
-0.335766
 10
383.115299
 20
388.5077519999999
 10
368.932087
 20
388.5077519999999
 42
-0.4142140000000001
 10
365.8370479999999
 20
391.602791
 10
365.8370479999999
 20
395.9199229999999
 42
0.4142140000000001
 10
332.196147
 20
429.5608239999999
 10
316.533473
 20
429.5608239999999
  0
LWPOLYLINE
  5
BE
330
1F
100
AcDbEntity
  8
External Cut
100
AcDbPolyline
 90
       31
 70
   128
 43
0.0
 10
753.1618959999999
 20
153.0882459999999
 10
753.1618959999999
 20
148.1877669999999
 10
865.200863
 20
148.1877669999999
 10
865.200863
 20
153.0882459999999
 10
881.707738
 20
153.0882459999999
 10
881.707738
 20
146.124408
 42
0.4142140000000001
 10
883.771098
 20
144.0610479999999
 10
884.5448579999999
 20
144.0610479999999
 42
0.4142140000000001
 10
886.608217
 20
146.124408
 10
886.608217
 20
155.538485
 10
886.608217
 20
164.952562
 42
0.4142140000000001
 10
884.5448579999999
 20
167.0159219999999
 10
883.771098
 20
167.0159219999999
 42
0.4142140000000001
 10
881.707738
 20
164.952562
 10
881.707738
 20
157.9887239999999
 10
865.200863
 20
157.9887239999999
 10
865.200863
 20
162.889203
 10
753.1618959999999
 20
162.889203
 10
753.1618959999999
 20
157.9887239999999
 10
736.655021
 20
157.9887239999999
 10
736.655021
 20
164.952562
 42
0.4142140000000001
 10
734.591661
 20
167.0159219999999
 10
733.817902
 20
167.0159219999999
 42
0.4142140000000001
 10
731.754542
 20
164.952562
 10
731.754542
 20
155.538485
 10
731.754542
 20
146.124408
 42
0.4142140000000001
 10
733.817902
 20
144.0610479999999
 10
734.591661
 20
144.0610479999999
 42
0.4142140000000001
 10
736.655021
 20
146.124408
 10
736.655021
 20
153.0882459999999
 10
753.1618959999999
 20
153.0882459999999
  0
LWPOLYLINE
  5
BF
330
1F
100
AcDbEntity
  8
External Cut
100
AcDbPolyline
 90
       25
 70
   128
 43
0.0
 10
603.4538610000001
 20
344.51119
 10
634.0060929999999
 20
344.51119
 10
634.0060929999999
 20
329.035994
 10
655.413447
 20
329.035994
 10
655.413447
 20
384.214485
 10
649.223369
 20
385.4003779999999
 10
649.223369
 20
353.7963069999999
 10
644.32289
 20
353.7963069999999
 10
644.32289
 20
386.33921
 10
634.737294
 20
388.175614
 42
0.5253449999999999
 10
629.896978
 20
383.4049699999999
 10
630.8469299999999
 20
378.025546
 10
635.6727419999999
 20
378.8777359999999
 42
-0.4142140000000001
 10
638.511744
 20
376.890925
 42
-0.4142140000000001
 10
636.524932
 20
374.051924
 10
637.5116789999999
 20
368.4641419999999
 42
-1.0
 10
638.363869
 20
363.6383299999999
 10
628.5824849999999
 20
360.3579579999999
 10
630.140662
 20
355.7118009999999
 42
-1.0
 10
625.4945039999999
 20
354.153624
 10
620.114744
 20
352.34942
 42
-1.0
 10
615.468586
 20
350.791244
 10
613.9104099999999
 20
355.4374009999999
 10
602.3057309999999
 20
351.545553
 42
0.8500149999999999
 10
603.4538610000001
 20
344.51119
  0
LWPOLYLINE
  5
C0
330
1F
100
AcDbEntity
  8
External Cut
100
AcDbPolyline
 90
       17
 70
   128
 43
0.0
 10
384.944437
 20
57.78205899999999
 10
396.808754
 20
57.78205899999999
 10
396.808754
 20
52.881581
 10
401.7092329999999
 20
52.881581
 10
401.7092329999999
 20
57.78205899999999
 10
413.573549
 20
57.78205899999999
 42
0.4142140000000001
 10
415.636909
 20
59.84541899999999
 10
415.636909
 20
60.619179
 42
0.4142140000000001
 10
413.573549
 20
62.682538
 10
401.7092329999999
 20
62.682538
 10
401.7092329999999
 20
67.583017
 10
396.808754
 20
67.583017
 10
396.808754
 20
62.682538
 10
384.944437
 20
62.682538
 42
0.4142140000000001
 10
382.8810779999999
 20
60.619179
 10
382.8810779999999
 20
59.84541899999999
 42
0.4142140000000001
 10
384.944437
 20
57.78205899999999
  0
LWPOLYLINE
  5
C1
330
1F
100
AcDbEntity
  8
External Cut
100
AcDbPolyline
 90
       17
 70
   128
 43
0.0
 10
184.724699
 20
353.280833
 10
230.170908
 20
353.280833
 10
230.170908
 20
352.8939529999999
 42
0.4142140000000001
 10
232.234268
 20
350.830594
 10
287.1683259999999
 20
350.830594
 42
0.4142140000000001
 10
289.2316859999999
 20
352.8939529999999
 10
289.2316859999999
 20
353.280833
 10
334.677895
 20
353.280833
 42
1.0
 10
334.677895
 20
370.012114
 10
289.2316859999999
 20
370.012114
 10
289.2316859999999
 20
370.398994
 42
0.4142140000000001
 10
287.1683259999999
 20
372.462353
 10
232.234268
 20
372.462353
 42
0.4142140000000001
 10
230.170908
 20
370.398994
 10
230.170908
 20
370.012114
 10
184.724699
 20
370.012114
 42
1.0
 10
184.724699
 20
353.280833
  0
LWPOLYLINE
  5
C2
330
1F
100
AcDbEntity
  8
External Cut
100
AcDbPolyline
 90
       34
 70
   128
 43
0.0
 10
758.4670089999999
 20
75.01704100000001
 10
784.259002
 20
75.01704100000001
 42
-1.0
 10
784.259002
 20
70.116562
 10
784.259002
 20
63.410644
 10
804.892596
 20
63.410644
 10
804.892596
 20
75.01704100000001
 10
837.906347
 20
75.01704100000001
 10
837.906347
 20
63.410644
 10
858.539941
 20
63.410644
 10
858.539941
 20
70.116562
 42
-1.0
 10
858.539941
 20
75.01704100000001
 10
884.3319329999999
 20
75.01704100000001
 10
884.3319329999999
 20
89.46055600000001
 10
858.539941
 20
89.46055600000001
 42
-1.0
 10
858.539941
 20
94.36103499999999
 10
858.539941
 20
101.0669529999999
 10
842.806825
 20
101.0669529999999
 10
842.806825
 20
94.36103499999999
 42
-1.0
 10
842.806825
 20
89.46055600000001
 10
837.906347
 20
89.46055600000001
 42
-0.4142140000000001
 10
835.4561069999999
 20
91.910796
 42
-0.4142140000000001
 10
837.906347
 20
94.36103499999999
 10
837.906347
 20
101.0669529999999
 10
804.892596
 20
101.0669529999999
 10
804.892596
 20
94.36103499999999
 42
-1.0
 10
804.892596
 20
89.46055600000001
 10
799.992117
 20
89.46055600000001
 42
-1.0
 10
799.992117
 20
94.36103499999999
 10
799.992117
 20
101.0669529999999
 10
784.259002
 20
101.0669529999999
 10
784.259002
 20
94.36103499999999
 42
-1.0
 10
784.259002
 20
89.46055600000001
 10
758.4670089999999
 20
89.46055600000001
 10
758.4670089999999
 20
75.01704100000001
  0
LWPOLYLINE
  5
C3
330
1F
100
AcDbEntity
  8
External Cut
100
AcDbPolyline
 90
       17
 70
   128
 43
0.0
 10
473.270473
 20
128.083234
 10
473.270473
 20
148.006619
 10
466.616139
 20
148.006619
 10
466.616139
 20
138.044926
 10
461.715661
 20
138.044926
 10
461.715661
 20
148.006619
 10
456.763598
 20
148.006619
 42
-1.0
 10
456.763598
 20
152.907098
 10
456.763598
 20
160.470336
 10
445.562844
 20
160.470336
 42
0.230933
 10
437.431546
 20
156.5032079999999
 10
420.8589639999999
 20
135.280588
 42
0.624784
 10
428.7028849999999
 20
119.203148
 10
456.763598
 20
119.203148
 10
456.763598
 20
123.1827549999999
 42
-1.0
 10
456.763598
 20
128.083234
 10
473.270473
 20
128.083234
  0
LWPOLYLINE
  5
C4
330
1F
100
AcDbEntity
  8
External Cut
100
AcDbPolyline
 90
       55
 70
   128
 43
0.0
 10
394.711616
 20
89.012875
 42
-0.161832
 10
394.0958279999999
 20
90.86559799999999
 10
394.0958279999999
 20
103.5633939999999
 10
404.4126249999999
 20
103.5633939999999
 10
404.4126249999999
 20
95.309956
 10
409.313104
 20
95.309956
 10
409.313104
 20
103.5633939999999
 10
588.051612
 20
103.5633939999999
 10
588.051612
 20
108.463872
 10
563.942146
 20
108.463872
 10
563.942146
 20
116.1086499999999
 42
-0.18705
 10
564.481295
 20
117.4994179999999
 10
575.93609
 20
130.053279
 42
-0.6848489999999999
 10
579.523659
 20
128.662511
 10
579.523659
 20
118.78067
 10
584.4241379999999
 20
118.78067
 10
584.4241379999999
 20
128.6436929999999
 42
-0.685368
 10
588.0136719999999
 20
130.032305
 10
593.882454
 20
123.582136
 42
0.211198
 10
595.408628
 20
122.9073879999999
 10
626.481681
 20
122.9073879999999
 10
626.481681
 20
112.5905909999999
 10
631.3821599999999
 20
112.5905909999999
 10
631.3821599999999
 20
116.71731
 10
684.461082
 20
116.71731
 10
692.333479
 20
106.6584329999999
 10
713.916536
 20
106.6584329999999
 10
713.916536
 20
92.171113
 10
718.8170150000001
 20
92.171113
 10
718.8170150000001
 20
106.6584329999999
 10
726.854064
 20
105.0061209999999
 10
723.737742
 20
89.84794800000001
 10
728.5378299999999
 20
88.86111300000001
 10
731.6541519999999
 20
104.0192859999999
 10
737.7066099999999
 20
102.77498
 42
-0.327864
 10
739.1748309999999
 20
100.821953
 10
739.258028
 20
93.25276999999999
 42
-0.221736
 10
732.2865349999999
 20
78.00605999999999
 42
-0.178233
 10
730.9485889999999
 20
77.513481
 10
659.3176909999999
 20
77.513481
 10
659.3176909999999
 20
87.05651899999999
 42
1.0
 10
659.3176909999999
 20
91.956997
 10
654.417212
 20
91.956997
 42
0.4142140000000001
 10
651.966973
 20
89.50675799999999
 42
0.4142140000000001
 10
654.417212
 20
87.05651899999999
 10
654.417212
 20
77.513481
 10
459.4785289999999
 20
77.513481
 10
459.4785289999999
 20
87.05651899999999
 42
1.0
 10
459.4785289999999
 20
91.956997
 10
454.5780509999999
 20
91.956997
 42
0.4142140000000001
 10
452.1278109999999
 20
89.50675799999999
 42
0.4142140000000001
 10
454.5780509999999
 20
87.05651899999999
 10
454.5780509999999
 20
77.513481
 10
419.189564
 20
77.513481
 42
-0.249941
 10
394.711616
 20
89.012875
  0
LWPOLYLINE
  5
C5
330
1F
100
AcDbEntity
  8
External Cut
100
AcDbPolyline
 90
        5
 70
   128
 43
0.0
 10
161.132886
 20
328.5177159999999
 42
-0.4142140000000001
 10
148.7566319999999
 20
316.1414619999999
 42
-0.4142140000000001
 10
136.380378
 20
328.5177159999999
 42
-0.4142140000000001
 10
148.7566319999999
 20
340.89397
 42
-0.4142140000000001
 10
161.132886
 20
328.5177159999999
  0
LWPOLYLINE
  5
C6
330
1F
100
AcDbEntity
  8
External Cut
100
AcDbPolyline
 90
        5
 70
   128
 43
0.0
 10
161.132886
 20
360.3430799999999
 42
-0.4142140000000001
 10
148.7566319999999
 20
347.9668259999999
 42
-0.4142140000000001
 10
136.380378
 20
360.3430799999999
 42
-0.4142140000000001
 10
148.7566319999999
 20
372.719335
 42
-0.4142140000000001
 10
161.132886
 20
360.3430799999999
  0
LWPOLYLINE
  5
C7
330
1F
100
AcDbEntity
  8
External Cut
100
AcDbPolyline
 90
        5
 70
   128
 43
0.0
 10
161.132886
 20
392.168445
 42
-0.4142140000000001
 10
148.7566319999999
 20
379.7921909999999
 42
-0.4142140000000001
 10
136.380378
 20
392.168445
 42
-0.4142140000000001
 10
148.7566319999999
 20
404.544699
 42
-0.4142140000000001
 10
161.132886
 20
392.168445
  0
LWPOLYLINE
  5
C8
330
1F
100
AcDbEntity
  8
External Cut
100
AcDbPolyline
 90
        5
 70
   128
 43
0.0
 10
335.3053379999999
 20
278.180971
 42
-0.4142140000000001
 10
301.259908
 20
244.1355399999999
 42
-0.4142140000000001
 10
267.2144779999999
 20
278.180971
 42
-0.4142140000000001
 10
301.259908
 20
312.2264009999999
 42
-0.4142140000000001
 10
335.3053379999999
 20
278.180971
  0
LWPOLYLINE
  5
C9
330
1F
100
AcDbEntity
  8
External Cut
100
AcDbPolyline
 90
        5
 70
   128
 43
0.0
 10
412.532414
 20
278.180971
 42
-0.4142140000000001
 10
378.486984
 20
244.1355399999999
 42
-0.4142140000000001
 10
344.441554
 20
278.180971
 42
-0.4142140000000001
 10
378.486984
 20
312.2264009999999
 42
-0.4142140000000001
 10
412.532414
 20
278.180971
  0
LWPOLYLINE
  5
CA
330
1F
100
AcDbEntity
  8
External Cut
100
AcDbPolyline
 90
        5
 70
   128
 43
0.0
 10
489.75949
 20
278.180971
 42
-0.4142140000000001
 10
455.7140599999999
 20
244.1355399999999
 42
-0.4142140000000001
 10
421.66863
 20
278.180971
 42
-0.4142140000000001
 10
455.7140599999999
 20
312.2264009999999
 42
-0.4142140000000001
 10
489.75949
 20
278.180971
  0
LWPOLYLINE
  5
CB
330
1F
100
AcDbEntity
  8
External Cut
100
AcDbPolyline
 90
        5
 70
   128
 43
0.0
 10
355.046565
 20
202.9862759999999
 42
-0.4142140000000001
 10
321.001135
 20
168.9408459999999
 42
-0.4142140000000001
 10
286.9557049999999
 20
202.9862759999999
 42
-0.4142140000000001
 10
321.001135
 20
237.031706
 42
-0.4142140000000001
 10
355.046565
 20
202.9862759999999
  0
LWPOLYLINE
  5
CC
330
1F
100
AcDbEntity
  8
External Cut
100
AcDbPolyline
 90
        5
 70
   128
 43
0.0
 10
430.2102819999999
 20
202.9862759999999
 42
-0.4142140000000001
 10
396.164852
 20
168.9408459999999
 42
-0.4142140000000001
 10
362.119421
 20
202.9862759999999
 42
-0.4142140000000001
 10
396.164852
 20
237.031706
 42
-0.4142140000000001
 10
430.2102819999999
 20
202.9862759999999
  0
LWPOLYLINE
  5
CD
330
1F
100
AcDbEntity
  8
External Cut
100
AcDbPolyline
 90
        5
 70
   128
 43
0.0
 10
505.373998
 20
202.9862759999999
 42
-0.4142140000000001
 10
471.3285679999999
 20
168.9408459999999
 42
-0.4142140000000001
 10
437.283138
 20
202.9862759999999
 42
-0.4142140000000001
 10
471.3285679999999
 20
237.031706
 42
-0.4142140000000001
 10
505.373998
 20
202.9862759999999
  0
LWPOLYLINE
  5
CE
330
1F
100
AcDbEntity
  8
External Cut
100
AcDbPolyline
 90
        5
 70
   128
 43
0.0
 10
245.6098639999999
 20
131.856362
 42
-0.4142140000000001
 10
211.5644339999999
 20
97.810932
 42
-0.4142140000000001
 10
177.519004
 20
131.856362
 42
-0.4142140000000001
 10
211.5644339999999
 20
165.901792
 42
-0.4142140000000001
 10
245.6098639999999
 20
131.856362
  0
LWPOLYLINE
  5
CF
330
1F
100
AcDbEntity
  8
External Cut
100
AcDbPolyline
 90
        5
 70
   128
 43
0.0
 10
320.7735809999999
 20
131.856362
 42
-0.4142140000000001
 10
286.7281509999999
 20
97.810932
 42
-0.4142140000000001
 10
252.68272
 20
131.856362
 42
-0.4142140000000001
 10
286.7281509999999
 20
165.901792
 42
-0.4142140000000001
 10
320.7735809999999
 20
131.856362
  0
LWPOLYLINE
  5
D0
330
1F
100
AcDbEntity
  8
External Cut
100
AcDbPolyline
 90
        5
 70
   128
 43
0.0
 10
395.937297
 20
131.856362
 42
-0.4142140000000001
 10
361.8918669999999
 20
97.810932
 42
-0.4142140000000001
 10
327.846437
 20
131.856362
 42
-0.4142140000000001
 10
361.8918669999999
 20
165.901792
 42
-0.4142140000000001
 10
395.937297
 20
131.856362
  0
LWPOLYLINE
  5
D1
330
1F
100
AcDbEntity
  8
External Cut
100
AcDbPolyline
 90
        5
 70
   128
 43
0.0
 10
632.301651
 20
289.185078
 42
-0.4142140000000001
 10
601.4544279999999
 20
258.3378549999999
 42
-0.4142140000000001
 10
570.607205
 20
289.185078
 42
-0.4142140000000001
 10
601.4544279999999
 20
320.0323009999999
 42
-0.4142140000000001
 10
632.301651
 20
289.185078
  0
LWPOLYLINE
  5
D2
330
1F
100
AcDbEntity
  8
External Cut
100
AcDbPolyline
 90
        5
 70
   128
 43
0.0
 10
701.068953
 20
289.185078
 42
-0.4142140000000001
 10
670.22173
 20
258.3378549999999
 42
-0.4142140000000001
 10
639.374507
 20
289.185078
 42
-0.4142140000000001
 10
670.22173
 20
320.0323009999999
 42
-0.4142140000000001
 10
701.068953
 20
289.185078
  0
LWPOLYLINE
  5
D3
330
1F
100
AcDbEntity
  8
External Cut
100
AcDbPolyline
 90
        5
 70
   128
 43
0.0
 10
769.8362549999999
 20
289.185078
 42
-0.4142140000000001
 10
738.9890320000001
 20
258.3378549999999
 42
-0.4142140000000001
 10
708.1418089999999
 20
289.185078
 42
-0.4142140000000001
 10
738.9890320000001
 20
320.0323009999999
 42
-0.4142140000000001
 10
769.8362549999999
 20
289.185078
  0
LWPOLYLINE
  5
D4
330
1F
100
AcDbEntity
  8
External Cut
100
AcDbPolyline
 90
        5
 70
   128
 43
0.0
 10
224.785493
 20
53.755642
 42
-0.4142140000000001
 10
193.8351019999999
 20
22.805251
 42
-0.4142140000000001
 10
162.884711
 20
53.755642
 42
-0.4142140000000001
 10
193.8351019999999
 20
84.70603299999998
 42
-0.4142140000000001
 10
224.785493
 20
53.755642
  0
LWPOLYLINE
  5
D5
330
1F
100
AcDbEntity
  8
External Cut
100
AcDbPolyline
 90
        5
 70
   128
 43
0.0
 10
293.759131
 20
53.755642
 42
-0.4142140000000001
 10
262.80874
 20
22.805251
 42
-0.4142140000000001
 10
231.858349
 20
53.755642
 42
-0.4142140000000001
 10
262.80874
 20
84.70603299999998
 42
-0.4142140000000001
 10
293.759131
 20
53.755642
  0
LWPOLYLINE
  5
D6
330
1F
100
AcDbEntity
  8
External Cut
100
AcDbPolyline
 90
        5
 70
   128
 43
0.0
 10
362.732769
 20
53.755642
 42
-0.4142140000000001
 10
331.7823779999999
 20
22.805251
 42
-0.4142140000000001
 10
300.831987
 20
53.755642
 42
-0.4142140000000001
 10
331.7823779999999
 20
84.70603299999998
 42
-0.4142140000000001
 10
362.732769
 20
53.755642
  0
LWPOLYLINE
  5
D7
330
1F
100
AcDbEntity
  8
External Cut
100
AcDbPolyline
 90
       11
 70
   128
 43
0.0
 10
654.403103
 20
229.2714799999999
 42
-0.4142140000000001
 10
661.9214509999999
 20
220.3432709999999
 10
661.745219
 20
218.2874519999999
 10
616.517188
 20
222.164567
 10
616.098636
 20
217.281995
 10
666.237978
 20
212.9838649999999
 10
692.076395
 20
182.482271
 42
-0.782613
 10
679.820687
 20
165.505469
 10
540.7190559999999
 20
221.4810079999999
 42
-0.861499
 10
544.8161679999999
 20
238.6656789999999
 10
654.403103
 20
229.2714799999999
  0
LWPOLYLINE
  5
D8
330
1F
100
AcDbEntity
  8
External Cut
100
AcDbPolyline
 90
        9
 70
   128
 43
0.0
 10
732.066993
 20
237.851804
 10
714.5211109999999
 20
222.420878
 42
0.215488
 10
711.017527
 20
214.6787479999999
 10
711.010146
 20
199.1316699999999
 42
0.215488
 10
714.506378
 20
191.3862159999999
 10
732.037602
 20
175.9386389999999
 42
0.6454300000000001
 10
749.174962
 20
183.6742969999999
 10
749.197001
 20
230.099878
 42
0.6454300000000001
 10
732.066993
 20
237.851804
  0
LWPOLYLINE
  5
D9
330
1F
100
AcDbEntity
  8
External Cut
100
AcDbPolyline
 90
       13
 70
   128
 43
0.0
 10
162.576819
 20
229.0086609999999
 42
0.624784
 10
178.654258
 20
236.852583
 10
178.654258
 20
264.913296
 10
156.731065
 20
264.913296
 42
-1.0
 10
151.830586
 20
264.913296
 10
151.830586
 20
269.813774
 42
-1.0
 10
156.731065
 20
269.813774
 10
178.654258
 20
269.813774
 10
178.654258
 20
276.003852
 10
137.3870699999999
 20
276.003852
 10
137.3870699999999
 20
253.7125419999999
 42
0.230933
 10
141.3541989999999
 20
245.581243
 10
162.576819
 20
229.0086609999999
  0
LWPOLYLINE
  5
DA
330
1F
100
AcDbEntity
  8
External Cut
100
AcDbPolyline
 90
       17
 70
   128
 43
0.0
 10
515.2131299999999
 20
58.25202700000001
 10
527.077446
 20
58.25202700000001
 10
527.077446
 20
53.351548
 10
531.977925
 20
53.351548
 10
531.977925
 20
58.25202700000001
 10
543.8422419999999
 20
58.25202700000001
 42
0.4142140000000001
 10
545.9056009999999
 20
60.315386
 10
545.9056009999999
 20
61.089146
 42
0.4142140000000001
 10
543.8422419999999
 20
63.15250500000001
 10
531.977925
 20
63.15250500000001
 10
531.977925
 20
68.05298399999999
 10
527.077446
 20
68.05298399999999
 10
527.077446
 20
63.15250500000001
 10
515.2131299999999
 20
63.15250500000001
 42
0.4142140000000001
 10
513.1497699999999
 20
61.089146
 10
513.1497699999999
 20
60.315386
 42
0.4142140000000001
 10
515.2131299999999
 20
58.25202700000001
  0
LWPOLYLINE
  5
DB
330
1F
100
AcDbEntity
  8
External Cut
100
AcDbPolyline
 90
       17
 70
   128
 43
0.0
 10
469.9931269999999
 20
57.78205899999999
 10
481.8574429999999
 20
57.78205899999999
 10
481.8574429999999
 20
52.881581
 10
486.7579219999999
 20
52.881581
 10
486.7579219999999
 20
57.78205899999999
 10
498.622239
 20
57.78205899999999
 42
0.4142140000000001
 10
500.685598
 20
59.84541899999999
 10
500.685598
 20
60.619179
 42
0.4142140000000001
 10
498.622239
 20
62.682538
 10
486.7579219999999
 20
62.682538
 10
486.7579219999999
 20
67.583017
 10
481.8574429999999
 20
67.583017
 10
481.8574429999999
 20
62.682538
 10
469.9931269999999
 20
62.682538
 42
0.4142140000000001
 10
467.9297669999999
 20
60.619179
 10
467.9297669999999
 20
59.84541899999999
 42
0.4142140000000001
 10
469.9931269999999
 20
57.78205899999999
  0
LWPOLYLINE
  5
DC
330
1F
100
AcDbEntity
  8
External Cut
100
AcDbPolyline
 90
        5
 70
   128
 43
0.0
 10
161.132886
 20
423.9938089999999
 42
-0.4142140000000001
 10
148.7566319999999
 20
411.6175549999999
 42
-0.4142140000000001
 10
136.380378
 20
423.9938089999999
 42
-0.4142140000000001
 10
148.7566319999999
 20
436.3700639999999
 42
-0.4142140000000001
 10
161.132886
 20
423.9938089999999
  0
LWPOLYLINE
  5
DD
330
1F
100
AcDbEntity
  8
External Cut
100
AcDbPolyline
 90
        5
 70
   128
 43
0.0
 10
161.132886
 20
455.819174
 42
-0.4142140000000001
 10
148.7566319999999
 20
443.442919
 42
-0.4142140000000001
 10
136.380378
 20
455.819174
 42
-0.4142140000000001
 10
148.7566319999999
 20
468.195428
 42
-0.4142140000000001
 10
161.132886
 20
455.819174
  0
LWPOLYLINE
  5
DE
330
1F
100
AcDbEntity
  8
External Cut
100
AcDbPolyline
 90
        5
 70
   128
 43
0.0
 10
161.132886
 20
487.6445379999999
 42
-0.4142140000000001
 10
148.7566319999999
 20
475.268284
 42
-0.4142140000000001
 10
136.380378
 20
487.6445379999999
 42
-0.4142140000000001
 10
148.7566319999999
 20
500.020792
 42
-0.4142140000000001
 10
161.132886
 20
487.6445379999999
  0
LWPOLYLINE
  5
DF
330
1F
100
AcDbEntity
  8
External Cut
100
AcDbPolyline
 90
        5
 70
   128
 43
0.0
 10
161.132886
 20
519.469903
 42
-0.4142140000000001
 10
148.7566319999999
 20
507.093648
 42
-0.4142140000000001
 10
136.380378
 20
519.469903
 42
-0.4142140000000001
 10
148.7566319999999
 20
531.8461570000001
 42
-0.4142140000000001
 10
161.132886
 20
519.469903
  0
LWPOLYLINE
  5
E0
330
1F
100
AcDbEntity
  8
External Cut
100
AcDbPolyline
 90
       13
 70
   128
 43
0.0
 10
11.862033
 20
211.66242
 10
73.762816
 20
211.66242
 10
73.762816
 20
221.979217
 10
41.522825
 20
221.979217
 10
41.522825
 20
226.879695
 10
73.762816
 20
226.879695
 10
73.762816
 20
278.7216009999999
 10
35.33274699999999
 20
278.7216009999999
 10
35.33274699999999
 20
268.1468839999999
 10
22.65097
 20
268.1468839999999
 10
22.65097
 20
278.7216009999999
 10
11.862033
 20
278.7216009999999
 10
11.862033
 20
211.66242
  0
LWPOLYLINE
  5
E1
330
1F
100
AcDbEntity
  8
External Cut
100
AcDbPolyline
 90
       21
 70
   128
 43
0.0
 10
74.481156
 20
12.666769
 10
12.064534
 20
12.666769
 10
12.064534
 20
26.078605
 10
7.164055999999999
 20
26.078605
 10
7.164055999999999
 20
53.160198
 10
12.064534
 20
53.160198
 10
12.064534
 20
64.50867399999999
 10
35.01940799999999
 20
64.50867399999999
 10
35.01940799999999
 20
54.40459399999999
 10
39.91988599999999
 20
54.40459399999999
 10
39.91988599999999
 20
64.50867399999999
 10
46.62580399999999
 20
64.50867399999999
 10
46.62580399999999
 20
54.40459399999999
 10
51.52628299999999
 20
54.40459399999999
 10
51.52628299999999
 20
64.50867399999999
 10
74.481156
 20
64.50867399999999
 10
74.481156
 20
53.160198
 10
79.381635
 20
53.160198
 10
79.381635
 20
26.078605
 10
74.481156
 20
26.078605
 10
74.481156
 20
12.666769
  0
LWPOLYLINE
  5
E2
330
1F
100
AcDbEntity
  8
Pocket Cut
100
AcDbPolyline
 90
        5
 70
   128
 43
0.0
 10
276.78781
 20
202.9862759999999
 42
-0.4142140000000001
 10
245.8374189999999
 20
172.035885
 42
-0.4142140000000001
 10
214.887028
 20
202.9862759999999
 42
-0.4142140000000001
 10
245.8374189999999
 20
233.9366669999999
 42
-0.4142140000000001
 10
276.78781
 20
202.9862759999999
  0
LWPOLYLINE
  5
E3
330
1F
100
AcDbEntity
  8
Pocket Cut
100
AcDbPolyline
 90
        5
 70
   128
 43
0.0
 10
244.5632589999999
 20
278.180971
 42
-0.4142140000000001
 10
224.0328319999999
 20
257.650545
 42
-0.4142140000000001
 10
203.502406
 20
278.180971
 42
-0.4142140000000001
 10
224.0328319999999
 20
298.711397
 42
-0.4142140000000001
 10
244.5632589999999
 20
278.180971
  0
LWPOLYLINE
  5
E4
330
1F
100
AcDbEntity
  8
Pocket Cut
100
AcDbPolyline
 90
        5
 70
   128
 43
0.0
 10
259.1099419999999
 20
278.180971
 42
-0.4142140000000001
 10
224.0328319999999
 20
243.1038609999999
 42
-0.4142140000000001
 10
188.955722
 20
278.180971
 42
-0.4142140000000001
 10
224.0328319999999
 20
313.258081
 42
-0.4142140000000001
 10
259.1099419999999
 20
278.180971
  0
LWPOLYLINE
  5
E5
330
1F
100
AcDbEntity
  8
Pocket Cut
100
AcDbPolyline
 90
        5
 70
   128
 43
0.0
 10
265.439333
 20
202.9862759999999
 42
-0.4142140000000001
 10
245.8374189999999
 20
183.384361
 42
-0.4142140000000001
 10
226.235504
 20
202.9862759999999
 42
-0.4142140000000001
 10
245.8374189999999
 20
222.58819
 42
-0.4142140000000001
 10
265.439333
 20
202.9862759999999
  0
LWPOLYLINE
  5
E6
330
1F
100
AcDbEntity
  8
Pocket Cut
100
AcDbPolyline
 90
        5
 70
   128
 43
0.0
 10
519.256833
 20
377.9727999999999
 42
-0.4142140000000001
 10
513.0667549999999
 20
371.782722
 42
-0.4142140000000001
 10
506.8766769999999
 20
377.9727999999999
 42
-0.4142140000000001
 10
513.0667549999999
 20
384.1628789999999
 42
-0.4142140000000001
 10
519.256833
 20
377.9727999999999
  0
LWPOLYLINE
  5
E7
330
1F
100
AcDbEntity
  8
Pocket Cut
100
AcDbPolyline
 90
        5
 70
   128
 43
0.0
 10
424.3422999999999
 20
377.9727999999999
 42
-0.4142140000000001
 10
418.1522219999999
 20
371.782722
 42
-0.4142140000000001
 10
411.9621439999999
 20
377.9727999999999
 42
-0.4142140000000001
 10
418.1522219999999
 20
384.1628789999999
 42
-0.4142140000000001
 10
424.3422999999999
 20
377.9727999999999
  0
LWPOLYLINE
  5
E8
330
1F
100
AcDbEntity
  8
Pocket Cut
100
AcDbPolyline
 90
        5
 70
   128
 43
0.0
 10
100.022889
 20
176.923124
 42
-0.4142140000000001
 10
95.38033
 20
181.5656829999999
 42
-0.4142140000000001
 10
100.022889
 20
186.2082419999999
 42
-0.4142140000000001
 10
104.6654479999999
 20
181.5656829999999
 42
-0.4142140000000001
 10
100.022889
 20
176.923124
  0
LWPOLYLINE
  5
E9
330
1F
100
AcDbEntity
  8
Pocket Cut
100
AcDbPolyline
 90
        5
 70
   128
 43
0.0
 10
194.9374219999999
 20
176.923124
 42
-0.4142140000000001
 10
190.294863
 20
181.5656829999999
 42
-0.4142140000000001
 10
194.9374219999999
 20
186.2082419999999
 42
-0.4142140000000001
 10
199.57998
 20
181.5656829999999
 42
-0.4142140000000001
 10
194.9374219999999
 20
176.923124
  0
LWPOLYLINE
  5
EA
330
1F
100
AcDbEntity
  8
Pocket Cut
100
AcDbPolyline
 90
        5
 70
   128
 43
0.0
 10
321.7903339999999
 20
278.180971
 42
-0.4142140000000001
 10
301.259908
 20
257.650545
 42
-0.4142140000000001
 10
280.7294819999999
 20
278.180971
 42
-0.4142140000000001
 10
301.259908
 20
298.711397
 42
-0.4142140000000001
 10
321.7903339999999
 20
278.180971
  0
LWPOLYLINE
  5
EB
330
1F
100
AcDbEntity
  8
Pocket Cut
100
AcDbPolyline
 90
        5
 70
   128
 43
0.0
 10
336.3370179999999
 20
278.180971
 42
-0.4142140000000001
 10
301.259908
 20
243.1038609999999
 42
-0.4142140000000001
 10
266.1827979999999
 20
278.180971
 42
-0.4142140000000001
 10
301.259908
 20
313.258081
 42
-0.4142140000000001
 10
336.3370179999999
 20
278.180971
  0
LWPOLYLINE
  5
EC
330
1F
100
AcDbEntity
  8
Pocket Cut
100
AcDbPolyline
 90
        5
 70
   128
 43
0.0
 10
399.0174099999999
 20
278.180971
 42
-0.4142140000000001
 10
378.486984
 20
257.650545
 42
-0.4142140000000001
 10
357.956558
 20
278.180971
 42
-0.4142140000000001
 10
378.486984
 20
298.711397
 42
-0.4142140000000001
 10
399.0174099999999
 20
278.180971
  0
LWPOLYLINE
  5
ED
330
1F
100
AcDbEntity
  8
Pocket Cut
100
AcDbPolyline
 90
        5
 70
   128
 43
0.0
 10
413.564094
 20
278.180971
 42
-0.4142140000000001
 10
378.486984
 20
243.1038609999999
 42
-0.4142140000000001
 10
343.409874
 20
278.180971
 42
-0.4142140000000001
 10
378.486984
 20
313.258081
 42
-0.4142140000000001
 10
413.564094
 20
278.180971
  0
LWPOLYLINE
  5
EE
330
1F
100
AcDbEntity
  8
Pocket Cut
100
AcDbPolyline
 90
        5
 70
   128
 43
0.0
 10
476.244486
 20
278.180971
 42
-0.4142140000000001
 10
455.7140599999999
 20
257.650545
 42
-0.4142140000000001
 10
435.183634
 20
278.180971
 42
-0.4142140000000001
 10
455.7140599999999
 20
298.711397
 42
-0.4142140000000001
 10
476.244486
 20
278.180971
  0
LWPOLYLINE
  5
EF
330
1F
100
AcDbEntity
  8
Pocket Cut
100
AcDbPolyline
 90
        5
 70
   128
 43
0.0
 10
490.79117
 20
278.180971
 42
-0.4142140000000001
 10
455.7140599999999
 20
243.1038609999999
 42
-0.4142140000000001
 10
420.63695
 20
278.180971
 42
-0.4142140000000001
 10
455.7140599999999
 20
313.258081
 42
-0.4142140000000001
 10
490.79117
 20
278.180971
  0
LWPOLYLINE
  5
F0
330
1F
100
AcDbEntity
  8
Pocket Cut
100
AcDbPolyline
 90
        5
 70
   128
 43
0.0
 10
351.9515259999999
 20
202.9862759999999
 42
-0.4142140000000001
 10
321.001135
 20
172.035885
 42
-0.4142140000000001
 10
290.050744
 20
202.9862759999999
 42
-0.4142140000000001
 10
321.001135
 20
233.9366669999999
 42
-0.4142140000000001
 10
351.9515259999999
 20
202.9862759999999
  0
LWPOLYLINE
  5
F1
330
1F
100
AcDbEntity
  8
Pocket Cut
100
AcDbPolyline
 90
        5
 70
   128
 43
0.0
 10
340.603049
 20
202.9862759999999
 42
-0.4142140000000001
 10
321.001135
 20
183.384361
 42
-0.4142140000000001
 10
301.399221
 20
202.9862759999999
 42
-0.4142140000000001
 10
321.001135
 20
222.58819
 42
-0.4142140000000001
 10
340.603049
 20
202.9862759999999
  0
LWPOLYLINE
  5
F2
330
1F
100
AcDbEntity
  8
Pocket Cut
100
AcDbPolyline
 90
        5
 70
   128
 43
0.0
 10
427.1152429999999
 20
202.9862759999999
 42
-0.4142140000000001
 10
396.164852
 20
172.035885
 42
-0.4142140000000001
 10
365.21446
 20
202.9862759999999
 42
-0.4142140000000001
 10
396.164852
 20
233.9366669999999
 42
-0.4142140000000001
 10
427.1152429999999
 20
202.9862759999999
  0
LWPOLYLINE
  5
F3
330
1F
100
AcDbEntity
  8
Pocket Cut
100
AcDbPolyline
 90
        5
 70
   128
 43
0.0
 10
415.766766
 20
202.9862759999999
 42
-0.4142140000000001
 10
396.164852
 20
183.384361
 42
-0.4142140000000001
 10
376.562937
 20
202.9862759999999
 42
-0.4142140000000001
 10
396.164852
 20
222.58819
 42
-0.4142140000000001
 10
415.766766
 20
202.9862759999999
  0
LWPOLYLINE
  5
F4
330
1F
100
AcDbEntity
  8
Pocket Cut
100
AcDbPolyline
 90
        5
 70
   128
 43
0.0
 10
502.278959
 20
202.9862759999999
 42
-0.4142140000000001
 10
471.3285679999999
 20
172.035885
 42
-0.4142140000000001
 10
440.3781769999999
 20
202.9862759999999
 42
-0.4142140000000001
 10
471.3285679999999
 20
233.9366669999999
 42
-0.4142140000000001
 10
502.278959
 20
202.9862759999999
  0
LWPOLYLINE
  5
F5
330
1F
100
AcDbEntity
  8
Pocket Cut
100
AcDbPolyline
 90
        5
 70
   128
 43
0.0
 10
490.930482
 20
202.9862759999999
 42
-0.4142140000000001
 10
471.3285679999999
 20
183.384361
 42
-0.4142140000000001
 10
451.726654
 20
202.9862759999999
 42
-0.4142140000000001
 10
471.3285679999999
 20
222.58819
 42
-0.4142140000000001
 10
490.930482
 20
202.9862759999999
  0
MTEXT
  5
FE
330
1F
100
AcDbEntity
  8
Pocket Cut
100
AcDbMText
 10
308.5238113129694
 20
-55.77125858189834
 30
0.0
 40
10.0
 41
181.2489751844971
 71
     1
 72
     5
  1
Pocket Cut essential approx 1mm deep to obtain press fit for the 3 outer discs on the each wheel
 73
     1
 44
1.0
  0
MTEXT
  5
101
330
1F
100
AcDbEntity
  8
Internal Cut
100
AcDbMText
 10
615.2020883881043
 20
-53.16424709054934
 30
0.0
 40
10.0
 41
145.8216
 71
     1
 72
     5
  1
Blue denotes Internal Cut\\P\\P\\P{\\C1;Red denotes external Cut}
 73
     1
 44
1.0
  0
ENDSEC
  0
SECTION
  2
OBJECTS
  0
DICTIONARY
  5
C
330
0
100
AcDbDictionary
281
     1
  3
ACAD_GROUP
350
D
  3
ACAD_LAYOUT
350
1A
  3
ACAD_MLINESTYLE
350
17
  3
ACAD_PLOTSETTINGS
350
19
  3
ACAD_PLOTSTYLENAME
350
E
  0
DICTIONARY
  5
D
102
{ACAD_REACTORS
330
C
102
}
330
C
100
AcDbDictionary
281
     1
  0
DICTIONARY
  5
1A
102
{ACAD_REACTORS
330
C
102
}
330
C
100
AcDbDictionary
281
     1
  3
Layout1
350
1E
  3
Layout2
350
26
  3
Model
350
22
  0
DICTIONARY
  5
17
102
{ACAD_REACTORS
330
C
102
}
330
C
100
AcDbDictionary
281
     1
  3
Standard
350
18
  0
DICTIONARY
  5
19
102
{ACAD_REACTORS
330
C
102
}
330
C
100
AcDbDictionary
281
     1
  0
ACDBDICTIONARYWDFLT
  5
E
102
{ACAD_REACTORS
330
C
102
}
330
C
100
AcDbDictionary
281
     1
  3
Normal
350
F
100
AcDbDictionaryWithDefault
340
F
  0
LAYOUT
  5
1E
102
{ACAD_REACTORS
330
1A
102
}
330
1A
100
AcDbPlotSettings
  1

  2

  4

  6

 40
0.0
 41
0.0
 42
0.0
 43
0.0
 44
0.0
 45
0.0
 46
0.0
 47
0.0
 48
0.0
 49
0.0
140
0.0
141
0.0
142
1.0
143
1.0
 70
   688
 72
     0
 73
     0
 74
     5
  7

 75
    16
147
1.0
148
0.0
149
0.0
100
AcDbLayout
  1
Layout1
 70
     1
 71
     1
 10
0.0
 20
0.0
 11
420.0
 21
297.0
 12
0.0
 22
0.0
 32
0.0
 14
1.000000000000000E+20
 24
1.000000000000000E+20
 34
1.000000000000000E+20
 15
-1.000000000000000E+20
 25
-1.000000000000000E+20
 35
-1.000000000000000E+20
146
0.0
 13
0.0
 23
0.0
 33
0.0
 16
1.0
 26
0.0
 36
0.0
 17
0.0
 27
1.0
 37
0.0
 76
     0
330
1B
  0
LAYOUT
  5
26
102
{ACAD_REACTORS
330
1A
102
}
330
1A
100
AcDbPlotSettings
  1

  2

  4

  6

 40
0.0
 41
0.0
 42
0.0
 43
0.0
 44
0.0
 45
0.0
 46
0.0
 47
0.0
 48
0.0
 49
0.0
140
0.0
141
0.0
142
1.0
143
1.0
 70
   688
 72
     0
 73
     0
 74
     5
  7

 75
    16
147
1.0
148
0.0
149
0.0
100
AcDbLayout
  1
Layout2
 70
     1
 71
     2
 10
0.0
 20
0.0
 11
0.0
 21
0.0
 12
0.0
 22
0.0
 32
0.0
 14
0.0
 24
0.0
 34
0.0
 15
0.0
 25
0.0
 35
0.0
146
0.0
 13
0.0
 23
0.0
 33
0.0
 16
1.0
 26
0.0
 36
0.0
 17
0.0
 27
1.0
 37
0.0
 76
     0
330
23
  0
LAYOUT
  5
22
102
{ACAD_REACTORS
330
1A
102
}
330
1A
100
AcDbPlotSettings
  1

  2

  4

  6

 40
0.0
 41
0.0
 42
0.0
 43
0.0
 44
0.0
 45
0.0
 46
0.0
 47
0.0
 48
0.0
 49
0.0
140
0.0
141
0.0
142
1.0
143
1.0
 70
  1712
 72
     0
 73
     0
 74
     0
  7

 75
     0
147
1.0
148
0.0
149
0.0
100
AcDbLayout
  1
Model
 70
     1
 71
     0
 10
0.0
 20
0.0
 11
0.0
 21
0.0
 12
0.0
 22
0.0
 32
0.0
 14
0.0
 24
0.0
 34
0.0
 15
0.0
 25
0.0
 35
0.0
146
0.0
 13
0.0
 23
0.0
 33
0.0
 16
1.0
 26
0.0
 36
0.0
 17
0.0
 27
1.0
 37
0.0
 76
     0
330
1F
  0
MLINESTYLE
  5
18
102
{ACAD_REACTORS
330
17
102
}
330
17
100
AcDbMlineStyle
  2
STANDARD
 70
     0
  3

 62
   256
 51
90.0
 52
90.0
 71
     2
 49
1.0
 62
   256
  6
BYLAYER
 49
-1.0
 62
   256
  6
BYLAYER
  0
ACDBPLACEHOLDER
  5
F
102
{ACAD_REACTORS
330
E
102
}
330
E
  0
ENDSEC
  0
EOF
