  0
SECTION
  2
HEADER
  9
$ACADVER
  1
AC1006
  0
ENDSEC
  0
SECTION
  2
TABLES
  0
TABLE
  2
LTYPE
 70
    25
  0
LTYPE
  2
CONTINUOUS
 70
    64
  3
Solid line
 72
    64
 73
     0
 40
0.000000
  0
LTYPE
  2
DASHDOT
 70
    64
  3
__ . __ . __ . __ . __ . __ . __ . __ . __ . __
 72
    65
 73
     4
 40
1.000000
 49
0.500000
 49
-0.250000
 49
0.000000
 49
-0.250000
  0
LTYPE
  2
DASHED
 70
    64
  3
__ __ __ __ __ __ __ __ __ __ __ __ __ __ __ __
 72
    65
 73
     2
 40
0.750000
 49
0.500000
 49
-0.250000
  0
LTYPE
  2
DIVIDE
 70
    64
  3
____ . . ____ . . ____ . . ____ . . ____ . . __
 72
    65
 73
     6
 40
1.250000
 49
0.500000
 49
-0.250000
 49
0.000000
 49
-0.250000
 49
0.000000
 49
-0.250000
  0
LTYPE
  2
DOT
 70
    64
  3
. . . . . . . . . . . . . . . . . . . . . . . . 
 72
    65
 73
     2
 40
0.250000
 49
0.000000
 49
-0.250000
  0
ENDTAB
  0
ENDSEC
  0
SECTION
  2
ENTITIES
  0
LINE
  8
Default
 62
     5
  6
CONTINUOUS
 10
13.277005
 20
17.797889
 30
0.000000
 11
12.935240
 21
18.038963
 31
0.000000
  0
ARC
  8
Default
 62
     5
  6
CONTINUOUS
 10
12.909301
 20
18.002191
 30
0.000000
 40
0.045000
 50
54.801646
 51
56.980010
  0
ARC
  8
Default
 62
     5
  6
CONTINUOUS
 10
11.346124
 20
15.596947
 30
0.000000
 40
2.913575
 50
56.980010
 51
72.384467
  0
ARC
  8
Default
 62
     5
  6
CONTINUOUS
 10
10.192020
 20
11.962168
 30
0.000000
 40
6.727179
 50
72.384467
 51
80.554863
  0
ARC
  8
Default
 62
     5
  6
CONTINUOUS
 10
11.059410
 20
17.176150
 30
0.000000
 40
1.441541
 50
80.554863
 51
113.831633
  0
ARC
  8
Default
 62
     5
  6
CONTINUOUS
 10
10.495137
 20
18.453617
 30
0.000000
 40
0.045000
 50
113.831633
 51
116.214923
  0
ARC
  8
Default
 62
     5
  6
CONTINUOUS
 10
7.963887
 20
23.594415
 30
0.000000
 40
5.685187
 50
288.179883
 51
296.214923
  0
ARC
  8
Default
 62
     5
  6
CONTINUOUS
 10
9.751713
 20
18.150270
 30
0.000000
 40
0.045000
 50
108.179883
 51
109.556217
  0
ARC
  8
Default
 62
     5
  6
CONTINUOUS
 10
8.330400
 20
22.151453
 30
0.000000
 40
4.201127
 50
270.096320
 51
289.556217
  0
ARC
  8
Default
 62
     5
  6
CONTINUOUS
 10
7.330642
 20
17.394132
 30
0.000000
 40
1.150237
 50
28.917697
 51
43.801294
  0
ARC
  8
Default
 62
     5
  6
CONTINUOUS
 10
7.768403
 20
17.849894
 30
0.000000
 40
0.519474
 50
40.938619
 51
76.621479
  0
ARC
  8
Default
 62
     5
  6
CONTINUOUS
 10
7.590243
 20
17.505678
 30
0.000000
 40
0.900459
 50
70.649926
 51
99.169428
  0
ARC
  8
Default
 62
     5
  6
CONTINUOUS
 10
7.639453
 20
16.778871
 30
0.000000
 40
1.627209
 50
96.801202
 51
111.219199
  0
ARC
  8
Default
 62
     5
  6
CONTINUOUS
 10
7.066793
 20
18.253810
 30
0.000000
 40
0.045000
 50
111.219199
 51
112.257584
  0
LINE
  8
Default
 62
     5
  6
CONTINUOUS
 10
7.049748
 20
18.295458
 30
0.000000
 11
6.908014
 21
18.237450
 31
0.000000
  0
ARC
  8
Default
 62
     5
  6
CONTINUOUS
 10
6.925058
 20
18.195803
 30
0.000000
 40
0.045000
 50
112.257584
 51
132.520494
  0
ARC
  8
Default
 62
     5
  6
CONTINUOUS
 10
6.801125
 20
18.330955
 30
0.000000
 40
0.138373
 50
252.208525
 51
312.520494
  0
ARC
  8
Default
 62
     5
  6
CONTINUOUS
 10
6.745095
 20
18.156353
 30
0.000000
 40
0.045000
 50
72.208525
 51
75.285852
  0
ARC
  8
Default
 62
     5
  6
CONTINUOUS
 10
6.855025
 20
18.574958
 30
0.000000
 40
0.387799
 50
218.448949
 51
255.285852
  0
ARC
  8
Default
 62
     5
  6
CONTINUOUS
 10
6.516072
 20
18.305836
 30
0.000000
 40
0.045000
 50
38.448949
 51
41.299706
  0
ARC
  8
Default
 62
     5
  6
CONTINUOUS
 10
4.794480
 20
16.793396
 30
0.000000
 40
2.336584
 50
41.299706
 51
50.297448
  0
ARC
  8
Default
 62
     5
  6
CONTINUOUS
 10
6.258348
 20
18.556474
 30
0.000000
 40
0.045000
 50
50.297448
 51
55.186539
  0
LINE
  8
Default
 62
     5
  6
CONTINUOUS
 10
6.284039
 20
18.593420
 30
0.000000
 11
6.005582
 21
18.787050
 31
0.000000
  0
ARC
  8
Default
 62
     5
  6
CONTINUOUS
 10
5.979891
 20
18.750105
 30
0.000000
 40
0.045000
 50
55.186539
 51
59.764783
  0
LINE
  8
Default
 62
     5
  6
CONTINUOUS
 10
6.002551
 20
18.788983
 30
0.000000
 11
5.727085
 21
18.949534
 31
0.000000
  0
ARC
  8
Default
 62
     5
  6
CONTINUOUS
 10
5.704425
 20
18.910656
 30
0.000000
 40
0.045000
 50
59.764783
 51
64.393849
  0
LINE
  8
Default
 62
     5
  6
CONTINUOUS
 10
5.723874
 20
18.951236
 30
0.000000
 11
5.400994
 21
19.105977
 31
0.000000
  0
ARC
  8
Default
 62
     5
  6
CONTINUOUS
 10
5.381546
 20
19.065397
 30
0.000000
 40
0.045000
 50
64.393849
 51
67.370012
  0
LINE
  8
Default
 62
     5
  6
CONTINUOUS
 10
5.398861
 20
19.106932
 30
0.000000
 11
5.073472
 21
19.242578
 31
0.000000
  0
ARC
  8
Default
 62
     5
  6
CONTINUOUS
 10
5.056157
 20
19.201043
 30
0.000000
 40
0.045000
 50
67.370012
 51
78.779380
  0
LINE
  8
Default
 62
     5
  6
CONTINUOUS
 10
5.064913
 20
19.245183
 30
0.000000
 11
4.968896
 21
19.264231
 31
0.000000
  0
ARC
  8
Default
 62
     5
  6
CONTINUOUS
 10
4.960139
 20
19.220091
 30
0.000000
 40
0.045000
 50
78.779380
 51
105.345567
  0
ARC
  8
Default
 62
     5
  6
CONTINUOUS
 10
4.983676
 20
19.134322
 30
0.000000
 40
0.133940
 50
105.345567
 51
161.634707
  0
ARC
  8
Default
 62
     5
  6
CONTINUOUS
 10
4.899266
 20
19.162344
 30
0.000000
 40
0.045000
 50
161.634707
 51
164.325127
  0
ARC
  8
Default
 62
     5
  6
CONTINUOUS
 10
5.430908
 20
19.013158
 30
0.000000
 40
0.597177
 50
164.325127
 51
189.042682
  0
ARC
  8
Default
 62
     5
  6
CONTINUOUS
 10
7.632061
 20
19.137886
 30
0.000000
 40
2.799455
 50
184.478311
 51
193.760509
  0
LINE
  8
Default
 62
     5
  6
CONTINUOUS
 10
4.954096
 20
18.288867
 30
0.000000
 11
4.912955
 21
18.471996
 31
0.000000
  0
LINE
  8
Default
 62
     5
  6
CONTINUOUS
 10
4.954096
 20
18.288867
 30
0.000000
 11
4.937746
 21
18.283576
 31
0.000000
  0
LINE
  8
Default
 62
     5
  6
CONTINUOUS
 10
4.937746
 20
18.283576
 30
0.000000
 11
4.849669
 21
18.263111
 31
0.000000
  0
ARC
  8
Default
 62
     5
  6
CONTINUOUS
 10
4.859853
 20
18.219279
 30
0.000000
 40
0.045000
 50
103.080477
 51
110.572386
  0
ARC
  8
Default
 62
     5
  6
CONTINUOUS
 10
5.776228
 20
15.777731
 30
0.000000
 40
2.652854
 50
110.572386
 51
126.743600
  0
LINE
  8
Default
 62
     5
  6
CONTINUOUS
 10
4.189198
 20
17.903517
 30
0.000000
 11
3.554129
 21
17.503425
 31
0.000000
  0
ARC
  8
Default
 62
     5
  6
CONTINUOUS
 10
4.428601
 20
15.995631
 30
0.000000
 40
1.743027
 50
120.112368
 51
143.864881
  0
ARC
  8
Default
 62
     5
  6
CONTINUOUS
 10
3.057226
 20
16.996943
 30
0.000000
 40
0.045000
 50
143.864881
 51
145.120913
  0
ARC
  8
Default
 62
     5
  6
CONTINUOUS
 10
1.093380
 20
18.365876
 30
0.000000
 40
2.348882
 50
317.696637
 51
325.120913
  0
ARC
  8
Default
 62
     5
  6
CONTINUOUS
 10
2.399399
 20
17.254174
 30
0.000000
 40
0.637261
 50
281.458034
 51
312.581364
  0
ARC
  8
Default
 62
     5
  6
CONTINUOUS
 10
1.975035
 20
19.347839
 30
0.000000
 40
2.773500
 50
272.830298
 51
281.458034
  0
ARC
  8
Default
 62
     5
  6
CONTINUOUS
 10
1.998977
 20
14.763859
 30
0.000000
 40
1.817379
 50
86.434967
 51
100.413454
  0
LINE
  8
Default
 62
     5
  6
CONTINUOUS
 10
1.670486
 20
16.551304
 30
0.000000
 11
1.169752
 21
16.481155
 31
0.000000
  0
LINE
  8
Default
 62
     5
  6
CONTINUOUS
 10
1.169752
 20
16.481155
 30
0.000000
 11
0.873730
 21
16.455166
 31
0.000000
  0
ARC
  8
Default
 62
     5
  6
CONTINUOUS
 10
0.887681
 20
15.755614
 30
0.000000
 40
0.699691
 50
91.142455
 51
113.991807
  0
ARC
  8
Default
 62
     5
  6
CONTINUOUS
 10
0.769187
 20
15.921432
 30
0.000000
 40
0.501683
 50
109.323088
 51
151.418277
  0
ARC
  8
Default
 62
     5
  6
CONTINUOUS
 10
1.059624
 20
15.734292
 30
0.000000
 40
0.846637
 50
149.700054
 51
182.225453
  0
ARC
  8
Default
 62
     5
  6
CONTINUOUS
 10
0.258591
 20
15.703163
 30
0.000000
 40
0.045000
 50
182.225453
 51
183.681930
  0
ARC
  8
Default
 62
     5
  6
CONTINUOUS
 10
2.005721
 20
15.815591
 30
0.000000
 40
1.795743
 50
183.681930
 51
198.622537
  0
ARC
  8
Default
 62
     5
  6
CONTINUOUS
 10
0.886242
 20
15.438355
 30
0.000000
 40
0.614413
 50
198.622537
 51
225.647674
  0
ARC
  8
Default
 62
     5
  6
CONTINUOUS
 10
0.488183
 20
15.031194
 30
0.000000
 40
0.045000
 50
225.647674
 51
233.816073
  0
LINE
  8
Default
 62
     5
  6
CONTINUOUS
 10
0.461616
 20
14.994873
 30
0.000000
 11
0.636147
 21
14.867211
 31
0.000000
  0
LINE
  8
Default
 62
     5
  6
CONTINUOUS
 10
0.636147
 20
14.867211
 30
0.000000
 11
0.781811
 21
14.739434
 31
0.000000
  0
ARC
  8
Default
 62
     5
  6
CONTINUOUS
 10
0.611309
 20
14.580851
 30
0.000000
 40
0.232850
 50
29.792125
 51
42.925835
  0
LINE
  8
Default
 62
     5
  6
CONTINUOUS
 10
0.813385
 20
14.696544
 30
0.000000
 11
0.783164
 21
14.641236
 31
0.000000
  0
LINE
  8
Default
 62
     5
  6
CONTINUOUS
 10
0.783164
 20
14.641236
 30
0.000000
 11
0.692792
 21
14.494115
 31
0.000000
  0
ARC
  8
Default
 62
     5
  6
CONTINUOUS
 10
0.731135
 20
14.470562
 30
0.000000
 40
0.045000
 50
148.438839
 51
167.231966
  0
ARC
  8
Default
 62
     5
  6
CONTINUOUS
 10
1.325870
 20
14.335790
 30
0.000000
 40
0.654813
 50
167.231966
 51
191.606145
  0
ARC
  8
Default
 62
     5
  6
CONTINUOUS
 10
1.188909
 20
14.248463
 30
0.000000
 40
0.506415
 50
185.030959
 51
229.634286
  0
ARC
  8
Default
 62
     5
  6
CONTINUOUS
 10
0.890067
 20
13.896899
 30
0.000000
 40
0.045000
 50
229.634286
 51
231.226367
  0
ARC
  8
Default
 62
     5
  6
CONTINUOUS
 10
1.470509
 20
14.619503
 30
0.000000
 40
0.971860
 50
231.226367
 51
253.768769
  0
LINE
  8
Default
 62
     5
  6
CONTINUOUS
 10
1.198860
 20
13.686380
 30
0.000000
 11
1.392992
 21
13.622046
 31
0.000000
  0
ARC
  8
Default
 62
     5
  6
CONTINUOUS
 10
1.407148
 20
13.664762
 30
0.000000
 40
0.045000
 50
251.665350
 51
260.938145
  0
ARC
  8
Default
 62
     5
  6
CONTINUOUS
 10
1.333388
 20
13.202293
 30
0.000000
 40
0.423314
 50
58.096766
 51
80.938145
  0
ARC
  8
Default
 62
     5
  6
CONTINUOUS
 10
1.580886
 20
13.599864
 30
0.000000
 40
0.045000
 50
238.096766
 51
245.530337
  0
ARC
  8
Default
 62
     5
  6
CONTINUOUS
 10
1.250747
 20
12.874423
 30
0.000000
 40
0.752030
 50
42.662469
 51
65.530337
  0
ARC
  8
Default
 62
     5
  6
CONTINUOUS
 10
3.332992
 20
14.722467
 30
0.000000
 40
2.032214
 50
221.192941
 51
239.998551
  0
ARC
  8
Default
 62
     5
  6
CONTINUOUS
 10
4.195133
 20
16.002234
 30
0.000000
 40
3.573192
 50
238.287151
 51
248.338519
  0
LINE
  8
Default
 62
     5
  6
CONTINUOUS
 10
2.876189
 20
12.681377
 30
0.000000
 11
3.426289
 21
12.462894
 31
0.000000
  0
ARC
  8
Default
 62
     5
  6
CONTINUOUS
 10
3.442899
 20
12.504717
 30
0.000000
 40
0.045000
 50
248.338519
 51
249.941063
  0
LINE
  8
Default
 62
     5
  6
CONTINUOUS
 10
3.427465
 20
12.462446
 30
0.000000
 11
3.937138
 21
12.276346
 31
0.000000
  0
ARC
  8
Default
 62
     5
  6
CONTINUOUS
 10
4.673848
 20
13.791751
 30
0.000000
 40
1.684991
 50
244.073423
 51
269.292258
  0
ARC
  8
Default
 62
     5
  6
CONTINUOUS
 10
4.653591
 20
12.151886
 30
0.000000
 40
0.045000
 50
269.292258
 51
270.519367
  0
ARC
  8
Default
 62
     5
  6
CONTINUOUS
 10
4.681193
 20
9.106877
 30
0.000000
 40
3.000134
 50
78.065862
 51
90.519367
  0
ARC
  8
Default
 62
     5
  6
CONTINUOUS
 10
4.766755
 20
10.252515
 30
0.000000
 40
1.867857
 50
53.840288
 51
73.361515
  0
ARC
  8
Default
 62
     5
  6
CONTINUOUS
 10
3.443337
 20
8.441622
 30
0.000000
 40
4.110795
 50
45.189934
 51
53.840288
  0
ARC
  8
Default
 62
     5
  6
CONTINUOUS
 10
6.372170
 20
11.389938
 30
0.000000
 40
0.045000
 50
225.189934
 51
226.947005
  0
ARC
  8
Default
 62
     5
  6
CONTINUOUS
 10
3.528837
 20
8.346485
 30
0.000000
 40
4.119991
 50
29.815937
 51
46.947005
  0
ARC
  8
Default
 62
     5
  6
CONTINUOUS
 10
5.663627
 20
9.668137
 30
0.000000
 40
1.612898
 50
12.413478
 51
26.786141
  0
LINE
  8
Default
 62
     5
  6
CONTINUOUS
 10
7.238818
 20
10.014853
 30
0.000000
 11
7.283608
 21
9.600243
 31
0.000000
  0
LINE
  8
Default
 62
     5
  6
CONTINUOUS
 10
7.283608
 20
9.600243
 30
0.000000
 11
7.315785
 21
9.211027
 31
0.000000
  0
ARC
  8
Default
 62
     5
  6
CONTINUOUS
 10
7.360632
 20
9.214735
 30
0.000000
 40
0.045000
 50
184.725953
 51
190.281832
  0
LINE
  8
Default
 62
     5
  6
CONTINUOUS
 10
7.316355
 20
9.206703
 30
0.000000
 11
7.393691
 21
8.780381
 31
0.000000
  0
ARC
  8
Default
 62
     5
  6
CONTINUOUS
 10
7.437968
 20
8.788413
 30
0.000000
 40
0.045000
 50
190.281832
 51
191.827421
  0
ARC
  8
Default
 62
     5
  6
CONTINUOUS
 10
22.672964
 20
11.978780
 30
0.000000
 40
15.610459
 50
191.827421
 51
197.334048
  0
LINE
  8
Default
 62
     5
  6
CONTINUOUS
 10
7.771470
 20
7.327765
 30
0.000000
 11
8.033036
 21
6.489730
 31
0.000000
  0
ARC
  8
Default
 62
     5
  6
CONTINUOUS
 10
8.075992
 20
6.503137
 30
0.000000
 40
0.045000
 50
197.334048
 51
201.558222
  0
ARC
  8
Default
 62
     5
  6
CONTINUOUS
 10
6.016252
 20
5.689365
 30
0.000000
 40
2.169668
 50
0.888154
 51
21.558222
  0
ARC
  8
Default
 62
     5
  6
CONTINUOUS
 10
6.535022
 20
5.748268
 30
0.000000
 40
1.650831
 50
344.088071
 51
359.122859
  0
ARC
  8
Default
 62
     5
  6
CONTINUOUS
 10
8.165876
 20
5.283340
 30
0.000000
 40
0.045000
 50
164.088071
 51
168.178134
  0
LINE
  8
Default
 62
     5
  6
CONTINUOUS
 10
8.121830
 20
5.292559
 30
0.000000
 11
8.031947
 21
4.863129
 31
0.000000
  0
ARC
  8
Default
 62
     5
  6
CONTINUOUS
 10
8.075992
 20
4.853910
 30
0.000000
 40
0.045000
 50
168.178134
 51
170.031476
  0
ARC
  8
Default
 62
     5
  6
CONTINUOUS
 10
10.594035
 20
4.411337
 30
0.000000
 40
2.601641
 50
170.031476
 51
179.323223
  0
LINE
  8
Default
 62
     5
  6
CONTINUOUS
 10
7.992576
 20
4.442067
 30
0.000000
 11
7.985882
 21
3.875422
 31
0.000000
  0
ARC
  8
Default
 62
     5
  6
CONTINUOUS
 10
8.030879
 20
3.874890
 30
0.000000
 40
0.045000
 50
179.323223
 51
181.306597
  0
LINE
  8
Default
 62
     5
  6
CONTINUOUS
 10
7.985891
 20
3.873864
 30
0.000000
 11
7.998779
 21
3.308800
 31
0.000000
  0
LINE
  8
Default
 62
     5
  6
CONTINUOUS
 10
7.998779
 20
3.308800
 30
0.000000
 11
8.011651
 21
2.680781
 31
0.000000
  0
ARC
  8
Default
 62
     5
  6
CONTINUOUS
 10
6.272112
 20
2.706760
 30
0.000000
 40
1.739733
 50
343.072336
 51
359.144387
  0
ARC
  8
Default
 62
     5
  6
CONTINUOUS
 10
7.461812
 20
2.360166
 30
0.000000
 40
0.500883
 50
319.232477
 51
341.376697
  0
LINE
  8
Default
 62
     5
  6
CONTINUOUS
 10
7.841163
 20
2.033094
 30
0.000000
 11
7.782686
 21
1.988792
 31
0.000000
  0
ARC
  8
Default
 62
     5
  6
CONTINUOUS
 10
7.709414
 20
2.259651
 30
0.000000
 40
0.280595
 50
262.988209
 51
285.137232
  0
ARC
  8
Default
 62
     5
  6
CONTINUOUS
 10
7.669667
 20
1.936491
 30
0.000000
 40
0.045000
 50
82.988209
 51
92.776438
  0
ARC
  8
Default
 62
     5
  6
CONTINUOUS
 10
7.860797
 20
-2.004665
 30
0.000000
 40
3.990788
 50
92.776438
 51
103.883237
  0
ARC
  8
Default
 62
     5
  6
CONTINUOUS
 10
6.914029
 20
1.825854
 30
0.000000
 40
0.045000
 50
103.883237
 51
105.185329
  0
LINE
  8
Default
 62
     5
  6
CONTINUOUS
 10
6.902241
 20
1.869282
 30
0.000000
 11
6.511137
 21
1.763129
 31
0.000000
  0
ARC
  8
Default
 62
     5
  6
CONTINUOUS
 10
6.792237
 20
0.727464
 30
0.000000
 40
1.073135
 50
105.185329
 51
127.819512
  0
ARC
  8
Default
 62
     5
  6
CONTINUOUS
 10
6.161809
 20
1.539636
 30
0.000000
 40
0.045000
 50
127.819512
 51
129.345324
  0
ARC
  8
Default
 62
     5
  6
CONTINUOUS
 10
6.714184
 20
0.865853
 30
0.000000
 40
0.916264
 50
129.345324
 51
174.871924
  0
LINE
  8
Default
 62
     5
  6
CONTINUOUS
 10
5.801587
 20
0.947751
 30
0.000000
 11
5.789125
 21
0.894719
 31
0.000000
  0
ARC
  8
Default
 62
     5
  6
CONTINUOUS
 10
5.832932
 20
0.884425
 30
0.000000
 40
0.045000
 50
166.775745
 51
180.239282
  0
LINE
  8
Default
 62
     5
  6
CONTINUOUS
 10
5.787932
 20
0.884237
 30
0.000000
 11
5.788245
 21
0.809267
 31
0.000000
  0
ARC
  8
Default
 62
     5
  6
CONTINUOUS
 10
5.884546
 20
0.809670
 30
0.000000
 40
0.096302
 50
180.239282
 51
289.202841
  0
ARC
  8
Default
 62
     5
  6
CONTINUOUS
 10
5.855139
 20
1.099901
 30
0.000000
 40
0.386038
 50
279.104050
 51
301.025894
  0
ARC
  8
Default
 62
     5
  6
CONTINUOUS
 10
6.090780
 20
0.795178
 30
0.000000
 40
0.045000
 50
215.429401
 51
235.648423
  0
LINE
  8
Default
 62
     5
  6
CONTINUOUS
 10
6.065388
 20
0.758027
 30
0.000000
 11
6.103802
 21
0.731772
 31
0.000000
  0
ARC
  8
Default
 62
     5
  6
CONTINUOUS
 10
6.129194
 20
0.768923
 30
0.000000
 40
0.045000
 50
235.648423
 51
257.732283
  0
ARC
  8
Default
 62
     5
  6
CONTINUOUS
 10
6.189354
 20
1.045591
 30
0.000000
 40
0.328133
 50
257.732283
 51
282.267717
  0
ARC
  8
Default
 62
     5
  6
CONTINUOUS
 10
6.249514
 20
0.768923
 30
0.000000
 40
0.045000
 50
282.267717
 51
284.218657
  0
ARC
  8
Default
 62
     5
  6
CONTINUOUS
 10
5.911961
 20
2.101097
 30
0.000000
 40
1.419274
 50
284.218657
 51
292.003701
  0
ARC
  8
Default
 62
     5
  6
CONTINUOUS
 10
6.426855
 20
0.826926
 30
0.000000
 40
0.045000
 50
292.003701
 51
295.230141
  0
LINE
  8
Default
 62
     5
  6
CONTINUOUS
 10
6.446037
 20
0.786219
 30
0.000000
 11
6.527538
 21
0.824622
 31
0.000000
  0
LINE
  8
Default
 62
     5
  6
CONTINUOUS
 10
6.527538
 20
0.824622
 30
0.000000
 11
6.532175
 21
0.788775
 31
0.000000
  0
ARC
  8
Default
 62
     5
  6
CONTINUOUS
 10
6.576803
 20
0.794547
 30
0.000000
 40
0.045000
 50
187.370379
 51
200.345335
  0
LINE
  8
Default
 62
     5
  6
CONTINUOUS
 10
6.534610
 20
0.778902
 30
0.000000
 11
6.548268
 21
0.742070
 31
0.000000
  0
ARC
  8
Default
 62
     5
  6
CONTINUOUS
 10
6.629573
 20
0.745809
 30
0.000000
 40
0.081391
 50
182.632660
 51
244.182355
  0
LINE
  8
Default
 62
     5
  6
CONTINUOUS
 10
6.594127
 20
0.672541
 30
0.000000
 11
6.618906
 21
0.650898
 31
0.000000
  0
ARC
  8
Default
 62
     5
  6
CONTINUOUS
 10
6.648509
 20
0.684790
 30
0.000000
 40
0.045000
 50
228.864714
 51
270.293746
  0
LINE
  8
Default
 62
     5
  6
CONTINUOUS
 10
6.648740
 20
0.639791
 30
0.000000
 11
6.717468
 21
0.640143
 31
0.000000
  0
ARC
  8
Default
 62
     5
  6
CONTINUOUS
 10
6.717237
 20
0.685142
 30
0.000000
 40
0.045000
 50
270.293746
 51
274.368491
  0
ARC
  8
Default
 62
     5
  6
CONTINUOUS
 10
6.703734
 20
0.861895
 30
0.000000
 40
0.222268
 50
274.368491
 51
303.496479
  0
LINE
  8
Default
 62
     5
  6
CONTINUOUS
 10
6.826401
 20
0.676542
 30
0.000000
 11
7.019088
 21
0.738005
 31
0.000000
  0
ARC
  8
Default
 62
     5
  6
CONTINUOUS
 10
7.318319
 20
-0.991950
 30
0.000000
 40
1.755644
 50
85.501741
 51
99.813357
  0
LINE
  8
Default
 62
     5
  6
CONTINUOUS
 10
7.456012
 20
0.758286
 30
0.000000
 11
7.777675
 21
0.732980
 31
0.000000
  0
ARC
  8
Default
 62
     5
  6
CONTINUOUS
 10
8.573573
 20
10.849763
 30
0.000000
 40
10.148041
 50
265.501741
 51
271.365250
  0
ARC
  8
Default
 62
     5
  6
CONTINUOUS
 10
8.814287
 20
0.749589
 30
0.000000
 40
0.045000
 50
271.365250
 51
276.969012
  0
ARC
  8
Default
 62
     5
  6
CONTINUOUS
 10
8.732278
 20
1.420493
 30
0.000000
 40
0.720897
 50
276.969012
 51
303.831490
  0
ARC
  8
Default
 62
     5
  6
CONTINUOUS
 10
9.108586
 20
0.859040
 30
0.000000
 40
0.045000
 50
303.831490
 51
305.609855
  0
ARC
  8
Default
 62
     5
  6
CONTINUOUS
 10
8.382542
 20
1.872798
 30
0.000000
 40
1.291934
 50
305.609855
 51
319.627373
  0
ARC
  8
Default
 62
     5
  6
CONTINUOUS
 10
9.332516
 20
1.065089
 30
0.000000
 40
0.045000
 50
319.627373
 51
323.384965
  0
LINE
  8
Default
 62
     5
  6
CONTINUOUS
 10
9.368636
 20
1.038249
 30
0.000000
 11
9.594850
 21
1.342679
 31
0.000000
  0
ARC
  8
Default
 62
     5
  6
CONTINUOUS
 10
9.558730
 20
1.369518
 30
0.000000
 40
0.045000
 50
323.384965
 51
332.995990
  0
LINE
  8
Default
 62
     5
  6
CONTINUOUS
 10
9.598824
 20
1.349086
 30
0.000000
 11
9.779188
 21
1.703009
 31
0.000000
  0
ARC
  8
Default
 62
     5
  6
CONTINUOUS
 10
9.739094
 20
1.723441
 30
0.000000
 40
0.045000
 50
332.995990
 51
344.917511
  0
ARC
  8
Default
 62
     5
  6
CONTINUOUS
 10
10.921165
 20
1.404882
 30
0.000000
 40
1.179243
 50
127.776282
 51
164.917511
  0
ARC
  8
Default
 62
     5
  6
CONTINUOUS
 10
11.588741
 20
0.543511
 30
0.000000
 40
2.269022
 50
117.699499
 51
127.776282
  0
LINE
  8
Default
 62
     5
  6
CONTINUOUS
 10
10.534022
 20
2.552498
 30
0.000000
 11
10.741650
 21
2.653990
 31
0.000000
  0
ARC
  8
Default
 62
     5
  6
CONTINUOUS
 10
10.609408
 20
3.051286
 30
0.000000
 40
0.418727
 50
288.410275
 51
324.975935
  0
ARC
  8
Default
 62
     5
  6
CONTINUOUS
 10
9.460009
 20
3.856824
 30
0.000000
 40
1.822297
 50
324.975935
 51
337.158116
  0
LINE
  8
Default
 62
     5
  6
CONTINUOUS
 10
11.139400
 20
3.149428
 30
0.000000
 11
11.317144
 21
3.513792
 31
0.000000
  0
ARC
  8
Default
 62
     5
  6
CONTINUOUS
 10
11.276700
 20
3.533522
 30
0.000000
 40
0.045000
 50
333.995994
 51
336.320804
  0
ARC
  8
Default
 62
     5
  6
CONTINUOUS
 10
-1.117554
 20
8.968852
 30
0.000000
 40
13.578674
 50
336.320804
 51
342.483906
  0
ARC
  8
Default
 62
     5
  6
CONTINUOUS
 10
11.788597
 20
4.895572
 30
0.000000
 40
0.045000
 50
342.483906
 51
346.744817
  0
LINE
  8
Default
 62
     5
  6
CONTINUOUS
 10
11.832398
 20
4.885255
 30
0.000000
 11
11.992326
 21
5.564168
 31
0.000000
  0
LINE
  8
Default
 62
     5
  6
CONTINUOUS
 10
11.992326
 20
5.564168
 30
0.000000
 11
12.088543
 21
5.882913
 31
0.000000
  0
LINE
  8
Default
 62
     5
  6
CONTINUOUS
 10
12.088543
 20
5.882913
 30
0.000000
 11
12.145987
 21
6.034155
 31
0.000000
  0
ARC
  8
Default
 62
     5
  6
CONTINUOUS
 10
12.103919
 20
6.050133
 30
0.000000
 40
0.045000
 50
339.202458
 51
342.849559
  0
ARC
  8
Default
 62
     5
  6
CONTINUOUS
 10
12.732173
 20
5.856251
 30
0.000000
 40
0.612490
 50
150.257836
 51
162.849559
  0
LINE
  8
Default
 62
     5
  6
CONTINUOUS
 10
12.200368
 20
6.160106
 30
0.000000
 11
12.204814
 21
6.151731
 31
0.000000
  0
LINE
  8
Default
 62
     5
  6
CONTINUOUS
 10
12.204814
 20
6.151731
 30
0.000000
 11
12.247724
 21
6.044293
 31
0.000000
  0
LINE
  8
Default
 62
     5
  6
CONTINUOUS
 10
12.247724
 20
6.044293
 30
0.000000
 11
12.311283
 21
5.765866
 31
0.000000
  0
LINE
  8
Default
 62
     5
  6
CONTINUOUS
 10
12.311283
 20
5.765866
 30
0.000000
 11
12.452491
 21
5.079560
 31
0.000000
  0
ARC
  8
Default
 62
     5
  6
CONTINUOUS
 10
12.496568
 20
5.088629
 30
0.000000
 40
0.045000
 50
191.626462
 51
192.696571
  0
LINE
  8
Default
 62
     5
  6
CONTINUOUS
 10
12.452668
 20
5.078739
 30
0.000000
 11
12.762471
 21
3.703652
 31
0.000000
  0
LINE
  8
Default
 62
     5
  6
CONTINUOUS
 10
12.762471
 20
3.703652
 30
0.000000
 11
12.846233
 21
3.325079
 31
0.000000
  0
ARC
  8
Default
 62
     5
  6
CONTINUOUS
 10
12.890170
 20
3.334801
 30
0.000000
 40
0.045000
 50
192.476125
 51
199.130112
  0
ARC
  8
Default
 62
     5
  6
CONTINUOUS
 10
12.326593
 20
3.139313
 30
0.000000
 40
0.551520
 50
357.727851
 51
379.130112
  0
LINE
  8
Default
 62
     5
  6
CONTINUOUS
 10
12.877679
 20
3.117447
 30
0.000000
 11
12.864618
 21
2.913350
 31
0.000000
  0
ARC
  8
Default
 62
     5
  6
CONTINUOUS
 10
34.614983
 20
1.191635
 30
0.000000
 40
21.818403
 50
175.474018
 51
178.270250
  0
ARC
  8
Default
 62
     5
  6
CONTINUOUS
 10
12.851502
 20
1.848870
 30
0.000000
 40
0.045000
 50
178.270250
 51
192.517759
  0
ARC
  8
Default
 62
     5
  6
CONTINUOUS
 10
12.548209
 20
1.781533
 30
0.000000
 40
0.265678
 50
338.948201
 51
372.517759
  0
ARC
  8
Default
 62
     5
  6
CONTINUOUS
 10
12.838152
 20
1.669934
 30
0.000000
 40
0.045000
 50
158.948201
 51
165.773943
  0
ARC
  8
Default
 62
     5
  6
CONTINUOUS
 10
12.602147
 20
1.729766
 30
0.000000
 40
0.198470
 50
312.774653
 51
345.773943
  0
ARC
  8
Default
 62
     5
  6
CONTINUOUS
 10
12.767492
 20
1.551052
 30
0.000000
 40
0.045000
 50
132.774653
 51
137.154809
  0
ARC
  8
Default
 62
     5
  6
CONTINUOUS
 10
12.360326
 20
1.928689
 30
0.000000
 40
0.510332
 50
283.011419
 51
317.154809
  0
ARC
  8
Default
 62
     5
  6
CONTINUOUS
 10
12.485357
 20
1.387614
 30
0.000000
 40
0.045000
 50
103.011419
 51
106.120315
  0
ARC
  8
Default
 62
     5
  6
CONTINUOUS
 10
11.857341
 20
3.560534
 30
0.000000
 40
2.216854
 50
266.131614
 51
286.120315
  0
ARC
  8
Default
 62
     5
  6
CONTINUOUS
 10
11.704745
 20
1.303833
 30
0.000000
 40
0.045000
 50
86.131614
 51
88.830566
  0
ARC
  8
Default
 62
     5
  6
CONTINUOUS
 10
11.689817
 20
0.572548
 30
0.000000
 40
0.776438
 50
88.830566
 51
121.740511
  0
ARC
  8
Default
 62
     5
  6
CONTINUOUS
 10
11.733560
 20
0.387331
 30
0.000000
 40
0.958859
 50
118.138747
 51
130.902587
  0
ARC
  8
Default
 62
     5
  6
CONTINUOUS
 10
11.135188
 20
1.078048
 30
0.000000
 40
0.045000
 50
130.902587
 51
133.939036
  0
LINE
  8
Default
 62
     5
  6
CONTINUOUS
 10
11.103963
 20
1.110451
 30
0.000000
 11
10.977238
 21
0.988334
 31
0.000000
  0
ARC
  8
Default
 62
     5
  6
CONTINUOUS
 10
11.008463
 20
0.955931
 30
0.000000
 40
0.045000
 50
133.939036
 51
142.152384
  0
LINE
  8
Default
 62
     5
  6
CONTINUOUS
 10
10.972929
 20
0.983541
 30
0.000000
 11
10.792748
 21
0.751652
 31
0.000000
  0
ARC
  8
Default
 62
     5
  6
CONTINUOUS
 10
10.828283
 20
0.724042
 30
0.000000
 40
0.045000
 50
142.152384
 51
150.617992
  0
ARC
  8
Default
 62
     5
  6
CONTINUOUS
 10
11.309587
 20
0.453040
 30
0.000000
 40
0.597355
 50
150.617992
 51
171.412070
  0
ARC
  8
Default
 62
     5
  6
CONTINUOUS
 10
10.763425
 20
0.535521
 30
0.000000
 40
0.045000
 50
171.412070
 51
179.644953
  0
LINE
  8
Default
 62
     5
  6
CONTINUOUS
 10
10.718426
 20
0.535800
 30
0.000000
 11
10.717969
 21
0.462086
 31
0.000000
  0
ARC
  8
Default
 62
     5
  6
CONTINUOUS
 10
10.762968
 20
0.461808
 30
0.000000
 40
0.045000
 50
179.644953
 51
217.338693
  0
LINE
  8
Default
 62
     5
  6
CONTINUOUS
 10
10.727190
 20
0.434514
 30
0.000000
 11
10.753221
 21
0.400391
 31
0.000000
  0
ARC
  8
Default
 62
     5
  6
CONTINUOUS
 10
10.788999
 20
0.427685
 30
0.000000
 40
0.045000
 50
217.338693
 51
232.098813
  0
LINE
  8
Default
 62
     5
  6
CONTINUOUS
 10
10.761356
 20
0.392177
 30
0.000000
 11
10.825748
 21
0.342046
 31
0.000000
  0
ARC
  8
Default
 62
     5
  6
CONTINUOUS
 10
10.853391
 20
0.377555
 30
0.000000
 40
0.045000
 50
232.098813
 51
234.691431
  0
LINE
  8
Default
 62
     5
  6
CONTINUOUS
 10
10.827382
 20
0.340832
 30
0.000000
 11
10.975468
 21
0.235948
 31
0.000000
  0
ARC
  8
Default
 62
     5
  6
CONTINUOUS
 10
11.001477
 20
0.272671
 30
0.000000
 40
0.045000
 50
234.691431
 51
263.428030
  0
ARC
  8
Default
 62
     5
  6
CONTINUOUS
 10
11.029780
 20
0.518334
 30
0.000000
 40
0.292288
 50
263.428030
 51
302.793747
  0
LINE
  8
Default
 62
     5
  6
CONTINUOUS
 10
11.188088
 20
0.272629
 30
0.000000
 11
11.346014
 21
0.360987
 31
0.000000
  0
LINE
  8
Default
 62
     5
  6
CONTINUOUS
 10
11.346014
 20
0.360987
 30
0.000000
 11
11.391278
 21
0.377788
 31
0.000000
  0
ARC
  8
Default
 62
     5
  6
CONTINUOUS
 10
11.399021
 20
0.330381
 30
0.000000
 40
0.048035
 50
59.380564
 51
99.275846
  0
ARC
  8
Default
 62
     5
  6
CONTINUOUS
 10
11.446407
 20
0.410444
 30
0.000000
 40
0.045000
 50
239.380564
 51
250.091518
  0
LINE
  8
Default
 62
     5
  6
CONTINUOUS
 10
11.431083
 20
0.368133
 30
0.000000
 11
11.526912
 21
0.333428
 31
0.000000
  0
ARC
  8
Default
 62
     5
  6
CONTINUOUS
 10
11.542235
 20
0.375739
 30
0.000000
 40
0.045000
 50
250.091518
 51
251.842751
  0
ARC
  8
Default
 62
     5
  6
CONTINUOUS
 10
12.990501
 20
4.791767
 30
0.000000
 40
4.692449
 50
251.842751
 51
261.501744
  0
ARC
  8
Default
 62
     5
  6
CONTINUOUS
 10
12.303704
 20
0.195345
 30
0.000000
 40
0.045000
 50
261.501744
 51
270.368128
  0
LINE
  8
Default
 62
     5
  6
CONTINUOUS
 10
12.303993
 20
0.150346
 30
0.000000
 11
14.310084
 21
0.163236
 31
0.000000
  0
ARC
  8
Default
 62
     5
  6
CONTINUOUS
 10
14.309794
 20
0.208235
 30
0.000000
 40
0.045000
 50
270.368128
 51
282.935883
  0
ARC
  8
Default
 62
     5
  6
CONTINUOUS
 10
14.093792
 20
1.148643
 30
0.000000
 40
1.009896
 50
282.935883
 51
299.033727
  0
ARC
  8
Default
 62
     5
  6
CONTINUOUS
 10
14.562080
 20
0.305001
 30
0.000000
 40
0.045000
 50
299.033727
 51
311.918054
  0
LINE
  8
Default
 62
     5
  6
CONTINUOUS
 10
14.592143
 20
0.271517
 30
0.000000
 11
14.690973
 21
0.360248
 31
0.000000
  0
ARC
  8
Default
 62
     5
  6
CONTINUOUS
 10
14.520534
 20
0.590860
 30
0.000000
 40
0.286760
 50
306.467280
 51
335.254630
  0
ARC
  8
Default
 62
     5
  6
CONTINUOUS
 10
13.657738
 20
1.166833
 30
0.000000
 40
1.321386
 50
328.215514
 51
349.762083
  0
ARC
  8
Default
 62
     5
  6
CONTINUOUS
 10
14.913801
 20
0.939974
 30
0.000000
 40
0.045000
 50
349.762083
 51
352.160698
  0
ARC
  8
Default
 62
     5
  6
CONTINUOUS
 10
23.748892
 20
-0.276458
 30
0.000000
 40
8.873438
 50
166.018995
 51
172.160698
  0
ARC
  8
Default
 62
     5
  6
CONTINUOUS
 10
15.094655
 20
1.878239
 30
0.000000
 40
0.045000
 50
346.018995
 51
348.933095
  0
ARC
  8
Default
 62
     5
  6
CONTINUOUS
 10
20.272007
 20
0.865588
 30
0.000000
 40
5.230456
 50
162.101425
 51
168.933095
  0
LINE
  8
Default
 62
     5
  6
CONTINUOUS
 10
15.294694
 20
2.473079
 30
0.000000
 11
15.529508
 21
3.200139
 31
0.000000
  0
ARC
  8
Default
 62
     5
  6
CONTINUOUS
 10
44.321026
 20
-7.536988
 30
0.000000
 40
30.728446
 50
156.680668
 51
159.548170
  0
ARC
  8
Default
 62
     5
  6
CONTINUOUS
 10
16.061374
 20
4.644846
 30
0.000000
 40
0.045000
 50
336.680668
 51
337.954191
  0
LINE
  8
Default
 62
     5
  6
CONTINUOUS
 10
16.103084
 20
4.627955
 30
0.000000
 11
16.266469
 21
5.031417
 31
0.000000
  0
ARC
  8
Default
 62
     5
  6
CONTINUOUS
 10
16.224759
 20
5.048308
 30
0.000000
 40
0.045000
 50
337.954191
 51
345.983514
  0
ARC
  8
Default
 62
     5
  6
CONTINUOUS
 10
14.611226
 20
5.451100
 30
0.000000
 40
1.708049
 50
345.983514
 51
365.271705
  0
ARC
  8
Default
 62
     5
  6
CONTINUOUS
 10
11.430587
 20
5.289998
 30
0.000000
 40
4.891812
 50
3.727650
 51
17.114562
  0
LINE
  8
Default
 62
     5
  6
CONTINUOUS
 10
16.105781
 20
6.729576
 30
0.000000
 11
16.092000
 21
6.774332
 31
0.000000
  0
LINE
  8
Default
 62
     5
  6
CONTINUOUS
 10
16.092000
 20
6.774332
 30
0.000000
 11
16.088866
 21
6.786806
 31
0.000000
  0
LINE
  8
Default
 62
     5
  6
CONTINUOUS
 10
16.088866
 20
6.786806
 30
0.000000
 11
16.184367
 21
6.757661
 31
0.000000
  0
ARC
  8
Default
 62
     5
  6
CONTINUOUS
 10
16.197502
 20
6.800702
 30
0.000000
 40
0.045000
 50
253.029346
 51
254.083381
  0
LINE
  8
Default
 62
     5
  6
CONTINUOUS
 10
16.185161
 20
6.757427
 30
0.000000
 11
16.456418
 21
6.680072
 31
0.000000
  0
ARC
  8
Default
 62
     5
  6
CONTINUOUS
 10
16.468759
 20
6.723347
 30
0.000000
 40
0.045000
 50
254.083381
 51
255.420148
  0
ARC
  8
Default
 62
     5
  6
CONTINUOUS
 10
15.913098
 20
4.587051
 30
0.000000
 40
2.162379
 50
66.676803
 51
75.420148
  0
ARC
  8
Default
 62
     5
  6
CONTINUOUS
 10
16.787037
 20
6.614056
 30
0.000000
 40
0.045000
 50
246.676803
 51
251.989552
  0
LINE
  8
Default
 62
     5
  6
CONTINUOUS
 10
16.773123
 20
6.571261
 30
0.000000
 11
17.052087
 21
6.480564
 31
0.000000
  0
ARC
  8
Default
 62
     5
  6
CONTINUOUS
 10
17.753128
 20
8.439771
 30
0.000000
 40
2.080853
 50
250.311834
 51
264.132123
  0
ARC
  8
Default
 62
     5
  6
CONTINUOUS
 10
18.526878
 20
12.931034
 30
0.000000
 40
6.634958
 50
261.449564
 51
267.592064
  0
ARC
  8
Default
 62
     5
  6
CONTINUOUS
 10
18.723356
 20
17.603388
 30
0.000000
 40
11.311441
 50
267.592064
 51
273.374034
  0
ARC
  8
Default
 62
     5
  6
CONTINUOUS
 10
19.386431
 20
6.356476
 30
0.000000
 40
0.045000
 50
273.374034
 51
274.793570
  0
LINE
  8
Default
 62
     5
  6
CONTINUOUS
 10
19.390191
 20
6.311633
 30
0.000000
 11
19.695196
 21
6.337211
 31
0.000000
  0
ARC
  8
Default
 62
     5
  6
CONTINUOUS
 10
19.691436
 20
6.382053
 30
0.000000
 40
0.045000
 50
274.793570
 51
276.916730
  0
LINE
  8
Default
 62
     5
  6
CONTINUOUS
 10
19.696855
 20
6.337381
 30
0.000000
 11
19.963023
 21
6.369669
 31
0.000000
  0
ARC
  8
Default
 62
     5
  6
CONTINUOUS
 10
19.811645
 20
8.505045
 30
0.000000
 40
2.140735
 50
274.054934
 51
287.294918
  0
LINE
  8
Default
 62
     5
  6
CONTINUOUS
 10
20.448065
 20
6.461099
 30
0.000000
 11
20.658309
 21
6.505039
 31
0.000000
  0
LINE
  8
Default
 62
     5
  6
CONTINUOUS
 10
20.658309
 20
6.505039
 30
0.000000
 11
20.797994
 21
6.504824
 31
0.000000
  0
LINE
  8
Default
 62
     5
  6
CONTINUOUS
 10
20.797994
 20
6.504824
 30
0.000000
 11
20.823593
 21
6.499087
 31
0.000000
  0
ARC
  8
Default
 62
     5
  6
CONTINUOUS
 10
19.900214
 20
7.152361
 30
0.000000
 40
1.131104
 50
307.552632
 51
324.721269
  0
ARC
  8
Default
 62
     5
  6
CONTINUOUS
 10
20.617038
 20
6.219954
 30
0.000000
 40
0.045000
 50
127.552632
 51
134.693979
  0
ARC
  8
Default
 62
     5
  6
CONTINUOUS
 10
21.154616
 20
5.676602
 30
0.000000
 40
0.809344
 50
134.693979
 51
161.036813
  0
ARC
  8
Default
 62
     5
  6
CONTINUOUS
 10
20.431755
 20
5.924983
 30
0.000000
 40
0.045000
 50
161.036813
 51
162.775628
  0
ARC
  8
Default
 62
     5
  6
CONTINUOUS
 10
21.694877
 20
5.533393
 30
0.000000
 40
1.367430
 50
162.775628
 51
179.953397
  0
ARC
  8
Default
 62
     5
  6
CONTINUOUS
 10
20.372448
 20
5.534468
 30
0.000000
 40
0.045000
 50
179.953397
 51
182.270229
  0
ARC
  8
Default
 62
     5
  6
CONTINUOUS
 10
23.030697
 20
5.639851
 30
0.000000
 40
2.705338
 50
182.270229
 51
195.635634
  0
ARC
  8
Default
 62
     5
  6
CONTINUOUS
 10
20.468805
 20
4.922840
 30
0.000000
 40
0.045000
 50
195.635634
 51
197.849027
  0
LINE
  8
Default
 62
     5
  6
CONTINUOUS
 10
20.425971
 20
4.909047
 30
0.000000
 11
20.580914
 21
4.427871
 31
0.000000
  0
LINE
  8
Default
 62
     5
  6
CONTINUOUS
 10
20.580914
 20
4.427871
 30
0.000000
 11
20.882182
 21
3.490809
 31
0.000000
  0
ARC
  8
Default
 62
     5
  6
CONTINUOUS
 10
19.938149
 20
3.187299
 30
0.000000
 40
0.991623
 50
337.627824
 51
377.822760
  0
ARC
  8
Default
 62
     5
  6
CONTINUOUS
 10
20.896747
 20
2.792738
 30
0.000000
 40
0.045000
 50
157.627824
 51
159.381566
  0
ARC
  8
Default
 62
     5
  6
CONTINUOUS
 10
19.717072
 20
3.236582
 30
0.000000
 40
1.215409
 50
326.323822
 51
339.381566
  0
ARC
  8
Default
 62
     5
  6
CONTINUOUS
 10
20.765965
 20
2.537687
 30
0.000000
 40
0.045000
 50
146.323822
 51
153.204553
  0
ARC
  8
Default
 62
     5
  6
CONTINUOUS
 10
20.466995
 20
2.688678
 30
0.000000
 40
0.289935
 50
292.441577
 51
333.204553
  0
ARC
  8
Default
 62
     5
  6
CONTINUOUS
 10
19.186239
 20
5.789635
 30
0.000000
 40
3.644972
 50
283.390084
 51
292.441577
  0
ARC
  8
Default
 62
     5
  6
CONTINUOUS
 10
20.040761
 20
2.199972
 30
0.000000
 40
0.045000
 50
103.390084
 51
105.115031
  0
LINE
  8
Default
 62
     5
  6
CONTINUOUS
 10
20.029027
 20
2.243415
 30
0.000000
 11
19.504333
 21
2.101694
 31
0.000000
  0
ARC
  8
Default
 62
     5
  6
CONTINUOUS
 10
19.516067
 20
2.058251
 30
0.000000
 40
0.045000
 50
105.115031
 51
118.029417
  0
ARC
  8
Default
 62
     5
  6
CONTINUOUS
 10
19.654057
 20
1.799051
 30
0.000000
 40
0.338642
 50
118.029417
 51
162.662729
  0
ARC
  8
Default
 62
     5
  6
CONTINUOUS
 10
19.849332
 20
1.717608
 30
0.000000
 40
0.549663
 50
160.624265
 51
190.904596
  0
ARC
  8
Default
 62
     5
  6
CONTINUOUS
 10
20.174478
 20
1.696278
 30
0.000000
 40
0.868824
 50
185.458833
 51
204.450347
  0
ARC
  8
Default
 62
     5
  6
CONTINUOUS
 10
19.717234
 20
1.448063
 30
0.000000
 40
0.351768
 50
198.461824
 51
250.343648
  0
ARC
  8
Default
 62
     5
  6
CONTINUOUS
 10
20.110600
 20
2.549334
 30
0.000000
 40
1.521185
 50
250.343648
 51
274.738685
  0
LINE
  8
Default
 62
     5
  6
CONTINUOUS
 10
20.236267
 20
1.033349
 30
0.000000
 11
20.385036
 21
1.039755
 31
0.000000
  0
ARC
  8
Default
 62
     5
  6
CONTINUOUS
 10
20.383100
 20
1.084714
 30
0.000000
 40
0.045000
 50
272.465636
 51
284.011601
  0
ARC
  8
Default
 62
     5
  6
CONTINUOUS
 10
20.496758
 20
0.629252
 30
0.000000
 40
0.424429
 50
90.047150
 51
104.011601
  0
ARC
  8
Default
 62
     5
  6
CONTINUOUS
 10
20.744631
 20
1.122412
 30
0.000000
 40
0.257563
 50
195.477180
 51
248.625243
  0
ARC
  8
Default
 62
     5
  6
CONTINUOUS
 10
21.186775
 20
1.990636
 30
0.000000
 40
1.230908
 50
244.185146
 51
265.254027
  0
ARC
  8
Default
 62
     5
  6
CONTINUOUS
 10
21.450043
 20
1.317936
 30
0.000000
 40
0.663482
 50
236.612750
 51
276.972543
  0
ARC
  8
Default
 62
     5
  6
CONTINUOUS
 10
21.959832
 20
11.168480
 30
0.000000
 40
10.517881
 50
267.661041
 51
274.206482
  0
ARC
  8
Default
 62
     5
  6
CONTINUOUS
 10
22.728029
 20
0.723810
 30
0.000000
 40
0.045000
 50
274.206482
 51
275.288388
  0
LINE
  8
Default
 62
     5
  6
CONTINUOUS
 10
22.732177
 20
0.679002
 30
0.000000
 11
23.360237
 21
0.737137
 31
0.000000
  0
LINE
  8
Default
 62
     5
  6
CONTINUOUS
 10
23.360237
 20
0.737137
 30
0.000000
 11
23.697797
 21
0.762707
 31
0.000000
  0
LINE
  8
Default
 62
     5
  6
CONTINUOUS
 10
23.697797
 20
0.762707
 30
0.000000
 11
23.787672
 21
0.768825
 31
0.000000
  0
ARC
  8
Default
 62
     5
  6
CONTINUOUS
 10
23.784616
 20
0.813721
 30
0.000000
 40
0.045000
 50
273.894024
 51
282.814183
  0
LINE
  8
Default
 62
     5
  6
CONTINUOUS
 10
23.794597
 20
0.769842
 30
0.000000
 11
23.879165
 21
0.789077
 31
0.000000
  0
ARC
  8
Default
 62
     5
  6
CONTINUOUS
 10
23.847428
 20
1.336481
 30
0.000000
 40
0.548323
 50
273.318147
 51
292.465527
  0
ARC
  8
Default
 62
     5
  6
CONTINUOUS
 10
23.394224
 20
2.886458
 30
0.000000
 40
2.160828
 50
287.860677
 51
300.607021
  0
LINE
  8
Default
 62
     5
  6
CONTINUOUS
 10
24.494403
 20
1.026677
 30
0.000000
 11
24.710660
 21
1.148115
 31
0.000000
  0
ARC
  8
Default
 62
     5
  6
CONTINUOUS
 10
24.688627
 20
1.187352
 30
0.000000
 40
0.045000
 50
299.316142
 51
302.285716
  0
LINE
  8
Default
 62
     5
  6
CONTINUOUS
 10
24.712664
 20
1.149309
 30
0.000000
 11
24.905382
 21
1.271074
 31
0.000000
  0
ARC
  8
Default
 62
     5
  6
CONTINUOUS
 10
24.067957
 20
2.935882
 30
0.000000
 40
1.863563
 50
296.703151
 51
312.869626
  0
ARC
  8
Default
 62
     5
  6
CONTINUOUS
 10
24.905914
 20
2.033172
 30
0.000000
 40
0.631875
 50
312.869626
 51
346.526451
  0
ARC
  8
Default
 62
     5
  6
CONTINUOUS
 10
25.476637
 20
1.896433
 30
0.000000
 40
0.045000
 50
346.526451
 51
349.256010
  0
LINE
  8
Default
 62
     5
  6
CONTINUOUS
 10
25.520848
 20
1.888044
 30
0.000000
 11
25.553071
 21
2.057867
 31
0.000000
  0
ARC
  8
Default
 62
     5
  6
CONTINUOUS
 10
25.508860
 20
2.066256
 30
0.000000
 40
0.045000
 50
349.256010
 51
352.872706
  0
LINE
  8
Default
 62
     5
  6
CONTINUOUS
 10
25.553512
 20
2.060672
 30
0.000000
 11
25.572843
 21
2.215270
 31
0.000000
  0
LINE
  8
Default
 62
     5
  6
CONTINUOUS
 10
25.572843
 20
2.215270
 30
0.000000
 11
25.736094
 21
3.514928
 31
0.000000
  0
ARC
  8
Default
 62
     5
  6
CONTINUOUS
 10
50.007117
 20
0.466221
 30
0.000000
 40
24.461749
 50
169.902069
 51
172.840519
  0
ARC
  8
Default
 62
     5
  6
CONTINUOUS
 10
2.110611
 20
8.996104
 30
0.000000
 40
24.188371
 50
349.902069
 51
352.748708
  0
ARC
  8
Default
 62
     5
  6
CONTINUOUS
 10
30.991396
 20
5.321342
 30
0.000000
 40
4.925262
 50
165.247008
 51
172.748708
  0
ARC
  8
Default
 62
     5
  6
CONTINUOUS
 10
28.955313
 20
5.728004
 30
0.000000
 40
2.855493
 50
153.422322
 51
162.733280
  0
LINE
  8
Default
 62
     5
  6
CONTINUOUS
 10
26.401564
 20
7.005582
 30
0.000000
 11
26.604686
 21
7.358618
 31
0.000000
  0
ARC
  8
Default
 62
     5
  6
CONTINUOUS
 10
26.565681
 20
7.381059
 30
0.000000
 40
0.045000
 50
330.085704
 51
332.617603
  0
ARC
  8
Default
 62
     5
  6
CONTINUOUS
 10
23.872397
 20
8.776076
 30
0.000000
 40
3.078125
 50
332.617603
 51
341.573297
  0
ARC
  8
Default
 62
     5
  6
CONTINUOUS
 10
17.053642
 20
11.047904
 30
0.000000
 40
10.265380
 50
341.573297
 51
346.243397
  0
ARC
  8
Default
 62
     5
  6
CONTINUOUS
 10
16.211174
 20
11.846406
 30
0.000000
 40
11.288231
 50
343.322280
 51
348.194638
  0
ARC
  8
Default
 62
     5
  6
CONTINUOUS
 10
23.598570
 20
10.394394
 30
0.000000
 40
3.761106
 50
346.822385
 51
361.518347
  0
ARC
  8
Default
 62
     5
  6
CONTINUOUS
 10
27.313371
 20
10.492860
 30
0.000000
 40
0.045000
 50
1.518347
 51
3.971764
  0
ARC
  8
Default
 62
     5
  6
CONTINUOUS
 10
18.142204
 20
9.856091
 30
0.000000
 40
9.238247
 50
3.971764
 51
10.389999
  0
ARC
  8
Default
 62
     5
  6
CONTINUOUS
 10
15.652633
 20
10.074324
 30
0.000000
 40
11.666529
 50
7.129008
 51
12.146090
  0
LINE
  8
Default
 62
     5
  6
CONTINUOUS
 10
27.057999
 20
12.529021
 30
0.000000
 11
26.970683
 21
12.934720
 31
0.000000
  0
ARC
  8
Default
 62
     5
  6
CONTINUOUS
 10
26.926690
 20
12.925251
 30
0.000000
 40
0.045000
 50
12.146090
 51
14.839036
  0
LINE
  8
Default
 62
     5
  6
CONTINUOUS
 10
26.970190
 20
12.936776
 30
0.000000
 11
26.882647
 21
13.267200
 31
0.000000
  0
ARC
  8
Default
 62
     5
  6
CONTINUOUS
 10
21.155362
 20
11.749811
 30
0.000000
 40
5.924885
 50
14.839036
 51
32.421852
  0
ARC
  8
Default
 62
     5
  6
CONTINUOUS
 10
26.118711
 20
14.902304
 30
0.000000
 40
0.045000
 50
32.421852
 51
34.382923
  0
ARC
  8
Default
 62
     5
  6
CONTINUOUS
 10
22.197127
 20
12.218856
 30
0.000000
 40
4.796812
 50
34.382923
 51
51.456460
  0
ARC
  8
Default
 62
     5
  6
CONTINUOUS
 10
19.451286
 20
8.772240
 30
0.000000
 40
9.203489
 50
51.456460
 51
61.287908
  0
ARC
  8
Default
 62
     5
  6
CONTINUOUS
 10
17.114089
 20
4.505400
 30
0.000000
 40
14.068508
 50
61.287908
 51
69.649523
  0
ARC
  8
Default
 62
     5
  6
CONTINUOUS
 10
17.984067
 20
7.699491
 30
0.000000
 40
10.775279
 50
68.080149
 51
72.836110
  0
ARC
  8
Default
 62
     5
  6
CONTINUOUS
 10
18.763616
 20
10.223435
 30
0.000000
 40
8.133692
 50
72.836110
 51
78.750415
  0
ARC
  8
Default
 62
     5
  6
CONTINUOUS
 10
20.341584
 20
18.156716
 30
0.000000
 40
0.045000
 50
78.750415
 51
80.087410
  0
ARC
  8
Default
 62
     5
  6
CONTINUOUS
 10
19.492625
 20
13.298708
 30
0.000000
 40
4.976630
 50
80.087410
 51
94.556129
  0
ARC
  8
Default
 62
     5
  6
CONTINUOUS
 10
20.060889
 20
2.125527
 30
0.000000
 40
16.162833
 50
93.417848
 51
97.329963
  0
ARC
  8
Default
 62
     5
  6
CONTINUOUS
 10
19.941960
 20
1.186726
 30
0.000000
 40
17.080443
 50
96.532474
 51
102.845687
  0
ARC
  8
Default
 62
     5
  6
CONTINUOUS
 10
16.154538
 20
17.795813
 30
0.000000
 40
0.045000
 50
102.845687
 51
105.899899
  0
ARC
  8
Default
 62
     5
  6
CONTINUOUS
 10
19.655421
 20
5.505787
 30
0.000000
 40
12.823925
 50
105.899899
 51
108.982444
  0
ARC
  8
Default
 62
     5
  6
CONTINUOUS
 10
13.854182
 20
22.370594
 30
0.000000
 40
5.010763
 50
278.524195
 51
288.982444
  0
ARC
  8
Default
 62
     5
  6
CONTINUOUS
 10
14.332691
 20
19.178037
 30
0.000000
 40
1.782545
 50
260.385911
 51
278.524195
  0
ARC
  8
Default
 62
     5
  6
CONTINUOUS
 10
14.430552
 20
19.029004
 30
0.000000
 40
1.656403
 50
239.417209
 51
256.183655
  0
ARC
  8
Default
 62
     5
  6
CONTINUOUS
 10
13.564908
 20
17.564275
 30
0.000000
 40
0.045000
 50
59.417209
 51
61.006415
  0
ARC
  8
Default
 62
     5
  6
CONTINUOUS
 10
15.223872
 20
20.557917
 30
0.000000
 40
3.377580
 50
234.801646
 51
241.006415
  0
ENDSEC
  0
EOF
