  0
SECTION
  2
HEADER
  9
$ACADVER
  1
AC1009
  9
$LIMMIN
 10
-5.229094
 20
-.165253
  9
$LIMMAX
 10
10.89623
 20
11.92874
  0
ENDSEC
  0
SECTION
  2
TABLES
  0
TABLE
  2
LTYPE
 70
     4
  0
LTYPE
  2
CONTINUOUS
 70
     0
  3
Solid line
 72
    65
 73
     0
 40
0.000000
  0
LTYPE
  2
HIDDEN
 70
     0
  3
 _ _ _ _ _ _ _ _ _ _ _
 72
    65
 73
     2
 40
0.375000
 49
0.250000
 49
-0.125000
  0
LTYPE
  2
DASHED
 70
     0
  3
 ___ ___ ___ ___ ___ ___ ___ 
 72
    65
 73
     2
 40
0.750000
 49
0.500000
 49
-0.250000
  0
LTYPE
  2
CENTER
 70
     0
  3
___ _ ___ _ ___ _ ___
 72
    65
 73
     4
 40
2.000000
 49
1.250000
 49
-0.250000
 49
0.250000
 49
-0.250000
  0
LTYPE
  2
BORDER
 70
     0
  3
___ ___ . ___ ___ . ___ ___
 72
    65
 73
     6
 40
1.750000
 49
0.500000
 49
-0.250000
 49
0.500000
 49
-0.250000
 49
0.000000
 49
-0.250000
  0
LTYPE
  2
DOT
 70
     0
  3
.................
 72
    65
 73
     2
 40
0.250000
 49
0.000000
 49
-0.250000
  0
LTYPE
  2
DASHDOT
 70
     0
  3
__ . __ . __ . __
 72
    65
 73
     4
 40
1.000000
 49
0.500000
 49
-0.250000
 49
0.000000
 49
-0.250000
  0
LTYPE
  2
DIVIDE
 70
     0
  3
___ .. ___ .. ___ .. ___
 72
    65
 73
     6
 40
1.250000
 49
0.500000
 49
-0.250000
 49
0.000000
 49
-0.250000
 49
0.000000
 49
-0.250000
  0
ENDTAB
  0
TABLE
  2
LAYER
 70
     8
  0
LAYER
  2
BLACK
 70
     0
 62
     0
  6
CONTINUOUS
  0
LAYER
  2
WHITE
 70
     0
 62
     7
  6
CONTINUOUS
  0
LAYER
  2
RED
 70
     0
 62
     1
  6
CONTINUOUS
  0
LAYER
  2
YELLOW
 70
     0
 62
     2
  6
CONTINUOUS
  0
LAYER
  2
GREEN
 70
     0
 62
     3
  6
CONTINUOUS
  0
LAYER
  2
CYAN
 70
     0
 62
     4
  6
CONTINUOUS
  0
LAYER
  2
BLUE
 70
     0
 62
     5
  6
CONTINUOUS
  0
LAYER
  2
MAGENTA
 70
     0
 62
     6
  6
CONTINUOUS
  0
ENDTAB
  0
ENDSEC
  0
SECTION
  2
BLOCKS
  0
ENDSEC
  0
SECTION
  2
ENTITIES
 0
LINE
 8
WHITE
 10
.223
 20
2.444999
 30
0.0000
 11
.246999
 21
2.471999
 31
0.0000
 6
CONTINUOUS
 0
LINE
 8
WHITE
 10
.246999
 20
2.471999
 30
0.0000
 11
.223
 21
2.519999
 31
0.0000
 6
CONTINUOUS
 0
LINE
 8
WHITE
 10
.223
 20
2.519999
 30
0.0000
 11
.223
 21
2.444999
 31
0.0000
 6
CONTINUOUS
 0
LINE
 8
WHITE
 10
.560999
 20
5.102
 30
0.0000
 11
.526
 21
5.007999
 31
0.0000
 6
CONTINUOUS
 0
LINE
 8
WHITE
 10
.526
 20
5.007999
 30
0.0000
 11
.541
 21
5.002999
 31
0.0000
 6
CONTINUOUS
 0
LINE
 8
WHITE
 10
.541
 20
5.002999
 30
0.0000
 11
.624
 21
5.027999
 31
0.0000
 6
CONTINUOUS
 0
LINE
 8
WHITE
 10
.624
 20
5.027999
 30
0.0000
 11
.685
 21
5.067999
 31
0.0000
 6
CONTINUOUS
 0
LINE
 8
WHITE
 10
.685
 20
5.067999
 30
0.0000
 11
.717999
 21
5.123
 31
0.0000
 6
CONTINUOUS
 0
LINE
 8
WHITE
 10
.717999
 20
5.123
 30
0.0000
 11
.717999
 21
5.192999
 31
0.0000
 6
CONTINUOUS
 0
LINE
 8
WHITE
 10
.717999
 20
5.192999
 30
0.0000
 11
.694999
 21
5.242
 31
0.0000
 6
CONTINUOUS
 0
ARC
 8
WHITE
 10
.658699
 20
5.2256
 30
 0
 40
.039832
 50
24.31301
 51
110.1184
 6
CONTINUOUS
 0
LINE
 8
WHITE
 10
.644999
 20
5.263
 30
0.0000
 11
.601
 21
5.247
 31
0.0000
 6
CONTINUOUS
 0
LINE
 8
WHITE
 10
.601
 20
5.247
 30
0.0000
 11
.549
 21
5.191999
 31
0.0000
 6
CONTINUOUS
 0
LINE
 8
WHITE
 10
.549
 20
5.191999
 30
0.0000
 11
.519999
 21
5.111999
 31
0.0000
 6
CONTINUOUS
 0
LINE
 8
WHITE
 10
.519999
 20
5.111999
 30
0.0000
 11
.512
 21
5.013
 31
0.0000
 6
CONTINUOUS
 0
LINE
 8
WHITE
 10
.512
 20
5.013
 30
0.0000
 11
.526
 21
5.007999
 31
0.0000
 6
CONTINUOUS
 0
LINE
 8
WHITE
 10
.526
 20
5.007999
 30
0.0000
 11
.535
 21
5.012
 31
0.0000
 6
CONTINUOUS
 0
LINE
 8
WHITE
 10
.432
 20
4.717999
 30
0.0000
 11
.340999
 21
4.76
 31
0.0000
 6
CONTINUOUS
 0
LINE
 8
WHITE
 10
.340999
 20
4.76
 30
0.0000
 11
.319999
 21
4.712999
 31
0.0000
 6
CONTINUOUS
 0
LINE
 8
WHITE
 10
.319999
 20
4.712999
 30
0.0000
 11
.323
 21
4.660999
 31
0.0000
 6
CONTINUOUS
 0
ARC
 8
WHITE
 10
.363
 20
4.663399
 30
 0
 40
.040071
 50
183.4336
 51
280.0744
 6
CONTINUOUS
 0
LINE
 8
WHITE
 10
.37
 20
4.624
 30
0.0000
 11
.404
 21
4.63
 31
0.0000
 6
CONTINUOUS
 0
LINE
 8
WHITE
 10
.404
 20
4.63
 30
0.0000
 11
.444999
 21
4.690999
 31
0.0000
 6
CONTINUOUS
 0
LINE
 8
WHITE
 10
.444999
 20
4.690999
 30
0.0000
 11
.458999
 21
4.776999
 31
0.0000
 6
CONTINUOUS
 0
LINE
 8
WHITE
 10
.458999
 20
4.776999
 30
0.0000
 11
.456
 21
4.862999
 31
0.0000
 6
CONTINUOUS
 0
LINE
 8
WHITE
 10
.456
 20
4.862999
 30
0.0000
 11
.411
 21
4.866
 31
0.0000
 6
CONTINUOUS
 0
LINE
 8
WHITE
 10
.411
 20
4.866
 30
0.0000
 11
.363
 21
4.806
 31
0.0000
 6
CONTINUOUS
 0
LINE
 8
WHITE
 10
.363
 20
4.806
 30
0.0000
 11
.340999
 21
4.76
 31
0.0000
 6
CONTINUOUS
 0
LINE
 8
WHITE
 10
.340999
 20
4.76
 30
0.0000
 11
.344999
 21
4.75
 31
0.0000
 6
CONTINUOUS
 0
LINE
 8
WHITE
 10
.667999
 20
4.689
 30
0.0000
 11
.764999
 21
4.665999
 31
0.0000
 6
CONTINUOUS
 0
LINE
 8
WHITE
 10
.764999
 20
4.665999
 30
0.0000
 11
.779999
 21
4.730999
 31
0.0000
 6
CONTINUOUS
 0
LINE
 8
WHITE
 10
.779999
 20
4.730999
 30
0.0000
 11
.745999
 21
4.787
 31
0.0000
 6
CONTINUOUS
 0
LINE
 8
WHITE
 10
.745999
 20
4.787
 30
0.0000
 11
.704999
 21
4.835999
 31
0.0000
 6
CONTINUOUS
 0
LINE
 8
WHITE
 10
.704999
 20
4.835999
 30
0.0000
 11
.624
 21
4.855999
 31
0.0000
 6
CONTINUOUS
 0
LINE
 8
WHITE
 10
.624
 20
4.855999
 30
0.0000
 11
.597999
 21
4.806
 31
0.0000
 6
CONTINUOUS
 0
LINE
 8
WHITE
 10
.597999
 20
4.806
 30
0.0000
 11
.573
 21
4.725999
 31
0.0000
 6
CONTINUOUS
 0
LINE
 8
WHITE
 10
.573
 20
4.725999
 30
0.0000
 11
.556999
 21
4.632999
 31
0.0000
 6
CONTINUOUS
 0
LINE
 8
WHITE
 10
.556999
 20
4.632999
 30
0.0000
 11
.558
 21
4.540999
 31
0.0000
 6
CONTINUOUS
 0
LINE
 8
WHITE
 10
.558
 20
4.540999
 30
0.0000
 11
.583999
 21
4.465
 31
0.0000
 6
CONTINUOUS
 0
LINE
 8
WHITE
 10
.583999
 20
4.465
 30
0.0000
 11
.612999
 21
4.442999
 31
0.0000
 6
CONTINUOUS
 0
ARC
 8
WHITE
 10
.6365
 20
4.475399
 30
 0
 40
.040025
 50
234.0463
 51
332.6016
 6
CONTINUOUS
 0
LINE
 8
WHITE
 10
.671999
 20
4.456999
 30
0.0000
 11
.75
 21
4.602
 31
0.0000
 6
CONTINUOUS
 0
LINE
 8
WHITE
 10
.75
 20
4.602
 30
0.0000
 11
.764999
 21
4.665999
 31
0.0000
 6
CONTINUOUS
 0
LINE
 8
WHITE
 10
.764999
 20
4.665999
 30
0.0000
 11
.759999
 21
4.675
 31
0.0000
 6
CONTINUOUS
 0
LINE
 8
WHITE
 10
.448
 20
4.339
 30
0.0000
 11
.405999
 21
4.248
 31
0.0000
 6
CONTINUOUS
 0
LINE
 8
WHITE
 10
.405999
 20
4.248
 30
0.0000
 11
.448
 21
4.228
 31
0.0000
 6
CONTINUOUS
 0
LINE
 8
WHITE
 10
.448
 20
4.228
 30
0.0000
 11
.509999
 21
4.239999
 31
0.0000
 6
CONTINUOUS
 0
LINE
 8
WHITE
 10
.509999
 20
4.239999
 30
0.0000
 11
.542999
 21
4.261
 31
0.0000
 6
CONTINUOUS
 0
LINE
 8
WHITE
 10
.542999
 20
4.261
 30
0.0000
 11
.554
 21
4.287
 31
0.0000
 6
CONTINUOUS
 0
LINE
 8
WHITE
 10
.554
 20
4.287
 30
0.0000
 11
.546
 21
4.316999
 31
0.0000
 6
CONTINUOUS
 0
LINE
 8
WHITE
 10
.546
 20
4.316999
 30
0.0000
 11
.488999
 21
4.376999
 31
0.0000
 6
CONTINUOUS
 0
LINE
 8
WHITE
 10
.488999
 20
4.376999
 30
0.0000
 11
.407
 21
4.413
 31
0.0000
 6
CONTINUOUS
 0
LINE
 8
WHITE
 10
.407
 20
4.413
 30
0.0000
 11
.368999
 21
4.414
 31
0.0000
 6
CONTINUOUS
 0
LINE
 8
WHITE
 10
.368999
 20
4.414
 30
0.0000
 11
.337
 21
4.399
 31
0.0000
 6
CONTINUOUS
 0
LINE
 8
WHITE
 10
.337
 20
4.399
 30
0.0000
 11
.317
 21
4.367
 31
0.0000
 6
CONTINUOUS
 0
LINE
 8
WHITE
 10
.317
 20
4.367
 30
0.0000
 11
.326
 21
4.304999
 31
0.0000
 6
CONTINUOUS
 0
LINE
 8
WHITE
 10
.326
 20
4.304999
 30
0.0000
 11
.363999
 21
4.267
 31
0.0000
 6
CONTINUOUS
 0
LINE
 8
WHITE
 10
.363999
 20
4.267
 30
0.0000
 11
.405999
 21
4.248
 31
0.0000
 6
CONTINUOUS
 0
LINE
 8
WHITE
 10
.405999
 20
4.248
 30
0.0000
 11
.416
 21
4.250999
 31
0.0000
 6
CONTINUOUS
 0
LINE
 8
WHITE
 10
.731999
 20
4.053999
 30
0.0000
 11
.633
 21
4.059999
 31
0.0000
 6
CONTINUOUS
 0
LINE
 8
WHITE
 10
.633
 20
4.059999
 30
0.0000
 11
.630999
 21
4.025
 31
0.0000
 6
CONTINUOUS
 0
ARC
 8
WHITE
 10
.670899
 20
4.0222
 30
 0
 40
.039998
 50
175.9858
 51
248.1722
 6
CONTINUOUS
 0
LINE
 8
WHITE
 10
.656
 20
3.984999
 30
0.0000
 11
.657
 21
3.984999
 31
0.0000
 6
CONTINUOUS
 0
ARC
 8
WHITE
 10
.6427
 20
3.947699
 30
 0
 40
.039947
 50
332.0879
 51
69.02428
 6
CONTINUOUS
 0
LINE
 8
WHITE
 10
.677999
 20
3.928999
 30
0.0000
 11
.667999
 21
3.91
 31
0.0000
 6
CONTINUOUS
 0
LINE
 8
WHITE
 10
.667999
 20
3.91
 30
0.0000
 11
.633
 21
3.869999
 31
0.0000
 6
CONTINUOUS
 0
LINE
 8
WHITE
 10
.633
 20
3.869999
 30
0.0000
 11
.625
 21
3.842
 31
0.0000
 6
CONTINUOUS
 0
ARC
 8
WHITE
 10
.6643
 20
3.832099
 30
 0
 40
.040527
 50
165.8609
 51
239.9571
 6
CONTINUOUS
 0
LINE
 8
WHITE
 10
.643999
 20
3.796999
 30
0.0000
 11
.74
 21
3.739
 31
0.0000
 6
CONTINUOUS
 0
LINE
 8
WHITE
 10
.74
 20
3.739
 30
0.0000
 11
.778999
 21
3.743999
 31
0.0000
 6
CONTINUOUS
 0
LINE
 8
WHITE
 10
.778999
 20
3.743999
 30
0.0000
 11
.819
 21
3.799
 31
0.0000
 6
CONTINUOUS
 0
LINE
 8
WHITE
 10
.819
 20
3.799
 30
0.0000
 11
.829999
 21
3.891999
 31
0.0000
 6
CONTINUOUS
 0
LINE
 8
WHITE
 10
.829999
 20
3.891999
 30
0.0000
 11
.819
 21
4.002999
 31
0.0000
 6
CONTINUOUS
 0
LINE
 8
WHITE
 10
.819
 20
4.002999
 30
0.0000
 11
.79
 21
4.11
 31
0.0000
 6
CONTINUOUS
 0
LINE
 8
WHITE
 10
.79
 20
4.11
 30
0.0000
 11
.750999
 21
4.191999
 31
0.0000
 6
CONTINUOUS
 0
LINE
 8
WHITE
 10
.750999
 20
4.191999
 30
0.0000
 11
.686999
 21
4.223999
 31
0.0000
 6
CONTINUOUS
 0
LINE
 8
WHITE
 10
.686999
 20
4.223999
 30
0.0000
 11
.646
 21
4.198999
 31
0.0000
 6
CONTINUOUS
 0
LINE
 8
WHITE
 10
.646
 20
4.198999
 30
0.0000
 11
.632
 21
4.155
 31
0.0000
 6
CONTINUOUS
 0
LINE
 8
WHITE
 10
.632
 20
4.155
 30
0.0000
 11
.635999
 21
4.124
 31
0.0000
 6
CONTINUOUS
 0
LINE
 8
WHITE
 10
.635999
 20
4.124
 30
0.0000
 11
.633
 21
4.059999
 31
0.0000
 6
CONTINUOUS
 0
LINE
 8
WHITE
 10
.633
 20
4.059999
 30
0.0000
 11
.638999
 21
4.052999
 31
0.0000
 6
CONTINUOUS
 0
LINE
 8
WHITE
 10
.426999
 20
4.001999
 30
0.0000
 11
.423
 21
3.944999
 31
0.0000
 6
CONTINUOUS
 0
LINE
 8
WHITE
 10
.423
 20
3.944999
 30
0.0000
 11
.439999
 21
3.953999
 31
0.0000
 6
CONTINUOUS
 0
LINE
 8
WHITE
 10
.439999
 20
3.953999
 30
0.0000
 11
.465
 21
3.986999
 31
0.0000
 6
CONTINUOUS
 0
ARC
 8
WHITE
 10
.449
 20
3.999
 30
 0
 40
.02
 50
323.1301
 51
2.862196
 6
CONTINUOUS
 0
LINE
 8
WHITE
 10
.469
 20
4
 30
0.0000
 11
.467
 21
4.040999
 31
0.0000
 6
CONTINUOUS
 0
ARC
 8
WHITE
 10
.446999
 20
4.039599
 30
 0
 40
.020048
 50
4.004172
 51
66.50161
 6
CONTINUOUS
 0
LINE
 8
WHITE
 10
.455
 20
4.058
 30
0.0000
 11
.412999
 21
4.073999
 31
0.0000
 6
CONTINUOUS
 0
ARC
 8
WHITE
 10
.405999
 20
4.054999
 30
 0
 40
.020248
 50
69.77514
 51
171.4685
 6
CONTINUOUS
 0
LINE
 8
WHITE
 10
.386
 20
4.058
 30
0.0000
 11
.384
 21
4.040999
 31
0.0000
 6
CONTINUOUS
 0
LINE
 8
WHITE
 10
.384
 20
4.040999
 30
0.0000
 11
.405999
 21
3.936
 31
0.0000
 6
CONTINUOUS
 0
LINE
 8
WHITE
 10
.405999
 20
3.936
 30
0.0000
 11
.423
 21
3.944999
 31
0.0000
 6
CONTINUOUS
 0
LINE
 8
WHITE
 10
.423
 20
3.944999
 30
0.0000
 11
.425999
 21
3.954999
 31
0.0000
 6
CONTINUOUS
 0
LINE
 8
WHITE
 10
.486999
 20
3.757999
 30
0.0000
 11
.504
 21
3.717999
 31
0.0000
 6
CONTINUOUS
 0
LINE
 8
WHITE
 10
.504
 20
3.717999
 30
0.0000
 11
.532999
 21
3.742
 31
0.0000
 6
CONTINUOUS
 0
LINE
 8
WHITE
 10
.532999
 20
3.742
 30
0.0000
 11
.524999
 21
3.773999
 31
0.0000
 6
CONTINUOUS
 0
ARC
 8
WHITE
 10
.505899
 20
3.769399
 30
 0
 40
.019646
 50
13.54111
 51
86.78763
 6
CONTINUOUS
 0
LINE
 8
WHITE
 10
.507
 20
3.789
 30
0.0000
 11
.465999
 21
3.790999
 31
0.0000
 6
CONTINUOUS
 0
LINE
 8
WHITE
 10
.465999
 20
3.790999
 30
0.0000
 11
.465
 21
3.762
 31
0.0000
 6
CONTINUOUS
 0
LINE
 8
WHITE
 10
.465
 20
3.762
 30
0.0000
 11
.474999
 21
3.694999
 31
0.0000
 6
CONTINUOUS
 0
LINE
 8
WHITE
 10
.474999
 20
3.694999
 30
0.0000
 11
.504
 21
3.717999
 31
0.0000
 6
CONTINUOUS
 0
LINE
 8
WHITE
 10
.504
 20
3.717999
 30
0.0000
 11
.504999
 21
3.727999
 31
0.0000
 6
CONTINUOUS
 0
LINE
 8
WHITE
 10
.97
 20
3.691999
 30
0.0000
 11
1.024999
 21
3.653
 31
0.0000
 6
CONTINUOUS
 0
LINE
 8
WHITE
 10
1.024999
 20
3.653
 30
0.0000
 11
1.021
 21
3.684
 31
0.0000
 6
CONTINUOUS
 0
LINE
 8
WHITE
 10
1.021
 20
3.684
 30
0.0000
 11
1.001
 21
3.727999
 31
0.0000
 6
CONTINUOUS
 0
LINE
 8
WHITE
 10
1.001
 20
3.727999
 30
0.0000
 11
.975
 21
3.753
 31
0.0000
 6
CONTINUOUS
 0
LINE
 8
WHITE
 10
.975
 20
3.753
 30
0.0000
 11
.948
 21
3.760999
 31
0.0000
 6
CONTINUOUS
 0
LINE
 8
WHITE
 10
.948
 20
3.760999
 30
0.0000
 11
.919
 21
3.746999
 31
0.0000
 6
CONTINUOUS
 0
ARC
 8
WHITE
 10
.9266
 20
3.7288
 30
 0
 40
.019723
 50
112.6646
 51
185.2473
 6
CONTINUOUS
 0
LINE
 8
WHITE
 10
.907
 20
3.726999
 30
0.0000
 11
.91
 21
3.696
 31
0.0000
 6
CONTINUOUS
 0
ARC
 8
WHITE
 10
.9299
 20
3.6985
 30
 0
 40
.020056
 50
187.1604
 51
226.2105
 6
CONTINUOUS
 0
LINE
 8
WHITE
 10
.916
 20
3.684
 30
0.0000
 11
.943
 21
3.655999
 31
0.0000
 6
CONTINUOUS
 0
LINE
 8
WHITE
 10
.943
 20
3.655999
 30
0.0000
 11
1.013
 21
3.621999
 31
0.0000
 6
CONTINUOUS
 0
LINE
 8
WHITE
 10
1.013
 20
3.621999
 30
0.0000
 11
1.027999
 21
3.621999
 31
0.0000
 6
CONTINUOUS
 0
LINE
 8
WHITE
 10
1.027999
 20
3.621999
 30
0.0000
 11
1.024999
 21
3.653
 31
0.0000
 6
CONTINUOUS
 0
LINE
 8
WHITE
 10
1.024999
 20
3.653
 30
0.0000
 11
1.016999
 21
3.658999
 31
0.0000
 6
CONTINUOUS
 0
LINE
 8
WHITE
 10
.711
 20
3.569
 30
0.0000
 11
.648
 21
3.490999
 31
0.0000
 6
CONTINUOUS
 0
LINE
 8
WHITE
 10
.648
 20
3.490999
 30
0.0000
 11
.667999
 21
3.474999
 31
0.0000
 6
CONTINUOUS
 0
LINE
 8
WHITE
 10
.667999
 20
3.474999
 30
0.0000
 11
.722
 21
3.480999
 31
0.0000
 6
CONTINUOUS
 0
LINE
 8
WHITE
 10
.722
 20
3.480999
 30
0.0000
 11
.759
 21
3.530999
 31
0.0000
 6
CONTINUOUS
 0
LINE
 8
WHITE
 10
.759
 20
3.530999
 30
0.0000
 11
.787
 21
3.602999
 31
0.0000
 6
CONTINUOUS
 0
LINE
 8
WHITE
 10
.787
 20
3.602999
 30
0.0000
 11
.768
 21
3.641999
 31
0.0000
 6
CONTINUOUS
 0
LINE
 8
WHITE
 10
.768
 20
3.641999
 30
0.0000
 11
.72
 21
3.653
 31
0.0000
 6
CONTINUOUS
 0
LINE
 8
WHITE
 10
.72
 20
3.653
 30
0.0000
 11
.662999
 21
3.641999
 31
0.0000
 6
CONTINUOUS
 0
LINE
 8
WHITE
 10
.662999
 20
3.641999
 30
0.0000
 11
.615
 21
3.609999
 31
0.0000
 6
CONTINUOUS
 0
LINE
 8
WHITE
 10
.615
 20
3.609999
 30
0.0000
 11
.597999
 21
3.565
 31
0.0000
 6
CONTINUOUS
 0
LINE
 8
WHITE
 10
.597999
 20
3.565
 30
0.0000
 11
.629
 21
3.506999
 31
0.0000
 6
CONTINUOUS
 0
LINE
 8
WHITE
 10
.629
 20
3.506999
 30
0.0000
 11
.648
 21
3.490999
 31
0.0000
 6
CONTINUOUS
 0
LINE
 8
WHITE
 10
.648
 20
3.490999
 30
0.0000
 11
.657999
 21
3.492
 31
0.0000
 6
CONTINUOUS
 0
LINE
 8
WHITE
 10
.884999
 20
3.492
 30
0.0000
 11
.915
 21
3.438999
 31
0.0000
 6
CONTINUOUS
 0
LINE
 8
WHITE
 10
.915
 20
3.438999
 30
0.0000
 11
.935
 21
3.450999
 31
0.0000
 6
CONTINUOUS
 0
LINE
 8
WHITE
 10
.935
 20
3.450999
 30
0.0000
 11
.953999
 21
3.492
 31
0.0000
 6
CONTINUOUS
 0
LINE
 8
WHITE
 10
.953999
 20
3.492
 30
0.0000
 11
.954999
 21
3.522
 31
0.0000
 6
CONTINUOUS
 0
ARC
 8
WHITE
 10
.935
 20
3.5234
 30
 0
 40
.020048
 50
355.9958
 51
78.46531
 6
CONTINUOUS
 0
LINE
 8
WHITE
 10
.939
 20
3.542999
 30
0.0000
 11
.888
 21
3.551
 31
0.0000
 6
CONTINUOUS
 0
ARC
 8
WHITE
 10
.8855
 20
3.5309
 30
 0
 40
.020254
 50
82.91007
 51
135.8012
 6
CONTINUOUS
 0
LINE
 8
WHITE
 10
.870999
 20
3.545
 30
0.0000
 11
.851999
 21
3.526
 31
0.0000
 6
CONTINUOUS
 0
ARC
 8
WHITE
 10
.8668
 20
3.512799
 30
 0
 40
.019831
 50
138.2705
 51
179.4212
 6
CONTINUOUS
 0
LINE
 8
WHITE
 10
.847
 20
3.513
 30
0.0000
 11
.842999
 21
3.463999
 31
0.0000
 6
CONTINUOUS
 0
ARC
 8
WHITE
 10
.862999
 20
3.462399
 30
 0
 40
.020063
 50
175.4261
 51
246.5015
 6
CONTINUOUS
 0
LINE
 8
WHITE
 10
.855
 20
3.444
 30
0.0000
 11
.893999
 21
3.427999
 31
0.0000
 6
CONTINUOUS
 0
LINE
 8
WHITE
 10
.893999
 20
3.427999
 30
0.0000
 11
.915
 21
3.438999
 31
0.0000
 6
CONTINUOUS
 0
LINE
 8
WHITE
 10
.915
 20
3.438999
 30
0.0000
 11
.916999
 21
3.448999
 31
0.0000
 6
CONTINUOUS
 0
LINE
 8
WHITE
 10
.331999
 20
3.522
 30
0.0000
 11
.370999
 21
3.483
 31
0.0000
 6
CONTINUOUS
 0
LINE
 8
WHITE
 10
.370999
 20
3.483
 30
0.0000
 11
.367
 21
3.532999
 31
0.0000
 6
CONTINUOUS
 0
LINE
 8
WHITE
 10
.367
 20
3.532999
 30
0.0000
 11
.344
 21
3.654
 31
0.0000
 6
CONTINUOUS
 0
LINE
 8
WHITE
 10
.344
 20
3.654
 30
0.0000
 11
.291999
 21
3.861
 31
0.0000
 6
CONTINUOUS
 0
LINE
 8
WHITE
 10
.291999
 20
3.861
 30
0.0000
 11
.277
 21
3.944
 31
0.0000
 6
CONTINUOUS
 0
LINE
 8
WHITE
 10
.277
 20
3.944
 30
0.0000
 11
.25
 21
3.790999
 31
0.0000
 6
CONTINUOUS
 0
LINE
 8
WHITE
 10
.25
 20
3.790999
 30
0.0000
 11
.244
 21
3.707999
 31
0.0000
 6
CONTINUOUS
 0
LINE
 8
WHITE
 10
.244
 20
3.707999
 30
0.0000
 11
.254
 21
3.611999
 31
0.0000
 6
CONTINUOUS
 0
LINE
 8
WHITE
 10
.254
 20
3.611999
 30
0.0000
 11
.286
 21
3.490999
 31
0.0000
 6
CONTINUOUS
 0
LINE
 8
WHITE
 10
.286
 20
3.490999
 30
0.0000
 11
.326
 21
3.417999
 31
0.0000
 6
CONTINUOUS
 0
LINE
 8
WHITE
 10
.326
 20
3.417999
 30
0.0000
 11
.349
 21
3.352999
 31
0.0000
 6
CONTINUOUS
 0
LINE
 8
WHITE
 10
.349
 20
3.352999
 30
0.0000
 11
.363
 21
3.377
 31
0.0000
 6
CONTINUOUS
 0
LINE
 8
WHITE
 10
.363
 20
3.377
 30
0.0000
 11
.375999
 21
3.433
 31
0.0000
 6
CONTINUOUS
 0
LINE
 8
WHITE
 10
.375999
 20
3.433
 30
0.0000
 11
.370999
 21
3.483
 31
0.0000
 6
CONTINUOUS
 0
LINE
 8
WHITE
 10
.370999
 20
3.483
 30
0.0000
 11
.363999
 21
3.489
 31
0.0000
 6
CONTINUOUS
 0
LINE
 8
WHITE
 10
.535
 20
3.315999
 30
0.0000
 11
.569999
 21
3.253
 31
0.0000
 6
CONTINUOUS
 0
LINE
 8
WHITE
 10
.569999
 20
3.253
 30
0.0000
 11
.592999
 21
3.253
 31
0.0000
 6
CONTINUOUS
 0
LINE
 8
WHITE
 10
.592999
 20
3.253
 30
0.0000
 11
.572
 21
3.332
 31
0.0000
 6
CONTINUOUS
 0
LINE
 8
WHITE
 10
.572
 20
3.332
 30
0.0000
 11
.536
 21
3.395999
 31
0.0000
 6
CONTINUOUS
 0
LINE
 8
WHITE
 10
.536
 20
3.395999
 30
0.0000
 11
.513999
 21
3.413
 31
0.0000
 6
CONTINUOUS
 0
ARC
 8
WHITE
 10
.5018
 20
3.3972
 30
 0
 40
.019961
 50
52.3264
 51
147.265
 6
CONTINUOUS
 0
LINE
 8
WHITE
 10
.485
 20
3.407999
 30
0.0000
 11
.474
 21
3.391999
 31
0.0000
 6
CONTINUOUS
 0
LINE
 8
WHITE
 10
.474
 20
3.391999
 30
0.0000
 11
.465
 21
3.351
 31
0.0000
 6
CONTINUOUS
 0
LINE
 8
WHITE
 10
.465
 20
3.351
 30
0.0000
 11
.463999
 21
3.306999
 31
0.0000
 6
CONTINUOUS
 0
ARC
 8
WHITE
 10
.483999
 20
3.305899
 30
 0
 40
.02003
 50
176.8519
 51
243.3067
 6
CONTINUOUS
 0
LINE
 8
WHITE
 10
.474999
 20
3.288
 30
0.0000
 11
.547999
 21
3.253
 31
0.0000
 6
CONTINUOUS
 0
LINE
 8
WHITE
 10
.547999
 20
3.253
 30
0.0000
 11
.569999
 21
3.253
 31
0.0000
 6
CONTINUOUS
 0
LINE
 8
WHITE
 10
.569999
 20
3.253
 30
0.0000
 11
.577
 21
3.259999
 31
0.0000
 6
CONTINUOUS
 0
LINE
 8
WHITE
 10
.763999
 20
3.270999
 30
0.0000
 11
.802999
 21
3.233999
 31
0.0000
 6
CONTINUOUS
 0
LINE
 8
WHITE
 10
.802999
 20
3.233999
 30
0.0000
 11
.825999
 21
3.243
 31
0.0000
 6
CONTINUOUS
 0
LINE
 8
WHITE
 10
.825999
 20
3.243
 30
0.0000
 11
.845
 21
3.335999
 31
0.0000
 6
CONTINUOUS
 0
LINE
 8
WHITE
 10
.845
 20
3.335999
 30
0.0000
 11
.816999
 21
3.338
 31
0.0000
 6
CONTINUOUS
 0
LINE
 8
WHITE
 10
.816999
 20
3.338
 30
0.0000
 11
.768
 21
3.328999
 31
0.0000
 6
CONTINUOUS
 0
ARC
 8
WHITE
 10
.772
 20
3.309
 30
 0
 40
.020396
 50
101.3099
 51
168.6902
 6
CONTINUOUS
 0
LINE
 8
WHITE
 10
.751999
 20
3.312999
 30
0.0000
 11
.745
 21
3.275
 31
0.0000
 6
CONTINUOUS
 0
ARC
 8
WHITE
 10
.7649
 20
3.270699
 30
 0
 40
.020359
 50
167.807
 51
218.616
 6
CONTINUOUS
 0
LINE
 8
WHITE
 10
.749
 20
3.257999
 30
0.0000
 11
.778999
 21
3.223999
 31
0.0000
 6
CONTINUOUS
 0
LINE
 8
WHITE
 10
.778999
 20
3.223999
 30
0.0000
 11
.802999
 21
3.233999
 31
0.0000
 6
CONTINUOUS
 0
LINE
 8
WHITE
 10
.802999
 20
3.233999
 30
0.0000
 11
.805999
 21
3.243
 31
0.0000
 6
CONTINUOUS
 0
LINE
 8
WHITE
 10
.36
 20
3.270999
 30
0.0000
 11
.361
 21
3.197999
 31
0.0000
 6
CONTINUOUS
 0
LINE
 8
WHITE
 10
.361
 20
3.197999
 30
0.0000
 11
.351
 21
3.122999
 31
0.0000
 6
CONTINUOUS
 0
LINE
 8
WHITE
 10
.351
 20
3.122999
 30
0.0000
 11
.319999
 21
2.984999
 31
0.0000
 6
CONTINUOUS
 0
LINE
 8
WHITE
 10
.319999
 20
2.984999
 30
0.0000
 11
.298
 21
2.915999
 31
0.0000
 6
CONTINUOUS
 0
LINE
 8
WHITE
 10
.523999
 20
3.135999
 30
0.0000
 11
.469
 21
3.144
 31
0.0000
 6
CONTINUOUS
 0
LINE
 8
WHITE
 10
.469
 20
3.144
 30
0.0000
 11
.467
 21
3.115999
 31
0.0000
 6
CONTINUOUS
 0
LINE
 8
WHITE
 10
.467
 20
3.115999
 30
0.0000
 11
.493
 21
3.098
 31
0.0000
 6
CONTINUOUS
 0
LINE
 8
WHITE
 10
.493
 20
3.098
 30
0.0000
 11
.532999
 21
3.118
 31
0.0000
 6
CONTINUOUS
 0
ARC
 8
WHITE
 10
.524599
 20
3.1363
 30
 0
 40
.020135
 50
294.6559
 51
344.7198
 6
CONTINUOUS
 0
LINE
 8
WHITE
 10
.544
 20
3.131
 30
0.0000
 11
.552999
 21
3.163
 31
0.0000
 6
CONTINUOUS
 0
LINE
 8
WHITE
 10
.552999
 20
3.163
 30
0.0000
 11
.551999
 21
3.203999
 31
0.0000
 6
CONTINUOUS
 0
LINE
 8
WHITE
 10
.551999
 20
3.203999
 30
0.0000
 11
.538999
 21
3.207
 31
0.0000
 6
CONTINUOUS
 0
LINE
 8
WHITE
 10
.538999
 20
3.207
 30
0.0000
 11
.470999
 21
3.171999
 31
0.0000
 6
CONTINUOUS
 0
LINE
 8
WHITE
 10
.470999
 20
3.171999
 30
0.0000
 11
.469
 21
3.144
 31
0.0000
 6
CONTINUOUS
 0
LINE
 8
WHITE
 10
.469
 20
3.144
 30
0.0000
 11
.474999
 21
3.137
 31
0.0000
 6
CONTINUOUS
 0
LINE
 8
WHITE
 10
.722999
 20
3.085
 30
0.0000
 11
.73
 21
2.984999
 31
0.0000
 6
CONTINUOUS
 0
LINE
 8
WHITE
 10
.73
 20
2.984999
 30
0.0000
 11
.75
 21
2.986
 31
0.0000
 6
CONTINUOUS
 0
LINE
 8
WHITE
 10
.75
 20
2.986
 30
0.0000
 11
.767
 21
3.059999
 31
0.0000
 6
CONTINUOUS
 0
LINE
 8
WHITE
 10
.767
 20
3.059999
 30
0.0000
 11
.768
 21
3.115999
 31
0.0000
 6
CONTINUOUS
 0
LINE
 8
WHITE
 10
.768
 20
3.115999
 30
0.0000
 11
.722
 21
3.117
 31
0.0000
 6
CONTINUOUS
 0
LINE
 8
WHITE
 10
.722
 20
3.117
 30
0.0000
 11
.679
 21
3.094
 31
0.0000
 6
CONTINUOUS
 0
ARC
 8
WHITE
 10
.6891
 20
3.0766
 30
 0
 40
.020118
 50
120.1334
 51
184.5513
 6
CONTINUOUS
 0
LINE
 8
WHITE
 10
.669
 20
3.075
 30
0.0000
 11
.671999
 21
3.026999
 31
0.0000
 6
CONTINUOUS
 0
ARC
 8
WHITE
 10
.691999
 20
3.0283
 30
 0
 40
.020042
 50
183.719
 51
225.6076
 6
CONTINUOUS
 0
LINE
 8
WHITE
 10
.677999
 20
3.013999
 30
0.0000
 11
.709999
 21
2.983
 31
0.0000
 6
CONTINUOUS
 0
LINE
 8
WHITE
 10
.709999
 20
2.983
 30
0.0000
 11
.73
 21
2.984999
 31
0.0000
 6
CONTINUOUS
 0
LINE
 8
WHITE
 10
.73
 20
2.984999
 30
0.0000
 11
.736999
 21
2.993
 31
0.0000
 6
CONTINUOUS
 0
LINE
 8
WHITE
 10
.453999
 20
2.933
 30
0.0000
 11
.423
 21
2.869999
 31
0.0000
 6
CONTINUOUS
 0
LINE
 8
WHITE
 10
.423
 20
2.869999
 30
0.0000
 11
.446
 21
2.887
 31
0.0000
 6
CONTINUOUS
 0
LINE
 8
WHITE
 10
.446
 20
2.887
 30
0.0000
 11
.485
 21
2.944999
 31
0.0000
 6
CONTINUOUS
 0
LINE
 8
WHITE
 10
.485
 20
2.944999
 30
0.0000
 11
.488999
 21
2.956
 31
0.0000
 6
CONTINUOUS
 0
ARC
 8
WHITE
 10
.470899
 20
2.9637
 30
 0
 40
.019669
 50
336.9544
 51
101.424
 6
CONTINUOUS
 0
LINE
 8
WHITE
 10
.467
 20
2.983
 30
0.0000
 11
.458999
 21
2.982
 31
0.0000
 6
CONTINUOUS
 0
LINE
 8
WHITE
 10
.458999
 20
2.982
 30
0.0000
 11
.400999
 21
2.854
 31
0.0000
 6
CONTINUOUS
 0
LINE
 8
WHITE
 10
.400999
 20
2.854
 30
0.0000
 11
.423
 21
2.869999
 31
0.0000
 6
CONTINUOUS
 0
LINE
 8
WHITE
 10
.423
 20
2.869999
 30
0.0000
 11
.425
 21
2.88
 31
0.0000
 6
CONTINUOUS
 0
LINE
 8
WHITE
 10
.782
 20
2.832999
 30
0.0000
 11
.763
 21
2.799999
 31
0.0000
 6
CONTINUOUS
 0
LINE
 8
WHITE
 10
.763
 20
2.799999
 30
0.0000
 11
.783999
 21
2.809
 31
0.0000
 6
CONTINUOUS
 0
LINE
 8
WHITE
 10
.783999
 20
2.809
 30
0.0000
 11
.806999
 21
2.834
 31
0.0000
 6
CONTINUOUS
 0
LINE
 8
WHITE
 10
.806999
 20
2.834
 30
0.0000
 11
.808
 21
2.864
 31
0.0000
 6
CONTINUOUS
 0
LINE
 8
WHITE
 10
.808
 20
2.864
 30
0.0000
 11
.782999
 21
2.861
 31
0.0000
 6
CONTINUOUS
 0
LINE
 8
WHITE
 10
.782999
 20
2.861
 30
0.0000
 11
.741999
 21
2.792
 31
0.0000
 6
CONTINUOUS
 0
LINE
 8
WHITE
 10
.741999
 20
2.792
 30
0.0000
 11
.763
 21
2.799999
 31
0.0000
 6
CONTINUOUS
 0
LINE
 8
WHITE
 10
.763
 20
2.799999
 30
0.0000
 11
.767
 21
2.809999
 31
0.0000
 6
CONTINUOUS
 0
LINE
 8
WHITE
 10
.630999
 20
2.861
 30
0.0000
 11
.592
 21
2.907
 31
0.0000
 6
CONTINUOUS
 0
LINE
 8
WHITE
 10
.592
 20
2.907
 30
0.0000
 11
.583
 21
2.892999
 31
0.0000
 6
CONTINUOUS
 0
LINE
 8
WHITE
 10
.583
 20
2.892999
 30
0.0000
 11
.569999
 21
2.826999
 31
0.0000
 6
CONTINUOUS
 0
LINE
 8
WHITE
 10
.569999
 20
2.826999
 30
0.0000
 11
.574999
 21
2.767999
 31
0.0000
 6
CONTINUOUS
 0
LINE
 8
WHITE
 10
.574999
 20
2.767999
 30
0.0000
 11
.611
 21
2.733
 31
0.0000
 6
CONTINUOUS
 0
LINE
 8
WHITE
 10
.611
 20
2.733
 30
0.0000
 11
.637
 21
2.730999
 31
0.0000
 6
CONTINUOUS
 0
LINE
 8
WHITE
 10
.637
 20
2.730999
 30
0.0000
 11
.653999
 21
2.756
 31
0.0000
 6
CONTINUOUS
 0
LINE
 8
WHITE
 10
.653999
 20
2.756
 30
0.0000
 11
.653999
 21
2.808
 31
0.0000
 6
CONTINUOUS
 0
LINE
 8
WHITE
 10
.653999
 20
2.808
 30
0.0000
 11
.690999
 21
2.897
 31
0.0000
 6
CONTINUOUS
 0
LINE
 8
WHITE
 10
.690999
 20
2.897
 30
0.0000
 11
.667999
 21
2.924999
 31
0.0000
 6
CONTINUOUS
 0
LINE
 8
WHITE
 10
.667999
 20
2.924999
 30
0.0000
 11
.601999
 21
2.921
 31
0.0000
 6
CONTINUOUS
 0
LINE
 8
WHITE
 10
.601999
 20
2.921
 30
0.0000
 11
.592
 21
2.907
 31
0.0000
 6
CONTINUOUS
 0
LINE
 8
WHITE
 10
.592
 20
2.907
 30
0.0000
 11
.593999
 21
2.897
 31
0.0000
 6
CONTINUOUS
 0
LINE
 8
WHITE
 10
.907
 20
2.822999
 30
0.0000
 11
.987999
 21
3.147
 31
0.0000
 6
CONTINUOUS
 0
LINE
 8
WHITE
 10
.987999
 20
3.147
 30
0.0000
 11
.996999
 21
3.233
 31
0.0000
 6
CONTINUOUS
 0
LINE
 8
WHITE
 10
.996999
 20
3.233
 30
0.0000
 11
1.014
 21
3.315
 31
0.0000
 6
CONTINUOUS
 0
LINE
 8
WHITE
 10
1.014
 20
3.315
 30
0.0000
 11
1.067
 21
3.470999
 31
0.0000
 6
CONTINUOUS
 0
LINE
 8
WHITE
 10
1.067
 20
3.470999
 30
0.0000
 11
1.195999
 21
3.763999
 31
0.0000
 6
CONTINUOUS
 0
LINE
 8
WHITE
 10
1.195999
 20
3.763999
 30
0.0000
 11
1.243999
 21
3.908999
 31
0.0000
 6
CONTINUOUS
 0
LINE
 8
WHITE
 10
1.243999
 20
3.908999
 30
0.0000
 11
1.258999
 21
3.983
 31
0.0000
 6
CONTINUOUS
 0
LINE
 8
WHITE
 10
1.258999
 20
3.983
 30
0.0000
 11
1.276
 21
4.188
 31
0.0000
 6
CONTINUOUS
 0
LINE
 8
WHITE
 10
1.276
 20
4.188
 30
0.0000
 11
1.276
 21
4.283999
 31
0.0000
 6
CONTINUOUS
 0
LINE
 8
WHITE
 10
1.276
 20
4.283999
 30
0.0000
 11
1.268
 21
4.370999
 31
0.0000
 6
CONTINUOUS
 0
LINE
 8
WHITE
 10
1.268
 20
4.370999
 30
0.0000
 11
1.268
 21
4.469999
 31
0.0000
 6
CONTINUOUS
 0
LINE
 8
WHITE
 10
1.268
 20
4.469999
 30
0.0000
 11
1.261
 21
4.557
 31
0.0000
 6
CONTINUOUS
 0
LINE
 8
WHITE
 10
.479999
 20
2.760999
 30
0.0000
 11
.49
 21
2.746
 31
0.0000
 6
CONTINUOUS
 0
LINE
 8
WHITE
 10
.49
 20
2.746
 30
0.0000
 11
.501999
 21
2.767999
 31
0.0000
 6
CONTINUOUS
 0
LINE
 8
WHITE
 10
.501999
 20
2.767999
 30
0.0000
 11
.495999
 21
2.792999
 31
0.0000
 6
CONTINUOUS
 0
LINE
 8
WHITE
 10
.495999
 20
2.792999
 30
0.0000
 11
.469999
 21
2.778
 31
0.0000
 6
CONTINUOUS
 0
ARC
 8
WHITE
 10
.479999
 20
2.761
 30
 0
 40
.019723
 50
120.4655
 51
210.4661
 6
CONTINUOUS
 0
LINE
 8
WHITE
 10
.462999
 20
2.750999
 30
0.0000
 11
.477999
 21
2.723999
 31
0.0000
 6
CONTINUOUS
 0
LINE
 8
WHITE
 10
.477999
 20
2.723999
 30
0.0000
 11
.49
 21
2.746
 31
0.0000
 6
CONTINUOUS
 0
LINE
 8
WHITE
 10
.49
 20
2.746
 30
0.0000
 11
.486999
 21
2.755
 31
0.0000
 6
CONTINUOUS
 0
LINE
 8
WHITE
 10
.916999
 20
2.540999
 30
0.0000
 11
.893999
 21
2.494999
 31
0.0000
 6
CONTINUOUS
 0
LINE
 8
WHITE
 10
.893999
 20
2.494999
 30
0.0000
 11
.906
 21
2.492
 31
0.0000
 6
CONTINUOUS
 0
LINE
 8
WHITE
 10
.906
 20
2.492
 30
0.0000
 11
.987999
 21
2.546
 31
0.0000
 6
CONTINUOUS
 0
LINE
 8
WHITE
 10
.987999
 20
2.546
 30
0.0000
 11
1.019999
 21
2.528
 31
0.0000
 6
CONTINUOUS
 0
LINE
 8
WHITE
 10
1.019999
 20
2.528
 30
0.0000
 11
1.054
 21
2.530999
 31
0.0000
 6
CONTINUOUS
 0
ARC
 8
WHITE
 10
1.0511
 20
2.550899
 30
 0
 40
.02011
 50
278.2913
 51
327.179
 6
CONTINUOUS
 0
LINE
 8
WHITE
 10
1.067999
 20
2.539999
 30
0.0000
 11
1.095999
 21
2.582
 31
0.0000
 6
CONTINUOUS
 0
ARC
 8
WHITE
 10
1.078399
 20
2.592
 30
 0
 40
.020242
 50
330.3955
 51
14.31059
 6
CONTINUOUS
 0
LINE
 8
WHITE
 10
1.098
 20
2.596999
 30
0.0000
 11
1.092
 21
2.628
 31
0.0000
 6
CONTINUOUS
 0
LINE
 8
WHITE
 10
1.092
 20
2.628
 30
0.0000
 11
1.059
 21
2.641
 31
0.0000
 6
CONTINUOUS
 0
LINE
 8
WHITE
 10
1.059
 20
2.641
 30
0.0000
 11
1.044999
 21
2.592999
 31
0.0000
 6
CONTINUOUS
 0
ARC
 8
WHITE
 10
1.025799
 20
2.598199
 30
 0
 40
.019891
 50
285.1543
 51
344.8459
 6
CONTINUOUS
 0
LINE
 8
WHITE
 10
1.031
 20
2.578999
 30
0.0000
 11
.957
 21
2.556999
 31
0.0000
 6
CONTINUOUS
 0
LINE
 8
WHITE
 10
.957
 20
2.556999
 30
0.0000
 11
.917999
 21
2.561
 31
0.0000
 6
CONTINUOUS
 0
ARC
 8
WHITE
 10
.917199
 20
2.540899
 30
 0
 40
.020115
 50
87.72077
 51
162.3746
 6
CONTINUOUS
 0
LINE
 8
WHITE
 10
.898
 20
2.546999
 30
0.0000
 11
.882
 21
2.499
 31
0.0000
 6
CONTINUOUS
 0
LINE
 8
WHITE
 10
.882
 20
2.499
 30
0.0000
 11
.893999
 21
2.494999
 31
0.0000
 6
CONTINUOUS
 0
LINE
 8
WHITE
 10
.893999
 20
2.494999
 30
0.0000
 11
.902999
 21
2.5
 31
0.0000
 6
CONTINUOUS
 0
LINE
 8
WHITE
 10
.634
 20
2.549999
 30
0.0000
 11
.593999
 21
2.532
 31
0.0000
 6
CONTINUOUS
 0
LINE
 8
WHITE
 10
.593999
 20
2.532
 30
0.0000
 11
.601999
 21
2.515
 31
0.0000
 6
CONTINUOUS
 0
LINE
 8
WHITE
 10
.601999
 20
2.515
 30
0.0000
 11
.629
 21
2.509
 31
0.0000
 6
CONTINUOUS
 0
LINE
 8
WHITE
 10
.629
 20
2.509
 30
0.0000
 11
.651
 21
2.538
 31
0.0000
 6
CONTINUOUS
 0
ARC
 8
WHITE
 10
.634
 20
2.5485
 30
 0
 40
.019981
 50
328.2986
 51
1.431993
 6
CONTINUOUS
 0
LINE
 8
WHITE
 10
.653999
 20
2.549
 30
0.0000
 11
.657999
 21
2.608999
 31
0.0000
 6
CONTINUOUS
 0
LINE
 8
WHITE
 10
.657999
 20
2.608999
 30
0.0000
 11
.649999
 21
2.637
 31
0.0000
 6
CONTINUOUS
 0
LINE
 8
WHITE
 10
.649999
 20
2.637
 30
0.0000
 11
.587
 21
2.549999
 31
0.0000
 6
CONTINUOUS
 0
LINE
 8
WHITE
 10
.587
 20
2.549999
 30
0.0000
 11
.593999
 21
2.532
 31
0.0000
 6
CONTINUOUS
 0
LINE
 8
WHITE
 10
.593999
 20
2.532
 30
0.0000
 11
.603999
 21
2.529
 31
0.0000
 6
CONTINUOUS
 0
LINE
 8
WHITE
 10
.393
 20
2.530999
 30
0.0000
 11
.444999
 21
2.482
 31
0.0000
 6
CONTINUOUS
 0
LINE
 8
WHITE
 10
.444999
 20
2.482
 30
0.0000
 11
.453
 21
2.496999
 31
0.0000
 6
CONTINUOUS
 0
LINE
 8
WHITE
 10
.453
 20
2.496999
 30
0.0000
 11
.453
 21
2.532
 31
0.0000
 6
CONTINUOUS
 0
LINE
 8
WHITE
 10
.453
 20
2.532
 30
0.0000
 11
.416
 21
2.607
 31
0.0000
 6
CONTINUOUS
 0
LINE
 8
WHITE
 10
.416
 20
2.607
 30
0.0000
 11
.363
 21
2.658999
 31
0.0000
 6
CONTINUOUS
 0
ARC
 8
WHITE
 10
.3492
 20
2.644799
 30
 0
 40
.019801
 50
45.81845
 51
75.96384
 6
CONTINUOUS
 0
LINE
 8
WHITE
 10
.354
 20
2.664
 30
0.0000
 11
.347
 21
2.665999
 31
0.0000
 6
CONTINUOUS
 0
ARC
 8
WHITE
 10
.341899
 20
2.646699
 30
 0
 40
.019962
 50
75.19801
 51
182.0146
 6
CONTINUOUS
 0
LINE
 8
WHITE
 10
.321999
 20
2.645999
 30
0.0000
 11
.323
 21
2.622999
 31
0.0000
 6
CONTINUOUS
 0
LINE
 8
WHITE
 10
.323
 20
2.622999
 30
0.0000
 11
.367
 21
2.5
 31
0.0000
 6
CONTINUOUS
 0
ARC
 8
WHITE
 10
.3864
 20
2.505899
 30
 0
 40
.020277
 50
196.9158
 51
248.6178
 6
CONTINUOUS
 0
LINE
 8
WHITE
 10
.379
 20
2.486999
 30
0.0000
 11
.437
 21
2.467999
 31
0.0000
 6
CONTINUOUS
 0
LINE
 8
WHITE
 10
.437
 20
2.467999
 30
0.0000
 11
.444999
 21
2.482
 31
0.0000
 6
CONTINUOUS
 0
LINE
 8
WHITE
 10
.444999
 20
2.482
 30
0.0000
 11
.442
 21
2.492
 31
0.0000
 6
CONTINUOUS
 0
LINE
 8
WHITE
 10
.907
 20
2.358999
 30
0.0000
 11
.927999
 21
2.342999
 31
0.0000
 6
CONTINUOUS
 0
LINE
 8
WHITE
 10
.927999
 20
2.342999
 30
0.0000
 11
.941999
 21
2.361999
 31
0.0000
 6
CONTINUOUS
 0
LINE
 8
WHITE
 10
.941999
 20
2.361999
 30
0.0000
 11
.908999
 21
2.371
 31
0.0000
 6
CONTINUOUS
 0
LINE
 8
WHITE
 10
.908999
 20
2.371
 30
0.0000
 11
.899999
 21
2.325999
 31
0.0000
 6
CONTINUOUS
 0
LINE
 8
WHITE
 10
.899999
 20
2.325999
 30
0.0000
 11
.915
 21
2.325
 31
0.0000
 6
CONTINUOUS
 0
LINE
 8
WHITE
 10
.915
 20
2.325
 30
0.0000
 11
.927999
 21
2.342999
 31
0.0000
 6
CONTINUOUS
 0
LINE
 8
WHITE
 10
.927999
 20
2.342999
 30
0.0000
 11
.926999
 21
2.352999
 31
0.0000
 6
CONTINUOUS
 0
LINE
 8
WHITE
 10
.261999
 20
2.292999
 30
0.0000
 11
.261999
 21
2.288
 31
0.0000
 6
CONTINUOUS
 0
LINE
 8
WHITE
 10
.261999
 20
2.288
 30
0.0000
 11
.287
 21
2.290999
 31
0.0000
 6
CONTINUOUS
 0
LINE
 8
WHITE
 10
.287
 20
2.290999
 30
0.0000
 11
.307999
 21
2.325999
 31
0.0000
 6
CONTINUOUS
 0
LINE
 8
WHITE
 10
.307999
 20
2.325999
 30
0.0000
 11
.291999
 21
2.359999
 31
0.0000
 6
CONTINUOUS
 0
LINE
 8
WHITE
 10
.291999
 20
2.359999
 30
0.0000
 11
.240999
 21
2.348999
 31
0.0000
 6
CONTINUOUS
 0
LINE
 8
WHITE
 10
.240999
 20
2.348999
 30
0.0000
 11
.229
 21
2.313999
 31
0.0000
 6
CONTINUOUS
 0
LINE
 8
WHITE
 10
.229
 20
2.313999
 30
0.0000
 11
.238
 21
2.285
 31
0.0000
 6
CONTINUOUS
 0
LINE
 8
WHITE
 10
.238
 20
2.285
 30
0.0000
 11
.261999
 21
2.288
 31
0.0000
 6
CONTINUOUS
 0
LINE
 8
WHITE
 10
.261999
 20
2.288
 30
0.0000
 11
.268
 21
2.296
 31
0.0000
 6
CONTINUOUS
 0
LINE
 8
WHITE
 10
.490999
 20
2.313999
 30
0.0000
 11
.505999
 21
2.299
 31
0.0000
 6
CONTINUOUS
 0
LINE
 8
WHITE
 10
.505999
 20
2.299
 30
0.0000
 11
.541999
 21
2.336999
 31
0.0000
 6
CONTINUOUS
 0
LINE
 8
WHITE
 10
.541999
 20
2.336999
 30
0.0000
 11
.582
 21
2.341
 31
0.0000
 6
CONTINUOUS
 0
LINE
 8
WHITE
 10
.582
 20
2.341
 30
0.0000
 11
.611999
 21
2.369999
 31
0.0000
 6
CONTINUOUS
 0
LINE
 8
WHITE
 10
.611999
 20
2.369999
 30
0.0000
 11
.598999
 21
2.417999
 31
0.0000
 6
CONTINUOUS
 0
LINE
 8
WHITE
 10
.598999
 20
2.417999
 30
0.0000
 11
.512
 21
2.418999
 31
0.0000
 6
CONTINUOUS
 0
LINE
 8
WHITE
 10
.512
 20
2.418999
 30
0.0000
 11
.465
 21
2.388999
 31
0.0000
 6
CONTINUOUS
 0
LINE
 8
WHITE
 10
.465
 20
2.388999
 30
0.0000
 11
.437999
 21
2.335999
 31
0.0000
 6
CONTINUOUS
 0
LINE
 8
WHITE
 10
.437999
 20
2.335999
 30
0.0000
 11
.432
 21
2.289
 31
0.0000
 6
CONTINUOUS
 0
LINE
 8
WHITE
 10
.432
 20
2.289
 30
0.0000
 11
.469999
 21
2.260999
 31
0.0000
 6
CONTINUOUS
 0
LINE
 8
WHITE
 10
.469999
 20
2.260999
 30
0.0000
 11
.505999
 21
2.299
 31
0.0000
 6
CONTINUOUS
 0
LINE
 8
WHITE
 10
.505999
 20
2.299
 30
0.0000
 11
.505999
 21
2.309
 31
0.0000
 6
CONTINUOUS
 0
LINE
 8
WHITE
 10
.629999
 20
2.273
 30
0.0000
 11
.570999
 21
2.117
 31
0.0000
 6
CONTINUOUS
 0
LINE
 8
WHITE
 10
.570999
 20
2.117
 30
0.0000
 11
.509
 21
2.019999
 31
0.0000
 6
CONTINUOUS
 0
LINE
 8
WHITE
 10
.34
 20
2.069999
 30
0.0000
 11
.358999
 21
2.015
 31
0.0000
 6
CONTINUOUS
 0
LINE
 8
WHITE
 10
.358999
 20
2.015
 30
0.0000
 11
.384
 21
2.039999
 31
0.0000
 6
CONTINUOUS
 0
LINE
 8
WHITE
 10
.384
 20
2.039999
 30
0.0000
 11
.382999
 21
2.108999
 31
0.0000
 6
CONTINUOUS
 0
ARC
 8
WHITE
 10
.362999
 20
2.108799
 30
 0
 40
.02
 50
.572938
 51
41.34784
 6
CONTINUOUS
 0
LINE
 8
WHITE
 10
.377999
 20
2.121999
 30
0.0000
 11
.36
 21
2.142999
 31
0.0000
 6
CONTINUOUS
 0
ARC
 8
WHITE
 10
.3444
 20
2.130799
 30
 0
 40
.019804
 50
38.02723
 51
145.6693
 6
CONTINUOUS
 0
LINE
 8
WHITE
 10
.328
 20
2.141999
 30
0.0000
 11
.31
 21
2.115999
 31
0.0000
 6
CONTINUOUS
 0
LINE
 8
WHITE
 10
.31
 20
2.115999
 30
0.0000
 11
.300999
 21
2.059999
 31
0.0000
 6
CONTINUOUS
 0
ARC
 8
WHITE
 10
.321
 20
2.056999
 30
 0
 40
.020223
 50
171.4692
 51
206.5646
 6
CONTINUOUS
 0
LINE
 8
WHITE
 10
.303
 20
2.048
 30
0.0000
 11
.335
 21
1.99
 31
0.0000
 6
CONTINUOUS
 0
LINE
 8
WHITE
 10
.335
 20
1.99
 30
0.0000
 11
.358999
 21
2.015
 31
0.0000
 6
CONTINUOUS
 0
LINE
 8
WHITE
 10
.358999
 20
2.015
 30
0.0000
 11
.358999
 21
2.025
 31
0.0000
 6
CONTINUOUS
 0
LINE
 8
WHITE
 10
.279
 20
1.838999
 30
0.0000
 11
.232999
 21
1.868
 31
0.0000
 6
CONTINUOUS
 0
LINE
 8
WHITE
 10
.232999
 20
1.868
 30
0.0000
 11
.219999
 21
1.848
 31
0.0000
 6
CONTINUOUS
 0
LINE
 8
WHITE
 10
.219999
 20
1.848
 30
0.0000
 11
.284
 21
1.763
 31
0.0000
 6
CONTINUOUS
 0
LINE
 8
WHITE
 10
.284
 20
1.763
 30
0.0000
 11
.300999
 21
1.769
 31
0.0000
 6
CONTINUOUS
 0
LINE
 8
WHITE
 10
.300999
 20
1.769
 30
0.0000
 11
.312999
 21
1.804
 31
0.0000
 6
CONTINUOUS
 0
LINE
 8
WHITE
 10
.312999
 20
1.804
 30
0.0000
 11
.312999
 21
1.858
 31
0.0000
 6
CONTINUOUS
 0
LINE
 8
WHITE
 10
.312999
 20
1.858
 30
0.0000
 11
.289999
 21
1.889
 31
0.0000
 6
CONTINUOUS
 0
LINE
 8
WHITE
 10
.289999
 20
1.889
 30
0.0000
 11
.245
 21
1.888
 31
0.0000
 6
CONTINUOUS
 0
LINE
 8
WHITE
 10
.245
 20
1.888
 30
0.0000
 11
.232999
 21
1.868
 31
0.0000
 6
CONTINUOUS
 0
LINE
 8
WHITE
 10
.232999
 20
1.868
 30
0.0000
 11
.234999
 21
1.858
 31
0.0000
 6
CONTINUOUS
 0
LINE
 8
WHITE
 10
.231999
 20
1.657999
 30
0.0000
 11
.211999
 21
1.666
 31
0.0000
 6
CONTINUOUS
 0
LINE
 8
WHITE
 10
.211999
 20
1.666
 30
0.0000
 11
.218999
 21
1.649999
 31
0.0000
 6
CONTINUOUS
 0
LINE
 8
WHITE
 10
.218999
 20
1.649999
 30
0.0000
 11
.215
 21
1.62
 31
0.0000
 6
CONTINUOUS
 0
LINE
 8
WHITE
 10
.215
 20
1.62
 30
0.0000
 11
.234999
 21
1.603
 31
0.0000
 6
CONTINUOUS
 0
LINE
 8
WHITE
 10
.234999
 20
1.603
 30
0.0000
 11
.248999
 21
1.666
 31
0.0000
 6
CONTINUOUS
 0
LINE
 8
WHITE
 10
.248999
 20
1.666
 30
0.0000
 11
.23
 21
1.69
 31
0.0000
 6
CONTINUOUS
 0
LINE
 8
WHITE
 10
.23
 20
1.69
 30
0.0000
 11
.206
 21
1.682
 31
0.0000
 6
CONTINUOUS
 0
LINE
 8
WHITE
 10
.206
 20
1.682
 30
0.0000
 11
.211999
 21
1.666
 31
0.0000
 6
CONTINUOUS
 0
LINE
 8
WHITE
 10
.211999
 20
1.666
 30
0.0000
 11
.222
 21
1.661999
 31
0.0000
 6
CONTINUOUS
 0
LINE
 8
WHITE
 10
.263
 20
1.46
 30
0.0000
 11
.243
 21
1.468
 31
0.0000
 6
CONTINUOUS
 0
LINE
 8
WHITE
 10
.243
 20
1.468
 30
0.0000
 11
.232999
 21
1.444
 31
0.0000
 6
CONTINUOUS
 0
LINE
 8
WHITE
 10
.232999
 20
1.444
 30
0.0000
 11
.261999
 21
1.414999
 31
0.0000
 6
CONTINUOUS
 0
LINE
 8
WHITE
 10
.261999
 20
1.414999
 30
0.0000
 11
.284999
 21
1.432
 31
0.0000
 6
CONTINUOUS
 0
LINE
 8
WHITE
 10
.284999
 20
1.432
 30
0.0000
 11
.275
 21
1.485
 31
0.0000
 6
CONTINUOUS
 0
LINE
 8
WHITE
 10
.275
 20
1.485
 30
0.0000
 11
.252999
 21
1.491999
 31
0.0000
 6
CONTINUOUS
 0
LINE
 8
WHITE
 10
.252999
 20
1.491999
 30
0.0000
 11
.243
 21
1.468
 31
0.0000
 6
CONTINUOUS
 0
LINE
 8
WHITE
 10
.243
 20
1.468
 30
0.0000
 11
.246999
 21
1.458999
 31
0.0000
 6
CONTINUOUS
 0
LINE
 8
WHITE
 10
.652999
 20
1.218
 30
0.0000
 11
.68
 21
1.131
 31
0.0000
 6
CONTINUOUS
 0
LINE
 8
WHITE
 10
.193
 20
.054999
 30
0.0000
 11
.225999
 21
.096
 31
0.0000
 6
CONTINUOUS
 0
LINE
 8
WHITE
 10
.225999
 20
.096
 30
0.0000
 11
.270999
 21
.130999
 31
0.0000
 6
CONTINUOUS
 0
LINE
 8
WHITE
 10
.270999
 20
.130999
 30
0.0000
 11
.354999
 21
.155
 31
0.0000
 6
CONTINUOUS
 0
LINE
 8
WHITE
 10
.375999
 20
.029999
 30
0.0000
 11
.342999
 21
.098999
 31
0.0000
 6
CONTINUOUS
 0
LINE
 8
WHITE
 10
.342999
 20
.098999
 30
0.0000
 11
.326
 21
.115999
 31
0.0000
 6
CONTINUOUS
 0
LINE
 8
WHITE
 10
1.799999
 20
.305999
 30
0.0000
 11
1.84
 21
.238
 31
0.0000
 6
CONTINUOUS
 0
LINE
 8
WHITE
 10
1.799
 20
.342999
 30
0.0000
 11
1.717
 21
.317
 31
0.0000
 6
CONTINUOUS
 0
LINE
 8
WHITE
 10
1.717
 20
.317
 30
0.0000
 11
1.679
 21
.282
 31
0.0000
 6
CONTINUOUS
 0
LINE
 8
WHITE
 10
1.679
 20
.282
 30
0.0000
 11
1.664
 21
.254999
 31
0.0000
 6
CONTINUOUS
 0
LINE
 8
WHITE
 10
1.25
 20
1.567999
 30
0.0000
 11
1.248
 21
1.603999
 31
0.0000
 6
CONTINUOUS
 0
LINE
 8
WHITE
 10
1.248
 20
1.603999
 30
0.0000
 11
1.236999
 21
1.598
 31
0.0000
 6
CONTINUOUS
 0
LINE
 8
WHITE
 10
1.236999
 20
1.598
 30
0.0000
 11
1.215999
 21
1.559999
 31
0.0000
 6
CONTINUOUS
 0
LINE
 8
WHITE
 10
1.215999
 20
1.559999
 30
0.0000
 11
1.230999
 21
1.524999
 31
0.0000
 6
CONTINUOUS
 0
LINE
 8
WHITE
 10
1.230999
 20
1.524999
 30
0.0000
 11
1.248999
 21
1.519
 31
0.0000
 6
CONTINUOUS
 0
LINE
 8
WHITE
 10
1.248999
 20
1.519
 30
0.0000
 11
1.269999
 21
1.544
 31
0.0000
 6
CONTINUOUS
 0
LINE
 8
WHITE
 10
1.269999
 20
1.544
 30
0.0000
 11
1.274
 21
1.597
 31
0.0000
 6
CONTINUOUS
 0
LINE
 8
WHITE
 10
1.274
 20
1.597
 30
0.0000
 11
1.258999
 21
1.61
 31
0.0000
 6
CONTINUOUS
 0
LINE
 8
WHITE
 10
1.258999
 20
1.61
 30
0.0000
 11
1.248
 21
1.603999
 31
0.0000
 6
CONTINUOUS
 0
LINE
 8
WHITE
 10
1.248
 20
1.603999
 30
0.0000
 11
1.246
 21
1.595
 31
0.0000
 6
CONTINUOUS
 0
LINE
 8
WHITE
 10
1.171
 20
1.703999
 30
0.0000
 11
1.144
 21
1.710999
 31
0.0000
 6
CONTINUOUS
 0
LINE
 8
WHITE
 10
1.144
 20
1.710999
 30
0.0000
 11
1.139999
 21
1.692999
 31
0.0000
 6
CONTINUOUS
 0
LINE
 8
WHITE
 10
1.139999
 20
1.692999
 30
0.0000
 11
1.182999
 21
1.664
 31
0.0000
 6
CONTINUOUS
 0
LINE
 8
WHITE
 10
1.182999
 20
1.664
 30
0.0000
 11
1.195999
 21
1.690999
 31
0.0000
 6
CONTINUOUS
 0
LINE
 8
WHITE
 10
1.195999
 20
1.690999
 30
0.0000
 11
1.184999
 21
1.718
 31
0.0000
 6
CONTINUOUS
 0
LINE
 8
WHITE
 10
1.184999
 20
1.718
 30
0.0000
 11
1.148
 21
1.728999
 31
0.0000
 6
CONTINUOUS
 0
LINE
 8
WHITE
 10
1.148
 20
1.728999
 30
0.0000
 11
1.144
 21
1.710999
 31
0.0000
 6
CONTINUOUS
 0
LINE
 8
WHITE
 10
1.144
 20
1.710999
 30
0.0000
 11
1.149999
 21
1.702
 31
0.0000
 6
CONTINUOUS
 0
LINE
 8
WHITE
 10
1.213
 20
1.842
 30
0.0000
 11
1.2
 21
1.835
 31
0.0000
 6
CONTINUOUS
 0
LINE
 8
WHITE
 10
1.2
 20
1.835
 30
0.0000
 11
1.213
 21
1.842
 31
0.0000
 6
CONTINUOUS
 0
LINE
 8
WHITE
 10
1.213
 20
1.842
 30
0.0000
 11
1.203999
 21
1.894
 31
0.0000
 6
CONTINUOUS
 0
LINE
 8
WHITE
 10
1.203999
 20
1.894
 30
0.0000
 11
1.174999
 21
1.898
 31
0.0000
 6
CONTINUOUS
 0
LINE
 8
WHITE
 10
1.174999
 20
1.898
 30
0.0000
 11
1.185999
 21
1.827
 31
0.0000
 6
CONTINUOUS
 0
LINE
 8
WHITE
 10
1.185999
 20
1.827
 30
0.0000
 11
1.2
 21
1.835
 31
0.0000
 6
CONTINUOUS
 0
LINE
 8
WHITE
 10
1.2
 20
1.835
 30
0.0000
 11
1.202
 21
1.843999
 31
0.0000
 6
CONTINUOUS
 0
LINE
 8
WHITE
 10
1.097
 20
1.981999
 30
0.0000
 11
1.078999
 21
1.945
 31
0.0000
 6
CONTINUOUS
 0
LINE
 8
WHITE
 10
1.078999
 20
1.945
 30
0.0000
 11
1.090999
 21
1.932
 31
0.0000
 6
CONTINUOUS
 0
LINE
 8
WHITE
 10
1.090999
 20
1.932
 30
0.0000
 11
1.133
 21
1.972
 31
0.0000
 6
CONTINUOUS
 0
LINE
 8
WHITE
 10
1.133
 20
1.972
 30
0.0000
 11
1.123
 21
1.993
 31
0.0000
 6
CONTINUOUS
 0
LINE
 8
WHITE
 10
1.123
 20
1.993
 30
0.0000
 11
1.08
 21
1.991
 31
0.0000
 6
CONTINUOUS
 0
LINE
 8
WHITE
 10
1.08
 20
1.991
 30
0.0000
 11
1.067
 21
1.957
 31
0.0000
 6
CONTINUOUS
 0
LINE
 8
WHITE
 10
1.067
 20
1.957
 30
0.0000
 11
1.078999
 21
1.945
 31
0.0000
 6
CONTINUOUS
 0
LINE
 8
WHITE
 10
1.078999
 20
1.945
 30
0.0000
 11
1.088999
 21
1.945
 31
0.0000
 6
CONTINUOUS
 0
LINE
 8
WHITE
 10
1.171
 20
2.142999
 30
0.0000
 11
1.174
 21
2.115
 31
0.0000
 6
CONTINUOUS
 0
LINE
 8
WHITE
 10
1.174
 20
2.115
 30
0.0000
 11
1.190999
 21
2.121
 31
0.0000
 6
CONTINUOUS
 0
LINE
 8
WHITE
 10
1.190999
 20
2.121
 30
0.0000
 11
1.190999
 21
2.168999
 31
0.0000
 6
CONTINUOUS
 0
LINE
 8
WHITE
 10
1.190999
 20
2.168999
 30
0.0000
 11
1.159999
 21
2.171999
 31
0.0000
 6
CONTINUOUS
 0
LINE
 8
WHITE
 10
1.159999
 20
2.171999
 30
0.0000
 11
1.156999
 21
2.108999
 31
0.0000
 6
CONTINUOUS
 0
LINE
 8
WHITE
 10
1.156999
 20
2.108999
 30
0.0000
 11
1.174
 21
2.115
 31
0.0000
 6
CONTINUOUS
 0
LINE
 8
WHITE
 10
1.174
 20
2.115
 30
0.0000
 11
1.177999
 21
2.124
 31
0.0000
 6
CONTINUOUS
 0
LINE
 8
WHITE
 10
1.003
 20
2.154
 30
0.0000
 11
1.024999
 21
2.131
 31
0.0000
 6
CONTINUOUS
 0
LINE
 8
WHITE
 10
1.024999
 20
2.131
 30
0.0000
 11
1.042999
 21
2.134
 31
0.0000
 6
CONTINUOUS
 0
LINE
 8
WHITE
 10
1.042999
 20
2.134
 30
0.0000
 11
1.042
 21
2.148
 31
0.0000
 6
CONTINUOUS
 0
LINE
 8
WHITE
 10
1.042
 20
2.148
 30
0.0000
 11
1
 21
2.18
 31
0.0000
 6
CONTINUOUS
 0
LINE
 8
WHITE
 10
1
 20
2.18
 30
0.0000
 11
.967999
 21
2.174
 31
0.0000
 6
CONTINUOUS
 0
LINE
 8
WHITE
 10
.967999
 20
2.174
 30
0.0000
 11
.964999
 21
2.153
 31
0.0000
 6
CONTINUOUS
 0
LINE
 8
WHITE
 10
.964999
 20
2.153
 30
0.0000
 11
1.006
 21
2.128
 31
0.0000
 6
CONTINUOUS
 0
LINE
 8
WHITE
 10
1.006
 20
2.128
 30
0.0000
 11
1.024999
 21
2.131
 31
0.0000
 6
CONTINUOUS
 0
LINE
 8
WHITE
 10
1.024999
 20
2.131
 30
0.0000
 11
1.031
 21
2.138999
 31
0.0000
 6
CONTINUOUS
 0
LINE
 8
WHITE
 10
1.164999
 20
2.352999
 30
0.0000
 11
1.215
 21
2.355
 31
0.0000
 6
CONTINUOUS
 0
LINE
 8
WHITE
 10
1.215
 20
2.355
 30
0.0000
 11
1.217
 21
2.365
 31
0.0000
 6
CONTINUOUS
 0
LINE
 8
WHITE
 10
1.217
 20
2.365
 30
0.0000
 11
1.185999
 21
2.384999
 31
0.0000
 6
CONTINUOUS
 0
ARC
 8
WHITE
 10
1.175899
 20
2.367399
 30
 0
 40
.020292
 50
60.15005
 51
129.5882
 6
CONTINUOUS
 0
LINE
 8
WHITE
 10
1.162999
 20
2.382999
 30
0.0000
 11
1.131999
 21
2.358
 31
0.0000
 6
CONTINUOUS
 0
ARC
 8
WHITE
 10
1.119699
 20
2.374599
 30
 0
 40
.02066
 50
273.6113
 51
306.5371
 6
CONTINUOUS
 0
LINE
 8
WHITE
 10
1.121
 20
2.354
 30
0.0000
 11
1.059999
 21
2.349999
 31
0.0000
 6
CONTINUOUS
 0
LINE
 8
WHITE
 10
1.059999
 20
2.349999
 30
0.0000
 11
1.026
 21
2.334
 31
0.0000
 6
CONTINUOUS
 0
LINE
 8
WHITE
 10
1.026
 20
2.334
 30
0.0000
 11
1.016
 21
2.275
 31
0.0000
 6
CONTINUOUS
 0
LINE
 8
WHITE
 10
1.016
 20
2.275
 30
0.0000
 11
1.050999
 21
2.270999
 31
0.0000
 6
CONTINUOUS
 0
LINE
 8
WHITE
 10
1.050999
 20
2.270999
 30
0.0000
 11
1.082999
 21
2.292
 31
0.0000
 6
CONTINUOUS
 0
LINE
 8
WHITE
 10
1.082999
 20
2.292
 30
0.0000
 11
1.103
 21
2.319999
 31
0.0000
 6
CONTINUOUS
 0
ARC
 8
WHITE
 10
1.1198
 20
2.308799
 30
 0
 40
.020191
 50
92.26833
 51
146.3099
 6
CONTINUOUS
 0
LINE
 8
WHITE
 10
1.118999
 20
2.328999
 30
0.0000
 11
1.171
 21
2.328
 31
0.0000
 6
CONTINUOUS
 0
LINE
 8
WHITE
 10
1.171
 20
2.328
 30
0.0000
 11
1.212
 21
2.345
 31
0.0000
 6
CONTINUOUS
 0
LINE
 8
WHITE
 10
1.212
 20
2.345
 30
0.0000
 11
1.215
 21
2.355
 31
0.0000
 6
CONTINUOUS
 0
LINE
 8
WHITE
 10
1.215
 20
2.355
 30
0.0000
 11
1.208999
 21
2.364
 31
0.0000
 6
CONTINUOUS
 0
LINE
 8
WHITE
 10
1.208999
 20
2.671
 30
0.0000
 11
1.213
 21
2.683
 31
0.0000
 6
CONTINUOUS
 0
LINE
 8
WHITE
 10
1.213
 20
2.683
 30
0.0000
 11
1.187
 21
2.684
 31
0.0000
 6
CONTINUOUS
 0
LINE
 8
WHITE
 10
1.187
 20
2.684
 30
0.0000
 11
1.189
 21
2.668999
 31
0.0000
 6
CONTINUOUS
 0
ARC
 8
WHITE
 10
1.208999
 20
2.671
 30
 0
 40
.020099
 50
185.7106
 51
296.5654
 6
CONTINUOUS
 0
LINE
 8
WHITE
 10
1.218
 20
2.653
 30
0.0000
 11
1.238999
 21
2.664
 31
0.0000
 6
CONTINUOUS
 0
LINE
 8
WHITE
 10
1.238999
 20
2.664
 30
0.0000
 11
1.238999
 21
2.680999
 31
0.0000
 6
CONTINUOUS
 0
LINE
 8
WHITE
 10
1.238999
 20
2.680999
 30
0.0000
 11
1.213
 21
2.683
 31
0.0000
 6
CONTINUOUS
 0
LINE
 8
WHITE
 10
1.213
 20
2.683
 30
0.0000
 11
1.205999
 21
2.676
 31
0.0000
 6
CONTINUOUS
 0
LINE
 8
WHITE
 10
1.041
 20
2.858999
 30
0.0000
 11
1.006999
 21
2.88
 31
0.0000
 6
CONTINUOUS
 0
LINE
 8
WHITE
 10
1.006999
 20
2.88
 30
0.0000
 11
.998
 21
2.865
 31
0.0000
 6
CONTINUOUS
 0
LINE
 8
WHITE
 10
.998
 20
2.865
 30
0.0000
 11
1.019
 21
2.835999
 31
0.0000
 6
CONTINUOUS
 0
ARC
 8
WHITE
 10
1.035
 20
2.848
 30
 0
 40
.02
 50
216.8699
 51
275.7102
 6
CONTINUOUS
 0
LINE
 8
WHITE
 10
1.036999
 20
2.828
 30
0.0000
 11
1.047999
 21
2.828999
 31
0.0000
 6
CONTINUOUS
 0
ARC
 8
WHITE
 10
1.047199
 20
2.848999
 30
 0
 40
.020015
 50
272.2906
 51
8.615678
 6
CONTINUOUS
 0
LINE
 8
WHITE
 10
1.067
 20
2.851999
 30
0.0000
 11
1.062
 21
2.881999
 31
0.0000
 6
CONTINUOUS
 0
ARC
 8
WHITE
 10
1.0422
 20
2.878
 30
 0
 40
.020199
 50
11.42119
 51
99.09044
 6
CONTINUOUS
 0
LINE
 8
WHITE
 10
1.039
 20
2.898
 30
0.0000
 11
1.016
 21
2.894
 31
0.0000
 6
CONTINUOUS
 0
LINE
 8
WHITE
 10
1.016
 20
2.894
 30
0.0000
 11
1.006999
 21
2.88
 31
0.0000
 6
CONTINUOUS
 0
LINE
 8
WHITE
 10
1.006999
 20
2.88
 30
0.0000
 11
1.009999
 21
2.869999
 31
0.0000
 6
CONTINUOUS
 0
LINE
 8
WHITE
 10
1.241
 20
2.950999
 30
0.0000
 11
1.251999
 21
2.924
 31
0.0000
 6
CONTINUOUS
 0
LINE
 8
WHITE
 10
1.251999
 20
2.924
 30
0.0000
 11
1.269
 21
2.930999
 31
0.0000
 6
CONTINUOUS
 0
LINE
 8
WHITE
 10
1.269
 20
2.930999
 30
0.0000
 11
1.273
 21
2.957999
 31
0.0000
 6
CONTINUOUS
 0
ARC
 8
WHITE
 10
1.253
 20
2.961199
 30
 0
 40
.020254
 50
350.9097
 51
101.4214
 6
CONTINUOUS
 0
LINE
 8
WHITE
 10
1.248999
 20
2.980999
 30
0.0000
 11
1.235
 21
2.977999
 31
0.0000
 6
CONTINUOUS
 0
LINE
 8
WHITE
 10
1.235
 20
2.977999
 30
0.0000
 11
1.21
 21
2.957
 31
0.0000
 6
CONTINUOUS
 0
LINE
 8
WHITE
 10
1.21
 20
2.957
 30
0.0000
 11
1.202
 21
2.917
 31
0.0000
 6
CONTINUOUS
 0
LINE
 8
WHITE
 10
1.202
 20
2.917
 30
0.0000
 11
1.235999
 21
2.917
 31
0.0000
 6
CONTINUOUS
 0
LINE
 8
WHITE
 10
1.235999
 20
2.917
 30
0.0000
 11
1.251999
 21
2.924
 31
0.0000
 6
CONTINUOUS
 0
LINE
 8
WHITE
 10
1.251999
 20
2.924
 30
0.0000
 11
1.256
 21
2.933
 31
0.0000
 6
CONTINUOUS
 0
LINE
 8
WHITE
 10
1.139
 20
3.098999
 30
0.0000
 11
1.11
 21
3.075
 31
0.0000
 6
CONTINUOUS
 0
LINE
 8
WHITE
 10
1.11
 20
3.075
 30
0.0000
 11
1.125
 21
3.058
 31
0.0000
 6
CONTINUOUS
 0
LINE
 8
WHITE
 10
1.125
 20
3.058
 30
0.0000
 11
1.164999
 21
3.058
 31
0.0000
 6
CONTINUOUS
 0
LINE
 8
WHITE
 10
1.164999
 20
3.058
 30
0.0000
 11
1.199
 21
3.125
 31
0.0000
 6
CONTINUOUS
 0
LINE
 8
WHITE
 10
1.199
 20
3.125
 30
0.0000
 11
1.24
 21
3.158999
 31
0.0000
 6
CONTINUOUS
 0
LINE
 8
WHITE
 10
1.24
 20
3.158999
 30
0.0000
 11
1.32
 21
3.210999
 31
0.0000
 6
CONTINUOUS
 0
LINE
 8
WHITE
 10
1.32
 20
3.210999
 30
0.0000
 11
1.35
 21
3.267999
 31
0.0000
 6
CONTINUOUS
 0
LINE
 8
WHITE
 10
1.35
 20
3.267999
 30
0.0000
 11
1.274999
 21
3.259
 31
0.0000
 6
CONTINUOUS
 0
LINE
 8
WHITE
 10
1.274999
 20
3.259
 30
0.0000
 11
1.24
 21
3.246999
 31
0.0000
 6
CONTINUOUS
 0
LINE
 8
WHITE
 10
1.24
 20
3.246999
 30
0.0000
 11
1.213999
 21
3.173
 31
0.0000
 6
CONTINUOUS
 0
LINE
 8
WHITE
 10
1.213999
 20
3.173
 30
0.0000
 11
1.171
 21
3.127
 31
0.0000
 6
CONTINUOUS
 0
LINE
 8
WHITE
 10
1.171
 20
3.127
 30
0.0000
 11
1.133999
 21
3.157
 31
0.0000
 6
CONTINUOUS
 0
LINE
 8
WHITE
 10
1.133999
 20
3.157
 30
0.0000
 11
1.097
 21
3.161
 31
0.0000
 6
CONTINUOUS
 0
LINE
 8
WHITE
 10
1.097
 20
3.161
 30
0.0000
 11
1.095999
 21
3.092999
 31
0.0000
 6
CONTINUOUS
 0
LINE
 8
WHITE
 10
1.095999
 20
3.092999
 30
0.0000
 11
1.11
 21
3.075
 31
0.0000
 6
CONTINUOUS
 0
LINE
 8
WHITE
 10
1.11
 20
3.075
 30
0.0000
 11
1.12
 21
3.075
 31
0.0000
 6
CONTINUOUS
 0
LINE
 8
WHITE
 10
1.226999
 20
3.513
 30
0.0000
 11
1.274
 21
3.532
 31
0.0000
 6
CONTINUOUS
 0
LINE
 8
WHITE
 10
1.274
 20
3.532
 30
0.0000
 11
1.261
 21
3.562
 31
0.0000
 6
CONTINUOUS
 0
LINE
 8
WHITE
 10
1.261
 20
3.562
 30
0.0000
 11
1.218
 21
3.545
 31
0.0000
 6
CONTINUOUS
 0
LINE
 8
WHITE
 10
1.218
 20
3.545
 30
0.0000
 11
1.197999
 21
3.526
 31
0.0000
 6
CONTINUOUS
 0
LINE
 8
WHITE
 10
1.197999
 20
3.526
 30
0.0000
 11
1.197
 21
3.496
 31
0.0000
 6
CONTINUOUS
 0
ARC
 8
WHITE
 10
1.217
 20
3.495
 30
 0
 40
.020024
 50
177.1376
 51
275.7104
 6
CONTINUOUS
 0
LINE
 8
WHITE
 10
1.218999
 20
3.474999
 30
0.0000
 11
1.259999
 21
3.479
 31
0.0000
 6
CONTINUOUS
 0
LINE
 8
WHITE
 10
1.259999
 20
3.479
 30
0.0000
 11
1.286
 21
3.502
 31
0.0000
 6
CONTINUOUS
 0
LINE
 8
WHITE
 10
1.286
 20
3.502
 30
0.0000
 11
1.274
 21
3.532
 31
0.0000
 6
CONTINUOUS
 0
LINE
 8
WHITE
 10
1.274
 20
3.532
 30
0.0000
 11
1.264
 21
3.536
 31
0.0000
 6
CONTINUOUS
 0
LINE
 8
WHITE
 10
1.399
 20
3.480999
 30
0.0000
 11
1.368999
 21
3.428999
 31
0.0000
 6
CONTINUOUS
 0
LINE
 8
WHITE
 10
1.368999
 20
3.428999
 30
0.0000
 11
1.393
 21
3.415999
 31
0.0000
 6
CONTINUOUS
 0
LINE
 8
WHITE
 10
1.393
 20
3.415999
 30
0.0000
 11
1.424999
 21
3.43
 31
0.0000
 6
CONTINUOUS
 0
ARC
 8
WHITE
 10
1.416999
 20
3.447999
 30
 0
 40
.019697
 50
293.9625
 51
329.5346
 6
CONTINUOUS
 0
LINE
 8
WHITE
 10
1.434
 20
3.437999
 30
0.0000
 11
1.458999
 21
3.482
 31
0.0000
 6
CONTINUOUS
 0
ARC
 8
WHITE
 10
1.442199
 20
3.4923
 30
 0
 40
.019706
 50
328.4877
 51
63.56445
 6
CONTINUOUS
 0
LINE
 8
WHITE
 10
1.450999
 20
3.509999
 30
0.0000
 11
1.437
 21
3.517999
 31
0.0000
 6
CONTINUOUS
 0
ARC
 8
WHITE
 10
1.4283
 20
3.500299
 30
 0
 40
.019722
 50
63.82471
 51
93.77539
 6
CONTINUOUS
 0
LINE
 8
WHITE
 10
1.427
 20
3.519999
 30
0.0000
 11
1.393
 21
3.520999
 31
0.0000
 6
CONTINUOUS
 0
ARC
 8
WHITE
 10
1.3933
 20
3.500999
 30
 0
 40
.020002
 50
90.85938
 51
156.3868
 6
CONTINUOUS
 0
LINE
 8
WHITE
 10
1.375
 20
3.509
 30
0.0000
 11
1.345
 21
3.443
 31
0.0000
 6
CONTINUOUS
 0
LINE
 8
WHITE
 10
1.345
 20
3.443
 30
0.0000
 11
1.368999
 21
3.428999
 31
0.0000
 6
CONTINUOUS
 0
LINE
 8
WHITE
 10
1.368999
 20
3.428999
 30
0.0000
 11
1.378999
 21
3.431999
 31
0.0000
 6
CONTINUOUS
 0
LINE
 8
WHITE
 10
1.324
 20
3.719
 30
0.0000
 11
1.300999
 21
3.759999
 31
0.0000
 6
CONTINUOUS
 0
LINE
 8
WHITE
 10
1.300999
 20
3.759999
 30
0.0000
 11
1.286
 21
3.737999
 31
0.0000
 6
CONTINUOUS
 0
LINE
 8
WHITE
 10
1.286
 20
3.737999
 30
0.0000
 11
1.286
 21
3.687999
 31
0.0000
 6
CONTINUOUS
 0
ARC
 8
WHITE
 10
1.305999
 20
3.6879
 30
 0
 40
.02
 50
179.7135
 51
243.3072
 6
CONTINUOUS
 0
LINE
 8
WHITE
 10
1.297
 20
3.67
 30
0.0000
 11
1.309999
 21
3.664
 31
0.0000
 6
CONTINUOUS
 0
ARC
 8
WHITE
 10
1.3197
 20
3.6816
 30
 0
 40
.020096
 50
241.1392
 51
343.8197
 6
CONTINUOUS
 0
LINE
 8
WHITE
 10
1.338999
 20
3.676
 30
0.0000
 11
1.343999
 21
3.697
 31
0.0000
 6
CONTINUOUS
 0
LINE
 8
WHITE
 10
1.343999
 20
3.697
 30
0.0000
 11
1.348999
 21
3.759
 31
0.0000
 6
CONTINUOUS
 0
LINE
 8
WHITE
 10
1.348999
 20
3.759
 30
0.0000
 11
1.338
 21
3.815
 31
0.0000
 6
CONTINUOUS
 0
LINE
 8
WHITE
 10
1.338
 20
3.815
 30
0.0000
 11
1.310999
 21
3.808
 31
0.0000
 6
CONTINUOUS
 0
LINE
 8
WHITE
 10
1.310999
 20
3.808
 30
0.0000
 11
1.315
 21
3.782
 31
0.0000
 6
CONTINUOUS
 0
LINE
 8
WHITE
 10
1.315
 20
3.782
 30
0.0000
 11
1.300999
 21
3.759999
 31
0.0000
 6
CONTINUOUS
 0
LINE
 8
WHITE
 10
1.300999
 20
3.759999
 30
0.0000
 11
1.302999
 21
3.75
 31
0.0000
 6
CONTINUOUS
 0
LINE
 8
WHITE
 10
1.5
 20
3.717
 30
0.0000
 11
1.514999
 21
3.671
 31
0.0000
 6
CONTINUOUS
 0
LINE
 8
WHITE
 10
1.514999
 20
3.671
 30
0.0000
 11
1.536
 21
3.677999
 31
0.0000
 6
CONTINUOUS
 0
LINE
 8
WHITE
 10
1.536
 20
3.677999
 30
0.0000
 11
1.544
 21
3.74
 31
0.0000
 6
CONTINUOUS
 0
ARC
 8
WHITE
 10
1.524
 20
3.742899
 30
 0
 40
.020209
 50
351.7496
 51
84.31773
 6
CONTINUOUS
 0
LINE
 8
WHITE
 10
1.526
 20
3.763
 30
0.0000
 11
1.493
 21
3.763999
 31
0.0000
 6
CONTINUOUS
 0
LINE
 8
WHITE
 10
1.493
 20
3.763999
 30
0.0000
 11
1.463
 21
3.749
 31
0.0000
 6
CONTINUOUS
 0
LINE
 8
WHITE
 10
1.463
 20
3.749
 30
0.0000
 11
1.457999
 21
3.694999
 31
0.0000
 6
CONTINUOUS
 0
ARC
 8
WHITE
 10
1.477999
 20
3.693399
 30
 0
 40
.020063
 50
175.4261
 51
246.5016
 6
CONTINUOUS
 0
LINE
 8
WHITE
 10
1.47
 20
3.674999
 30
0.0000
 11
1.495
 21
3.664999
 31
0.0000
 6
CONTINUOUS
 0
LINE
 8
WHITE
 10
1.495
 20
3.664999
 30
0.0000
 11
1.514999
 21
3.671
 31
0.0000
 6
CONTINUOUS
 0
LINE
 8
WHITE
 10
1.514999
 20
3.671
 30
0.0000
 11
1.519999
 21
3.68
 31
0.0000
 6
CONTINUOUS
 0
LINE
 8
WHITE
 10
1.054999
 20
3.967999
 30
0.0000
 11
1.085
 21
3.871999
 31
0.0000
 6
CONTINUOUS
 0
LINE
 8
WHITE
 10
1.085
 20
3.871999
 30
0.0000
 11
1.118
 21
3.882999
 31
0.0000
 6
CONTINUOUS
 0
ARC
 8
WHITE
 10
1.106199
 20
3.921099
 30
 0
 40
.039885
 50
287.2083
 51
358.4171
 6
CONTINUOUS
 0
LINE
 8
WHITE
 10
1.146
 20
3.92
 30
0.0000
 11
1.148
 21
3.979
 31
0.0000
 6
CONTINUOUS
 0
ARC
 8
WHITE
 10
1.108
 20
3.9793
 30
 0
 40
.040001
 50
359.5703
 51
104.4882
 6
CONTINUOUS
 0
LINE
 8
WHITE
 10
1.098
 20
4.018
 30
0.0000
 11
1.044999
 21
4.006
 31
0.0000
 6
CONTINUOUS
 0
LINE
 8
WHITE
 10
1.044999
 20
4.006
 30
0.0000
 11
.982999
 21
3.954999
 31
0.0000
 6
CONTINUOUS
 0
LINE
 8
WHITE
 10
.982999
 20
3.954999
 30
0.0000
 11
.962
 21
3.851
 31
0.0000
 6
CONTINUOUS
 0
LINE
 8
WHITE
 10
.962
 20
3.851
 30
0.0000
 11
.971
 21
3.845
 31
0.0000
 6
CONTINUOUS
 0
LINE
 8
WHITE
 10
.971
 20
3.845
 30
0.0000
 11
1.024999
 21
3.852999
 31
0.0000
 6
CONTINUOUS
 0
LINE
 8
WHITE
 10
1.024999
 20
3.852999
 30
0.0000
 11
1.085
 21
3.871999
 31
0.0000
 6
CONTINUOUS
 0
LINE
 8
WHITE
 10
1.085
 20
3.871999
 30
0.0000
 11
1.09
 21
3.881
 31
0.0000
 6
CONTINUOUS
 0
LINE
 8
WHITE
 10
1.506999
 20
3.993
 30
0.0000
 11
1.452999
 21
3.931999
 31
0.0000
 6
CONTINUOUS
 0
LINE
 8
WHITE
 10
1.452999
 20
3.931999
 30
0.0000
 11
1.465
 21
3.928999
 31
0.0000
 6
CONTINUOUS
 0
LINE
 8
WHITE
 10
1.465
 20
3.928999
 30
0.0000
 11
1.516999
 21
3.944999
 31
0.0000
 6
CONTINUOUS
 0
LINE
 8
WHITE
 10
1.516999
 20
3.944999
 30
0.0000
 11
1.582999
 21
4.017
 31
0.0000
 6
CONTINUOUS
 0
LINE
 8
WHITE
 10
1.582999
 20
4.017
 30
0.0000
 11
1.588
 21
4.046999
 31
0.0000
 6
CONTINUOUS
 0
ARC
 8
WHITE
 10
1.5479
 20
4.052599
 30
 0
 40
.040489
 50
352.05
 51
91.27622
 6
CONTINUOUS
 0
LINE
 8
WHITE
 10
1.547
 20
4.092999
 30
0.0000
 11
1.508
 21
4.092
 31
0.0000
 6
CONTINUOUS
 0
LINE
 8
WHITE
 10
1.508
 20
4.092
 30
0.0000
 11
1.457
 21
4.03
 31
0.0000
 6
CONTINUOUS
 0
LINE
 8
WHITE
 10
1.457
 20
4.03
 30
0.0000
 11
1.442
 21
3.936
 31
0.0000
 6
CONTINUOUS
 0
LINE
 8
WHITE
 10
1.442
 20
3.936
 30
0.0000
 11
1.452999
 21
3.931999
 31
0.0000
 6
CONTINUOUS
 0
LINE
 8
WHITE
 10
1.452999
 20
3.931999
 30
0.0000
 11
1.462
 21
3.937
 31
0.0000
 6
CONTINUOUS
 0
LINE
 8
WHITE
 10
1.835
 20
4.013999
 30
0.0000
 11
1.881999
 21
3.984999
 31
0.0000
 6
CONTINUOUS
 0
LINE
 8
WHITE
 10
1.881999
 20
3.984999
 30
0.0000
 11
1.955999
 21
4.005
 31
0.0000
 6
CONTINUOUS
 0
LINE
 8
WHITE
 10
1.955999
 20
4.005
 30
0.0000
 11
1.962
 21
4.045
 31
0.0000
 6
CONTINUOUS
 0
LINE
 8
WHITE
 10
1.962
 20
4.045
 30
0.0000
 11
1.945
 21
4.091
 31
0.0000
 6
CONTINUOUS
 0
LINE
 8
WHITE
 10
1.945
 20
4.091
 30
0.0000
 11
1.84
 21
4.098999
 31
0.0000
 6
CONTINUOUS
 0
LINE
 8
WHITE
 10
1.84
 20
4.098999
 30
0.0000
 11
1.758999
 21
4.081999
 31
0.0000
 6
CONTINUOUS
 0
LINE
 8
WHITE
 10
1.758999
 20
4.081999
 30
0.0000
 11
1.741999
 21
4.040999
 31
0.0000
 6
CONTINUOUS
 0
ARC
 8
WHITE
 10
1.778699
 20
4.0253
 30
 0
 40
.039917
 50
156.8391
 51
242.0878
 6
CONTINUOUS
 0
LINE
 8
WHITE
 10
1.759999
 20
3.99
 30
0.0000
 11
1.807
 21
3.964999
 31
0.0000
 6
CONTINUOUS
 0
LINE
 8
WHITE
 10
1.807
 20
3.964999
 30
0.0000
 11
1.881999
 21
3.984999
 31
0.0000
 6
CONTINUOUS
 0
LINE
 8
WHITE
 10
1.881999
 20
3.984999
 30
0.0000
 11
1.886
 21
3.993999
 31
0.0000
 6
CONTINUOUS
 0
LINE
 8
WHITE
 10
1.351999
 20
4.208
 30
0.0000
 11
1.381999
 21
4.205999
 31
0.0000
 6
CONTINUOUS
 0
LINE
 8
WHITE
 10
1.381999
 20
4.205999
 30
0.0000
 11
1.383999
 21
4.250999
 31
0.0000
 6
CONTINUOUS
 0
ARC
 8
WHITE
 10
1.364099
 20
4.253099
 30
 0
 40
.02001
 50
353.976
 51
26.43731
 6
CONTINUOUS
 0
LINE
 8
WHITE
 10
1.381999
 20
4.262
 30
0.0000
 11
1.351999
 21
4.315
 31
0.0000
 6
CONTINUOUS
 0
LINE
 8
WHITE
 10
1.351999
 20
4.315
 30
0.0000
 11
1.34
 21
4.308
 31
0.0000
 6
CONTINUOUS
 0
LINE
 8
WHITE
 10
1.34
 20
4.308
 30
0.0000
 11
1.327999
 21
4.249
 31
0.0000
 6
CONTINUOUS
 0
LINE
 8
WHITE
 10
1.327999
 20
4.249
 30
0.0000
 11
1.337
 21
4.142
 31
0.0000
 6
CONTINUOUS
 0
LINE
 8
WHITE
 10
1.337
 20
4.142
 30
0.0000
 11
1.363
 21
4.124
 31
0.0000
 6
CONTINUOUS
 0
LINE
 8
WHITE
 10
1.363
 20
4.124
 30
0.0000
 11
1.378999
 21
4.156
 31
0.0000
 6
CONTINUOUS
 0
LINE
 8
WHITE
 10
1.378999
 20
4.156
 30
0.0000
 11
1.381999
 21
4.205999
 31
0.0000
 6
CONTINUOUS
 0
LINE
 8
WHITE
 10
1.381999
 20
4.205999
 30
0.0000
 11
1.375
 21
4.214
 31
0.0000
 6
CONTINUOUS
 0
LINE
 8
WHITE
 10
1.588
 20
4.287
 30
0.0000
 11
1.542
 21
4.236999
 31
0.0000
 6
CONTINUOUS
 0
LINE
 8
WHITE
 10
1.542
 20
4.236999
 30
0.0000
 11
1.6
 21
4.218999
 31
0.0000
 6
CONTINUOUS
 0
LINE
 8
WHITE
 10
1.6
 20
4.218999
 30
0.0000
 11
1.674
 21
4.227
 31
0.0000
 6
CONTINUOUS
 0
LINE
 8
WHITE
 10
1.674
 20
4.227
 30
0.0000
 11
1.712
 21
4.244999
 31
0.0000
 6
CONTINUOUS
 0
LINE
 8
WHITE
 10
1.712
 20
4.244999
 30
0.0000
 11
1.702999
 21
4.308
 31
0.0000
 6
CONTINUOUS
 0
LINE
 8
WHITE
 10
1.702999
 20
4.308
 30
0.0000
 11
1.662999
 21
4.348
 31
0.0000
 6
CONTINUOUS
 0
LINE
 8
WHITE
 10
1.662999
 20
4.348
 30
0.0000
 11
1.605999
 21
4.361999
 31
0.0000
 6
CONTINUOUS
 0
LINE
 8
WHITE
 10
1.605999
 20
4.361999
 30
0.0000
 11
1.547999
 21
4.350999
 31
0.0000
 6
CONTINUOUS
 0
LINE
 8
WHITE
 10
1.547999
 20
4.350999
 30
0.0000
 11
1.501999
 21
4.314
 31
0.0000
 6
CONTINUOUS
 0
LINE
 8
WHITE
 10
1.501999
 20
4.314
 30
0.0000
 11
1.496
 21
4.291999
 31
0.0000
 6
CONTINUOUS
 0
ARC
 8
WHITE
 10
1.534
 20
4.280999
 30
 0
 40
.03956
 50
163.8557
 51
253.8555
 6
CONTINUOUS
 0
LINE
 8
WHITE
 10
1.523
 20
4.243
 30
0.0000
 11
1.542
 21
4.236999
 31
0.0000
 6
CONTINUOUS
 0
LINE
 8
WHITE
 10
1.542
 20
4.236999
 30
0.0000
 11
1.550999
 21
4.242
 31
0.0000
 6
CONTINUOUS
 0
LINE
 8
WHITE
 10
1.059
 20
4.428999
 30
0.0000
 11
1.157999
 21
4.441999
 31
0.0000
 6
CONTINUOUS
 0
LINE
 8
WHITE
 10
1.157999
 20
4.441999
 30
0.0000
 11
1.146999
 21
4.53
 31
0.0000
 6
CONTINUOUS
 0
LINE
 8
WHITE
 10
1.146999
 20
4.53
 30
0.0000
 11
1.128999
 21
4.560999
 31
0.0000
 6
CONTINUOUS
 0
ARC
 8
WHITE
 10
1.094199
 20
4.540699
 30
 0
 40
.040288
 50
30.25644
 51
91.70535
 6
CONTINUOUS
 0
LINE
 8
WHITE
 10
1.093
 20
4.580999
 30
0.0000
 11
1.006999
 21
4.578999
 31
0.0000
 6
CONTINUOUS
 0
LINE
 8
WHITE
 10
1.006999
 20
4.578999
 30
0.0000
 11
.967999
 21
4.585
 31
0.0000
 6
CONTINUOUS
 0
ARC
 8
WHITE
 10
.961799
 20
4.545
 30
 0
 40
.040477
 50
81.18927
 51
141.8267
 6
CONTINUOUS
 0
LINE
 8
WHITE
 10
.93
 20
4.57
 30
0.0000
 11
.902999
 21
4.533999
 31
0.0000
 6
CONTINUOUS
 0
LINE
 8
WHITE
 10
.902999
 20
4.533999
 30
0.0000
 11
.880999
 21
4.468999
 31
0.0000
 6
CONTINUOUS
 0
LINE
 8
WHITE
 10
.880999
 20
4.468999
 30
0.0000
 11
.865999
 21
4.387
 31
0.0000
 6
CONTINUOUS
 0
LINE
 8
WHITE
 10
.865999
 20
4.387
 30
0.0000
 11
.897
 21
4.284999
 31
0.0000
 6
CONTINUOUS
 0
LINE
 8
WHITE
 10
.897
 20
4.284999
 30
0.0000
 11
.919
 21
4.191999
 31
0.0000
 6
CONTINUOUS
 0
LINE
 8
WHITE
 10
.919
 20
4.191999
 30
0.0000
 11
.925
 21
4.144
 31
0.0000
 6
CONTINUOUS
 0
ARC
 8
WHITE
 10
.965
 20
4.149
 30
 0
 40
.040311
 50
187.125
 51
293.3851
 6
CONTINUOUS
 0
LINE
 8
WHITE
 10
.981
 20
4.111999
 30
0.0000
 11
1.021
 21
4.131
 31
0.0000
 6
CONTINUOUS
 0
LINE
 8
WHITE
 10
1.021
 20
4.131
 30
0.0000
 11
1.092
 21
4.188
 31
0.0000
 6
CONTINUOUS
 0
LINE
 8
WHITE
 10
1.092
 20
4.188
 30
0.0000
 11
1.144
 21
4.261
 31
0.0000
 6
CONTINUOUS
 0
LINE
 8
WHITE
 10
1.144
 20
4.261
 30
0.0000
 11
1.169999
 21
4.354
 31
0.0000
 6
CONTINUOUS
 0
LINE
 8
WHITE
 10
1.169999
 20
4.354
 30
0.0000
 11
1.157999
 21
4.441999
 31
0.0000
 6
CONTINUOUS
 0
LINE
 8
WHITE
 10
1.157999
 20
4.441999
 30
0.0000
 11
1.149999
 21
4.447999
 31
0.0000
 6
CONTINUOUS
 0
LINE
 8
WHITE
 10
1.450999
 20
4.617
 30
0.0000
 11
1.353
 21
4.633999
 31
0.0000
 6
CONTINUOUS
 0
LINE
 8
WHITE
 10
1.353
 20
4.633999
 30
0.0000
 11
1.34
 21
4.560999
 31
0.0000
 6
CONTINUOUS
 0
LINE
 8
WHITE
 10
1.34
 20
4.560999
 30
0.0000
 11
1.353
 21
4.462999
 31
0.0000
 6
CONTINUOUS
 0
LINE
 8
WHITE
 10
1.353
 20
4.462999
 30
0.0000
 11
1.435999
 21
4.414
 31
0.0000
 6
CONTINUOUS
 0
LINE
 8
WHITE
 10
1.435999
 20
4.414
 30
0.0000
 11
1.511999
 21
4.419
 31
0.0000
 6
CONTINUOUS
 0
ARC
 8
WHITE
 10
1.509199
 20
4.459
 30
 0
 40
.040097
 50
274.0042
 51
352.8394
 6
CONTINUOUS
 0
LINE
 8
WHITE
 10
1.549
 20
4.453999
 30
0.0000
 11
1.562
 21
4.573999
 31
0.0000
 6
CONTINUOUS
 0
LINE
 8
WHITE
 10
1.562
 20
4.573999
 30
0.0000
 11
1.559999
 21
4.708
 31
0.0000
 6
CONTINUOUS
 0
LINE
 8
WHITE
 10
1.559999
 20
4.708
 30
0.0000
 11
1.514999
 21
4.754
 31
0.0000
 6
CONTINUOUS
 0
ARC
 8
WHITE
 10
1.4857
 20
4.7263
 30
 0
 40
.04032
 50
43.39212
 51
117.6461
 6
CONTINUOUS
 0
LINE
 8
WHITE
 10
1.467
 20
4.762
 30
0.0000
 11
1.366
 21
4.708
 31
0.0000
 6
CONTINUOUS
 0
LINE
 8
WHITE
 10
1.366
 20
4.708
 30
0.0000
 11
1.353
 21
4.633999
 31
0.0000
 6
CONTINUOUS
 0
LINE
 8
WHITE
 10
1.353
 20
4.633999
 30
0.0000
 11
1.358999
 21
4.625999
 31
0.0000
 6
CONTINUOUS
 0
LINE
 8
WHITE
 10
1.843
 20
4.882999
 30
0.0000
 11
1.792999
 21
4.969999
 31
0.0000
 6
CONTINUOUS
 0
LINE
 8
WHITE
 10
1.792999
 20
4.969999
 30
0.0000
 11
1.746999
 21
4.942999
 31
0.0000
 6
CONTINUOUS
 0
LINE
 8
WHITE
 10
1.746999
 20
4.942999
 30
0.0000
 11
1.695999
 21
4.901
 31
0.0000
 6
CONTINUOUS
 0
LINE
 8
WHITE
 10
1.695999
 20
4.901
 30
0.0000
 11
1.684999
 21
4.842
 31
0.0000
 6
CONTINUOUS
 0
LINE
 8
WHITE
 10
1.684999
 20
4.842
 30
0.0000
 11
1.712
 21
4.731999
 31
0.0000
 6
CONTINUOUS
 0
LINE
 8
WHITE
 10
1.712
 20
4.731999
 30
0.0000
 11
1.705999
 21
4.604
 31
0.0000
 6
CONTINUOUS
 0
LINE
 8
WHITE
 10
1.705999
 20
4.604
 30
0.0000
 11
1.713999
 21
4.53
 31
0.0000
 6
CONTINUOUS
 0
LINE
 8
WHITE
 10
1.713999
 20
4.53
 30
0.0000
 11
1.848999
 21
4.462999
 31
0.0000
 6
CONTINUOUS
 0
LINE
 8
WHITE
 10
1.848999
 20
4.462999
 30
0.0000
 11
1.904999
 21
4.486
 31
0.0000
 6
CONTINUOUS
 0
LINE
 8
WHITE
 10
1.904999
 20
4.486
 30
0.0000
 11
1.942999
 21
4.526999
 31
0.0000
 6
CONTINUOUS
 0
LINE
 8
WHITE
 10
1.942999
 20
4.526999
 30
0.0000
 11
1.965
 21
4.581999
 31
0.0000
 6
CONTINUOUS
 0
LINE
 8
WHITE
 10
1.965
 20
4.581999
 30
0.0000
 11
1.972
 21
4.645999
 31
0.0000
 6
CONTINUOUS
 0
LINE
 8
WHITE
 10
1.972
 20
4.645999
 30
0.0000
 11
1.965999
 21
4.717
 31
0.0000
 6
CONTINUOUS
 0
LINE
 8
WHITE
 10
1.965999
 20
4.717
 30
0.0000
 11
1.950999
 21
4.788
 31
0.0000
 6
CONTINUOUS
 0
LINE
 8
WHITE
 10
1.950999
 20
4.788
 30
0.0000
 11
1.927999
 21
4.856999
 31
0.0000
 6
CONTINUOUS
 0
LINE
 8
WHITE
 10
1.927999
 20
4.856999
 30
0.0000
 11
1.899999
 21
4.916999
 31
0.0000
 6
CONTINUOUS
 0
LINE
 8
WHITE
 10
1.899999
 20
4.916999
 30
0.0000
 11
1.868999
 21
4.966
 31
0.0000
 6
CONTINUOUS
 0
LINE
 8
WHITE
 10
1.868999
 20
4.966
 30
0.0000
 11
1.838999
 21
4.995999
 31
0.0000
 6
CONTINUOUS
 0
LINE
 8
WHITE
 10
1.838999
 20
4.995999
 30
0.0000
 11
1.792999
 21
4.969999
 31
0.0000
 6
CONTINUOUS
 0
LINE
 8
WHITE
 10
1.792999
 20
4.969999
 30
0.0000
 11
1.791
 21
4.96
 31
0.0000
 6
CONTINUOUS
 0
LINE
 8
WHITE
 10
1.011999
 20
4.886
 30
0.0000
 11
1.106999
 21
4.915999
 31
0.0000
 6
CONTINUOUS
 0
LINE
 8
WHITE
 10
1.106999
 20
4.915999
 30
0.0000
 11
1.07
 21
5.033999
 31
0.0000
 6
CONTINUOUS
 0
LINE
 8
WHITE
 10
1.07
 20
5.033999
 30
0.0000
 11
1.052999
 21
5.135
 31
0.0000
 6
CONTINUOUS
 0
LINE
 8
WHITE
 10
1.052999
 20
5.135
 30
0.0000
 11
1
 21
5.138
 31
0.0000
 6
CONTINUOUS
 0
LINE
 8
WHITE
 10
1
 20
5.138
 30
0.0000
 11
.947
 21
5.125999
 31
0.0000
 6
CONTINUOUS
 0
LINE
 8
WHITE
 10
.947
 20
5.125999
 30
0.0000
 11
.902
 21
5.102
 31
0.0000
 6
CONTINUOUS
 0
LINE
 8
WHITE
 10
.902
 20
5.102
 30
0.0000
 11
.865999
 21
5.067999
 31
0.0000
 6
CONTINUOUS
 0
LINE
 8
WHITE
 10
.865999
 20
5.067999
 30
0.0000
 11
.842
 21
5.027999
 31
0.0000
 6
CONTINUOUS
 0
LINE
 8
WHITE
 10
.842
 20
5.027999
 30
0.0000
 11
.833999
 21
4.984
 31
0.0000
 6
CONTINUOUS
 0
LINE
 8
WHITE
 10
.833999
 20
4.984
 30
0.0000
 11
.842
 21
4.939
 31
0.0000
 6
CONTINUOUS
 0
LINE
 8
WHITE
 10
.842
 20
4.939
 30
0.0000
 11
.871999
 21
4.894999
 31
0.0000
 6
CONTINUOUS
 0
LINE
 8
WHITE
 10
.871999
 20
4.894999
 30
0.0000
 11
.924
 21
4.855
 31
0.0000
 6
CONTINUOUS
 0
LINE
 8
WHITE
 10
.924
 20
4.855
 30
0.0000
 11
1.004999
 21
4.822
 31
0.0000
 6
CONTINUOUS
 0
LINE
 8
WHITE
 10
1.004999
 20
4.822
 30
0.0000
 11
1.064
 21
4.763
 31
0.0000
 6
CONTINUOUS
 0
LINE
 8
WHITE
 10
1.064
 20
4.763
 30
0.0000
 11
1.125
 21
4.776999
 31
0.0000
 6
CONTINUOUS
 0
LINE
 8
WHITE
 10
1.125
 20
4.776999
 30
0.0000
 11
1.144999
 21
4.797999
 31
0.0000
 6
CONTINUOUS
 0
LINE
 8
WHITE
 10
1.144999
 20
4.797999
 30
0.0000
 11
1.106999
 21
4.915999
 31
0.0000
 6
CONTINUOUS
 0
LINE
 8
WHITE
 10
1.106999
 20
4.915999
 30
0.0000
 11
1.098
 21
4.921
 31
0.0000
 6
CONTINUOUS
 0
LINE
 8
WHITE
 10
1.251999
 20
5.061999
 30
0.0000
 11
1.300999
 21
5.024
 31
0.0000
 6
CONTINUOUS
 0
LINE
 8
WHITE
 10
1.300999
 20
5.024
 30
0.0000
 11
1.302999
 21
5.085
 31
0.0000
 6
CONTINUOUS
 0
LINE
 8
WHITE
 10
1.302999
 20
5.085
 30
0.0000
 11
1.296
 21
5.197999
 31
0.0000
 6
CONTINUOUS
 0
LINE
 8
WHITE
 10
1.296
 20
5.197999
 30
0.0000
 11
1.263
 21
5.249
 31
0.0000
 6
CONTINUOUS
 0
LINE
 8
WHITE
 10
1.263
 20
5.249
 30
0.0000
 11
1.225999
 21
5.238999
 31
0.0000
 6
CONTINUOUS
 0
LINE
 8
WHITE
 10
1.225999
 20
5.238999
 30
0.0000
 11
1.202
 21
5.171999
 31
0.0000
 6
CONTINUOUS
 0
LINE
 8
WHITE
 10
1.202
 20
5.171999
 30
0.0000
 11
1.195999
 21
5.107999
 31
0.0000
 6
CONTINUOUS
 0
LINE
 8
WHITE
 10
1.195999
 20
5.107999
 30
0.0000
 11
1.215999
 21
5.038
 31
0.0000
 6
CONTINUOUS
 0
LINE
 8
WHITE
 10
1.215999
 20
5.038
 30
0.0000
 11
1.266
 21
4.954999
 31
0.0000
 6
CONTINUOUS
 0
LINE
 8
WHITE
 10
1.266
 20
4.954999
 30
0.0000
 11
1.299
 21
4.962999
 31
0.0000
 6
CONTINUOUS
 0
LINE
 8
WHITE
 10
1.299
 20
4.962999
 30
0.0000
 11
1.300999
 21
5.024
 31
0.0000
 6
CONTINUOUS
 0
LINE
 8
WHITE
 10
1.300999
 20
5.024
 30
0.0000
 11
1.294
 21
5.031
 31
0.0000
 6
CONTINUOUS
 0
LINE
 8
WHITE
 10
1.585
 20
5.107999
 30
0.0000
 11
1.582
 21
5.206999
 31
0.0000
 6
CONTINUOUS
 0
LINE
 8
WHITE
 10
1.582
 20
5.206999
 30
0.0000
 11
1.491999
 21
5.204999
 31
0.0000
 6
CONTINUOUS
 0
LINE
 8
WHITE
 10
1.491999
 20
5.204999
 30
0.0000
 11
1.416
 21
5.177999
 31
0.0000
 6
CONTINUOUS
 0
LINE
 8
WHITE
 10
1.416
 20
5.177999
 30
0.0000
 11
1.398
 21
5.151999
 31
0.0000
 6
CONTINUOUS
 0
LINE
 8
WHITE
 10
1.398
 20
5.151999
 30
0.0000
 11
1.394999
 21
5.113999
 31
0.0000
 6
CONTINUOUS
 0
LINE
 8
WHITE
 10
1.394999
 20
5.113999
 30
0.0000
 11
1.409999
 21
5.061999
 31
0.0000
 6
CONTINUOUS
 0
LINE
 8
WHITE
 10
1.409999
 20
5.061999
 30
0.0000
 11
1.445999
 21
4.993
 31
0.0000
 6
CONTINUOUS
 0
LINE
 8
WHITE
 10
1.445999
 20
4.993
 30
0.0000
 11
1.481999
 21
4.938
 31
0.0000
 6
CONTINUOUS
 0
ARC
 8
WHITE
 10
1.515599
 20
4.9591
 30
 0
 40
.039675
 50
212.1278
 51
297.6641
 6
CONTINUOUS
 0
LINE
 8
WHITE
 10
1.534
 20
4.923999
 30
0.0000
 11
1.57
 21
4.942999
 31
0.0000
 6
CONTINUOUS
 0
LINE
 8
WHITE
 10
1.57
 20
4.942999
 30
0.0000
 11
1.651
 21
5.019999
 31
0.0000
 6
CONTINUOUS
 0
LINE
 8
WHITE
 10
1.651
 20
5.019999
 30
0.0000
 11
1.697999
 21
5.085999
 31
0.0000
 6
CONTINUOUS
 0
LINE
 8
WHITE
 10
1.697999
 20
5.085999
 30
0.0000
 11
1.695
 21
5.144
 31
0.0000
 6
CONTINUOUS
 0
LINE
 8
WHITE
 10
1.695
 20
5.144
 30
0.0000
 11
1.682
 21
5.183
 31
0.0000
 6
CONTINUOUS
 0
ARC
 8
WHITE
 10
1.6444
 20
5.1689
 30
 0
 40
.040156
 50
20.55605
 51
91.99953
 6
CONTINUOUS
 0
LINE
 8
WHITE
 10
1.643
 20
5.209
 30
0.0000
 11
1.582
 21
5.206999
 31
0.0000
 6
CONTINUOUS
 0
LINE
 8
WHITE
 10
1.582
 20
5.206999
 30
0.0000
 11
1.575
 21
5.199999
 31
0.0000
 6
CONTINUOUS
 0
LINE
 8
WHITE
 10
1.741
 20
5.440999
 30
0.0000
 11
1.764999
 21
5.343999
 31
0.0000
 6
CONTINUOUS
 0
LINE
 8
WHITE
 10
1.764999
 20
5.343999
 30
0.0000
 11
1.819
 21
5.356999
 31
0.0000
 6
CONTINUOUS
 0
LINE
 8
WHITE
 10
1.819
 20
5.356999
 30
0.0000
 11
1.881999
 21
5.397999
 31
0.0000
 6
CONTINUOUS
 0
LINE
 8
WHITE
 10
1.881999
 20
5.397999
 30
0.0000
 11
1.906
 21
5.446
 31
0.0000
 6
CONTINUOUS
 0
LINE
 8
WHITE
 10
1.906
 20
5.446
 30
0.0000
 11
1.889999
 21
5.520999
 31
0.0000
 6
CONTINUOUS
 0
LINE
 8
WHITE
 10
1.889999
 20
5.520999
 30
0.0000
 11
1.832
 21
5.583
 31
0.0000
 6
CONTINUOUS
 0
LINE
 8
WHITE
 10
1.832
 20
5.583
 30
0.0000
 11
1.761999
 21
5.611999
 31
0.0000
 6
CONTINUOUS
 0
LINE
 8
WHITE
 10
1.761999
 20
5.611999
 30
0.0000
 11
1.707999
 21
5.592999
 31
0.0000
 6
CONTINUOUS
 0
LINE
 8
WHITE
 10
1.707999
 20
5.592999
 30
0.0000
 11
1.692
 21
5.543
 31
0.0000
 6
CONTINUOUS
 0
LINE
 8
WHITE
 10
1.692
 20
5.543
 30
0.0000
 11
1.702999
 21
5.454999
 31
0.0000
 6
CONTINUOUS
 0
LINE
 8
WHITE
 10
1.702999
 20
5.454999
 30
0.0000
 11
1.710999
 21
5.329999
 31
0.0000
 6
CONTINUOUS
 0
LINE
 8
WHITE
 10
1.710999
 20
5.329999
 30
0.0000
 11
1.764999
 21
5.343999
 31
0.0000
 6
CONTINUOUS
 0
LINE
 8
WHITE
 10
1.764999
 20
5.343999
 30
0.0000
 11
1.769999
 21
5.353
 31
0.0000
 6
CONTINUOUS
 0
LINE
 8
WHITE
 10
.950999
 20
5.459
 30
0.0000
 11
.925
 21
5.361999
 31
0.0000
 6
CONTINUOUS
 0
LINE
 8
WHITE
 10
.925
 20
5.361999
 30
0.0000
 11
.976999
 21
5.348
 31
0.0000
 6
CONTINUOUS
 0
LINE
 8
WHITE
 10
.976999
 20
5.348
 30
0.0000
 11
1.046
 21
5.343999
 31
0.0000
 6
CONTINUOUS
 0
LINE
 8
WHITE
 10
1.046
 20
5.343999
 30
0.0000
 11
1.088999
 21
5.381999
 31
0.0000
 6
CONTINUOUS
 0
LINE
 8
WHITE
 10
1.088999
 20
5.381999
 30
0.0000
 11
1.108
 21
5.416999
 31
0.0000
 6
CONTINUOUS
 0
LINE
 8
WHITE
 10
1.108
 20
5.416999
 30
0.0000
 11
1.111999
 21
5.466
 31
0.0000
 6
CONTINUOUS
 0
LINE
 8
WHITE
 10
1.111999
 20
5.466
 30
0.0000
 11
1.029
 21
5.491
 31
0.0000
 6
CONTINUOUS
 0
LINE
 8
WHITE
 10
1.029
 20
5.491
 30
0.0000
 11
.944
 21
5.487999
 31
0.0000
 6
CONTINUOUS
 0
LINE
 8
WHITE
 10
.944
 20
5.487999
 30
0.0000
 11
.884
 21
5.451
 31
0.0000
 6
CONTINUOUS
 0
LINE
 8
WHITE
 10
.884
 20
5.451
 30
0.0000
 11
.871999
 21
5.375999
 31
0.0000
 6
CONTINUOUS
 0
LINE
 8
WHITE
 10
.871999
 20
5.375999
 30
0.0000
 11
.925
 21
5.361999
 31
0.0000
 6
CONTINUOUS
 0
LINE
 8
WHITE
 10
.925
 20
5.361999
 30
0.0000
 11
.933
 21
5.367
 31
0.0000
 6
CONTINUOUS
 0
LINE
 8
WHITE
 10
1.455
 20
5.551
 30
0.0000
 11
1.554
 21
5.540999
 31
0.0000
 6
CONTINUOUS
 0
LINE
 8
WHITE
 10
1.554
 20
5.540999
 30
0.0000
 11
1.559
 21
5.593999
 31
0.0000
 6
CONTINUOUS
 0
LINE
 8
WHITE
 10
1.559
 20
5.593999
 30
0.0000
 11
1.513
 21
5.592
 31
0.0000
 6
CONTINUOUS
 0
LINE
 8
WHITE
 10
1.513
 20
5.592
 30
0.0000
 11
1.445999
 21
5.577
 31
0.0000
 6
CONTINUOUS
 0
LINE
 8
WHITE
 10
1.445999
 20
5.577
 30
0.0000
 11
1.409
 21
5.522999
 31
0.0000
 6
CONTINUOUS
 0
LINE
 8
WHITE
 10
1.409
 20
5.522999
 30
0.0000
 11
1.325
 21
5.467
 31
0.0000
 6
CONTINUOUS
 0
LINE
 8
WHITE
 10
1.325
 20
5.467
 30
0.0000
 11
1.315999
 21
5.435999
 31
0.0000
 6
CONTINUOUS
 0
LINE
 8
WHITE
 10
1.315999
 20
5.435999
 30
0.0000
 11
1.337
 21
5.4
 31
0.0000
 6
CONTINUOUS
 0
ARC
 8
WHITE
 10
1.371899
 20
5.420199
 30
 0
 40
.040324
 50
210.0621
 51
274.4097
 6
CONTINUOUS
 0
LINE
 8
WHITE
 10
1.375
 20
5.38
 30
0.0000
 11
1.449
 21
5.387
 31
0.0000
 6
CONTINUOUS
 0
LINE
 8
WHITE
 10
1.449
 20
5.387
 30
0.0000
 11
1.513
 21
5.421
 31
0.0000
 6
CONTINUOUS
 0
LINE
 8
WHITE
 10
1.513
 20
5.421
 30
0.0000
 11
1.549
 21
5.487999
 31
0.0000
 6
CONTINUOUS
 0
LINE
 8
WHITE
 10
1.549
 20
5.487999
 30
0.0000
 11
1.554
 21
5.540999
 31
0.0000
 6
CONTINUOUS
 0
LINE
 8
WHITE
 10
1.554
 20
5.540999
 30
0.0000
 11
1.547999
 21
5.548999
 31
0.0000
 6
CONTINUOUS
 0
LINE
 8
WHITE
 10
1.248999
 20
5.598999
 30
0.0000
 11
1.243
 21
5.543
 31
0.0000
 6
CONTINUOUS
 0
LINE
 8
WHITE
 10
1.243
 20
5.543
 30
0.0000
 11
1.271999
 21
5.557
 31
0.0000
 6
CONTINUOUS
 0
LINE
 8
WHITE
 10
1.271999
 20
5.557
 30
0.0000
 11
1.312999
 21
5.607999
 31
0.0000
 6
CONTINUOUS
 0
LINE
 8
WHITE
 10
1.312999
 20
5.607999
 30
0.0000
 11
1.335999
 21
5.656
 31
0.0000
 6
CONTINUOUS
 0
LINE
 8
WHITE
 10
1.335999
 20
5.656
 30
0.0000
 11
1.309
 21
5.664
 31
0.0000
 6
CONTINUOUS
 0
LINE
 8
WHITE
 10
1.309
 20
5.664
 30
0.0000
 11
1.238999
 21
5.647999
 31
0.0000
 6
CONTINUOUS
 0
LINE
 8
WHITE
 10
1.238999
 20
5.647999
 30
0.0000
 11
1.194
 21
5.624
 31
0.0000
 6
CONTINUOUS
 0
ARC
 8
WHITE
 10
1.2041
 20
5.6066
 30
 0
 40
.020118
 50
120.1334
 51
161.4762
 6
CONTINUOUS
 0
LINE
 8
WHITE
 10
1.184999
 20
5.612999
 30
0.0000
 11
1.177
 21
5.592
 31
0.0000
 6
CONTINUOUS
 0
ARC
 8
WHITE
 10
1.196099
 20
5.585299
 30
 0
 40
.020241
 50
160.6699
 51
217.3789
 6
CONTINUOUS
 0
LINE
 8
WHITE
 10
1.179999
 20
5.572999
 30
0.0000
 11
1.213999
 21
5.527999
 31
0.0000
 6
CONTINUOUS
 0
LINE
 8
WHITE
 10
1.213999
 20
5.527999
 30
0.0000
 11
1.243
 21
5.543
 31
0.0000
 6
CONTINUOUS
 0
LINE
 8
WHITE
 10
1.243
 20
5.543
 30
0.0000
 11
1.246
 21
5.552
 31
0.0000
 6
CONTINUOUS
 0
LINE
 8
WHITE
 10
1.629999
 20
5.769
 30
0.0000
 11
1.600999
 21
5.725999
 31
0.0000
 6
CONTINUOUS
 0
LINE
 8
WHITE
 10
1.600999
 20
5.725999
 30
0.0000
 11
1.636999
 21
5.736
 31
0.0000
 6
CONTINUOUS
 0
ARC
 8
WHITE
 10
1.632499
 20
5.7551
 30
 0
 40
.019622
 50
283.2572
 51
322.0224
 6
CONTINUOUS
 0
LINE
 8
WHITE
 10
1.648
 20
5.743
 30
0.0000
 11
1.675999
 21
5.78
 31
0.0000
 6
CONTINUOUS
 0
ARC
 8
WHITE
 10
1.6597
 20
5.7916
 30
 0
 40
.020006
 50
324.5622
 51
15.63043
 6
CONTINUOUS
 0
LINE
 8
WHITE
 10
1.679
 20
5.796999
 30
0.0000
 11
1.666
 21
5.843999
 31
0.0000
 6
CONTINUOUS
 0
ARC
 8
WHITE
 10
1.646999
 20
5.838999
 30
 0
 40
.019646
 50
14.74356
 51
113.9621
 6
CONTINUOUS
 0
LINE
 8
WHITE
 10
1.639
 20
5.856999
 30
0.0000
 11
1.613999
 21
5.847
 31
0.0000
 6
CONTINUOUS
 0
LINE
 8
WHITE
 10
1.613999
 20
5.847
 30
0.0000
 11
1.534999
 21
5.785999
 31
0.0000
 6
CONTINUOUS
 0
ARC
 8
WHITE
 10
1.546999
 20
5.769999
 30
 0
 40
.02
 50
126.8699
 51
185.7102
 6
CONTINUOUS
 0
LINE
 8
WHITE
 10
1.526999
 20
5.768
 30
0.0000
 11
1.531
 21
5.735
 31
0.0000
 6
CONTINUOUS
 0
LINE
 8
WHITE
 10
1.531
 20
5.735
 30
0.0000
 11
1.559
 21
5.714
 31
0.0000
 6
CONTINUOUS
 0
LINE
 8
WHITE
 10
1.559
 20
5.714
 30
0.0000
 11
1.600999
 21
5.725999
 31
0.0000
 6
CONTINUOUS
 0
LINE
 8
WHITE
 10
1.600999
 20
5.725999
 30
0.0000
 11
1.605999
 21
5.734
 31
0.0000
 6
CONTINUOUS
 0
LINE
 8
WHITE
 10
1.902999
 20
6.074999
 30
0.0000
 11
1.916
 21
6.039
 31
0.0000
 6
CONTINUOUS
 0
LINE
 8
WHITE
 10
1.916
 20
6.039
 30
0.0000
 11
1.955999
 21
6.052999
 31
0.0000
 6
CONTINUOUS
 0
ARC
 8
WHITE
 10
1.948799
 20
6.071899
 30
 0
 40
.020224
 50
290.8545
 51
354.6274
 6
CONTINUOUS
 0
LINE
 8
WHITE
 10
1.968999
 20
6.07
 30
0.0000
 11
1.97
 21
6.083
 31
0.0000
 6
CONTINUOUS
 0
ARC
 8
WHITE
 10
1.95
 20
6.0836
 30
 0
 40
.020008
 50
358.2816
 51
66.50192
 6
CONTINUOUS
 0
LINE
 8
WHITE
 10
1.957999
 20
6.102
 30
0.0000
 11
1.929
 21
6.114999
 31
0.0000
 6
CONTINUOUS
 0
LINE
 8
WHITE
 10
1.929
 20
6.114999
 30
0.0000
 11
1.899999
 21
6.117
 31
0.0000
 6
CONTINUOUS
 0
LINE
 8
WHITE
 10
1.899999
 20
6.117
 30
0.0000
 11
1.850999
 21
6.074999
 31
0.0000
 6
CONTINUOUS
 0
LINE
 8
WHITE
 10
1.850999
 20
6.074999
 30
0.0000
 11
1.84
 21
6.046
 31
0.0000
 6
CONTINUOUS
 0
LINE
 8
WHITE
 10
1.84
 20
6.046
 30
0.0000
 11
1.865
 21
6.019999
 31
0.0000
 6
CONTINUOUS
 0
LINE
 8
WHITE
 10
1.865
 20
6.019999
 30
0.0000
 11
1.916
 21
6.039
 31
0.0000
 6
CONTINUOUS
 0
LINE
 8
WHITE
 10
1.916
 20
6.039
 30
0.0000
 11
1.919999
 21
6.047999
 31
0.0000
 6
CONTINUOUS
 0
LINE
 8
WHITE
 10
2.766999
 20
7.01
 30
0.0000
 11
2.68
 21
6.960999
 31
0.0000
 6
CONTINUOUS
 0
LINE
 8
WHITE
 10
2.68
 20
6.960999
 30
0.0000
 11
2.703
 21
6.92
 31
0.0000
 6
CONTINUOUS
 0
LINE
 8
WHITE
 10
2.703
 20
6.92
 30
0.0000
 11
2.729
 21
6.919
 31
0.0000
 6
CONTINUOUS
 0
LINE
 8
WHITE
 10
2.729
 20
6.919
 30
0.0000
 11
2.772
 21
6.960999
 31
0.0000
 6
CONTINUOUS
 0
LINE
 8
WHITE
 10
2.772
 20
6.960999
 30
0.0000
 11
2.798
 21
6.999
 31
0.0000
 6
CONTINUOUS
 0
LINE
 8
WHITE
 10
2.798
 20
6.999
 30
0.0000
 11
2.806999
 21
7.059999
 31
0.0000
 6
CONTINUOUS
 0
LINE
 8
WHITE
 10
2.806999
 20
7.059999
 30
0.0000
 11
2.776999
 21
7.099999
 31
0.0000
 6
CONTINUOUS
 0
LINE
 8
WHITE
 10
2.776999
 20
7.099999
 30
0.0000
 11
2.726999
 21
7.117
 31
0.0000
 6
CONTINUOUS
 0
LINE
 8
WHITE
 10
2.726999
 20
7.117
 30
0.0000
 11
2.677
 21
7.107999
 31
0.0000
 6
CONTINUOUS
 0
LINE
 8
WHITE
 10
2.677
 20
7.107999
 30
0.0000
 11
2.647
 21
7.071
 31
0.0000
 6
CONTINUOUS
 0
LINE
 8
WHITE
 10
2.647
 20
7.071
 30
0.0000
 11
2.657
 21
7.001999
 31
0.0000
 6
CONTINUOUS
 0
LINE
 8
WHITE
 10
2.657
 20
7.001999
 30
0.0000
 11
2.68
 21
6.960999
 31
0.0000
 6
CONTINUOUS
 0
LINE
 8
WHITE
 10
2.68
 20
6.960999
 30
0.0000
 11
2.69
 21
6.958
 31
0.0000
 6
CONTINUOUS
 0
LINE
 8
WHITE
 10
2.559
 20
6.499
 30
0.0000
 11
2.618999
 21
6.418
 31
0.0000
 6
CONTINUOUS
 0
LINE
 8
WHITE
 10
2.618999
 20
6.418
 30
0.0000
 11
2.707
 21
6.484
 31
0.0000
 6
CONTINUOUS
 0
LINE
 8
WHITE
 10
2.707
 20
6.484
 30
0.0000
 11
2.726
 21
6.517
 31
0.0000
 6
CONTINUOUS
 0
LINE
 8
WHITE
 10
2.726
 20
6.517
 30
0.0000
 11
2.732
 21
6.557
 31
0.0000
 6
CONTINUOUS
 0
LINE
 8
WHITE
 10
2.732
 20
6.557
 30
0.0000
 11
2.723
 21
6.605999
 31
0.0000
 6
CONTINUOUS
 0
LINE
 8
WHITE
 10
2.723
 20
6.605999
 30
0.0000
 11
2.697999
 21
6.668
 31
0.0000
 6
CONTINUOUS
 0
LINE
 8
WHITE
 10
2.697999
 20
6.668
 30
0.0000
 11
2.655999
 21
6.743999
 31
0.0000
 6
CONTINUOUS
 0
LINE
 8
WHITE
 10
2.655999
 20
6.743999
 30
0.0000
 11
2.595999
 21
6.836999
 31
0.0000
 6
CONTINUOUS
 0
LINE
 8
WHITE
 10
2.595999
 20
6.836999
 30
0.0000
 11
2.555
 21
6.863999
 31
0.0000
 6
CONTINUOUS
 0
LINE
 8
WHITE
 10
2.555
 20
6.863999
 30
0.0000
 11
2.506999
 21
6.866
 31
0.0000
 6
CONTINUOUS
 0
LINE
 8
WHITE
 10
2.506999
 20
6.866
 30
0.0000
 11
2.355
 21
6.752999
 31
0.0000
 6
CONTINUOUS
 0
LINE
 8
WHITE
 10
2.355
 20
6.752999
 30
0.0000
 11
2.278
 21
6.688
 31
0.0000
 6
CONTINUOUS
 0
LINE
 8
WHITE
 10
2.278
 20
6.688
 30
0.0000
 11
2.265
 21
6.618999
 31
0.0000
 6
CONTINUOUS
 0
LINE
 8
WHITE
 10
2.265
 20
6.618999
 30
0.0000
 11
2.272
 21
6.532
 31
0.0000
 6
CONTINUOUS
 0
LINE
 8
WHITE
 10
2.272
 20
6.532
 30
0.0000
 11
2.299
 21
6.440999
 31
0.0000
 6
CONTINUOUS
 0
LINE
 8
WHITE
 10
2.299
 20
6.440999
 30
0.0000
 11
2.345999
 21
6.361
 31
0.0000
 6
CONTINUOUS
 0
LINE
 8
WHITE
 10
2.345999
 20
6.361
 30
0.0000
 11
2.392999
 21
6.322999
 31
0.0000
 6
CONTINUOUS
 0
ARC
 8
WHITE
 10
2.418699
 20
6.354199
 30
 0
 40
.040421
 50
230.5211
 51
289.1964
 6
CONTINUOUS
 0
LINE
 8
WHITE
 10
2.431999
 20
6.315999
 30
0.0000
 11
2.529999
 21
6.353
 31
0.0000
 6
CONTINUOUS
 0
LINE
 8
WHITE
 10
2.529999
 20
6.353
 30
0.0000
 11
2.618999
 21
6.418
 31
0.0000
 6
CONTINUOUS
 0
LINE
 8
WHITE
 10
2.618999
 20
6.418
 30
0.0000
 11
2.619999
 21
6.427999
 31
0.0000
 6
CONTINUOUS
 0
LINE
 8
WHITE
 10
2.269
 20
6.024
 30
0.0000
 11
2.194
 21
5.958
 31
0.0000
 6
CONTINUOUS
 0
LINE
 8
WHITE
 10
2.194
 20
5.958
 30
0.0000
 11
2.230999
 21
5.914999
 31
0.0000
 6
CONTINUOUS
 0
LINE
 8
WHITE
 10
2.230999
 20
5.914999
 30
0.0000
 11
2.279999
 21
5.94
 31
0.0000
 6
CONTINUOUS
 0
LINE
 8
WHITE
 10
2.279999
 20
5.94
 30
0.0000
 11
2.315
 21
5.997
 31
0.0000
 6
CONTINUOUS
 0
LINE
 8
WHITE
 10
2.315
 20
5.997
 30
0.0000
 11
2.339999
 21
6.054999
 31
0.0000
 6
CONTINUOUS
 0
LINE
 8
WHITE
 10
2.339999
 20
6.054999
 30
0.0000
 11
2.325999
 21
6.146999
 31
0.0000
 6
CONTINUOUS
 0
LINE
 8
WHITE
 10
2.325999
 20
6.146999
 30
0.0000
 11
2.306999
 21
6.223
 31
0.0000
 6
CONTINUOUS
 0
LINE
 8
WHITE
 10
2.306999
 20
6.223
 30
0.0000
 11
2.282999
 21
6.282999
 31
0.0000
 6
CONTINUOUS
 0
LINE
 8
WHITE
 10
2.282999
 20
6.282999
 30
0.0000
 11
2.256
 21
6.328999
 31
0.0000
 6
CONTINUOUS
 0
LINE
 8
WHITE
 10
2.256
 20
6.328999
 30
0.0000
 11
2.194
 21
6.382999
 31
0.0000
 6
CONTINUOUS
 0
LINE
 8
WHITE
 10
2.194
 20
6.382999
 30
0.0000
 11
2.13
 21
6.394999
 31
0.0000
 6
CONTINUOUS
 0
LINE
 8
WHITE
 10
2.13
 20
6.394999
 30
0.0000
 11
2.072
 21
6.375
 31
0.0000
 6
CONTINUOUS
 0
LINE
 8
WHITE
 10
2.072
 20
6.375
 30
0.0000
 11
2.026999
 21
6.331999
 31
0.0000
 6
CONTINUOUS
 0
LINE
 8
WHITE
 10
2.026999
 20
6.331999
 30
0.0000
 11
2.005
 21
6.276999
 31
0.0000
 6
CONTINUOUS
 0
LINE
 8
WHITE
 10
2.005
 20
6.276999
 30
0.0000
 11
2.012
 21
6.217
 31
0.0000
 6
CONTINUOUS
 0
LINE
 8
WHITE
 10
2.012
 20
6.217
 30
0.0000
 11
2.059
 21
6.162
 31
0.0000
 6
CONTINUOUS
 0
LINE
 8
WHITE
 10
2.059
 20
6.162
 30
0.0000
 11
2.105999
 21
6.078999
 31
0.0000
 6
CONTINUOUS
 0
LINE
 8
WHITE
 10
2.105999
 20
6.078999
 30
0.0000
 11
2.155999
 21
6.000999
 31
0.0000
 6
CONTINUOUS
 0
LINE
 8
WHITE
 10
2.155999
 20
6.000999
 30
0.0000
 11
2.194
 21
5.958
 31
0.0000
 6
CONTINUOUS
 0
LINE
 8
WHITE
 10
2.194
 20
5.958
 30
0.0000
 11
2.203999
 21
5.956999
 31
0.0000
 6
CONTINUOUS
 0
LINE
 8
WHITE
 10
2.605999
 20
5.926
 30
0.0000
 11
2.520999
 21
5.873
 31
0.0000
 6
CONTINUOUS
 0
LINE
 8
WHITE
 10
2.520999
 20
5.873
 30
0.0000
 11
2.552
 21
5.824999
 31
0.0000
 6
CONTINUOUS
 0
LINE
 8
WHITE
 10
2.552
 20
5.824999
 30
0.0000
 11
2.558
 21
5.664
 31
0.0000
 6
CONTINUOUS
 0
LINE
 8
WHITE
 10
2.558
 20
5.664
 30
0.0000
 11
2.589999
 21
5.593999
 31
0.0000
 6
CONTINUOUS
 0
LINE
 8
WHITE
 10
2.589999
 20
5.593999
 30
0.0000
 11
2.677
 21
5.552
 31
0.0000
 6
CONTINUOUS
 0
LINE
 8
WHITE
 10
2.677
 20
5.552
 30
0.0000
 11
2.730999
 21
5.563
 31
0.0000
 6
CONTINUOUS
 0
LINE
 8
WHITE
 10
2.730999
 20
5.563
 30
0.0000
 11
2.779999
 21
5.586999
 31
0.0000
 6
CONTINUOUS
 0
LINE
 8
WHITE
 10
2.779999
 20
5.586999
 30
0.0000
 11
2.822
 21
5.622
 31
0.0000
 6
CONTINUOUS
 0
LINE
 8
WHITE
 10
2.822
 20
5.622
 30
0.0000
 11
2.858
 21
5.665999
 31
0.0000
 6
CONTINUOUS
 0
LINE
 8
WHITE
 10
2.858
 20
5.665999
 30
0.0000
 11
2.885999
 21
5.717
 31
0.0000
 6
CONTINUOUS
 0
LINE
 8
WHITE
 10
2.885999
 20
5.717
 30
0.0000
 11
2.907999
 21
5.774
 31
0.0000
 6
CONTINUOUS
 0
LINE
 8
WHITE
 10
2.907999
 20
5.774
 30
0.0000
 11
2.93
 21
5.899
 31
0.0000
 6
CONTINUOUS
 0
LINE
 8
WHITE
 10
2.93
 20
5.899
 30
0.0000
 11
2.928999
 21
5.962999
 31
0.0000
 6
CONTINUOUS
 0
LINE
 8
WHITE
 10
2.928999
 20
5.962999
 30
0.0000
 11
2.921
 21
6.025
 31
0.0000
 6
CONTINUOUS
 0
LINE
 8
WHITE
 10
2.921
 20
6.025
 30
0.0000
 11
2.904999
 21
6.084
 31
0.0000
 6
CONTINUOUS
 0
LINE
 8
WHITE
 10
2.904999
 20
6.084
 30
0.0000
 11
2.881
 21
6.138999
 31
0.0000
 6
CONTINUOUS
 0
LINE
 8
WHITE
 10
2.881
 20
6.138999
 30
0.0000
 11
2.848
 21
6.186999
 31
0.0000
 6
CONTINUOUS
 0
LINE
 8
WHITE
 10
2.848
 20
6.186999
 30
0.0000
 11
2.806999
 21
6.227
 31
0.0000
 6
CONTINUOUS
 0
LINE
 8
WHITE
 10
2.806999
 20
6.227
 30
0.0000
 11
2.757999
 21
6.256999
 31
0.0000
 6
CONTINUOUS
 0
LINE
 8
WHITE
 10
2.757999
 20
6.256999
 30
0.0000
 11
2.700999
 21
6.275
 31
0.0000
 6
CONTINUOUS
 0
LINE
 8
WHITE
 10
2.700999
 20
6.275
 30
0.0000
 11
2.641999
 21
6.254
 31
0.0000
 6
CONTINUOUS
 0
LINE
 8
WHITE
 10
2.641999
 20
6.254
 30
0.0000
 11
2.579999
 21
6.217999
 31
0.0000
 6
CONTINUOUS
 0
LINE
 8
WHITE
 10
2.579999
 20
6.217999
 30
0.0000
 11
2.546999
 21
6.183
 31
0.0000
 6
CONTINUOUS
 0
LINE
 8
WHITE
 10
2.546999
 20
6.183
 30
0.0000
 11
2.499
 21
6.113999
 31
0.0000
 6
CONTINUOUS
 0
LINE
 8
WHITE
 10
2.499
 20
6.113999
 30
0.0000
 11
2.476
 21
6.063
 31
0.0000
 6
CONTINUOUS
 0
LINE
 8
WHITE
 10
2.476
 20
6.063
 30
0.0000
 11
2.47
 21
6
 31
0.0000
 6
CONTINUOUS
 0
LINE
 8
WHITE
 10
2.47
 20
6
 30
0.0000
 11
2.490999
 21
5.921
 31
0.0000
 6
CONTINUOUS
 0
LINE
 8
WHITE
 10
2.490999
 20
5.921
 30
0.0000
 11
2.520999
 21
5.873
 31
0.0000
 6
CONTINUOUS
 0
LINE
 8
WHITE
 10
2.520999
 20
5.873
 30
0.0000
 11
2.530999
 21
5.870999
 31
0.0000
 6
CONTINUOUS
 0
LINE
 8
WHITE
 10
1.983999
 20
5.818999
 30
0.0000
 11
1.914
 21
5.748
 31
0.0000
 6
CONTINUOUS
 0
LINE
 8
WHITE
 10
1.914
 20
5.748
 30
0.0000
 11
1.963999
 21
5.697999
 31
0.0000
 6
CONTINUOUS
 0
LINE
 8
WHITE
 10
1.963999
 20
5.697999
 30
0.0000
 11
2.038
 21
5.703999
 31
0.0000
 6
CONTINUOUS
 0
LINE
 8
WHITE
 10
2.038
 20
5.703999
 30
0.0000
 11
2.072999
 21
5.715
 31
0.0000
 6
CONTINUOUS
 0
LINE
 8
WHITE
 10
2.072999
 20
5.715
 30
0.0000
 11
2.086999
 21
5.797999
 31
0.0000
 6
CONTINUOUS
 0
LINE
 8
WHITE
 10
2.086999
 20
5.797999
 30
0.0000
 11
2.078
 21
5.856999
 31
0.0000
 6
CONTINUOUS
 0
LINE
 8
WHITE
 10
2.078
 20
5.856999
 30
0.0000
 11
2.043999
 21
5.921999
 31
0.0000
 6
CONTINUOUS
 0
LINE
 8
WHITE
 10
2.043999
 20
5.921999
 30
0.0000
 11
1.952
 21
5.931
 31
0.0000
 6
CONTINUOUS
 0
LINE
 8
WHITE
 10
1.952
 20
5.931
 30
0.0000
 11
1.889999
 21
5.908999
 31
0.0000
 6
CONTINUOUS
 0
LINE
 8
WHITE
 10
1.889999
 20
5.908999
 30
0.0000
 11
1.83
 21
5.837999
 31
0.0000
 6
CONTINUOUS
 0
LINE
 8
WHITE
 10
1.83
 20
5.837999
 30
0.0000
 11
1.863
 21
5.797999
 31
0.0000
 6
CONTINUOUS
 0
LINE
 8
WHITE
 10
1.863
 20
5.797999
 30
0.0000
 11
1.914
 21
5.748
 31
0.0000
 6
CONTINUOUS
 0
LINE
 8
WHITE
 10
1.914
 20
5.748
 30
0.0000
 11
1.924
 21
5.749
 31
0.0000
 6
CONTINUOUS
 0
LINE
 8
WHITE
 10
2.357
 20
5.394
 30
0.0000
 11
2.456
 21
5.412
 31
0.0000
 6
CONTINUOUS
 0
LINE
 8
WHITE
 10
2.456
 20
5.412
 30
0.0000
 11
2.441999
 21
5.488999
 31
0.0000
 6
CONTINUOUS
 0
LINE
 8
WHITE
 10
2.441999
 20
5.488999
 30
0.0000
 11
2.39
 21
5.684
 31
0.0000
 6
CONTINUOUS
 0
LINE
 8
WHITE
 10
2.39
 20
5.684
 30
0.0000
 11
2.349999
 21
5.742
 31
0.0000
 6
CONTINUOUS
 0
LINE
 8
WHITE
 10
2.349999
 20
5.742
 30
0.0000
 11
2.299
 21
5.743999
 31
0.0000
 6
CONTINUOUS
 0
LINE
 8
WHITE
 10
2.299
 20
5.743999
 30
0.0000
 11
2.265
 21
5.732999
 31
0.0000
 6
CONTINUOUS
 0
LINE
 8
WHITE
 10
2.265
 20
5.732999
 30
0.0000
 11
2.141
 21
5.513
 31
0.0000
 6
CONTINUOUS
 0
LINE
 8
WHITE
 10
2.141
 20
5.513
 30
0.0000
 11
2.112999
 21
5.434
 31
0.0000
 6
CONTINUOUS
 0
LINE
 8
WHITE
 10
2.112999
 20
5.434
 30
0.0000
 11
2.105
 21
5.379
 31
0.0000
 6
CONTINUOUS
 0
ARC
 8
WHITE
 10
2.1449
 20
5.3736
 30
 0
 40
.040263
 50
172.2925
 51
242.0361
 6
CONTINUOUS
 0
LINE
 8
WHITE
 10
2.125999
 20
5.337999
 30
0.0000
 11
2.174
 21
5.311999
 31
0.0000
 6
CONTINUOUS
 0
LINE
 8
WHITE
 10
2.174
 20
5.311999
 30
0.0000
 11
2.233
 21
5.258999
 31
0.0000
 6
CONTINUOUS
 0
LINE
 8
WHITE
 10
2.233
 20
5.258999
 30
0.0000
 11
2.276
 21
5.191999
 31
0.0000
 6
CONTINUOUS
 0
LINE
 8
WHITE
 10
2.276
 20
5.191999
 30
0.0000
 11
2.302999
 21
5.105999
 31
0.0000
 6
CONTINUOUS
 0
LINE
 8
WHITE
 10
2.302999
 20
5.105999
 30
0.0000
 11
2.306999
 21
5.053999
 31
0.0000
 6
CONTINUOUS
 0
ARC
 8
WHITE
 10
2.346899
 20
5.058199
 30
 0
 40
.04012
 50
186.009
 51
287.5758
 6
CONTINUOUS
 0
LINE
 8
WHITE
 10
2.358999
 20
5.019999
 30
0.0000
 11
2.378999
 21
5.026
 31
0.0000
 6
CONTINUOUS
 0
LINE
 8
WHITE
 10
2.378999
 20
5.026
 30
0.0000
 11
2.424999
 21
5.067999
 31
0.0000
 6
CONTINUOUS
 0
LINE
 8
WHITE
 10
2.424999
 20
5.067999
 30
0.0000
 11
2.453999
 21
5.122
 31
0.0000
 6
CONTINUOUS
 0
LINE
 8
WHITE
 10
2.453999
 20
5.122
 30
0.0000
 11
2.47
 21
5.185999
 31
0.0000
 6
CONTINUOUS
 0
LINE
 8
WHITE
 10
2.47
 20
5.185999
 30
0.0000
 11
2.473999
 21
5.257999
 31
0.0000
 6
CONTINUOUS
 0
LINE
 8
WHITE
 10
2.473999
 20
5.257999
 30
0.0000
 11
2.469
 21
5.334
 31
0.0000
 6
CONTINUOUS
 0
LINE
 8
WHITE
 10
2.469
 20
5.334
 30
0.0000
 11
2.456
 21
5.412
 31
0.0000
 6
CONTINUOUS
 0
LINE
 8
WHITE
 10
2.456
 20
5.412
 30
0.0000
 11
2.447
 21
5.416999
 31
0.0000
 6
CONTINUOUS
 0
LINE
 8
WHITE
 10
1.976999
 20
5.11
 30
0.0000
 11
1.983999
 21
5.21
 31
0.0000
 6
CONTINUOUS
 0
LINE
 8
WHITE
 10
1.983999
 20
5.21
 30
0.0000
 11
1.896999
 21
5.216
 31
0.0000
 6
CONTINUOUS
 0
LINE
 8
WHITE
 10
1.896999
 20
5.216
 30
0.0000
 11
1.855
 21
5.206999
 31
0.0000
 6
CONTINUOUS
 0
LINE
 8
WHITE
 10
1.855
 20
5.206999
 30
0.0000
 11
1.837
 21
5.189
 31
0.0000
 6
CONTINUOUS
 0
LINE
 8
WHITE
 10
1.837
 20
5.189
 30
0.0000
 11
1.832
 21
5.146999
 31
0.0000
 6
CONTINUOUS
 0
LINE
 8
WHITE
 10
1.832
 20
5.146999
 30
0.0000
 11
1.916
 21
5.085999
 31
0.0000
 6
CONTINUOUS
 0
LINE
 8
WHITE
 10
1.916
 20
5.085999
 30
0.0000
 11
2.016999
 21
5.026999
 31
0.0000
 6
CONTINUOUS
 0
LINE
 8
WHITE
 10
2.016999
 20
5.026999
 30
0.0000
 11
2.138999
 21
4.985
 31
0.0000
 6
CONTINUOUS
 0
LINE
 8
WHITE
 10
2.138999
 20
4.985
 30
0.0000
 11
2.171999
 21
5.004
 31
0.0000
 6
CONTINUOUS
 0
ARC
 8
WHITE
 10
2.151599
 20
5.0384
 30
 0
 40
.039994
 50
300.6689
 51
9.509318
 6
CONTINUOUS
 0
LINE
 8
WHITE
 10
2.190999
 20
5.045
 30
0.0000
 11
2.18
 21
5.107999
 31
0.0000
 6
CONTINUOUS
 0
LINE
 8
WHITE
 10
2.18
 20
5.107999
 30
0.0000
 11
2.135999
 21
5.17
 31
0.0000
 6
CONTINUOUS
 0
LINE
 8
WHITE
 10
2.135999
 20
5.17
 30
0.0000
 11
2.072
 21
5.203
 31
0.0000
 6
CONTINUOUS
 0
LINE
 8
WHITE
 10
2.072
 20
5.203
 30
0.0000
 11
1.983999
 21
5.21
 31
0.0000
 6
CONTINUOUS
 0
LINE
 8
WHITE
 10
1.983999
 20
5.21
 30
0.0000
 11
1.976999
 21
5.203
 31
0.0000
 6
CONTINUOUS
 0
LINE
 8
WHITE
 10
2.763999
 20
4.98
 30
0.0000
 11
2.799999
 21
5.072999
 31
0.0000
 6
CONTINUOUS
 0
LINE
 8
WHITE
 10
2.799999
 20
5.072999
 30
0.0000
 11
2.743999
 21
5.096
 31
0.0000
 6
CONTINUOUS
 0
LINE
 8
WHITE
 10
2.743999
 20
5.096
 30
0.0000
 11
2.663
 21
5.099999
 31
0.0000
 6
CONTINUOUS
 0
LINE
 8
WHITE
 10
2.663
 20
5.099999
 30
0.0000
 11
2.618999
 21
5.073999
 31
0.0000
 6
CONTINUOUS
 0
LINE
 8
WHITE
 10
2.618999
 20
5.073999
 30
0.0000
 11
2.614
 21
5.024
 31
0.0000
 6
CONTINUOUS
 0
LINE
 8
WHITE
 10
2.614
 20
5.024
 30
0.0000
 11
2.653
 21
4.953999
 31
0.0000
 6
CONTINUOUS
 0
LINE
 8
WHITE
 10
2.653
 20
4.953999
 30
0.0000
 11
2.743
 21
4.873
 31
0.0000
 6
CONTINUOUS
 0
LINE
 8
WHITE
 10
2.743
 20
4.873
 30
0.0000
 11
2.805999
 21
4.831999
 31
0.0000
 6
CONTINUOUS
 0
LINE
 8
WHITE
 10
2.805999
 20
4.831999
 30
0.0000
 11
2.88
 21
4.854
 31
0.0000
 6
CONTINUOUS
 0
LINE
 8
WHITE
 10
2.88
 20
4.854
 30
0.0000
 11
2.96
 21
4.9
 31
0.0000
 6
CONTINUOUS
 0
LINE
 8
WHITE
 10
2.96
 20
4.9
 30
0.0000
 11
2.976999
 21
4.929999
 31
0.0000
 6
CONTINUOUS
 0
ARC
 8
WHITE
 10
2.9418
 20
4.949699
 30
 0
 40
.040337
 50
330.7661
 51
53.15854
 6
CONTINUOUS
 0
LINE
 8
WHITE
 10
2.966
 20
4.981999
 30
0.0000
 11
2.924999
 21
5.012
 31
0.0000
 6
CONTINUOUS
 0
LINE
 8
WHITE
 10
2.924999
 20
5.012
 30
0.0000
 11
2.857
 21
5.051
 31
0.0000
 6
CONTINUOUS
 0
LINE
 8
WHITE
 10
2.857
 20
5.051
 30
0.0000
 11
2.799999
 21
5.072999
 31
0.0000
 6
CONTINUOUS
 0
LINE
 8
WHITE
 10
2.799999
 20
5.072999
 30
0.0000
 11
2.790999
 21
5.068999
 31
0.0000
 6
CONTINUOUS
 0
LINE
 8
WHITE
 10
2.101999
 20
4.776
 30
0.0000
 11
2.197999
 21
4.804999
 31
0.0000
 6
CONTINUOUS
 0
LINE
 8
WHITE
 10
2.197999
 20
4.804999
 30
0.0000
 11
2.184
 21
4.854
 31
0.0000
 6
CONTINUOUS
 0
LINE
 8
WHITE
 10
2.184
 20
4.854
 30
0.0000
 11
2.177999
 21
4.863999
 31
0.0000
 6
CONTINUOUS
 0
ARC
 8
WHITE
 10
2.143399
 20
4.8434
 30
 0
 40
.040268
 50
30.76854
 51
136.8088
 6
CONTINUOUS
 0
LINE
 8
WHITE
 10
2.114
 20
4.870999
 30
0.0000
 11
2.101999
 21
4.859
 31
0.0000
 6
CONTINUOUS
 0
LINE
 8
WHITE
 10
2.101999
 20
4.859
 30
0.0000
 11
2.071
 21
4.796
 31
0.0000
 6
CONTINUOUS
 0
LINE
 8
WHITE
 10
2.071
 20
4.796
 30
0.0000
 11
2.062999
 21
4.731999
 31
0.0000
 6
CONTINUOUS
 0
LINE
 8
WHITE
 10
2.062999
 20
4.731999
 30
0.0000
 11
2.088
 21
4.664999
 31
0.0000
 6
CONTINUOUS
 0
LINE
 8
WHITE
 10
2.088
 20
4.664999
 30
0.0000
 11
2.155999
 21
4.592
 31
0.0000
 6
CONTINUOUS
 0
LINE
 8
WHITE
 10
2.155999
 20
4.592
 30
0.0000
 11
2.190999
 21
4.607999
 31
0.0000
 6
CONTINUOUS
 0
LINE
 8
WHITE
 10
2.190999
 20
4.607999
 30
0.0000
 11
2.213999
 21
4.657
 31
0.0000
 6
CONTINUOUS
 0
LINE
 8
WHITE
 10
2.213999
 20
4.657
 30
0.0000
 11
2.213
 21
4.756
 31
0.0000
 6
CONTINUOUS
 0
LINE
 8
WHITE
 10
2.213
 20
4.756
 30
0.0000
 11
2.197999
 21
4.804999
 31
0.0000
 6
CONTINUOUS
 0
LINE
 8
WHITE
 10
2.197999
 20
4.804999
 30
0.0000
 11
2.188999
 21
4.809999
 31
0.0000
 6
CONTINUOUS
 0
LINE
 8
WHITE
 10
2.456
 20
4.745999
 30
0.0000
 11
2.407999
 21
4.657999
 31
0.0000
 6
CONTINUOUS
 0
LINE
 8
WHITE
 10
2.407999
 20
4.657999
 30
0.0000
 11
2.424
 21
4.649
 31
0.0000
 6
CONTINUOUS
 0
LINE
 8
WHITE
 10
2.424
 20
4.649
 30
0.0000
 11
2.470999
 21
4.684
 31
0.0000
 6
CONTINUOUS
 0
LINE
 8
WHITE
 10
2.470999
 20
4.684
 30
0.0000
 11
2.502
 21
4.767
 31
0.0000
 6
CONTINUOUS
 0
LINE
 8
WHITE
 10
2.502
 20
4.767
 30
0.0000
 11
2.510999
 21
4.854
 31
0.0000
 6
CONTINUOUS
 0
LINE
 8
WHITE
 10
2.510999
 20
4.854
 30
0.0000
 11
2.490999
 21
4.901
 31
0.0000
 6
CONTINUOUS
 0
LINE
 8
WHITE
 10
2.490999
 20
4.901
 30
0.0000
 11
2.421999
 21
4.881999
 31
0.0000
 6
CONTINUOUS
 0
LINE
 8
WHITE
 10
2.421999
 20
4.881999
 30
0.0000
 11
2.38
 21
4.835999
 31
0.0000
 6
CONTINUOUS
 0
LINE
 8
WHITE
 10
2.38
 20
4.835999
 30
0.0000
 11
2.364
 21
4.774
 31
0.0000
 6
CONTINUOUS
 0
LINE
 8
WHITE
 10
2.364
 20
4.774
 30
0.0000
 11
2.369999
 21
4.712999
 31
0.0000
 6
CONTINUOUS
 0
LINE
 8
WHITE
 10
2.369999
 20
4.712999
 30
0.0000
 11
2.391999
 21
4.666999
 31
0.0000
 6
CONTINUOUS
 0
LINE
 8
WHITE
 10
2.391999
 20
4.666999
 30
0.0000
 11
2.407999
 21
4.657999
 31
0.0000
 6
CONTINUOUS
 0
LINE
 8
WHITE
 10
2.407999
 20
4.657999
 30
0.0000
 11
2.417999
 21
4.660999
 31
0.0000
 6
CONTINUOUS
 0
LINE
 8
WHITE
 10
2.67
 20
4.502999
 30
0.0000
 11
2.684999
 21
4.386
 31
0.0000
 6
CONTINUOUS
 0
LINE
 8
WHITE
 10
2.684999
 20
4.386
 30
0.0000
 11
2.733
 21
4.428999
 31
0.0000
 6
CONTINUOUS
 0
LINE
 8
WHITE
 10
2.733
 20
4.428999
 30
0.0000
 11
2.765
 21
4.492
 31
0.0000
 6
CONTINUOUS
 0
LINE
 8
WHITE
 10
2.765
 20
4.492
 30
0.0000
 11
2.783999
 21
4.566999
 31
0.0000
 6
CONTINUOUS
 0
LINE
 8
WHITE
 10
2.783999
 20
4.566999
 30
0.0000
 11
2.789
 21
4.640999
 31
0.0000
 6
CONTINUOUS
 0
LINE
 8
WHITE
 10
2.789
 20
4.640999
 30
0.0000
 11
2.779
 21
4.702
 31
0.0000
 6
CONTINUOUS
 0
LINE
 8
WHITE
 10
2.779
 20
4.702
 30
0.0000
 11
2.756
 21
4.736
 31
0.0000
 6
CONTINUOUS
 0
LINE
 8
WHITE
 10
2.756
 20
4.736
 30
0.0000
 11
2.676
 21
4.728
 31
0.0000
 6
CONTINUOUS
 0
LINE
 8
WHITE
 10
2.676
 20
4.728
 30
0.0000
 11
2.625
 21
4.699999
 31
0.0000
 6
CONTINUOUS
 0
LINE
 8
WHITE
 10
2.625
 20
4.699999
 30
0.0000
 11
2.596999
 21
4.656
 31
0.0000
 6
CONTINUOUS
 0
LINE
 8
WHITE
 10
2.596999
 20
4.656
 30
0.0000
 11
2.588
 21
4.598999
 31
0.0000
 6
CONTINUOUS
 0
LINE
 8
WHITE
 10
2.588
 20
4.598999
 30
0.0000
 11
2.592999
 21
4.532
 31
0.0000
 6
CONTINUOUS
 0
LINE
 8
WHITE
 10
2.592999
 20
4.532
 30
0.0000
 11
2.591
 21
4.458
 31
0.0000
 6
CONTINUOUS
 0
LINE
 8
WHITE
 10
2.591
 20
4.458
 30
0.0000
 11
2.571
 21
4.428999
 31
0.0000
 6
CONTINUOUS
 0
LINE
 8
WHITE
 10
2.571
 20
4.428999
 30
0.0000
 11
2.500999
 21
4.423999
 31
0.0000
 6
CONTINUOUS
 0
LINE
 8
WHITE
 10
2.500999
 20
4.423999
 30
0.0000
 11
2.457
 21
4.394
 31
0.0000
 6
CONTINUOUS
 0
LINE
 8
WHITE
 10
2.457
 20
4.394
 30
0.0000
 11
2.46
 21
4.344999
 31
0.0000
 6
CONTINUOUS
 0
LINE
 8
WHITE
 10
2.46
 20
4.344999
 30
0.0000
 11
2.525
 21
4.221
 31
0.0000
 6
CONTINUOUS
 0
LINE
 8
WHITE
 10
2.525
 20
4.221
 30
0.0000
 11
2.551
 21
4.183
 31
0.0000
 6
CONTINUOUS
 0
LINE
 8
WHITE
 10
2.551
 20
4.183
 30
0.0000
 11
2.611
 21
4.242
 31
0.0000
 6
CONTINUOUS
 0
LINE
 8
WHITE
 10
2.611
 20
4.242
 30
0.0000
 11
2.637
 21
4.342999
 31
0.0000
 6
CONTINUOUS
 0
LINE
 8
WHITE
 10
2.637
 20
4.342999
 30
0.0000
 11
2.684999
 21
4.386
 31
0.0000
 6
CONTINUOUS
 0
LINE
 8
WHITE
 10
2.684999
 20
4.386
 30
0.0000
 11
2.684999
 21
4.395999
 31
0.0000
 6
CONTINUOUS
 0
LINE
 8
WHITE
 10
2.051
 20
4.399
 30
0.0000
 11
2.095999
 21
4.309999
 31
0.0000
 6
CONTINUOUS
 0
LINE
 8
WHITE
 10
2.095999
 20
4.309999
 30
0.0000
 11
2.163
 21
4.342999
 31
0.0000
 6
CONTINUOUS
 0
LINE
 8
WHITE
 10
2.163
 20
4.342999
 30
0.0000
 11
2.2
 21
4.388
 31
0.0000
 6
CONTINUOUS
 0
LINE
 8
WHITE
 10
2.2
 20
4.388
 30
0.0000
 11
2.246
 21
4.478
 31
0.0000
 6
CONTINUOUS
 0
LINE
 8
WHITE
 10
2.246
 20
4.478
 30
0.0000
 11
2.220999
 21
4.494999
 31
0.0000
 6
CONTINUOUS
 0
LINE
 8
WHITE
 10
2.220999
 20
4.494999
 30
0.0000
 11
2.121
 21
4.493999
 31
0.0000
 6
CONTINUOUS
 0
LINE
 8
WHITE
 10
2.121
 20
4.493999
 30
0.0000
 11
2.058
 21
4.469999
 31
0.0000
 6
CONTINUOUS
 0
LINE
 8
WHITE
 10
2.058
 20
4.469999
 30
0.0000
 11
2.002
 21
4.42
 31
0.0000
 6
CONTINUOUS
 0
LINE
 8
WHITE
 10
2.002
 20
4.42
 30
0.0000
 11
1.975999
 21
4.344999
 31
0.0000
 6
CONTINUOUS
 0
LINE
 8
WHITE
 10
1.975999
 20
4.344999
 30
0.0000
 11
1.983999
 21
4.284999
 31
0.0000
 6
CONTINUOUS
 0
LINE
 8
WHITE
 10
1.983999
 20
4.284999
 30
0.0000
 11
2.028
 21
4.276
 31
0.0000
 6
CONTINUOUS
 0
LINE
 8
WHITE
 10
2.028
 20
4.276
 30
0.0000
 11
2.095999
 21
4.309999
 31
0.0000
 6
CONTINUOUS
 0
LINE
 8
WHITE
 10
2.095999
 20
4.309999
 30
0.0000
 11
2.098999
 21
4.318999
 31
0.0000
 6
CONTINUOUS
 0
LINE
 8
WHITE
 10
2.237999
 20
4.138
 30
0.0000
 11
2.332
 21
4.100999
 31
0.0000
 6
CONTINUOUS
 0
LINE
 8
WHITE
 10
2.332
 20
4.100999
 30
0.0000
 11
2.358
 21
4.169
 31
0.0000
 6
CONTINUOUS
 0
LINE
 8
WHITE
 10
2.358
 20
4.169
 30
0.0000
 11
2.359999
 21
4.228
 31
0.0000
 6
CONTINUOUS
 0
LINE
 8
WHITE
 10
2.359999
 20
4.228
 30
0.0000
 11
2.223999
 21
4.177999
 31
0.0000
 6
CONTINUOUS
 0
LINE
 8
WHITE
 10
2.223999
 20
4.177999
 30
0.0000
 11
2.141
 21
4.127999
 31
0.0000
 6
CONTINUOUS
 0
LINE
 8
WHITE
 10
2.141
 20
4.127999
 30
0.0000
 11
2.112999
 21
4.078
 31
0.0000
 6
CONTINUOUS
 0
LINE
 8
WHITE
 10
2.112999
 20
4.078
 30
0.0000
 11
2.128999
 21
4.057
 31
0.0000
 6
CONTINUOUS
 0
LINE
 8
WHITE
 10
2.128999
 20
4.057
 30
0.0000
 11
2.174
 21
4.037
 31
0.0000
 6
CONTINUOUS
 0
LINE
 8
WHITE
 10
2.174
 20
4.037
 30
0.0000
 11
2.253999
 21
4.020999
 31
0.0000
 6
CONTINUOUS
 0
LINE
 8
WHITE
 10
2.253999
 20
4.020999
 30
0.0000
 11
2.305
 21
4.032999
 31
0.0000
 6
CONTINUOUS
 0
LINE
 8
WHITE
 10
2.305
 20
4.032999
 30
0.0000
 11
2.332
 21
4.100999
 31
0.0000
 6
CONTINUOUS
 0
LINE
 8
WHITE
 10
2.332
 20
4.100999
 30
0.0000
 11
2.326999
 21
4.11
 31
0.0000
 6
CONTINUOUS
 0
LINE
 8
WHITE
 10
2.799
 20
3.694
 30
0.0000
 11
2.813999
 21
3.792999
 31
0.0000
 6
CONTINUOUS
 0
LINE
 8
WHITE
 10
2.813999
 20
3.792999
 30
0.0000
 11
2.756999
 21
3.802
 31
0.0000
 6
CONTINUOUS
 0
ARC
 8
WHITE
 10
2.7511
 20
3.762
 30
 0
 40
.040432
 50
81.60938
 51
150.3255
 6
CONTINUOUS
 0
LINE
 8
WHITE
 10
2.716
 20
3.782
 30
0.0000
 11
2.694
 21
3.742
 31
0.0000
 6
CONTINUOUS
 0
LINE
 8
WHITE
 10
2.694
 20
3.742
 30
0.0000
 11
2.69
 21
3.693
 31
0.0000
 6
CONTINUOUS
 0
LINE
 8
WHITE
 10
2.69
 20
3.693
 30
0.0000
 11
2.821
 21
3.628999
 31
0.0000
 6
CONTINUOUS
 0
ARC
 8
WHITE
 10
2.8386
 20
3.6647
 30
 0
 40
.039802
 50
243.7568
 51
326.9879
 6
CONTINUOUS
 0
LINE
 8
WHITE
 10
2.871999
 20
3.642999
 30
0.0000
 11
2.892999
 21
3.674
 31
0.0000
 6
CONTINUOUS
 0
LINE
 8
WHITE
 10
2.892999
 20
3.674
 30
0.0000
 11
2.904999
 21
3.732
 31
0.0000
 6
CONTINUOUS
 0
LINE
 8
WHITE
 10
2.904999
 20
3.732
 30
0.0000
 11
2.898
 21
3.779999
 31
0.0000
 6
CONTINUOUS
 0
LINE
 8
WHITE
 10
2.898
 20
3.779999
 30
0.0000
 11
2.813999
 21
3.792999
 31
0.0000
 6
CONTINUOUS
 0
LINE
 8
WHITE
 10
2.813999
 20
3.792999
 30
0.0000
 11
2.805999
 21
3.786999
 31
0.0000
 6
CONTINUOUS
 0
LINE
 8
WHITE
 10
2.740999
 20
3.391999
 30
0.0000
 11
2.716
 21
3.487999
 31
0.0000
 6
CONTINUOUS
 0
LINE
 8
WHITE
 10
2.716
 20
3.487999
 30
0.0000
 11
2.68
 21
3.479
 31
0.0000
 6
CONTINUOUS
 0
LINE
 8
WHITE
 10
2.68
 20
3.479
 30
0.0000
 11
2.663
 21
3.421
 31
0.0000
 6
CONTINUOUS
 0
LINE
 8
WHITE
 10
2.663
 20
3.421
 30
0.0000
 11
2.701999
 21
3.377
 31
0.0000
 6
CONTINUOUS
 0
LINE
 8
WHITE
 10
2.701999
 20
3.377
 30
0.0000
 11
2.773
 21
3.371999
 31
0.0000
 6
CONTINUOUS
 0
LINE
 8
WHITE
 10
2.773
 20
3.371999
 30
0.0000
 11
2.815
 21
3.4
 31
0.0000
 6
CONTINUOUS
 0
LINE
 8
WHITE
 10
2.815
 20
3.4
 30
0.0000
 11
2.849999
 21
3.45
 31
0.0000
 6
CONTINUOUS
 0
LINE
 8
WHITE
 10
2.849999
 20
3.45
 30
0.0000
 11
2.848
 21
3.489
 31
0.0000
 6
CONTINUOUS
 0
LINE
 8
WHITE
 10
2.848
 20
3.489
 30
0.0000
 11
2.835999
 21
3.513999
 31
0.0000
 6
CONTINUOUS
 0
LINE
 8
WHITE
 10
2.835999
 20
3.513999
 30
0.0000
 11
2.775
 21
3.512
 31
0.0000
 6
CONTINUOUS
 0
LINE
 8
WHITE
 10
2.775
 20
3.512
 30
0.0000
 11
2.752
 21
3.497999
 31
0.0000
 6
CONTINUOUS
 0
LINE
 8
WHITE
 10
2.752
 20
3.497999
 30
0.0000
 11
2.716
 21
3.487999
 31
0.0000
 6
CONTINUOUS
 0
LINE
 8
WHITE
 10
2.716
 20
3.487999
 30
0.0000
 11
2.710999
 21
3.48
 31
0.0000
 6
CONTINUOUS
 0
LINE
 8
WHITE
 10
2.752
 20
3.191999
 30
0.0000
 11
2.792999
 21
3.292999
 31
0.0000
 6
CONTINUOUS
 0
LINE
 8
WHITE
 10
2.792999
 20
3.292999
 30
0.0000
 11
2.769
 21
3.290999
 31
0.0000
 6
CONTINUOUS
 0
LINE
 8
WHITE
 10
2.769
 20
3.290999
 30
0.0000
 11
2.733999
 21
3.243999
 31
0.0000
 6
CONTINUOUS
 0
LINE
 8
WHITE
 10
2.733999
 20
3.243999
 30
0.0000
 11
2.71
 21
3.197
 31
0.0000
 6
CONTINUOUS
 0
LINE
 8
WHITE
 10
2.71
 20
3.197
 30
0.0000
 11
2.703999
 21
3.154999
 31
0.0000
 6
CONTINUOUS
 0
ARC
 8
WHITE
 10
2.723999
 20
3.152299
 30
 0
 40
.020181
 50
172.3116
 51
252.7304
 6
CONTINUOUS
 0
LINE
 8
WHITE
 10
2.717999
 20
3.132999
 30
0.0000
 11
2.736
 21
3.128
 31
0.0000
 6
CONTINUOUS
 0
ARC
 8
WHITE
 10
2.7424
 20
3.146899
 30
 0
 40
.019954
 50
251.2927
 51
302.0966
 6
CONTINUOUS
 0
LINE
 8
WHITE
 10
2.753
 20
3.13
 30
0.0000
 11
2.796
 21
3.158999
 31
0.0000
 6
CONTINUOUS
 0
ARC
 8
WHITE
 10
2.7846
 20
3.175699
 30
 0
 40
.02022
 50
304.3188
 51
343.6267
 6
CONTINUOUS
 0
LINE
 8
WHITE
 10
2.803999
 20
3.17
 30
0.0000
 11
2.819
 21
3.226999
 31
0.0000
 6
CONTINUOUS
 0
LINE
 8
WHITE
 10
2.819
 20
3.226999
 30
0.0000
 11
2.816999
 21
3.296
 31
0.0000
 6
CONTINUOUS
 0
LINE
 8
WHITE
 10
2.816999
 20
3.296
 30
0.0000
 11
2.792999
 21
3.292999
 31
0.0000
 6
CONTINUOUS
 0
LINE
 8
WHITE
 10
2.792999
 20
3.292999
 30
0.0000
 11
2.786999
 21
3.285
 31
0.0000
 6
CONTINUOUS
 0
LINE
 8
WHITE
 10
2.67
 20
2.973
 30
0.0000
 11
2.688999
 21
2.93
 31
0.0000
 6
CONTINUOUS
 0
LINE
 8
WHITE
 10
2.688999
 20
2.93
 30
0.0000
 11
2.713999
 21
2.940999
 31
0.0000
 6
CONTINUOUS
 0
LINE
 8
WHITE
 10
2.713999
 20
2.940999
 30
0.0000
 11
2.734999
 21
2.979
 31
0.0000
 6
CONTINUOUS
 0
ARC
 8
WHITE
 10
2.7184
 20
2.9897
 30
 0
 40
.019749
 50
327.195
 51
6.692973
 6
CONTINUOUS
 0
LINE
 8
WHITE
 10
2.737999
 20
2.992
 30
0.0000
 11
2.733999
 21
3.013999
 31
0.0000
 6
CONTINUOUS
 0
ARC
 8
WHITE
 10
2.713999
 20
3.010699
 30
 0
 40
.02027
 50
9.369385
 51
107.2696
 6
CONTINUOUS
 0
LINE
 8
WHITE
 10
2.707999
 20
3.029999
 30
0.0000
 11
2.688999
 21
3.023999
 31
0.0000
 6
CONTINUOUS
 0
ARC
 8
WHITE
 10
2.695299
 20
3.0051
 30
 0
 40
.019922
 50
108.435
 51
156.6502
 6
CONTINUOUS
 0
LINE
 8
WHITE
 10
2.677
 20
3.013
 30
0.0000
 11
2.657999
 21
2.97
 31
0.0000
 6
CONTINUOUS
 0
ARC
 8
WHITE
 10
2.676199
 20
2.962399
 30
 0
 40
.019723
 50
157.3354
 51
192.9075
 6
CONTINUOUS
 0
LINE
 8
WHITE
 10
2.657
 20
2.957999
 30
0.0000
 11
2.664999
 21
2.918999
 31
0.0000
 6
CONTINUOUS
 0
LINE
 8
WHITE
 10
2.664999
 20
2.918999
 30
0.0000
 11
2.688999
 21
2.93
 31
0.0000
 6
CONTINUOUS
 0
LINE
 8
WHITE
 10
2.688999
 20
2.93
 30
0.0000
 11
2.693
 21
2.938999
 31
0.0000
 6
CONTINUOUS
 0
LINE
 8
WHITE
 10
2.805
 20
2.841
 30
0.0000
 11
2.825
 21
2.805999
 31
0.0000
 6
CONTINUOUS
 0
LINE
 8
WHITE
 10
2.825
 20
2.805999
 30
0.0000
 11
2.859999
 21
2.826999
 31
0.0000
 6
CONTINUOUS
 0
LINE
 8
WHITE
 10
2.859999
 20
2.826999
 30
0.0000
 11
2.867
 21
2.861
 31
0.0000
 6
CONTINUOUS
 0
LINE
 8
WHITE
 10
2.867
 20
2.861
 30
0.0000
 11
2.812999
 21
2.894999
 31
0.0000
 6
CONTINUOUS
 0
ARC
 8
WHITE
 10
2.802399
 20
2.877799
 30
 0
 40
.020203
 50
58.35534
 51
135.4003
 6
CONTINUOUS
 0
LINE
 8
WHITE
 10
2.788
 20
2.891999
 30
0.0000
 11
2.767999
 21
2.869999
 31
0.0000
 6
CONTINUOUS
 0
ARC
 8
WHITE
 10
2.782399
 20
2.855399
 30
 0
 40
.020506
 50
134.6049
 51
161.2109
 6
CONTINUOUS
 0
LINE
 8
WHITE
 10
2.763
 20
2.861999
 30
0.0000
 11
2.752
 21
2.822999
 31
0.0000
 6
CONTINUOUS
 0
ARC
 8
WHITE
 10
2.7709
 20
2.817499
 30
 0
 40
.019684
 50
163.7747
 51
243.0435
 6
CONTINUOUS
 0
LINE
 8
WHITE
 10
2.762
 20
2.799999
 30
0.0000
 11
2.780999
 21
2.790999
 31
0.0000
 6
CONTINUOUS
 0
ARC
 8
WHITE
 10
2.790499
 20
2.808699
 30
 0
 40
.020088
 50
241.7765
 51
298.2236
 6
CONTINUOUS
 0
LINE
 8
WHITE
 10
2.799999
 20
2.790999
 30
0.0000
 11
2.825
 21
2.805999
 31
0.0000
 6
CONTINUOUS
 0
LINE
 8
WHITE
 10
2.825
 20
2.805999
 30
0.0000
 11
2.828
 21
2.815999
 31
0.0000
 6
CONTINUOUS
 0
LINE
 8
WHITE
 10
2.706
 20
2.664
 30
0.0000
 11
2.664999
 21
2.7
 31
0.0000
 6
CONTINUOUS
 0
LINE
 8
WHITE
 10
2.664999
 20
2.7
 30
0.0000
 11
2.657
 21
2.686
 31
0.0000
 6
CONTINUOUS
 0
LINE
 8
WHITE
 10
2.657
 20
2.686
 30
0.0000
 11
2.67
 21
2.667999
 31
0.0000
 6
CONTINUOUS
 0
LINE
 8
WHITE
 10
2.67
 20
2.667999
 30
0.0000
 11
2.706
 21
2.664
 31
0.0000
 6
CONTINUOUS
 0
LINE
 8
WHITE
 10
2.706
 20
2.664
 30
0.0000
 11
2.724999
 21
2.68
 31
0.0000
 6
CONTINUOUS
 0
LINE
 8
WHITE
 10
2.724999
 20
2.68
 30
0.0000
 11
2.726
 21
2.709
 31
0.0000
 6
CONTINUOUS
 0
LINE
 8
WHITE
 10
2.726
 20
2.709
 30
0.0000
 11
2.673
 21
2.713999
 31
0.0000
 6
CONTINUOUS
 0
LINE
 8
WHITE
 10
2.673
 20
2.713999
 30
0.0000
 11
2.664999
 21
2.7
 31
0.0000
 6
CONTINUOUS
 0
LINE
 8
WHITE
 10
2.664999
 20
2.7
 30
0.0000
 11
2.667999
 21
2.69
 31
0.0000
 6
CONTINUOUS
 0
LINE
 8
WHITE
 10
2.72
 20
2.404
 30
0.0000
 11
2.624
 21
2.378
 31
0.0000
 6
CONTINUOUS
 0
LINE
 8
WHITE
 10
2.624
 20
2.378
 30
0.0000
 11
2.631999
 21
2.348
 31
0.0000
 6
CONTINUOUS
 0
LINE
 8
WHITE
 10
2.631999
 20
2.348
 30
0.0000
 11
2.671999
 21
2.355999
 31
0.0000
 6
CONTINUOUS
 0
LINE
 8
WHITE
 10
2.671999
 20
2.355999
 30
0.0000
 11
2.73
 21
2.378999
 31
0.0000
 6
CONTINUOUS
 0
ARC
 8
WHITE
 10
2.722599
 20
2.397899
 30
 0
 40
.020297
 50
291.382
 51
343.0846
 6
CONTINUOUS
 0
LINE
 8
WHITE
 10
2.742
 20
2.391999
 30
0.0000
 11
2.757999
 21
2.444
 31
0.0000
 6
CONTINUOUS
 0
ARC
 8
WHITE
 10
2.738799
 20
2.449399
 30
 0
 40
.019944
 50
344.2914
 51
35.60406
 6
CONTINUOUS
 0
LINE
 8
WHITE
 10
2.755
 20
2.460999
 30
0.0000
 11
2.737999
 21
2.486
 31
0.0000
 6
CONTINUOUS
 0
ARC
 8
WHITE
 10
2.721699
 20
2.4745
 30
 0
 40
.019948
 50
35.20379
 51
77.56409
 6
CONTINUOUS
 0
LINE
 8
WHITE
 10
2.726
 20
2.493999
 30
0.0000
 11
2.694999
 21
2.500999
 31
0.0000
 6
CONTINUOUS
 0
ARC
 8
WHITE
 10
2.6898
 20
2.481999
 30
 0
 40
.019698
 50
74.69386
 51
134.5872
 6
CONTINUOUS
 0
LINE
 8
WHITE
 10
2.676
 20
2.496
 30
0.0000
 11
2.631
 21
2.45
 31
0.0000
 6
CONTINUOUS
 0
LINE
 8
WHITE
 10
2.631
 20
2.45
 30
0.0000
 11
2.615999
 21
2.408999
 31
0.0000
 6
CONTINUOUS
 0
LINE
 8
WHITE
 10
2.615999
 20
2.408999
 30
0.0000
 11
2.624
 21
2.378
 31
0.0000
 6
CONTINUOUS
 0
LINE
 8
WHITE
 10
2.624
 20
2.378
 30
0.0000
 11
2.631999
 21
2.374
 31
0.0000
 6
CONTINUOUS
 0
LINE
 8
WHITE
 10
2.729
 20
2.203
 30
0.0000
 11
2.717999
 21
2.253
 31
0.0000
 6
CONTINUOUS
 0
LINE
 8
WHITE
 10
2.717999
 20
2.253
 30
0.0000
 11
2.698999
 21
2.237999
 31
0.0000
 6
CONTINUOUS
 0
LINE
 8
WHITE
 10
2.698999
 20
2.237999
 30
0.0000
 11
2.694999
 21
2.203
 31
0.0000
 6
CONTINUOUS
 0
LINE
 8
WHITE
 10
2.694999
 20
2.203
 30
0.0000
 11
2.719
 21
2.163
 31
0.0000
 6
CONTINUOUS
 0
LINE
 8
WHITE
 10
2.719
 20
2.163
 30
0.0000
 11
2.755
 21
2.154999
 31
0.0000
 6
CONTINUOUS
 0
LINE
 8
WHITE
 10
2.755
 20
2.154999
 30
0.0000
 11
2.769
 21
2.194999
 31
0.0000
 6
CONTINUOUS
 0
LINE
 8
WHITE
 10
2.769
 20
2.194999
 30
0.0000
 11
2.765
 21
2.232
 31
0.0000
 6
CONTINUOUS
 0
LINE
 8
WHITE
 10
2.765
 20
2.232
 30
0.0000
 11
2.736999
 21
2.267999
 31
0.0000
 6
CONTINUOUS
 0
LINE
 8
WHITE
 10
2.736999
 20
2.267999
 30
0.0000
 11
2.717999
 21
2.253
 31
0.0000
 6
CONTINUOUS
 0
LINE
 8
WHITE
 10
2.717999
 20
2.253
 30
0.0000
 11
2.717
 21
2.243
 31
0.0000
 6
CONTINUOUS
 0
LINE
 8
WHITE
 10
2.740999
 20
2.026
 30
0.0000
 11
2.726999
 21
2.049999
 31
0.0000
 6
CONTINUOUS
 0
LINE
 8
WHITE
 10
2.726999
 20
2.049999
 30
0.0000
 11
2.703
 21
2.036
 31
0.0000
 6
CONTINUOUS
 0
LINE
 8
WHITE
 10
2.703
 20
2.036
 30
0.0000
 11
2.700999
 21
1.978999
 31
0.0000
 6
CONTINUOUS
 0
LINE
 8
WHITE
 10
2.700999
 20
1.978999
 30
0.0000
 11
2.716
 21
1.968999
 31
0.0000
 6
CONTINUOUS
 0
LINE
 8
WHITE
 10
2.716
 20
1.968999
 30
0.0000
 11
2.736
 21
1.978999
 31
0.0000
 6
CONTINUOUS
 0
LINE
 8
WHITE
 10
2.736
 20
1.978999
 30
0.0000
 11
2.73
 21
2.000999
 31
0.0000
 6
CONTINUOUS
 0
LINE
 8
WHITE
 10
2.73
 20
2.000999
 30
0.0000
 11
2.763999
 21
2.003999
 31
0.0000
 6
CONTINUOUS
 0
LINE
 8
WHITE
 10
2.763999
 20
2.003999
 30
0.0000
 11
2.775
 21
2.028
 31
0.0000
 6
CONTINUOUS
 0
LINE
 8
WHITE
 10
2.775
 20
2.028
 30
0.0000
 11
2.750999
 21
2.063999
 31
0.0000
 6
CONTINUOUS
 0
LINE
 8
WHITE
 10
2.750999
 20
2.063999
 30
0.0000
 11
2.726999
 21
2.049999
 31
0.0000
 6
CONTINUOUS
 0
LINE
 8
WHITE
 10
2.726999
 20
2.049999
 30
0.0000
 11
2.724999
 21
2.039999
 31
0.0000
 6
CONTINUOUS
 0
LINE
 8
WHITE
 10
2.71
 20
1.876999
 30
0.0000
 11
2.716
 21
1.876
 31
0.0000
 6
CONTINUOUS
 0
LINE
 8
WHITE
 10
2.716
 20
1.876
 30
0.0000
 11
2.719
 21
1.889999
 31
0.0000
 6
CONTINUOUS
 0
LINE
 8
WHITE
 10
2.719
 20
1.889999
 30
0.0000
 11
2.694999
 21
1.891999
 31
0.0000
 6
CONTINUOUS
 0
LINE
 8
WHITE
 10
2.694999
 20
1.891999
 30
0.0000
 11
2.69
 21
1.860999
 31
0.0000
 6
CONTINUOUS
 0
LINE
 8
WHITE
 10
2.69
 20
1.860999
 30
0.0000
 11
2.713999
 21
1.861999
 31
0.0000
 6
CONTINUOUS
 0
LINE
 8
WHITE
 10
2.713999
 20
1.861999
 30
0.0000
 11
2.716
 21
1.876
 31
0.0000
 6
CONTINUOUS
 0
LINE
 8
WHITE
 10
2.716
 20
1.876
 30
0.0000
 11
2.710999
 21
1.883999
 31
0.0000
 6
CONTINUOUS
 0
LINE
 8
WHITE
 10
2.694
 20
1.738
 30
0.0000
 11
2.721999
 21
1.735999
 31
0.0000
 6
CONTINUOUS
 0
LINE
 8
WHITE
 10
2.721999
 20
1.735999
 30
0.0000
 11
2.723999
 21
1.758999
 31
0.0000
 6
CONTINUOUS
 0
LINE
 8
WHITE
 10
2.723999
 20
1.758999
 30
0.0000
 11
2.7
 21
1.774999
 31
0.0000
 6
CONTINUOUS
 0
LINE
 8
WHITE
 10
2.7
 20
1.774999
 30
0.0000
 11
2.668999
 21
1.769999
 31
0.0000
 6
CONTINUOUS
 0
LINE
 8
WHITE
 10
2.668999
 20
1.769999
 30
0.0000
 11
2.663
 21
1.738999
 31
0.0000
 6
CONTINUOUS
 0
ARC
 8
WHITE
 10
2.683
 20
1.734799
 30
 0
 40
.020436
 50
168.1402
 51
240.6728
 6
CONTINUOUS
 0
LINE
 8
WHITE
 10
2.673
 20
1.717
 30
0.0000
 11
2.706
 21
1.7
 31
0.0000
 6
CONTINUOUS
 0
LINE
 8
WHITE
 10
2.706
 20
1.7
 30
0.0000
 11
2.72
 21
1.713
 31
0.0000
 6
CONTINUOUS
 0
LINE
 8
WHITE
 10
2.72
 20
1.713
 30
0.0000
 11
2.721999
 21
1.735999
 31
0.0000
 6
CONTINUOUS
 0
LINE
 8
WHITE
 10
2.721999
 20
1.735999
 30
0.0000
 11
2.714999
 21
1.743
 31
0.0000
 6
CONTINUOUS
 0
LINE
 8
WHITE
 10
2.711999
 20
1.567
 30
0.0000
 11
2.681999
 21
1.593999
 31
0.0000
 6
CONTINUOUS
 0
LINE
 8
WHITE
 10
2.681999
 20
1.593999
 30
0.0000
 11
2.671999
 21
1.583999
 31
0.0000
 6
CONTINUOUS
 0
LINE
 8
WHITE
 10
2.671999
 20
1.583999
 30
0.0000
 11
2.678999
 21
1.552
 31
0.0000
 6
CONTINUOUS
 0
ARC
 8
WHITE
 10
2.6991
 20
1.5557
 30
 0
 40
.020437
 50
190.4302
 51
246.58
 6
CONTINUOUS
 0
LINE
 8
WHITE
 10
2.690999
 20
1.536999
 30
0.0000
 11
2.753
 21
1.514
 31
0.0000
 6
CONTINUOUS
 0
LINE
 8
WHITE
 10
2.753
 20
1.514
 30
0.0000
 11
2.759
 21
1.541
 31
0.0000
 6
CONTINUOUS
 0
LINE
 8
WHITE
 10
2.759
 20
1.541
 30
0.0000
 11
2.690999
 21
1.603999
 31
0.0000
 6
CONTINUOUS
 0
LINE
 8
WHITE
 10
2.690999
 20
1.603999
 30
0.0000
 11
2.681999
 21
1.593999
 31
0.0000
 6
CONTINUOUS
 0
LINE
 8
WHITE
 10
2.681999
 20
1.593999
 30
0.0000
 11
2.681999
 21
1.583999
 31
0.0000
 6
CONTINUOUS
 0
LINE
 8
WHITE
 10
2.714999
 20
.268
 30
0.0000
 11
2.75
 21
.289999
 31
0.0000
 6
CONTINUOUS
 0
LINE
 8
WHITE
 10
2.75
 20
.289999
 30
0.0000
 11
2.839999
 21
.316
 31
0.0000
 6
CONTINUOUS
 0
LINE
 8
WHITE
 10
2.839999
 20
.316
 30
0.0000
 11
2.928999
 21
.321
 31
0.0000
 6
CONTINUOUS
 0
LINE
 8
WHITE
 10
2.928999
 20
.321
 30
0.0000
 11
2.994999
 21
.317
 31
0.0000
 6
CONTINUOUS
 0
LINE
 8
WHITE
 10
2.986
 20
.167999
 30
0.0000
 11
2.983999
 21
.224
 31
0.0000
 6
CONTINUOUS
 0
LINE
 8
WHITE
 10
2.983999
 20
.224
 30
0.0000
 11
2.951999
 21
.277999
 31
0.0000
 6
CONTINUOUS
 0
LINE
 8
WHITE
 10
3.497999
 20
.296
 30
0.0000
 11
3.661999
 21
.351999
 31
0.0000
 6
CONTINUOUS
 0
LINE
 8
WHITE
 10
3.661999
 20
.351999
 30
0.0000
 11
3.733
 21
.361999
 31
0.0000
 6
CONTINUOUS
 0
LINE
 8
WHITE
 10
3.711999
 20
.342
 30
0.0000
 11
3.73
 21
.301999
 31
0.0000
 6
CONTINUOUS
 0
LINE
 8
WHITE
 10
3.73
 20
.301999
 30
0.0000
 11
3.733
 21
.252
 31
0.0000
 6
CONTINUOUS
 0
LINE
 8
WHITE
 10
3.348
 20
1.557999
 30
0.0000
 11
3.342999
 21
1.559
 31
0.0000
 6
CONTINUOUS
 0
LINE
 8
WHITE
 10
3.342999
 20
1.559
 30
0.0000
 11
3.341
 21
1.544
 31
0.0000
 6
CONTINUOUS
 0
LINE
 8
WHITE
 10
3.341
 20
1.544
 30
0.0000
 11
3.364
 21
1.544
 31
0.0000
 6
CONTINUOUS
 0
LINE
 8
WHITE
 10
3.364
 20
1.544
 30
0.0000
 11
3.365999
 21
1.57
 31
0.0000
 6
CONTINUOUS
 0
LINE
 8
WHITE
 10
3.365999
 20
1.57
 30
0.0000
 11
3.345
 21
1.574
 31
0.0000
 6
CONTINUOUS
 0
LINE
 8
WHITE
 10
3.345
 20
1.574
 30
0.0000
 11
3.342999
 21
1.559
 31
0.0000
 6
CONTINUOUS
 0
LINE
 8
WHITE
 10
3.342999
 20
1.559
 30
0.0000
 11
3.348999
 21
1.550999
 31
0.0000
 6
CONTINUOUS
 0
LINE
 8
WHITE
 10
3.342
 20
1.664
 30
0.0000
 11
3.345
 21
1.639999
 31
0.0000
 6
CONTINUOUS
 0
LINE
 8
WHITE
 10
3.345
 20
1.639999
 30
0.0000
 11
3.361
 21
1.641999
 31
0.0000
 6
CONTINUOUS
 0
LINE
 8
WHITE
 10
3.361
 20
1.641999
 30
0.0000
 11
3.381
 21
1.656999
 31
0.0000
 6
CONTINUOUS
 0
LINE
 8
WHITE
 10
3.381
 20
1.656999
 30
0.0000
 11
3.382999
 21
1.687
 31
0.0000
 6
CONTINUOUS
 0
LINE
 8
WHITE
 10
3.382999
 20
1.687
 30
0.0000
 11
3.328999
 21
1.692
 31
0.0000
 6
CONTINUOUS
 0
LINE
 8
WHITE
 10
3.328999
 20
1.692
 30
0.0000
 11
3.318
 21
1.661
 31
0.0000
 6
CONTINUOUS
 0
LINE
 8
WHITE
 10
3.318
 20
1.661
 30
0.0000
 11
3.328999
 21
1.638
 31
0.0000
 6
CONTINUOUS
 0
LINE
 8
WHITE
 10
3.328999
 20
1.638
 30
0.0000
 11
3.345
 21
1.639999
 31
0.0000
 6
CONTINUOUS
 0
LINE
 8
WHITE
 10
3.345
 20
1.639999
 30
0.0000
 11
3.351
 21
1.648
 31
0.0000
 6
CONTINUOUS
 0
LINE
 8
WHITE
 10
3.335
 20
1.827
 30
0.0000
 11
3.292
 21
1.866
 31
0.0000
 6
CONTINUOUS
 0
LINE
 8
WHITE
 10
3.292
 20
1.866
 30
0.0000
 11
3.282999
 21
1.855
 31
0.0000
 6
CONTINUOUS
 0
LINE
 8
WHITE
 10
3.282999
 20
1.855
 30
0.0000
 11
3.289
 21
1.824
 31
0.0000
 6
CONTINUOUS
 0
ARC
 8
WHITE
 10
3.3091
 20
1.8277
 30
 0
 40
.020437
 50
190.4302
 51
246.5798
 6
CONTINUOUS
 0
LINE
 8
WHITE
 10
3.301
 20
1.809
 30
0.0000
 11
3.364
 21
1.786
 31
0.0000
 6
CONTINUOUS
 0
LINE
 8
WHITE
 10
3.364
 20
1.786
 30
0.0000
 11
3.369999
 21
1.812999
 31
0.0000
 6
CONTINUOUS
 0
LINE
 8
WHITE
 10
3.369999
 20
1.812999
 30
0.0000
 11
3.301
 21
1.876
 31
0.0000
 6
CONTINUOUS
 0
LINE
 8
WHITE
 10
3.301
 20
1.876
 30
0.0000
 11
3.292
 21
1.866
 31
0.0000
 6
CONTINUOUS
 0
LINE
 8
WHITE
 10
3.292
 20
1.866
 30
0.0000
 11
3.292999
 21
1.855999
 31
0.0000
 6
CONTINUOUS
 0
LINE
 8
WHITE
 10
3.303999
 20
2.009999
 30
0.0000
 11
3.332
 21
2.007999
 31
0.0000
 6
CONTINUOUS
 0
LINE
 8
WHITE
 10
3.332
 20
2.007999
 30
0.0000
 11
3.334
 21
2.030999
 31
0.0000
 6
CONTINUOUS
 0
LINE
 8
WHITE
 10
3.334
 20
2.030999
 30
0.0000
 11
3.309999
 21
2.046999
 31
0.0000
 6
CONTINUOUS
 0
LINE
 8
WHITE
 10
3.309999
 20
2.046999
 30
0.0000
 11
3.279
 21
2.042
 31
0.0000
 6
CONTINUOUS
 0
LINE
 8
WHITE
 10
3.279
 20
2.042
 30
0.0000
 11
3.273
 21
2.010999
 31
0.0000
 6
CONTINUOUS
 0
ARC
 8
WHITE
 10
3.292999
 20
2.006799
 30
 0
 40
.020436
 50
168.1402
 51
240.6728
 6
CONTINUOUS
 0
LINE
 8
WHITE
 10
3.282999
 20
1.988999
 30
0.0000
 11
3.315999
 21
1.972
 31
0.0000
 6
CONTINUOUS
 0
LINE
 8
WHITE
 10
3.315999
 20
1.972
 30
0.0000
 11
3.329999
 21
1.983999
 31
0.0000
 6
CONTINUOUS
 0
LINE
 8
WHITE
 10
3.329999
 20
1.983999
 30
0.0000
 11
3.332
 21
2.007999
 31
0.0000
 6
CONTINUOUS
 0
LINE
 8
WHITE
 10
3.332
 20
2.007999
 30
0.0000
 11
3.325
 21
2.015
 31
0.0000
 6
CONTINUOUS
 0
LINE
 8
WHITE
 10
3.311
 20
2.163
 30
0.0000
 11
3.312
 21
2.134
 31
0.0000
 6
CONTINUOUS
 0
LINE
 8
WHITE
 10
3.312
 20
2.134
 30
0.0000
 11
3.325999
 21
2.134
 31
0.0000
 6
CONTINUOUS
 0
LINE
 8
WHITE
 10
3.325999
 20
2.134
 30
0.0000
 11
3.334
 21
2.145999
 31
0.0000
 6
CONTINUOUS
 0
LINE
 8
WHITE
 10
3.334
 20
2.145999
 30
0.0000
 11
3.318
 21
2.164
 31
0.0000
 6
CONTINUOUS
 0
LINE
 8
WHITE
 10
3.318
 20
2.164
 30
0.0000
 11
3.289999
 21
2.157
 31
0.0000
 6
CONTINUOUS
 0
LINE
 8
WHITE
 10
3.289999
 20
2.157
 30
0.0000
 11
3.299
 21
2.132999
 31
0.0000
 6
CONTINUOUS
 0
LINE
 8
WHITE
 10
3.299
 20
2.132999
 30
0.0000
 11
3.312
 21
2.134
 31
0.0000
 6
CONTINUOUS
 0
LINE
 8
WHITE
 10
3.312
 20
2.134
 30
0.0000
 11
3.319
 21
2.141
 31
0.0000
 6
CONTINUOUS
 0
LINE
 8
WHITE
 10
3.331
 20
2.311
 30
0.0000
 11
3.338999
 21
2.296999
 31
0.0000
 6
CONTINUOUS
 0
LINE
 8
WHITE
 10
3.338999
 20
2.296999
 30
0.0000
 11
3.374
 21
2.318
 31
0.0000
 6
CONTINUOUS
 0
LINE
 8
WHITE
 10
3.374
 20
2.318
 30
0.0000
 11
3.381
 21
2.351
 31
0.0000
 6
CONTINUOUS
 0
LINE
 8
WHITE
 10
3.381
 20
2.351
 30
0.0000
 11
3.326999
 21
2.385999
 31
0.0000
 6
CONTINUOUS
 0
ARC
 8
WHITE
 10
3.316399
 20
2.368799
 30
 0
 40
.020203
 50
58.35534
 51
135.4003
 6
CONTINUOUS
 0
LINE
 8
WHITE
 10
3.302
 20
2.382999
 30
0.0000
 11
3.280999
 21
2.361
 31
0.0000
 6
CONTINUOUS
 0
ARC
 8
WHITE
 10
3.296899
 20
2.348
 30
 0
 40
.020538
 50
140.7302
 51
165.8963
 6
CONTINUOUS
 0
LINE
 8
WHITE
 10
3.276999
 20
2.352999
 30
0.0000
 11
3.266
 21
2.313999
 31
0.0000
 6
CONTINUOUS
 0
ARC
 8
WHITE
 10
3.284899
 20
2.308499
 30
 0
 40
.019684
 50
163.7747
 51
243.0435
 6
CONTINUOUS
 0
LINE
 8
WHITE
 10
3.276
 20
2.290999
 30
0.0000
 11
3.295
 21
2.282
 31
0.0000
 6
CONTINUOUS
 0
ARC
 8
WHITE
 10
3.3045
 20
2.2997
 30
 0
 40
.020088
 50
241.7765
 51
298.223
 6
CONTINUOUS
 0
LINE
 8
WHITE
 10
3.313999
 20
2.282
 30
0.0000
 11
3.338999
 21
2.296999
 31
0.0000
 6
CONTINUOUS
 0
LINE
 8
WHITE
 10
3.338999
 20
2.296999
 30
0.0000
 11
3.342
 21
2.306999
 31
0.0000
 6
CONTINUOUS
 0
LINE
 8
WHITE
 10
2.855
 20
2.539999
 30
0.0000
 11
2.826999
 21
2.588
 31
0.0000
 6
CONTINUOUS
 0
LINE
 8
WHITE
 10
2.826999
 20
2.588
 30
0.0000
 11
2.812999
 21
2.579999
 31
0.0000
 6
CONTINUOUS
 0
LINE
 8
WHITE
 10
2.812999
 20
2.579999
 30
0.0000
 11
2.815
 21
2.552
 31
0.0000
 6
CONTINUOUS
 0
LINE
 8
WHITE
 10
2.815
 20
2.552
 30
0.0000
 11
2.835
 21
2.533999
 31
0.0000
 6
CONTINUOUS
 0
LINE
 8
WHITE
 10
2.835
 20
2.533999
 30
0.0000
 11
2.862999
 21
2.542999
 31
0.0000
 6
CONTINUOUS
 0
LINE
 8
WHITE
 10
2.862999
 20
2.542999
 30
0.0000
 11
2.869999
 21
2.598
 31
0.0000
 6
CONTINUOUS
 0
LINE
 8
WHITE
 10
2.869999
 20
2.598
 30
0.0000
 11
2.839999
 21
2.595
 31
0.0000
 6
CONTINUOUS
 0
LINE
 8
WHITE
 10
2.839999
 20
2.595
 30
0.0000
 11
2.826999
 21
2.588
 31
0.0000
 6
CONTINUOUS
 0
LINE
 8
WHITE
 10
2.826999
 20
2.588
 30
0.0000
 11
2.825
 21
2.578
 31
0.0000
 6
CONTINUOUS
 0
LINE
 8
WHITE
 10
3.204999
 20
2.476999
 30
0.0000
 11
3.203
 21
2.421
 31
0.0000
 6
CONTINUOUS
 0
LINE
 8
WHITE
 10
3.203
 20
2.421
 30
0.0000
 11
3.226999
 21
2.430999
 31
0.0000
 6
CONTINUOUS
 0
LINE
 8
WHITE
 10
3.226999
 20
2.430999
 30
0.0000
 11
3.249
 21
2.47
 31
0.0000
 6
CONTINUOUS
 0
ARC
 8
WHITE
 10
3.2324
 20
2.4807
 30
 0
 40
.019749
 50
327.195
 51
6.692973
 6
CONTINUOUS
 0
LINE
 8
WHITE
 10
3.252
 20
2.483
 30
0.0000
 11
3.247999
 21
2.505
 31
0.0000
 6
CONTINUOUS
 0
ARC
 8
WHITE
 10
3.227999
 20
2.5017
 30
 0
 40
.02027
 50
9.369385
 51
107.2698
 6
CONTINUOUS
 0
LINE
 8
WHITE
 10
3.221999
 20
2.520999
 30
0.0000
 11
3.203
 21
2.515
 31
0.0000
 6
CONTINUOUS
 0
ARC
 8
WHITE
 10
3.2093
 20
2.4961
 30
 0
 40
.019922
 50
108.435
 51
156.6511
 6
CONTINUOUS
 0
LINE
 8
WHITE
 10
3.190999
 20
2.503999
 30
0.0000
 11
3.171999
 21
2.460999
 31
0.0000
 6
CONTINUOUS
 0
ARC
 8
WHITE
 10
3.190199
 20
2.453399
 30
 0
 40
.019723
 50
157.3354
 51
192.9075
 6
CONTINUOUS
 0
LINE
 8
WHITE
 10
3.171
 20
2.448999
 30
0.0000
 11
3.177999
 21
2.41
 31
0.0000
 6
CONTINUOUS
 0
LINE
 8
WHITE
 10
3.177999
 20
2.41
 30
0.0000
 11
3.203
 21
2.421
 31
0.0000
 6
CONTINUOUS
 0
LINE
 8
WHITE
 10
3.203
 20
2.421
 30
0.0000
 11
3.206
 21
2.43
 31
0.0000
 6
CONTINUOUS
 0
LINE
 8
WHITE
 10
3.194
 20
2.611999
 30
0.0000
 11
3.186
 21
2.605999
 31
0.0000
 6
CONTINUOUS
 0
LINE
 8
WHITE
 10
3.186
 20
2.605999
 30
0.0000
 11
3.207
 21
2.602999
 31
0.0000
 6
CONTINUOUS
 0
LINE
 8
WHITE
 10
3.207
 20
2.602999
 30
0.0000
 11
3.207
 21
2.625
 31
0.0000
 6
CONTINUOUS
 0
LINE
 8
WHITE
 10
3.207
 20
2.625
 30
0.0000
 11
3.190999
 21
2.648
 31
0.0000
 6
CONTINUOUS
 0
LINE
 8
WHITE
 10
3.190999
 20
2.648
 30
0.0000
 11
3.161
 21
2.641
 31
0.0000
 6
CONTINUOUS
 0
LINE
 8
WHITE
 10
3.161
 20
2.641
 30
0.0000
 11
3.165999
 21
2.608
 31
0.0000
 6
CONTINUOUS
 0
LINE
 8
WHITE
 10
3.165999
 20
2.608
 30
0.0000
 11
3.186
 21
2.605999
 31
0.0000
 6
CONTINUOUS
 0
LINE
 8
WHITE
 10
3.186
 20
2.605999
 30
0.0000
 11
3.194
 21
2.611999
 31
0.0000
 6
CONTINUOUS
 0
LINE
 8
WHITE
 10
3.253
 20
2.792999
 30
0.0000
 11
3.282
 21
2.789999
 31
0.0000
 6
CONTINUOUS
 0
LINE
 8
WHITE
 10
3.282
 20
2.789999
 30
0.0000
 11
3.283999
 21
2.815
 31
0.0000
 6
CONTINUOUS
 0
LINE
 8
WHITE
 10
3.283999
 20
2.815
 30
0.0000
 11
3.267999
 21
2.811
 31
0.0000
 6
CONTINUOUS
 0
ARC
 8
WHITE
 10
3.272499
 20
2.7919
 30
 0
 40
.019622
 50
103.2572
 51
206.9574
 6
CONTINUOUS
 0
LINE
 8
WHITE
 10
3.255
 20
2.782999
 30
0.0000
 11
3.263999
 21
2.763999
 31
0.0000
 6
CONTINUOUS
 0
LINE
 8
WHITE
 10
3.263999
 20
2.763999
 30
0.0000
 11
3.279
 21
2.763999
 31
0.0000
 6
CONTINUOUS
 0
LINE
 8
WHITE
 10
3.279
 20
2.763999
 30
0.0000
 11
3.282
 21
2.789999
 31
0.0000
 6
CONTINUOUS
 0
LINE
 8
WHITE
 10
3.282
 20
2.789999
 30
0.0000
 11
3.275
 21
2.796999
 31
0.0000
 6
CONTINUOUS
 0
LINE
 8
WHITE
 10
3.234999
 20
2.960999
 30
0.0000
 11
3.283999
 21
2.901999
 31
0.0000
 6
CONTINUOUS
 0
LINE
 8
WHITE
 10
3.283999
 20
2.901999
 30
0.0000
 11
3.312999
 21
2.957
 31
0.0000
 6
CONTINUOUS
 0
LINE
 8
WHITE
 10
3.312999
 20
2.957
 30
0.0000
 11
3.305999
 21
3.009999
 31
0.0000
 6
CONTINUOUS
 0
LINE
 8
WHITE
 10
3.305999
 20
3.009999
 30
0.0000
 11
3.286999
 21
3.026999
 31
0.0000
 6
CONTINUOUS
 0
ARC
 8
WHITE
 10
3.259999
 20
2.997999
 30
 0
 40
.039623
 50
47.04541
 51
132.9545
 6
CONTINUOUS
 0
LINE
 8
WHITE
 10
3.233
 20
3.026999
 30
0.0000
 11
3.200999
 21
2.996999
 31
0.0000
 6
CONTINUOUS
 0
LINE
 8
WHITE
 10
3.200999
 20
2.996999
 30
0.0000
 11
3.180999
 21
2.903
 31
0.0000
 6
CONTINUOUS
 0
LINE
 8
WHITE
 10
3.180999
 20
2.903
 30
0.0000
 11
3.207999
 21
2.825999
 31
0.0000
 6
CONTINUOUS
 0
LINE
 8
WHITE
 10
3.207999
 20
2.825999
 30
0.0000
 11
3.253999
 21
2.846999
 31
0.0000
 6
CONTINUOUS
 0
LINE
 8
WHITE
 10
3.253999
 20
2.846999
 30
0.0000
 11
3.283999
 21
2.901999
 31
0.0000
 6
CONTINUOUS
 0
LINE
 8
WHITE
 10
3.283999
 20
2.901999
 30
0.0000
 11
3.279999
 21
2.911
 31
0.0000
 6
CONTINUOUS
 0
LINE
 8
WHITE
 10
3.285
 20
3.18
 30
0.0000
 11
3.308
 21
3.144999
 31
0.0000
 6
CONTINUOUS
 0
LINE
 8
WHITE
 10
3.308
 20
3.144999
 30
0.0000
 11
3.331
 21
3.16
 31
0.0000
 6
CONTINUOUS
 0
LINE
 8
WHITE
 10
3.331
 20
3.16
 30
0.0000
 11
3.322
 21
3.187999
 31
0.0000
 6
CONTINUOUS
 0
LINE
 8
WHITE
 10
3.322
 20
3.187999
 30
0.0000
 11
3.290999
 21
3.190999
 31
0.0000
 6
CONTINUOUS
 0
LINE
 8
WHITE
 10
3.290999
 20
3.190999
 30
0.0000
 11
3.263999
 21
3.141999
 31
0.0000
 6
CONTINUOUS
 0
LINE
 8
WHITE
 10
3.263999
 20
3.141999
 30
0.0000
 11
3.286
 21
3.13
 31
0.0000
 6
CONTINUOUS
 0
LINE
 8
WHITE
 10
3.286
 20
3.13
 30
0.0000
 11
3.308
 21
3.144999
 31
0.0000
 6
CONTINUOUS
 0
LINE
 8
WHITE
 10
3.308
 20
3.144999
 30
0.0000
 11
3.309999
 21
3.154999
 31
0.0000
 6
CONTINUOUS
 0
LINE
 8
WHITE
 10
3.18
 20
3.220999
 30
0.0000
 11
3.180999
 21
3.210999
 31
0.0000
 6
CONTINUOUS
 0
LINE
 8
WHITE
 10
3.180999
 20
3.210999
 30
0.0000
 11
3.19
 21
3.223
 31
0.0000
 6
CONTINUOUS
 0
LINE
 8
WHITE
 10
3.19
 20
3.223
 30
0.0000
 11
3.193
 21
3.259999
 31
0.0000
 6
CONTINUOUS
 0
LINE
 8
WHITE
 10
3.193
 20
3.259999
 30
0.0000
 11
3.164999
 21
3.263
 31
0.0000
 6
CONTINUOUS
 0
ARC
 8
WHITE
 10
3.162699
 20
3.243
 30
 0
 40
.020131
 50
83.4398
 51
168.5226
 6
CONTINUOUS
 0
LINE
 8
WHITE
 10
3.142999
 20
3.246999
 30
0.0000
 11
3.135999
 21
3.211999
 31
0.0000
 6
CONTINUOUS
 0
LINE
 8
WHITE
 10
3.135999
 20
3.211999
 30
0.0000
 11
3.171999
 21
3.198999
 31
0.0000
 6
CONTINUOUS
 0
LINE
 8
WHITE
 10
3.171999
 20
3.198999
 30
0.0000
 11
3.180999
 21
3.210999
 31
0.0000
 6
CONTINUOUS
 0
LINE
 8
WHITE
 10
3.180999
 20
3.210999
 30
0.0000
 11
3.18
 21
3.220999
 31
0.0000
 6
CONTINUOUS
 0
LINE
 8
WHITE
 10
3.213999
 20
3.387
 30
0.0000
 11
3.209
 21
3.358
 31
0.0000
 6
CONTINUOUS
 0
LINE
 8
WHITE
 10
3.209
 20
3.358
 30
0.0000
 11
3.233
 21
3.362999
 31
0.0000
 6
CONTINUOUS
 0
LINE
 8
WHITE
 10
3.233
 20
3.362999
 30
0.0000
 11
3.253
 21
3.39
 31
0.0000
 6
CONTINUOUS
 0
ARC
 8
WHITE
 10
3.236999
 20
3.402
 30
 0
 40
.02
 50
323.1301
 51
354.2891
 6
CONTINUOUS
 0
LINE
 8
WHITE
 10
3.256999
 20
3.4
 30
0.0000
 11
3.259
 21
3.41
 31
0.0000
 6
CONTINUOUS
 0
ARC
 8
WHITE
 10
3.238899
 20
3.4124
 30
 0
 40
.020242
 50
353.1909
 51
104.0362
 6
CONTINUOUS
 0
LINE
 8
WHITE
 10
3.233999
 20
3.431999
 30
0.0000
 11
3.214999
 21
3.427999
 31
0.0000
 6
CONTINUOUS
 0
ARC
 8
WHITE
 10
3.219699
 20
3.4089
 30
 0
 40
.019669
 50
103.8243
 51
134.175
 6
CONTINUOUS
 0
LINE
 8
WHITE
 10
3.206
 20
3.423
 30
0.0000
 11
3.17
 21
3.388
 31
0.0000
 6
CONTINUOUS
 0
LINE
 8
WHITE
 10
3.17
 20
3.388
 30
0.0000
 11
3.186
 21
3.352999
 31
0.0000
 6
CONTINUOUS
 0
LINE
 8
WHITE
 10
3.186
 20
3.352999
 30
0.0000
 11
3.209
 21
3.358
 31
0.0000
 6
CONTINUOUS
 0
LINE
 8
WHITE
 10
3.209
 20
3.358
 30
0.0000
 11
3.213999
 21
3.367
 31
0.0000
 6
CONTINUOUS
 0
LINE
 8
WHITE
 10
3.211999
 20
3.668999
 30
0.0000
 11
3.217
 21
3.641999
 31
0.0000
 6
CONTINUOUS
 0
LINE
 8
WHITE
 10
3.217
 20
3.641999
 30
0.0000
 11
3.250999
 21
3.648
 31
0.0000
 6
CONTINUOUS
 0
LINE
 8
WHITE
 10
3.250999
 20
3.648
 30
0.0000
 11
3.305999
 21
3.676
 31
0.0000
 6
CONTINUOUS
 0
ARC
 8
WHITE
 10
3.297699
 20
3.6943
 30
 0
 40
.020094
 50
294.3968
 51
335.6031
 6
CONTINUOUS
 0
LINE
 8
WHITE
 10
3.315999
 20
3.686
 30
0.0000
 11
3.322999
 21
3.704999
 31
0.0000
 6
CONTINUOUS
 0
ARC
 8
WHITE
 10
3.303999
 20
3.711999
 30
 0
 40
.020248
 50
339.7751
 51
98.53006
 6
CONTINUOUS
 0
LINE
 8
WHITE
 10
3.301
 20
3.732
 30
0.0000
 11
3.259999
 21
3.723999
 31
0.0000
 6
CONTINUOUS
 0
LINE
 8
WHITE
 10
3.259999
 20
3.723999
 30
0.0000
 11
3.2
 21
3.696
 31
0.0000
 6
CONTINUOUS
 0
ARC
 8
WHITE
 10
3.2074
 20
3.6778
 30
 0
 40
.019646
 50
112.1263
 51
170.6341
 6
CONTINUOUS
 0
LINE
 8
WHITE
 10
3.187999
 20
3.680999
 30
0.0000
 11
3.181999
 21
3.634999
 31
0.0000
 6
CONTINUOUS
 0
LINE
 8
WHITE
 10
3.181999
 20
3.634999
 30
0.0000
 11
3.217
 21
3.641999
 31
0.0000
 6
CONTINUOUS
 0
LINE
 8
WHITE
 10
3.217
 20
3.641999
 30
0.0000
 11
3.221999
 21
3.65
 31
0.0000
 6
CONTINUOUS
 0
LINE
 8
WHITE
 10
3.045
 20
3.940999
 30
0.0000
 11
3.025
 21
3.858999
 31
0.0000
 6
CONTINUOUS
 0
LINE
 8
WHITE
 10
3.025
 20
3.858999
 30
0.0000
 11
3.036
 21
3.855999
 31
0.0000
 6
CONTINUOUS
 0
LINE
 8
WHITE
 10
3.036
 20
3.855999
 30
0.0000
 11
3.078999
 21
3.931999
 31
0.0000
 6
CONTINUOUS
 0
LINE
 8
WHITE
 10
3.078999
 20
3.931999
 30
0.0000
 11
3.078
 21
3.983
 31
0.0000
 6
CONTINUOUS
 0
LINE
 8
WHITE
 10
3.078
 20
3.983
 30
0.0000
 11
3.151
 21
4.046
 31
0.0000
 6
CONTINUOUS
 0
LINE
 8
WHITE
 10
3.151
 20
4.046
 30
0.0000
 11
3.181999
 21
4.059
 31
0.0000
 6
CONTINUOUS
 0
ARC
 8
WHITE
 10
3.165699
 20
4.0959
 30
 0
 40
.040339
 50
293.8327
 51
.142365
 6
CONTINUOUS
 0
LINE
 8
WHITE
 10
3.206
 20
4.096
 30
0.0000
 11
3.206
 21
4.137
 31
0.0000
 6
CONTINUOUS
 0
LINE
 8
WHITE
 10
3.206
 20
4.137
 30
0.0000
 11
3.177
 21
4.152999
 31
0.0000
 6
CONTINUOUS
 0
LINE
 8
WHITE
 10
3.177
 20
4.152999
 30
0.0000
 11
3.119999
 21
4.137
 31
0.0000
 6
CONTINUOUS
 0
LINE
 8
WHITE
 10
3.119999
 20
4.137
 30
0.0000
 11
3.088
 21
4.072999
 31
0.0000
 6
CONTINUOUS
 0
LINE
 8
WHITE
 10
3.088
 20
4.072999
 30
0.0000
 11
3.039
 21
4.01
 31
0.0000
 6
CONTINUOUS
 0
LINE
 8
WHITE
 10
3.039
 20
4.01
 30
0.0000
 11
3.005
 21
3.941999
 31
0.0000
 6
CONTINUOUS
 0
LINE
 8
WHITE
 10
3.005
 20
3.941999
 30
0.0000
 11
3.013
 21
3.861999
 31
0.0000
 6
CONTINUOUS
 0
LINE
 8
WHITE
 10
3.013
 20
3.861999
 30
0.0000
 11
3.025
 21
3.858999
 31
0.0000
 6
CONTINUOUS
 0
LINE
 8
WHITE
 10
3.025
 20
3.858999
 30
0.0000
 11
3.032999
 21
3.864
 31
0.0000
 6
CONTINUOUS
 0
LINE
 8
WHITE
 10
3.306999
 20
3.943
 30
0.0000
 11
3.276
 21
3.885999
 31
0.0000
 6
CONTINUOUS
 0
LINE
 8
WHITE
 10
3.276
 20
3.885999
 30
0.0000
 11
3.345
 21
3.904999
 31
0.0000
 6
CONTINUOUS
 0
LINE
 8
WHITE
 10
3.345
 20
3.904999
 30
0.0000
 11
3.378
 21
3.928999
 31
0.0000
 6
CONTINUOUS
 0
LINE
 8
WHITE
 10
3.378
 20
3.928999
 30
0.0000
 11
3.387
 21
3.997999
 31
0.0000
 6
CONTINUOUS
 0
LINE
 8
WHITE
 10
3.387
 20
3.997999
 30
0.0000
 11
3.372999
 21
4.039
 31
0.0000
 6
CONTINUOUS
 0
LINE
 8
WHITE
 10
3.372999
 20
4.039
 30
0.0000
 11
3.351
 21
4.051
 31
0.0000
 6
CONTINUOUS
 0
LINE
 8
WHITE
 10
3.351
 20
4.051
 30
0.0000
 11
3.319
 21
4.041999
 31
0.0000
 6
CONTINUOUS
 0
LINE
 8
WHITE
 10
3.319
 20
4.041999
 30
0.0000
 11
3.280999
 21
4.015999
 31
0.0000
 6
CONTINUOUS
 0
LINE
 8
WHITE
 10
3.280999
 20
4.015999
 30
0.0000
 11
3.197999
 21
3.931999
 31
0.0000
 6
CONTINUOUS
 0
LINE
 8
WHITE
 10
3.197999
 20
3.931999
 30
0.0000
 11
3.107
 21
3.812
 31
0.0000
 6
CONTINUOUS
 0
LINE
 8
WHITE
 10
3.107
 20
3.812
 30
0.0000
 11
3.108999
 21
3.772
 31
0.0000
 6
CONTINUOUS
 0
LINE
 8
WHITE
 10
3.108999
 20
3.772
 30
0.0000
 11
3.165999
 21
3.769
 31
0.0000
 6
CONTINUOUS
 0
LINE
 8
WHITE
 10
3.165999
 20
3.769
 30
0.0000
 11
3.184
 21
3.801
 31
0.0000
 6
CONTINUOUS
 0
LINE
 8
WHITE
 10
3.184
 20
3.801
 30
0.0000
 11
3.184
 21
3.828999
 31
0.0000
 6
CONTINUOUS
 0
LINE
 8
WHITE
 10
3.184
 20
3.828999
 30
0.0000
 11
3.207
 21
3.865999
 31
0.0000
 6
CONTINUOUS
 0
LINE
 8
WHITE
 10
3.207
 20
3.865999
 30
0.0000
 11
3.276
 21
3.885999
 31
0.0000
 6
CONTINUOUS
 0
LINE
 8
WHITE
 10
3.276
 20
3.885999
 30
0.0000
 11
3.280999
 21
3.894999
 31
0.0000
 6
CONTINUOUS
 0
LINE
 8
WHITE
 10
2.862999
 20
4.048999
 30
0.0000
 11
2.802
 21
3.970999
 31
0.0000
 6
CONTINUOUS
 0
LINE
 8
WHITE
 10
2.802
 20
3.970999
 30
0.0000
 11
2.823999
 21
3.953
 31
0.0000
 6
CONTINUOUS
 0
LINE
 8
WHITE
 10
2.823999
 20
3.953
 30
0.0000
 11
2.89
 21
3.976
 31
0.0000
 6
CONTINUOUS
 0
LINE
 8
WHITE
 10
2.89
 20
3.976
 30
0.0000
 11
2.921999
 21
4.017
 31
0.0000
 6
CONTINUOUS
 0
LINE
 8
WHITE
 10
2.921999
 20
4.017
 30
0.0000
 11
2.938999
 21
4.089
 31
0.0000
 6
CONTINUOUS
 0
LINE
 8
WHITE
 10
2.938999
 20
4.089
 30
0.0000
 11
2.907999
 21
4.15
 31
0.0000
 6
CONTINUOUS
 0
LINE
 8
WHITE
 10
2.907999
 20
4.15
 30
0.0000
 11
2.872999
 21
4.186999
 31
0.0000
 6
CONTINUOUS
 0
LINE
 8
WHITE
 10
2.872999
 20
4.186999
 30
0.0000
 11
2.838999
 21
4.201
 31
0.0000
 6
CONTINUOUS
 0
LINE
 8
WHITE
 10
2.838999
 20
4.201
 30
0.0000
 11
2.805999
 21
4.198999
 31
0.0000
 6
CONTINUOUS
 0
LINE
 8
WHITE
 10
2.805999
 20
4.198999
 30
0.0000
 11
2.778
 21
4.182
 31
0.0000
 6
CONTINUOUS
 0
LINE
 8
WHITE
 10
2.778
 20
4.182
 30
0.0000
 11
2.742
 21
4.114999
 31
0.0000
 6
CONTINUOUS
 0
LINE
 8
WHITE
 10
2.742
 20
4.114999
 30
0.0000
 11
2.739
 21
4.072999
 31
0.0000
 6
CONTINUOUS
 0
LINE
 8
WHITE
 10
2.739
 20
4.072999
 30
0.0000
 11
2.750999
 21
4.03
 31
0.0000
 6
CONTINUOUS
 0
LINE
 8
WHITE
 10
2.750999
 20
4.03
 30
0.0000
 11
2.779
 21
3.987999
 31
0.0000
 6
CONTINUOUS
 0
LINE
 8
WHITE
 10
2.779
 20
3.987999
 30
0.0000
 11
2.802
 21
3.970999
 31
0.0000
 6
CONTINUOUS
 0
LINE
 8
WHITE
 10
2.802
 20
3.970999
 30
0.0000
 11
2.812
 21
3.971999
 31
0.0000
 6
CONTINUOUS
 0
LINE
 8
WHITE
 10
3.407999
 20
4.328
 30
0.0000
 11
3.484999
 21
4.401999
 31
0.0000
 6
CONTINUOUS
 0
LINE
 8
WHITE
 10
3.484999
 20
4.401999
 30
0.0000
 11
3.483
 21
4.415999
 31
0.0000
 6
CONTINUOUS
 0
ARC
 8
WHITE
 10
3.4439
 20
4.409899
 30
 0
 40
.039572
 50
8.867248
 51
110.539
 6
CONTINUOUS
 0
LINE
 8
WHITE
 10
3.43
 20
4.447
 30
0.0000
 11
3.398
 21
4.435999
 31
0.0000
 6
CONTINUOUS
 0
LINE
 8
WHITE
 10
3.398
 20
4.435999
 30
0.0000
 11
3.332
 21
4.368
 31
0.0000
 6
CONTINUOUS
 0
LINE
 8
WHITE
 10
3.332
 20
4.368
 30
0.0000
 11
3.288
 21
4.28
 31
0.0000
 6
CONTINUOUS
 0
LINE
 8
WHITE
 10
3.288
 20
4.28
 30
0.0000
 11
3.279
 21
4.235
 31
0.0000
 6
CONTINUOUS
 0
ARC
 8
WHITE
 10
3.318
 20
4.2278
 30
 0
 40
.039659
 50
169.5401
 51
258.3496
 6
CONTINUOUS
 0
LINE
 8
WHITE
 10
3.309999
 20
4.189
 30
0.0000
 11
3.423
 21
4.163
 31
0.0000
 6
CONTINUOUS
 0
LINE
 8
WHITE
 10
3.423
 20
4.163
 30
0.0000
 11
3.476
 21
4.189
 31
0.0000
 6
CONTINUOUS
 0
LINE
 8
WHITE
 10
3.476
 20
4.189
 30
0.0000
 11
3.496999
 21
4.256
 31
0.0000
 6
CONTINUOUS
 0
LINE
 8
WHITE
 10
3.496999
 20
4.256
 30
0.0000
 11
3.496
 21
4.341
 31
0.0000
 6
CONTINUOUS
 0
LINE
 8
WHITE
 10
3.496
 20
4.341
 30
0.0000
 11
3.484999
 21
4.401999
 31
0.0000
 6
CONTINUOUS
 0
LINE
 8
WHITE
 10
3.484999
 20
4.401999
 30
0.0000
 11
3.476999
 21
4.407
 31
0.0000
 6
CONTINUOUS
 0
LINE
 8
WHITE
 10
3.049999
 20
4.669
 30
0.0000
 11
2.992
 21
4.75
 31
0.0000
 6
CONTINUOUS
 0
LINE
 8
WHITE
 10
2.992
 20
4.75
 30
0.0000
 11
2.95
 21
4.719999
 31
0.0000
 6
CONTINUOUS
 0
LINE
 8
WHITE
 10
2.95
 20
4.719999
 30
0.0000
 11
2.927999
 21
4.673999
 31
0.0000
 6
CONTINUOUS
 0
LINE
 8
WHITE
 10
2.927999
 20
4.673999
 30
0.0000
 11
2.966
 21
4.515999
 31
0.0000
 6
CONTINUOUS
 0
LINE
 8
WHITE
 10
2.966
 20
4.515999
 30
0.0000
 11
2.963999
 21
4.458
 31
0.0000
 6
CONTINUOUS
 0
LINE
 8
WHITE
 10
2.963999
 20
4.458
 30
0.0000
 11
2.948999
 21
4.322
 31
0.0000
 6
CONTINUOUS
 0
ARC
 8
WHITE
 10
2.988999
 20
4.3168
 30
 0
 40
.040336
 50
172.5931
 51
249.6771
 6
CONTINUOUS
 0
LINE
 8
WHITE
 10
2.974999
 20
4.278999
 30
0.0000
 11
3.000999
 21
4.270999
 31
0.0000
 6
CONTINUOUS
 0
LINE
 8
WHITE
 10
3.000999
 20
4.270999
 30
0.0000
 11
3.071
 21
4.294
 31
0.0000
 6
CONTINUOUS
 0
LINE
 8
WHITE
 10
3.071
 20
4.294
 30
0.0000
 11
3.117
 21
4.337999
 31
0.0000
 6
CONTINUOUS
 0
LINE
 8
WHITE
 10
3.117
 20
4.337999
 30
0.0000
 11
3.144
 21
4.396999
 31
0.0000
 6
CONTINUOUS
 0
LINE
 8
WHITE
 10
3.144
 20
4.396999
 30
0.0000
 11
3.153
 21
4.466
 31
0.0000
 6
CONTINUOUS
 0
LINE
 8
WHITE
 10
3.153
 20
4.466
 30
0.0000
 11
3.148
 21
4.539999
 31
0.0000
 6
CONTINUOUS
 0
LINE
 8
WHITE
 10
3.148
 20
4.539999
 30
0.0000
 11
3.132999
 21
4.612999
 31
0.0000
 6
CONTINUOUS
 0
LINE
 8
WHITE
 10
3.132999
 20
4.612999
 30
0.0000
 11
3.109999
 21
4.678999
 31
0.0000
 6
CONTINUOUS
 0
LINE
 8
WHITE
 10
3.109999
 20
4.678999
 30
0.0000
 11
3.082999
 21
4.732999
 31
0.0000
 6
CONTINUOUS
 0
LINE
 8
WHITE
 10
3.082999
 20
4.732999
 30
0.0000
 11
3.055999
 21
4.769
 31
0.0000
 6
CONTINUOUS
 0
LINE
 8
WHITE
 10
3.055999
 20
4.769
 30
0.0000
 11
3.033999
 21
4.781
 31
0.0000
 6
CONTINUOUS
 0
LINE
 8
WHITE
 10
3.033999
 20
4.781
 30
0.0000
 11
2.992
 21
4.75
 31
0.0000
 6
CONTINUOUS
 0
LINE
 8
WHITE
 10
2.992
 20
4.75
 30
0.0000
 11
2.99
 21
4.739999
 31
0.0000
 6
CONTINUOUS
 0
LINE
 8
WHITE
 10
3.407
 20
4.974999
 30
0.0000
 11
3.464999
 21
4.994999
 31
0.0000
 6
CONTINUOUS
 0
LINE
 8
WHITE
 10
3.464999
 20
4.994999
 30
0.0000
 11
3.467
 21
5.061999
 31
0.0000
 6
CONTINUOUS
 0
LINE
 8
WHITE
 10
3.467
 20
5.061999
 30
0.0000
 11
3.411
 21
5.052
 31
0.0000
 6
CONTINUOUS
 0
LINE
 8
WHITE
 10
3.411
 20
5.052
 30
0.0000
 11
3.344
 21
4.981999
 31
0.0000
 6
CONTINUOUS
 0
LINE
 8
WHITE
 10
3.344
 20
4.981999
 30
0.0000
 11
3.273999
 21
4.888999
 31
0.0000
 6
CONTINUOUS
 0
LINE
 8
WHITE
 10
3.273999
 20
4.888999
 30
0.0000
 11
3.266
 21
4.821
 31
0.0000
 6
CONTINUOUS
 0
LINE
 8
WHITE
 10
3.266
 20
4.821
 30
0.0000
 11
3.301
 21
4.668
 31
0.0000
 6
CONTINUOUS
 0
LINE
 8
WHITE
 10
3.301
 20
4.668
 30
0.0000
 11
3.309999
 21
4.587999
 31
0.0000
 6
CONTINUOUS
 0
LINE
 8
WHITE
 10
3.309999
 20
4.587999
 30
0.0000
 11
3.361999
 21
4.624
 31
0.0000
 6
CONTINUOUS
 0
LINE
 8
WHITE
 10
3.361999
 20
4.624
 30
0.0000
 11
3.404
 21
4.684
 31
0.0000
 6
CONTINUOUS
 0
LINE
 8
WHITE
 10
3.404
 20
4.684
 30
0.0000
 11
3.433
 21
4.76
 31
0.0000
 6
CONTINUOUS
 0
LINE
 8
WHITE
 10
3.433
 20
4.76
 30
0.0000
 11
3.451999
 21
4.843999
 31
0.0000
 6
CONTINUOUS
 0
LINE
 8
WHITE
 10
3.451999
 20
4.843999
 30
0.0000
 11
3.461999
 21
4.927999
 31
0.0000
 6
CONTINUOUS
 0
LINE
 8
WHITE
 10
3.461999
 20
4.927999
 30
0.0000
 11
3.464999
 21
4.994999
 31
0.0000
 6
CONTINUOUS
 0
LINE
 8
WHITE
 10
3.464999
 20
4.994999
 30
0.0000
 11
3.457999
 21
5.001999
 31
0.0000
 6
CONTINUOUS
 0
LINE
 8
WHITE
 10
3.229
 20
5.297999
 30
0.0000
 11
3.134
 21
5.330999
 31
0.0000
 6
CONTINUOUS
 0
LINE
 8
WHITE
 10
3.134
 20
5.330999
 30
0.0000
 11
3.096999
 21
5.225999
 31
0.0000
 6
CONTINUOUS
 0
LINE
 8
WHITE
 10
3.096999
 20
5.225999
 30
0.0000
 11
3.052999
 21
5.163
 31
0.0000
 6
CONTINUOUS
 0
LINE
 8
WHITE
 10
3.052999
 20
5.163
 30
0.0000
 11
3.068
 21
5.123
 31
0.0000
 6
CONTINUOUS
 0
LINE
 8
WHITE
 10
3.068
 20
5.123
 30
0.0000
 11
3.107
 21
5.065999
 31
0.0000
 6
CONTINUOUS
 0
LINE
 8
WHITE
 10
3.107
 20
5.065999
 30
0.0000
 11
3.138
 21
5.039
 31
0.0000
 6
CONTINUOUS
 0
ARC
 8
WHITE
 10
3.1647
 20
5.0693
 30
 0
 40
.040385
 50
228.6139
 51
301.8398
 6
CONTINUOUS
 0
LINE
 8
WHITE
 10
3.186
 20
5.034999
 30
0.0000
 11
3.217999
 21
5.054999
 31
0.0000
 6
CONTINUOUS
 0
LINE
 8
WHITE
 10
3.217999
 20
5.054999
 30
0.0000
 11
3.263999
 21
5.118999
 31
0.0000
 6
CONTINUOUS
 0
LINE
 8
WHITE
 10
3.263999
 20
5.118999
 30
0.0000
 11
3.296
 21
5.201
 31
0.0000
 6
CONTINUOUS
 0
LINE
 8
WHITE
 10
3.296
 20
5.201
 30
0.0000
 11
3.312
 21
5.290999
 31
0.0000
 6
CONTINUOUS
 0
LINE
 8
WHITE
 10
3.312
 20
5.290999
 30
0.0000
 11
3.312999
 21
5.377999
 31
0.0000
 6
CONTINUOUS
 0
LINE
 8
WHITE
 10
3.312999
 20
5.377999
 30
0.0000
 11
3.298
 21
5.453
 31
0.0000
 6
CONTINUOUS
 0
LINE
 8
WHITE
 10
3.298
 20
5.453
 30
0.0000
 11
3.269
 21
5.502999
 31
0.0000
 6
CONTINUOUS
 0
LINE
 8
WHITE
 10
3.269
 20
5.502999
 30
0.0000
 11
3.209
 21
5.482999
 31
0.0000
 6
CONTINUOUS
 0
LINE
 8
WHITE
 10
3.209
 20
5.482999
 30
0.0000
 11
3.171
 21
5.436999
 31
0.0000
 6
CONTINUOUS
 0
LINE
 8
WHITE
 10
3.171
 20
5.436999
 30
0.0000
 11
3.134
 21
5.330999
 31
0.0000
 6
CONTINUOUS
 0
LINE
 8
WHITE
 10
3.134
 20
5.330999
 30
0.0000
 11
3.138999
 21
5.322
 31
0.0000
 6
CONTINUOUS
 0
LINE
 8
WHITE
 10
2.895999
 20
5.341
 30
0.0000
 11
2.986999
 21
5.301
 31
0.0000
 6
CONTINUOUS
 0
LINE
 8
WHITE
 10
2.986999
 20
5.301
 30
0.0000
 11
3.009
 21
5.352
 31
0.0000
 6
CONTINUOUS
 0
LINE
 8
WHITE
 10
3.009
 20
5.352
 30
0.0000
 11
3.023
 21
5.441999
 31
0.0000
 6
CONTINUOUS
 0
LINE
 8
WHITE
 10
3.023
 20
5.441999
 30
0.0000
 11
2.974999
 21
5.453
 31
0.0000
 6
CONTINUOUS
 0
LINE
 8
WHITE
 10
2.974999
 20
5.453
 30
0.0000
 11
2.898
 21
5.455999
 31
0.0000
 6
CONTINUOUS
 0
LINE
 8
WHITE
 10
2.898
 20
5.455999
 30
0.0000
 11
2.811
 21
5.448999
 31
0.0000
 6
CONTINUOUS
 0
LINE
 8
WHITE
 10
2.811
 20
5.448999
 30
0.0000
 11
2.727999
 21
5.434
 31
0.0000
 6
CONTINUOUS
 0
LINE
 8
WHITE
 10
2.727999
 20
5.434
 30
0.0000
 11
2.664
 21
5.409999
 31
0.0000
 6
CONTINUOUS
 0
LINE
 8
WHITE
 10
2.664
 20
5.409999
 30
0.0000
 11
2.634999
 21
5.38
 31
0.0000
 6
CONTINUOUS
 0
LINE
 8
WHITE
 10
2.634999
 20
5.38
 30
0.0000
 11
2.65
 21
5.342999
 31
0.0000
 6
CONTINUOUS
 0
LINE
 8
WHITE
 10
2.65
 20
5.342999
 30
0.0000
 11
2.734999
 21
5.315
 31
0.0000
 6
CONTINUOUS
 0
LINE
 8
WHITE
 10
2.734999
 20
5.315
 30
0.0000
 11
2.802
 21
5.274
 31
0.0000
 6
CONTINUOUS
 0
LINE
 8
WHITE
 10
2.802
 20
5.274
 30
0.0000
 11
2.868
 21
5.222
 31
0.0000
 6
CONTINUOUS
 0
ARC
 8
WHITE
 10
2.8931
 20
5.2529
 30
 0
 40
.039809
 50
230.9131
 51
301.6544
 6
CONTINUOUS
 0
LINE
 8
WHITE
 10
2.914
 20
5.218999
 30
0.0000
 11
2.964999
 21
5.25
 31
0.0000
 6
CONTINUOUS
 0
LINE
 8
WHITE
 10
2.964999
 20
5.25
 30
0.0000
 11
2.986999
 21
5.301
 31
0.0000
 6
CONTINUOUS
 0
LINE
 8
WHITE
 10
2.986999
 20
5.301
 30
0.0000
 11
2.983
 21
5.309999
 31
0.0000
 6
CONTINUOUS
 0
LINE
 8
WHITE
 10
3.585999
 20
5.355
 30
0.0000
 11
3.607
 21
5.419
 31
0.0000
 6
CONTINUOUS
 0
LINE
 8
WHITE
 10
3.607
 20
5.419
 30
0.0000
 11
3.569999
 21
5.479
 31
0.0000
 6
CONTINUOUS
 0
LINE
 8
WHITE
 10
3.569999
 20
5.479
 30
0.0000
 11
3.555999
 21
5.541999
 31
0.0000
 6
CONTINUOUS
 0
LINE
 8
WHITE
 10
3.555999
 20
5.541999
 30
0.0000
 11
3.506999
 21
5.526999
 31
0.0000
 6
CONTINUOUS
 0
LINE
 8
WHITE
 10
3.506999
 20
5.526999
 30
0.0000
 11
3.487999
 21
5.484
 31
0.0000
 6
CONTINUOUS
 0
LINE
 8
WHITE
 10
3.487999
 20
5.484
 30
0.0000
 11
3.493999
 21
5.421999
 31
0.0000
 6
CONTINUOUS
 0
LINE
 8
WHITE
 10
3.493999
 20
5.421999
 30
0.0000
 11
3.519
 21
5.348
 31
0.0000
 6
CONTINUOUS
 0
LINE
 8
WHITE
 10
3.519
 20
5.348
 30
0.0000
 11
3.553999
 21
5.272999
 31
0.0000
 6
CONTINUOUS
 0
LINE
 8
WHITE
 10
3.553999
 20
5.272999
 30
0.0000
 11
3.621
 21
5.157999
 31
0.0000
 6
CONTINUOUS
 0
LINE
 8
WHITE
 10
3.621
 20
5.157999
 30
0.0000
 11
3.654999
 21
5.157999
 31
0.0000
 6
CONTINUOUS
 0
LINE
 8
WHITE
 10
3.654999
 20
5.157999
 30
0.0000
 11
3.684
 21
5.234
 31
0.0000
 6
CONTINUOUS
 0
LINE
 8
WHITE
 10
3.684
 20
5.234
 30
0.0000
 11
3.676
 21
5.3
 31
0.0000
 6
CONTINUOUS
 0
LINE
 8
WHITE
 10
3.676
 20
5.3
 30
0.0000
 11
3.644999
 21
5.36
 31
0.0000
 6
CONTINUOUS
 0
LINE
 8
WHITE
 10
3.644999
 20
5.36
 30
0.0000
 11
3.607
 21
5.419
 31
0.0000
 6
CONTINUOUS
 0
LINE
 8
WHITE
 10
3.607
 20
5.419
 30
0.0000
 11
3.598
 21
5.421
 31
0.0000
 6
CONTINUOUS
 0
LINE
 8
WHITE
 10
3.44
 20
5.689
 30
0.0000
 11
3.351999
 21
5.640999
 31
0.0000
 6
CONTINUOUS
 0
LINE
 8
WHITE
 10
3.351999
 20
5.640999
 30
0.0000
 11
3.374
 21
5.600999
 31
0.0000
 6
CONTINUOUS
 0
LINE
 8
WHITE
 10
3.374
 20
5.600999
 30
0.0000
 11
3.437
 21
5.632999
 31
0.0000
 6
CONTINUOUS
 0
LINE
 8
WHITE
 10
3.437
 20
5.632999
 30
0.0000
 11
3.469
 21
5.685999
 31
0.0000
 6
CONTINUOUS
 0
LINE
 8
WHITE
 10
3.469
 20
5.685999
 30
0.0000
 11
3.473
 21
5.75
 31
0.0000
 6
CONTINUOUS
 0
LINE
 8
WHITE
 10
3.473
 20
5.75
 30
0.0000
 11
3.453999
 21
5.816999
 31
0.0000
 6
CONTINUOUS
 0
LINE
 8
WHITE
 10
3.453999
 20
5.816999
 30
0.0000
 11
3.414999
 21
5.875999
 31
0.0000
 6
CONTINUOUS
 0
LINE
 8
WHITE
 10
3.414999
 20
5.875999
 30
0.0000
 11
3.394999
 21
5.892
 31
0.0000
 6
CONTINUOUS
 0
ARC
 8
WHITE
 10
3.369999
 20
5.861
 30
 0
 40
.039824
 50
51.1155
 51
141.1153
 6
CONTINUOUS
 0
LINE
 8
WHITE
 10
3.338999
 20
5.886
 30
0.0000
 11
3.322
 21
5.864999
 31
0.0000
 6
CONTINUOUS
 0
LINE
 8
WHITE
 10
3.322
 20
5.864999
 30
0.0000
 11
3.311
 21
5.777999
 31
0.0000
 6
CONTINUOUS
 0
LINE
 8
WHITE
 10
3.311
 20
5.777999
 30
0.0000
 11
3.329999
 21
5.681
 31
0.0000
 6
CONTINUOUS
 0
LINE
 8
WHITE
 10
3.329999
 20
5.681
 30
0.0000
 11
3.351999
 21
5.640999
 31
0.0000
 6
CONTINUOUS
 0
LINE
 8
WHITE
 10
3.351999
 20
5.640999
 30
0.0000
 11
3.361999
 21
5.638
 31
0.0000
 6
CONTINUOUS
 0
LINE
 8
WHITE
 10
3.092999
 20
5.848999
 30
0.0000
 11
3.191999
 21
5.84
 31
0.0000
 6
CONTINUOUS
 0
LINE
 8
WHITE
 10
3.191999
 20
5.84
 30
0.0000
 11
3.200999
 21
5.939
 31
0.0000
 6
CONTINUOUS
 0
LINE
 8
WHITE
 10
3.200999
 20
5.939
 30
0.0000
 11
3.213
 21
6.002999
 31
0.0000
 6
CONTINUOUS
 0
LINE
 8
WHITE
 10
3.213
 20
6.002999
 30
0.0000
 11
3.236
 21
6.059999
 31
0.0000
 6
CONTINUOUS
 0
LINE
 8
WHITE
 10
3.236
 20
6.059999
 30
0.0000
 11
3.223
 21
6.085999
 31
0.0000
 6
CONTINUOUS
 0
LINE
 8
WHITE
 10
3.223
 20
6.085999
 30
0.0000
 11
3.131999
 21
6.085999
 31
0.0000
 6
CONTINUOUS
 0
LINE
 8
WHITE
 10
3.131999
 20
6.085999
 30
0.0000
 11
3.084
 21
6.01
 31
0.0000
 6
CONTINUOUS
 0
LINE
 8
WHITE
 10
3.084
 20
6.01
 30
0.0000
 11
3.065999
 21
5.938
 31
0.0000
 6
CONTINUOUS
 0
LINE
 8
WHITE
 10
3.065999
 20
5.938
 30
0.0000
 11
3.052999
 21
5.747
 31
0.0000
 6
CONTINUOUS
 0
LINE
 8
WHITE
 10
3.052999
 20
5.747
 30
0.0000
 11
2.999
 21
5.622
 31
0.0000
 6
CONTINUOUS
 0
LINE
 8
WHITE
 10
2.999
 20
5.622
 30
0.0000
 11
2.986999
 21
5.557
 31
0.0000
 6
CONTINUOUS
 0
LINE
 8
WHITE
 10
2.986999
 20
5.557
 30
0.0000
 11
3.015
 21
5.551
 31
0.0000
 6
CONTINUOUS
 0
LINE
 8
WHITE
 10
3.015
 20
5.551
 30
0.0000
 11
3.088
 21
5.584
 31
0.0000
 6
CONTINUOUS
 0
LINE
 8
WHITE
 10
3.088
 20
5.584
 30
0.0000
 11
3.137
 21
5.627999
 31
0.0000
 6
CONTINUOUS
 0
LINE
 8
WHITE
 10
3.137
 20
5.627999
 30
0.0000
 11
3.167
 21
5.681
 31
0.0000
 6
CONTINUOUS
 0
LINE
 8
WHITE
 10
3.167
 20
5.681
 30
0.0000
 11
3.184
 21
5.741
 31
0.0000
 6
CONTINUOUS
 0
LINE
 8
WHITE
 10
3.184
 20
5.741
 30
0.0000
 11
3.191999
 21
5.84
 31
0.0000
 6
CONTINUOUS
 0
LINE
 8
WHITE
 10
3.191999
 20
5.84
 30
0.0000
 11
3.186
 21
5.847
 31
0.0000
 6
CONTINUOUS
 0
LINE
 8
WHITE
 10
3.443
 20
6.188
 30
0.0000
 11
3.539999
 21
6.162
 31
0.0000
 6
CONTINUOUS
 0
LINE
 8
WHITE
 10
3.539999
 20
6.162
 30
0.0000
 11
3.553999
 21
6.212999
 31
0.0000
 6
CONTINUOUS
 0
LINE
 8
WHITE
 10
3.553999
 20
6.212999
 30
0.0000
 11
3.546
 21
6.263
 31
0.0000
 6
CONTINUOUS
 0
LINE
 8
WHITE
 10
3.546
 20
6.263
 30
0.0000
 11
3.552999
 21
6.322999
 31
0.0000
 6
CONTINUOUS
 0
LINE
 8
WHITE
 10
3.552999
 20
6.322999
 30
0.0000
 11
3.627
 21
6.592999
 31
0.0000
 6
CONTINUOUS
 0
LINE
 8
WHITE
 10
3.627
 20
6.592999
 30
0.0000
 11
3.637
 21
6.657999
 31
0.0000
 6
CONTINUOUS
 0
LINE
 8
WHITE
 10
3.637
 20
6.657999
 30
0.0000
 11
3.634999
 21
6.716
 31
0.0000
 6
CONTINUOUS
 0
LINE
 8
WHITE
 10
3.634999
 20
6.716
 30
0.0000
 11
3.618
 21
6.765999
 31
0.0000
 6
CONTINUOUS
 0
LINE
 8
WHITE
 10
3.618
 20
6.765999
 30
0.0000
 11
3.579999
 21
6.807
 31
0.0000
 6
CONTINUOUS
 0
LINE
 8
WHITE
 10
3.579999
 20
6.807
 30
0.0000
 11
3.542
 21
6.817999
 31
0.0000
 6
CONTINUOUS
 0
ARC
 8
WHITE
 10
3.5311
 20
6.779999
 30
 0
 40
.039532
 50
73.99488
 51
149.6074
 6
CONTINUOUS
 0
LINE
 8
WHITE
 10
3.496999
 20
6.8
 30
0.0000
 11
3.470999
 21
6.756
 31
0.0000
 6
CONTINUOUS
 0
LINE
 8
WHITE
 10
3.470999
 20
6.756
 30
0.0000
 11
3.43
 21
6.618
 31
0.0000
 6
CONTINUOUS
 0
LINE
 8
WHITE
 10
3.43
 20
6.618
 30
0.0000
 11
3.4
 21
6.446
 31
0.0000
 6
CONTINUOUS
 0
LINE
 8
WHITE
 10
3.4
 20
6.446
 30
0.0000
 11
3.387
 21
6.271999
 31
0.0000
 6
CONTINUOUS
 0
LINE
 8
WHITE
 10
3.387
 20
6.271999
 30
0.0000
 11
3.39
 21
6.193999
 31
0.0000
 6
CONTINUOUS
 0
LINE
 8
WHITE
 10
3.39
 20
6.193999
 30
0.0000
 11
3.4
 21
6.127999
 31
0.0000
 6
CONTINUOUS
 0
LINE
 8
WHITE
 10
3.4
 20
6.127999
 30
0.0000
 11
3.417
 21
6.077
 31
0.0000
 6
CONTINUOUS
 0
LINE
 8
WHITE
 10
3.417
 20
6.077
 30
0.0000
 11
3.443
 21
6.046
 31
0.0000
 6
CONTINUOUS
 0
LINE
 8
WHITE
 10
3.443
 20
6.046
 30
0.0000
 11
3.476
 21
6.038
 31
0.0000
 6
CONTINUOUS
 0
LINE
 8
WHITE
 10
3.476
 20
6.038
 30
0.0000
 11
3.526
 21
6.111
 31
0.0000
 6
CONTINUOUS
 0
LINE
 8
WHITE
 10
3.526
 20
6.111
 30
0.0000
 11
3.539999
 21
6.162
 31
0.0000
 6
CONTINUOUS
 0
LINE
 8
WHITE
 10
3.539999
 20
6.162
 30
0.0000
 11
3.535
 21
6.17
 31
0.0000
 6
CONTINUOUS
 0
LINE
 8
WHITE
 10
3.226
 20
6.573999
 30
0.0000
 11
3.325
 21
6.565
 31
0.0000
 6
CONTINUOUS
 0
LINE
 8
WHITE
 10
3.325
 20
6.565
 30
0.0000
 11
3.332999
 21
6.656
 31
0.0000
 6
CONTINUOUS
 0
LINE
 8
WHITE
 10
3.332999
 20
6.656
 30
0.0000
 11
3.335999
 21
6.790999
 31
0.0000
 6
CONTINUOUS
 0
LINE
 8
WHITE
 10
3.335999
 20
6.790999
 30
0.0000
 11
3.25
 21
6.791999
 31
0.0000
 6
CONTINUOUS
 0
LINE
 8
WHITE
 10
3.25
 20
6.791999
 30
0.0000
 11
3.043999
 21
6.798999
 31
0.0000
 6
CONTINUOUS
 0
LINE
 8
WHITE
 10
3.043999
 20
6.798999
 30
0.0000
 11
2.954999
 21
6.793
 31
0.0000
 6
CONTINUOUS
 0
LINE
 8
WHITE
 10
2.954999
 20
6.793
 30
0.0000
 11
2.921999
 21
6.782999
 31
0.0000
 6
CONTINUOUS
 0
ARC
 8
WHITE
 10
2.933799
 20
6.7449
 30
 0
 40
.039885
 50
107.2083
 51
176.9797
 6
CONTINUOUS
 0
LINE
 8
WHITE
 10
2.894
 20
6.747
 30
0.0000
 11
2.881999
 21
6.579999
 31
0.0000
 6
CONTINUOUS
 0
LINE
 8
WHITE
 10
2.881999
 20
6.579999
 30
0.0000
 11
2.887
 21
6.431
 31
0.0000
 6
CONTINUOUS
 0
LINE
 8
WHITE
 10
2.887
 20
6.431
 30
0.0000
 11
2.901
 21
6.361999
 31
0.0000
 6
CONTINUOUS
 0
LINE
 8
WHITE
 10
2.901
 20
6.361999
 30
0.0000
 11
2.927
 21
6.3
 31
0.0000
 6
CONTINUOUS
 0
LINE
 8
WHITE
 10
2.927
 20
6.3
 30
0.0000
 11
2.966
 21
6.249
 31
0.0000
 6
CONTINUOUS
 0
LINE
 8
WHITE
 10
2.966
 20
6.249
 30
0.0000
 11
3.020999
 21
6.212999
 31
0.0000
 6
CONTINUOUS
 0
LINE
 8
WHITE
 10
3.020999
 20
6.212999
 30
0.0000
 11
3.094
 21
6.192999
 31
0.0000
 6
CONTINUOUS
 0
LINE
 8
WHITE
 10
3.094
 20
6.192999
 30
0.0000
 11
3.190999
 21
6.198999
 31
0.0000
 6
CONTINUOUS
 0
LINE
 8
WHITE
 10
3.190999
 20
6.198999
 30
0.0000
 11
3.237999
 21
6.238999
 31
0.0000
 6
CONTINUOUS
 0
LINE
 8
WHITE
 10
3.237999
 20
6.238999
 30
0.0000
 11
3.273999
 21
6.302
 31
0.0000
 6
CONTINUOUS
 0
LINE
 8
WHITE
 10
3.273999
 20
6.302
 30
0.0000
 11
3.299999
 21
6.382999
 31
0.0000
 6
CONTINUOUS
 0
LINE
 8
WHITE
 10
3.299999
 20
6.382999
 30
0.0000
 11
3.316999
 21
6.473
 31
0.0000
 6
CONTINUOUS
 0
LINE
 8
WHITE
 10
3.316999
 20
6.473
 30
0.0000
 11
3.325
 21
6.565
 31
0.0000
 6
CONTINUOUS
 0
LINE
 8
WHITE
 10
3.325
 20
6.565
 30
0.0000
 11
3.319
 21
6.572
 31
0.0000
 6
CONTINUOUS
 0
LINE
 8
WHITE
 10
3.648
 20
6.922999
 30
0.0000
 11
3.614
 21
6.864999
 31
0.0000
 6
CONTINUOUS
 0
LINE
 8
WHITE
 10
3.614
 20
6.864999
 30
0.0000
 11
3.631999
 21
6.834
 31
0.0000
 6
CONTINUOUS
 0
LINE
 8
WHITE
 10
3.631999
 20
6.834
 30
0.0000
 11
3.684
 21
6.866
 31
0.0000
 6
CONTINUOUS
 0
ARC
 8
WHITE
 10
3.674
 20
6.883
 30
 0
 40
.019723
 50
300.4655
 51
345.2548
 6
CONTINUOUS
 0
LINE
 8
WHITE
 10
3.693
 20
6.877999
 30
0.0000
 11
3.711999
 21
6.949999
 31
0.0000
 6
CONTINUOUS
 0
LINE
 8
WHITE
 10
3.711999
 20
6.949999
 30
0.0000
 11
3.713
 21
6.991
 31
0.0000
 6
CONTINUOUS
 0
ARC
 8
WHITE
 10
3.693
 20
6.9914
 30
 0
 40
.020003
 50
358.8542
 51
101.5352
 6
CONTINUOUS
 0
LINE
 8
WHITE
 10
3.688999
 20
7.011
 30
0.0000
 11
3.642999
 21
7.002999
 31
0.0000
 6
CONTINUOUS
 0
ARC
 8
WHITE
 10
3.646799
 20
6.982999
 30
 0
 40
.020357
 50
100.758
 51
132.6132
 6
CONTINUOUS
 0
LINE
 8
WHITE
 10
3.632999
 20
6.998
 30
0.0000
 11
3.608999
 21
6.975999
 31
0.0000
 6
CONTINUOUS
 0
ARC
 8
WHITE
 10
3.622799
 20
6.961699
 30
 0
 40
.019872
 50
133.9806
 51
176.2439
 6
CONTINUOUS
 0
LINE
 8
WHITE
 10
3.602999
 20
6.962999
 30
0.0000
 11
3.595999
 21
6.894999
 31
0.0000
 6
CONTINUOUS
 0
LINE
 8
WHITE
 10
3.595999
 20
6.894999
 30
0.0000
 11
3.614
 21
6.864999
 31
0.0000
 6
CONTINUOUS
 0
LINE
 8
WHITE
 10
3.614
 20
6.864999
 30
0.0000
 11
3.624
 21
6.861999
 31
0.0000
 6
CONTINUOUS
 0
LINE
 8
WHITE
 10
3.053999
 20
7.006999
 30
0.0000
 11
3.049999
 21
6.907
 31
0.0000
 6
CONTINUOUS
 0
LINE
 8
WHITE
 10
3.049999
 20
6.907
 30
0.0000
 11
3.111
 21
6.903999
 31
0.0000
 6
CONTINUOUS
 0
LINE
 8
WHITE
 10
3.111
 20
6.903999
 30
0.0000
 11
3.184999
 21
6.935999
 31
0.0000
 6
CONTINUOUS
 0
LINE
 8
WHITE
 10
3.184999
 20
6.935999
 30
0.0000
 11
3.203999
 21
6.987999
 31
0.0000
 6
CONTINUOUS
 0
LINE
 8
WHITE
 10
3.203999
 20
6.987999
 30
0.0000
 11
3.191999
 21
7.057
 31
0.0000
 6
CONTINUOUS
 0
LINE
 8
WHITE
 10
3.191999
 20
7.057
 30
0.0000
 11
3.171
 21
7.131
 31
0.0000
 6
CONTINUOUS
 0
LINE
 8
WHITE
 10
3.171
 20
7.131
 30
0.0000
 11
3.119999
 21
7.144
 31
0.0000
 6
CONTINUOUS
 0
LINE
 8
WHITE
 10
3.119999
 20
7.144
 30
0.0000
 11
3.058
 21
7.107999
 31
0.0000
 6
CONTINUOUS
 0
LINE
 8
WHITE
 10
3.058
 20
7.107999
 30
0.0000
 11
2.997999
 21
7.040999
 31
0.0000
 6
CONTINUOUS
 0
LINE
 8
WHITE
 10
2.997999
 20
7.040999
 30
0.0000
 11
2.953
 21
6.965
 31
0.0000
 6
CONTINUOUS
 0
LINE
 8
WHITE
 10
2.953
 20
6.965
 30
0.0000
 11
2.937
 21
6.907999
 31
0.0000
 6
CONTINUOUS
 0
LINE
 8
WHITE
 10
2.937
 20
6.907999
 30
0.0000
 11
2.987999
 21
6.909999
 31
0.0000
 6
CONTINUOUS
 0
LINE
 8
WHITE
 10
2.987999
 20
6.909999
 30
0.0000
 11
3.049999
 21
6.907
 31
0.0000
 6
CONTINUOUS
 0
LINE
 8
WHITE
 10
3.049999
 20
6.907
 30
0.0000
 11
3.056999
 21
6.914
 31
0.0000
 6
CONTINUOUS
 0
LINE
 8
WHITE
 10
3.427999
 20
7.102
 30
0.0000
 11
3.486
 21
7.019999
 31
0.0000
 6
CONTINUOUS
 0
LINE
 8
WHITE
 10
3.486
 20
7.019999
 30
0.0000
 11
3.549
 21
7.065
 31
0.0000
 6
CONTINUOUS
 0
LINE
 8
WHITE
 10
3.549
 20
7.065
 30
0.0000
 11
3.664
 21
7.096
 31
0.0000
 6
CONTINUOUS
 0
LINE
 8
WHITE
 10
3.664
 20
7.096
 30
0.0000
 11
3.724999
 21
7.169
 31
0.0000
 6
CONTINUOUS
 0
LINE
 8
WHITE
 10
3.724999
 20
7.169
 30
0.0000
 11
3.752
 21
7.231999
 31
0.0000
 6
CONTINUOUS
 0
LINE
 8
WHITE
 10
3.752
 20
7.231999
 30
0.0000
 11
3.753
 21
7.287
 31
0.0000
 6
CONTINUOUS
 0
LINE
 8
WHITE
 10
3.753
 20
7.287
 30
0.0000
 11
3.733999
 21
7.339
 31
0.0000
 6
CONTINUOUS
 0
LINE
 8
WHITE
 10
3.733999
 20
7.339
 30
0.0000
 11
3.63
 21
7.507999
 31
0.0000
 6
CONTINUOUS
 0
LINE
 8
WHITE
 10
3.63
 20
7.507999
 30
0.0000
 11
3.618
 21
7.558
 31
0.0000
 6
CONTINUOUS
 0
LINE
 8
WHITE
 10
3.618
 20
7.558
 30
0.0000
 11
3.595999
 21
7.592
 31
0.0000
 6
CONTINUOUS
 0
LINE
 8
WHITE
 10
3.595999
 20
7.592
 30
0.0000
 11
3.566999
 21
7.611999
 31
0.0000
 6
CONTINUOUS
 0
LINE
 8
WHITE
 10
3.566999
 20
7.611999
 30
0.0000
 11
3.533999
 21
7.618999
 31
0.0000
 6
CONTINUOUS
 0
LINE
 8
WHITE
 10
3.533999
 20
7.618999
 30
0.0000
 11
3.459
 21
7.597
 31
0.0000
 6
CONTINUOUS
 0
LINE
 8
WHITE
 10
3.459
 20
7.597
 30
0.0000
 11
3.391999
 21
7.533999
 31
0.0000
 6
CONTINUOUS
 0
LINE
 8
WHITE
 10
3.391999
 20
7.533999
 30
0.0000
 11
3.368
 21
7.487999
 31
0.0000
 6
CONTINUOUS
 0
LINE
 8
WHITE
 10
3.368
 20
7.487999
 30
0.0000
 11
3.352999
 21
7.434999
 31
0.0000
 6
CONTINUOUS
 0
LINE
 8
WHITE
 10
3.352999
 20
7.434999
 30
0.0000
 11
3.348999
 21
7.374
 31
0.0000
 6
CONTINUOUS
 0
LINE
 8
WHITE
 10
3.348999
 20
7.374
 30
0.0000
 11
3.359999
 21
7.307
 31
0.0000
 6
CONTINUOUS
 0
LINE
 8
WHITE
 10
3.359999
 20
7.307
 30
0.0000
 11
3.388999
 21
7.234
 31
0.0000
 6
CONTINUOUS
 0
LINE
 8
WHITE
 10
3.388999
 20
7.234
 30
0.0000
 11
3.368999
 21
7.139999
 31
0.0000
 6
CONTINUOUS
 0
LINE
 8
WHITE
 10
3.368999
 20
7.139999
 30
0.0000
 11
3.371
 21
7.065
 31
0.0000
 6
CONTINUOUS
 0
LINE
 8
WHITE
 10
3.371
 20
7.065
 30
0.0000
 11
3.4
 21
7.013
 31
0.0000
 6
CONTINUOUS
 0
ARC
 8
WHITE
 10
3.434499
 20
7.0338
 30
 0
 40
.040285
 50
211.0857
 51
305.62
 6
CONTINUOUS
 0
LINE
 8
WHITE
 10
3.457999
 20
7.000999
 30
0.0000
 11
3.486
 21
7.019999
 31
0.0000
 6
CONTINUOUS
 0
LINE
 8
WHITE
 10
3.486
 20
7.019999
 30
0.0000
 11
3.486999
 21
7.03
 31
0.0000
 6
CONTINUOUS
 0
LINE
 8
WHITE
 10
3.006
 20
7.311999
 30
0.0000
 11
2.924
 21
7.368999
 31
0.0000
 6
CONTINUOUS
 0
LINE
 8
WHITE
 10
2.924
 20
7.368999
 30
0.0000
 11
2.878999
 21
7.303999
 31
0.0000
 6
CONTINUOUS
 0
LINE
 8
WHITE
 10
2.878999
 20
7.303999
 30
0.0000
 11
2.878
 21
7.274
 31
0.0000
 6
CONTINUOUS
 0
LINE
 8
WHITE
 10
2.878
 20
7.274
 30
0.0000
 11
2.897
 21
7.221
 31
0.0000
 6
CONTINUOUS
 0
ARC
 8
WHITE
 10
2.935
 20
7.2339
 30
 0
 40
.040129
 50
198.751
 51
277.1425
 6
CONTINUOUS
 0
LINE
 8
WHITE
 10
2.94
 20
7.193999
 30
0.0000
 11
2.986
 21
7.201
 31
0.0000
 6
CONTINUOUS
 0
LINE
 8
WHITE
 10
2.986
 20
7.201
 30
0.0000
 11
3.053999
 21
7.231999
 31
0.0000
 6
CONTINUOUS
 0
LINE
 8
WHITE
 10
3.053999
 20
7.231999
 30
0.0000
 11
3.108999
 21
7.28
 31
0.0000
 6
CONTINUOUS
 0
LINE
 8
WHITE
 10
3.108999
 20
7.28
 30
0.0000
 11
3.154
 21
7.341
 31
0.0000
 6
CONTINUOUS
 0
LINE
 8
WHITE
 10
3.154
 20
7.341
 30
0.0000
 11
3.187
 21
7.410999
 31
0.0000
 6
CONTINUOUS
 0
LINE
 8
WHITE
 10
3.187
 20
7.410999
 30
0.0000
 11
3.21
 21
7.486
 31
0.0000
 6
CONTINUOUS
 0
LINE
 8
WHITE
 10
3.21
 20
7.486
 30
0.0000
 11
3.223
 21
7.563
 31
0.0000
 6
CONTINUOUS
 0
LINE
 8
WHITE
 10
3.223
 20
7.563
 30
0.0000
 11
3.223999
 21
7.578999
 31
0.0000
 6
CONTINUOUS
 0
ARC
 8
WHITE
 10
3.184
 20
7.580999
 30
 0
 40
.040049
 50
357.1376
 51
102.9947
 6
CONTINUOUS
 0
LINE
 8
WHITE
 10
3.174999
 20
7.619999
 30
0.0000
 11
3.161999
 21
7.617
 31
0.0000
 6
CONTINUOUS
 0
LINE
 8
WHITE
 10
3.161999
 20
7.617
 30
0.0000
 11
3.092999
 21
7.572
 31
0.0000
 6
CONTINUOUS
 0
LINE
 8
WHITE
 10
3.092999
 20
7.572
 30
0.0000
 11
3.028
 21
7.506999
 31
0.0000
 6
CONTINUOUS
 0
LINE
 8
WHITE
 10
3.028
 20
7.506999
 30
0.0000
 11
2.969
 21
7.434999
 31
0.0000
 6
CONTINUOUS
 0
LINE
 8
WHITE
 10
2.969
 20
7.434999
 30
0.0000
 11
2.924
 21
7.368999
 31
0.0000
 6
CONTINUOUS
 0
LINE
 8
WHITE
 10
2.924
 20
7.368999
 30
0.0000
 11
2.926
 21
7.359
 31
0.0000
 6
CONTINUOUS
 0
LINE
 8
WHITE
 10
3.737999
 20
7.688
 30
0.0000
 11
3.836999
 21
7.673999
 31
0.0000
 6
CONTINUOUS
 0
LINE
 8
WHITE
 10
3.836999
 20
7.673999
 30
0.0000
 11
3.858999
 21
7.822999
 31
0.0000
 6
CONTINUOUS
 0
LINE
 8
WHITE
 10
3.858999
 20
7.822999
 30
0.0000
 11
3.862999
 21
7.909999
 31
0.0000
 6
CONTINUOUS
 0
LINE
 8
WHITE
 10
3.862999
 20
7.909999
 30
0.0000
 11
3.842
 21
7.910999
 31
0.0000
 6
CONTINUOUS
 0
LINE
 8
WHITE
 10
3.842
 20
7.910999
 30
0.0000
 11
3.806999
 21
7.890999
 31
0.0000
 6
CONTINUOUS
 0
LINE
 8
WHITE
 10
3.806999
 20
7.890999
 30
0.0000
 11
3.766999
 21
7.854
 31
0.0000
 6
CONTINUOUS
 0
LINE
 8
WHITE
 10
3.766999
 20
7.854
 30
0.0000
 11
3.73
 21
7.803999
 31
0.0000
 6
CONTINUOUS
 0
LINE
 8
WHITE
 10
3.73
 20
7.803999
 30
0.0000
 11
3.701999
 21
7.745999
 31
0.0000
 6
CONTINUOUS
 0
LINE
 8
WHITE
 10
3.701999
 20
7.745999
 30
0.0000
 11
3.687999
 21
7.684999
 31
0.0000
 6
CONTINUOUS
 0
LINE
 8
WHITE
 10
3.687999
 20
7.684999
 30
0.0000
 11
3.694999
 21
7.623
 31
0.0000
 6
CONTINUOUS
 0
LINE
 8
WHITE
 10
3.694999
 20
7.623
 30
0.0000
 11
3.727999
 21
7.566999
 31
0.0000
 6
CONTINUOUS
 0
LINE
 8
WHITE
 10
3.727999
 20
7.566999
 30
0.0000
 11
3.793999
 21
7.519999
 31
0.0000
 6
CONTINUOUS
 0
LINE
 8
WHITE
 10
3.793999
 20
7.519999
 30
0.0000
 11
3.815999
 21
7.525
 31
0.0000
 6
CONTINUOUS
 0
LINE
 8
WHITE
 10
3.815999
 20
7.525
 30
0.0000
 11
3.836999
 21
7.673999
 31
0.0000
 6
CONTINUOUS
 0
LINE
 8
WHITE
 10
3.836999
 20
7.673999
 30
0.0000
 11
3.831
 21
7.682
 31
0.0000
 6
CONTINUOUS
 0
LINE
 8
WHITE
 10
3.575
 20
7.986999
 30
0.0000
 11
3.653
 21
7.925
 31
0.0000
 6
CONTINUOUS
 0
LINE
 8
WHITE
 10
3.653
 20
7.925
 30
0.0000
 11
3.746
 21
8.039999
 31
0.0000
 6
CONTINUOUS
 0
LINE
 8
WHITE
 10
3.746
 20
8.039999
 30
0.0000
 11
3.769
 21
8.102
 31
0.0000
 6
CONTINUOUS
 0
LINE
 8
WHITE
 10
3.769
 20
8.102
 30
0.0000
 11
3.763999
 21
8.154999
 31
0.0000
 6
CONTINUOUS
 0
LINE
 8
WHITE
 10
3.763999
 20
8.154999
 30
0.0000
 11
3.740999
 21
8.206999
 31
0.0000
 6
CONTINUOUS
 0
LINE
 8
WHITE
 10
3.740999
 20
8.206999
 30
0.0000
 11
3.693
 21
8.295999
 31
0.0000
 6
CONTINUOUS
 0
ARC
 8
WHITE
 10
3.6577
 20
8.277599
 30
 0
 40
.039807
 50
27.53062
 51
98.23181
 6
CONTINUOUS
 0
LINE
 8
WHITE
 10
3.651999
 20
8.317
 30
0.0000
 11
3.572999
 21
8.303999
 31
0.0000
 6
CONTINUOUS
 0
LINE
 8
WHITE
 10
3.572999
 20
8.303999
 30
0.0000
 11
3.496999
 21
8.281999
 31
0.0000
 6
CONTINUOUS
 0
LINE
 8
WHITE
 10
3.496999
 20
8.281999
 30
0.0000
 11
3.446
 21
8.251999
 31
0.0000
 6
CONTINUOUS
 0
LINE
 8
WHITE
 10
3.446
 20
8.251999
 30
0.0000
 11
3.408999
 21
8.21
 31
0.0000
 6
CONTINUOUS
 0
LINE
 8
WHITE
 10
3.408999
 20
8.21
 30
0.0000
 11
3.378
 21
8.152
 31
0.0000
 6
CONTINUOUS
 0
LINE
 8
WHITE
 10
3.378
 20
8.152
 30
0.0000
 11
3.298
 21
7.978
 31
0.0000
 6
CONTINUOUS
 0
LINE
 8
WHITE
 10
3.298
 20
7.978
 30
0.0000
 11
3.252
 21
7.905
 31
0.0000
 6
CONTINUOUS
 0
LINE
 8
WHITE
 10
3.252
 20
7.905
 30
0.0000
 11
3.24
 21
7.856999
 31
0.0000
 6
CONTINUOUS
 0
LINE
 8
WHITE
 10
3.24
 20
7.856999
 30
0.0000
 11
3.252
 21
7.821
 31
0.0000
 6
CONTINUOUS
 0
LINE
 8
WHITE
 10
3.252
 20
7.821
 30
0.0000
 11
3.306999
 21
7.735
 31
0.0000
 6
CONTINUOUS
 0
LINE
 8
WHITE
 10
3.306999
 20
7.735
 30
0.0000
 11
3.427
 21
7.717
 31
0.0000
 6
CONTINUOUS
 0
LINE
 8
WHITE
 10
3.427
 20
7.717
 30
0.0000
 11
3.499
 21
7.754
 31
0.0000
 6
CONTINUOUS
 0
LINE
 8
WHITE
 10
3.499
 20
7.754
 30
0.0000
 11
3.559999
 21
7.809
 31
0.0000
 6
CONTINUOUS
 0
LINE
 8
WHITE
 10
3.559999
 20
7.809
 30
0.0000
 11
3.653
 21
7.925
 31
0.0000
 6
CONTINUOUS
 0
LINE
 8
WHITE
 10
3.653
 20
7.925
 30
0.0000
 11
3.651
 21
7.934999
 31
0.0000
 6
CONTINUOUS
 0
LINE
 8
WHITE
 10
4.001999
 20
9.435999
 30
0.0000
 11
3.979
 21
9.394
 31
0.0000
 6
CONTINUOUS
 0
LINE
 8
WHITE
 10
3.979
 20
9.394
 30
0.0000
 11
3.997999
 21
9.402
 31
0.0000
 6
CONTINUOUS
 0
LINE
 8
WHITE
 10
3.997999
 20
9.402
 30
0.0000
 11
4.026
 21
9.428
 31
0.0000
 6
CONTINUOUS
 0
ARC
 8
WHITE
 10
4.0116
 20
9.4426
 30
 0
 40
.020506
 50
314.6049
 51
341.2105
 6
CONTINUOUS
 0
LINE
 8
WHITE
 10
4.031
 20
9.435999
 30
0.0000
 11
4.046
 21
9.479
 31
0.0000
 6
CONTINUOUS
 0
LINE
 8
WHITE
 10
4.046
 20
9.479
 30
0.0000
 11
4.019
 21
9.503999
 31
0.0000
 6
CONTINUOUS
 0
LINE
 8
WHITE
 10
4.019
 20
9.503999
 30
0.0000
 11
3.976
 21
9.428
 31
0.0000
 6
CONTINUOUS
 0
LINE
 8
WHITE
 10
3.976
 20
9.428
 30
0.0000
 11
3.946
 21
9.399
 31
0.0000
 6
CONTINUOUS
 0
LINE
 8
WHITE
 10
3.946
 20
9.399
 30
0.0000
 11
3.96
 21
9.387
 31
0.0000
 6
CONTINUOUS
 0
LINE
 8
WHITE
 10
3.96
 20
9.387
 30
0.0000
 11
3.979
 21
9.394
 31
0.0000
 6
CONTINUOUS
 0
LINE
 8
WHITE
 10
3.979
 20
9.394
 30
0.0000
 11
3.983
 21
9.404
 31
0.0000
 6
CONTINUOUS
 0
LINE
 8
WHITE
 10
4.014999
 20
9.649
 30
0.0000
 11
3.987999
 21
9.585
 31
0.0000
 6
CONTINUOUS
 0
LINE
 8
WHITE
 10
3.987999
 20
9.585
 30
0.0000
 11
4.001999
 21
9.581999
 31
0.0000
 6
CONTINUOUS
 0
LINE
 8
WHITE
 10
4.001999
 20
9.581999
 30
0.0000
 11
4.051
 21
9.63
 31
0.0000
 6
CONTINUOUS
 0
LINE
 8
WHITE
 10
4.051
 20
9.63
 30
0.0000
 11
4.081999
 21
9.687999
 31
0.0000
 6
CONTINUOUS
 0
ARC
 8
WHITE
 10
4.063799
 20
9.696499
 30
 0
 40
.020087
 50
334.9659
 51
25.03448
 6
CONTINUOUS
 0
LINE
 8
WHITE
 10
4.081999
 20
9.704999
 30
0.0000
 11
4.058
 21
9.76
 31
0.0000
 6
CONTINUOUS
 0
LINE
 8
WHITE
 10
4.058
 20
9.76
 30
0.0000
 11
4.035999
 21
9.753
 31
0.0000
 6
CONTINUOUS
 0
LINE
 8
WHITE
 10
4.035999
 20
9.753
 30
0.0000
 11
3.984999
 21
9.649999
 31
0.0000
 6
CONTINUOUS
 0
LINE
 8
WHITE
 10
3.984999
 20
9.649999
 30
0.0000
 11
3.973999
 21
9.588
 31
0.0000
 6
CONTINUOUS
 0
LINE
 8
WHITE
 10
3.973999
 20
9.588
 30
0.0000
 11
3.987999
 21
9.585
 31
0.0000
 6
CONTINUOUS
 0
LINE
 8
WHITE
 10
3.987999
 20
9.585
 30
0.0000
 11
3.996999
 21
9.59
 31
0.0000
 6
CONTINUOUS
 0
LINE
 8
WHITE
 10
4.166999
 20
9.965999
 30
0.0000
 11
4.151
 21
9.923999
 31
0.0000
 6
CONTINUOUS
 0
LINE
 8
WHITE
 10
4.151
 20
9.923999
 30
0.0000
 11
4.175
 21
9.928
 31
0.0000
 6
CONTINUOUS
 0
LINE
 8
WHITE
 10
4.175
 20
9.928
 30
0.0000
 11
4.228
 21
9.956
 31
0.0000
 6
CONTINUOUS
 0
ARC
 8
WHITE
 10
4.2165
 20
9.9731
 30
 0
 40
.020607
 50
303.9214
 51
333.8053
 6
CONTINUOUS
 0
LINE
 8
WHITE
 10
4.235
 20
9.963999
 30
0.0000
 11
4.25
 21
9.987999
 31
0.0000
 6
CONTINUOUS
 0
ARC
 8
WHITE
 10
4.267
 20
9.977999
 30
 0
 40
.019723
 50
120.4658
 51
149.5345
 6
CONTINUOUS
 0
LINE
 8
WHITE
 10
4.256999
 20
9.994999
 30
0.0000
 11
4.364999
 21
10.056
 31
0.0000
 6
CONTINUOUS
 0
LINE
 8
WHITE
 10
4.364999
 20
10.056
 30
0.0000
 11
4.361999
 21
10.093
 31
0.0000
 6
CONTINUOUS
 0
LINE
 8
WHITE
 10
4.361999
 20
10.093
 30
0.0000
 11
4.275
 21
10.074
 31
0.0000
 6
CONTINUOUS
 0
ARC
 8
WHITE
 10
4.2792
 20
10.054
 30
 0
 40
.020436
 50
101.8598
 51
171.5518
 6
CONTINUOUS
 0
LINE
 8
WHITE
 10
4.258999
 20
10.057
 30
0.0000
 11
4.256999
 21
10.038
 31
0.0000
 6
CONTINUOUS
 0
ARC
 8
WHITE
 10
4.236999
 20
10.041
 30
 0
 40
.020223
 50
290.2247
 51
351.4692
 6
CONTINUOUS
 0
LINE
 8
WHITE
 10
4.243999
 20
10.022
 30
0.0000
 11
4.135
 21
9.982
 31
0.0000
 6
CONTINUOUS
 0
ARC
 8
WHITE
 10
4.142199
 20
9.9631
 30
 0
 40
.020224
 50
110.8545
 51
183.1185
 6
CONTINUOUS
 0
LINE
 8
WHITE
 10
4.122
 20
9.961999
 30
0.0000
 11
4.125999
 21
9.92
 31
0.0000
 6
CONTINUOUS
 0
LINE
 8
WHITE
 10
4.125999
 20
9.92
 30
0.0000
 11
4.151
 21
9.923999
 31
0.0000
 6
CONTINUOUS
 0
LINE
 8
WHITE
 10
4.151
 20
9.923999
 30
0.0000
 11
4.156
 21
9.932
 31
0.0000
 6
CONTINUOUS
 0
LINE
 8
WHITE
 10
4.171
 20
10.266
 30
0.0000
 11
4.020999
 21
10.387
 31
0.0000
 6
CONTINUOUS
 0
LINE
 8
WHITE
 10
4.020999
 20
10.387
 30
0.0000
 11
3.96
 21
10.407
 31
0.0000
 6
CONTINUOUS
 0
LINE
 8
WHITE
 10
3.96
 20
10.407
 30
0.0000
 11
3.905999
 21
10.406
 31
0.0000
 6
CONTINUOUS
 0
LINE
 8
WHITE
 10
4.255
 20
9.795999
 30
0.0000
 11
4.250999
 21
9.767
 31
0.0000
 6
CONTINUOUS
 0
LINE
 8
WHITE
 10
4.250999
 20
9.767
 30
0.0000
 11
4.282999
 21
9.779999
 31
0.0000
 6
CONTINUOUS
 0
LINE
 8
WHITE
 10
4.282999
 20
9.779999
 30
0.0000
 11
4.274
 21
9.803
 31
0.0000
 6
CONTINUOUS
 0
ARC
 8
WHITE
 10
4.2551
 20
9.7958
 30
 0
 40
.020224
 50
20.85446
 51
93.1172
 6
CONTINUOUS
 0
LINE
 8
WHITE
 10
4.254
 20
9.815999
 30
0.0000
 11
4.205999
 21
9.812
 31
0.0000
 6
CONTINUOUS
 0
LINE
 8
WHITE
 10
4.205999
 20
9.812
 30
0.0000
 11
4.190999
 21
9.786999
 31
0.0000
 6
CONTINUOUS
 0
LINE
 8
WHITE
 10
4.190999
 20
9.786999
 30
0.0000
 11
4.219999
 21
9.755
 31
0.0000
 6
CONTINUOUS
 0
LINE
 8
WHITE
 10
4.219999
 20
9.755
 30
0.0000
 11
4.250999
 21
9.767
 31
0.0000
 6
CONTINUOUS
 0
LINE
 8
WHITE
 10
4.250999
 20
9.767
 30
0.0000
 11
4.255
 21
9.777
 31
0.0000
 6
CONTINUOUS
 0
LINE
 8
WHITE
 10
4.263
 20
9.569999
 30
0.0000
 11
4.289999
 21
9.503
 31
0.0000
 6
CONTINUOUS
 0
LINE
 8
WHITE
 10
4.289999
 20
9.503
 30
0.0000
 11
4.309999
 21
9.517999
 31
0.0000
 6
CONTINUOUS
 0
LINE
 8
WHITE
 10
4.309999
 20
9.517999
 30
0.0000
 11
4.281
 21
9.578
 31
0.0000
 6
CONTINUOUS
 0
ARC
 8
WHITE
 10
4.2629
 20
9.5692
 30
 0
 40
.020125
 50
25.92846
 51
56.54702
 6
CONTINUOUS
 0
LINE
 8
WHITE
 10
4.274
 20
9.586
 30
0.0000
 11
4.241
 21
9.607999
 31
0.0000
 6
CONTINUOUS
 0
ARC
 8
WHITE
 10
4.229
 20
9.591699
 30
 0
 40
.02024
 50
53.63964
 51
107.2692
 6
CONTINUOUS
 0
LINE
 8
WHITE
 10
4.223
 20
9.611
 30
0.0000
 11
4.186999
 21
9.597999
 31
0.0000
 6
CONTINUOUS
 0
LINE
 8
WHITE
 10
4.186999
 20
9.597999
 30
0.0000
 11
4.193999
 21
9.567
 31
0.0000
 6
CONTINUOUS
 0
LINE
 8
WHITE
 10
4.193999
 20
9.567
 30
0.0000
 11
4.221
 21
9.524999
 31
0.0000
 6
CONTINUOUS
 0
LINE
 8
WHITE
 10
4.221
 20
9.524999
 30
0.0000
 11
4.269999
 21
9.487999
 31
0.0000
 6
CONTINUOUS
 0
LINE
 8
WHITE
 10
4.269999
 20
9.487999
 30
0.0000
 11
4.289999
 21
9.503
 31
0.0000
 6
CONTINUOUS
 0
LINE
 8
WHITE
 10
4.289999
 20
9.503
 30
0.0000
 11
4.290999
 21
9.512999
 31
0.0000
 6
CONTINUOUS
 0
LINE
 8
WHITE
 10
4.429999
 20
9.656999
 30
0.0000
 11
4.434
 21
9.635
 31
0.0000
 6
CONTINUOUS
 0
LINE
 8
WHITE
 10
4.434
 20
9.635
 30
0.0000
 11
4.462999
 21
9.638999
 31
0.0000
 6
CONTINUOUS
 0
ARC
 8
WHITE
 10
4.459399
 20
9.6589
 30
 0
 40
.020223
 50
280.2542
 51
336.9875
 6
CONTINUOUS
 0
LINE
 8
WHITE
 10
4.478
 20
9.651
 30
0.0000
 11
4.486999
 21
9.67
 31
0.0000
 6
CONTINUOUS
 0
ARC
 8
WHITE
 10
4.469099
 20
9.678199
 30
 0
 40
.019688
 50
335.3875
 51
40.66465
 6
CONTINUOUS
 0
LINE
 8
WHITE
 10
4.484
 20
9.690999
 30
0.0000
 11
4.473
 21
9.704
 31
0.0000
 6
CONTINUOUS
 0
ARC
 8
WHITE
 10
4.4577
 20
9.6913
 30
 0
 40
.019884
 50
39.69489
 51
97.80502
 6
CONTINUOUS
 0
LINE
 8
WHITE
 10
4.454999
 20
9.711
 30
0.0000
 11
4.357999
 21
9.694
 31
0.0000
 6
CONTINUOUS
 0
LINE
 8
WHITE
 10
4.357999
 20
9.694
 30
0.0000
 11
4.335999
 21
9.666999
 31
0.0000
 6
CONTINUOUS
 0
LINE
 8
WHITE
 10
4.335999
 20
9.666999
 30
0.0000
 11
4.387
 21
9.633
 31
0.0000
 6
CONTINUOUS
 0
ARC
 8
WHITE
 10
4.398
 20
9.65
 30
 0
 40
.020248
 50
237.0947
 51
278.53
 6
CONTINUOUS
 0
LINE
 8
WHITE
 10
4.401
 20
9.63
 30
0.0000
 11
4.434
 21
9.635
 31
0.0000
 6
CONTINUOUS
 0
LINE
 8
WHITE
 10
4.434
 20
9.635
 30
0.0000
 11
4.439
 21
9.642999
 31
0.0000
 6
CONTINUOUS
 0
LINE
 8
WHITE
 10
4.459
 20
10.204
 30
0.0000
 11
4.403999
 21
10.192
 31
0.0000
 6
CONTINUOUS
 0
LINE
 8
WHITE
 10
4.403999
 20
10.192
 30
0.0000
 11
4.42
 21
10.181
 31
0.0000
 6
CONTINUOUS
 0
LINE
 8
WHITE
 10
4.42
 20
10.181
 30
0.0000
 11
4.487999
 21
10.199
 31
0.0000
 6
CONTINUOUS
 0
ARC
 8
WHITE
 10
4.482399
 20
10.2178
 30
 0
 40
.019616
 50
286.5873
 51
3.502738
 6
CONTINUOUS
 0
LINE
 8
WHITE
 10
4.501999
 20
10.219
 30
0.0000
 11
4.501999
 21
10.246
 31
0.0000
 6
CONTINUOUS
 0
ARC
 8
WHITE
 10
4.481999
 20
10.2463
 30
 0
 40
.020002
 50
359.1406
 51
69.47726
 6
CONTINUOUS
 0
LINE
 8
WHITE
 10
4.488999
 20
10.265
 30
0.0000
 11
4.468999
 21
10.273
 31
0.0000
 6
CONTINUOUS
 0
ARC
 8
WHITE
 10
4.4614
 20
10.2542
 30
 0
 40
.020278
 50
67.98872
 51
102.5294
 6
CONTINUOUS
 0
LINE
 8
WHITE
 10
4.456999
 20
10.274
 30
0.0000
 11
4.419
 21
10.265
 31
0.0000
 6
CONTINUOUS
 0
ARC
 8
WHITE
 10
4.4226
 20
10.2457
 30
 0
 40
.019632
 50
100.5659
 51
161.2888
 6
CONTINUOUS
 0
LINE
 8
WHITE
 10
4.403999
 20
10.252
 30
0.0000
 11
4.388
 21
10.203
 31
0.0000
 6
CONTINUOUS
 0
LINE
 8
WHITE
 10
4.388
 20
10.203
 30
0.0000
 11
4.403999
 21
10.192
 31
0.0000
 6
CONTINUOUS
 0
LINE
 8
WHITE
 10
4.403999
 20
10.192
 30
0.0000
 11
4.414
 21
10.194
 31
0.0000
 6
CONTINUOUS
 0
LINE
 8
WHITE
 10
4.517
 20
10.026
 30
0.0000
 11
4.525
 21
10.007
 31
0.0000
 6
CONTINUOUS
 0
LINE
 8
WHITE
 10
4.525
 20
10.007
 30
0.0000
 11
4.559
 21
10.022
 31
0.0000
 6
CONTINUOUS
 0
LINE
 8
WHITE
 10
4.559
 20
10.022
 30
0.0000
 11
4.563
 21
10.045
 31
0.0000
 6
CONTINUOUS
 0
ARC
 8
WHITE
 10
4.5429
 20
10.0485
 30
 0
 40
.020402
 50
350.1222
 51
106.8339
 6
CONTINUOUS
 0
LINE
 8
WHITE
 10
4.537
 20
10.068
 30
0.0000
 11
4.532
 21
10.066
 31
0.0000
 6
CONTINUOUS
 0
LINE
 8
WHITE
 10
4.532
 20
10.066
 30
0.0000
 11
4.473999
 21
10.004
 31
0.0000
 6
CONTINUOUS
 0
LINE
 8
WHITE
 10
4.473999
 20
10.004
 30
0.0000
 11
4.492
 21
9.991999
 31
0.0000
 6
CONTINUOUS
 0
LINE
 8
WHITE
 10
4.492
 20
9.991999
 30
0.0000
 11
4.525
 21
10.007
 31
0.0000
 6
CONTINUOUS
 0
LINE
 8
WHITE
 10
4.525
 20
10.007
 30
0.0000
 11
4.528999
 21
10.017
 31
0.0000
 6
CONTINUOUS
 0
LINE
 8
WHITE
 10
4.453999
 20
9.809
 30
0.0000
 11
4.434999
 21
9.781999
 31
0.0000
 6
CONTINUOUS
 0
LINE
 8
WHITE
 10
4.434999
 20
9.781999
 30
0.0000
 11
4.459
 21
9.763999
 31
0.0000
 6
CONTINUOUS
 0
LINE
 8
WHITE
 10
4.459
 20
9.763999
 30
0.0000
 11
4.493999
 21
9.779999
 31
0.0000
 6
CONTINUOUS
 0
LINE
 8
WHITE
 10
4.493999
 20
9.779999
 30
0.0000
 11
4.498
 21
9.803
 31
0.0000
 6
CONTINUOUS
 0
LINE
 8
WHITE
 10
4.498
 20
9.803
 30
0.0000
 11
4.456999
 21
9.833
 31
0.0000
 6
CONTINUOUS
 0
LINE
 8
WHITE
 10
4.456999
 20
9.833
 30
0.0000
 11
4.425
 21
9.833
 31
0.0000
 6
CONTINUOUS
 0
LINE
 8
WHITE
 10
4.425
 20
9.833
 30
0.0000
 11
4.409999
 21
9.8
 31
0.0000
 6
CONTINUOUS
 0
LINE
 8
WHITE
 10
4.409999
 20
9.8
 30
0.0000
 11
4.434999
 21
9.781999
 31
0.0000
 6
CONTINUOUS
 0
LINE
 8
WHITE
 10
4.434999
 20
9.781999
 30
0.0000
 11
4.443999
 21
9.784
 31
0.0000
 6
CONTINUOUS
 0
LINE
 8
WHITE
 10
4.683
 20
10.17
 30
0.0000
 11
4.662
 21
10.158
 31
0.0000
 6
CONTINUOUS
 0
LINE
 8
WHITE
 10
4.662
 20
10.158
 30
0.0000
 11
4.692999
 21
10.152
 31
0.0000
 6
CONTINUOUS
 0
LINE
 8
WHITE
 10
4.692999
 20
10.152
 30
0.0000
 11
4.747
 21
10.171
 31
0.0000
 6
CONTINUOUS
 0
LINE
 8
WHITE
 10
4.747
 20
10.171
 30
0.0000
 11
4.761
 21
10.189
 31
0.0000
 6
CONTINUOUS
 0
LINE
 8
WHITE
 10
4.761
 20
10.189
 30
0.0000
 11
4.745999
 21
10.196
 31
0.0000
 6
CONTINUOUS
 0
LINE
 8
WHITE
 10
4.745999
 20
10.196
 30
0.0000
 11
4.704999
 21
10.186
 31
0.0000
 6
CONTINUOUS
 0
LINE
 8
WHITE
 10
4.704999
 20
10.186
 30
0.0000
 11
4.638999
 21
10.181
 31
0.0000
 6
CONTINUOUS
 0
LINE
 8
WHITE
 10
4.638999
 20
10.181
 30
0.0000
 11
4.631999
 21
10.164
 31
0.0000
 6
CONTINUOUS
 0
LINE
 8
WHITE
 10
4.631999
 20
10.164
 30
0.0000
 11
4.662
 21
10.158
 31
0.0000
 6
CONTINUOUS
 0
LINE
 8
WHITE
 10
4.662
 20
10.158
 30
0.0000
 11
4.671
 21
10.164
 31
0.0000
 6
CONTINUOUS
 0
LINE
 8
WHITE
 10
4.743999
 20
9.753999
 30
0.0000
 11
4.743
 21
9.711999
 31
0.0000
 6
CONTINUOUS
 0
LINE
 8
WHITE
 10
4.743
 20
9.711999
 30
0.0000
 11
4.756999
 21
9.715
 31
0.0000
 6
CONTINUOUS
 0
LINE
 8
WHITE
 10
4.756999
 20
9.715
 30
0.0000
 11
4.782
 21
9.737999
 31
0.0000
 6
CONTINUOUS
 0
LINE
 8
WHITE
 10
4.782
 20
9.737999
 30
0.0000
 11
4.791999
 21
9.762999
 31
0.0000
 6
CONTINUOUS
 0
LINE
 8
WHITE
 10
4.791999
 20
9.762999
 30
0.0000
 11
4.749
 21
9.772999
 31
0.0000
 6
CONTINUOUS
 0
ARC
 8
WHITE
 10
4.743999
 20
9.753999
 30
 0
 40
.019646
 50
75.25644
 51
104.7438
 6
CONTINUOUS
 0
LINE
 8
WHITE
 10
4.738999
 20
9.772999
 30
0.0000
 11
4.711999
 21
9.765999
 31
0.0000
 6
CONTINUOUS
 0
ARC
 8
WHITE
 10
4.716499
 20
9.746899
 30
 0
 40
.019622
 50
103.2572
 51
142.0216
 6
CONTINUOUS
 0
LINE
 8
WHITE
 10
4.701
 20
9.758999
 30
0.0000
 11
4.695
 21
9.751999
 31
0.0000
 6
CONTINUOUS
 0
ARC
 8
WHITE
 10
4.7116
 20
9.7397
 30
 0
 40
.02066
 50
143.4629
 51
245.3027
 6
CONTINUOUS
 0
LINE
 8
WHITE
 10
4.703
 20
9.720999
 30
0.0000
 11
4.729
 21
9.708999
 31
0.0000
 6
CONTINUOUS
 0
LINE
 8
WHITE
 10
4.729
 20
9.708999
 30
0.0000
 11
4.743
 21
9.711999
 31
0.0000
 6
CONTINUOUS
 0
LINE
 8
WHITE
 10
4.743
 20
9.711999
 30
0.0000
 11
4.748
 21
9.72
 31
0.0000
 6
CONTINUOUS
 0
LINE
 8
WHITE
 10
4.17
 20
9.185999
 30
0.0000
 11
4.222
 21
9.168
 31
0.0000
 6
CONTINUOUS
 0
LINE
 8
WHITE
 10
4.222
 20
9.168
 30
0.0000
 11
4.239999
 21
9.220999
 31
0.0000
 6
CONTINUOUS
 0
LINE
 8
WHITE
 10
4.239999
 20
9.220999
 30
0.0000
 11
4.251999
 21
9.321
 31
0.0000
 6
CONTINUOUS
 0
LINE
 8
WHITE
 10
4.251999
 20
9.321
 30
0.0000
 11
4.230999
 21
9.362
 31
0.0000
 6
CONTINUOUS
 0
ARC
 8
WHITE
 10
4.1946
 20
9.344799
 30
 0
 40
.040259
 50
25.29202
 51
92.27959
 6
CONTINUOUS
 0
LINE
 8
WHITE
 10
4.192999
 20
9.385
 30
0.0000
 11
4.144999
 21
9.381999
 31
0.0000
 6
CONTINUOUS
 0
LINE
 8
WHITE
 10
4.144999
 20
9.381999
 30
0.0000
 11
4.104
 21
9.354
 31
0.0000
 6
CONTINUOUS
 0
LINE
 8
WHITE
 10
4.104
 20
9.354
 30
0.0000
 11
4.089
 21
9.307999
 31
0.0000
 6
CONTINUOUS
 0
LINE
 8
WHITE
 10
4.089
 20
9.307999
 30
0.0000
 11
4.092999
 21
9.246999
 31
0.0000
 6
CONTINUOUS
 0
LINE
 8
WHITE
 10
4.092999
 20
9.246999
 30
0.0000
 11
4.140999
 21
9.034
 31
0.0000
 6
CONTINUOUS
 0
LINE
 8
WHITE
 10
4.140999
 20
9.034
 30
0.0000
 11
4.168
 21
9.034
 31
0.0000
 6
CONTINUOUS
 0
LINE
 8
WHITE
 10
4.168
 20
9.034
 30
0.0000
 11
4.203999
 21
9.114999
 31
0.0000
 6
CONTINUOUS
 0
LINE
 8
WHITE
 10
4.203999
 20
9.114999
 30
0.0000
 11
4.222
 21
9.168
 31
0.0000
 6
CONTINUOUS
 0
LINE
 8
WHITE
 10
4.222
 20
9.168
 30
0.0000
 11
4.217
 21
9.177
 31
0.0000
 6
CONTINUOUS
 0
LINE
 8
WHITE
 10
3.938999
 20
9.086
 30
0.0000
 11
3.871
 21
9.159
 31
0.0000
 6
CONTINUOUS
 0
LINE
 8
WHITE
 10
3.871
 20
9.159
 30
0.0000
 11
3.815999
 21
9.107999
 31
0.0000
 6
CONTINUOUS
 0
LINE
 8
WHITE
 10
3.815999
 20
9.107999
 30
0.0000
 11
3.799
 21
9.069
 31
0.0000
 6
CONTINUOUS
 0
LINE
 8
WHITE
 10
3.799
 20
9.069
 30
0.0000
 11
3.803999
 21
9.027999
 31
0.0000
 6
CONTINUOUS
 0
LINE
 8
WHITE
 10
3.803999
 20
9.027999
 30
0.0000
 11
3.838999
 21
8.982
 31
0.0000
 6
CONTINUOUS
 0
LINE
 8
WHITE
 10
3.838999
 20
8.982
 30
0.0000
 11
3.913
 21
8.932999
 31
0.0000
 6
CONTINUOUS
 0
LINE
 8
WHITE
 10
3.913
 20
8.932999
 30
0.0000
 11
3.990999
 21
8.958999
 31
0.0000
 6
CONTINUOUS
 0
LINE
 8
WHITE
 10
3.990999
 20
8.958999
 30
0.0000
 11
4.025
 21
9.001
 31
0.0000
 6
CONTINUOUS
 0
LINE
 8
WHITE
 10
4.025
 20
9.001
 30
0.0000
 11
4.028999
 21
9.053999
 31
0.0000
 6
CONTINUOUS
 0
LINE
 8
WHITE
 10
4.028999
 20
9.053999
 30
0.0000
 11
4.013999
 21
9.114999
 31
0.0000
 6
CONTINUOUS
 0
LINE
 8
WHITE
 10
4.013999
 20
9.114999
 30
0.0000
 11
3.973
 21
9.178999
 31
0.0000
 6
CONTINUOUS
 0
LINE
 8
WHITE
 10
3.973
 20
9.178999
 30
0.0000
 11
3.926
 21
9.211
 31
0.0000
 6
CONTINUOUS
 0
LINE
 8
WHITE
 10
3.926
 20
9.211
 30
0.0000
 11
3.871
 21
9.159
 31
0.0000
 6
CONTINUOUS
 0
LINE
 8
WHITE
 10
3.871
 20
9.159
 30
0.0000
 11
3.871
 21
9.149
 31
0.0000
 6
CONTINUOUS
 0
LINE
 8
WHITE
 10
3.736999
 20
8.722
 30
0.0000
 11
3.723
 21
8.829
 31
0.0000
 6
CONTINUOUS
 0
LINE
 8
WHITE
 10
3.723
 20
8.829
 30
0.0000
 11
3.698999
 21
8.782999
 31
0.0000
 6
CONTINUOUS
 0
LINE
 8
WHITE
 10
3.698999
 20
8.782999
 30
0.0000
 11
3.654
 21
8.668999
 31
0.0000
 6
CONTINUOUS
 0
LINE
 8
WHITE
 10
3.654
 20
8.668999
 30
0.0000
 11
3.615
 21
8.557
 31
0.0000
 6
CONTINUOUS
 0
LINE
 8
WHITE
 10
3.615
 20
8.557
 30
0.0000
 11
3.591
 21
8.468999
 31
0.0000
 6
CONTINUOUS
 0
LINE
 8
WHITE
 10
3.591
 20
8.468999
 30
0.0000
 11
3.586999
 21
8.437
 31
0.0000
 6
CONTINUOUS
 0
LINE
 8
WHITE
 10
3.586999
 20
8.437
 30
0.0000
 11
3.635999
 21
8.458
 31
0.0000
 6
CONTINUOUS
 0
LINE
 8
WHITE
 10
3.635999
 20
8.458
 30
0.0000
 11
3.69
 21
8.505
 31
0.0000
 6
CONTINUOUS
 0
LINE
 8
WHITE
 10
3.69
 20
8.505
 30
0.0000
 11
3.739
 21
8.569
 31
0.0000
 6
CONTINUOUS
 0
LINE
 8
WHITE
 10
3.739
 20
8.569
 30
0.0000
 11
3.779999
 21
8.644
 31
0.0000
 6
CONTINUOUS
 0
LINE
 8
WHITE
 10
3.779999
 20
8.644
 30
0.0000
 11
3.808
 21
8.722999
 31
0.0000
 6
CONTINUOUS
 0
LINE
 8
WHITE
 10
3.808
 20
8.722999
 30
0.0000
 11
3.821
 21
8.8
 31
0.0000
 6
CONTINUOUS
 0
LINE
 8
WHITE
 10
3.821
 20
8.8
 30
0.0000
 11
3.813999
 21
8.866999
 31
0.0000
 6
CONTINUOUS
 0
LINE
 8
WHITE
 10
3.813999
 20
8.866999
 30
0.0000
 11
3.786
 21
8.916
 31
0.0000
 6
CONTINUOUS
 0
LINE
 8
WHITE
 10
3.786
 20
8.916
 30
0.0000
 11
3.746999
 21
8.873999
 31
0.0000
 6
CONTINUOUS
 0
LINE
 8
WHITE
 10
3.746999
 20
8.873999
 30
0.0000
 11
3.723
 21
8.829
 31
0.0000
 6
CONTINUOUS
 0
LINE
 8
WHITE
 10
3.723
 20
8.829
 30
0.0000
 11
3.726
 21
8.819
 31
0.0000
 6
CONTINUOUS
 0
LINE
 8
WHITE
 10
3.976999
 20
8.529
 30
0.0000
 11
4.057
 21
8.576999
 31
0.0000
 6
CONTINUOUS
 0
LINE
 8
WHITE
 10
4.057
 20
8.576999
 30
0.0000
 11
4.071
 21
8.673999
 31
0.0000
 6
CONTINUOUS
 0
LINE
 8
WHITE
 10
4.071
 20
8.673999
 30
0.0000
 11
4.067999
 21
8.739
 31
0.0000
 6
CONTINUOUS
 0
LINE
 8
WHITE
 10
4.067999
 20
8.739
 30
0.0000
 11
4.022999
 21
8.744
 31
0.0000
 6
CONTINUOUS
 0
LINE
 8
WHITE
 10
4.022999
 20
8.744
 30
0.0000
 11
3.971999
 21
8.67
 31
0.0000
 6
CONTINUOUS
 0
LINE
 8
WHITE
 10
3.971999
 20
8.67
 30
0.0000
 11
3.926
 21
8.592
 31
0.0000
 6
CONTINUOUS
 0
LINE
 8
WHITE
 10
3.926
 20
8.592
 30
0.0000
 11
3.89
 21
8.51
 31
0.0000
 6
CONTINUOUS
 0
LINE
 8
WHITE
 10
3.89
 20
8.51
 30
0.0000
 11
3.865
 21
8.421999
 31
0.0000
 6
CONTINUOUS
 0
LINE
 8
WHITE
 10
3.865
 20
8.421999
 30
0.0000
 11
3.858999
 21
8.352
 31
0.0000
 6
CONTINUOUS
 0
ARC
 8
WHITE
 10
3.898999
 20
8.3477
 30
 0
 40
.04023
 50
173.8643
 51
236.8629
 6
CONTINUOUS
 0
LINE
 8
WHITE
 10
3.877
 20
8.314
 30
0.0000
 11
3.921999
 21
8.286
 31
0.0000
 6
CONTINUOUS
 0
LINE
 8
WHITE
 10
3.921999
 20
8.286
 30
0.0000
 11
3.976999
 21
8.27
 31
0.0000
 6
CONTINUOUS
 0
LINE
 8
WHITE
 10
3.976999
 20
8.27
 30
0.0000
 11
4.022999
 21
8.350999
 31
0.0000
 6
CONTINUOUS
 0
LINE
 8
WHITE
 10
4.022999
 20
8.350999
 30
0.0000
 11
4.034999
 21
8.385999
 31
0.0000
 6
CONTINUOUS
 0
LINE
 8
WHITE
 10
4.034999
 20
8.385999
 30
0.0000
 11
4.043
 21
8.479
 31
0.0000
 6
CONTINUOUS
 0
LINE
 8
WHITE
 10
4.043
 20
8.479
 30
0.0000
 11
4.057
 21
8.576999
 31
0.0000
 6
CONTINUOUS
 0
LINE
 8
WHITE
 10
4.057
 20
8.576999
 30
0.0000
 11
4.051
 21
8.585
 31
0.0000
 6
CONTINUOUS
 0
LINE
 8
WHITE
 10
4.807
 20
9.543
 30
0.0000
 11
4.813
 21
9.574999
 31
0.0000
 6
CONTINUOUS
 0
LINE
 8
WHITE
 10
4.813
 20
9.574999
 30
0.0000
 11
4.781
 21
9.581
 31
0.0000
 6
CONTINUOUS
 0
LINE
 8
WHITE
 10
4.781
 20
9.581
 30
0.0000
 11
4.765999
 21
9.576999
 31
0.0000
 6
CONTINUOUS
 0
ARC
 8
WHITE
 10
4.770599
 20
9.557899
 30
 0
 40
.019646
 50
103.5411
 51
217.3375
 6
CONTINUOUS
 0
LINE
 8
WHITE
 10
4.755
 20
9.545999
 30
0.0000
 11
4.763999
 21
9.534
 31
0.0000
 6
CONTINUOUS
 0
ARC
 8
WHITE
 10
4.7796
 20
9.5465
 30
 0
 40
.01999
 50
218.7046
 51
247.6662
 6
CONTINUOUS
 0
LINE
 8
WHITE
 10
4.771999
 20
9.527999
 30
0.0000
 11
4.824999
 21
9.501999
 31
0.0000
 6
CONTINUOUS
 0
ARC
 8
WHITE
 10
4.832999
 20
9.5205
 30
 0
 40
.020155
 50
246.6148
 51
293.3858
 6
CONTINUOUS
 0
LINE
 8
WHITE
 10
4.841
 20
9.501999
 30
0.0000
 11
4.86
 21
9.508999
 31
0.0000
 6
CONTINUOUS
 0
ARC
 8
WHITE
 10
4.852
 20
9.5276
 30
 0
 40
.020247
 50
293.2729
 51
37.77531
 6
CONTINUOUS
 0
LINE
 8
WHITE
 10
4.868
 20
9.539999
 30
0.0000
 11
4.846
 21
9.569999
 31
0.0000
 6
CONTINUOUS
 0
LINE
 8
WHITE
 10
4.846
 20
9.569999
 30
0.0000
 11
4.813
 21
9.574999
 31
0.0000
 6
CONTINUOUS
 0
LINE
 8
WHITE
 10
4.813
 20
9.574999
 30
0.0000
 11
4.804999
 21
9.569999
 31
0.0000
 6
CONTINUOUS
 0
LINE
 8
WHITE
 10
5.464
 20
9.506999
 30
0.0000
 11
5.573999
 21
9.465
 31
0.0000
 6
CONTINUOUS
 0
LINE
 8
WHITE
 10
5.573999
 20
9.465
 30
0.0000
 11
5.597
 21
9.439999
 31
0.0000
 6
CONTINUOUS
 0
LINE
 8
WHITE
 10
5.525
 20
9.583
 30
0.0000
 11
5.467999
 21
9.616999
 31
0.0000
 6
CONTINUOUS
 0
LINE
 8
WHITE
 10
5.467999
 20
9.616999
 30
0.0000
 11
5.431
 21
9.657999
 31
0.0000
 6
CONTINUOUS
 0
LINE
 8
WHITE
 10
5.431
 20
9.657999
 30
0.0000
 11
5.416999
 21
9.687
 31
0.0000
 6
CONTINUOUS
 0
LINE
 8
WHITE
 10
5.416999
 20
9.687
 30
0.0000
 11
5.513999
 21
9.673
 31
0.0000
 6
CONTINUOUS
 0
LINE
 8
WHITE
 10
5.513999
 20
9.673
 30
0.0000
 11
5.578999
 21
9.619
 31
0.0000
 6
CONTINUOUS
 0
LINE
 8
WHITE
 10
5.166999
 20
9.609
 30
0.0000
 11
5.152999
 21
9.576
 31
0.0000
 6
CONTINUOUS
 0
LINE
 8
WHITE
 10
5.152999
 20
9.576
 30
0.0000
 11
5.17
 21
9.581999
 31
0.0000
 6
CONTINUOUS
 0
LINE
 8
WHITE
 10
5.17
 20
9.581999
 30
0.0000
 11
5.193999
 21
9.604
 31
0.0000
 6
CONTINUOUS
 0
ARC
 8
WHITE
 10
5.180099
 20
9.6181
 30
 0
 40
.019799
 50
314.5908
 51
17.33525
 6
CONTINUOUS
 0
LINE
 8
WHITE
 10
5.198999
 20
9.623999
 30
0.0000
 11
5.190999
 21
9.651
 31
0.0000
 6
CONTINUOUS
 0
LINE
 8
WHITE
 10
5.190999
 20
9.651
 30
0.0000
 11
5.125999
 21
9.6
 31
0.0000
 6
CONTINUOUS
 0
LINE
 8
WHITE
 10
5.125999
 20
9.6
 30
0.0000
 11
5.136
 21
9.569
 31
0.0000
 6
CONTINUOUS
 0
LINE
 8
WHITE
 10
5.136
 20
9.569
 30
0.0000
 11
5.152999
 21
9.576
 31
0.0000
 6
CONTINUOUS
 0
LINE
 8
WHITE
 10
5.152999
 20
9.576
 30
0.0000
 11
5.157
 21
9.585
 31
0.0000
 6
CONTINUOUS
 0
LINE
 8
WHITE
 10
5.044
 20
9.732999
 30
0.0000
 11
5.059999
 21
9.746
 31
0.0000
 6
CONTINUOUS
 0
LINE
 8
WHITE
 10
5.059999
 20
9.746
 30
0.0000
 11
5.05
 21
9.758
 31
0.0000
 6
CONTINUOUS
 0
LINE
 8
WHITE
 10
5.05
 20
9.758
 30
0.0000
 11
5.020999
 21
9.751999
 31
0.0000
 6
CONTINUOUS
 0
LINE
 8
WHITE
 10
5.020999
 20
9.751999
 30
0.0000
 11
5.007999
 21
9.727999
 31
0.0000
 6
CONTINUOUS
 0
LINE
 8
WHITE
 10
5.007999
 20
9.727999
 30
0.0000
 11
5.046999
 21
9.71
 31
0.0000
 6
CONTINUOUS
 0
LINE
 8
WHITE
 10
5.046999
 20
9.71
 30
0.0000
 11
5.07
 21
9.734
 31
0.0000
 6
CONTINUOUS
 0
LINE
 8
WHITE
 10
5.07
 20
9.734
 30
0.0000
 11
5.059999
 21
9.746
 31
0.0000
 6
CONTINUOUS
 0
LINE
 8
WHITE
 10
5.059999
 20
9.746
 30
0.0000
 11
5.05
 21
9.746999
 31
0.0000
 6
CONTINUOUS
 0
LINE
 8
WHITE
 10
4.895999
 20
9.692999
 30
0.0000
 11
4.899
 21
9.668999
 31
0.0000
 6
CONTINUOUS
 0
LINE
 8
WHITE
 10
4.899
 20
9.668999
 30
0.0000
 11
4.910999
 21
9.67
 31
0.0000
 6
CONTINUOUS
 0
LINE
 8
WHITE
 10
4.910999
 20
9.67
 30
0.0000
 11
4.923999
 21
9.729999
 31
0.0000
 6
CONTINUOUS
 0
LINE
 8
WHITE
 10
4.923999
 20
9.729999
 30
0.0000
 11
4.893
 21
9.711999
 31
0.0000
 6
CONTINUOUS
 0
LINE
 8
WHITE
 10
4.893
 20
9.711999
 30
0.0000
 11
4.866
 21
9.68
 31
0.0000
 6
CONTINUOUS
 0
LINE
 8
WHITE
 10
4.866
 20
9.68
 30
0.0000
 11
4.886
 21
9.666999
 31
0.0000
 6
CONTINUOUS
 0
LINE
 8
WHITE
 10
4.886
 20
9.666999
 30
0.0000
 11
4.899
 21
9.668999
 31
0.0000
 6
CONTINUOUS
 0
LINE
 8
WHITE
 10
4.899
 20
9.668999
 30
0.0000
 11
4.905
 21
9.677
 31
0.0000
 6
CONTINUOUS
 0
LINE
 8
WHITE
 10
5.198999
 20
9.802
 30
0.0000
 11
5.203
 21
9.789999
 31
0.0000
 6
CONTINUOUS
 0
LINE
 8
WHITE
 10
5.203
 20
9.789999
 30
0.0000
 11
5.228
 21
9.8
 31
0.0000
 6
CONTINUOUS
 0
LINE
 8
WHITE
 10
5.228
 20
9.8
 30
0.0000
 11
5.202
 21
9.824
 31
0.0000
 6
CONTINUOUS
 0
LINE
 8
WHITE
 10
5.202
 20
9.824
 30
0.0000
 11
5.160999
 21
9.781
 31
0.0000
 6
CONTINUOUS
 0
LINE
 8
WHITE
 10
5.160999
 20
9.781
 30
0.0000
 11
5.177
 21
9.781
 31
0.0000
 6
CONTINUOUS
 0
LINE
 8
WHITE
 10
5.177
 20
9.781
 30
0.0000
 11
5.203
 21
9.789999
 31
0.0000
 6
CONTINUOUS
 0
LINE
 8
WHITE
 10
5.203
 20
9.789999
 30
0.0000
 11
5.206999
 21
9.798999
 31
0.0000
 6
CONTINUOUS
 0
LINE
 8
WHITE
 10
4.841
 20
9.97
 30
0.0000
 11
4.856999
 21
9.916999
 31
0.0000
 6
CONTINUOUS
 0
LINE
 8
WHITE
 10
4.856999
 20
9.916999
 30
0.0000
 11
4.883999
 21
9.918999
 31
0.0000
 6
CONTINUOUS
 0
LINE
 8
WHITE
 10
4.883999
 20
9.918999
 30
0.0000
 11
4.915999
 21
9.93
 31
0.0000
 6
CONTINUOUS
 0
LINE
 8
WHITE
 10
4.915999
 20
9.93
 30
0.0000
 11
4.918
 21
9.961
 31
0.0000
 6
CONTINUOUS
 0
ARC
 8
WHITE
 10
4.898
 20
9.9632
 30
 0
 40
.02012
 50
353.7227
 51
56.78391
 6
CONTINUOUS
 0
LINE
 8
WHITE
 10
4.908999
 20
9.979999
 30
0.0000
 11
4.877999
 21
9.998999
 31
0.0000
 6
CONTINUOUS
 0
ARC
 8
WHITE
 10
4.867999
 20
9.981999
 30
 0
 40
.019723
 50
59.53445
 51
113.9602
 6
CONTINUOUS
 0
LINE
 8
WHITE
 10
4.86
 20
10
 30
0.0000
 11
4.785999
 21
9.972
 31
0.0000
 6
CONTINUOUS
 0
LINE
 8
WHITE
 10
4.785999
 20
9.972
 30
0.0000
 11
4.757999
 21
9.951
 31
0.0000
 6
CONTINUOUS
 0
LINE
 8
WHITE
 10
4.757999
 20
9.951
 30
0.0000
 11
4.776
 21
9.927
 31
0.0000
 6
CONTINUOUS
 0
LINE
 8
WHITE
 10
4.776
 20
9.927
 30
0.0000
 11
4.830999
 21
9.916
 31
0.0000
 6
CONTINUOUS
 0
LINE
 8
WHITE
 10
4.830999
 20
9.916
 30
0.0000
 11
4.856999
 21
9.916999
 31
0.0000
 6
CONTINUOUS
 0
LINE
 8
WHITE
 10
4.856999
 20
9.916999
 30
0.0000
 11
4.863999
 21
9.925
 31
0.0000
 6
CONTINUOUS
 0
ARC
 8
WHITE
 10
4.8404
 20
9.9702
 30
 0
 40
.107809
 50
43.94726
 51
142.386
 6
CONTINUOUS
 0
LINE
 8
WHITE
 10
3.743
 20
10.453
 30
0.0000
 11
3.834
 21
10.494
 31
0.0000
 6
CONTINUOUS
 0
LINE
 8
WHITE
 10
3.834
 20
10.494
 30
0.0000
 11
3.895999
 21
10.523
 31
0.0000
 6
CONTINUOUS
 0
LINE
 8
WHITE
 10
3.895999
 20
10.523
 30
0.0000
 11
3.956
 21
10.528
 31
0.0000
 6
CONTINUOUS
 0
LINE
 8
WHITE
 10
3.956
 20
10.528
 30
0.0000
 11
4.013
 21
10.515
 31
0.0000
 6
CONTINUOUS
 0
LINE
 8
WHITE
 10
4.013
 20
10.515
 30
0.0000
 11
4.066999
 21
10.491
 31
0.0000
 6
CONTINUOUS
 0
LINE
 8
WHITE
 10
4.066999
 20
10.491
 30
0.0000
 11
4.212999
 21
10.395
 31
0.0000
 6
CONTINUOUS
 0
LINE
 8
WHITE
 10
4.212999
 20
10.395
 30
0.0000
 11
4.293
 21
10.363
 31
0.0000
 6
CONTINUOUS
 0
LINE
 8
WHITE
 10
4.293
 20
10.363
 30
0.0000
 11
4.326
 21
10.371
 31
0.0000
 6
CONTINUOUS
 0
LINE
 8
WHITE
 10
4.326
 20
10.371
 30
0.0000
 11
4.355
 21
10.4
 31
0.0000
 6
CONTINUOUS
 0
LINE
 8
WHITE
 10
4.355
 20
10.4
 30
0.0000
 11
4.323999
 21
10.559
 31
0.0000
 6
CONTINUOUS
 0
LINE
 8
WHITE
 10
4.323999
 20
10.559
 30
0.0000
 11
4.326
 21
10.617
 31
0.0000
 6
CONTINUOUS
 0
LINE
 8
WHITE
 10
4.326
 20
10.617
 30
0.0000
 11
4.353
 21
10.66
 31
0.0000
 6
CONTINUOUS
 0
LINE
 8
WHITE
 10
4.353
 20
10.66
 30
0.0000
 11
4.413
 21
10.685
 31
0.0000
 6
CONTINUOUS
 0
LINE
 8
WHITE
 10
4.413
 20
10.685
 30
0.0000
 11
4.517
 21
10.693
 31
0.0000
 6
CONTINUOUS
 0
LINE
 8
WHITE
 10
4.517
 20
10.693
 30
0.0000
 11
4.551
 21
10.662
 31
0.0000
 6
CONTINUOUS
 0
LINE
 8
WHITE
 10
4.551
 20
10.662
 30
0.0000
 11
4.577
 21
10.618
 31
0.0000
 6
CONTINUOUS
 0
LINE
 8
WHITE
 10
4.577
 20
10.618
 30
0.0000
 11
4.618
 21
10.518
 31
0.0000
 6
CONTINUOUS
 0
LINE
 8
WHITE
 10
4.618
 20
10.518
 30
0.0000
 11
4.660999
 21
10.433
 31
0.0000
 6
CONTINUOUS
 0
LINE
 8
WHITE
 10
4.660999
 20
10.433
 30
0.0000
 11
4.69
 21
10.41
 31
0.0000
 6
CONTINUOUS
 0
LINE
 8
WHITE
 10
4.69
 20
10.41
 30
0.0000
 11
4.727
 21
10.404
 31
0.0000
 6
CONTINUOUS
 0
LINE
 8
WHITE
 10
4.727
 20
10.404
 30
0.0000
 11
4.775
 21
10.422
 31
0.0000
 6
CONTINUOUS
 0
LINE
 8
WHITE
 10
4.775
 20
10.422
 30
0.0000
 11
4.827
 21
10.483
 31
0.0000
 6
CONTINUOUS
 0
LINE
 8
WHITE
 10
4.827
 20
10.483
 30
0.0000
 11
4.88
 21
10.481
 31
0.0000
 6
CONTINUOUS
 0
LINE
 8
WHITE
 10
4.88
 20
10.481
 30
0.0000
 11
5.027999
 21
10.291
 31
0.0000
 6
CONTINUOUS
 0
LINE
 8
WHITE
 10
5.027999
 20
10.291
 30
0.0000
 11
5.164
 21
10.079
 31
0.0000
 6
CONTINUOUS
 0
LINE
 8
WHITE
 10
5.164
 20
10.079
 30
0.0000
 11
5.263999
 21
9.940999
 31
0.0000
 6
CONTINUOUS
 0
LINE
 8
WHITE
 10
5.263999
 20
9.940999
 30
0.0000
 11
5.317999
 21
9.88
 31
0.0000
 6
CONTINUOUS
 0
LINE
 8
WHITE
 10
5.317999
 20
9.88
 30
0.0000
 11
5.375999
 21
9.829
 31
0.0000
 6
CONTINUOUS
 0
LINE
 8
WHITE
 10
5.375999
 20
9.829
 30
0.0000
 11
5.526
 21
9.748
 31
0.0000
 6
CONTINUOUS
 0
LINE
 8
WHITE
 10
5.526
 20
9.748
 30
0.0000
 11
5.598999
 21
9.680999
 31
0.0000
 6
CONTINUOUS
 0
LINE
 8
WHITE
 10
5.598999
 20
9.680999
 30
0.0000
 11
5.651
 21
9.6
 31
0.0000
 6
CONTINUOUS
 0
LINE
 8
WHITE
 10
5.651
 20
9.6
 30
0.0000
 11
5.67
 21
9.522999
 31
0.0000
 6
CONTINUOUS
 0
ARC
 8
WHITE
 10
5.630899
 20
9.5135
 30
 0
 40
.040237
 50
320.6504
 51
13.65635
 6
CONTINUOUS
 0
LINE
 8
WHITE
 10
5.662
 20
9.487999
 30
0.0000
 11
5.593999
 21
9.402999
 31
0.0000
 6
CONTINUOUS
 0
ARC
 8
WHITE
 10
5.563699
 20
9.428799
 30
 0
 40
.039796
 50
271.8713
 51
319.5861
 6
CONTINUOUS
 0
LINE
 8
WHITE
 10
5.565
 20
9.388999
 30
0.0000
 11
5.507999
 21
9.385999
 31
0.0000
 6
CONTINUOUS
 0
LINE
 8
WHITE
 10
5.507999
 20
9.385999
 30
0.0000
 11
5.406
 21
9.418999
 31
0.0000
 6
CONTINUOUS
 0
LINE
 8
WHITE
 10
5.406
 20
9.418999
 30
0.0000
 11
5.322
 21
9.440999
 31
0.0000
 6
CONTINUOUS
 0
LINE
 8
WHITE
 10
5.322
 20
9.440999
 30
0.0000
 11
5.245999
 21
9.453
 31
0.0000
 6
CONTINUOUS
 0
LINE
 8
WHITE
 10
5.245999
 20
9.453
 30
0.0000
 11
5.065
 21
9.463999
 31
0.0000
 6
CONTINUOUS
 0
LINE
 8
WHITE
 10
5.065
 20
9.463999
 30
0.0000
 11
4.869999
 21
9.444
 31
0.0000
 6
CONTINUOUS
 0
LINE
 8
WHITE
 10
4.869999
 20
9.444
 30
0.0000
 11
4.772999
 21
9.449
 31
0.0000
 6
CONTINUOUS
 0
LINE
 8
WHITE
 10
4.772999
 20
9.449
 30
0.0000
 11
4.703
 21
9.482
 31
0.0000
 6
CONTINUOUS
 0
LINE
 8
WHITE
 10
4.703
 20
9.482
 30
0.0000
 11
4.598
 21
9.515999
 31
0.0000
 6
CONTINUOUS
 0
LINE
 8
WHITE
 10
4.598
 20
9.515999
 30
0.0000
 11
4.517
 21
9.505999
 31
0.0000
 6
CONTINUOUS
 0
LINE
 8
WHITE
 10
4.517
 20
9.505999
 30
0.0000
 11
4.459
 21
9.456999
 31
0.0000
 6
CONTINUOUS
 0
LINE
 8
WHITE
 10
4.459
 20
9.456999
 30
0.0000
 11
4.419
 21
9.390999
 31
0.0000
 6
CONTINUOUS
 0
LINE
 8
WHITE
 10
4.419
 20
9.390999
 30
0.0000
 11
4.347
 21
9.246999
 31
0.0000
 6
CONTINUOUS
 0
LINE
 8
WHITE
 10
4.347
 20
9.246999
 30
0.0000
 11
4.283999
 21
9.093999
 31
0.0000
 6
CONTINUOUS
 0
LINE
 8
WHITE
 10
4.283999
 20
9.093999
 30
0.0000
 11
4.229
 21
8.932999
 31
0.0000
 6
CONTINUOUS
 0
LINE
 8
WHITE
 10
4.229
 20
8.932999
 30
0.0000
 11
4.160999
 21
8.685
 31
0.0000
 6
CONTINUOUS
 0
LINE
 8
WHITE
 10
4.160999
 20
8.685
 30
0.0000
 11
4.107999
 21
8.439999
 31
0.0000
 6
CONTINUOUS
 0
LINE
 8
WHITE
 10
4.107999
 20
8.439999
 30
0.0000
 11
4.085
 21
8.345
 31
0.0000
 6
CONTINUOUS
 0
LINE
 8
WHITE
 10
4.085
 20
8.345
 30
0.0000
 11
3.924
 21
7.464
 31
0.0000
 6
CONTINUOUS
 0
LINE
 8
WHITE
 10
3.924
 20
7.464
 30
0.0000
 11
3.845
 21
7.068999
 31
0.0000
 6
CONTINUOUS
 0
LINE
 8
WHITE
 10
3.845
 20
7.068999
 30
0.0000
 11
3.822
 21
6.991
 31
0.0000
 6
CONTINUOUS
 0
LINE
 8
WHITE
 10
3.822
 20
6.991
 30
0.0000
 11
3.773999
 21
6.765999
 31
0.0000
 6
CONTINUOUS
 0
LINE
 8
WHITE
 10
3.773999
 20
6.765999
 30
0.0000
 11
3.74
 21
6.59
 31
0.0000
 6
CONTINUOUS
 0
LINE
 8
WHITE
 10
3.74
 20
6.59
 30
0.0000
 11
3.694999
 21
6.446
 31
0.0000
 6
CONTINUOUS
 0
LINE
 8
WHITE
 10
3.694999
 20
6.446
 30
0.0000
 11
3.601999
 21
6.112999
 31
0.0000
 6
CONTINUOUS
 0
LINE
 8
WHITE
 10
3.601999
 20
6.112999
 30
0.0000
 11
3.572
 21
5.949999
 31
0.0000
 6
CONTINUOUS
 0
LINE
 8
WHITE
 10
3.572
 20
5.949999
 30
0.0000
 11
3.615
 21
5.826
 31
0.0000
 6
CONTINUOUS
 0
LINE
 8
WHITE
 10
3.615
 20
5.826
 30
0.0000
 11
3.747999
 21
5.531
 31
0.0000
 6
CONTINUOUS
 0
LINE
 8
WHITE
 10
3.747999
 20
5.531
 30
0.0000
 11
3.822
 21
5.350999
 31
0.0000
 6
CONTINUOUS
 0
LINE
 8
WHITE
 10
3.822
 20
5.350999
 30
0.0000
 11
3.838999
 21
5.289
 31
0.0000
 6
CONTINUOUS
 0
LINE
 8
WHITE
 10
3.838999
 20
5.289
 30
0.0000
 11
3.855
 21
5.188
 31
0.0000
 6
CONTINUOUS
 0
LINE
 8
WHITE
 10
3.855
 20
5.188
 30
0.0000
 11
3.855999
 21
5.113999
 31
0.0000
 6
CONTINUOUS
 0
LINE
 8
WHITE
 10
3.855999
 20
5.113999
 30
0.0000
 11
3.841
 21
5.035999
 31
0.0000
 6
CONTINUOUS
 0
LINE
 8
WHITE
 10
3.841
 20
5.035999
 30
0.0000
 11
3.782999
 21
4.953999
 31
0.0000
 6
CONTINUOUS
 0
LINE
 8
WHITE
 10
3.782999
 20
4.953999
 30
0.0000
 11
3.703999
 21
4.818999
 31
0.0000
 6
CONTINUOUS
 0
LINE
 8
WHITE
 10
3.703999
 20
4.818999
 30
0.0000
 11
3.625999
 21
4.662
 31
0.0000
 6
CONTINUOUS
 0
LINE
 8
WHITE
 10
3.625999
 20
4.662
 30
0.0000
 11
3.599999
 21
4.585
 31
0.0000
 6
CONTINUOUS
 0
LINE
 8
WHITE
 10
3.599999
 20
4.585
 30
0.0000
 11
3.588999
 21
4.513
 31
0.0000
 6
CONTINUOUS
 0
LINE
 8
WHITE
 10
3.588999
 20
4.513
 30
0.0000
 11
3.615999
 21
4.335999
 31
0.0000
 6
CONTINUOUS
 0
LINE
 8
WHITE
 10
3.615999
 20
4.335999
 30
0.0000
 11
3.595999
 21
4.199999
 31
0.0000
 6
CONTINUOUS
 0
LINE
 8
WHITE
 10
3.595999
 20
4.199999
 30
0.0000
 11
3.556999
 21
3.996
 31
0.0000
 6
CONTINUOUS
 0
LINE
 8
WHITE
 10
3.556999
 20
3.996
 30
0.0000
 11
3.553999
 21
3.917999
 31
0.0000
 6
CONTINUOUS
 0
LINE
 8
WHITE
 10
3.553999
 20
3.917999
 30
0.0000
 11
3.538
 21
3.836999
 31
0.0000
 6
CONTINUOUS
 0
LINE
 8
WHITE
 10
3.538
 20
3.836999
 30
0.0000
 11
3.496
 21
3.763999
 31
0.0000
 6
CONTINUOUS
 0
LINE
 8
WHITE
 10
3.496
 20
3.763999
 30
0.0000
 11
3.470999
 21
3.68
 31
0.0000
 6
CONTINUOUS
 0
LINE
 8
WHITE
 10
3.470999
 20
3.68
 30
0.0000
 11
3.424999
 21
3.49
 31
0.0000
 6
CONTINUOUS
 0
LINE
 8
WHITE
 10
3.424999
 20
3.49
 30
0.0000
 11
3.407
 21
3.39
 31
0.0000
 6
CONTINUOUS
 0
LINE
 8
WHITE
 10
3.407
 20
3.39
 30
0.0000
 11
3.461999
 21
2.763999
 31
0.0000
 6
CONTINUOUS
 0
LINE
 8
WHITE
 10
3.461999
 20
2.763999
 30
0.0000
 11
3.470999
 21
2.563999
 31
0.0000
 6
CONTINUOUS
 0
LINE
 8
WHITE
 10
3.470999
 20
2.563999
 30
0.0000
 11
3.463999
 21
2.43
 31
0.0000
 6
CONTINUOUS
 0
LINE
 8
WHITE
 10
3.463999
 20
2.43
 30
0.0000
 11
3.473
 21
2.282
 31
0.0000
 6
CONTINUOUS
 0
LINE
 8
WHITE
 10
3.473
 20
2.282
 30
0.0000
 11
3.484999
 21
2.197999
 31
0.0000
 6
CONTINUOUS
 0
LINE
 8
WHITE
 10
3.484999
 20
2.197999
 30
0.0000
 11
3.486
 21
2.101
 31
0.0000
 6
CONTINUOUS
 0
LINE
 8
WHITE
 10
3.486
 20
2.101
 30
0.0000
 11
3.479
 21
1.922999
 31
0.0000
 6
CONTINUOUS
 0
LINE
 8
WHITE
 10
3.479
 20
1.922999
 30
0.0000
 11
3.463999
 21
1.748999
 31
0.0000
 6
CONTINUOUS
 0
LINE
 8
WHITE
 10
3.463999
 20
1.748999
 30
0.0000
 11
3.467
 21
1.575
 31
0.0000
 6
CONTINUOUS
 0
LINE
 8
WHITE
 10
3.467
 20
1.575
 30
0.0000
 11
3.483
 21
1.399999
 31
0.0000
 6
CONTINUOUS
 0
LINE
 8
WHITE
 10
3.483
 20
1.399999
 30
0.0000
 11
3.517999
 21
1.128999
 31
0.0000
 6
CONTINUOUS
 0
LINE
 8
WHITE
 10
3.517999
 20
1.128999
 30
0.0000
 11
3.545
 21
1.037999
 31
0.0000
 6
CONTINUOUS
 0
LINE
 8
WHITE
 10
3.545
 20
1.037999
 30
0.0000
 11
3.645999
 21
.737999
 31
0.0000
 6
CONTINUOUS
 0
LINE
 8
WHITE
 10
3.645999
 20
.737999
 30
0.0000
 11
3.723999
 21
.544
 31
0.0000
 6
CONTINUOUS
 0
LINE
 8
WHITE
 10
3.723999
 20
.544
 30
0.0000
 11
3.757999
 21
.479
 31
0.0000
 6
CONTINUOUS
 0
LINE
 8
WHITE
 10
3.757999
 20
.479
 30
0.0000
 11
3.786999
 21
.446
 31
0.0000
 6
CONTINUOUS
 0
LINE
 8
WHITE
 10
3.786999
 20
.446
 30
0.0000
 11
3.813999
 21
.358999
 31
0.0000
 6
CONTINUOUS
 0
LINE
 8
WHITE
 10
3.813999
 20
.358999
 30
0.0000
 11
3.846999
 21
.307
 31
0.0000
 6
CONTINUOUS
 0
ARC
 8
WHITE
 10
3.813199
 20
.2857
 30
 0
 40
.039951
 50
299.7092
 51
32.21821
 6
CONTINUOUS
 0
LINE
 8
WHITE
 10
3.832999
 20
.250999
 30
0.0000
 11
3.809
 21
.237
 31
0.0000
 6
CONTINUOUS
 0
LINE
 8
WHITE
 10
3.809
 20
.237
 30
0.0000
 11
3.726
 21
.214
 31
0.0000
 6
CONTINUOUS
 0
LINE
 8
WHITE
 10
3.726
 20
.214
 30
0.0000
 11
3.607
 21
.202999
 31
0.0000
 6
CONTINUOUS
 0
LINE
 8
WHITE
 10
3.607
 20
.202999
 30
0.0000
 11
3.490999
 21
.221
 31
0.0000
 6
CONTINUOUS
 0
LINE
 8
WHITE
 10
3.490999
 20
.221
 30
0.0000
 11
3.440999
 21
.256999
 31
0.0000
 6
CONTINUOUS
 0
ARC
 8
WHITE
 10
3.464999
 20
.289
 30
 0
 40
.04
 50
182.8624
 51
233.1301
 6
CONTINUOUS
 0
LINE
 8
WHITE
 10
3.424999
 20
.287
 30
0.0000
 11
3.418999
 21
.365999
 31
0.0000
 6
CONTINUOUS
 0
LINE
 8
WHITE
 10
3.418999
 20
.365999
 30
0.0000
 11
3.418999
 21
.460999
 31
0.0000
 6
CONTINUOUS
 0
LINE
 8
WHITE
 10
3.418999
 20
.460999
 30
0.0000
 11
3.398999
 21
.554
 31
0.0000
 6
CONTINUOUS
 0
LINE
 8
WHITE
 10
3.398999
 20
.554
 30
0.0000
 11
3.338999
 21
.643
 31
0.0000
 6
CONTINUOUS
 0
LINE
 8
WHITE
 10
3.338999
 20
.643
 30
0.0000
 11
3.308
 21
.72
 31
0.0000
 6
CONTINUOUS
 0
LINE
 8
WHITE
 10
3.308
 20
.72
 30
0.0000
 11
3.296999
 21
.791
 31
0.0000
 6
CONTINUOUS
 0
LINE
 8
WHITE
 10
3.296999
 20
.791
 30
0.0000
 11
3.302
 21
.940999
 31
0.0000
 6
CONTINUOUS
 0
LINE
 8
WHITE
 10
3.302
 20
.940999
 30
0.0000
 11
3.299999
 21
1.034999
 31
0.0000
 6
CONTINUOUS
 0
LINE
 8
WHITE
 10
3.299999
 20
1.034999
 30
0.0000
 11
3.276
 21
1.199
 31
0.0000
 6
CONTINUOUS
 0
LINE
 8
WHITE
 10
3.276
 20
1.199
 30
0.0000
 11
3.249
 21
1.541
 31
0.0000
 6
CONTINUOUS
 0
LINE
 8
WHITE
 10
3.249
 20
1.541
 30
0.0000
 11
3.224999
 21
1.794
 31
0.0000
 6
CONTINUOUS
 0
LINE
 8
WHITE
 10
3.224999
 20
1.794
 30
0.0000
 11
3.197999
 21
1.953999
 31
0.0000
 6
CONTINUOUS
 0
LINE
 8
WHITE
 10
3.197999
 20
1.953999
 30
0.0000
 11
3.178999
 21
2.029999
 31
0.0000
 6
CONTINUOUS
 0
LINE
 8
WHITE
 10
3.178999
 20
2.029999
 30
0.0000
 11
3.147
 21
2.111
 31
0.0000
 6
CONTINUOUS
 0
LINE
 8
WHITE
 10
3.147
 20
2.111
 30
0.0000
 11
3.104
 21
2.364
 31
0.0000
 6
CONTINUOUS
 0
LINE
 8
WHITE
 10
3.104
 20
2.364
 30
0.0000
 11
3.059999
 21
2.677
 31
0.0000
 6
CONTINUOUS
 0
LINE
 8
WHITE
 10
3.059999
 20
2.677
 30
0.0000
 11
3.038
 21
2.907999
 31
0.0000
 6
CONTINUOUS
 0
LINE
 8
WHITE
 10
3.038
 20
2.907999
 30
0.0000
 11
3.026
 21
3.148
 31
0.0000
 6
CONTINUOUS
 0
LINE
 8
WHITE
 10
3.026
 20
3.148
 30
0.0000
 11
3.023999
 21
3.286
 31
0.0000
 6
CONTINUOUS
 0
LINE
 8
WHITE
 10
3.023999
 20
3.286
 30
0.0000
 11
3.039
 21
3.405999
 31
0.0000
 6
CONTINUOUS
 0
LINE
 8
WHITE
 10
3.039
 20
3.405999
 30
0.0000
 11
3.069999
 21
3.506999
 31
0.0000
 6
CONTINUOUS
 0
LINE
 8
WHITE
 10
3.069999
 20
3.506999
 30
0.0000
 11
3.059
 21
3.586999
 31
0.0000
 6
CONTINUOUS
 0
LINE
 8
WHITE
 10
3.059
 20
3.586999
 30
0.0000
 11
3.032
 21
3.530999
 31
0.0000
 6
CONTINUOUS
 0
LINE
 8
WHITE
 10
3.032
 20
3.530999
 30
0.0000
 11
3.003
 21
3.437999
 31
0.0000
 6
CONTINUOUS
 0
LINE
 8
WHITE
 10
3.003
 20
3.437999
 30
0.0000
 11
2.982
 21
3.338999
 31
0.0000
 6
CONTINUOUS
 0
LINE
 8
WHITE
 10
2.982
 20
3.338999
 30
0.0000
 11
2.971999
 21
3.230999
 31
0.0000
 6
CONTINUOUS
 0
LINE
 8
WHITE
 10
2.971999
 20
3.230999
 30
0.0000
 11
2.963999
 21
2.878999
 31
0.0000
 6
CONTINUOUS
 0
LINE
 8
WHITE
 10
2.963999
 20
2.878999
 30
0.0000
 11
2.953999
 21
2.687999
 31
0.0000
 6
CONTINUOUS
 0
LINE
 8
WHITE
 10
2.953999
 20
2.687999
 30
0.0000
 11
2.933
 21
2.509
 31
0.0000
 6
CONTINUOUS
 0
LINE
 8
WHITE
 10
2.933
 20
2.509
 30
0.0000
 11
2.917
 21
2.430999
 31
0.0000
 6
CONTINUOUS
 0
LINE
 8
WHITE
 10
2.917
 20
2.430999
 30
0.0000
 11
2.897
 21
2.367
 31
0.0000
 6
CONTINUOUS
 0
LINE
 8
WHITE
 10
2.897
 20
2.367
 30
0.0000
 11
2.855
 21
2.269999
 31
0.0000
 6
CONTINUOUS
 0
LINE
 8
WHITE
 10
2.855
 20
2.269999
 30
0.0000
 11
2.842999
 21
2.094
 31
0.0000
 6
CONTINUOUS
 0
LINE
 8
WHITE
 10
2.842999
 20
2.094
 30
0.0000
 11
2.815999
 21
1.978999
 31
0.0000
 6
CONTINUOUS
 0
LINE
 8
WHITE
 10
2.815999
 20
1.978999
 30
0.0000
 11
2.809999
 21
1.838
 31
0.0000
 6
CONTINUOUS
 0
LINE
 8
WHITE
 10
2.809999
 20
1.838
 30
0.0000
 11
2.818
 21
1.677999
 31
0.0000
 6
CONTINUOUS
 0
LINE
 8
WHITE
 10
2.818
 20
1.677999
 30
0.0000
 11
2.855
 21
1.251
 31
0.0000
 6
CONTINUOUS
 0
LINE
 8
WHITE
 10
2.855
 20
1.251
 30
0.0000
 11
2.859999
 21
1.09
 31
0.0000
 6
CONTINUOUS
 0
LINE
 8
WHITE
 10
2.859999
 20
1.09
 30
0.0000
 11
2.848999
 21
.944999
 31
0.0000
 6
CONTINUOUS
 0
LINE
 8
WHITE
 10
2.848999
 20
.944999
 30
0.0000
 11
2.858999
 21
.870999
 31
0.0000
 6
CONTINUOUS
 0
LINE
 8
WHITE
 10
2.858999
 20
.870999
 30
0.0000
 11
2.904999
 21
.72
 31
0.0000
 6
CONTINUOUS
 0
LINE
 8
WHITE
 10
2.904999
 20
.72
 30
0.0000
 11
2.966
 21
.564
 31
0.0000
 6
CONTINUOUS
 0
LINE
 8
WHITE
 10
2.966
 20
.564
 30
0.0000
 11
3.017999
 21
.404
 31
0.0000
 6
CONTINUOUS
 0
LINE
 8
WHITE
 10
3.017999
 20
.404
 30
0.0000
 11
3.036999
 21
.314
 31
0.0000
 6
CONTINUOUS
 0
LINE
 8
WHITE
 10
3.036999
 20
.314
 30
0.0000
 11
3.052
 21
.293999
 31
0.0000
 6
CONTINUOUS
 0
LINE
 8
WHITE
 10
3.052
 20
.293999
 30
0.0000
 11
3.073999
 21
.223
 31
0.0000
 6
CONTINUOUS
 0
LINE
 8
WHITE
 10
3.073999
 20
.223
 30
0.0000
 11
3.068
 21
.181999
 31
0.0000
 6
CONTINUOUS
 0
LINE
 8
WHITE
 10
3.068
 20
.181999
 30
0.0000
 11
2.986
 21
.164
 31
0.0000
 6
CONTINUOUS
 0
LINE
 8
WHITE
 10
2.986
 20
.164
 30
0.0000
 11
2.706
 21
.158
 31
0.0000
 6
CONTINUOUS
 0
LINE
 8
WHITE
 10
2.706
 20
.158
 30
0.0000
 11
2.598999
 21
.186
 31
0.0000
 6
CONTINUOUS
 0
LINE
 8
WHITE
 10
2.598999
 20
.186
 30
0.0000
 11
2.569999
 21
.23
 31
0.0000
 6
CONTINUOUS
 0
LINE
 8
WHITE
 10
2.569999
 20
.23
 30
0.0000
 11
2.559
 21
.308999
 31
0.0000
 6
CONTINUOUS
 0
LINE
 8
WHITE
 10
2.559
 20
.308999
 30
0.0000
 11
2.569
 21
.400999
 31
0.0000
 6
CONTINUOUS
 0
LINE
 8
WHITE
 10
2.569
 20
.400999
 30
0.0000
 11
2.572
 21
.486
 31
0.0000
 6
CONTINUOUS
 0
LINE
 8
WHITE
 10
2.572
 20
.486
 30
0.0000
 11
2.559
 21
.642
 31
0.0000
 6
CONTINUOUS
 0
LINE
 8
WHITE
 10
2.559
 20
.642
 30
0.0000
 11
2.526999
 21
.861999
 31
0.0000
 6
CONTINUOUS
 0
LINE
 8
WHITE
 10
2.526999
 20
.861999
 30
0.0000
 11
2.519999
 21
1.013
 31
0.0000
 6
CONTINUOUS
 0
LINE
 8
WHITE
 10
2.519999
 20
1.013
 30
0.0000
 11
2.526999
 21
1.093999
 31
0.0000
 6
CONTINUOUS
 0
LINE
 8
WHITE
 10
2.526999
 20
1.093999
 30
0.0000
 11
2.543999
 21
1.179999
 31
0.0000
 6
CONTINUOUS
 0
LINE
 8
WHITE
 10
2.543999
 20
1.179999
 30
0.0000
 11
2.588999
 21
1.669
 31
0.0000
 6
CONTINUOUS
 0
LINE
 8
WHITE
 10
2.588999
 20
1.669
 30
0.0000
 11
2.598999
 21
1.840999
 31
0.0000
 6
CONTINUOUS
 0
LINE
 8
WHITE
 10
2.598999
 20
1.840999
 30
0.0000
 11
2.598999
 21
2.007999
 31
0.0000
 6
CONTINUOUS
 0
LINE
 8
WHITE
 10
2.598999
 20
2.007999
 30
0.0000
 11
2.584
 21
2.164
 31
0.0000
 6
CONTINUOUS
 0
LINE
 8
WHITE
 10
2.584
 20
2.164
 30
0.0000
 11
2.549999
 21
2.303999
 31
0.0000
 6
CONTINUOUS
 0
LINE
 8
WHITE
 10
2.549999
 20
2.303999
 30
0.0000
 11
2.551
 21
2.359999
 31
0.0000
 6
CONTINUOUS
 0
LINE
 8
WHITE
 10
2.551
 20
2.359999
 30
0.0000
 11
2.584
 21
2.459
 31
0.0000
 6
CONTINUOUS
 0
LINE
 8
WHITE
 10
2.584
 20
2.459
 30
0.0000
 11
2.572
 21
2.513
 31
0.0000
 6
CONTINUOUS
 0
LINE
 8
WHITE
 10
2.572
 20
2.513
 30
0.0000
 11
2.578
 21
2.611
 31
0.0000
 6
CONTINUOUS
 0
LINE
 8
WHITE
 10
2.578
 20
2.611
 30
0.0000
 11
2.595
 21
2.694999
 31
0.0000
 6
CONTINUOUS
 0
LINE
 8
WHITE
 10
2.595
 20
2.694999
 30
0.0000
 11
2.579999
 21
2.868999
 31
0.0000
 6
CONTINUOUS
 0
LINE
 8
WHITE
 10
2.579999
 20
2.868999
 30
0.0000
 11
2.573999
 21
3.117
 31
0.0000
 6
CONTINUOUS
 0
LINE
 8
WHITE
 10
2.573999
 20
3.117
 30
0.0000
 11
2.578999
 21
3.279
 31
0.0000
 6
CONTINUOUS
 0
LINE
 8
WHITE
 10
2.578999
 20
3.279
 30
0.0000
 11
2.576999
 21
3.371999
 31
0.0000
 6
CONTINUOUS
 0
LINE
 8
WHITE
 10
2.576999
 20
3.371999
 30
0.0000
 11
2.565
 21
3.657999
 31
0.0000
 6
CONTINUOUS
 0
LINE
 8
WHITE
 10
2.565
 20
3.657999
 30
0.0000
 11
2.565
 21
3.927
 31
0.0000
 6
CONTINUOUS
 0
LINE
 8
WHITE
 10
2.565
 20
3.927
 30
0.0000
 11
2.486999
 21
3.940999
 31
0.0000
 6
CONTINUOUS
 0
LINE
 8
WHITE
 10
2.486999
 20
3.940999
 30
0.0000
 11
2.293999
 21
3.904999
 31
0.0000
 6
CONTINUOUS
 0
LINE
 8
WHITE
 10
2.293999
 20
3.904999
 30
0.0000
 11
2.240999
 21
3.926
 31
0.0000
 6
CONTINUOUS
 0
LINE
 8
WHITE
 10
2.240999
 20
3.926
 30
0.0000
 11
1.914999
 21
3.908999
 31
0.0000
 6
CONTINUOUS
 0
LINE
 8
WHITE
 10
1.914999
 20
3.908999
 30
0.0000
 11
1.835999
 21
3.905999
 31
0.0000
 6
CONTINUOUS
 0
ARC
 8
WHITE
 10
1.836399
 20
3.865999
 30
 0
 40
.040001
 50
90.57294
 51
146.6277
 6
CONTINUOUS
 0
LINE
 8
WHITE
 10
1.802999
 20
3.888
 30
0.0000
 11
1.766999
 21
3.832999
 31
0.0000
 6
CONTINUOUS
 0
LINE
 8
WHITE
 10
1.766999
 20
3.832999
 30
0.0000
 11
1.595
 21
3.517999
 31
0.0000
 6
CONTINUOUS
 0
LINE
 8
WHITE
 10
1.595
 20
3.517999
 30
0.0000
 11
1.564
 21
3.474999
 31
0.0000
 6
CONTINUOUS
 0
LINE
 8
WHITE
 10
1.564
 20
3.474999
 30
0.0000
 11
1.521
 21
3.341
 31
0.0000
 6
CONTINUOUS
 0
LINE
 8
WHITE
 10
1.521
 20
3.341
 30
0.0000
 11
1.439
 21
3.111
 31
0.0000
 6
CONTINUOUS
 0
LINE
 8
WHITE
 10
1.439
 20
3.111
 30
0.0000
 11
1.375
 21
2.947999
 31
0.0000
 6
CONTINUOUS
 0
LINE
 8
WHITE
 10
1.375
 20
2.947999
 30
0.0000
 11
1.348999
 21
2.858
 31
0.0000
 6
CONTINUOUS
 0
LINE
 8
WHITE
 10
1.348999
 20
2.858
 30
0.0000
 11
1.309999
 21
2.681999
 31
0.0000
 6
CONTINUOUS
 0
LINE
 8
WHITE
 10
1.309999
 20
2.681999
 30
0.0000
 11
1.277999
 21
2.288
 31
0.0000
 6
CONTINUOUS
 0
LINE
 8
WHITE
 10
1.277999
 20
2.288
 30
0.0000
 11
1.274
 21
2.141
 31
0.0000
 6
CONTINUOUS
 0
LINE
 8
WHITE
 10
1.274
 20
2.141
 30
0.0000
 11
1.279999
 21
1.991999
 31
0.0000
 6
CONTINUOUS
 0
LINE
 8
WHITE
 10
1.279999
 20
1.991999
 30
0.0000
 11
1.297999
 21
1.840999
 31
0.0000
 6
CONTINUOUS
 0
LINE
 8
WHITE
 10
1.297999
 20
1.840999
 30
0.0000
 11
1.34
 21
1.613999
 31
0.0000
 6
CONTINUOUS
 0
LINE
 8
WHITE
 10
1.34
 20
1.613999
 30
0.0000
 11
1.398
 21
1.386999
 31
0.0000
 6
CONTINUOUS
 0
LINE
 8
WHITE
 10
1.398
 20
1.386999
 30
0.0000
 11
1.467
 21
1.162999
 31
0.0000
 6
CONTINUOUS
 0
LINE
 8
WHITE
 10
1.467
 20
1.162999
 30
0.0000
 11
1.593999
 21
.8
 31
0.0000
 6
CONTINUOUS
 0
LINE
 8
WHITE
 10
1.593999
 20
.8
 30
0.0000
 11
1.648
 21
.722
 31
0.0000
 6
CONTINUOUS
 0
LINE
 8
WHITE
 10
1.648
 20
.722
 30
0.0000
 11
1.708999
 21
.642
 31
0.0000
 6
CONTINUOUS
 0
LINE
 8
WHITE
 10
1.708999
 20
.642
 30
0.0000
 11
1.769
 21
.551999
 31
0.0000
 6
CONTINUOUS
 0
LINE
 8
WHITE
 10
1.769
 20
.551999
 30
0.0000
 11
1.845
 21
.372
 31
0.0000
 6
CONTINUOUS
 0
ARC
 8
WHITE
 10
1.881999
 20
.388
 30
 0
 40
.040311
 50
203.3852
 51
246.6149
 6
CONTINUOUS
 0
LINE
 8
WHITE
 10
1.866
 20
.351
 30
0.0000
 11
1.95
 21
.312
 31
0.0000
 6
CONTINUOUS
 0
LINE
 8
WHITE
 10
1.95
 20
.312
 30
0.0000
 11
1.972
 21
.277999
 31
0.0000
 6
CONTINUOUS
 0
ARC
 8
WHITE
 10
1.938199
 20
.2567
 30
 0
 40
.039951
 50
284.2102
 51
32.21821
 6
CONTINUOUS
 0
LINE
 8
WHITE
 10
1.947999
 20
.217999
 30
0.0000
 11
1.843
 21
.190999
 31
0.0000
 6
CONTINUOUS
 0
LINE
 8
WHITE
 10
1.843
 20
.190999
 30
0.0000
 11
1.674999
 21
.196999
 31
0.0000
 6
CONTINUOUS
 0
LINE
 8
WHITE
 10
1.674999
 20
.196999
 30
0.0000
 11
1.595999
 21
.219999
 31
0.0000
 6
CONTINUOUS
 0
LINE
 8
WHITE
 10
1.595999
 20
.219999
 30
0.0000
 11
1.542999
 21
.256999
 31
0.0000
 6
CONTINUOUS
 0
LINE
 8
WHITE
 10
1.542999
 20
.256999
 30
0.0000
 11
1.508999
 21
.305
 31
0.0000
 6
CONTINUOUS
 0
LINE
 8
WHITE
 10
1.508999
 20
.305
 30
0.0000
 11
1.462
 21
.416
 31
0.0000
 6
CONTINUOUS
 0
LINE
 8
WHITE
 10
1.462
 20
.416
 30
0.0000
 11
1.430999
 21
.467
 31
0.0000
 6
CONTINUOUS
 0
LINE
 8
WHITE
 10
1.430999
 20
.467
 30
0.0000
 11
1.383
 21
.510999
 31
0.0000
 6
CONTINUOUS
 0
LINE
 8
WHITE
 10
1.383
 20
.510999
 30
0.0000
 11
1.355
 21
.578
 31
0.0000
 6
CONTINUOUS
 0
LINE
 8
WHITE
 10
1.355
 20
.578
 30
0.0000
 11
1.340999
 21
.689999
 31
0.0000
 6
CONTINUOUS
 0
LINE
 8
WHITE
 10
1.340999
 20
.689999
 30
0.0000
 11
1.269
 21
1.006999
 31
0.0000
 6
CONTINUOUS
 0
LINE
 8
WHITE
 10
1.269
 20
1.006999
 30
0.0000
 11
1.184999
 21
1.315
 31
0.0000
 6
CONTINUOUS
 0
LINE
 8
WHITE
 10
1.184999
 20
1.315
 30
0.0000
 11
1.088
 21
1.616999
 31
0.0000
 6
CONTINUOUS
 0
LINE
 8
WHITE
 10
1.088
 20
1.616999
 30
0.0000
 11
.954999
 21
1.985999
 31
0.0000
 6
CONTINUOUS
 0
LINE
 8
WHITE
 10
.954999
 20
1.985999
 30
0.0000
 11
.779999
 21
2.424
 31
0.0000
 6
CONTINUOUS
 0
LINE
 8
WHITE
 10
.779999
 20
2.424
 30
0.0000
 11
.794
 21
2.507999
 31
0.0000
 6
CONTINUOUS
 0
LINE
 8
WHITE
 10
.794
 20
2.507999
 30
0.0000
 11
.864
 21
2.664
 31
0.0000
 6
CONTINUOUS
 0
LINE
 8
WHITE
 10
.864
 20
2.664
 30
0.0000
 11
.890999
 21
2.737999
 31
0.0000
 6
CONTINUOUS
 0
LINE
 8
WHITE
 10
.890999
 20
2.737999
 30
0.0000
 11
.893
 21
2.805
 31
0.0000
 6
CONTINUOUS
 0
LINE
 8
WHITE
 10
.893
 20
2.805
 30
0.0000
 11
.842999
 21
2.780999
 31
0.0000
 6
CONTINUOUS
 0
LINE
 8
WHITE
 10
.842999
 20
2.780999
 30
0.0000
 11
.797999
 21
2.743
 31
0.0000
 6
CONTINUOUS
 0
LINE
 8
WHITE
 10
.797999
 20
2.743
 30
0.0000
 11
.762
 21
2.694
 31
0.0000
 6
CONTINUOUS
 0
LINE
 8
WHITE
 10
.762
 20
2.694
 30
0.0000
 11
.735
 21
2.637
 31
0.0000
 6
CONTINUOUS
 0
LINE
 8
WHITE
 10
.735
 20
2.637
 30
0.0000
 11
.716
 21
2.572
 31
0.0000
 6
CONTINUOUS
 0
LINE
 8
WHITE
 10
.716
 20
2.572
 30
0.0000
 11
.697
 21
2.426
 31
0.0000
 6
CONTINUOUS
 0
LINE
 8
WHITE
 10
.697
 20
2.426
 30
0.0000
 11
.699
 21
2.267999
 31
0.0000
 6
CONTINUOUS
 0
LINE
 8
WHITE
 10
.699
 20
2.267999
 30
0.0000
 11
.722999
 21
2.033999
 31
0.0000
 6
CONTINUOUS
 0
LINE
 8
WHITE
 10
.722999
 20
2.033999
 30
0.0000
 11
.758
 21
1.787999
 31
0.0000
 6
CONTINUOUS
 0
LINE
 8
WHITE
 10
.758
 20
1.787999
 30
0.0000
 11
.723999
 21
1.536999
 31
0.0000
 6
CONTINUOUS
 0
LINE
 8
WHITE
 10
.723999
 20
1.536999
 30
0.0000
 11
.718999
 21
1.447999
 31
0.0000
 6
CONTINUOUS
 0
LINE
 8
WHITE
 10
.718999
 20
1.447999
 30
0.0000
 11
.722
 21
1.353999
 31
0.0000
 6
CONTINUOUS
 0
LINE
 8
WHITE
 10
.722
 20
1.353999
 30
0.0000
 11
.787
 21
1.197
 31
0.0000
 6
CONTINUOUS
 0
LINE
 8
WHITE
 10
.787
 20
1.197
 30
0.0000
 11
.814
 21
1.108
 31
0.0000
 6
CONTINUOUS
 0
LINE
 8
WHITE
 10
.814
 20
1.108
 30
0.0000
 11
.832
 21
1.013
 31
0.0000
 6
CONTINUOUS
 0
LINE
 8
WHITE
 10
.832
 20
1.013
 30
0.0000
 11
.837
 21
.885999
 31
0.0000
 6
CONTINUOUS
 0
LINE
 8
WHITE
 10
.837
 20
.885999
 30
0.0000
 11
.801999
 21
.899999
 31
0.0000
 6
CONTINUOUS
 0
LINE
 8
WHITE
 10
.801999
 20
.899999
 30
0.0000
 11
.757
 21
.957
 31
0.0000
 6
CONTINUOUS
 0
LINE
 8
WHITE
 10
.757
 20
.957
 30
0.0000
 11
.737999
 21
1.019999
 31
0.0000
 6
CONTINUOUS
 0
LINE
 8
WHITE
 10
.737999
 20
1.019999
 30
0.0000
 11
.703
 21
1.074
 31
0.0000
 6
CONTINUOUS
 0
LINE
 8
WHITE
 10
.703
 20
1.074
 30
0.0000
 11
.694
 21
1.077999
 31
0.0000
 6
CONTINUOUS
 0
LINE
 8
WHITE
 10
.694
 20
1.077999
 30
0.0000
 11
.68
 21
.92
 31
0.0000
 6
CONTINUOUS
 0
LINE
 8
WHITE
 10
.68
 20
.92
 30
0.0000
 11
.665
 21
.892
 31
0.0000
 6
CONTINUOUS
 0
LINE
 8
WHITE
 10
.665
 20
.892
 30
0.0000
 11
.617999
 21
.919
 31
0.0000
 6
CONTINUOUS
 0
LINE
 8
WHITE
 10
.617999
 20
.919
 30
0.0000
 11
.591
 21
.963999
 31
0.0000
 6
CONTINUOUS
 0
LINE
 8
WHITE
 10
.591
 20
.963999
 30
0.0000
 11
.570999
 21
1.023
 31
0.0000
 6
CONTINUOUS
 0
LINE
 8
WHITE
 10
.570999
 20
1.023
 30
0.0000
 11
.546
 21
1.172999
 31
0.0000
 6
CONTINUOUS
 0
LINE
 8
WHITE
 10
.546
 20
1.172999
 30
0.0000
 11
.536
 21
1.348999
 31
0.0000
 6
CONTINUOUS
 0
LINE
 8
WHITE
 10
.536
 20
1.348999
 30
0.0000
 11
.529999
 21
1.705999
 31
0.0000
 6
CONTINUOUS
 0
LINE
 8
WHITE
 10
.529999
 20
1.705999
 30
0.0000
 11
.519999
 21
1.848
 31
0.0000
 6
CONTINUOUS
 0
LINE
 8
WHITE
 10
.519999
 20
1.848
 30
0.0000
 11
.495
 21
1.939
 31
0.0000
 6
CONTINUOUS
 0
LINE
 8
WHITE
 10
.495
 20
1.939
 30
0.0000
 11
.467999
 21
1.957999
 31
0.0000
 6
CONTINUOUS
 0
LINE
 8
WHITE
 10
.467999
 20
1.957999
 30
0.0000
 11
.442
 21
1.945
 31
0.0000
 6
CONTINUOUS
 0
LINE
 8
WHITE
 10
.442
 20
1.945
 30
0.0000
 11
.391999
 21
1.697999
 31
0.0000
 6
CONTINUOUS
 0
LINE
 8
WHITE
 10
.391999
 20
1.697999
 30
0.0000
 11
.368
 21
1.529999
 31
0.0000
 6
CONTINUOUS
 0
LINE
 8
WHITE
 10
.368
 20
1.529999
 30
0.0000
 11
.352999
 21
1.353
 31
0.0000
 6
CONTINUOUS
 0
LINE
 8
WHITE
 10
.352999
 20
1.353
 30
0.0000
 11
.331
 21
1.266
 31
0.0000
 6
CONTINUOUS
 0
LINE
 8
WHITE
 10
.331
 20
1.266
 30
0.0000
 11
.303
 21
1.105999
 31
0.0000
 6
CONTINUOUS
 0
LINE
 8
WHITE
 10
.303
 20
1.105999
 30
0.0000
 11
.293
 21
.959999
 31
0.0000
 6
CONTINUOUS
 0
LINE
 8
WHITE
 10
.293
 20
.959999
 30
0.0000
 11
.296999
 21
.819999
 31
0.0000
 6
CONTINUOUS
 0
LINE
 8
WHITE
 10
.296999
 20
.819999
 30
0.0000
 11
.321999
 21
.606999
 31
0.0000
 6
CONTINUOUS
 0
LINE
 8
WHITE
 10
.321999
 20
.606999
 30
0.0000
 11
.391
 21
.215
 31
0.0000
 6
CONTINUOUS
 0
ARC
 8
WHITE
 10
.430099
 20
.221599
 30
 0
 40
.039653
 50
189.5811
 51
237.8722
 6
CONTINUOUS
 0
LINE
 8
WHITE
 10
.409
 20
.187999
 30
0.0000
 11
.448
 21
.162
 31
0.0000
 6
CONTINUOUS
 0
LINE
 8
WHITE
 10
.448
 20
.162
 30
0.0000
 11
.493
 21
.115999
 31
0.0000
 6
CONTINUOUS
 0
LINE
 8
WHITE
 10
.493
 20
.115999
 30
0.0000
 11
.521
 21
.063
 31
0.0000
 6
CONTINUOUS
 0
LINE
 8
WHITE
 10
.521
 20
.063
 30
0.0000
 11
.517
 21
.014999
 31
0.0000
 6
CONTINUOUS
 0
LINE
 8
WHITE
 10
.517
 20
.014999
 30
0.0000
 11
.409
 21
-.004
 31
0.0000
 6
CONTINUOUS
 0
LINE
 8
WHITE
 10
.409
 20
-.004
 30
0.0000
 11
.266
 21
-.004
 31
0.0000
 6
CONTINUOUS
 0
LINE
 8
WHITE
 10
.266
 20
-.004
 30
0.0000
 11
.172999
 21
.032
 31
0.0000
 6
CONTINUOUS
 0
LINE
 8
WHITE
 10
.172999
 20
.032
 30
0.0000
 11
.109999
 21
.074
 31
0.0000
 6
CONTINUOUS
 0
ARC
 8
WHITE
 10
.1322
 20
.1069
 30
 0
 40
.039689
 50
171.155
 51
235.9896
 6
CONTINUOUS
 0
LINE
 8
WHITE
 10
.093
 20
.112999
 30
0.0000
 11
.107
 21
.204999
 31
0.0000
 6
CONTINUOUS
 0
ARC
 8
WHITE
 10
.066899
 20
.210099
 30
 0
 40
.040423
 50
352.7519
 51
49.81355
 6
CONTINUOUS
 0
LINE
 8
WHITE
 10
.093
 20
.240999
 30
0.0000
 11
.032999
 21
.293
 31
0.0000
 6
CONTINUOUS
 0
LINE
 8
WHITE
 10
.032999
 20
.293
 30
0.0000
 11
0
 21
.307
 31
0.0000
 6
CONTINUOUS
 0
LINE
 8
WHITE
 10
0
 20
.307
 30
0.0000
 11
-.004
 21
.368
 31
0.0000
 6
CONTINUOUS
 0
LINE
 8
WHITE
 10
-.004
 20
.368
 30
0.0000
 11
.021999
 21
.583
 31
0.0000
 6
CONTINUOUS
 0
LINE
 8
WHITE
 10
.021999
 20
.583
 30
0.0000
 11
.045
 21
.746999
 31
0.0000
 6
CONTINUOUS
 0
LINE
 8
WHITE
 10
.045
 20
.746999
 30
0.0000
 11
.035999
 21
.779999
 31
0.0000
 6
CONTINUOUS
 0
LINE
 8
WHITE
 10
.035999
 20
.779999
 30
0.0000
 11
.052
 21
.856999
 31
0.0000
 6
CONTINUOUS
 0
LINE
 8
WHITE
 10
.052
 20
.856999
 30
0.0000
 11
.074
 21
1.093
 31
0.0000
 6
CONTINUOUS
 0
LINE
 8
WHITE
 10
.074
 20
1.093
 30
0.0000
 11
.061999
 21
1.103
 31
0.0000
 6
CONTINUOUS
 0
LINE
 8
WHITE
 10
.061999
 20
1.103
 30
0.0000
 11
.097999
 21
1.231999
 31
0.0000
 6
CONTINUOUS
 0
LINE
 8
WHITE
 10
.097999
 20
1.231999
 30
0.0000
 11
.123
 21
1.383999
 31
0.0000
 6
CONTINUOUS
 0
LINE
 8
WHITE
 10
.123
 20
1.383999
 30
0.0000
 11
.138999
 21
1.554999
 31
0.0000
 6
CONTINUOUS
 0
LINE
 8
WHITE
 10
.138999
 20
1.554999
 30
0.0000
 11
.149
 21
1.827999
 31
0.0000
 6
CONTINUOUS
 0
LINE
 8
WHITE
 10
.149
 20
1.827999
 30
0.0000
 11
.144999
 21
2.098999
 31
0.0000
 6
CONTINUOUS
 0
LINE
 8
WHITE
 10
.144999
 20
2.098999
 30
0.0000
 11
.126
 21
2.411
 31
0.0000
 6
CONTINUOUS
 0
LINE
 8
WHITE
 10
.126
 20
2.411
 30
0.0000
 11
.114
 21
2.529999
 31
0.0000
 6
CONTINUOUS
 0
LINE
 8
WHITE
 10
.114
 20
2.529999
 30
0.0000
 11
.151999
 21
2.615999
 31
0.0000
 6
CONTINUOUS
 0
LINE
 8
WHITE
 10
.151999
 20
2.615999
 30
0.0000
 11
.207
 21
2.693
 31
0.0000
 6
CONTINUOUS
 0
LINE
 8
WHITE
 10
.207
 20
2.693
 30
0.0000
 11
.254999
 21
2.775
 31
0.0000
 6
CONTINUOUS
 0
LINE
 8
WHITE
 10
.254999
 20
2.775
 30
0.0000
 11
.268999
 21
2.844
 31
0.0000
 6
CONTINUOUS
 0
ARC
 8
WHITE
 10
.230199
 20
2.853
 30
 0
 40
.03983
 50
346.9407
 51
58.54312
 6
CONTINUOUS
 0
LINE
 8
WHITE
 10
.250999
 20
2.887
 30
0.0000
 11
.222
 21
2.904
 31
0.0000
 6
CONTINUOUS
 0
LINE
 8
WHITE
 10
.222
 20
2.904
 30
0.0000
 11
.182999
 21
2.993999
 31
0.0000
 6
CONTINUOUS
 0
LINE
 8
WHITE
 10
.182999
 20
2.993999
 30
0.0000
 11
.158
 21
3.127
 31
0.0000
 6
CONTINUOUS
 0
LINE
 8
WHITE
 10
.158
 20
3.127
 30
0.0000
 11
.144999
 21
3.292999
 31
0.0000
 6
CONTINUOUS
 0
LINE
 8
WHITE
 10
.144999
 20
3.292999
 30
0.0000
 11
.141
 21
3.479
 31
0.0000
 6
CONTINUOUS
 0
LINE
 8
WHITE
 10
.141
 20
3.479
 30
0.0000
 11
.146999
 21
3.770999
 31
0.0000
 6
CONTINUOUS
 0
LINE
 8
WHITE
 10
.146999
 20
3.770999
 30
0.0000
 11
.193
 21
4.473999
 31
0.0000
 6
CONTINUOUS
 0
LINE
 8
WHITE
 10
.193
 20
4.473999
 30
0.0000
 11
.208
 21
4.576
 31
0.0000
 6
CONTINUOUS
 0
LINE
 8
WHITE
 10
.208
 20
4.576
 30
0.0000
 11
.226999
 21
4.795
 31
0.0000
 6
CONTINUOUS
 0
LINE
 8
WHITE
 10
.226999
 20
4.795
 30
0.0000
 11
.259
 21
4.902999
 31
0.0000
 6
CONTINUOUS
 0
LINE
 8
WHITE
 10
.259
 20
4.902999
 30
0.0000
 11
.384
 21
5.177
 31
0.0000
 6
CONTINUOUS
 0
LINE
 8
WHITE
 10
.384
 20
5.177
 30
0.0000
 11
.418999
 21
5.232999
 31
0.0000
 6
CONTINUOUS
 0
LINE
 8
WHITE
 10
.418999
 20
5.232999
 30
0.0000
 11
.512
 21
5.337999
 31
0.0000
 6
CONTINUOUS
 0
LINE
 8
WHITE
 10
.512
 20
5.337999
 30
0.0000
 11
.629999
 21
5.434
 31
0.0000
 6
CONTINUOUS
 0
LINE
 8
WHITE
 10
.629999
 20
5.434
 30
0.0000
 11
.763999
 21
5.522999
 31
0.0000
 6
CONTINUOUS
 0
LINE
 8
WHITE
 10
.763999
 20
5.522999
 30
0.0000
 11
.908999
 21
5.603
 31
0.0000
 6
CONTINUOUS
 0
LINE
 8
WHITE
 10
.908999
 20
5.603
 30
0.0000
 11
1.129999
 21
5.706999
 31
0.0000
 6
CONTINUOUS
 0
LINE
 8
WHITE
 10
1.129999
 20
5.706999
 30
0.0000
 11
1.447999
 21
5.842
 31
0.0000
 6
CONTINUOUS
 0
LINE
 8
WHITE
 10
1.447999
 20
5.842
 30
0.0000
 11
1.654
 21
6.019
 31
0.0000
 6
CONTINUOUS
 0
LINE
 8
WHITE
 10
1.654
 20
6.019
 30
0.0000
 11
1.756999
 21
6.118999
 31
0.0000
 6
CONTINUOUS
 0
LINE
 8
WHITE
 10
1.756999
 20
6.118999
 30
0.0000
 11
1.84
 21
6.216
 31
0.0000
 6
CONTINUOUS
 0
LINE
 8
WHITE
 10
1.84
 20
6.216
 30
0.0000
 11
1.907999
 21
6.322
 31
0.0000
 6
CONTINUOUS
 0
LINE
 8
WHITE
 10
1.907999
 20
6.322
 30
0.0000
 11
1.965999
 21
6.449999
 31
0.0000
 6
CONTINUOUS
 0
LINE
 8
WHITE
 10
1.965999
 20
6.449999
 30
0.0000
 11
2.020999
 21
6.61
 31
0.0000
 6
CONTINUOUS
 0
LINE
 8
WHITE
 10
2.020999
 20
6.61
 30
0.0000
 11
2.049
 21
6.706999
 31
0.0000
 6
CONTINUOUS
 0
LINE
 8
WHITE
 10
2.049
 20
6.706999
 30
0.0000
 11
2.104
 21
6.771999
 31
0.0000
 6
CONTINUOUS
 0
LINE
 8
WHITE
 10
2.104
 20
6.771999
 30
0.0000
 11
2.137
 21
6.844999
 31
0.0000
 6
CONTINUOUS
 0
ARC
 8
WHITE
 10
2.174
 20
6.828999
 30
 0
 40
.040311
 50
97.12518
 51
156.6148
 6
CONTINUOUS
 0
LINE
 8
WHITE
 10
2.168999
 20
6.868999
 30
0.0000
 11
2.177999
 21
6.869999
 31
0.0000
 6
CONTINUOUS
 0
ARC
 8
WHITE
 10
2.172999
 20
6.909999
 30
 0
 40
.040311
 50
277.125
 51
352.8755
 6
CONTINUOUS
 0
LINE
 8
WHITE
 10
2.213
 20
6.905
 30
0.0000
 11
2.214999
 21
6.925
 31
0.0000
 6
CONTINUOUS
 0
ARC
 8
WHITE
 10
2.254899
 20
6.9204
 30
 0
 40
.040164
 50
99.88425
 51
173.4235
 6
CONTINUOUS
 0
LINE
 8
WHITE
 10
2.247999
 20
6.96
 30
0.0000
 11
2.296
 21
6.967999
 31
0.0000
 6
CONTINUOUS
 0
ARC
 8
WHITE
 10
2.289
 20
7.0078
 30
 0
 40
.04041
 50
279.9751
 51
340.0409
 6
CONTINUOUS
 0
LINE
 8
WHITE
 10
2.326999
 20
6.993999
 30
0.0000
 11
2.341
 21
7.032999
 31
0.0000
 6
CONTINUOUS
 0
ARC
 8
WHITE
 10
2.3788
 20
7.018599
 30
 0
 40
.040449
 50
108.4352
 51
159.1455
 6
CONTINUOUS
 0
LINE
 8
WHITE
 10
2.365999
 20
7.057
 30
0.0000
 11
2.413
 21
7.073999
 31
0.0000
 6
CONTINUOUS
 0
ARC
 8
WHITE
 10
2.4004
 20
7.112099
 30
 0
 40
.040129
 50
288.2995
 51
343.9568
 6
CONTINUOUS
 0
LINE
 8
WHITE
 10
2.438999
 20
7.100999
 30
0.0000
 11
2.444999
 21
7.125
 31
0.0000
 6
CONTINUOUS
 0
ARC
 8
WHITE
 10
2.484099
 20
7.1153
 30
 0
 40
.040285
 50
110.506
 51
166.0672
 6
CONTINUOUS
 0
LINE
 8
WHITE
 10
2.47
 20
7.152999
 30
0.0000
 11
2.497999
 21
7.163
 31
0.0000
 6
CONTINUOUS
 0
ARC
 8
WHITE
 10
2.484999
 20
7.201
 30
 0
 40
.040162
 50
288.8861
 51
345.6183
 6
CONTINUOUS
 0
LINE
 8
WHITE
 10
2.523999
 20
7.190999
 30
0.0000
 11
2.529999
 21
7.216
 31
0.0000
 6
CONTINUOUS
 0
ARC
 8
WHITE
 10
2.569099
 20
7.206399
 30
 0
 40
.040261
 50
100.1646
 51
166.2054
 6
CONTINUOUS
 0
LINE
 8
WHITE
 10
2.562
 20
7.245999
 30
0.0000
 11
2.581
 21
7.25
 31
0.0000
 6
CONTINUOUS
 0
ARC
 8
WHITE
 10
2.573199
 20
7.289
 30
 0
 40
.039772
 50
281.3099
 51
346.9409
 6
CONTINUOUS
 0
LINE
 8
WHITE
 10
2.611999
 20
7.28
 30
0.0000
 11
2.617
 21
7.303999
 31
0.0000
 6
CONTINUOUS
 0
ARC
 8
WHITE
 10
2.656
 20
7.295199
 30
 0
 40
.03998
 50
108.9791
 51
167.2847
 6
CONTINUOUS
 0
LINE
 8
WHITE
 10
2.642999
 20
7.333
 30
0.0000
 11
2.677999
 21
7.344999
 31
0.0000
 6
CONTINUOUS
 0
ARC
 8
WHITE
 10
2.664299
 20
7.382799
 30
 0
 40
.040206
 50
289.9222
 51
344.4081
 6
CONTINUOUS
 0
LINE
 8
WHITE
 10
2.703
 20
7.372
 30
0.0000
 11
2.717
 21
7.421
 31
0.0000
 6
CONTINUOUS
 0
ARC
 8
WHITE
 10
2.755
 20
7.409999
 30
 0
 40
.03956
 50
110.7257
 51
163.8557
 6
CONTINUOUS
 0
LINE
 8
WHITE
 10
2.740999
 20
7.447
 30
0.0000
 11
2.775
 21
7.460999
 31
0.0000
 6
CONTINUOUS
 0
ARC
 8
WHITE
 10
2.7599
 20
7.4979
 30
 0
 40
.03987
 50
292.2551
 51
348.577
 6
CONTINUOUS
 0
LINE
 8
WHITE
 10
2.799
 20
7.489999
 30
0.0000
 11
2.809999
 21
7.540999
 31
0.0000
 6
CONTINUOUS
 0
ARC
 8
WHITE
 10
2.848999
 20
7.532999
 30
 0
 40
.039812
 50
115.2778
 51
168.4078
 6
CONTINUOUS
 0
LINE
 8
WHITE
 10
2.832
 20
7.568999
 30
0.0000
 11
2.864
 21
7.583
 31
0.0000
 6
CONTINUOUS
 0
ARC
 8
WHITE
 10
2.8472
 20
7.6191
 30
 0
 40
.039817
 50
294.9561
 51
358.4167
 6
CONTINUOUS
 0
LINE
 8
WHITE
 10
2.887
 20
7.618
 30
0.0000
 11
2.888999
 21
7.662
 31
0.0000
 6
CONTINUOUS
 0
ARC
 8
WHITE
 10
2.928999
 20
7.6595
 30
 0
 40
.040078
 50
110.4722
 51
176.4237
 6
CONTINUOUS
 0
LINE
 8
WHITE
 10
2.914999
 20
7.697
 30
0.0000
 11
2.943
 21
7.708
 31
0.0000
 6
CONTINUOUS
 0
ARC
 8
WHITE
 10
2.9286
 20
7.7449
 30
 0
 40
.03961
 50
291.3179
 51
354.3469
 6
CONTINUOUS
 0
LINE
 8
WHITE
 10
2.967999
 20
7.741
 30
0.0000
 11
2.973999
 21
7.784999
 31
0.0000
 6
CONTINUOUS
 0
ARC
 8
WHITE
 10
3.0141
 20
7.7806
 30
 0
 40
.04034
 50
121.5239
 51
173.7382
 6
CONTINUOUS
 0
LINE
 8
WHITE
 10
2.993
 20
7.815
 30
0.0000
 11
3.015
 21
7.828
 31
0.0000
 6
CONTINUOUS
 0
ARC
 8
WHITE
 10
2.994
 20
7.861999
 30
 0
 40
.039962
 50
301.7014
 51
358.568
 6
CONTINUOUS
 0
LINE
 8
WHITE
 10
3.033999
 20
7.861
 30
0.0000
 11
3.036
 21
7.896999
 31
0.0000
 6
CONTINUOUS
 0
ARC
 8
WHITE
 10
3.075999
 20
7.896299
 30
 0
 40
.040006
 50
125.1211
 51
178.9974
 6
CONTINUOUS
 0
LINE
 8
WHITE
 10
3.052999
 20
7.928999
 30
0.0000
 11
3.065
 21
7.936999
 31
0.0000
 6
CONTINUOUS
 0
ARC
 8
WHITE
 10
3.043499
 20
7.970299
 30
 0
 40
.039637
 50
302.8481
 51
14.14164
 6
CONTINUOUS
 0
LINE
 8
WHITE
 10
3.082
 20
7.98
 30
0.0000
 11
3.075
 21
8.005999
 31
0.0000
 6
CONTINUOUS
 0
ARC
 8
WHITE
 10
3.114099
 20
8.015699
 30
 0
 40
.040285
 50
121.5976
 51
193.9328
 6
CONTINUOUS
 0
LINE
 8
WHITE
 10
3.092999
 20
8.05
 30
0.0000
 11
3.134999
 21
8.074999
 31
0.0000
 6
CONTINUOUS
 0
ARC
 8
WHITE
 10
3.115
 20
8.1096
 30
 0
 40
.039964
 50
300.0294
 51
.572351
 6
CONTINUOUS
 0
LINE
 8
WHITE
 10
3.154999
 20
8.109999
 30
0.0000
 11
3.154
 21
8.166
 31
0.0000
 6
CONTINUOUS
 0
ARC
 8
WHITE
 10
3.194
 20
8.166399
 30
 0
 40
.040001
 50
120.0292
 51
180.5729
 6
CONTINUOUS
 0
LINE
 8
WHITE
 10
3.174
 20
8.201
 30
0.0000
 11
3.207
 21
8.220999
 31
0.0000
 6
CONTINUOUS
 0
ARC
 8
WHITE
 10
3.187099
 20
8.256099
 30
 0
 40
.040348
 50
299.5511
 51
8.41188
 6
CONTINUOUS
 0
LINE
 8
WHITE
 10
3.226999
 20
8.262
 30
0.0000
 11
3.223
 21
8.286
 31
0.0000
 6
CONTINUOUS
 0
ARC
 8
WHITE
 10
3.2631
 20
8.291299
 30
 0
 40
.040448
 50
118.1477
 51
187.5291
 6
CONTINUOUS
 0
LINE
 8
WHITE
 10
3.243999
 20
8.326999
 30
0.0000
 11
3.263999
 21
8.338
 31
0.0000
 6
CONTINUOUS
 0
ARC
 8
WHITE
 10
3.244299
 20
8.3726
 30
 0
 40
.039815
 50
299.6556
 51
4.894778
 6
CONTINUOUS
 0
LINE
 8
WHITE
 10
3.283999
 20
8.376
 30
0.0000
 11
3.282
 21
8.407999
 31
0.0000
 6
CONTINUOUS
 0
ARC
 8
WHITE
 10
3.3221
 20
8.411399
 30
 0
 40
.040243
 50
130.4619
 51
184.8464
 6
CONTINUOUS
 0
LINE
 8
WHITE
 10
3.296
 20
8.442
 30
0.0000
 11
3.332999
 21
8.472999
 31
0.0000
 6
CONTINUOUS
 0
ARC
 8
WHITE
 10
3.3064
 20
8.503499
 30
 0
 40
.040469
 50
311.0927
 51
12.11469
 6
CONTINUOUS
 0
LINE
 8
WHITE
 10
3.345999
 20
8.512
 30
0.0000
 11
3.341
 21
8.536
 31
0.0000
 6
CONTINUOUS
 0
ARC
 8
WHITE
 10
3.379899
 20
8.5444
 30
 0
 40
.039796
 50
125.0866
 51
192.1853
 6
CONTINUOUS
 0
LINE
 8
WHITE
 10
3.357
 20
8.576999
 30
0.0000
 11
3.404999
 21
8.609999
 31
0.0000
 6
CONTINUOUS
 0
LINE
 8
WHITE
 10
3.404999
 20
8.609999
 30
0.0000
 11
3.401
 21
8.666999
 31
0.0000
 6
CONTINUOUS
 0
LINE
 8
WHITE
 10
3.401
 20
8.666999
 30
0.0000
 11
3.437
 21
8.704999
 31
0.0000
 6
CONTINUOUS
 0
ARC
 8
WHITE
 10
3.4081
 20
8.733099
 30
 0
 40
.040309
 50
315.8041
 51
8.41193
 6
CONTINUOUS
 0
LINE
 8
WHITE
 10
3.447999
 20
8.739
 30
0.0000
 11
3.444
 21
8.762
 31
0.0000
 6
CONTINUOUS
 0
ARC
 8
WHITE
 10
3.483099
 20
8.7685
 30
 0
 40
.039636
 50
127.4188
 51
189.4386
 6
CONTINUOUS
 0
LINE
 8
WHITE
 10
3.459
 20
8.8
 30
0.0000
 11
3.480999
 21
8.817999
 31
0.0000
 6
CONTINUOUS
 0
ARC
 8
WHITE
 10
3.456399
 20
8.849399
 30
 0
 40
.039888
 50
308.0765
 51
6.626601
 6
CONTINUOUS
 0
LINE
 8
WHITE
 10
3.496
 20
8.854
 30
0.0000
 11
3.493
 21
8.880999
 31
0.0000
 6
CONTINUOUS
 0
ARC
 8
WHITE
 10
3.5331
 20
8.885199
 30
 0
 40
.040319
 50
138.3192
 51
185.9792
 6
CONTINUOUS
 0
LINE
 8
WHITE
 10
3.503
 20
8.911999
 30
0.0000
 11
3.555999
 21
8.972
 31
0.0000
 6
CONTINUOUS
 0
LINE
 8
WHITE
 10
3.555999
 20
8.972
 30
0.0000
 11
3.562999
 21
9.059
 31
0.0000
 6
CONTINUOUS
 0
LINE
 8
WHITE
 10
3.562999
 20
9.059
 30
0.0000
 11
3.615
 21
9.135
 31
0.0000
 6
CONTINUOUS
 0
ARC
 8
WHITE
 10
3.5815
 20
9.157299
 30
 0
 40
.040243
 50
326.3494
 51
16.90345
 6
CONTINUOUS
 0
LINE
 8
WHITE
 10
3.619999
 20
9.168999
 30
0.0000
 11
3.602999
 21
9.225
 31
0.0000
 6
CONTINUOUS
 0
ARC
 8
WHITE
 10
3.640899
 20
9.2374
 30
 0
 40
.039876
 50
125.0858
 51
198.1169
 6
CONTINUOUS
 0
LINE
 8
WHITE
 10
3.618
 20
9.27
 30
0.0000
 11
3.664
 21
9.303
 31
0.0000
 6
CONTINUOUS
 0
ARC
 8
WHITE
 10
3.6407
 20
9.3358
 30
 0
 40
.040233
 50
305.3887
 51
25.35237
 6
CONTINUOUS
 0
LINE
 8
WHITE
 10
3.677
 20
9.352999
 30
0.0000
 11
3.664999
 21
9.378999
 31
0.0000
 6
CONTINUOUS
 0
ARC
 8
WHITE
 10
3.7009
 20
9.3961
 30
 0
 40
.039764
 50
121.6544
 51
205.4695
 6
CONTINUOUS
 0
LINE
 8
WHITE
 10
3.68
 20
9.43
 30
0.0000
 11
3.704999
 21
9.444999
 31
0.0000
 6
CONTINUOUS
 0
ARC
 8
WHITE
 10
3.6847
 20
9.479399
 30
 0
 40
.039943
 50
300.5455
 51
30.98864
 6
CONTINUOUS
 0
LINE
 8
WHITE
 10
3.719
 20
9.5
 30
0.0000
 11
3.704999
 21
9.522999
 31
0.0000
 6
CONTINUOUS
 0
ARC
 8
WHITE
 10
3.739099
 20
9.543799
 30
 0
 40
.039943
 50
130.8338
 51
211.382
 6
CONTINUOUS
 0
LINE
 8
WHITE
 10
3.713
 20
9.574
 30
0.0000
 11
3.746
 21
9.602999
 31
0.0000
 6
CONTINUOUS
 0
ARC
 8
WHITE
 10
3.7192
 20
9.633299
 30
 0
 40
.040451
 50
311.4924
 51
53.95236
 6
CONTINUOUS
 0
LINE
 8
WHITE
 10
3.743
 20
9.666
 30
0.0000
 11
3.729
 21
9.675999
 31
0.0000
 6
CONTINUOUS
 0
LINE
 8
WHITE
 10
3.729
 20
9.675999
 30
0.0000
 11
3.828999
 21
9.779
 31
0.0000
 6
CONTINUOUS
 0
ARC
 8
WHITE
 10
3.8011
 20
9.8071
 30
 0
 40
.039598
 50
314.7954
 51
40.8996
 6
CONTINUOUS
 0
LINE
 8
WHITE
 10
3.831
 20
9.833
 30
0.0000
 11
3.805
 21
9.864
 31
0.0000
 6
CONTINUOUS
 0
LINE
 8
WHITE
 10
3.805
 20
9.864
 30
0.0000
 11
3.924999
 21
9.93
 31
0.0000
 6
CONTINUOUS
 0
LINE
 8
WHITE
 10
3.924999
 20
9.93
 30
0.0000
 11
3.979
 21
10.013
 31
0.0000
 6
CONTINUOUS
 0
LINE
 8
WHITE
 10
3.979
 20
10.013
 30
0.0000
 11
4.100999
 21
10.168
 31
0.0000
 6
CONTINUOUS
 0
ARC
 8
WHITE
 10
4.207699
 20
10.5481
 30
 0
 40
.394792
 50
199.7017
 51
254.3197
 6
CONTINUOUS
 0
LINE
 8
WHITE
 10
3.835999
 20
10.415
 30
0.0000
 11
3.828
 21
10.46
 31
0.0000
 6
CONTINUOUS
 0
LINE
 8
WHITE
 10
3.828
 20
10.46
 30
0.0000
 11
3.834
 21
10.494
 31
0.0000
 6
CONTINUOUS
 0
LINE
 8
WHITE
 10
3.834
 20
10.494
 30
0.0000
 11
3.842
 21
10.5
 31
0.0000
 6
CONTINUOUS
 0
ENDSEC
 0
EOF
